  0
SECTION
  2
HEADER
  9
$ACADVER
  1
AC1024
  9
$ACADMAINTVER
 70
     6
  9
$DWGCODEPAGE
  3
UNDEFINED
  9
$INSBASE
 10
0.0
 20
0.0
 30
0.0
  9
$EXTMIN
 10
1.000000000000000E+20
 20
1.000000000000000E+20
 30
1.000000000000000E+20
  9
$EXTMAX
 10
-1.000000000000000E+20
 20
-1.000000000000000E+20
 30
-1.000000000000000E+20
  9
$LIMMIN
 10
0.0
 20
0.0
  9
$LIMMAX
 10
12.0
 20
9.0
  9
$ORTHOMODE
 70
     0
  9
$REGENMODE
 70
     1
  9
$FILLMODE
 70
     1
  9
$QTEXTMODE
 70
     0
  9
$MIRRTEXT
 70
     1
  9
$LTSCALE
 40
1.0
  9
$ATTMODE
 70
     1
  9
$TEXTSIZE
 40
0.2
  9
$TRACEWID
 40
0.05
  9
$TEXTSTYLE
  7
Standard
  9
$CLAYER
  8
0
  9
$CELTYPE
  6
ByLayer
  9
$CECOLOR
 62
   256
  9
$CELTSCALE
 40
1.0
  9
$DISPSILH
 70
     0
  9
$DIMSCALE
 40
1.0
  9
$DIMASZ
 40
0.18
  9
$DIMEXO
 40
0.0625
  9
$DIMDLI
 40
0.38
  9
$DIMRND
 40
0.0
  9
$DIMDLE
 40
0.0
  9
$DIMEXE
 40
0.18
  9
$DIMTP
 40
0.0
  9
$DIMTM
 40
0.0
  9
$DIMTXT
 40
0.18
  9
$DIMCEN
 40
0.09
  9
$DIMTSZ
 40
0.0
  9
$DIMTOL
 70
     0
  9
$DIMLIM
 70
     0
  9
$DIMTIH
 70
     1
  9
$DIMTOH
 70
     1
  9
$DIMSE1
 70
     0
  9
$DIMSE2
 70
     0
  9
$DIMTAD
 70
     0
  9
$DIMZIN
 70
     0
  9
$DIMBLK
  1

  9
$DIMASO
 70
     1
  9
$DIMSHO
 70
     1
  9
$DIMPOST
  1

  9
$DIMAPOST
  1

  9
$DIMALT
 70
     0
  9
$DIMALTD
 70
     2
  9
$DIMALTF
 40
25.4
  9
$DIMLFAC
 40
1.0
  9
$DIMTOFL
 70
     0
  9
$DIMTVP
 40
0.0
  9
$DIMTIX
 70
     0
  9
$DIMSOXD
 70
     0
  9
$DIMSAH
 70
     0
  9
$DIMBLK1
  1

  9
$DIMBLK2
  1

  9
$DIMSTYLE
  2
Standard
  9
$DIMCLRD
 70
     0
  9
$DIMCLRE
 70
     0
  9
$DIMCLRT
 70
     0
  9
$DIMTFAC
 40
1.0
  9
$DIMGAP
 40
0.09
  9
$DIMJUST
 70
     0
  9
$DIMSD1
 70
     0
  9
$DIMSD2
 70
     0
  9
$DIMTOLJ
 70
     1
  9
$DIMTZIN
 70
     0
  9
$DIMALTZ
 70
     0
  9
$DIMALTTZ
 70
     0
  9
$DIMUPT
 70
     0
  9
$DIMDEC
 70
     4
  9
$DIMTDEC
 70
     4
  9
$DIMALTU
 70
     2
  9
$DIMALTTD
 70
     2
  9
$DIMTXSTY
  7
Standard
  9
$DIMAUNIT
 70
     0
  9
$DIMADEC
 70
     0
  9
$DIMALTRND
 40
0.0
  9
$DIMAZIN
 70
     0
  9
$DIMDSEP
 70
    46
  9
$DIMATFIT
 70
     3
  9
$DIMFRAC
 70
     0
  9
$DIMLDRBLK
  1

  9
$DIMLUNIT
 70
     2
  9
$DIMLWD
 70
    -2
  9
$DIMLWE
 70
    -2
  9
$DIMTMOVE
 70
     0
  9
$DIMFXL
 40
1.0
  9
$DIMFXLON
 70
     0
  9
$DIMJOGANG
 40
0.7853981633974483
  9
$DIMTFILL
 70
     0
  9
$DIMTFILLCLR
 70
     0
  9
$DIMARCSYM
 70
     0
  9
$DIMLTYPE
  6

  9
$DIMLTEX1
  6

  9
$DIMLTEX2
  6

  9
$DIMTXTDIRECTION
 70
     0
  9
$LUNITS
 70
     2
  9
$LUPREC
 70
     4
  9
$SKETCHINC
 40
0.1
  9
$FILLETRAD
 40
0.5
  9
$AUNITS
 70
     0
  9
$AUPREC
 70
     0
  9
$MENU
  1
.
  9
$ELEVATION
 40
0.0
  9
$PELEVATION
 40
0.0
  9
$THICKNESS
 40
0.0
  9
$LIMCHECK
 70
     0
  9
$CHAMFERA
 40
0.5
  9
$CHAMFERB
 40
0.5
  9
$CHAMFERC
 40
1.0
  9
$CHAMFERD
 40
0.0
  9
$SKPOLY
 70
     0
  9
$TDCREATE
 40
2457917.584027778
  9
$TDUCREATE
 40
2457917.209027778
  9
$TDUPDATE
 40
2457917.584039352
  9
$TDUUPDATE
 40
2457917.209039352
  9
$TDINDWG
 40
0.0000000116
  9
$TDUSRTIMER
 40
0.0000000116
  9
$USRTIMER
 70
     1
  9
$ANGBASE
 50
0.0
  9
$ANGDIR
 70
     0
  9
$PDMODE
 70
     0
  9
$PDSIZE
 40
0.0
  9
$PLINEWID
 40
0.0
  9
$SPLFRAME
 70
     0
  9
$SPLINETYPE
 70
     6
  9
$SPLINESEGS
 70
     8
  9
$HANDSEED
  5
111
  9
$SURFTAB1
 70
     6
  9
$SURFTAB2
 70
     6
  9
$SURFTYPE
 70
     6
  9
$SURFU
 70
     6
  9
$SURFV
 70
     6
  9
$UCSBASE
  2

  9
$UCSNAME
  2

  9
$UCSORG
 10
0.0
 20
0.0
 30
0.0
  9
$UCSXDIR
 10
1.0
 20
0.0
 30
0.0
  9
$UCSYDIR
 10
0.0
 20
1.0
 30
0.0
  9
$UCSORTHOREF
  2

  9
$UCSORTHOVIEW
 70
     0
  9
$UCSORGTOP
 10
0.0
 20
0.0
 30
0.0
  9
$UCSORGBOTTOM
 10
0.0
 20
0.0
 30
0.0
  9
$UCSORGLEFT
 10
0.0
 20
0.0
 30
0.0
  9
$UCSORGRIGHT
 10
0.0
 20
0.0
 30
0.0
  9
$UCSORGFRONT
 10
0.0
 20
0.0
 30
0.0
  9
$UCSORGBACK
 10
0.0
 20
0.0
 30
0.0
  9
$PUCSBASE
  2

  9
$PUCSNAME
  2

  9
$PUCSORG
 10
0.0
 20
0.0
 30
0.0
  9
$PUCSXDIR
 10
1.0
 20
0.0
 30
0.0
  9
$PUCSYDIR
 10
0.0
 20
1.0
 30
0.0
  9
$PUCSORTHOREF
  2

  9
$PUCSORTHOVIEW
 70
     0
  9
$PUCSORGTOP
 10
0.0
 20
0.0
 30
0.0
  9
$PUCSORGBOTTOM
 10
0.0
 20
0.0
 30
0.0
  9
$PUCSORGLEFT
 10
0.0
 20
0.0
 30
0.0
  9
$PUCSORGRIGHT
 10
0.0
 20
0.0
 30
0.0
  9
$PUCSORGFRONT
 10
0.0
 20
0.0
 30
0.0
  9
$PUCSORGBACK
 10
0.0
 20
0.0
 30
0.0
  9
$USERI1
 70
     0
  9
$USERI2
 70
     0
  9
$USERI3
 70
     0
  9
$USERI4
 70
     0
  9
$USERI5
 70
     0
  9
$USERR1
 40
0.0
  9
$USERR2
 40
0.0
  9
$USERR3
 40
0.0
  9
$USERR4
 40
0.0
  9
$USERR5
 40
0.0
  9
$WORLDVIEW
 70
     1
  9
$SHADEDGE
 70
     3
  9
$SHADEDIF
 70
    70
  9
$TILEMODE
 70
     1
  9
$MAXACTVP
 70
    64
  9
$PINSBASE
 10
0.0
 20
0.0
 30
0.0
  9
$PLIMCHECK
 70
     0
  9
$PEXTMIN
 10
1.000000000000000E+20
 20
1.000000000000000E+20
 30
1.000000000000000E+20
  9
$PEXTMAX
 10
-1.000000000000000E+20
 20
-1.000000000000000E+20
 30
-1.000000000000000E+20
  9
$PLIMMIN
 10
0.0
 20
0.0
  9
$PLIMMAX
 10
12.0
 20
9.0
  9
$UNITMODE
 70
     0
  9
$VISRETAIN
 70
     1
  9
$PLINEGEN
 70
     0
  9
$PSLTSCALE
 70
     1
  9
$TREEDEPTH
 70
  3020
  9
$CMLSTYLE
  2
Standard
  9
$CMLJUST
 70
     0
  9
$CMLSCALE
 40
1.0
  9
$PROXYGRAPHICS
 70
     1
  9
$MEASUREMENT
 70
     0
  9
$CELWEIGHT
370
    -1
  9
$ENDCAPS
280
     0
  9
$JOINSTYLE
280
     0
  9
$LWDISPLAY
290
     1
  9
$INSUNITS
 70
     1
  9
$HYPERLINKBASE
  1

  9
$STYLESHEET
  1

  9
$XEDIT
290
     1
  9
$CEPSNTYPE
380
     0
  9
$PSTYLEMODE
290
     1
  9
$FINGERPRINTGUID
  2
{54FF040A-AE05-F1A0-D9DB-A76C134E9B6C}
  9
$VERSIONGUID
  2
{FAEB1C32-E019-11D5-929B-00C0DF256EC4}
  9
$EXTNAMES
290
     1
  9
$PSVPSCALE
 40
0.0
  9
$OLESTARTUP
290
     0
  9
$SORTENTS
280
   127
  9
$INDEXCTL
280
     0
  9
$HIDETEXT
280
     1
  9
$XCLIPFRAME
280
     2
  9
$HALOGAP
280
     0
  9
$OBSCOLOR
 70
   257
  9
$OBSLTYPE
280
     0
  9
$INTERSECTIONDISPLAY
280
     0
  9
$INTERSECTIONCOLOR
 70
   257
  9
$DIMASSOC
280
     2
  9
$PROJECTNAME
  1

  9
$CAMERADISPLAY
290
     0
  9
$LENSLENGTH
 40
50.0
  9
$CAMERAHEIGHT
 40
0.0
  9
$STEPSPERSEC
 40
2.0
  9
$STEPSIZE
 40
6.0
  9
$3DDWFPREC
 40
2.0
  9
$PSOLWIDTH
 40
0.25
  9
$PSOLHEIGHT
 40
4.0
  9
$LOFTANG1
 40
1.570796326794897
  9
$LOFTANG2
 40
1.570796326794897
  9
$LOFTMAG1
 40
0.0
  9
$LOFTMAG2
 40
0.0
  9
$LOFTPARAM
 70
     7
  9
$LOFTNORMALS
280
     1
  9
$LATITUDE
 40
37.795
  9
$LONGITUDE
 40
-122.394
  9
$NORTHDIRECTION
 40
0.0
  9
$TIMEZONE
 70
 -8000
  9
$LIGHTGLYPHDISPLAY
280
     1
  9
$TILEMODELIGHTSYNCH
280
     1
  9
$CMATERIAL
347
3C
  9
$SOLIDHIST
280
     1
  9
$SHOWHIST
280
     1
  9
$DWFFRAME
280
     2
  9
$DGNFRAME
280
     2
  9
$REALWORLDSCALE
290
     1
  9
$INTERFERECOLOR
 62
   256
  9
$CSHADOW
280
     0
  9
$SHADOWPLANELOCATION
 40
0.0
  0
ENDSEC
  0
SECTION
  2
CLASSES
  0
CLASS
  1
ACDBDICTIONARYWDFLT
  2
AcDbDictionaryWithDefault
  3
ObjectDBX Classes
 90
        0
 91
        4
280
     0
281
     0
  0
CLASS
  1
VISUALSTYLE
  2
AcDbVisualStyle
  3
ObjectDBX Classes
 90
     4095
 91
        4
280
     0
281
     0
  0
CLASS
  1
MATERIAL
  2
AcDbMaterial
  3
ObjectDBX Classes
 90
     1153
 91
        4
280
     0
281
     0
  0
CLASS
  1
SUN
  2
AcDbSun
  3
SCENEOE
 90
     1024
 91
        4
280
     0
281
     0
  0
ENDSEC
  0
SECTION
  2
TABLES
  0
TABLE
  2
VPORT
  5
8
330
0
100
AcDbSymbolTable
 70
     1
  0
VPORT
  5
29
330
8
100
AcDbSymbolTableRecord
100
AcDbViewportTableRecord
  2
*Active
 70
     0
 10
0.0
 20
0.0
 11
1.0
 21
1.0
 12
0.0
 22
0.0
 13
0.0
 23
0.0
 14
0.5
 24
0.5
 15
0.5
 25
0.5
 16
0.0
 26
0.0
 36
1.0
 17
91.00082462281999
 27
-128.4993055234307
 37
0.0
 40
256.9986110468615
 41
0.7081814508812795
 42
50.0
 43
0.0
 44
0.0
 50
0.0
 51
0.0
 71
     0
 72
   100
 73
     1
 74
     3
 75
     0
 76
     0
 77
     0
 78
     0
281
     0
 65
     1
110
0.0
120
0.0
130
0.0
111
1.0
121
0.0
131
0.0
112
0.0
122
1.0
132
0.0
 79
     0
146
0.0
 60
     3
 61
     5
292
     1
282
     1
141
0.0
142
0.0
 63
   250
361
3F
  0
ENDTAB
  0
TABLE
  2
LTYPE
  5
5
330
0
100
AcDbSymbolTable
 70
     1
  0
LTYPE
  5
14
330
5
100
AcDbSymbolTableRecord
100
AcDbLinetypeTableRecord
  2
ByBlock
 70
     0
  3

 72
    65
 73
     0
 40
0.0
  0
LTYPE
  5
15
330
5
100
AcDbSymbolTableRecord
100
AcDbLinetypeTableRecord
  2
ByLayer
 70
     0
  3

 72
    65
 73
     0
 40
0.0
  0
LTYPE
  5
16
330
5
100
AcDbSymbolTableRecord
100
AcDbLinetypeTableRecord
  2
Continuous
 70
     0
  3
Solid line
 72
    65
 73
     0
 40
0.0
  0
ENDTAB
  0
TABLE
  2
LAYER
  5
2
330
0
100
AcDbSymbolTable
 70
     2
  0
LAYER
  5
10
330
2
100
AcDbSymbolTableRecord
100
AcDbLayerTableRecord
  2
0
 70
     0
 62
     7
  6
Continuous
370
    -3
390
F
347
3E
  0
LAYER
  5
40
330
2
100
AcDbSymbolTableRecord
100
AcDbLayerTableRecord
  2
_U+30EC_U+30A4_U+30E4_U+30FC 1
 70
     0
 62
     7
  6
Continuous
370
    -3
390
F
347
3E
  0
ENDTAB
  0
TABLE
  2
STYLE
  5
3
330
0
100
AcDbSymbolTable
 70
     1
  0
STYLE
  5
11
330
3
100
AcDbSymbolTableRecord
100
AcDbTextStyleTableRecord
  2
Standard
 70
     0
 40
0.0
 41
1.0
 50
0.0
 71
     0
 42
0.2
  3
txt
  4

  0
ENDTAB
  0
TABLE
  2
VIEW
  5
6
330
0
100
AcDbSymbolTable
 70
     0
  0
ENDTAB
  0
TABLE
  2
UCS
  5
7
330
0
100
AcDbSymbolTable
 70
     0
  0
ENDTAB
  0
TABLE
  2
APPID
  5
9
330
0
100
AcDbSymbolTable
 70
     1
  0
APPID
  5
12
330
9
100
AcDbSymbolTableRecord
100
AcDbRegAppTableRecord
  2
ACAD
 70
     0
  0
ENDTAB
  0
TABLE
  2
DIMSTYLE
  5
A
330
0
100
AcDbSymbolTable
 70
     1
100
AcDbDimStyleTable
  0
DIMSTYLE
105
27
330
A
100
AcDbSymbolTableRecord
100
AcDbDimStyleTableRecord
  2
Standard
 70
     0
178
     0
340
11
  0
ENDTAB
  0
TABLE
  2
BLOCK_RECORD
  5
1
330
0
100
AcDbSymbolTable
 70
     6
  0
BLOCK_RECORD
  5
1F
330
1
100
AcDbSymbolTableRecord
100
AcDbBlockTableRecord
  2
*Model_Space
340
22
 70
     0
280
     1
281
     0
  0
BLOCK_RECORD
  5
1B
330
1
100
AcDbSymbolTableRecord
100
AcDbBlockTableRecord
  2
*Paper_Space
340
1E
 70
     0
280
     1
281
     0
  0
BLOCK_RECORD
  5
23
330
1
100
AcDbSymbolTableRecord
100
AcDbBlockTableRecord
  2
*Paper_Space0
340
26
 70
     0
280
     1
281
     0
  0
BLOCK_RECORD
  5
73
330
1
100
AcDbSymbolTableRecord
100
AcDbBlockTableRecord
  2
block 2
340
0
102
{BLKREFS
331
74
102
}
 70
     0
280
     1
281
     0
  0
BLOCK_RECORD
  5
8F
330
1
100
AcDbSymbolTableRecord
100
AcDbBlockTableRecord
  2
block 3
340
0
102
{BLKREFS
331
90
102
}
 70
     0
280
     1
281
     0
  0
BLOCK_RECORD
  5
C3
330
1
100
AcDbSymbolTableRecord
100
AcDbBlockTableRecord
  2
block 4
340
0
102
{BLKREFS
331
C4
102
}
 70
     0
280
     1
281
     0
  0
BLOCK_RECORD
  5
F3
330
1
100
AcDbSymbolTableRecord
100
AcDbBlockTableRecord
  2
block 5
340
0
102
{BLKREFS
331
F4
102
}
 70
     0
280
     1
281
     0
  0
BLOCK_RECORD
  5
107
330
1
100
AcDbSymbolTableRecord
100
AcDbBlockTableRecord
  2
block 6
340
0
102
{BLKREFS
331
108
102
}
 70
     0
280
     1
281
     0
  0
ENDTAB
  0
ENDSEC
  0
SECTION
  2
BLOCKS
  0
BLOCK
  5
20
330
1F
100
AcDbEntity
  8
0
100
AcDbBlockBegin
  2
*Model_Space
 70
     0
 10
0.0
 20
0.0
 30
0.0
  3
*Model_Space
  1

  0
ENDBLK
  5
21
330
1F
100
AcDbEntity
  8
0
100
AcDbBlockEnd
  0
BLOCK
  5
1C
330
1B
100
AcDbEntity
 67
     1
  8
0
100
AcDbBlockBegin
  2
*Paper_Space
 70
     0
 10
0.0
 20
0.0
 30
0.0
  3
*Paper_Space
  1

  0
ENDBLK
  5
1D
330
1B
100
AcDbEntity
 67
     1
  8
0
100
AcDbBlockEnd
  0
BLOCK
  5
24
330
23
100
AcDbEntity
  8
0
100
AcDbBlockBegin
  2
*Paper_Space0
 70
     0
 10
0.0
 20
0.0
 30
0.0
  3
*Paper_Space0
  1

  0
ENDBLK
  5
25
330
23
100
AcDbEntity
  8
0
100
AcDbBlockEnd
  0
BLOCK
  5
75
330
73
100
AcDbEntity
  8
0
100
AcDbBlockBegin
  2
block 2
 70
     0
 10
0.0
 20
0.0
 30
0.0
  3
block 2
  1

  0
SPLINE
  5
77
330
73
100
AcDbEntity
  8
_U+30EC_U+30A4_U+30E4_U+30FC 1
370
     0
100
AcDbSpline
210
0.0
220
0.0
230
1.0
 70
    11
 71
     3
 72
    62
 73
    58
 74
     0
 42
0.0000000001
 43
0.0000000001
 12
1.0
 22
0.0
 32
0.0
 13
1.0
 23
0.0
 33
0.0
 40
0.0
 40
0.0
 40
0.0
 40
0.0
 40
1.0
 40
1.0
 40
1.0
 40
2.0
 40
2.0
 40
2.0
 40
3.0
 40
3.0
 40
3.0
 40
4.0
 40
4.0
 40
4.0
 40
5.0
 40
5.0
 40
5.0
 40
6.0
 40
6.0
 40
6.0
 40
7.0
 40
7.0
 40
7.0
 40
8.0
 40
8.0
 40
8.0
 40
9.0
 40
9.0
 40
9.0
 40
10.0
 40
10.0
 40
10.0
 40
11.0
 40
11.0
 40
11.0
 40
12.0
 40
12.0
 40
12.0
 40
13.0
 40
13.0
 40
13.0
 40
14.0
 40
14.0
 40
14.0
 40
15.0
 40
15.0
 40
15.0
 40
16.0
 40
16.0
 40
16.0
 40
17.0
 40
17.0
 40
17.0
 40
18.0
 40
18.0
 40
18.0
 40
19.0
 40
19.0
 40
19.0
 40
19.0
 10
57.84797633102412
 20
-158.5188340532522
 30
0.0
 10
57.75271944085696
 20
-158.5188340532522
 30
0.0
 10
57.53481715141491
 20
-158.4978189707922
 30
0.0
 10
57.41010469484887
 20
-158.3117838145887
 30
0.0
 10
57.33603514191599
 20
-158.1994737017696
 30
0.0
 10
57.33172877255943
 20
-158.1002549517944
 30
0.0
 10
57.32759465797713
 20
-158.0155056028572
 30
0.0
 10
57.32759465797713
 20
-158.0155056028572
 30
0.0
 10
57.54756400471033
 20
-158.0155056028572
 30
0.0
 10
57.54756400471033
 20
-158.0155056028572
 30
0.0
 10
57.54963106200148
 20
-158.0895751557901
 30
0.0
 10
57.56031085800576
 20
-158.3241861583356
 30
0.0
 10
57.84366996166756
 20
-158.3241861583356
 30
0.0
 10
57.98130152630329
 20
-158.3241861583356
 30
0.0
 10
58.13357474675133
 20
-158.2545952295336
 30
0.0
 10
58.13357474675133
 20
-158.0261853988615
 30
0.0
 10
58.13357474675133
 20
-157.9097411714601
 30
0.0
 10
58.09550644163932
 20
-157.861165325118
 30
0.0
 10
58.06381156317502
 20
-157.8294704466537
 30
0.0
 10
57.98974201024215
 20
-157.7554008937209
 30
0.0
 10
57.87329778284071
 20
-157.7426540404255
 30
0.0
 10
57.81834850985097
 20
-157.7426540404255
 30
0.0
 10
57.7994004846821
 20
-157.7426540404255
 30
0.0
 10
57.76339923686124
 20
-157.7447210977166
 30
0.0
 10
57.73583847297924
 20
-157.7488552122989
 30
0.0
 10
57.73583847297924
 20
-157.7488552122989
 30
0.0
 10
57.73583847297924
 20
-157.5542073173823
 30
0.0
 10
57.73583847297924
 20
-157.5542073173823
 30
0.0
 10
57.77390677809124
 20
-157.5607529988043
 30
0.0
 10
57.81628145255982
 20
-157.5628200560954
 30
0.0
 10
57.82265487920753
 20
-157.5628200560954
 30
0.0
 10
57.88811169342728
 20
-157.5628200560954
 30
0.0
 10
58.08706595770046
 20
-157.5414604640869
 30
0.0
 10
58.08706595770046
 20
-157.3047824042502
 30
0.0
 10
58.08706595770046
 20
-157.1270154772113
 30
0.0
 10
57.95580781971244
 20
-157.0718939494473
 30
0.0
 10
57.84590927373297
 20
-157.0718939494473
 30
0.0
 10
57.58149819524004
 20
-157.0718939494473
 30
0.0
 10
57.57288545652692
 20
-157.3047824042502
 30
0.0
 10
57.56875134194462
 20
-157.3764403903434
 30
0.0
 10
57.56875134194462
 20
-157.3764403903434
 30
0.0
 10
57.36566296308914
 20
-157.3764403903434
 30
0.0
 10
57.36566296308914
 20
-157.3764403903434
 30
0.0
 10
57.37410344702801
 20
-157.2517279337773
 30
0.0
 10
57.40166421091001
 20
-156.8751789972395
 30
0.0
 10
57.85848387225413
 20
-156.8751789972395
 30
0.0
 10
58.0827595883439
 20
-156.8751789972395
 30
0.0
 10
58.32391627231139
 20
-157.0023030206453
 30
0.0
 10
58.32391627231139
 20
-157.2982367228282
 30
0.0
 10
58.32391627231139
 20
-157.4846163885802
 30
0.0
 10
58.22883163691849
 20
-157.5669541706777
 30
0.0
 10
58.12926837739477
 20
-157.6282768703151
 30
0.0
 10
58.19076333180648
 20
-157.6558376341972
 30
0.0
 10
58.37266437342767
 20
-157.7361083590035
 30
0.0
 10
58.37266437342767
 20
-158.0134385455661
 30
0.0
 10
58.37266437342767
 20
-158.3517469222176
 30
0.0
 10
58.12513426281247
 20
-158.5188340532522
 30
0.0
 10
57.84797633102412
 20
-158.5188340532522
 30
0.0
  0
HATCH
  5
78
330
73
100
AcDbEntity
  8
_U+30EC_U+30A4_U+30E4_U+30FC 1
 62
   179
420
  2234388
100
AcDbHatch
 10
0.0
 20
0.0
 30
0.0
210
0.0
220
0.0
230
1.0
  2
SOLID
 70
     1
 71
     0
 91
        1
 92
        1
 93
        1
 72
     4
 94
        3
 73
     0
 74
     1
 95
       62
 96
       58
 40
0.0
 40
0.0
 40
0.0
 40
0.0
 40
1.0
 40
1.0
 40
1.0
 40
2.0
 40
2.0
 40
2.0
 40
3.0
 40
3.0
 40
3.0
 40
4.0
 40
4.0
 40
4.0
 40
5.0
 40
5.0
 40
5.0
 40
6.0
 40
6.0
 40
6.0
 40
7.0
 40
7.0
 40
7.0
 40
8.0
 40
8.0
 40
8.0
 40
9.0
 40
9.0
 40
9.0
 40
10.0
 40
10.0
 40
10.0
 40
11.0
 40
11.0
 40
11.0
 40
12.0
 40
12.0
 40
12.0
 40
13.0
 40
13.0
 40
13.0
 40
14.0
 40
14.0
 40
14.0
 40
15.0
 40
15.0
 40
15.0
 40
16.0
 40
16.0
 40
16.0
 40
17.0
 40
17.0
 40
17.0
 40
18.0
 40
18.0
 40
18.0
 40
19.0
 40
19.0
 40
19.0
 40
19.0
 10
57.84797633102412
 20
-158.5188340532522
 10
57.75271944085696
 20
-158.5188340532522
 10
57.53481715141491
 20
-158.4978189707922
 10
57.41010469484887
 20
-158.3117838145887
 10
57.33603514191599
 20
-158.1994737017696
 10
57.33172877255943
 20
-158.1002549517944
 10
57.32759465797713
 20
-158.0155056028572
 10
57.32759465797713
 20
-158.0155056028572
 10
57.54756400471033
 20
-158.0155056028572
 10
57.54756400471033
 20
-158.0155056028572
 10
57.54963106200148
 20
-158.0895751557901
 10
57.56031085800576
 20
-158.3241861583356
 10
57.84366996166756
 20
-158.3241861583356
 10
57.98130152630329
 20
-158.3241861583356
 10
58.13357474675133
 20
-158.2545952295336
 10
58.13357474675133
 20
-158.0261853988615
 10
58.13357474675133
 20
-157.9097411714601
 10
58.09550644163932
 20
-157.861165325118
 10
58.06381156317502
 20
-157.8294704466537
 10
57.98974201024215
 20
-157.7554008937209
 10
57.87329778284071
 20
-157.7426540404255
 10
57.81834850985097
 20
-157.7426540404255
 10
57.7994004846821
 20
-157.7426540404255
 10
57.76339923686124
 20
-157.7447210977166
 10
57.73583847297924
 20
-157.7488552122989
 10
57.73583847297924
 20
-157.7488552122989
 10
57.73583847297924
 20
-157.5542073173823
 10
57.73583847297924
 20
-157.5542073173823
 10
57.77390677809124
 20
-157.5607529988043
 10
57.81628145255982
 20
-157.5628200560954
 10
57.82265487920753
 20
-157.5628200560954
 10
57.88811169342728
 20
-157.5628200560954
 10
58.08706595770046
 20
-157.5414604640869
 10
58.08706595770046
 20
-157.3047824042502
 10
58.08706595770046
 20
-157.1270154772113
 10
57.95580781971244
 20
-157.0718939494473
 10
57.84590927373297
 20
-157.0718939494473
 10
57.58149819524004
 20
-157.0718939494473
 10
57.57288545652692
 20
-157.3047824042502
 10
57.56875134194462
 20
-157.3764403903434
 10
57.56875134194462
 20
-157.3764403903434
 10
57.36566296308914
 20
-157.3764403903434
 10
57.36566296308914
 20
-157.3764403903434
 10
57.37410344702801
 20
-157.2517279337773
 10
57.40166421091001
 20
-156.8751789972395
 10
57.85848387225413
 20
-156.8751789972395
 10
58.0827595883439
 20
-156.8751789972395
 10
58.32391627231139
 20
-157.0023030206453
 10
58.32391627231139
 20
-157.2982367228282
 10
58.32391627231139
 20
-157.4846163885802
 10
58.22883163691849
 20
-157.5669541706777
 10
58.12926837739477
 20
-157.6282768703151
 10
58.19076333180648
 20
-157.6558376341972
 10
58.37266437342767
 20
-157.7361083590035
 10
58.37266437342767
 20
-158.0134385455661
 10
58.37266437342767
 20
-158.3517469222176
 10
58.12513426281247
 20
-158.5188340532522
 10
57.84797633102412
 20
-158.5188340532522
 97
        0
 97
        0
 75
     2
 76
     1
 98
        0
  0
SPLINE
  5
79
330
73
100
AcDbEntity
  8
_U+30EC_U+30A4_U+30E4_U+30FC 1
370
     0
100
AcDbSpline
210
0.0
220
0.0
230
1.0
 70
    11
 71
     3
 72
    29
 73
    25
 74
     0
 42
0.0000000001
 43
0.0000000001
 12
1.0
 22
0.0
 32
0.0
 13
1.0
 23
0.0
 33
0.0
 40
0.0
 40
0.0
 40
0.0
 40
0.0
 40
1.0
 40
1.0
 40
1.0
 40
2.0
 40
2.0
 40
2.0
 40
3.0
 40
3.0
 40
3.0
 40
4.0
 40
4.0
 40
4.0
 40
5.0
 40
5.0
 40
5.0
 40
6.0
 40
6.0
 40
6.0
 40
7.0
 40
7.0
 40
7.0
 40
8.0
 40
8.0
 40
8.0
 40
8.0
 10
59.43099770649642
 20
-158.2904242225802
 30
0.0
 10
59.3231662178081
 20
-158.4998860280834
 30
0.0
 10
59.14970566012577
 20
-158.5188340532522
 30
0.0
 10
59.03326143272432
 20
-158.5188340532522
 30
0.0
 10
58.87254772833742
 20
-158.5188340532522
 30
0.0
 10
58.73078204911939
 20
-158.4723252642014
 30
0.0
 10
58.63552515895223
 20
-158.2904242225802
 30
0.0
 10
58.53200003962048
 20
-158.0957763276636
 30
0.0
 10
58.51287975967734
 20
-157.8590982678269
 30
0.0
 10
58.51287975967734
 20
-157.6961452513746
 30
0.0
 10
58.51287975967734
 20
-157.5521402600911
 30
0.0
 10
58.52976072755506
 20
-157.3003037801194
 30
0.0
 10
58.63552515895223
 20
-157.1015217706205
 30
0.0
 10
58.74352890241482
 20
-156.8986056465392
 30
0.0
 10
58.90424260680172
 20
-156.8751789972395
 30
0.0
 10
59.03326143272432
 20
-156.8751789972395
 30
0.0
 10
59.19190807982008
 20
-156.8751789972395
 30
0.0
 10
59.33574081632926
 20
-156.9196207289993
 30
0.0
 10
59.43099770649642
 20
-157.1015217706205
 30
0.0
 10
59.53038871124588
 20
-157.2941026082459
 30
0.0
 10
59.55364310577131
 20
-157.522512438918
 30
0.0
 10
59.55364310577131
 20
-157.6961452513746
 30
0.0
 10
59.55364310577131
 20
-157.8673664969915
 30
0.0
 10
59.53262802331129
 20
-158.0978433849547
 30
0.0
 10
59.43099770649642
 20
-158.2904242225802
 30
0.0
  0
SPLINE
  5
7A
330
73
100
AcDbEntity
  8
_U+30EC_U+30A4_U+30E4_U+30FC 1
370
     0
100
AcDbSpline
210
0.0
220
0.0
230
1.0
 70
    11
 71
     3
 72
    17
 73
    13
 74
     0
 42
0.0000000001
 43
0.0000000001
 12
1.0
 22
0.0
 32
0.0
 13
1.0
 23
0.0
 33
0.0
 40
0.0
 40
0.0
 40
0.0
 40
0.0
 40
1.0
 40
1.0
 40
1.0
 40
2.0
 40
2.0
 40
2.0
 40
3.0
 40
3.0
 40
3.0
 40
4.0
 40
4.0
 40
4.0
 40
4.0
 10
59.03326143272432
 20
-157.067759834865
 30
0.0
 10
58.78366426481798
 20
-157.067759834865
 30
0.0
 10
58.7371554757671
 20
-157.3512911933011
 30
0.0
 10
58.7371554757671
 20
-157.6961452513746
 30
0.0
 10
58.7371554757671
 20
-158.0155056028572
 30
0.0
 10
58.77315672358797
 20
-158.3241861583356
 30
0.0
 10
59.03326143272432
 20
-158.3241861583356
 30
0.0
 10
59.28079154333953
 20
-158.3241861583356
 30
0.0
 10
59.32953964445581
 20
-158.0430663667393
 30
0.0
 10
59.32953964445581
 20
-157.6961452513746
 30
0.0
 10
59.32953964445581
 20
-157.3764403903434
 30
0.0
 10
59.29129908456954
 20
-157.067759834865
 30
0.0
 10
59.03326143272432
 20
-157.067759834865
 30
0.0
  0
HATCH
  5
7B
330
73
100
AcDbEntity
  8
_U+30EC_U+30A4_U+30E4_U+30FC 1
 62
   179
420
  2234388
100
AcDbHatch
 10
0.0
 20
0.0
 30
0.0
210
0.0
220
0.0
230
1.0
  2
SOLID
 70
     1
 71
     0
 91
        2
 92
        1
 93
        1
 72
     4
 94
        3
 73
     0
 74
     1
 95
       29
 96
       25
 40
0.0
 40
0.0
 40
0.0
 40
0.0
 40
1.0
 40
1.0
 40
1.0
 40
2.0
 40
2.0
 40
2.0
 40
3.0
 40
3.0
 40
3.0
 40
4.0
 40
4.0
 40
4.0
 40
5.0
 40
5.0
 40
5.0
 40
6.0
 40
6.0
 40
6.0
 40
7.0
 40
7.0
 40
7.0
 40
8.0
 40
8.0
 40
8.0
 40
8.0
 10
59.43099770649642
 20
-158.2904242225802
 10
59.3231662178081
 20
-158.4998860280834
 10
59.14970566012577
 20
-158.5188340532522
 10
59.03326143272432
 20
-158.5188340532522
 10
58.87254772833742
 20
-158.5188340532522
 10
58.73078204911939
 20
-158.4723252642014
 10
58.63552515895223
 20
-158.2904242225802
 10
58.53200003962048
 20
-158.0957763276636
 10
58.51287975967734
 20
-157.8590982678269
 10
58.51287975967734
 20
-157.6961452513746
 10
58.51287975967734
 20
-157.5521402600911
 10
58.52976072755506
 20
-157.3003037801194
 10
58.63552515895223
 20
-157.1015217706205
 10
58.74352890241482
 20
-156.8986056465392
 10
58.90424260680172
 20
-156.8751789972395
 10
59.03326143272432
 20
-156.8751789972395
 10
59.19190807982008
 20
-156.8751789972395
 10
59.33574081632926
 20
-156.9196207289993
 10
59.43099770649642
 20
-157.1015217706205
 10
59.53038871124588
 20
-157.2941026082459
 10
59.55364310577131
 20
-157.522512438918
 10
59.55364310577131
 20
-157.6961452513746
 10
59.55364310577131
 20
-157.8673664969915
 10
59.53262802331129
 20
-158.0978433849547
 10
59.43099770649642
 20
-158.2904242225802
 97
        0
 97
        0
 92
        1
 93
        1
 72
     4
 94
        3
 73
     0
 74
     1
 95
       17
 96
       13
 40
0.0
 40
0.0
 40
0.0
 40
0.0
 40
1.0
 40
1.0
 40
1.0
 40
2.0
 40
2.0
 40
2.0
 40
3.0
 40
3.0
 40
3.0
 40
4.0
 40
4.0
 40
4.0
 40
4.0
 10
59.03326143272432
 20
-157.067759834865
 10
58.78366426481798
 20
-157.067759834865
 10
58.7371554757671
 20
-157.3512911933011
 10
58.7371554757671
 20
-157.6961452513746
 10
58.7371554757671
 20
-158.0155056028572
 10
58.77315672358797
 20
-158.3241861583356
 10
59.03326143272432
 20
-158.3241861583356
 10
59.28079154333953
 20
-158.3241861583356
 10
59.32953964445581
 20
-158.0430663667393
 10
59.32953964445581
 20
-157.6961452513746
 10
59.32953964445581
 20
-157.3764403903434
 10
59.29129908456954
 20
-157.067759834865
 10
59.03326143272432
 20
-157.067759834865
 97
        0
 97
        0
 75
     2
 76
     1
 98
        0
  0
SPLINE
  5
7C
330
73
100
AcDbEntity
  8
_U+30EC_U+30A4_U+30E4_U+30FC 1
370
     0
100
AcDbSpline
210
0.0
220
0.0
230
1.0
 70
    11
 71
     3
 72
    44
 73
    40
 74
     0
 42
0.0000000001
 43
0.0000000001
 12
1.0
 22
0.0
 32
0.0
 13
1.0
 23
0.0
 33
0.0
 40
0.0
 40
0.0
 40
0.0
 40
0.0
 40
1.0
 40
1.0
 40
1.0
 40
2.0
 40
2.0
 40
2.0
 40
3.0
 40
3.0
 40
3.0
 40
4.0
 40
4.0
 40
4.0
 40
5.0
 40
5.0
 40
5.0
 40
6.0
 40
6.0
 40
6.0
 40
7.0
 40
7.0
 40
7.0
 40
8.0
 40
8.0
 40
8.0
 40
9.0
 40
9.0
 40
9.0
 40
10.0
 40
10.0
 40
10.0
 40
11.0
 40
11.0
 40
11.0
 40
12.0
 40
12.0
 40
12.0
 40
13.0
 40
13.0
 40
13.0
 40
13.0
 10
60.72428655165921
 20
-158.4681911496191
 30
0.0
 10
60.70085990235951
 20
-158.4237494178593
 30
0.0
 10
60.67984481989949
 20
-158.371039456935
 30
0.0
 10
60.67760550783407
 20
-158.1402180594233
 30
0.0
 10
60.67347139325177
 20
-157.8969943181646
 30
0.0
 10
60.61421575090548
 20
-157.8270588798141
 30
0.0
 10
60.43644882386658
 20
-157.8270588798141
 30
0.0
 10
60.43644882386658
 20
-157.8270588798141
 30
0.0
 10
60.02820500886448
 20
-157.8270588798141
 30
0.0
 10
60.02820500886448
 20
-157.8270588798141
 30
0.0
 10
60.02820500886448
 20
-157.8270588798141
 30
0.0
 10
60.02820500886448
 20
-158.4681911496191
 30
0.0
 10
60.02820500886448
 20
-158.4681911496191
 30
0.0
 10
60.02820500886448
 20
-158.4681911496191
 30
0.0
 10
59.79342175154471
 20
-158.4681911496191
 30
0.0
 10
59.79342175154471
 20
-158.4681911496191
 30
0.0
 10
59.79342175154471
 20
-158.4681911496191
 30
0.0
 10
59.79342175154471
 20
-156.9237548435816
 30
0.0
 10
59.79342175154471
 20
-156.9237548435816
 30
0.0
 10
59.79342175154471
 20
-156.9237548435816
 30
0.0
 10
60.46814370233088
 20
-156.9237548435816
 30
0.0
 10
60.46814370233088
 20
-156.9237548435816
 30
0.0
 10
60.77492945529238
 20
-156.9237548435816
 30
0.0
 10
60.94218884110126
 20
-157.095320598747
 30
0.0
 10
60.94218884110126
 20
-157.3512911933011
 30
0.0
 10
60.94218884110126
 20
-157.4019340969342
 30
0.0
 10
60.93357610238814
 20
-157.4846163885802
 30
0.0
 10
60.88913437062841
 20
-157.5648871133866
 30
0.0
 10
60.83005098305638
 20
-157.6685844874926
 30
0.0
 10
60.76442191406237
 20
-157.6875325126614
 30
0.0
 10
60.70309921442492
 20
-157.7044134805392
 30
0.0
 10
60.84055852428639
 20
-157.7467881550077
 30
0.0
 10
60.90825465057155
 20
-157.7953640013498
 30
0.0
 10
60.91256101992811
 20
-158.1105902382501
 30
0.0
 10
60.91669513451041
 20
-158.3813747433908
 30
0.0
 10
60.95269638233128
 20
-158.4130696218551
 30
0.0
 10
61.02039250861643
 20
-158.4681911496191
 30
0.0
 10
61.02039250861643
 20
-158.4681911496191
 30
0.0
 10
60.72428655165921
 20
-158.4681911496191
 30
0.0
 10
60.72428655165921
 20
-158.4681911496191
 30
0.0
  0
SPLINE
  5
7D
330
73
100
AcDbEntity
  8
_U+30EC_U+30A4_U+30E4_U+30FC 1
370
     0
100
AcDbSpline
210
0.0
220
0.0
230
1.0
 70
    11
 71
     3
 72
    20
 73
    16
 74
     0
 42
0.0000000001
 43
0.0000000001
 12
1.0
 22
0.0
 32
0.0
 13
1.0
 23
0.0
 33
0.0
 40
0.0
 40
0.0
 40
0.0
 40
0.0
 40
1.0
 40
1.0
 40
1.0
 40
2.0
 40
2.0
 40
2.0
 40
3.0
 40
3.0
 40
3.0
 40
4.0
 40
4.0
 40
4.0
 40
5.0
 40
5.0
 40
5.0
 40
5.0
 10
60.47245007168745
 20
-157.1352837063759
 30
0.0
 10
60.47245007168745
 20
-157.1352837063759
 30
0.0
 10
60.02820500886448
 20
-157.1352837063759
 30
0.0
 10
60.02820500886448
 20
-157.1352837063759
 30
0.0
 10
60.02820500886448
 20
-157.1352837063759
 30
0.0
 10
60.02820500886448
 20
-157.6155300170197
 30
0.0
 10
60.02820500886448
 20
-157.6155300170197
 30
0.0
 10
60.02820500886448
 20
-157.6155300170197
 30
0.0
 10
60.4703830143963
 20
-157.6155300170197
 30
0.0
 10
60.4703830143963
 20
-157.6155300170197
 30
0.0
 10
60.56977401914575
 20
-157.6155300170197
 30
0.0
 10
60.70516627171607
 20
-157.5393934067957
 30
0.0
 10
60.70516627171607
 20
-157.3681721611788
 30
0.0
 10
60.70516627171607
 20
-157.2899684936636
 30
0.0
 10
60.67140433596062
 20
-157.1352837063759
 30
0.0
 10
60.47245007168745
 20
-157.1352837063759
 30
0.0
  0
HATCH
  5
7E
330
73
100
AcDbEntity
  8
_U+30EC_U+30A4_U+30E4_U+30FC 1
 62
   179
420
  2234388
100
AcDbHatch
 10
0.0
 20
0.0
 30
0.0
210
0.0
220
0.0
230
1.0
  2
SOLID
 70
     1
 71
     0
 91
        2
 92
        1
 93
        1
 72
     4
 94
        3
 73
     0
 74
     1
 95
       44
 96
       40
 40
0.0
 40
0.0
 40
0.0
 40
0.0
 40
1.0
 40
1.0
 40
1.0
 40
2.0
 40
2.0
 40
2.0
 40
3.0
 40
3.0
 40
3.0
 40
4.0
 40
4.0
 40
4.0
 40
5.0
 40
5.0
 40
5.0
 40
6.0
 40
6.0
 40
6.0
 40
7.0
 40
7.0
 40
7.0
 40
8.0
 40
8.0
 40
8.0
 40
9.0
 40
9.0
 40
9.0
 40
10.0
 40
10.0
 40
10.0
 40
11.0
 40
11.0
 40
11.0
 40
12.0
 40
12.0
 40
12.0
 40
13.0
 40
13.0
 40
13.0
 40
13.0
 10
60.72428655165921
 20
-158.4681911496191
 10
60.70085990235951
 20
-158.4237494178593
 10
60.67984481989949
 20
-158.371039456935
 10
60.67760550783407
 20
-158.1402180594233
 10
60.67347139325177
 20
-157.8969943181646
 10
60.61421575090548
 20
-157.8270588798141
 10
60.43644882386658
 20
-157.8270588798141
 10
60.43644882386658
 20
-157.8270588798141
 10
60.02820500886448
 20
-157.8270588798141
 10
60.02820500886448
 20
-157.8270588798141
 10
60.02820500886448
 20
-157.8270588798141
 10
60.02820500886448
 20
-158.4681911496191
 10
60.02820500886448
 20
-158.4681911496191
 10
60.02820500886448
 20
-158.4681911496191
 10
59.79342175154471
 20
-158.4681911496191
 10
59.79342175154471
 20
-158.4681911496191
 10
59.79342175154471
 20
-158.4681911496191
 10
59.79342175154471
 20
-156.9237548435816
 10
59.79342175154471
 20
-156.9237548435816
 10
59.79342175154471
 20
-156.9237548435816
 10
60.46814370233088
 20
-156.9237548435816
 10
60.46814370233088
 20
-156.9237548435816
 10
60.77492945529238
 20
-156.9237548435816
 10
60.94218884110126
 20
-157.095320598747
 10
60.94218884110126
 20
-157.3512911933011
 10
60.94218884110126
 20
-157.4019340969342
 10
60.93357610238814
 20
-157.4846163885802
 10
60.88913437062841
 20
-157.5648871133866
 10
60.83005098305638
 20
-157.6685844874926
 10
60.76442191406237
 20
-157.6875325126614
 10
60.70309921442492
 20
-157.7044134805392
 10
60.84055852428639
 20
-157.7467881550077
 10
60.90825465057155
 20
-157.7953640013498
 10
60.91256101992811
 20
-158.1105902382501
 10
60.91669513451041
 20
-158.3813747433908
 10
60.95269638233128
 20
-158.4130696218551
 10
61.02039250861643
 20
-158.4681911496191
 10
61.02039250861643
 20
-158.4681911496191
 10
60.72428655165921
 20
-158.4681911496191
 10
60.72428655165921
 20
-158.4681911496191
 97
        0
 97
        0
 92
        1
 93
        1
 72
     4
 94
        3
 73
     0
 74
     1
 95
       20
 96
       16
 40
0.0
 40
0.0
 40
0.0
 40
0.0
 40
1.0
 40
1.0
 40
1.0
 40
2.0
 40
2.0
 40
2.0
 40
3.0
 40
3.0
 40
3.0
 40
4.0
 40
4.0
 40
4.0
 40
5.0
 40
5.0
 40
5.0
 40
5.0
 10
60.47245007168745
 20
-157.1352837063759
 10
60.47245007168745
 20
-157.1352837063759
 10
60.02820500886448
 20
-157.1352837063759
 10
60.02820500886448
 20
-157.1352837063759
 10
60.02820500886448
 20
-157.1352837063759
 10
60.02820500886448
 20
-157.6155300170197
 10
60.02820500886448
 20
-157.6155300170197
 10
60.02820500886448
 20
-157.6155300170197
 10
60.4703830143963
 20
-157.6155300170197
 10
60.4703830143963
 20
-157.6155300170197
 10
60.56977401914575
 20
-157.6155300170197
 10
60.70516627171607
 20
-157.5393934067957
 10
60.70516627171607
 20
-157.3681721611788
 10
60.70516627171607
 20
-157.2899684936636
 10
60.67140433596062
 20
-157.1352837063759
 10
60.47245007168745
 20
-157.1352837063759
 97
        0
 97
        0
 75
     2
 76
     1
 98
        0
  0
ENDBLK
  5
76
330
73
100
AcDbEntity
  8
0
100
AcDbBlockEnd
  0
BLOCK
  5
91
330
8F
100
AcDbEntity
  8
0
100
AcDbBlockBegin
  2
block 3
 70
     0
 10
0.0
 20
0.0
 30
0.0
  3
block 3
  1

  0
SPLINE
  5
93
330
8F
100
AcDbEntity
  8
_U+30EC_U+30A4_U+30E4_U+30FC 1
370
     0
100
AcDbSpline
210
0.0
220
0.0
230
1.0
 70
    11
 71
     3
 72
    29
 73
    25
 74
     0
 42
0.0000000001
 43
0.0000000001
 12
1.0
 22
0.0
 32
0.0
 13
1.0
 23
0.0
 33
0.0
 40
0.0
 40
0.0
 40
0.0
 40
0.0
 40
1.0
 40
1.0
 40
1.0
 40
2.0
 40
2.0
 40
2.0
 40
3.0
 40
3.0
 40
3.0
 40
4.0
 40
4.0
 40
4.0
 40
5.0
 40
5.0
 40
5.0
 40
6.0
 40
6.0
 40
6.0
 40
7.0
 40
7.0
 40
7.0
 40
8.0
 40
8.0
 40
8.0
 40
8.0
 10
122.6777831724556
 20
-149.9877441031281
 30
0.0
 10
122.8872449779587
 20
-150.0959201013649
 30
0.0
 10
122.9065375126762
 20
-150.269208404273
 30
0.0
 10
122.9065375126762
 20
-150.3856526316744
 30
0.0
 10
122.9065375126762
 20
-150.5465385908356
 30
0.0
 10
122.8600287236253
 20
-150.6881320152794
 30
0.0
 10
122.6777831724556
 20
-150.7832166506722
 30
0.0
 10
122.4834797870875
 20
-150.8869140247783
 30
0.0
 10
122.2464572177023
 20
-150.9062065594957
 30
0.0
 10
122.08350420125
 20
-150.9062065594957
 30
0.0
 10
121.939843719515
 20
-150.9062065594957
 30
0.0
 10
121.6880072395433
 20
-150.8889810820694
 30
0.0
 10
121.4892252300444
 20
-150.7832166506722
 30
0.0
 10
121.2859645964146
 20
-150.6753851619839
 30
0.0
 10
121.2625379471149
 20
-150.5144992028228
 30
0.0
 10
121.2625379471149
 20
-150.3856526316744
 30
0.0
 10
121.2625379471149
 20
-150.2268337298044
 30
0.0
 10
121.3073241884232
 20
-150.0831732480695
 30
0.0
 10
121.4892252300444
 20
-149.9877441031281
 30
0.0
 10
121.6814615581213
 20
-149.8885253531529
 30
0.0
 10
121.9102158983419
 20
-149.8650987038532
 30
0.0
 10
122.08350420125
 20
-149.8650987038532
 30
0.0
 10
122.2547254468669
 20
-149.8650987038532
 30
0.0
 10
122.4855468443786
 20
-149.8864582958617
 30
0.0
 10
122.6777831724556
 20
-149.9877441031281
 30
0.0
  0
SPLINE
  5
94
330
8F
100
AcDbEntity
  8
_U+30EC_U+30A4_U+30E4_U+30FC 1
370
     0
100
AcDbSpline
210
0.0
220
0.0
230
1.0
 70
    11
 71
     3
 72
    17
 73
    13
 74
     0
 42
0.0000000001
 43
0.0000000001
 12
1.0
 22
0.0
 32
0.0
 13
1.0
 23
0.0
 33
0.0
 40
0.0
 40
0.0
 40
0.0
 40
0.0
 40
1.0
 40
1.0
 40
1.0
 40
2.0
 40
2.0
 40
2.0
 40
3.0
 40
3.0
 40
3.0
 40
4.0
 40
4.0
 40
4.0
 40
4.0
 10
121.4554632942889
 20
-150.3856526316744
 30
0.0
 10
121.4554632942889
 20
-150.635422054355
 30
0.0
 10
121.7386501431765
 20
-150.6819308434059
 30
0.0
 10
122.08350420125
 20
-150.6819308434059
 30
0.0
 10
122.4028645527326
 20
-150.6819308434059
 30
0.0
 10
122.7118896177595
 20
-150.6457573408108
 30
0.0
 10
122.7118896177595
 20
-150.3856526316744
 30
0.0
 10
122.7118896177595
 20
-150.137950266285
 30
0.0
 10
122.4304253166146
 20
-150.0893744199429
 30
0.0
 10
122.08350420125
 20
-150.0893744199429
 30
0.0
 10
121.7641438497673
 20
-150.0893744199429
 30
0.0
 10
121.4554632942889
 20
-150.1276149798292
 30
0.0
 10
121.4554632942889
 20
-150.3856526316744
 30
0.0
  0
HATCH
  5
95
330
8F
100
AcDbEntity
  8
_U+30EC_U+30A4_U+30E4_U+30FC 1
 62
   179
420
  2234388
100
AcDbHatch
 10
0.0
 20
0.0
 30
0.0
210
0.0
220
0.0
230
1.0
  2
SOLID
 70
     1
 71
     0
 91
        2
 92
        1
 93
        1
 72
     4
 94
        3
 73
     0
 74
     1
 95
       29
 96
       25
 40
0.0
 40
0.0
 40
0.0
 40
0.0
 40
1.0
 40
1.0
 40
1.0
 40
2.0
 40
2.0
 40
2.0
 40
3.0
 40
3.0
 40
3.0
 40
4.0
 40
4.0
 40
4.0
 40
5.0
 40
5.0
 40
5.0
 40
6.0
 40
6.0
 40
6.0
 40
7.0
 40
7.0
 40
7.0
 40
8.0
 40
8.0
 40
8.0
 40
8.0
 10
122.6777831724556
 20
-149.9877441031281
 10
122.8872449779587
 20
-150.0959201013649
 10
122.9065375126762
 20
-150.269208404273
 10
122.9065375126762
 20
-150.3856526316744
 10
122.9065375126762
 20
-150.5465385908356
 10
122.8600287236253
 20
-150.6881320152794
 10
122.6777831724556
 20
-150.7832166506722
 10
122.4834797870875
 20
-150.8869140247783
 10
122.2464572177023
 20
-150.9062065594957
 10
122.08350420125
 20
-150.9062065594957
 10
121.939843719515
 20
-150.9062065594957
 10
121.6880072395433
 20
-150.8889810820694
 10
121.4892252300444
 20
-150.7832166506722
 10
121.2859645964146
 20
-150.6753851619839
 10
121.2625379471149
 20
-150.5144992028228
 10
121.2625379471149
 20
-150.3856526316744
 10
121.2625379471149
 20
-150.2268337298044
 10
121.3073241884232
 20
-150.0831732480695
 10
121.4892252300444
 20
-149.9877441031281
 10
121.6814615581213
 20
-149.8885253531529
 10
121.9102158983419
 20
-149.8650987038532
 10
122.08350420125
 20
-149.8650987038532
 10
122.2547254468669
 20
-149.8650987038532
 10
122.4855468443786
 20
-149.8864582958617
 10
122.6777831724556
 20
-149.9877441031281
 97
        0
 97
        0
 92
        1
 93
        1
 72
     4
 94
        3
 73
     0
 74
     1
 95
       17
 96
       13
 40
0.0
 40
0.0
 40
0.0
 40
0.0
 40
1.0
 40
1.0
 40
1.0
 40
2.0
 40
2.0
 40
2.0
 40
3.0
 40
3.0
 40
3.0
 40
4.0
 40
4.0
 40
4.0
 40
4.0
 10
121.4554632942889
 20
-150.3856526316744
 10
121.4554632942889
 20
-150.635422054355
 10
121.7386501431765
 20
-150.6819308434059
 10
122.08350420125
 20
-150.6819308434059
 10
122.4028645527326
 20
-150.6819308434059
 10
122.7118896177595
 20
-150.6457573408108
 10
122.7118896177595
 20
-150.3856526316744
 10
122.7118896177595
 20
-150.137950266285
 10
122.4304253166146
 20
-150.0893744199429
 10
122.08350420125
 20
-150.0893744199429
 10
121.7641438497673
 20
-150.0893744199429
 10
121.4554632942889
 20
-150.1276149798292
 10
121.4554632942889
 20
-150.3856526316744
 97
        0
 97
        0
 75
     2
 76
     1
 98
        0
  0
POLYLINE
  5
96
330
8F
100
AcDbEntity
  8
_U+30EC_U+30A4_U+30E4_U+30FC 1
370
     0
100
AcDb2dPolyline
 66
     1
 10
0.0
 20
0.0
 30
0.0
  0
VERTEX
  5
97
330
96
100
AcDbEntity
  8
_U+30EC_U+30A4_U+30E4_U+30FC 1
370
     0
100
AcDbVertex
100
AcDb2dVertex
 10
122.8555500994945
 20
-149.6487467073795
 30
0.0
  0
VERTEX
  5
98
330
96
100
AcDbEntity
  8
_U+30EC_U+30A4_U+30E4_U+30FC 1
370
     0
100
AcDbVertex
100
AcDb2dVertex
 10
122.6040581290712
 20
-149.6487467073795
 30
0.0
  0
VERTEX
  5
99
330
96
100
AcDbEntity
  8
_U+30EC_U+30A4_U+30E4_U+30FC 1
370
     0
100
AcDbVertex
100
AcDb2dVertex
 10
122.6040581290712
 20
-149.3969102274077
 30
0.0
  0
VERTEX
  5
9A
330
96
100
AcDbEntity
  8
_U+30EC_U+30A4_U+30E4_U+30FC 1
370
     0
100
AcDbVertex
100
AcDb2dVertex
 10
122.8555500994945
 20
-149.3969102274077
 30
0.0
  0
VERTEX
  5
9B
330
96
100
AcDbEntity
  8
_U+30EC_U+30A4_U+30E4_U+30FC 1
370
     0
100
AcDbVertex
100
AcDb2dVertex
 10
122.8555500994945
 20
-149.6487467073795
 30
0.0
  0
SEQEND
  5
9C
330
96
100
AcDbEntity
  8
_U+30EC_U+30A4_U+30E4_U+30FC 1
370
     0
  0
HATCH
  5
9D
330
8F
100
AcDbEntity
  8
_U+30EC_U+30A4_U+30E4_U+30FC 1
 62
   179
420
  2234388
100
AcDbHatch
 10
0.0
 20
0.0
 30
0.0
210
0.0
220
0.0
230
1.0
  2
SOLID
 70
     1
 71
     0
 91
        1
 92
        1
 93
        4
 72
     1
 10
122.8555500994945
 20
-149.6487467073795
 11
122.6040581290712
 21
-149.6487467073795
 72
     1
 10
122.6040581290712
 20
-149.6487467073795
 11
122.6040581290712
 21
-149.3969102274077
 72
     1
 10
122.6040581290712
 20
-149.3969102274077
 11
122.8555500994945
 21
-149.3969102274077
 72
     1
 10
122.8555500994945
 20
-149.3969102274077
 11
122.8555500994945
 21
-149.6487467073795
 97
        0
 75
     2
 76
     1
 98
        0
  0
POLYLINE
  5
9E
330
8F
100
AcDbEntity
  8
_U+30EC_U+30A4_U+30E4_U+30FC 1
370
     0
100
AcDb2dPolyline
 66
     1
 10
0.0
 20
0.0
 30
0.0
  0
VERTEX
  5
9F
330
9E
100
AcDbEntity
  8
_U+30EC_U+30A4_U+30E4_U+30FC 1
370
     0
100
AcDbVertex
100
AcDb2dVertex
 10
122.5089734936783
 20
-148.3285861174317
 30
0.0
  0
VERTEX
  5
A0
330
9E
100
AcDbEntity
  8
_U+30EC_U+30A4_U+30E4_U+30FC 1
370
     0
100
AcDbVertex
100
AcDb2dVertex
 10
122.8555500994945
 20
-148.3285861174317
 30
0.0
  0
VERTEX
  5
A1
330
9E
100
AcDbEntity
  8
_U+30EC_U+30A4_U+30E4_U+30FC 1
370
     0
100
AcDbVertex
100
AcDb2dVertex
 10
122.8555500994945
 20
-148.5463161520995
 30
0.0
  0
VERTEX
  5
A2
330
9E
100
AcDbEntity
  8
_U+30EC_U+30A4_U+30E4_U+30FC 1
370
     0
100
AcDbVertex
100
AcDb2dVertex
 10
122.5089734936783
 20
-148.5463161520995
 30
0.0
  0
VERTEX
  5
A3
330
9E
100
AcDbEntity
  8
_U+30EC_U+30A4_U+30E4_U+30FC 1
370
     0
100
AcDbVertex
100
AcDb2dVertex
 10
122.5089734936783
 20
-149.2022623324911
 30
0.0
  0
VERTEX
  5
A4
330
9E
100
AcDbEntity
  8
_U+30EC_U+30A4_U+30E4_U+30FC 1
370
     0
100
AcDbVertex
100
AcDb2dVertex
 10
122.28435326804
 20
-149.2022623324911
 30
0.0
  0
VERTEX
  5
A5
330
9E
100
AcDbEntity
  8
_U+30EC_U+30A4_U+30E4_U+30FC 1
370
     0
100
AcDbVertex
100
AcDb2dVertex
 10
121.3114583030055
 20
-148.5232340123484
 30
0.0
  0
VERTEX
  5
A6
330
9E
100
AcDbEntity
  8
_U+30EC_U+30A4_U+30E4_U+30FC 1
370
     0
100
AcDbVertex
100
AcDb2dVertex
 10
121.3114583030055
 20
-148.3285861174317
 30
0.0
  0
VERTEX
  5
A7
330
9E
100
AcDbEntity
  8
_U+30EC_U+30A4_U+30E4_U+30FC 1
370
     0
100
AcDbVertex
100
AcDb2dVertex
 10
122.3098469746309
 20
-148.3285861174317
 30
0.0
  0
VERTEX
  5
A8
330
9E
100
AcDbEntity
  8
_U+30EC_U+30A4_U+30E4_U+30FC 1
370
     0
100
AcDbVertex
100
AcDb2dVertex
 10
122.3098469746309
 20
-148.1211913692197
 30
0.0
  0
VERTEX
  5
A9
330
9E
100
AcDbEntity
  8
_U+30EC_U+30A4_U+30E4_U+30FC 1
370
     0
100
AcDbVertex
100
AcDb2dVertex
 10
122.5089734936783
 20
-148.1211913692197
 30
0.0
  0
VERTEX
  5
AA
330
9E
100
AcDbEntity
  8
_U+30EC_U+30A4_U+30E4_U+30FC 1
370
     0
100
AcDbVertex
100
AcDb2dVertex
 10
122.5089734936783
 20
-148.3285861174317
 30
0.0
  0
SEQEND
  5
AB
330
9E
100
AcDbEntity
  8
_U+30EC_U+30A4_U+30E4_U+30FC 1
370
     0
  0
POLYLINE
  5
AC
330
8F
100
AcDbEntity
  8
_U+30EC_U+30A4_U+30E4_U+30FC 1
370
     0
100
AcDb2dPolyline
 66
     1
 10
0.0
 20
0.0
 30
0.0
  0
VERTEX
  5
AD
330
AC
100
AcDbEntity
  8
_U+30EC_U+30A4_U+30E4_U+30FC 1
370
     0
100
AcDbVertex
100
AcDb2dVertex
 10
121.6539007942393
 20
-148.5463161520995
 30
0.0
  0
VERTEX
  5
AE
330
AC
100
AcDbEntity
  8
_U+30EC_U+30A4_U+30E4_U+30FC 1
370
     0
100
AcDbVertex
100
AcDb2dVertex
 10
122.3098469746309
 20
-149.0034803229922
 30
0.0
  0
VERTEX
  5
AF
330
AC
100
AcDbEntity
  8
_U+30EC_U+30A4_U+30E4_U+30FC 1
370
     0
100
AcDbVertex
100
AcDb2dVertex
 10
122.3098469746309
 20
-148.5463161520995
 30
0.0
  0
VERTEX
  5
B0
330
AC
100
AcDbEntity
  8
_U+30EC_U+30A4_U+30E4_U+30FC 1
370
     0
100
AcDbVertex
100
AcDb2dVertex
 10
121.6539007942393
 20
-148.5463161520995
 30
0.0
  0
SEQEND
  5
B1
330
AC
100
AcDbEntity
  8
_U+30EC_U+30A4_U+30E4_U+30FC 1
370
     0
  0
HATCH
  5
B2
330
8F
100
AcDbEntity
  8
_U+30EC_U+30A4_U+30E4_U+30FC 1
 62
   179
420
  2234388
100
AcDbHatch
 10
0.0
 20
0.0
 30
0.0
210
0.0
220
0.0
230
1.0
  2
SOLID
 70
     1
 71
     0
 91
        2
 92
        1
 93
       11
 72
     1
 10
122.5089734936783
 20
-148.3285861174317
 11
122.8555500994945
 21
-148.3285861174317
 72
     1
 10
122.8555500994945
 20
-148.3285861174317
 11
122.8555500994945
 21
-148.5463161520995
 72
     1
 10
122.8555500994945
 20
-148.5463161520995
 11
122.5089734936783
 21
-148.5463161520995
 72
     1
 10
122.5089734936783
 20
-148.5463161520995
 11
122.5089734936783
 21
-149.2022623324911
 72
     1
 10
122.5089734936783
 20
-149.2022623324911
 11
122.28435326804
 21
-149.2022623324911
 72
     1
 10
122.28435326804
 20
-149.2022623324911
 11
121.3114583030055
 21
-148.5232340123484
 72
     1
 10
121.3114583030055
 20
-148.5232340123484
 11
121.3114583030055
 21
-148.3285861174317
 72
     1
 10
121.3114583030055
 20
-148.3285861174317
 11
122.3098469746309
 21
-148.3285861174317
 72
     1
 10
122.3098469746309
 20
-148.3285861174317
 11
122.3098469746309
 21
-148.1211913692197
 72
     1
 10
122.3098469746309
 20
-148.1211913692197
 11
122.5089734936783
 21
-148.1211913692197
 72
     1
 10
122.5089734936783
 20
-148.1211913692197
 11
122.5089734936783
 21
-148.3285861174317
 97
        0
 92
        1
 93
        3
 72
     1
 10
121.6539007942393
 20
-148.5463161520995
 11
122.3098469746309
 21
-149.0034803229922
 72
     1
 10
122.3098469746309
 20
-149.0034803229922
 11
122.3098469746309
 21
-148.5463161520995
 72
     1
 10
122.3098469746309
 20
-148.5463161520995
 11
121.6539007942393
 21
-148.5463161520995
 97
        0
 75
     2
 76
     1
 98
        0
  0
ENDBLK
  5
92
330
8F
100
AcDbEntity
  8
0
100
AcDbBlockEnd
  0
BLOCK
  5
C5
330
C3
100
AcDbEntity
  8
0
100
AcDbBlockBegin
  2
block 4
 70
     0
 10
0.0
 20
0.0
 30
0.0
  3
block 4
  1

  0
SPLINE
  5
C7
330
C3
100
AcDbEntity
  8
_U+30EC_U+30A4_U+30E4_U+30FC 1
370
     0
100
AcDbSpline
210
0.0
220
0.0
230
1.0
 70
    11
 71
     3
 72
    29
 73
    25
 74
     0
 42
0.0000000001
 43
0.0000000001
 12
1.0
 22
0.0
 32
0.0
 13
1.0
 23
0.0
 33
0.0
 40
0.0
 40
0.0
 40
0.0
 40
0.0
 40
1.0
 40
1.0
 40
1.0
 40
2.0
 40
2.0
 40
2.0
 40
3.0
 40
3.0
 40
3.0
 40
4.0
 40
4.0
 40
4.0
 40
5.0
 40
5.0
 40
5.0
 40
6.0
 40
6.0
 40
6.0
 40
7.0
 40
7.0
 40
7.0
 40
8.0
 40
8.0
 40
8.0
 40
8.0
 10
73.50627982103316
 20
-97.88945988221167
 30
0.0
 10
73.39844833234484
 20
-98.09892168771486
 30
0.0
 10
73.22498777466251
 20
-98.11804196765799
 30
0.0
 10
73.10854354726106
 20
-98.11804196765799
 30
0.0
 10
72.94782984287416
 20
-98.11804196765799
 30
0.0
 10
72.80606416365613
 20
-98.07153317860713
 30
0.0
 10
72.71080727348897
 20
-97.88945988221167
 30
0.0
 10
72.6072821541572
 20
-97.69498424206931
 30
0.0
 10
72.58816187421408
 20
-97.45796167268412
 30
0.0
 10
72.58816187421408
 20
-97.29500865623181
 30
0.0
 10
72.58816187421408
 20
-97.15117591972263
 30
0.0
 10
72.6050428420918
 20
-96.89951169452513
 30
0.0
 10
72.71080727348897
 20
-96.70055743025195
 30
0.0
 10
72.81881101695156
 20
-96.49746905139646
 30
0.0
 10
72.97952472133845
 20
-96.47421465687104
 30
0.0
 10
73.10854354726106
 20
-96.47421465687104
 30
0.0
 10
73.26719019435681
 20
-96.47421465687104
 30
0.0
 10
73.411022930866
 20
-96.51865638863076
 30
0.0
 10
73.50627982103316
 20
-96.70055743025195
 30
0.0
 10
73.60567082578261
 20
-96.89313826787742
 30
0.0
 10
73.62892522030805
 20
-97.12154809854948
 30
0.0
 10
73.62892522030805
 20
-97.29500865623181
 30
0.0
 10
73.62892522030805
 20
-97.46640215662299
 30
0.0
 10
73.60791013784802
 20
-97.69705129936047
 30
0.0
 10
73.50627982103316
 20
-97.88945988221167
 30
0.0
  0
SPLINE
  5
C8
330
C3
100
AcDbEntity
  8
_U+30EC_U+30A4_U+30E4_U+30FC 1
370
     0
100
AcDbSpline
210
0.0
220
0.0
230
1.0
 70
    11
 71
     3
 72
    17
 73
    13
 74
     0
 42
0.0000000001
 43
0.0000000001
 12
1.0
 22
0.0
 32
0.0
 13
1.0
 23
0.0
 33
0.0
 40
0.0
 40
0.0
 40
0.0
 40
0.0
 40
1.0
 40
1.0
 40
1.0
 40
2.0
 40
2.0
 40
2.0
 40
3.0
 40
3.0
 40
3.0
 40
4.0
 40
4.0
 40
4.0
 40
4.0
 10
73.10854354726106
 20
-96.6667954944965
 30
0.0
 10
72.8589463793547
 20
-96.6667954944965
 30
0.0
 10
72.81243759030384
 20
-96.95015459815829
 30
0.0
 10
72.81243759030384
 20
-97.29500865623181
 30
0.0
 10
72.81243759030384
 20
-97.61454126248873
 30
0.0
 10
72.8484388381247
 20
-97.92339407274137
 30
0.0
 10
73.10854354726106
 20
-97.92339407274137
 30
0.0
 10
73.35607365787627
 20
-97.92339407274137
 30
0.0
 10
73.40482175899255
 20
-97.64192977159647
 30
0.0
 10
73.40482175899255
 20
-97.29500865623181
 30
0.0
 10
73.40482175899255
 20
-96.97564830474914
 30
0.0
 10
73.36658119910628
 20
-96.6667954944965
 30
0.0
 10
73.10854354726106
 20
-96.6667954944965
 30
0.0
  0
HATCH
  5
C9
330
C3
100
AcDbEntity
  8
_U+30EC_U+30A4_U+30E4_U+30FC 1
 62
   179
420
  2234388
100
AcDbHatch
 10
0.0
 20
0.0
 30
0.0
210
0.0
220
0.0
230
1.0
  2
SOLID
 70
     1
 71
     0
 91
        2
 92
        1
 93
        1
 72
     4
 94
        3
 73
     0
 74
     1
 95
       29
 96
       25
 40
0.0
 40
0.0
 40
0.0
 40
0.0
 40
1.0
 40
1.0
 40
1.0
 40
2.0
 40
2.0
 40
2.0
 40
3.0
 40
3.0
 40
3.0
 40
4.0
 40
4.0
 40
4.0
 40
5.0
 40
5.0
 40
5.0
 40
6.0
 40
6.0
 40
6.0
 40
7.0
 40
7.0
 40
7.0
 40
8.0
 40
8.0
 40
8.0
 40
8.0
 10
73.50627982103316
 20
-97.88945988221167
 10
73.39844833234484
 20
-98.09892168771486
 10
73.22498777466251
 20
-98.11804196765799
 10
73.10854354726106
 20
-98.11804196765799
 10
72.94782984287416
 20
-98.11804196765799
 10
72.80606416365613
 20
-98.07153317860713
 10
72.71080727348897
 20
-97.88945988221167
 10
72.6072821541572
 20
-97.69498424206931
 10
72.58816187421408
 20
-97.45796167268412
 10
72.58816187421408
 20
-97.29500865623181
 10
72.58816187421408
 20
-97.15117591972263
 10
72.6050428420918
 20
-96.89951169452513
 10
72.71080727348897
 20
-96.70055743025195
 10
72.81881101695156
 20
-96.49746905139646
 10
72.97952472133845
 20
-96.47421465687104
 10
73.10854354726106
 20
-96.47421465687104
 10
73.26719019435681
 20
-96.47421465687104
 10
73.411022930866
 20
-96.51865638863076
 10
73.50627982103316
 20
-96.70055743025195
 10
73.60567082578261
 20
-96.89313826787742
 10
73.62892522030805
 20
-97.12154809854948
 10
73.62892522030805
 20
-97.29500865623181
 10
73.62892522030805
 20
-97.46640215662299
 10
73.60791013784802
 20
-97.69705129936047
 10
73.50627982103316
 20
-97.88945988221167
 97
        0
 97
        0
 92
        1
 93
        1
 72
     4
 94
        3
 73
     0
 74
     1
 95
       17
 96
       13
 40
0.0
 40
0.0
 40
0.0
 40
0.0
 40
1.0
 40
1.0
 40
1.0
 40
2.0
 40
2.0
 40
2.0
 40
3.0
 40
3.0
 40
3.0
 40
4.0
 40
4.0
 40
4.0
 40
4.0
 10
73.10854354726106
 20
-96.6667954944965
 10
72.8589463793547
 20
-96.6667954944965
 10
72.81243759030384
 20
-96.95015459815829
 10
72.81243759030384
 20
-97.29500865623181
 10
72.81243759030384
 20
-97.61454126248873
 10
72.8484388381247
 20
-97.92339407274137
 10
73.10854354726106
 20
-97.92339407274137
 10
73.35607365787627
 20
-97.92339407274137
 10
73.40482175899255
 20
-97.64192977159647
 10
73.40482175899255
 20
-97.29500865623181
 10
73.40482175899255
 20
-96.97564830474914
 10
73.36658119910628
 20
-96.6667954944965
 10
73.10854354726106
 20
-96.6667954944965
 97
        0
 97
        0
 75
     2
 76
     1
 98
        0
  0
POLYLINE
  5
CA
330
C3
100
AcDbEntity
  8
_U+30EC_U+30A4_U+30E4_U+30FC 1
370
     0
100
AcDb2dPolyline
 66
     1
 10
0.0
 20
0.0
 30
0.0
  0
VERTEX
  5
CB
330
CA
100
AcDbEntity
  8
_U+30EC_U+30A4_U+30E4_U+30FC 1
370
     0
100
AcDbVertex
100
AcDb2dVertex
 10
73.84544947155601
 20
-98.06722680925056
 30
0.0
  0
VERTEX
  5
CC
330
CA
100
AcDbEntity
  8
_U+30EC_U+30A4_U+30E4_U+30FC 1
370
     0
100
AcDbVertex
100
AcDb2dVertex
 10
73.84544947155601
 20
-97.81556258405305
 30
0.0
  0
VERTEX
  5
CD
330
CA
100
AcDbEntity
  8
_U+30EC_U+30A4_U+30E4_U+30FC 1
370
     0
100
AcDbVertex
100
AcDb2dVertex
 10
74.0971136967535
 20
-97.81556258405305
 30
0.0
  0
VERTEX
  5
CE
330
CA
100
AcDbEntity
  8
_U+30EC_U+30A4_U+30E4_U+30FC 1
370
     0
100
AcDbVertex
100
AcDb2dVertex
 10
74.0971136967535
 20
-98.06722680925056
 30
0.0
  0
VERTEX
  5
CF
330
CA
100
AcDbEntity
  8
_U+30EC_U+30A4_U+30E4_U+30FC 1
370
     0
100
AcDbVertex
100
AcDb2dVertex
 10
73.84544947155601
 20
-98.06722680925056
 30
0.0
  0
SEQEND
  5
D0
330
CA
100
AcDbEntity
  8
_U+30EC_U+30A4_U+30E4_U+30FC 1
370
     0
  0
HATCH
  5
D1
330
C3
100
AcDbEntity
  8
_U+30EC_U+30A4_U+30E4_U+30FC 1
 62
   179
420
  2234388
100
AcDbHatch
 10
0.0
 20
0.0
 30
0.0
210
0.0
220
0.0
230
1.0
  2
SOLID
 70
     1
 71
     0
 91
        1
 92
        1
 93
        4
 72
     1
 10
73.84544947155601
 20
-98.06722680925056
 11
73.84544947155601
 21
-97.81556258405305
 72
     1
 10
73.84544947155601
 20
-97.81556258405305
 11
74.0971136967535
 21
-97.81556258405305
 72
     1
 10
74.0971136967535
 20
-97.81556258405305
 11
74.0971136967535
 21
-98.06722680925056
 72
     1
 10
74.0971136967535
 20
-98.06722680925056
 11
73.84544947155601
 21
-98.06722680925056
 97
        0
 75
     2
 76
     1
 98
        0
  0
POLYLINE
  5
D2
330
C3
100
AcDbEntity
  8
_U+30EC_U+30A4_U+30E4_U+30FC 1
370
     0
100
AcDb2dPolyline
 66
     1
 10
0.0
 20
0.0
 30
0.0
  0
VERTEX
  5
D3
330
D2
100
AcDbEntity
  8
_U+30EC_U+30A4_U+30E4_U+30FC 1
370
     0
100
AcDbVertex
100
AcDb2dVertex
 10
75.165782316278
 20
-97.7203056938859
 30
0.0
  0
VERTEX
  5
D4
330
D2
100
AcDbEntity
  8
_U+30EC_U+30A4_U+30E4_U+30FC 1
370
     0
100
AcDbVertex
100
AcDb2dVertex
 10
75.165782316278
 20
-98.06722680925056
 30
0.0
  0
VERTEX
  5
D5
330
D2
100
AcDbEntity
  8
_U+30EC_U+30A4_U+30E4_U+30FC 1
370
     0
100
AcDbVertex
100
AcDb2dVertex
 10
74.94788002683595
 20
-98.06722680925056
 30
0.0
  0
VERTEX
  5
D6
330
D2
100
AcDbEntity
  8
_U+30EC_U+30A4_U+30E4_U+30FC 1
370
     0
100
AcDbVertex
100
AcDb2dVertex
 10
74.94788002683595
 20
-97.7203056938859
 30
0.0
  0
VERTEX
  5
D7
330
D2
100
AcDbEntity
  8
_U+30EC_U+30A4_U+30E4_U+30FC 1
370
     0
100
AcDbVertex
100
AcDb2dVertex
 10
74.29210610121865
 20
-97.7203056938859
 30
0.0
  0
VERTEX
  5
D8
330
D2
100
AcDbEntity
  8
_U+30EC_U+30A4_U+30E4_U+30FC 1
370
     0
100
AcDbVertex
100
AcDb2dVertex
 10
74.29210610121865
 20
-97.49602997779614
 30
0.0
  0
VERTEX
  5
D9
330
D2
100
AcDbEntity
  8
_U+30EC_U+30A4_U+30E4_U+30FC 1
370
     0
100
AcDbVertex
100
AcDb2dVertex
 10
74.97113442136138
 20
-96.52296275798732
 30
0.0
  0
VERTEX
  5
DA
330
D2
100
AcDbEntity
  8
_U+30EC_U+30A4_U+30E4_U+30FC 1
370
     0
100
AcDbVertex
100
AcDb2dVertex
 10
75.165782316278
 20
-96.52296275798732
 30
0.0
  0
VERTEX
  5
DB
330
D2
100
AcDbEntity
  8
_U+30EC_U+30A4_U+30E4_U+30FC 1
370
     0
100
AcDbVertex
100
AcDb2dVertex
 10
75.165782316278
 20
-97.52135142961272
 30
0.0
  0
VERTEX
  5
DC
330
D2
100
AcDbEntity
  8
_U+30EC_U+30A4_U+30E4_U+30FC 1
370
     0
100
AcDbVertex
100
AcDb2dVertex
 10
75.37317706449004
 20
-97.52135142961272
 30
0.0
  0
VERTEX
  5
DD
330
D2
100
AcDbEntity
  8
_U+30EC_U+30A4_U+30E4_U+30FC 1
370
     0
100
AcDbVertex
100
AcDb2dVertex
 10
75.37317706449004
 20
-97.7203056938859
 30
0.0
  0
VERTEX
  5
DE
330
D2
100
AcDbEntity
  8
_U+30EC_U+30A4_U+30E4_U+30FC 1
370
     0
100
AcDbVertex
100
AcDb2dVertex
 10
75.165782316278
 20
-97.7203056938859
 30
0.0
  0
SEQEND
  5
DF
330
D2
100
AcDbEntity
  8
_U+30EC_U+30A4_U+30E4_U+30FC 1
370
     0
  0
POLYLINE
  5
E0
330
C3
100
AcDbEntity
  8
_U+30EC_U+30A4_U+30E4_U+30FC 1
370
     0
100
AcDb2dPolyline
 66
     1
 10
0.0
 20
0.0
 30
0.0
  0
VERTEX
  5
E1
330
E0
100
AcDbEntity
  8
_U+30EC_U+30A4_U+30E4_U+30FC 1
370
     0
100
AcDbVertex
100
AcDb2dVertex
 10
74.94788002683595
 20
-96.86557750399541
 30
0.0
  0
VERTEX
  5
E2
330
E0
100
AcDbEntity
  8
_U+30EC_U+30A4_U+30E4_U+30FC 1
370
     0
100
AcDbVertex
100
AcDb2dVertex
 10
74.49106036549182
 20
-97.52135142961272
 30
0.0
  0
VERTEX
  5
E3
330
E0
100
AcDbEntity
  8
_U+30EC_U+30A4_U+30E4_U+30FC 1
370
     0
100
AcDbVertex
100
AcDb2dVertex
 10
74.94788002683595
 20
-97.52135142961272
 30
0.0
  0
VERTEX
  5
E4
330
E0
100
AcDbEntity
  8
_U+30EC_U+30A4_U+30E4_U+30FC 1
370
     0
100
AcDbVertex
100
AcDb2dVertex
 10
74.94788002683595
 20
-96.86557750399541
 30
0.0
  0
SEQEND
  5
E5
330
E0
100
AcDbEntity
  8
_U+30EC_U+30A4_U+30E4_U+30FC 1
370
     0
  0
HATCH
  5
E6
330
C3
100
AcDbEntity
  8
_U+30EC_U+30A4_U+30E4_U+30FC 1
 62
   179
420
  2234388
100
AcDbHatch
 10
0.0
 20
0.0
 30
0.0
210
0.0
220
0.0
230
1.0
  2
SOLID
 70
     1
 71
     0
 91
        2
 92
        1
 93
       11
 72
     1
 10
75.165782316278
 20
-97.7203056938859
 11
75.165782316278
 21
-98.06722680925056
 72
     1
 10
75.165782316278
 20
-98.06722680925056
 11
74.94788002683595
 21
-98.06722680925056
 72
     1
 10
74.94788002683595
 20
-98.06722680925056
 11
74.94788002683595
 21
-97.7203056938859
 72
     1
 10
74.94788002683595
 20
-97.7203056938859
 11
74.29210610121865
 21
-97.7203056938859
 72
     1
 10
74.29210610121865
 20
-97.7203056938859
 11
74.29210610121865
 21
-97.49602997779614
 72
     1
 10
74.29210610121865
 20
-97.49602997779614
 11
74.97113442136138
 21
-96.52296275798732
 72
     1
 10
74.97113442136138
 20
-96.52296275798732
 11
75.165782316278
 21
-96.52296275798732
 72
     1
 10
75.165782316278
 20
-96.52296275798732
 11
75.165782316278
 21
-97.52135142961272
 72
     1
 10
75.165782316278
 20
-97.52135142961272
 11
75.37317706449004
 21
-97.52135142961272
 72
     1
 10
75.37317706449004
 20
-97.52135142961272
 11
75.37317706449004
 21
-97.7203056938859
 72
     1
 10
75.37317706449004
 20
-97.7203056938859
 11
75.165782316278
 21
-97.7203056938859
 97
        0
 92
        1
 93
        3
 72
     1
 10
74.94788002683595
 20
-96.86557750399541
 11
74.49106036549182
 21
-97.52135142961272
 72
     1
 10
74.49106036549182
 20
-97.52135142961272
 11
74.94788002683595
 21
-97.52135142961272
 72
     1
 10
74.94788002683595
 20
-97.52135142961272
 11
74.94788002683595
 21
-96.86557750399541
 97
        0
 75
     2
 76
     1
 98
        0
  0
ENDBLK
  5
C6
330
C3
100
AcDbEntity
  8
0
100
AcDbBlockEnd
  0
BLOCK
  5
F5
330
F3
100
AcDbEntity
  8
0
100
AcDbBlockBegin
  2
block 5
 70
     0
 10
0.0
 20
0.0
 30
0.0
  3
block 5
  1

  0
SPLINE
  5
F7
330
F3
100
AcDbEntity
  8
_U+30EC_U+30A4_U+30E4_U+30FC 1
370
     0
100
AcDbSpline
210
0.0
220
0.0
230
1.0
 70
    11
 71
     3
 72
    53
 73
    49
 74
     0
 42
0.0000000001
 43
0.0000000001
 12
1.0
 22
0.0
 32
0.0
 13
1.0
 23
0.0
 33
0.0
 40
0.0
 40
0.0
 40
0.0
 40
0.0
 40
1.0
 40
1.0
 40
1.0
 40
2.0
 40
2.0
 40
2.0
 40
3.0
 40
3.0
 40
3.0
 40
4.0
 40
4.0
 40
4.0
 40
5.0
 40
5.0
 40
5.0
 40
6.0
 40
6.0
 40
6.0
 40
7.0
 40
7.0
 40
7.0
 40
8.0
 40
8.0
 40
8.0
 40
9.0
 40
9.0
 40
9.0
 40
10.0
 40
10.0
 40
10.0
 40
11.0
 40
11.0
 40
11.0
 40
12.0
 40
12.0
 40
12.0
 40
13.0
 40
13.0
 40
13.0
 40
14.0
 40
14.0
 40
14.0
 40
15.0
 40
15.0
 40
15.0
 40
16.0
 40
16.0
 40
16.0
 40
16.0
 10
62.08837210904388
 20
-128.9099609052725
 30
0.0
 10
62.08837210904388
 20
-128.9881645727877
 30
0.0
 10
62.07149114116616
 20
-129.0897948896026
 30
0.0
 10
62.0079291294633
 20
-129.1914252064174
 30
0.0
 10
61.89785832870957
 20
-129.3647135093255
 30
0.0
 10
61.76677244549581
 20
-129.386073101334
 30
0.0
 10
61.65894095680749
 20
-129.4050211265029
 30
0.0
 10
61.65894095680749
 20
-129.4050211265029
 30
0.0
 10
61.65894095680749
 20
-129.1828124677043
 30
0.0
 10
61.65894095680749
 20
-129.1828124677043
 30
0.0
 10
61.8577229663064
 20
-129.1280354494888
 30
0.0
 10
61.88735078747955
 20
-129.0009114260831
 30
0.0
 10
61.88735078747955
 20
-128.9078938479814
 30
0.0
 10
61.88735078747955
 20
-128.7683674808287
 30
0.0
 10
61.7879597827301
 20
-128.6160942603807
 30
0.0
 10
61.55524358270147
 20
-128.6160942603807
 30
0.0
 10
61.29927298814741
 20
-128.6160942603807
 30
0.0
 10
61.22950980457109
 20
-128.7959282447108
 30
0.0
 10
61.22950980457109
 20
-128.9165065866945
 30
0.0
 10
61.22950980457109
 20
-128.9482014651588
 30
0.0
 10
61.22950980457109
 20
-129.0897948896026
 30
0.0
 10
61.3585286304937
 20
-129.178678353122
 30
0.0
 10
61.3585286304937
 20
-129.178678353122
 30
0.0
 10
61.33940835055057
 20
-129.3543782228697
 30
0.0
 10
61.33940835055057
 20
-129.3543782228697
 30
0.0
 10
61.33940835055057
 20
-129.3543782228697
 30
0.0
 10
60.49329289937321
 20
-129.233799880886
 30
0.0
 10
60.49329289937321
 20
-129.233799880886
 30
0.0
 10
60.49329289937321
 20
-129.233799880886
 30
0.0
 10
60.49329289937321
 20
-128.4552083012195
 30
0.0
 10
60.49329289937321
 20
-128.4552083012195
 30
0.0
 10
60.49329289937321
 20
-128.4552083012195
 30
0.0
 10
60.68794079428982
 20
-128.4552083012195
 30
0.0
 10
60.68794079428982
 20
-128.4552083012195
 30
0.0
 10
60.68794079428982
 20
-128.4552083012195
 30
0.0
 10
60.68794079428982
 20
-129.0708468644337
 30
0.0
 10
60.68794079428982
 20
-129.0708468644337
 30
0.0
 10
60.68794079428982
 20
-129.0708468644337
 30
0.0
 10
61.1109985198785
 20
-129.1363036786534
 30
0.0
 10
61.1109985198785
 20
-129.1363036786534
 30
0.0
 10
61.07706432934879
 20
-129.074980979016
 30
0.0
 10
61.03692896694563
 20
-128.9926431969185
 30
0.0
 10
61.03692896694563
 20
-128.8741319122259
 30
0.0
 10
61.03692896694563
 20
-128.620228374963
 30
0.0
 10
61.22313637792339
 20
-128.3832058055778
 30
0.0
 10
61.53612330275833
 20
-128.3832058055778
 30
0.0
 10
61.8535888517241
 20
-128.3832058055778
 30
0.0
 10
62.08837210904388
 20
-128.6074815216676
 30
0.0
 10
62.08837210904388
 20
-128.9099609052725
 30
0.0
  0
HATCH
  5
F8
330
F3
100
AcDbEntity
  8
_U+30EC_U+30A4_U+30E4_U+30FC 1
 62
   179
420
  2234388
100
AcDbHatch
 10
0.0
 20
0.0
 30
0.0
210
0.0
220
0.0
230
1.0
  2
SOLID
 70
     1
 71
     0
 91
        1
 92
        1
 93
        1
 72
     4
 94
        3
 73
     0
 74
     1
 95
       53
 96
       49
 40
0.0
 40
0.0
 40
0.0
 40
0.0
 40
1.0
 40
1.0
 40
1.0
 40
2.0
 40
2.0
 40
2.0
 40
3.0
 40
3.0
 40
3.0
 40
4.0
 40
4.0
 40
4.0
 40
5.0
 40
5.0
 40
5.0
 40
6.0
 40
6.0
 40
6.0
 40
7.0
 40
7.0
 40
7.0
 40
8.0
 40
8.0
 40
8.0
 40
9.0
 40
9.0
 40
9.0
 40
10.0
 40
10.0
 40
10.0
 40
11.0
 40
11.0
 40
11.0
 40
12.0
 40
12.0
 40
12.0
 40
13.0
 40
13.0
 40
13.0
 40
14.0
 40
14.0
 40
14.0
 40
15.0
 40
15.0
 40
15.0
 40
16.0
 40
16.0
 40
16.0
 40
16.0
 10
62.08837210904388
 20
-128.9099609052725
 10
62.08837210904388
 20
-128.9881645727877
 10
62.07149114116616
 20
-129.0897948896026
 10
62.0079291294633
 20
-129.1914252064174
 10
61.89785832870957
 20
-129.3647135093255
 10
61.76677244549581
 20
-129.386073101334
 10
61.65894095680749
 20
-129.4050211265029
 10
61.65894095680749
 20
-129.4050211265029
 10
61.65894095680749
 20
-129.1828124677043
 10
61.65894095680749
 20
-129.1828124677043
 10
61.8577229663064
 20
-129.1280354494888
 10
61.88735078747955
 20
-129.0009114260831
 10
61.88735078747955
 20
-128.9078938479814
 10
61.88735078747955
 20
-128.7683674808287
 10
61.7879597827301
 20
-128.6160942603807
 10
61.55524358270147
 20
-128.6160942603807
 10
61.29927298814741
 20
-128.6160942603807
 10
61.22950980457109
 20
-128.7959282447108
 10
61.22950980457109
 20
-128.9165065866945
 10
61.22950980457109
 20
-128.9482014651588
 10
61.22950980457109
 20
-129.0897948896026
 10
61.3585286304937
 20
-129.178678353122
 10
61.3585286304937
 20
-129.178678353122
 10
61.33940835055057
 20
-129.3543782228697
 10
61.33940835055057
 20
-129.3543782228697
 10
61.33940835055057
 20
-129.3543782228697
 10
60.49329289937321
 20
-129.233799880886
 10
60.49329289937321
 20
-129.233799880886
 10
60.49329289937321
 20
-129.233799880886
 10
60.49329289937321
 20
-128.4552083012195
 10
60.49329289937321
 20
-128.4552083012195
 10
60.49329289937321
 20
-128.4552083012195
 10
60.68794079428982
 20
-128.4552083012195
 10
60.68794079428982
 20
-128.4552083012195
 10
60.68794079428982
 20
-128.4552083012195
 10
60.68794079428982
 20
-129.0708468644337
 10
60.68794079428982
 20
-129.0708468644337
 10
60.68794079428982
 20
-129.0708468644337
 10
61.1109985198785
 20
-129.1363036786534
 10
61.1109985198785
 20
-129.1363036786534
 10
61.07706432934879
 20
-129.074980979016
 10
61.03692896694563
 20
-128.9926431969185
 10
61.03692896694563
 20
-128.8741319122259
 10
61.03692896694563
 20
-128.620228374963
 10
61.22313637792339
 20
-128.3832058055778
 10
61.53612330275833
 20
-128.3832058055778
 10
61.8535888517241
 20
-128.3832058055778
 10
62.08837210904388
 20
-128.6074815216676
 10
62.08837210904388
 20
-128.9099609052725
 97
        0
 97
        0
 75
     2
 76
     1
 98
        0
  0
SPLINE
  5
F9
330
F3
100
AcDbEntity
  8
_U+30EC_U+30A4_U+30E4_U+30FC 1
370
     0
100
AcDbSpline
210
0.0
220
0.0
230
1.0
 70
    11
 71
     3
 72
    62
 73
    58
 74
     0
 42
0.0000000001
 43
0.0000000001
 12
1.0
 22
0.0
 32
0.0
 13
1.0
 23
0.0
 33
0.0
 40
0.0
 40
0.0
 40
0.0
 40
0.0
 40
1.0
 40
1.0
 40
1.0
 40
2.0
 40
2.0
 40
2.0
 40
3.0
 40
3.0
 40
3.0
 40
4.0
 40
4.0
 40
4.0
 40
5.0
 40
5.0
 40
5.0
 40
6.0
 40
6.0
 40
6.0
 40
7.0
 40
7.0
 40
7.0
 40
8.0
 40
8.0
 40
8.0
 40
9.0
 40
9.0
 40
9.0
 40
10.0
 40
10.0
 40
10.0
 40
11.0
 40
11.0
 40
11.0
 40
12.0
 40
12.0
 40
12.0
 40
13.0
 40
13.0
 40
13.0
 40
14.0
 40
14.0
 40
14.0
 40
15.0
 40
15.0
 40
15.0
 40
16.0
 40
16.0
 40
16.0
 40
17.0
 40
17.0
 40
17.0
 40
18.0
 40
18.0
 40
18.0
 40
19.0
 40
19.0
 40
19.0
 40
19.0
 10
62.08837210904388
 20
-127.7224364915069
 30
0.0
 10
62.08837210904388
 20
-127.8178656364483
 30
0.0
 10
62.06718477180959
 20
-128.0355956711161
 30
0.0
 10
61.88097736083184
 20
-128.1606526372307
 30
0.0
 10
61.76883950278696
 20
-128.2347221901636
 30
0.0
 10
61.6694484980375
 20
-128.2388563047458
 30
0.0
 10
61.58487140387462
 20
-128.2429904193282
 30
0.0
 10
61.58487140387462
 20
-128.2429904193282
 30
0.0
 10
61.58487140387462
 20
-128.0228488178207
 30
0.0
 10
61.58487140387462
 20
-128.0228488178207
 30
0.0
 10
61.65894095680749
 20
-128.0207817605295
 30
0.0
 10
61.89372421412727
 20
-128.0104464740738
 30
0.0
 10
61.89372421412727
 20
-127.7269151156377
 30
0.0
 10
61.89372421412727
 20
-127.5894558057763
 30
0.0
 10
61.82396103055095
 20
-127.4368380757797
 30
0.0
 10
61.59537894510463
 20
-127.4368380757797
 30
0.0
 10
61.47910697247745
 20
-127.4368380757797
 30
0.0
 10
61.43035887136116
 20
-127.475078635666
 30
0.0
 10
61.39866399289686
 20
-127.5067735141303
 30
0.0
 10
61.324594439964
 20
-127.5808430670631
 30
0.0
 10
61.31201984144283
 20
-127.6972872944646
 30
0.0
 10
61.31201984144283
 20
-127.75206431268
 30
0.0
 10
61.31201984144283
 20
-127.7713568473974
 30
0.0
 10
61.31408689873398
 20
-127.807185840444
 30
0.0
 10
61.31822101331628
 20
-127.834746604326
 30
0.0
 10
61.31822101331628
 20
-127.834746604326
 30
0.0
 10
61.12374537317393
 20
-127.834746604326
 30
0.0
 10
61.12374537317393
 20
-127.834746604326
 30
0.0
 10
61.12994654504737
 20
-127.7965060444398
 30
0.0
 10
61.13218585711279
 20
-127.7544758795197
 30
0.0
 10
61.13218585711279
 20
-127.7479301980977
 30
0.0
 10
61.13218585711279
 20
-127.682473383878
 30
0.0
 10
61.1109985198785
 20
-127.4836913743791
 30
0.0
 10
60.87397595049332
 20
-127.4836913743791
 30
0.0
 10
60.69638127822869
 20
-127.4836913743791
 30
0.0
 10
60.64125975046469
 20
-127.6146050028186
 30
0.0
 10
60.64125975046469
 20
-127.7248480583466
 30
0.0
 10
60.64125975046469
 20
-127.9890868820652
 30
0.0
 10
60.87397595049332
 20
-127.9976996207784
 30
0.0
 10
60.94597844613504
 20
-128.0018337353607
 30
0.0
 10
60.94597844613504
 20
-128.0018337353607
 30
0.0
 10
60.94597844613504
 20
-128.2050943689904
 30
0.0
 10
60.94597844613504
 20
-128.2050943689904
 30
0.0
 10
60.82109373479473
 20
-128.1964816302773
 30
0.0
 10
60.44454479825692
 20
-128.1689208663953
 30
0.0
 10
60.44454479825692
 20
-127.7121012050511
 30
0.0
 10
60.44454479825692
 20
-127.4878254889614
 30
0.0
 10
60.57149656688838
 20
-127.2466688049939
 30
0.0
 10
60.8676025238456
 20
-127.2466688049939
 30
0.0
 10
61.05380993482336
 20
-127.2466688049939
 30
0.0
 10
61.13631997169509
 20
-127.3417534403868
 30
0.0
 10
61.19764267133254
 20
-127.4413166999105
 30
0.0
 10
61.22520343521454
 20
-127.3799940002731
 30
0.0
 10
61.30564641479512
 20
-127.1980929586519
 30
0.0
 10
61.58280434658347
 20
-127.1980929586519
 30
0.0
 10
61.92128497800927
 20
-127.1980929586519
 30
0.0
 10
62.08837210904388
 20
-127.4454508144928
 30
0.0
 10
62.08837210904388
 20
-127.7224364915069
 30
0.0
  0
HATCH
  5
FA
330
F3
100
AcDbEntity
  8
_U+30EC_U+30A4_U+30E4_U+30FC 1
 62
   179
420
  2234388
100
AcDbHatch
 10
0.0
 20
0.0
 30
0.0
210
0.0
220
0.0
230
1.0
  2
SOLID
 70
     1
 71
     0
 91
        1
 92
        1
 93
        1
 72
     4
 94
        3
 73
     0
 74
     1
 95
       62
 96
       58
 40
0.0
 40
0.0
 40
0.0
 40
0.0
 40
1.0
 40
1.0
 40
1.0
 40
2.0
 40
2.0
 40
2.0
 40
3.0
 40
3.0
 40
3.0
 40
4.0
 40
4.0
 40
4.0
 40
5.0
 40
5.0
 40
5.0
 40
6.0
 40
6.0
 40
6.0
 40
7.0
 40
7.0
 40
7.0
 40
8.0
 40
8.0
 40
8.0
 40
9.0
 40
9.0
 40
9.0
 40
10.0
 40
10.0
 40
10.0
 40
11.0
 40
11.0
 40
11.0
 40
12.0
 40
12.0
 40
12.0
 40
13.0
 40
13.0
 40
13.0
 40
14.0
 40
14.0
 40
14.0
 40
15.0
 40
15.0
 40
15.0
 40
16.0
 40
16.0
 40
16.0
 40
17.0
 40
17.0
 40
17.0
 40
18.0
 40
18.0
 40
18.0
 40
19.0
 40
19.0
 40
19.0
 40
19.0
 10
62.08837210904388
 20
-127.7224364915069
 10
62.08837210904388
 20
-127.8178656364483
 10
62.06718477180959
 20
-128.0355956711161
 10
61.88097736083184
 20
-128.1606526372307
 10
61.76883950278696
 20
-128.2347221901636
 10
61.6694484980375
 20
-128.2388563047458
 10
61.58487140387462
 20
-128.2429904193282
 10
61.58487140387462
 20
-128.2429904193282
 10
61.58487140387462
 20
-128.0228488178207
 10
61.58487140387462
 20
-128.0228488178207
 10
61.65894095680749
 20
-128.0207817605295
 10
61.89372421412727
 20
-128.0104464740738
 10
61.89372421412727
 20
-127.7269151156377
 10
61.89372421412727
 20
-127.5894558057763
 10
61.82396103055095
 20
-127.4368380757797
 10
61.59537894510463
 20
-127.4368380757797
 10
61.47910697247745
 20
-127.4368380757797
 10
61.43035887136116
 20
-127.475078635666
 10
61.39866399289686
 20
-127.5067735141303
 10
61.324594439964
 20
-127.5808430670631
 10
61.31201984144283
 20
-127.6972872944646
 10
61.31201984144283
 20
-127.75206431268
 10
61.31201984144283
 20
-127.7713568473974
 10
61.31408689873398
 20
-127.807185840444
 10
61.31822101331628
 20
-127.834746604326
 10
61.31822101331628
 20
-127.834746604326
 10
61.12374537317393
 20
-127.834746604326
 10
61.12374537317393
 20
-127.834746604326
 10
61.12994654504737
 20
-127.7965060444398
 10
61.13218585711279
 20
-127.7544758795197
 10
61.13218585711279
 20
-127.7479301980977
 10
61.13218585711279
 20
-127.682473383878
 10
61.1109985198785
 20
-127.4836913743791
 10
60.87397595049332
 20
-127.4836913743791
 10
60.69638127822869
 20
-127.4836913743791
 10
60.64125975046469
 20
-127.6146050028186
 10
60.64125975046469
 20
-127.7248480583466
 10
60.64125975046469
 20
-127.9890868820652
 10
60.87397595049332
 20
-127.9976996207784
 10
60.94597844613504
 20
-128.0018337353607
 10
60.94597844613504
 20
-128.0018337353607
 10
60.94597844613504
 20
-128.2050943689904
 10
60.94597844613504
 20
-128.2050943689904
 10
60.82109373479473
 20
-128.1964816302773
 10
60.44454479825692
 20
-128.1689208663953
 10
60.44454479825692
 20
-127.7121012050511
 10
60.44454479825692
 20
-127.4878254889614
 10
60.57149656688838
 20
-127.2466688049939
 10
60.8676025238456
 20
-127.2466688049939
 10
61.05380993482336
 20
-127.2466688049939
 10
61.13631997169509
 20
-127.3417534403868
 10
61.19764267133254
 20
-127.4413166999105
 10
61.22520343521454
 20
-127.3799940002731
 10
61.30564641479512
 20
-127.1980929586519
 10
61.58280434658347
 20
-127.1980929586519
 10
61.92128497800927
 20
-127.1980929586519
 10
62.08837210904388
 20
-127.4454508144928
 10
62.08837210904388
 20
-127.7224364915069
 97
        0
 97
        0
 75
     2
 76
     1
 98
        0
  0
ENDBLK
  5
F6
330
F3
100
AcDbEntity
  8
0
100
AcDbBlockEnd
  0
BLOCK
  5
109
330
107
100
AcDbEntity
  8
0
100
AcDbBlockBegin
  2
block 6
 70
     0
 10
0.0
 20
0.0
 30
0.0
  3
block 6
  1

  0
SPLINE
  5
10B
330
107
100
AcDbEntity
  8
_U+30EC_U+30A4_U+30E4_U+30FC 1
370
     0
100
AcDbSpline
210
0.0
220
0.0
230
1.0
 70
    11
 71
     3
 72
    53
 73
    49
 74
     0
 42
0.0000000001
 43
0.0000000001
 12
1.0
 22
0.0
 32
0.0
 13
1.0
 23
0.0
 33
0.0
 40
0.0
 40
0.0
 40
0.0
 40
0.0
 40
1.0
 40
1.0
 40
1.0
 40
2.0
 40
2.0
 40
2.0
 40
3.0
 40
3.0
 40
3.0
 40
4.0
 40
4.0
 40
4.0
 40
5.0
 40
5.0
 40
5.0
 40
6.0
 40
6.0
 40
6.0
 40
7.0
 40
7.0
 40
7.0
 40
8.0
 40
8.0
 40
8.0
 40
9.0
 40
9.0
 40
9.0
 40
10.0
 40
10.0
 40
10.0
 40
11.0
 40
11.0
 40
11.0
 40
12.0
 40
12.0
 40
12.0
 40
13.0
 40
13.0
 40
13.0
 40
14.0
 40
14.0
 40
14.0
 40
15.0
 40
15.0
 40
15.0
 40
16.0
 40
16.0
 40
16.0
 40
16.0
 10
93.35175236381484
 20
-158.5184895437037
 30
0.0
 10
93.27320418675114
 20
-158.5184895437037
 30
0.0
 10
93.17191837948481
 20
-158.501608575826
 30
0.0
 10
93.07028806266993
 20
-158.4382188188974
 30
0.0
 10
92.89699975976187
 20
-158.3283202729179
 30
0.0
 10
92.87564016775332
 20
-158.1970621349299
 30
0.0
 10
92.85669214258444
 20
-158.0892306462416
 30
0.0
 10
92.85669214258444
 20
-158.0892306462416
 30
0.0
 10
93.07890080138306
 20
-158.0892306462416
 30
0.0
 10
93.07890080138306
 20
-158.0892306462416
 30
0.0
 10
93.13402232914706
 20
-158.2880126557405
 30
0.0
 10
93.26080184300424
 20
-158.3176404769137
 30
0.0
 10
93.353819421106
 20
-158.3176404769137
 30
0.0
 10
93.49369029780713
 20
-158.3176404769137
 30
0.0
 10
93.64596351825519
 20
-158.2180772173899
 30
0.0
 10
93.64596351825519
 20
-157.9855332721356
 30
0.0
 10
93.64596351825519
 20
-157.7295626775815
 30
0.0
 10
93.46612953392514
 20
-157.6596272392309
 30
0.0
 10
93.3455511919414
 20
-157.6596272392309
 30
0.0
 10
93.31385631347709
 20
-157.6596272392309
 30
0.0
 10
93.17191837948481
 20
-157.6596272392309
 30
0.0
 10
93.08303491596536
 20
-157.7888183199278
 30
0.0
 10
93.08303491596536
 20
-157.7888183199278
 30
0.0
 10
92.90733504621761
 20
-157.7698702947589
 30
0.0
 10
92.90733504621761
 20
-157.7698702947589
 30
0.0
 10
92.90733504621761
 20
-157.7698702947589
 30
0.0
 10
93.02791338820136
 20
-156.923410334033
 30
0.0
 10
93.02791338820136
 20
-156.923410334033
 30
0.0
 10
93.02791338820136
 20
-156.923410334033
 30
0.0
 10
93.80650496786782
 20
-156.923410334033
 30
0.0
 10
93.80650496786782
 20
-156.923410334033
 30
0.0
 10
93.80650496786782
 20
-156.923410334033
 30
0.0
 10
93.80650496786782
 20
-157.1180582289496
 30
0.0
 10
93.80650496786782
 20
-157.1180582289496
 30
0.0
 10
93.80650496786782
 20
-157.1180582289496
 30
0.0
 10
93.19086640465368
 20
-157.1180582289496
 30
0.0
 10
93.19086640465368
 20
-157.1180582289496
 30
0.0
 10
93.19086640465368
 20
-157.1180582289496
 30
0.0
 10
93.12540959043393
 20
-157.5411159545383
 30
0.0
 10
93.12540959043393
 20
-157.5411159545383
 30
0.0
 10
93.18673229007138
 20
-157.5073540187829
 30
0.0
 10
93.26907007216884
 20
-157.4670464016055
 30
0.0
 10
93.38758135686145
 20
-157.4670464016055
 30
0.0
 10
93.64148489412436
 20
-157.4670464016055
 30
0.0
 10
93.87850746350955
 20
-157.6534260673575
 30
0.0
 10
93.87850746350955
 20
-157.9665852469667
 30
0.0
 10
93.87850746350955
 20
-158.2838785411582
 30
0.0
 10
93.65423174741979
 20
-158.5184895437037
 30
0.0
 10
93.35175236381484
 20
-158.5184895437037
 30
0.0
  0
HATCH
  5
10C
330
107
100
AcDbEntity
  8
_U+30EC_U+30A4_U+30E4_U+30FC 1
 62
   179
420
  2234388
100
AcDbHatch
 10
0.0
 20
0.0
 30
0.0
210
0.0
220
0.0
230
1.0
  2
SOLID
 70
     1
 71
     0
 91
        1
 92
        1
 93
        1
 72
     4
 94
        3
 73
     0
 74
     1
 95
       53
 96
       49
 40
0.0
 40
0.0
 40
0.0
 40
0.0
 40
1.0
 40
1.0
 40
1.0
 40
2.0
 40
2.0
 40
2.0
 40
3.0
 40
3.0
 40
3.0
 40
4.0
 40
4.0
 40
4.0
 40
5.0
 40
5.0
 40
5.0
 40
6.0
 40
6.0
 40
6.0
 40
7.0
 40
7.0
 40
7.0
 40
8.0
 40
8.0
 40
8.0
 40
9.0
 40
9.0
 40
9.0
 40
10.0
 40
10.0
 40
10.0
 40
11.0
 40
11.0
 40
11.0
 40
12.0
 40
12.0
 40
12.0
 40
13.0
 40
13.0
 40
13.0
 40
14.0
 40
14.0
 40
14.0
 40
15.0
 40
15.0
 40
15.0
 40
16.0
 40
16.0
 40
16.0
 40
16.0
 10
93.35175236381484
 20
-158.5184895437037
 10
93.27320418675114
 20
-158.5184895437037
 10
93.17191837948481
 20
-158.501608575826
 10
93.07028806266993
 20
-158.4382188188974
 10
92.89699975976187
 20
-158.3283202729179
 10
92.87564016775332
 20
-158.1970621349299
 10
92.85669214258444
 20
-158.0892306462416
 10
92.85669214258444
 20
-158.0892306462416
 10
93.07890080138306
 20
-158.0892306462416
 10
93.07890080138306
 20
-158.0892306462416
 10
93.13402232914706
 20
-158.2880126557405
 10
93.26080184300424
 20
-158.3176404769137
 10
93.353819421106
 20
-158.3176404769137
 10
93.49369029780713
 20
-158.3176404769137
 10
93.64596351825519
 20
-158.2180772173899
 10
93.64596351825519
 20
-157.9855332721356
 10
93.64596351825519
 20
-157.7295626775815
 10
93.46612953392514
 20
-157.6596272392309
 10
93.3455511919414
 20
-157.6596272392309
 10
93.31385631347709
 20
-157.6596272392309
 10
93.17191837948481
 20
-157.6596272392309
 10
93.08303491596536
 20
-157.7888183199278
 10
93.08303491596536
 20
-157.7888183199278
 10
92.90733504621761
 20
-157.7698702947589
 10
92.90733504621761
 20
-157.7698702947589
 10
92.90733504621761
 20
-157.7698702947589
 10
93.02791338820136
 20
-156.923410334033
 10
93.02791338820136
 20
-156.923410334033
 10
93.02791338820136
 20
-156.923410334033
 10
93.80650496786782
 20
-156.923410334033
 10
93.80650496786782
 20
-156.923410334033
 10
93.80650496786782
 20
-156.923410334033
 10
93.80650496786782
 20
-157.1180582289496
 10
93.80650496786782
 20
-157.1180582289496
 10
93.80650496786782
 20
-157.1180582289496
 10
93.19086640465368
 20
-157.1180582289496
 10
93.19086640465368
 20
-157.1180582289496
 10
93.19086640465368
 20
-157.1180582289496
 10
93.12540959043393
 20
-157.5411159545383
 10
93.12540959043393
 20
-157.5411159545383
 10
93.18673229007138
 20
-157.5073540187829
 10
93.26907007216884
 20
-157.4670464016055
 10
93.38758135686145
 20
-157.4670464016055
 10
93.64148489412436
 20
-157.4670464016055
 10
93.87850746350955
 20
-157.6534260673575
 10
93.87850746350955
 20
-157.9665852469667
 10
93.87850746350955
 20
-158.2838785411582
 10
93.65423174741979
 20
-158.5184895437037
 10
93.35175236381484
 20
-158.5184895437037
 97
        0
 97
        0
 75
     2
 76
     1
 98
        0
  0
SPLINE
  5
10D
330
107
100
AcDbEntity
  8
_U+30EC_U+30A4_U+30E4_U+30FC 1
370
     0
100
AcDbSpline
210
0.0
220
0.0
230
1.0
 70
    11
 71
     3
 72
    62
 73
    58
 74
     0
 42
0.0000000001
 43
0.0000000001
 12
1.0
 22
0.0
 32
0.0
 13
1.0
 23
0.0
 33
0.0
 40
0.0
 40
0.0
 40
0.0
 40
0.0
 40
1.0
 40
1.0
 40
1.0
 40
2.0
 40
2.0
 40
2.0
 40
3.0
 40
3.0
 40
3.0
 40
4.0
 40
4.0
 40
4.0
 40
5.0
 40
5.0
 40
5.0
 40
6.0
 40
6.0
 40
6.0
 40
7.0
 40
7.0
 40
7.0
 40
8.0
 40
8.0
 40
8.0
 40
9.0
 40
9.0
 40
9.0
 40
10.0
 40
10.0
 40
10.0
 40
11.0
 40
11.0
 40
11.0
 40
12.0
 40
12.0
 40
12.0
 40
13.0
 40
13.0
 40
13.0
 40
14.0
 40
14.0
 40
14.0
 40
15.0
 40
15.0
 40
15.0
 40
16.0
 40
16.0
 40
16.0
 40
17.0
 40
17.0
 40
17.0
 40
18.0
 40
18.0
 40
18.0
 40
19.0
 40
19.0
 40
19.0
 40
19.0
 10
94.53893226803194
 20
-158.5184895437037
 30
0.0
 10
94.44384763263905
 20
-158.5184895437037
 30
0.0
 10
94.22611759797125
 20
-158.4974744612437
 30
0.0
 10
94.10140514140521
 20
-158.3114393050402
 30
0.0
 10
94.02699107892381
 20
-158.1991291922211
 30
0.0
 10
94.02285696434151
 20
-158.0999104422459
 30
0.0
 10
94.01872284975921
 20
-158.0151610933087
 30
0.0
 10
94.01872284975921
 20
-158.0151610933087
 30
0.0
 10
94.23851994171815
 20
-158.0151610933087
 30
0.0
 10
94.23851994171815
 20
-158.0151610933087
 30
0.0
 10
94.2405869990093
 20
-158.0892306462416
 30
0.0
 10
94.2516113045621
 20
-158.3238416487871
 30
0.0
 10
94.53479815344964
 20
-158.3238416487871
 30
0.0
 10
94.67260197285964
 20
-158.3238416487871
 30
0.0
 10
94.82487519330768
 20
-158.2542507199851
 30
0.0
 10
94.82487519330768
 20
-158.025840889313
 30
0.0
 10
94.82487519330768
 20
-157.9093966619116
 30
0.0
 10
94.7866346334214
 20
-157.8608208155695
 30
0.0
 10
94.7549397549571
 20
-157.8291259371052
 30
0.0
 10
94.68087020202424
 20
-157.7550563841723
 30
0.0
 10
94.5644259746228
 20
-157.7423095308769
 30
0.0
 10
94.50930444685879
 20
-157.7423095308769
 30
0.0
 10
94.49070093123844
 20
-157.7423095308769
 30
0.0
 10
94.45452742864332
 20
-157.7443765881681
 30
0.0
 10
94.42696666476132
 20
-157.7485107027504
 30
0.0
 10
94.42696666476132
 20
-157.7485107027504
 30
0.0
 10
94.42696666476132
 20
-157.5538628078338
 30
0.0
 10
94.42696666476132
 20
-157.5538628078338
 30
0.0
 10
94.46520722464759
 20
-157.5604084892557
 30
0.0
 10
94.50723738956763
 20
-157.5624755465469
 30
0.0
 10
94.51378307098962
 20
-157.5624755465469
 30
0.0
 10
94.57923988520936
 20
-157.5624755465469
 30
0.0
 10
94.77802189470827
 20
-157.5411159545383
 30
0.0
 10
94.77802189470827
 20
-157.3044378947017
 30
0.0
 10
94.77802189470827
 20
-157.1266709676628
 30
0.0
 10
94.64710826626879
 20
-157.0715494398988
 30
0.0
 10
94.53686521074079
 20
-157.0715494398988
 30
0.0
 10
94.27262638702213
 20
-157.0715494398988
 30
0.0
 10
94.264013648309
 20
-157.3044378947017
 30
0.0
 10
94.2598795337267
 20
-157.3760958807949
 30
0.0
 10
94.2598795337267
 20
-157.3760958807949
 30
0.0
 10
94.05661890009696
 20
-157.3760958807949
 30
0.0
 10
94.05661890009696
 20
-157.3760958807949
 30
0.0
 10
94.06523163881009
 20
-157.2513834242288
 30
0.0
 10
94.09279240269208
 20
-156.874834487691
 30
0.0
 10
94.54961206403621
 20
-156.874834487691
 30
0.0
 10
94.77388778012597
 20
-156.874834487691
 30
0.0
 10
95.01504446409346
 20
-157.0019585110967
 30
0.0
 10
95.01504446409346
 20
-157.2978922132797
 30
0.0
 10
95.01504446409346
 20
-157.4842718790317
 30
0.0
 10
94.91995982870057
 20
-157.5666096611292
 30
0.0
 10
94.82039656917685
 20
-157.6279323607666
 30
0.0
 10
94.88206377836282
 20
-157.6554931246486
 30
0.0
 10
95.06396481998401
 20
-157.735763849455
 30
0.0
 10
95.06396481998401
 20
-158.0130940360176
 30
0.0
 10
95.06396481998401
 20
-158.3514024126691
 30
0.0
 10
94.81626245459455
 20
-158.5184895437037
 30
0.0
 10
94.53893226803194
 20
-158.5184895437037
 30
0.0
  0
HATCH
  5
10E
330
107
100
AcDbEntity
  8
_U+30EC_U+30A4_U+30E4_U+30FC 1
 62
   179
420
  2234388
100
AcDbHatch
 10
0.0
 20
0.0
 30
0.0
210
0.0
220
0.0
230
1.0
  2
SOLID
 70
     1
 71
     0
 91
        1
 92
        1
 93
        1
 72
     4
 94
        3
 73
     0
 74
     1
 95
       62
 96
       58
 40
0.0
 40
0.0
 40
0.0
 40
0.0
 40
1.0
 40
1.0
 40
1.0
 40
2.0
 40
2.0
 40
2.0
 40
3.0
 40
3.0
 40
3.0
 40
4.0
 40
4.0
 40
4.0
 40
5.0
 40
5.0
 40
5.0
 40
6.0
 40
6.0
 40
6.0
 40
7.0
 40
7.0
 40
7.0
 40
8.0
 40
8.0
 40
8.0
 40
9.0
 40
9.0
 40
9.0
 40
10.0
 40
10.0
 40
10.0
 40
11.0
 40
11.0
 40
11.0
 40
12.0
 40
12.0
 40
12.0
 40
13.0
 40
13.0
 40
13.0
 40
14.0
 40
14.0
 40
14.0
 40
15.0
 40
15.0
 40
15.0
 40
16.0
 40
16.0
 40
16.0
 40
17.0
 40
17.0
 40
17.0
 40
18.0
 40
18.0
 40
18.0
 40
19.0
 40
19.0
 40
19.0
 40
19.0
 10
94.53893226803194
 20
-158.5184895437037
 10
94.44384763263905
 20
-158.5184895437037
 10
94.22611759797125
 20
-158.4974744612437
 10
94.10140514140521
 20
-158.3114393050402
 10
94.02699107892381
 20
-158.1991291922211
 10
94.02285696434151
 20
-158.0999104422459
 10
94.01872284975921
 20
-158.0151610933087
 10
94.01872284975921
 20
-158.0151610933087
 10
94.23851994171815
 20
-158.0151610933087
 10
94.23851994171815
 20
-158.0151610933087
 10
94.2405869990093
 20
-158.0892306462416
 10
94.2516113045621
 20
-158.3238416487871
 10
94.53479815344964
 20
-158.3238416487871
 10
94.67260197285964
 20
-158.3238416487871
 10
94.82487519330768
 20
-158.2542507199851
 10
94.82487519330768
 20
-158.025840889313
 10
94.82487519330768
 20
-157.9093966619116
 10
94.7866346334214
 20
-157.8608208155695
 10
94.7549397549571
 20
-157.8291259371052
 10
94.68087020202424
 20
-157.7550563841723
 10
94.5644259746228
 20
-157.7423095308769
 10
94.50930444685879
 20
-157.7423095308769
 10
94.49070093123844
 20
-157.7423095308769
 10
94.45452742864332
 20
-157.7443765881681
 10
94.42696666476132
 20
-157.7485107027504
 10
94.42696666476132
 20
-157.7485107027504
 10
94.42696666476132
 20
-157.5538628078338
 10
94.42696666476132
 20
-157.5538628078338
 10
94.46520722464759
 20
-157.5604084892557
 10
94.50723738956763
 20
-157.5624755465469
 10
94.51378307098962
 20
-157.5624755465469
 10
94.57923988520936
 20
-157.5624755465469
 10
94.77802189470827
 20
-157.5411159545383
 10
94.77802189470827
 20
-157.3044378947017
 10
94.77802189470827
 20
-157.1266709676628
 10
94.64710826626879
 20
-157.0715494398988
 10
94.53686521074079
 20
-157.0715494398988
 10
94.27262638702213
 20
-157.0715494398988
 10
94.264013648309
 20
-157.3044378947017
 10
94.2598795337267
 20
-157.3760958807949
 10
94.2598795337267
 20
-157.3760958807949
 10
94.05661890009696
 20
-157.3760958807949
 10
94.05661890009696
 20
-157.3760958807949
 10
94.06523163881009
 20
-157.2513834242288
 10
94.09279240269208
 20
-156.874834487691
 10
94.54961206403621
 20
-156.874834487691
 10
94.77388778012597
 20
-156.874834487691
 10
95.01504446409346
 20
-157.0019585110967
 10
95.01504446409346
 20
-157.2978922132797
 10
95.01504446409346
 20
-157.4842718790317
 10
94.91995982870057
 20
-157.5666096611292
 10
94.82039656917685
 20
-157.6279323607666
 10
94.88206377836282
 20
-157.6554931246486
 10
95.06396481998401
 20
-157.735763849455
 10
95.06396481998401
 20
-158.0130940360176
 10
95.06396481998401
 20
-158.3514024126691
 10
94.81626245459455
 20
-158.5184895437037
 10
94.53893226803194
 20
-158.5184895437037
 97
        0
 97
        0
 75
     2
 76
     1
 98
        0
  0
ENDBLK
  5
10A
330
107
100
AcDbEntity
  8
0
100
AcDbBlockEnd
  0
ENDSEC
  0
SECTION
  2
ENTITIES
  0
POLYLINE
  5
41
330
1F
100
AcDbEntity
  8
_U+30EC_U+30A4_U+30E4_U+30FC 1
 62
   179
420
  2234388
370
    25
100
AcDb2dPolyline
 66
     1
 10
0.0
 20
0.0
 30
0.0
  0
VERTEX
  5
42
330
41
100
AcDbEntity
  8
_U+30EC_U+30A4_U+30E4_U+30FC 1
 62
   179
420
  2234388
370
    25
100
AcDbVertex
100
AcDb2dVertex
 10
98.63514720582998
 20
-152.9398557950985
 30
0.0
  0
VERTEX
  5
43
330
41
100
AcDbEntity
  8
_U+30EC_U+30A4_U+30E4_U+30FC 1
 62
   179
420
  2234388
370
    25
100
AcDbVertex
100
AcDb2dVertex
 10
120.8064185846382
 20
-152.9398557950985
 30
0.0
  0
SEQEND
  5
44
330
41
100
AcDbEntity
  8
_U+30EC_U+30A4_U+30E4_U+30FC 1
 62
   179
420
  2234388
370
    25
  0
POLYLINE
  5
45
330
1F
100
AcDbEntity
  8
_U+30EC_U+30A4_U+30E4_U+30FC 1
 62
   179
420
  2234388
370
    25
100
AcDb2dPolyline
 66
     1
 10
0.0
 20
0.0
 30
0.0
  0
VERTEX
  5
46
330
45
100
AcDbEntity
  8
_U+30EC_U+30A4_U+30E4_U+30FC 1
 62
   179
420
  2234388
370
    25
100
AcDbVertex
100
AcDb2dVertex
 10
120.8064185846382
 20
-152.9398557950985
 30
0.0
  0
VERTEX
  5
47
330
45
100
AcDbEntity
  8
_U+30EC_U+30A4_U+30E4_U+30FC 1
 62
   179
420
  2234388
370
    25
100
AcDbVertex
100
AcDb2dVertex
 10
120.8064185846382
 20
-153.4331802394196
 30
0.0
  0
SEQEND
  5
48
330
45
100
AcDbEntity
  8
_U+30EC_U+30A4_U+30E4_U+30FC 1
 62
   179
420
  2234388
370
    25
  0
POLYLINE
  5
49
330
1F
100
AcDbEntity
  8
_U+30EC_U+30A4_U+30E4_U+30FC 1
 62
   179
420
  2234388
370
    25
100
AcDb2dPolyline
 66
     1
 10
0.0
 20
0.0
 30
0.0
  0
VERTEX
  5
4A
330
49
100
AcDbEntity
  8
_U+30EC_U+30A4_U+30E4_U+30FC 1
 62
   179
420
  2234388
370
    25
100
AcDbVertex
100
AcDb2dVertex
 10
69.32030239815842
 20
-101.4542674746365
 30
0.0
  0
VERTEX
  5
4B
330
49
100
AcDbEntity
  8
_U+30EC_U+30A4_U+30E4_U+30FC 1
 62
   179
420
  2234388
370
    25
100
AcDbVertex
100
AcDb2dVertex
 10
68.82835553834856
 20
-101.4542674746365
 30
0.0
  0
SEQEND
  5
4C
330
49
100
AcDbEntity
  8
_U+30EC_U+30A4_U+30E4_U+30FC 1
 62
   179
420
  2234388
370
    25
  0
POLYLINE
  5
4D
330
1F
100
AcDbEntity
  8
_U+30EC_U+30A4_U+30E4_U+30FC 1
 62
   179
420
  2234388
370
    25
100
AcDb2dPolyline
 66
     1
 10
0.0
 20
0.0
 30
0.0
  0
VERTEX
  5
4E
330
4D
100
AcDbEntity
  8
_U+30EC_U+30A4_U+30E4_U+30FC 1
 62
   179
420
  2234388
370
    25
100
AcDbVertex
100
AcDb2dVertex
 10
69.32030239815842
 20
-123.6255394135379
 30
0.0
  0
VERTEX
  5
4F
330
4D
100
AcDbEntity
  8
_U+30EC_U+30A4_U+30E4_U+30FC 1
 62
   179
420
  2234388
370
    25
100
AcDbVertex
100
AcDb2dVertex
 10
69.32030239815842
 20
-101.4542674746365
 30
0.0
  0
SEQEND
  5
50
330
4D
100
AcDbEntity
  8
_U+30EC_U+30A4_U+30E4_U+30FC 1
 62
   179
420
  2234388
370
    25
  0
POLYLINE
  5
51
330
1F
100
AcDbEntity
  8
_U+30EC_U+30A4_U+30E4_U+30FC 1
 62
   179
420
  2234388
370
     9
100
AcDb2dPolyline
 66
     1
 10
0.0
 20
0.0
 30
0.0
  0
VERTEX
  5
52
330
51
100
AcDbEntity
  8
_U+30EC_U+30A4_U+30E4_U+30FC 1
 62
   179
420
  2234388
370
     9
100
AcDbVertex
100
AcDb2dVertex
 10
76.24564749925592
 20
-146.4665246856059
 30
0.0
  0
VERTEX
  5
53
330
51
100
AcDbEntity
  8
_U+30EC_U+30A4_U+30E4_U+30FC 1
 62
   179
420
  2234388
370
     9
100
AcDbVertex
100
AcDb2dVertex
 10
76.8616327613186
 20
-145.399901074761
 30
0.0
  0
SEQEND
  5
54
330
51
100
AcDbEntity
  8
_U+30EC_U+30A4_U+30E4_U+30FC 1
 62
   179
420
  2234388
370
     9
  0
POLYLINE
  5
55
330
1F
100
AcDbEntity
  8
_U+30EC_U+30A4_U+30E4_U+30FC 1
 62
   179
420
  2234388
370
     9
100
AcDb2dPolyline
 66
     1
 10
0.0
 20
0.0
 30
0.0
  0
VERTEX
  5
56
330
55
100
AcDbEntity
  8
_U+30EC_U+30A4_U+30E4_U+30FC 1
 62
   179
420
  2234388
370
     9
100
AcDbVertex
100
AcDb2dVertex
 10
75.7950444551962
 20
-146.0152160746075
 30
0.0
  0
VERTEX
  5
57
330
55
100
AcDbEntity
  8
_U+30EC_U+30A4_U+30E4_U+30FC 1
 62
   179
420
  2234388
370
     9
100
AcDbVertex
100
AcDb2dVertex
 10
76.8616327613186
 20
-145.399901074761
 30
0.0
  0
SEQEND
  5
58
330
55
100
AcDbEntity
  8
_U+30EC_U+30A4_U+30E4_U+30FC 1
 62
   179
420
  2234388
370
     9
  0
POLYLINE
  5
59
330
1F
100
AcDbEntity
  8
_U+30EC_U+30A4_U+30E4_U+30FC 1
 62
   179
420
  2234388
370
     9
100
AcDb2dPolyline
 66
     1
 10
0.0
 20
0.0
 30
0.0
  0
VERTEX
  5
5A
330
59
100
AcDbEntity
  8
_U+30EC_U+30A4_U+30E4_U+30FC 1
 62
   179
420
  2234388
370
     9
100
AcDbVertex
100
AcDb2dVertex
 10
62.91586895043802
 20
-159.3449596823859
 30
0.0
  0
VERTEX
  5
5B
330
59
100
AcDbEntity
  8
_U+30EC_U+30A4_U+30E4_U+30FC 1
 62
   179
420
  2234388
370
     9
100
AcDbVertex
100
AcDb2dVertex
 10
76.8616327613186
 20
-145.399901074761
 30
0.0
  0
SEQEND
  5
5C
330
59
100
AcDbEntity
  8
_U+30EC_U+30A4_U+30E4_U+30FC 1
 62
   179
420
  2234388
370
     9
  0
POLYLINE
  5
5D
330
1F
100
AcDbEntity
  8
_U+30EC_U+30A4_U+30E4_U+30FC 1
 62
   179
420
  2234388
370
     9
100
AcDb2dPolyline
 66
     1
 10
0.0
 20
0.0
 30
0.0
  0
VERTEX
  5
5E
330
5D
100
AcDbEntity
  8
_U+30EC_U+30A4_U+30E4_U+30FC 1
 62
   179
420
  2234388
370
     9
100
AcDbVertex
100
AcDb2dVertex
 10
56.55278105721835
 20
-159.3449596823859
 30
0.0
  0
VERTEX
  5
5F
330
5D
100
AcDbEntity
  8
_U+30EC_U+30A4_U+30E4_U+30FC 1
 62
   179
420
  2234388
370
     9
100
AcDbVertex
100
AcDb2dVertex
 10
62.91586895043802
 20
-159.3449596823859
 30
0.0
  0
SEQEND
  5
60
330
5D
100
AcDbEntity
  8
_U+30EC_U+30A4_U+30E4_U+30FC 1
 62
   179
420
  2234388
370
     9
  0
POLYLINE
  5
61
330
1F
100
AcDbEntity
  8
_U+30EC_U+30A4_U+30E4_U+30FC 1
 62
   179
420
  2234388
370
    25
100
AcDb2dPolyline
 66
     1
 10
0.0
 20
0.0
 30
0.0
  0
VERTEX
  5
62
330
61
100
AcDbEntity
  8
_U+30EC_U+30A4_U+30E4_U+30FC 1
 62
   179
420
  2234388
370
    25
100
AcDbVertex
100
AcDb2dVertex
 10
120.8064185846382
 20
-153.4331802394196
 30
0.0
  0
VERTEX
  5
63
330
61
100
AcDbEntity
  8
_U+30EC_U+30A4_U+30E4_U+30FC 1
 62
   179
420
  2234388
370
    25
100
AcDbVertex
100
AcDb2dVertex
 10
100.0476341142389
 20
-154.3867738502919
 30
0.0
  0
SEQEND
  5
64
330
61
100
AcDbEntity
  8
_U+30EC_U+30A4_U+30E4_U+30FC 1
 62
   179
420
  2234388
370
    25
  0
POLYLINE
  5
65
330
1F
100
AcDbEntity
  8
_U+30EC_U+30A4_U+30E4_U+30FC 1
 62
   179
420
  2234388
370
    25
100
AcDb2dPolyline
 66
     1
 10
0.0
 20
0.0
 30
0.0
  0
VERTEX
  5
66
330
65
100
AcDbEntity
  8
_U+30EC_U+30A4_U+30E4_U+30FC 1
 62
   179
420
  2234388
370
    25
100
AcDbVertex
100
AcDb2dVertex
 10
68.82835553834856
 20
-101.4542674746365
 30
0.0
  0
VERTEX
  5
67
330
65
100
AcDbEntity
  8
_U+30EC_U+30A4_U+30E4_U+30FC 1
 62
   179
420
  2234388
370
    25
100
AcDbVertex
100
AcDb2dVertex
 10
67.87476021281505
 20
-122.2130524694467
 30
0.0
  0
SEQEND
  5
68
330
65
100
AcDbEntity
  8
_U+30EC_U+30A4_U+30E4_U+30FC 1
 62
   179
420
  2234388
370
    25
  0
SPLINE
  5
69
330
1F
100
AcDbEntity
  8
_U+30EC_U+30A4_U+30E4_U+30FC 1
 62
   179
420
  2234388
370
     9
100
AcDbSpline
210
0.0
220
0.0
230
1.0
 70
    11
 71
     3
 72
    17
 73
    13
 74
     0
 42
0.0000000001
 43
0.0000000001
 12
1.0
 22
0.0
 32
0.0
 13
1.0
 23
0.0
 33
0.0
 40
0.0
 40
0.0
 40
0.0
 40
0.0
 40
1.0
 40
1.0
 40
1.0
 40
2.0
 40
2.0
 40
2.0
 40
3.0
 40
3.0
 40
3.0
 40
4.0
 40
4.0
 40
4.0
 40
4.0
 10
123.8566762845974
 20
-152.9398557950985
 30
0.0
 10
123.8566762845974
 20
-152.8723341284488
 30
0.0
 10
123.8015723971143
 20
-152.8171949617957
 30
0.0
 10
123.7340507321703
 20
-152.8171949617957
 30
0.0
 10
123.6658235116887
 20
-152.8171949617957
 30
0.0
 10
123.6107196242056
 20
-152.8723341284488
 30
0.0
 10
123.6107196242056
 20
-152.9398557950985
 30
0.0
 10
123.6107196242056
 20
-153.0080477395256
 30
0.0
 10
123.6658235116887
 20
-153.0631869061786
 30
0.0
 10
123.7340507321703
 20
-153.0631869061786
 30
0.0
 10
123.8015723971143
 20
-153.0631869061786
 30
0.0
 10
123.8566762845974
 20
-153.0080477395256
 30
0.0
 10
123.8566762845974
 20
-152.9398557950985
 30
0.0
  0
SPLINE
  5
6A
330
1F
100
AcDbEntity
  8
_U+30EC_U+30A4_U+30E4_U+30FC 1
 62
   179
420
  2234388
370
     9
100
AcDbSpline
210
0.0
220
0.0
230
1.0
 70
    11
 71
     3
 72
    17
 73
    13
 74
     0
 42
0.0000000001
 43
0.0000000001
 12
1.0
 22
0.0
 32
0.0
 13
1.0
 23
0.0
 33
0.0
 40
0.0
 40
0.0
 40
0.0
 40
0.0
 40
1.0
 40
1.0
 40
1.0
 40
2.0
 40
2.0
 40
2.0
 40
3.0
 40
3.0
 40
3.0
 40
4.0
 40
4.0
 40
4.0
 40
4.0
 10
123.8566762845974
 20
-153.4331802394196
 30
0.0
 10
123.8566762845974
 20
-153.3656585727699
 30
0.0
 10
123.8015723971143
 20
-153.3105546838944
 30
0.0
 10
123.7340507321703
 20
-153.3105546838944
 30
0.0
 10
123.6658235116887
 20
-153.3105546838944
 30
0.0
 10
123.6107196242056
 20
-153.3656585727699
 30
0.0
 10
123.6107196242056
 20
-153.4331802394196
 30
0.0
 10
123.6107196242056
 20
-153.5014074616248
 30
0.0
 10
123.6658235116887
 20
-153.5565113504998
 30
0.0
 10
123.7340507321703
 20
-153.5565113504998
 30
0.0
 10
123.8015723971143
 20
-153.5565113504998
 30
0.0
 10
123.8566762845974
 20
-153.5014074616248
 30
0.0
 10
123.8566762845974
 20
-153.4331802394196
 30
0.0
  0
SPLINE
  5
6B
330
1F
100
AcDbEntity
  8
_U+30EC_U+30A4_U+30E4_U+30FC 1
 62
   179
420
  2234388
370
     9
100
AcDbSpline
210
0.0
220
0.0
230
1.0
 70
    11
 71
     3
 72
    17
 73
    13
 74
     0
 42
0.0000000001
 43
0.0000000001
 12
1.0
 22
0.0
 32
0.0
 13
1.0
 23
0.0
 33
0.0
 40
0.0
 40
0.0
 40
0.0
 40
0.0
 40
1.0
 40
1.0
 40
1.0
 40
2.0
 40
2.0
 40
2.0
 40
3.0
 40
3.0
 40
3.0
 40
4.0
 40
4.0
 40
4.0
 40
4.0
 10
120.9297527475452
 20
-159.3449596823859
 30
0.0
 10
120.9297527475452
 20
-159.2774380157362
 30
0.0
 10
120.8753160828804
 20
-159.2223341268613
 30
0.0
 10
120.8064185846382
 20
-159.2223341268613
 30
0.0
 10
120.7381944142599
 20
-159.2223341268613
 30
0.0
 10
120.6830874766735
 20
-159.2774380157362
 30
0.0
 10
120.6830874766735
 20
-159.3449596823859
 30
0.0
 10
120.6830874766735
 20
-159.4131869045911
 30
0.0
 10
120.7381944142599
 20
-159.468290793466
 30
0.0
 10
120.8064185846382
 20
-159.468290793466
 30
0.0
 10
120.8753160828804
 20
-159.468290793466
 30
0.0
 10
120.9297527475452
 20
-159.4131869045911
 30
0.0
 10
120.9297527475452
 20
-159.3449596823859
 30
0.0
  0
SPLINE
  5
6C
330
1F
100
AcDbEntity
  8
_U+30EC_U+30A4_U+30E4_U+30FC 1
 62
   179
420
  2234388
370
     9
100
AcDbSpline
210
0.0
220
0.0
230
1.0
 70
    11
 71
     3
 72
    17
 73
    13
 74
     0
 42
0.0000000001
 43
0.0000000001
 12
1.0
 22
0.0
 32
0.0
 13
1.0
 23
0.0
 33
0.0
 40
0.0
 40
0.0
 40
0.0
 40
0.0
 40
1.0
 40
1.0
 40
1.0
 40
2.0
 40
2.0
 40
2.0
 40
3.0
 40
3.0
 40
3.0
 40
4.0
 40
4.0
 40
4.0
 40
4.0
 10
67.96570632160594
 20
-159.3449596823859
 30
0.0
 10
67.96570632160594
 20
-159.2774380157362
 30
0.0
 10
67.91056715634598
 20
-159.2223341268613
 30
0.0
 10
67.84237521364126
 20
-159.2223341268613
 30
0.0
 10
67.77485354869721
 20
-159.2223341268613
 30
0.0
 10
67.71971438343726
 20
-159.2774380157362
 30
0.0
 10
67.71971438343726
 20
-159.3449596823859
 30
0.0
 10
67.71971438343726
 20
-159.4131869045911
 30
0.0
 10
67.77485354869721
 20
-159.468290793466
 30
0.0
 10
67.84237521364126
 20
-159.468290793466
 30
0.0
 10
67.91056715634598
 20
-159.468290793466
 30
0.0
 10
67.96570632160594
 20
-159.4131869045911
 30
0.0
 10
67.96570632160594
 20
-159.3449596823859
 30
0.0
  0
SPLINE
  5
6D
330
1F
100
AcDbEntity
  8
_U+30EC_U+30A4_U+30E4_U+30FC 1
 62
   179
420
  2234388
370
     9
100
AcDbSpline
210
0.0
220
0.0
230
1.0
 70
    11
 71
     3
 72
    17
 73
    13
 74
     0
 42
0.0000000001
 43
0.0000000001
 12
1.0
 22
0.0
 32
0.0
 13
1.0
 23
0.0
 33
0.0
 40
0.0
 40
0.0
 40
0.0
 40
0.0
 40
1.0
 40
1.0
 40
1.0
 40
2.0
 40
2.0
 40
2.0
 40
3.0
 40
3.0
 40
3.0
 40
4.0
 40
4.0
 40
4.0
 40
4.0
 10
68.95101462980196
 20
-98.94485330859722
 30
0.0
 10
68.95101462980196
 20
-98.87666136416985
 30
0.0
 10
68.895875464542
 20
-98.8222277530723
 30
0.0
 10
68.82835553834856
 20
-98.8222277530723
 30
0.0
 10
68.76012657911636
 20
-98.8222277530723
 30
0.0
 10
68.70502269163329
 20
-98.87666136416985
 30
0.0
 10
68.70502269163329
 20
-98.94485330859722
 30
0.0
 10
68.70502269163329
 20
-99.01308053080243
 30
0.0
 10
68.76012657911636
 20
-99.06818441967734
 30
0.0
 10
68.82835553834856
 20
-99.06818441967734
 30
0.0
 10
68.895875464542
 20
-99.06818441967734
 30
0.0
 10
68.95101462980196
 20
-99.01308053080243
 30
0.0
 10
68.95101462980196
 20
-98.94485330859722
 30
0.0
  0
SPLINE
  5
6E
330
1F
100
AcDbEntity
  8
_U+30EC_U+30A4_U+30E4_U+30FC 1
 62
   179
420
  2234388
370
     9
100
AcDbSpline
210
0.0
220
0.0
230
1.0
 70
    11
 71
     3
 72
    17
 73
    13
 74
     0
 42
0.0000000001
 43
0.0000000001
 12
1.0
 22
0.0
 32
0.0
 13
1.0
 23
0.0
 33
0.0
 40
0.0
 40
0.0
 40
0.0
 40
0.0
 40
1.0
 40
1.0
 40
1.0
 40
2.0
 40
2.0
 40
2.0
 40
3.0
 40
3.0
 40
3.0
 40
4.0
 40
4.0
 40
4.0
 40
4.0
 10
69.44363350612309
 20
-98.94485330859722
 30
0.0
 10
69.44363350612309
 20
-98.87666136416985
 30
0.0
 10
69.38852961864002
 20
-98.8222277530723
 30
0.0
 10
69.32030239815842
 20
-98.8222277530723
 30
0.0
 10
69.25278073321437
 20
-98.8222277530723
 30
0.0
 10
69.1976768457313
 20
-98.87666136416985
 30
0.0
 10
69.1976768457313
 20
-98.94485330859722
 30
0.0
 10
69.1976768457313
 20
-99.01308053080243
 30
0.0
 10
69.25278073321437
 20
-99.06818441967734
 30
0.0
 10
69.32030239815842
 20
-99.06818441967734
 30
0.0
 10
69.38852961864002
 20
-99.06818441967734
 30
0.0
 10
69.44363350612309
 20
-99.01308053080243
 30
0.0
 10
69.44363350612309
 20
-98.94485330859722
 30
0.0
  0
SPLINE
  5
6F
330
1F
100
AcDbEntity
  8
_U+30EC_U+30A4_U+30E4_U+30FC 1
 62
   179
420
  2234388
370
     9
100
AcDbSpline
210
0.0
220
0.0
230
1.0
 70
    11
 71
     3
 72
    17
 73
    13
 74
     0
 42
0.0000000001
 43
0.0000000001
 12
1.0
 22
0.0
 32
0.0
 13
1.0
 23
0.0
 33
0.0
 40
0.0
 40
0.0
 40
0.0
 40
0.0
 40
1.0
 40
1.0
 40
1.0
 40
2.0
 40
2.0
 40
2.0
 40
3.0
 40
3.0
 40
3.0
 40
4.0
 40
4.0
 40
4.0
 40
4.0
 10
63.03852978064201
 20
-101.4542674746365
 30
0.0
 10
63.03852978064201
 20
-101.3860755302092
 30
0.0
 10
62.98409617091961
 20
-101.3316419191116
 30
0.0
 10
62.91586895043802
 20
-101.3316419191116
 30
0.0
 10
62.84767700773329
 20
-101.3316419191116
 30
0.0
 10
62.79253784247334
 20
-101.3860755302092
 30
0.0
 10
62.79253784247334
 20
-101.4542674746365
 30
0.0
 10
62.79253784247334
 20
-101.5224946968417
 30
0.0
 10
62.84767700773329
 20
-101.5775985857166
 30
0.0
 10
62.91586895043802
 20
-101.5775985857166
 30
0.0
 10
62.98409617091961
 20
-101.5775985857166
 30
0.0
 10
63.03852978064201
 20
-101.5224946968417
 30
0.0
 10
63.03852978064201
 20
-101.4542674746365
 30
0.0
  0
SPLINE
  5
70
330
1F
100
AcDbEntity
  8
_U+30EC_U+30A4_U+30E4_U+30FC 1
 62
   179
420
  2234388
370
     9
100
AcDbSpline
210
0.0
220
0.0
230
1.0
 70
    11
 71
     3
 72
    17
 73
    13
 74
     0
 42
0.0000000001
 43
0.0000000001
 12
1.0
 22
0.0
 32
0.0
 13
1.0
 23
0.0
 33
0.0
 40
0.0
 40
0.0
 40
0.0
 40
0.0
 40
1.0
 40
1.0
 40
1.0
 40
2.0
 40
2.0
 40
2.0
 40
3.0
 40
3.0
 40
3.0
 40
4.0
 40
4.0
 40
4.0
 40
4.0
 10
63.03852978064201
 20
-154.4184885725065
 30
0.0
 10
63.03852978064201
 20
-154.3509669058568
 30
0.0
 10
62.98409617091961
 20
-154.2958277392038
 30
0.0
 10
62.91586895043802
 20
-154.2958277392038
 30
0.0
 10
62.84767700773329
 20
-154.2958277392038
 30
0.0
 10
62.79253784247334
 20
-154.3509669058568
 30
0.0
 10
62.79253784247334
 20
-154.4184885725065
 30
0.0
 10
62.79253784247334
 20
-154.4866805169342
 30
0.0
 10
62.84767700773329
 20
-154.5418196835866
 30
0.0
 10
62.91586895043802
 20
-154.5418196835866
 30
0.0
 10
62.98409617091961
 20
-154.5418196835866
 30
0.0
 10
63.03852978064201
 20
-154.4866805169342
 30
0.0
 10
63.03852978064201
 20
-154.4184885725065
 30
0.0
  0
SPLINE
  5
71
330
1F
100
AcDbEntity
  8
_U+30EC_U+30A4_U+30E4_U+30FC 1
 62
   179
420
  2234388
370
    25
100
AcDbSpline
210
0.0
220
0.0
230
1.0
 70
     8
 71
     3
 72
    11
 73
     7
 74
     0
 42
0.0000000001
 43
0.0000000001
 12
1.0
 22
0.0
 32
0.0
 13
1.0
 23
0.0
 33
0.0
 40
0.0
 40
0.0
 40
0.0
 40
0.0
 40
1.0
 40
1.0
 40
1.0
 40
2.0
 40
2.0
 40
2.0
 40
2.0
 10
67.87476021281505
 20
-122.2130524694467
 30
0.0
 10
67.09476856604762
 20
-139.2018424651997
 30
0.0
 10
80.2350722021635
 20
-153.606817461598
 30
0.0
 10
97.22336585295862
 20
-154.3867738502919
 30
0.0
 10
98.16454166228057
 20
-154.4288249613929
 30
0.0
 10
99.10712858267762
 20
-154.4288249613929
 30
0.0
 10
100.0476341142389
 20
-154.3867738502919
 30
0.0
  0
SPLINE
  5
72
330
1F
100
AcDbEntity
  8
_U+30EC_U+30A4_U+30E4_U+30FC 1
 62
   179
420
  2234388
370
    25
100
AcDbSpline
210
0.0
220
0.0
230
1.0
 70
     8
 71
     3
 72
     8
 73
     4
 74
     0
 42
0.0000000001
 43
0.0000000001
 12
1.0
 22
0.0
 32
0.0
 13
1.0
 23
0.0
 33
0.0
 40
0.0
 40
0.0
 40
0.0
 40
0.0
 40
1.0
 40
1.0
 40
1.0
 40
1.0
 10
69.32030239815842
 20
-123.6255394135379
 30
0.0
 10
69.32030239815842
 20
-139.8157463539352
 30
0.0
 10
82.4454345633084
 20
-152.9398557950985
 30
0.0
 10
98.63514720582998
 20
-152.9398557950985
 30
0.0
  0
INSERT
  5
74
330
1F
100
AcDbEntity
  8
_U+30EC_U+30A4_U+30E4_U+30FC 1
100
AcDbBlockReference
  2
block 2
 10
0.0
 20
0.0
 30
0.0
  0
POLYLINE
  5
7F
330
1F
100
AcDbEntity
  8
_U+30EC_U+30A4_U+30E4_U+30FC 1
 62
   179
420
  2234388
370
     9
100
AcDb2dPolyline
 66
     1
 10
0.0
 20
0.0
 30
0.0
  0
VERTEX
  5
80
330
7F
100
AcDbEntity
  8
_U+30EC_U+30A4_U+30E4_U+30FC 1
 62
   179
420
  2234388
370
     9
100
AcDbVertex
100
AcDb2dVertex
 10
123.7340507321703
 20
-152.9398557950985
 30
0.0
  0
VERTEX
  5
81
330
7F
100
AcDbEntity
  8
_U+30EC_U+30A4_U+30E4_U+30FC 1
 62
   179
420
  2234388
370
     9
100
AcDbVertex
100
AcDb2dVertex
 10
123.7340507321703
 20
-146.4637730189395
 30
0.0
  0
SEQEND
  5
82
330
7F
100
AcDbEntity
  8
_U+30EC_U+30A4_U+30E4_U+30FC 1
 62
   179
420
  2234388
370
     9
  0
POLYLINE
  5
83
330
1F
100
AcDbEntity
  8
_U+30EC_U+30A4_U+30E4_U+30FC 1
 62
   179
420
  2234388
370
     9
100
AcDb2dPolyline
 66
     1
 10
0.0
 20
0.0
 30
0.0
  0
VERTEX
  5
84
330
83
100
AcDbEntity
  8
_U+30EC_U+30A4_U+30E4_U+30FC 1
 62
   179
420
  2234388
370
     9
100
AcDbVertex
100
AcDb2dVertex
 10
123.7340507321703
 20
-152.9398557950985
 30
0.0
  0
VERTEX
  5
85
330
83
100
AcDbEntity
  8
_U+30EC_U+30A4_U+30E4_U+30FC 1
 62
   179
420
  2234388
370
     9
100
AcDbVertex
100
AcDb2dVertex
 10
123.7340507321703
 20
-154.6651507946668
 30
0.0
  0
SEQEND
  5
86
330
83
100
AcDbEntity
  8
_U+30EC_U+30A4_U+30E4_U+30FC 1
 62
   179
420
  2234388
370
     9
  0
POLYLINE
  5
87
330
1F
100
AcDbEntity
  8
_U+30EC_U+30A4_U+30E4_U+30FC 1
 62
   179
420
  2234388
370
     9
100
AcDb2dPolyline
 66
     1
 10
0.0
 20
0.0
 30
0.0
  0
VERTEX
  5
88
330
87
100
AcDbEntity
  8
_U+30EC_U+30A4_U+30E4_U+30FC 1
 62
   179
420
  2234388
370
     9
100
AcDbVertex
100
AcDb2dVertex
 10
121.9356955002724
 20
-152.9398557950985
 30
0.0
  0
VERTEX
  5
89
330
87
100
AcDbEntity
  8
_U+30EC_U+30A4_U+30E4_U+30FC 1
 62
   179
420
  2234388
370
     9
100
AcDbVertex
100
AcDb2dVertex
 10
124.9653157007581
 20
-152.9398557950985
 30
0.0
  0
SEQEND
  5
8A
330
87
100
AcDbEntity
  8
_U+30EC_U+30A4_U+30E4_U+30FC 1
 62
   179
420
  2234388
370
     9
  0
POLYLINE
  5
8B
330
1F
100
AcDbEntity
  8
_U+30EC_U+30A4_U+30E4_U+30FC 1
 62
   179
420
  2234388
370
     9
100
AcDb2dPolyline
 66
     1
 10
0.0
 20
0.0
 30
0.0
  0
VERTEX
  5
8C
330
8B
100
AcDbEntity
  8
_U+30EC_U+30A4_U+30E4_U+30FC 1
 62
   179
420
  2234388
370
     9
100
AcDbVertex
100
AcDb2dVertex
 10
121.9356955002724
 20
-153.4331802394196
 30
0.0
  0
VERTEX
  5
8D
330
8B
100
AcDbEntity
  8
_U+30EC_U+30A4_U+30E4_U+30FC 1
 62
   179
420
  2234388
370
     9
100
AcDbVertex
100
AcDb2dVertex
 10
124.9653157007581
 20
-153.4331802394196
 30
0.0
  0
SEQEND
  5
8E
330
8B
100
AcDbEntity
  8
_U+30EC_U+30A4_U+30E4_U+30FC 1
 62
   179
420
  2234388
370
     9
  0
INSERT
  5
90
330
1F
100
AcDbEntity
  8
_U+30EC_U+30A4_U+30E4_U+30FC 1
100
AcDbBlockReference
  2
block 3
 10
0.0
 20
0.0
 30
0.0
  0
POLYLINE
  5
B3
330
1F
100
AcDbEntity
  8
_U+30EC_U+30A4_U+30E4_U+30FC 1
 62
   179
420
  2234388
370
     9
100
AcDb2dPolyline
 66
     1
 10
0.0
 20
0.0
 30
0.0
  0
VERTEX
  5
B4
330
B3
100
AcDbEntity
  8
_U+30EC_U+30A4_U+30E4_U+30FC 1
 62
   179
420
  2234388
370
     9
100
AcDbVertex
100
AcDb2dVertex
 10
69.32030239815842
 20
-98.94485330859722
 30
0.0
  0
VERTEX
  5
B5
330
B3
100
AcDbEntity
  8
_U+30EC_U+30A4_U+30E4_U+30FC 1
 62
   179
420
  2234388
370
     9
100
AcDbVertex
100
AcDb2dVertex
 10
77.02906109038048
 20
-98.94485330859722
 30
0.0
  0
SEQEND
  5
B6
330
B3
100
AcDbEntity
  8
_U+30EC_U+30A4_U+30E4_U+30FC 1
 62
   179
420
  2234388
370
     9
  0
POLYLINE
  5
B7
330
1F
100
AcDbEntity
  8
_U+30EC_U+30A4_U+30E4_U+30FC 1
 62
   179
420
  2234388
370
     9
100
AcDb2dPolyline
 66
     1
 10
0.0
 20
0.0
 30
0.0
  0
VERTEX
  5
B8
330
B7
100
AcDbEntity
  8
_U+30EC_U+30A4_U+30E4_U+30FC 1
 62
   179
420
  2234388
370
     9
100
AcDbVertex
100
AcDb2dVertex
 10
69.32030239815842
 20
-98.94485330859722
 30
0.0
  0
VERTEX
  5
B9
330
B7
100
AcDbEntity
  8
_U+30EC_U+30A4_U+30E4_U+30FC 1
 62
   179
420
  2234388
370
     9
100
AcDbVertex
100
AcDb2dVertex
 10
67.59638327547259
 20
-98.94485330859722
 30
0.0
  0
SEQEND
  5
BA
330
B7
100
AcDbEntity
  8
_U+30EC_U+30A4_U+30E4_U+30FC 1
 62
   179
420
  2234388
370
     9
  0
POLYLINE
  5
BB
330
1F
100
AcDbEntity
  8
_U+30EC_U+30A4_U+30E4_U+30FC 1
 62
   179
420
  2234388
370
     9
100
AcDb2dPolyline
 66
     1
 10
0.0
 20
0.0
 30
0.0
  0
VERTEX
  5
BC
330
BB
100
AcDbEntity
  8
_U+30EC_U+30A4_U+30E4_U+30FC 1
 62
   179
420
  2234388
370
     9
100
AcDbVertex
100
AcDb2dVertex
 10
69.32030239815842
 20
-100.7432085859252
 30
0.0
  0
VERTEX
  5
BD
330
BB
100
AcDbEntity
  8
_U+30EC_U+30A4_U+30E4_U+30FC 1
 62
   179
420
  2234388
370
     9
100
AcDbVertex
100
AcDb2dVertex
 10
69.32030239815842
 20
-97.71221247557209
 30
0.0
  0
SEQEND
  5
BE
330
BB
100
AcDbEntity
  8
_U+30EC_U+30A4_U+30E4_U+30FC 1
 62
   179
420
  2234388
370
     9
  0
POLYLINE
  5
BF
330
1F
100
AcDbEntity
  8
_U+30EC_U+30A4_U+30E4_U+30FC 1
 62
   179
420
  2234388
370
     9
100
AcDb2dPolyline
 66
     1
 10
0.0
 20
0.0
 30
0.0
  0
VERTEX
  5
C0
330
BF
100
AcDbEntity
  8
_U+30EC_U+30A4_U+30E4_U+30FC 1
 62
   179
420
  2234388
370
     9
100
AcDbVertex
100
AcDb2dVertex
 10
68.82835553834856
 20
-100.7432085859252
 30
0.0
  0
VERTEX
  5
C1
330
BF
100
AcDbEntity
  8
_U+30EC_U+30A4_U+30E4_U+30FC 1
 62
   179
420
  2234388
370
     9
100
AcDbVertex
100
AcDb2dVertex
 10
68.82835553834856
 20
-97.71221247557209
 30
0.0
  0
SEQEND
  5
C2
330
BF
100
AcDbEntity
  8
_U+30EC_U+30A4_U+30E4_U+30FC 1
 62
   179
420
  2234388
370
     9
  0
INSERT
  5
C4
330
1F
100
AcDbEntity
  8
_U+30EC_U+30A4_U+30E4_U+30FC 1
100
AcDbBlockReference
  2
block 4
 10
0.0
 20
0.0
 30
0.0
  0
POLYLINE
  5
E7
330
1F
100
AcDbEntity
  8
_U+30EC_U+30A4_U+30E4_U+30FC 1
 62
   179
420
  2234388
370
     9
100
AcDb2dPolyline
 66
     1
 10
0.0
 20
0.0
 30
0.0
  0
VERTEX
  5
E8
330
E7
100
AcDbEntity
  8
_U+30EC_U+30A4_U+30E4_U+30FC 1
 62
   179
420
  2234388
370
     9
100
AcDbVertex
100
AcDb2dVertex
 10
62.91586895043802
 20
-101.4542674746365
 30
0.0
  0
VERTEX
  5
E9
330
E7
100
AcDbEntity
  8
_U+30EC_U+30A4_U+30E4_U+30FC 1
 62
   179
420
  2234388
370
     9
100
AcDbVertex
100
AcDb2dVertex
 10
62.91586895043802
 20
-154.4184885725065
 30
0.0
  0
SEQEND
  5
EA
330
E7
100
AcDbEntity
  8
_U+30EC_U+30A4_U+30E4_U+30FC 1
 62
   179
420
  2234388
370
     9
  0
POLYLINE
  5
EB
330
1F
100
AcDbEntity
  8
_U+30EC_U+30A4_U+30E4_U+30FC 1
 62
   179
420
  2234388
370
     9
100
AcDb2dPolyline
 66
     1
 10
0.0
 20
0.0
 30
0.0
  0
VERTEX
  5
EC
330
EB
100
AcDbEntity
  8
_U+30EC_U+30A4_U+30E4_U+30FC 1
 62
   179
420
  2234388
370
     9
100
AcDbVertex
100
AcDb2dVertex
 10
65.69953249053195
 20
-101.4542674746365
 30
0.0
  0
VERTEX
  5
ED
330
EB
100
AcDbEntity
  8
_U+30EC_U+30A4_U+30E4_U+30FC 1
 62
   179
420
  2234388
370
     9
100
AcDbVertex
100
AcDb2dVertex
 10
61.68393370408953
 20
-101.4542674746365
 30
0.0
  0
SEQEND
  5
EE
330
EB
100
AcDbEntity
  8
_U+30EC_U+30A4_U+30E4_U+30FC 1
 62
   179
420
  2234388
370
     9
  0
POLYLINE
  5
EF
330
1F
100
AcDbEntity
  8
_U+30EC_U+30A4_U+30E4_U+30FC 1
 62
   179
420
  2234388
370
     9
100
AcDb2dPolyline
 66
     1
 10
0.0
 20
0.0
 30
0.0
  0
VERTEX
  5
F0
330
EF
100
AcDbEntity
  8
_U+30EC_U+30A4_U+30E4_U+30FC 1
 62
   179
420
  2234388
370
     9
100
AcDbVertex
100
AcDb2dVertex
 10
95.50699617452464
 20
-154.4184885725065
 30
0.0
  0
VERTEX
  5
F1
330
EF
100
AcDbEntity
  8
_U+30EC_U+30A4_U+30E4_U+30FC 1
 62
   179
420
  2234388
370
     9
100
AcDbVertex
100
AcDb2dVertex
 10
61.68393370408953
 20
-154.4184885725065
 30
0.0
  0
SEQEND
  5
F2
330
EF
100
AcDbEntity
  8
_U+30EC_U+30A4_U+30E4_U+30FC 1
 62
   179
420
  2234388
370
     9
  0
INSERT
  5
F4
330
1F
100
AcDbEntity
  8
_U+30EC_U+30A4_U+30E4_U+30FC 1
100
AcDbBlockReference
  2
block 5
 10
0.0
 20
0.0
 30
0.0
  0
POLYLINE
  5
FB
330
1F
100
AcDbEntity
  8
_U+30EC_U+30A4_U+30E4_U+30FC 1
 62
   179
420
  2234388
370
     9
100
AcDb2dPolyline
 66
     1
 10
0.0
 20
0.0
 30
0.0
  0
VERTEX
  5
FC
330
FB
100
AcDbEntity
  8
_U+30EC_U+30A4_U+30E4_U+30FC 1
 62
   179
420
  2234388
370
     9
100
AcDbVertex
100
AcDb2dVertex
 10
120.8064185846382
 20
-159.3449596823859
 30
0.0
  0
VERTEX
  5
FD
330
FB
100
AcDbEntity
  8
_U+30EC_U+30A4_U+30E4_U+30FC 1
 62
   179
420
  2234388
370
     9
100
AcDbVertex
100
AcDb2dVertex
 10
67.84237521364126
 20
-159.3449596823859
 30
0.0
  0
SEQEND
  5
FE
330
FB
100
AcDbEntity
  8
_U+30EC_U+30A4_U+30E4_U+30FC 1
 62
   179
420
  2234388
370
     9
  0
POLYLINE
  5
FF
330
1F
100
AcDbEntity
  8
_U+30EC_U+30A4_U+30E4_U+30FC 1
 62
   179
420
  2234388
370
     9
100
AcDb2dPolyline
 66
     1
 10
0.0
 20
0.0
 30
0.0
  0
VERTEX
  5
100
330
FF
100
AcDbEntity
  8
_U+30EC_U+30A4_U+30E4_U+30FC 1
 62
   179
420
  2234388
370
     9
100
AcDbVertex
100
AcDb2dVertex
 10
120.8064185846382
 20
-156.5613313497483
 30
0.0
  0
VERTEX
  5
101
330
FF
100
AcDbEntity
  8
_U+30EC_U+30A4_U+30E4_U+30FC 1
 62
   179
420
  2234388
370
     9
100
AcDbVertex
100
AcDb2dVertex
 10
120.8064185846382
 20
-160.5769302376337
 30
0.0
  0
SEQEND
  5
102
330
FF
100
AcDbEntity
  8
_U+30EC_U+30A4_U+30E4_U+30FC 1
 62
   179
420
  2234388
370
     9
  0
POLYLINE
  5
103
330
1F
100
AcDbEntity
  8
_U+30EC_U+30A4_U+30E4_U+30FC 1
 62
   179
420
  2234388
370
     9
100
AcDb2dPolyline
 66
     1
 10
0.0
 20
0.0
 30
0.0
  0
VERTEX
  5
104
330
103
100
AcDbEntity
  8
_U+30EC_U+30A4_U+30E4_U+30FC 1
 62
   179
420
  2234388
370
     9
100
AcDbVertex
100
AcDb2dVertex
 10
67.84237521364126
 20
-126.7543608016449
 30
0.0
  0
VERTEX
  5
105
330
103
100
AcDbEntity
  8
_U+30EC_U+30A4_U+30E4_U+30FC 1
 62
   179
420
  2234388
370
     9
100
AcDbVertex
100
AcDb2dVertex
 10
67.84237521364126
 20
-160.5769302376337
 30
0.0
  0
SEQEND
  5
106
330
103
100
AcDbEntity
  8
_U+30EC_U+30A4_U+30E4_U+30FC 1
 62
   179
420
  2234388
370
     9
  0
INSERT
  5
108
330
1F
100
AcDbEntity
  8
_U+30EC_U+30A4_U+30E4_U+30FC 1
100
AcDbBlockReference
  2
block 6
 10
0.0
 20
0.0
 30
0.0
  0
ENDSEC
  0
SECTION
  2
OBJECTS
  0
DICTIONARY
  5
C
330
0
100
AcDbDictionary
281
     1
  3
ACAD_GROUP
350
D
  3
ACAD_LAYOUT
350
1A
  3
ACAD_MATERIAL
350
3B
  3
ACAD_MLEADERSTYLE
350
110
  3
ACAD_MLINESTYLE
350
17
  3
ACAD_PLOTSETTINGS
350
19
  3
ACAD_PLOTSTYLENAME
350
E
  3
ACAD_TABLESTYLE
350
10F
  3
ACAD_VISUALSTYLE
350
2A
  0
SUN
  5
3F
330
29
100
AcDbSun
 90
        1
290
     0
 63
     7
421
 16777215
 40
1.0
291
     1
 91
  2455826
 92
 54000000
292
     0
 70
     2
 71
   256
280
     1
  0
DICTIONARY
  5
D
102
{ACAD_REACTORS
330
C
102
}
330
C
100
AcDbDictionary
281
     1
  0
DICTIONARY
  5
1A
102
{ACAD_REACTORS
330
C
102
}
330
C
100
AcDbDictionary
281
     1
  3
Layout1
350
1E
  3
Layout2
350
26
  3
Model
350
22
  0
DICTIONARY
  5
3B
102
{ACAD_REACTORS
330
C
102
}
330
C
100
AcDbDictionary
281
     1
  3
ByBlock
350
3D
  3
ByLayer
350
3C
  3
Global
350
3E
  0
DICTIONARY
  5
110
102
{ACAD_REACTORS
330
C
102
}
330
C
100
AcDbDictionary
281
     1
  0
DICTIONARY
  5
17
102
{ACAD_REACTORS
330
C
102
}
330
C
100
AcDbDictionary
281
     1
  3
Standard
350
18
  0
DICTIONARY
  5
19
102
{ACAD_REACTORS
330
C
102
}
330
C
100
AcDbDictionary
281
     1
  0
ACDBDICTIONARYWDFLT
  5
E
102
{ACAD_REACTORS
330
C
102
}
330
C
100
AcDbDictionary
281
     1
  3
Normal
350
F
100
AcDbDictionaryWithDefault
340
F
  0
DICTIONARY
  5
10F
102
{ACAD_REACTORS
330
C
102
}
330
C
100
AcDbDictionary
281
     1
  0
DICTIONARY
  5
2A
102
{ACAD_REACTORS
330
C
102
}
330
C
100
AcDbDictionary
281
     1
  3
2dWireframe
350
2F
  3
3D Hidden
350
31
  3
3dWireframe
350
30
  3
Basic
350
32
  3
Brighten
350
36
  3
ColorChange
350
3A
  3
Conceptual
350
34
  3
Dim
350
35
  3
Facepattern
350
39
  3
Flat
350
2B
  3
FlatWithEdges
350
2C
  3
Gouraud
350
2D
  3
GouraudWithEdges
350
2E
  3
Linepattern
350
38
  3
Realistic
350
33
  3
Thicken
350
37
  0
LAYOUT
  5
1E
102
{ACAD_REACTORS
330
1A
102
}
330
1A
100
AcDbPlotSettings
  1

  2
none_device
  4

  6

 40
0.0
 41
0.0
 42
0.0
 43
0.0
 44
0.0
 45
0.0
 46
0.0
 47
0.0
 48
0.0
 49
0.0
140
0.0
141
0.0
142
1.0
143
1.0
 70
   688
 72
     0
 73
     0
 74
     5
  7

 75
    16
 76
     0
 77
     2
 78
   300
147
1.0
148
0.0
149
0.0
100
AcDbLayout
  1
Layout1
 70
     1
 71
     1
 10
0.0
 20
0.0
 11
12.0
 21
9.0
 12
0.0
 22
0.0
 32
0.0
 14
1.000000000000000E+20
 24
1.000000000000000E+20
 34
1.000000000000000E+20
 15
-1.000000000000000E+20
 25
-1.000000000000000E+20
 35
-1.000000000000000E+20
146
0.0
 13
0.0
 23
0.0
 33
0.0
 16
1.0
 26
0.0
 36
0.0
 17
0.0
 27
1.0
 37
0.0
 76
     0
330
1B
  0
LAYOUT
  5
26
102
{ACAD_REACTORS
330
1A
102
}
330
1A
100
AcDbPlotSettings
  1

  2
none_device
  4

  6

 40
0.0
 41
0.0
 42
0.0
 43
0.0
 44
0.0
 45
0.0
 46
0.0
 47
0.0
 48
0.0
 49
0.0
140
0.0
141
0.0
142
1.0
143
1.0
 70
   688
 72
     0
 73
     0
 74
     5
  7

 75
    16
 76
     0
 77
     2
 78
   300
147
1.0
148
0.0
149
0.0
100
AcDbLayout
  1
Layout2
 70
     1
 71
     2
 10
0.0
 20
0.0
 11
0.0
 21
0.0
 12
0.0
 22
0.0
 32
0.0
 14
0.0
 24
0.0
 34
0.0
 15
0.0
 25
0.0
 35
0.0
146
0.0
 13
0.0
 23
0.0
 33
0.0
 16
1.0
 26
0.0
 36
0.0
 17
0.0
 27
1.0
 37
0.0
 76
     0
330
23
  0
LAYOUT
  5
22
102
{ACAD_REACTORS
330
1A
102
}
330
1A
100
AcDbPlotSettings
  1

  2
none_device
  4

  6

 40
0.0
 41
0.0
 42
0.0
 43
0.0
 44
0.0
 45
0.0
 46
0.0
 47
0.0
 48
0.0
 49
0.0
140
0.0
141
0.0
142
1.0
143
1.0
 70
  1712
 72
     0
 73
     0
 74
     0
  7

 75
     0
 76
     0
 77
     2
 78
   300
147
1.0
148
0.0
149
0.0
100
AcDbLayout
  1
Model
 70
     1
 71
     0
 10
0.0
 20
0.0
 11
12.0
 21
9.0
 12
0.0
 22
0.0
 32
0.0
 14
1.000000000000000E+20
 24
1.000000000000000E+20
 34
1.000000000000000E+20
 15
-1.000000000000000E+20
 25
-1.000000000000000E+20
 35
-1.000000000000000E+20
146
0.0
 13
0.0
 23
0.0
 33
0.0
 16
1.0
 26
0.0
 36
0.0
 17
0.0
 27
1.0
 37
0.0
 76
     0
330
1F
331
29
  0
MATERIAL
  5
3D
102
{ACAD_REACTORS
330
3B
102
}
330
3B
100
AcDbMaterial
  1
ByBlock
 72
     1
 94
      127
  0
MATERIAL
  5
3C
102
{ACAD_REACTORS
330
3B
102
}
330
3B
100
AcDbMaterial
  1
ByLayer
 72
     1
 94
      127
  0
MATERIAL
  5
3E
102
{ACAD_REACTORS
330
3B
102
}
330
3B
100
AcDbMaterial
  1
Global
 72
     1
 94
      127
  0
MLINESTYLE
  5
18
102
{ACAD_REACTORS
330
17
102
}
330
17
100
AcDbMlineStyle
  2
Standard
 70
     0
  3

 62
   256
 51
90.0
 52
90.0
 71
     2
 49
0.5
 62
   256
  6
BYLAYER
 49
-0.5
 62
   256
  6
BYLAYER
  0
ACDBPLACEHOLDER
  5
F
102
{ACAD_REACTORS
330
E
102
}
330
E
  0
VISUALSTYLE
  5
2F
102
{ACAD_REACTORS
330
2A
102
}
330
2A
100
AcDbVisualStyle
  2
2dWireframe
 70
     4
177
     2
291
     0
 71
     0
176
     1
 72
     2
176
     1
 73
     0
176
     1
 90
        0
176
     1
 40
-0.6
176
     1
 41
-30.0
176
     1
 62
     5
 63
     7
421
 16777215
176
     1
 74
     1
176
     1
 91
        4
176
     1
 64
     7
176
     1
 65
   257
176
     1
 75
     1
176
     1
175
     1
176
     1
 42
1.0
176
     1
 92
        0
176
     1
 66
   257
176
     1
 43
1.0
176
     1
 76
     1
176
     1
 77
     6
176
     1
 78
     2
176
     1
 67
     7
176
     1
 79
     5
176
     1
170
     0
176
     1
171
     0
176
     1
290
     0
176
     1
 93
        1
176
     1
 44
0.0
176
     1
173
     0
176
     1
  0
VISUALSTYLE
  5
31
102
{ACAD_REACTORS
330
2A
102
}
330
2A
100
AcDbVisualStyle
  2
3D Hidden
 70
     6
177
     2
291
     0
 71
     1
176
     1
 72
     2
176
     1
 73
     2
176
     1
 90
        0
176
     1
 40
-0.6
176
     1
 41
-30.0
176
     1
 62
     5
 63
     7
421
 16777215
176
     1
 74
     2
176
     1
 91
        2
176
     1
 64
     7
176
     1
 65
   257
176
     1
 75
     2
176
     1
175
     1
176
     1
 42
40.0
176
     1
 92
        0
176
     1
 66
   257
176
     1
 43
1.0
176
     1
 76
     1
176
     1
 77
     6
176
     1
 78
     2
176
     1
 67
     7
176
     1
 79
     3
176
     1
170
     0
176
     1
171
     0
176
     1
290
     0
176
     1
 93
        1
176
     1
 44
0.0
176
     1
173
     0
176
     1
  0
VISUALSTYLE
  5
30
102
{ACAD_REACTORS
330
2A
102
}
330
2A
100
AcDbVisualStyle
  2
3dWireframe
 70
     5
177
     2
291
     0
 71
     0
176
     1
 72
     2
176
     1
 73
     0
176
     1
 90
        0
176
     1
 40
-0.6
176
     1
 41
-30.0
176
     1
 62
     5
 63
     7
421
 16777215
176
     1
 74
     1
176
     1
 91
        4
176
     1
 64
     7
176
     1
 65
   257
176
     1
 75
     1
176
     1
175
     1
176
     1
 42
1.0
176
     1
 92
        0
176
     1
 66
   257
176
     1
 43
1.0
176
     1
 76
     1
176
     1
 77
     6
176
     1
 78
     2
176
     1
 67
     7
176
     1
 79
     5
176
     1
170
     0
176
     1
171
     0
176
     1
290
     0
176
     1
 93
        1
176
     1
 44
0.0
176
     1
173
     0
176
     1
  0
VISUALSTYLE
  5
32
102
{ACAD_REACTORS
330
2A
102
}
330
2A
100
AcDbVisualStyle
  2
Basic
 70
     7
177
     2
291
     1
 71
     1
176
     1
 72
     0
176
     1
 73
     1
176
     1
 90
        0
176
     1
 40
-0.6
176
     1
 41
-30.0
176
     1
 62
     5
 63
     7
421
 16777215
176
     1
 74
     0
176
     1
 91
        4
176
     1
 64
     7
176
     1
 65
   257
176
     1
 75
     1
176
     1
175
     1
176
     1
 42
1.0
176
     1
 92
        8
176
     1
 66
     7
176
     1
 43
1.0
176
     1
 76
     1
176
     1
 77
     6
176
     1
 78
     2
176
     1
 67
     7
176
     1
 79
     5
176
     1
170
     0
176
     1
171
     0
176
     1
290
     0
176
     1
 93
        1
176
     1
 44
0.0
176
     1
173
     0
176
     1
  0
VISUALSTYLE
  5
36
102
{ACAD_REACTORS
330
2A
102
}
330
2A
100
AcDbVisualStyle
  2
Brighten
 70
    12
177
     2
291
     1
 71
     2
176
     1
 72
     2
176
     1
 73
     0
176
     1
 90
        0
176
     1
 40
-0.6
176
     1
 41
-30.0
176
     1
 62
     5
 63
     7
421
 16777215
176
     1
 74
     1
176
     1
 91
        4
176
     1
 64
     7
176
     1
 65
   257
176
     1
 75
     1
176
     1
175
     1
176
     1
 42
1.0
176
     1
 92
        8
176
     1
 66
     7
176
     1
 43
1.0
176
     1
 76
     1
176
     1
 77
     6
176
     1
 78
     2
176
     1
 67
     7
176
     1
 79
     5
176
     1
170
     0
176
     1
171
     0
176
     1
290
     0
176
     1
 93
        1
176
     1
 44
50.0
176
     1
173
     0
176
     1
  0
VISUALSTYLE
  5
3A
102
{ACAD_REACTORS
330
2A
102
}
330
2A
100
AcDbVisualStyle
  2
ColorChange
 70
    16
177
     2
291
     1
 71
     2
176
     1
 72
     2
176
     1
 73
     3
176
     1
 90
        0
176
     1
 40
-0.6
176
     1
 41
-30.0
176
     1
 62
     5
 63
     8
421
  8421504
176
     1
 74
     1
176
     1
 91
        4
176
     1
 64
     7
176
     1
 65
   257
176
     1
 75
     1
176
     1
175
     1
176
     1
 42
1.0
176
     1
 92
        8
176
     1
 66
     8
424
  8421504
176
     1
 43
1.0
176
     1
 76
     1
176
     1
 77
     6
176
     1
 78
     2
176
     1
 67
     7
176
     1
 79
     5
176
     1
170
     0
176
     1
171
     0
176
     1
290
     0
176
     1
 93
        1
176
     1
 44
0.0
176
     1
173
     0
176
     1
  0
VISUALSTYLE
  5
34
102
{ACAD_REACTORS
330
2A
102
}
330
2A
100
AcDbVisualStyle
  2
Conceptual
 70
     9
177
     2
291
     0
 71
     3
176
     1
 72
     2
176
     1
 73
     0
176
     1
 90
        0
176
     1
 40
-0.6
176
     1
 41
-30.0
176
     1
 62
     5
 63
     7
421
 16777215
176
     1
 74
     2
176
     1
 91
        2
176
     1
 64
     7
176
     1
 65
   257
176
     1
 75
     1
176
     1
175
     1
176
     1
 42
40.0
176
     1
 92
        8
176
     1
 66
     7
176
     1
 43
1.0
176
     1
 76
     1
176
     1
 77
     6
176
     1
 78
     2
176
     1
 67
     7
176
     1
 79
     3
176
     1
170
     0
176
     1
171
     0
176
     1
290
     0
176
     1
 93
        1
176
     1
 44
0.0
176
     1
173
     0
176
     1
  0
VISUALSTYLE
  5
35
102
{ACAD_REACTORS
330
2A
102
}
330
2A
100
AcDbVisualStyle
  2
Dim
 70
    11
177
     2
291
     1
 71
     2
176
     1
 72
     2
176
     1
 73
     0
176
     1
 90
        0
176
     1
 40
-0.6
176
     1
 41
-30.0
176
     1
 62
     5
 63
     7
421
 16777215
176
     1
 74
     1
176
     1
 91
        4
176
     1
 64
     7
176
     1
 65
   257
176
     1
 75
     1
176
     1
175
     1
176
     1
 42
1.0
176
     1
 92
        8
176
     1
 66
     7
176
     1
 43
1.0
176
     1
 76
     1
176
     1
 77
     6
176
     1
 78
     2
176
     1
 67
     7
176
     1
 79
     5
176
     1
170
     0
176
     1
171
     0
176
     1
290
     0
176
     1
 93
        1
176
     1
 44
-50.0
176
     1
173
     0
176
     1
  0
VISUALSTYLE
  5
39
102
{ACAD_REACTORS
330
2A
102
}
330
2A
100
AcDbVisualStyle
  2
Facepattern
 70
    15
177
     2
291
     1
 71
     2
176
     1
 72
     2
176
     1
 73
     0
176
     1
 90
        0
176
     1
 40
-0.6
176
     1
 41
-30.0
176
     1
 62
     5
 63
     7
421
 16777215
176
     1
 74
     1
176
     1
 91
        4
176
     1
 64
     7
176
     1
 65
   257
176
     1
 75
     1
176
     1
175
     1
176
     1
 42
1.0
176
     1
 92
        8
176
     1
 66
     7
176
     1
 43
1.0
176
     1
 76
     1
176
     1
 77
     6
176
     1
 78
     2
176
     1
 67
     7
176
     1
 79
     5
176
     1
170
     0
176
     1
171
     0
176
     1
290
     0
176
     1
 93
        1
176
     1
 44
0.0
176
     1
173
     0
176
     1
  0
VISUALSTYLE
  5
2B
102
{ACAD_REACTORS
330
2A
102
}
330
2A
100
AcDbVisualStyle
  2
Flat
 70
     0
177
     2
291
     1
 71
     2
176
     1
 72
     1
176
     1
 73
     1
176
     1
 90
        2
176
     1
 40
-0.6
176
     1
 41
30.0
176
     1
 62
     5
 63
     7
421
 16777215
176
     1
 74
     0
176
     1
 91
        4
176
     1
 64
     7
176
     1
 65
   257
176
     1
 75
     1
176
     1
175
     1
176
     1
 42
1.0
176
     1
 92
        8
176
     1
 66
     7
176
     1
 43
1.0
176
     1
 76
     1
176
     1
 77
     6
176
     1
 78
     2
176
     1
 67
     7
176
     1
 79
     5
176
     1
170
     0
176
     1
171
     0
176
     1
290
     0
176
     1
 93
       13
176
     1
 44
0.0
176
     1
173
     0
176
     1
  0
VISUALSTYLE
  5
2C
102
{ACAD_REACTORS
330
2A
102
}
330
2A
100
AcDbVisualStyle
  2
FlatWithEdges
 70
     1
177
     2
291
     1
 71
     2
176
     1
 72
     1
176
     1
 73
     1
176
     1
 90
        2
176
     1
 40
-0.6
176
     1
 41
30.0
176
     1
 62
     5
 63
     7
421
 16777215
176
     1
 74
     1
176
     1
 91
        4
176
     1
 64
     7
176
     1
 65
   257
176
     1
 75
     1
176
     1
175
     1
176
     1
 42
1.0
176
     1
 92
        0
176
     1
 66
   257
176
     1
 43
1.0
176
     1
 76
     1
176
     1
 77
     6
176
     1
 78
     2
176
     1
 67
     7
176
     1
 79
     5
176
     1
170
     0
176
     1
171
     0
176
     1
290
     0
176
     1
 93
       13
176
     1
 44
0.0
176
     1
173
     0
176
     1
  0
VISUALSTYLE
  5
2D
102
{ACAD_REACTORS
330
2A
102
}
330
2A
100
AcDbVisualStyle
  2
Gouraud
 70
     2
177
     2
291
     1
 71
     2
176
     1
 72
     2
176
     1
 73
     1
176
     1
 90
        2
176
     1
 40
-0.6
176
     1
 41
30.0
176
     1
 62
     5
 63
     7
421
 16777215
176
     1
 74
     0
176
     1
 91
        4
176
     1
 64
     7
176
     1
 65
   257
176
     1
 75
     1
176
     1
175
     1
176
     1
 42
1.0
176
     1
 92
        0
176
     1
 66
     7
176
     1
 43
1.0
176
     1
 76
     1
176
     1
 77
     6
176
     1
 78
     2
176
     1
 67
     7
176
     1
 79
     5
176
     1
170
     0
176
     1
171
     0
176
     1
290
     0
176
     1
 93
       13
176
     1
 44
0.0
176
     1
173
     0
176
     1
  0
VISUALSTYLE
  5
2E
102
{ACAD_REACTORS
330
2A
102
}
330
2A
100
AcDbVisualStyle
  2
GouraudWithEdges
 70
     3
177
     2
291
     1
 71
     2
176
     1
 72
     2
176
     1
 73
     1
176
     1
 90
        2
176
     1
 40
-0.6
176
     1
 41
30.0
176
     1
 62
     5
 63
     7
421
 16777215
176
     1
 74
     1
176
     1
 91
        4
176
     1
 64
     7
176
     1
 65
   257
176
     1
 75
     1
176
     1
175
     1
176
     1
 42
1.0
176
     1
 92
        0
176
     1
 66
   257
176
     1
 43
1.0
176
     1
 76
     1
176
     1
 77
     6
176
     1
 78
     2
176
     1
 67
     7
176
     1
 79
     5
176
     1
170
     0
176
     1
171
     0
176
     1
290
     0
176
     1
 93
       13
176
     1
 44
0.0
176
     1
173
     0
176
     1
  0
VISUALSTYLE
  5
38
102
{ACAD_REACTORS
330
2A
102
}
330
2A
100
AcDbVisualStyle
  2
Linepattern
 70
    14
177
     2
291
     1
 71
     2
176
     1
 72
     2
176
     1
 73
     0
176
     1
 90
        0
176
     1
 40
-0.6
176
     1
 41
-30.0
176
     1
 62
     5
 63
     7
421
 16777215
176
     1
 74
     1
176
     1
 91
        4
176
     1
 64
     7
176
     1
 65
   257
176
     1
 75
     7
176
     1
175
     7
176
     1
 42
1.0
176
     1
 92
        8
176
     1
 66
     7
176
     1
 43
1.0
176
     1
 76
     1
176
     1
 77
     6
176
     1
 78
     2
176
     1
 67
     7
176
     1
 79
     5
176
     1
170
     0
176
     1
171
     0
176
     1
290
     0
176
     1
 93
        1
176
     1
 44
0.0
176
     1
173
     0
176
     1
  0
VISUALSTYLE
  5
33
102
{ACAD_REACTORS
330
2A
102
}
330
2A
100
AcDbVisualStyle
  2
Realistic
 70
     8
177
     2
291
     0
 71
     2
176
     1
 72
     2
176
     1
 73
     0
176
     1
 90
        0
176
     1
 40
-0.6
176
     1
 41
-30.0
176
     1
 62
     5
 63
     7
421
 16777215
176
     1
 74
     1
176
     1
 91
        0
176
     1
 64
     7
176
     1
 65
   257
176
     1
 75
     1
176
     1
175
     1
176
     1
 42
1.0
176
     1
 92
        8
176
     1
 66
     8
424
  7895160
176
     1
 43
1.0
176
     1
 76
     1
176
     1
 77
     6
176
     1
 78
     2
176
     1
 67
     7
176
     1
 79
     5
176
     1
170
     0
176
     1
171
     0
176
     1
290
     0
176
     1
 93
       13
176
     1
 44
0.0
176
     1
173
     0
176
     1
  0
VISUALSTYLE
  5
37
102
{ACAD_REACTORS
330
2A
102
}
330
2A
100
AcDbVisualStyle
  2
Thicken
 70
    13
177
     2
291
     1
 71
     2
176
     1
 72
     2
176
     1
 73
     0
176
     1
 90
        0
176
     1
 40
-0.6
176
     1
 41
-30.0
176
     1
 62
     5
 63
     7
421
 16777215
176
     1
 74
     1
176
     1
 91
        4
176
     1
 64
     7
176
     1
 65
   257
176
     1
 75
     1
176
     1
175
     1
176
     1
 42
1.0
176
     1
 92
       12
176
     1
 66
     7
176
     1
 43
1.0
176
     1
 76
     1
176
     1
 77
     6
176
     1
 78
     2
176
     1
 67
     7
176
     1
 79
     5
176
     1
170
     0
176
     1
171
     0
176
     1
290
     0
176
     1
 93
        1
176
     1
 44
0.0
176
     1
173
     0
176
     1
  0
ENDSEC
  0
EOF
