  0
SECTION
  2
HEADER
  9
$ACADVER
  1
AC1024
  9
$ACADMAINTVER
 70
     6
  9
$DWGCODEPAGE
  3
UNDEFINED
  9
$INSBASE
 10
0.0
 20
0.0
 30
0.0
  9
$EXTMIN
 10
1.000000000000000E+20
 20
1.000000000000000E+20
 30
1.000000000000000E+20
  9
$EXTMAX
 10
-1.000000000000000E+20
 20
-1.000000000000000E+20
 30
-1.000000000000000E+20
  9
$LIMMIN
 10
0.0
 20
0.0
  9
$LIMMAX
 10
12.0
 20
9.0
  9
$ORTHOMODE
 70
     0
  9
$REGENMODE
 70
     1
  9
$FILLMODE
 70
     1
  9
$QTEXTMODE
 70
     0
  9
$MIRRTEXT
 70
     1
  9
$LTSCALE
 40
1.0
  9
$ATTMODE
 70
     1
  9
$TEXTSIZE
 40
0.2
  9
$TRACEWID
 40
0.05
  9
$TEXTSTYLE
  7
Standard
  9
$CLAYER
  8
0
  9
$CELTYPE
  6
ByLayer
  9
$CECOLOR
 62
   256
  9
$CELTSCALE
 40
1.0
  9
$DISPSILH
 70
     0
  9
$DIMSCALE
 40
1.0
  9
$DIMASZ
 40
0.18
  9
$DIMEXO
 40
0.0625
  9
$DIMDLI
 40
0.38
  9
$DIMRND
 40
0.0
  9
$DIMDLE
 40
0.0
  9
$DIMEXE
 40
0.18
  9
$DIMTP
 40
0.0
  9
$DIMTM
 40
0.0
  9
$DIMTXT
 40
0.18
  9
$DIMCEN
 40
0.09
  9
$DIMTSZ
 40
0.0
  9
$DIMTOL
 70
     0
  9
$DIMLIM
 70
     0
  9
$DIMTIH
 70
     1
  9
$DIMTOH
 70
     1
  9
$DIMSE1
 70
     0
  9
$DIMSE2
 70
     0
  9
$DIMTAD
 70
     0
  9
$DIMZIN
 70
     0
  9
$DIMBLK
  1

  9
$DIMASO
 70
     1
  9
$DIMSHO
 70
     1
  9
$DIMPOST
  1

  9
$DIMAPOST
  1

  9
$DIMALT
 70
     0
  9
$DIMALTD
 70
     2
  9
$DIMALTF
 40
25.4
  9
$DIMLFAC
 40
1.0
  9
$DIMTOFL
 70
     0
  9
$DIMTVP
 40
0.0
  9
$DIMTIX
 70
     0
  9
$DIMSOXD
 70
     0
  9
$DIMSAH
 70
     0
  9
$DIMBLK1
  1

  9
$DIMBLK2
  1

  9
$DIMSTYLE
  2
Standard
  9
$DIMCLRD
 70
     0
  9
$DIMCLRE
 70
     0
  9
$DIMCLRT
 70
     0
  9
$DIMTFAC
 40
1.0
  9
$DIMGAP
 40
0.09
  9
$DIMJUST
 70
     0
  9
$DIMSD1
 70
     0
  9
$DIMSD2
 70
     0
  9
$DIMTOLJ
 70
     1
  9
$DIMTZIN
 70
     0
  9
$DIMALTZ
 70
     0
  9
$DIMALTTZ
 70
     0
  9
$DIMUPT
 70
     0
  9
$DIMDEC
 70
     4
  9
$DIMTDEC
 70
     4
  9
$DIMALTU
 70
     2
  9
$DIMALTTD
 70
     2
  9
$DIMTXSTY
  7
Standard
  9
$DIMAUNIT
 70
     0
  9
$DIMADEC
 70
     0
  9
$DIMALTRND
 40
0.0
  9
$DIMAZIN
 70
     0
  9
$DIMDSEP
 70
    46
  9
$DIMATFIT
 70
     3
  9
$DIMFRAC
 70
     0
  9
$DIMLDRBLK
  1

  9
$DIMLUNIT
 70
     2
  9
$DIMLWD
 70
    -2
  9
$DIMLWE
 70
    -2
  9
$DIMTMOVE
 70
     0
  9
$DIMFXL
 40
1.0
  9
$DIMFXLON
 70
     0
  9
$DIMJOGANG
 40
0.7853981633974483
  9
$DIMTFILL
 70
     0
  9
$DIMTFILLCLR
 70
     0
  9
$DIMARCSYM
 70
     0
  9
$DIMLTYPE
  6

  9
$DIMLTEX1
  6

  9
$DIMLTEX2
  6

  9
$DIMTXTDIRECTION
 70
     0
  9
$LUNITS
 70
     2
  9
$LUPREC
 70
     4
  9
$SKETCHINC
 40
0.1
  9
$FILLETRAD
 40
0.5
  9
$AUNITS
 70
     0
  9
$AUPREC
 70
     0
  9
$MENU
  1
.
  9
$ELEVATION
 40
0.0
  9
$PELEVATION
 40
0.0
  9
$THICKNESS
 40
0.0
  9
$LIMCHECK
 70
     0
  9
$CHAMFERA
 40
0.5
  9
$CHAMFERB
 40
0.5
  9
$CHAMFERC
 40
1.0
  9
$CHAMFERD
 40
0.0
  9
$SKPOLY
 70
     0
  9
$TDCREATE
 40
2457917.585335648
  9
$TDUCREATE
 40
2457917.210335648
  9
$TDUPDATE
 40
2457917.585335648
  9
$TDUUPDATE
 40
2457917.210335648
  9
$TDINDWG
 40
0.0000000116
  9
$TDUSRTIMER
 40
0.0000000116
  9
$USRTIMER
 70
     1
  9
$ANGBASE
 50
0.0
  9
$ANGDIR
 70
     0
  9
$PDMODE
 70
     0
  9
$PDSIZE
 40
0.0
  9
$PLINEWID
 40
0.0
  9
$SPLFRAME
 70
     0
  9
$SPLINETYPE
 70
     6
  9
$SPLINESEGS
 70
     8
  9
$HANDSEED
  5
180
  9
$SURFTAB1
 70
     6
  9
$SURFTAB2
 70
     6
  9
$SURFTYPE
 70
     6
  9
$SURFU
 70
     6
  9
$SURFV
 70
     6
  9
$UCSBASE
  2

  9
$UCSNAME
  2

  9
$UCSORG
 10
0.0
 20
0.0
 30
0.0
  9
$UCSXDIR
 10
1.0
 20
0.0
 30
0.0
  9
$UCSYDIR
 10
0.0
 20
1.0
 30
0.0
  9
$UCSORTHOREF
  2

  9
$UCSORTHOVIEW
 70
     0
  9
$UCSORGTOP
 10
0.0
 20
0.0
 30
0.0
  9
$UCSORGBOTTOM
 10
0.0
 20
0.0
 30
0.0
  9
$UCSORGLEFT
 10
0.0
 20
0.0
 30
0.0
  9
$UCSORGRIGHT
 10
0.0
 20
0.0
 30
0.0
  9
$UCSORGFRONT
 10
0.0
 20
0.0
 30
0.0
  9
$UCSORGBACK
 10
0.0
 20
0.0
 30
0.0
  9
$PUCSBASE
  2

  9
$PUCSNAME
  2

  9
$PUCSORG
 10
0.0
 20
0.0
 30
0.0
  9
$PUCSXDIR
 10
1.0
 20
0.0
 30
0.0
  9
$PUCSYDIR
 10
0.0
 20
1.0
 30
0.0
  9
$PUCSORTHOREF
  2

  9
$PUCSORTHOVIEW
 70
     0
  9
$PUCSORGTOP
 10
0.0
 20
0.0
 30
0.0
  9
$PUCSORGBOTTOM
 10
0.0
 20
0.0
 30
0.0
  9
$PUCSORGLEFT
 10
0.0
 20
0.0
 30
0.0
  9
$PUCSORGRIGHT
 10
0.0
 20
0.0
 30
0.0
  9
$PUCSORGFRONT
 10
0.0
 20
0.0
 30
0.0
  9
$PUCSORGBACK
 10
0.0
 20
0.0
 30
0.0
  9
$USERI1
 70
     0
  9
$USERI2
 70
     0
  9
$USERI3
 70
     0
  9
$USERI4
 70
     0
  9
$USERI5
 70
     0
  9
$USERR1
 40
0.0
  9
$USERR2
 40
0.0
  9
$USERR3
 40
0.0
  9
$USERR4
 40
0.0
  9
$USERR5
 40
0.0
  9
$WORLDVIEW
 70
     1
  9
$SHADEDGE
 70
     3
  9
$SHADEDIF
 70
    70
  9
$TILEMODE
 70
     1
  9
$MAXACTVP
 70
    64
  9
$PINSBASE
 10
0.0
 20
0.0
 30
0.0
  9
$PLIMCHECK
 70
     0
  9
$PEXTMIN
 10
1.000000000000000E+20
 20
1.000000000000000E+20
 30
1.000000000000000E+20
  9
$PEXTMAX
 10
-1.000000000000000E+20
 20
-1.000000000000000E+20
 30
-1.000000000000000E+20
  9
$PLIMMIN
 10
0.0
 20
0.0
  9
$PLIMMAX
 10
12.0
 20
9.0
  9
$UNITMODE
 70
     0
  9
$VISRETAIN
 70
     1
  9
$PLINEGEN
 70
     0
  9
$PSLTSCALE
 70
     1
  9
$TREEDEPTH
 70
  3020
  9
$CMLSTYLE
  2
Standard
  9
$CMLJUST
 70
     0
  9
$CMLSCALE
 40
1.0
  9
$PROXYGRAPHICS
 70
     1
  9
$MEASUREMENT
 70
     0
  9
$CELWEIGHT
370
    -1
  9
$ENDCAPS
280
     0
  9
$JOINSTYLE
280
     0
  9
$LWDISPLAY
290
     1
  9
$INSUNITS
 70
     1
  9
$HYPERLINKBASE
  1

  9
$STYLESHEET
  1

  9
$XEDIT
290
     1
  9
$CEPSNTYPE
380
     0
  9
$PSTYLEMODE
290
     1
  9
$FINGERPRINTGUID
  2
{ADF91E3E-83E4-F21C-294A-E19C8E377594}
  9
$VERSIONGUID
  2
{FAEB1C32-E019-11D5-929B-00C0DF256EC4}
  9
$EXTNAMES
290
     1
  9
$PSVPSCALE
 40
0.0
  9
$OLESTARTUP
290
     0
  9
$SORTENTS
280
   127
  9
$INDEXCTL
280
     0
  9
$HIDETEXT
280
     1
  9
$XCLIPFRAME
280
     2
  9
$HALOGAP
280
     0
  9
$OBSCOLOR
 70
   257
  9
$OBSLTYPE
280
     0
  9
$INTERSECTIONDISPLAY
280
     0
  9
$INTERSECTIONCOLOR
 70
   257
  9
$DIMASSOC
280
     2
  9
$PROJECTNAME
  1

  9
$CAMERADISPLAY
290
     0
  9
$LENSLENGTH
 40
50.0
  9
$CAMERAHEIGHT
 40
0.0
  9
$STEPSPERSEC
 40
2.0
  9
$STEPSIZE
 40
6.0
  9
$3DDWFPREC
 40
2.0
  9
$PSOLWIDTH
 40
0.25
  9
$PSOLHEIGHT
 40
4.0
  9
$LOFTANG1
 40
1.570796326794897
  9
$LOFTANG2
 40
1.570796326794897
  9
$LOFTMAG1
 40
0.0
  9
$LOFTMAG2
 40
0.0
  9
$LOFTPARAM
 70
     7
  9
$LOFTNORMALS
280
     1
  9
$LATITUDE
 40
37.795
  9
$LONGITUDE
 40
-122.394
  9
$NORTHDIRECTION
 40
0.0
  9
$TIMEZONE
 70
 -8000
  9
$LIGHTGLYPHDISPLAY
280
     1
  9
$TILEMODELIGHTSYNCH
280
     1
  9
$CMATERIAL
347
3C
  9
$SOLIDHIST
280
     1
  9
$SHOWHIST
280
     1
  9
$DWFFRAME
280
     2
  9
$DGNFRAME
280
     2
  9
$REALWORLDSCALE
290
     1
  9
$INTERFERECOLOR
 62
   256
  9
$CSHADOW
280
     0
  9
$SHADOWPLANELOCATION
 40
0.0
  0
ENDSEC
  0
SECTION
  2
CLASSES
  0
CLASS
  1
ACDBDICTIONARYWDFLT
  2
AcDbDictionaryWithDefault
  3
ObjectDBX Classes
 90
        0
 91
        4
280
     0
281
     0
  0
CLASS
  1
VISUALSTYLE
  2
AcDbVisualStyle
  3
ObjectDBX Classes
 90
     4095
 91
        4
280
     0
281
     0
  0
CLASS
  1
MATERIAL
  2
AcDbMaterial
  3
ObjectDBX Classes
 90
     1153
 91
        4
280
     0
281
     0
  0
CLASS
  1
SUN
  2
AcDbSun
  3
SCENEOE
 90
     1024
 91
        4
280
     0
281
     0
  0
ENDSEC
  0
SECTION
  2
TABLES
  0
TABLE
  2
VPORT
  5
8
330
0
100
AcDbSymbolTable
 70
     1
  0
VPORT
  5
29
330
8
100
AcDbSymbolTableRecord
100
AcDbViewportTableRecord
  2
*Active
 70
     0
 10
0.0
 20
0.0
 11
1.0
 21
1.0
 12
0.0
 22
0.0
 13
0.0
 23
0.0
 14
0.5
 24
0.5
 15
0.5
 25
0.5
 16
0.0
 26
0.0
 36
1.0
 17
91.00082462281999
 27
-128.4993055234307
 37
0.0
 40
256.9986110468615
 41
0.7081814508812795
 42
50.0
 43
0.0
 44
0.0
 50
0.0
 51
0.0
 71
     0
 72
   100
 73
     1
 74
     3
 75
     0
 76
     0
 77
     0
 78
     0
281
     0
 65
     1
110
0.0
120
0.0
130
0.0
111
1.0
121
0.0
131
0.0
112
0.0
122
1.0
132
0.0
 79
     0
146
0.0
 60
     3
 61
     5
292
     1
282
     1
141
0.0
142
0.0
 63
   250
361
3F
  0
ENDTAB
  0
TABLE
  2
LTYPE
  5
5
330
0
100
AcDbSymbolTable
 70
     3
  0
LTYPE
  5
14
330
5
100
AcDbSymbolTableRecord
100
AcDbLinetypeTableRecord
  2
ByBlock
 70
     0
  3

 72
    65
 73
     0
 40
0.0
  0
LTYPE
  5
15
330
5
100
AcDbSymbolTableRecord
100
AcDbLinetypeTableRecord
  2
ByLayer
 70
     0
  3

 72
    65
 73
     0
 40
0.0
  0
LTYPE
  5
16
330
5
100
AcDbSymbolTableRecord
100
AcDbLinetypeTableRecord
  2
Continuous
 70
     0
  3
Solid line
 72
    65
 73
     0
 40
0.0
  0
LTYPE
  5
137
330
5
100
AcDbSymbolTableRecord
100
AcDbLinetypeTableRecord
  2
AI-Linetype-1
 70
     0
  3
Adobe Illustrator Linetype No. 1
 72
    65
 73
     2
 40
1.411111110758333
 49
0.7055555553791667
 74
     0
 49
-0.7055555553791667
 74
     0
  0
LTYPE
  5
13C
330
5
100
AcDbSymbolTableRecord
100
AcDbLinetypeTableRecord
  2
AI-Linetype-2
 70
     0
  3
Adobe Illustrator Linetype No. 2
 72
    65
 73
     2
 40
1.411111110758333
 49
0.7055555553791667
 74
     0
 49
-0.7055555553791667
 74
     0
  0
ENDTAB
  0
TABLE
  2
LAYER
  5
2
330
0
100
AcDbSymbolTable
 70
     2
  0
LAYER
  5
10
330
2
100
AcDbSymbolTableRecord
100
AcDbLayerTableRecord
  2
0
 70
     0
 62
     7
  6
Continuous
370
    -3
390
F
347
3E
  0
LAYER
  5
40
330
2
100
AcDbSymbolTableRecord
100
AcDbLayerTableRecord
  2
_U+30EC_U+30A4_U+30E4_U+30FC 1
 70
     0
 62
     7
  6
Continuous
370
    -3
390
F
347
3E
  0
ENDTAB
  0
TABLE
  2
STYLE
  5
3
330
0
100
AcDbSymbolTable
 70
     1
  0
STYLE
  5
11
330
3
100
AcDbSymbolTableRecord
100
AcDbTextStyleTableRecord
  2
Standard
 70
     0
 40
0.0
 41
1.0
 50
0.0
 71
     0
 42
0.2
  3
txt
  4

  0
ENDTAB
  0
TABLE
  2
VIEW
  5
6
330
0
100
AcDbSymbolTable
 70
     0
  0
ENDTAB
  0
TABLE
  2
UCS
  5
7
330
0
100
AcDbSymbolTable
 70
     0
  0
ENDTAB
  0
TABLE
  2
APPID
  5
9
330
0
100
AcDbSymbolTable
 70
     1
  0
APPID
  5
12
330
9
100
AcDbSymbolTableRecord
100
AcDbRegAppTableRecord
  2
ACAD
 70
     0
  0
ENDTAB
  0
TABLE
  2
DIMSTYLE
  5
A
330
0
100
AcDbSymbolTable
 70
     1
100
AcDbDimStyleTable
  0
DIMSTYLE
105
27
330
A
100
AcDbSymbolTableRecord
100
AcDbDimStyleTableRecord
  2
Standard
 70
     0
178
     0
340
11
  0
ENDTAB
  0
TABLE
  2
BLOCK_RECORD
  5
1
330
0
100
AcDbSymbolTable
 70
     7
  0
BLOCK_RECORD
  5
1F
330
1
100
AcDbSymbolTableRecord
100
AcDbBlockTableRecord
  2
*Model_Space
340
22
 70
     0
280
     1
281
     0
  0
BLOCK_RECORD
  5
1B
330
1
100
AcDbSymbolTableRecord
100
AcDbBlockTableRecord
  2
*Paper_Space
340
1E
 70
     0
280
     1
281
     0
  0
BLOCK_RECORD
  5
23
330
1
100
AcDbSymbolTableRecord
100
AcDbBlockTableRecord
  2
*Paper_Space0
340
26
 70
     0
280
     1
281
     0
  0
BLOCK_RECORD
  5
73
330
1
100
AcDbSymbolTableRecord
100
AcDbBlockTableRecord
  2
block 2
340
0
102
{BLKREFS
331
74
102
}
 70
     0
280
     1
281
     0
  0
BLOCK_RECORD
  5
8E
330
1
100
AcDbSymbolTableRecord
100
AcDbBlockTableRecord
  2
block 3
340
0
102
{BLKREFS
331
8F
102
}
 70
     0
280
     1
281
     0
  0
BLOCK_RECORD
  5
C2
330
1
100
AcDbSymbolTableRecord
100
AcDbBlockTableRecord
  2
block 4
340
0
102
{BLKREFS
331
C3
102
}
 70
     0
280
     1
281
     0
  0
BLOCK_RECORD
  5
F2
330
1
100
AcDbSymbolTableRecord
100
AcDbBlockTableRecord
  2
block 5
340
0
102
{BLKREFS
331
F3
102
}
 70
     0
280
     1
281
     0
  0
BLOCK_RECORD
  5
119
330
1
100
AcDbSymbolTableRecord
100
AcDbBlockTableRecord
  2
block 6
340
0
102
{BLKREFS
331
11A
102
}
 70
     0
280
     1
281
     0
  0
BLOCK_RECORD
  5
156
330
1
100
AcDbSymbolTableRecord
100
AcDbBlockTableRecord
  2
block 7
340
0
102
{BLKREFS
331
157
102
}
 70
     0
280
     1
281
     0
  0
ENDTAB
  0
ENDSEC
  0
SECTION
  2
BLOCKS
  0
BLOCK
  5
20
330
1F
100
AcDbEntity
  8
0
100
AcDbBlockBegin
  2
*Model_Space
 70
     0
 10
0.0
 20
0.0
 30
0.0
  3
*Model_Space
  1

  0
ENDBLK
  5
21
330
1F
100
AcDbEntity
  8
0
100
AcDbBlockEnd
  0
BLOCK
  5
1C
330
1B
100
AcDbEntity
 67
     1
  8
0
100
AcDbBlockBegin
  2
*Paper_Space
 70
     0
 10
0.0
 20
0.0
 30
0.0
  3
*Paper_Space
  1

  0
ENDBLK
  5
1D
330
1B
100
AcDbEntity
 67
     1
  8
0
100
AcDbBlockEnd
  0
BLOCK
  5
24
330
23
100
AcDbEntity
  8
0
100
AcDbBlockBegin
  2
*Paper_Space0
 70
     0
 10
0.0
 20
0.0
 30
0.0
  3
*Paper_Space0
  1

  0
ENDBLK
  5
25
330
23
100
AcDbEntity
  8
0
100
AcDbBlockEnd
  0
BLOCK
  5
75
330
73
100
AcDbEntity
  8
0
100
AcDbBlockBegin
  2
block 2
 70
     0
 10
0.0
 20
0.0
 30
0.0
  3
block 2
  1

  0
SPLINE
  5
77
330
73
100
AcDbEntity
  8
_U+30EC_U+30A4_U+30E4_U+30FC 1
370
     0
100
AcDbSpline
210
0.0
220
0.0
230
1.0
 70
    11
 71
     3
 72
    44
 73
    40
 74
     0
 42
0.0000000001
 43
0.0000000001
 12
1.0
 22
0.0
 32
0.0
 13
1.0
 23
0.0
 33
0.0
 40
0.0
 40
0.0
 40
0.0
 40
0.0
 40
1.0
 40
1.0
 40
1.0
 40
2.0
 40
2.0
 40
2.0
 40
3.0
 40
3.0
 40
3.0
 40
4.0
 40
4.0
 40
4.0
 40
5.0
 40
5.0
 40
5.0
 40
6.0
 40
6.0
 40
6.0
 40
7.0
 40
7.0
 40
7.0
 40
8.0
 40
8.0
 40
8.0
 40
9.0
 40
9.0
 40
9.0
 40
10.0
 40
10.0
 40
10.0
 40
11.0
 40
11.0
 40
11.0
 40
12.0
 40
12.0
 40
12.0
 40
13.0
 40
13.0
 40
13.0
 40
13.0
 10
63.8288343481921
 20
-153.7167154563625
 30
0.0
 10
63.61093205875004
 20
-153.8755343582325
 30
0.0
 10
63.51774222587404
 20
-153.9496039111654
 30
0.0
 10
63.46916637953202
 20
-154.0932643929003
 30
0.0
 10
63.46916637953202
 20
-154.0932643929003
 30
0.0
 10
64.24758570442422
 20
-154.0932643929003
 30
0.0
 10
64.24758570442422
 20
-154.0932643929003
 30
0.0
 10
64.24758570442422
 20
-154.0932643929003
 30
0.0
 10
64.24758570442422
 20
-154.2985920838212
 30
0.0
 10
64.24758570442422
 20
-154.2985920838212
 30
0.0
 10
64.24758570442422
 20
-154.2985920838212
 30
0.0
 10
63.21956921162567
 20
-154.2985920838212
 30
0.0
 10
63.21956921162567
 20
-154.2985920838212
 30
0.0
 10
63.25126409008996
 20
-153.9409911724523
 30
0.0
 10
63.31672090430971
 20
-153.8627875049371
 30
0.0
 10
63.70188257956065
 20
-153.5644422359144
 30
0.0
 10
63.9578531741147
 20
-153.3656602264155
 30
0.0
 10
64.02330998833445
 20
-153.2977918453561
 30
0.0
 10
64.02330998833445
 20
-153.1603325354946
 30
0.0
 10
64.02330998833445
 20
-153.0418212508021
 30
0.0
 10
63.951479747467
 20
-152.9109076223626
 30
0.0
 10
63.75476479525923
 20
-152.9109076223626
 30
0.0
 10
63.4944878313486
 20
-152.9109076223626
 30
0.0
 10
63.48604734740974
 20
-153.1413845103258
 30
0.0
 10
63.48174097805318
 20
-153.2578287377272
 30
0.0
 10
63.48174097805318
 20
-153.2578287377272
 30
0.0
 10
63.25763751673767
 20
-153.2578287377272
 30
0.0
 10
63.25763751673767
 20
-153.2578287377272
 30
0.0
 10
63.26607800067654
 20
-153.1307047143215
 30
0.0
 10
63.27658554190655
 20
-153.0187391110509
 30
0.0
 10
63.35702852148714
 20
-152.9002278263583
 30
0.0
 10
63.46692706746661
 20
-152.7393418671971
 30
0.0
 10
63.65313447844436
 20
-152.7055799314417
 30
0.0
 10
63.7695787058458
 20
-152.7055799314417
 30
0.0
 10
64.04673663763415
 20
-152.7055799314417
 30
0.0
 10
64.25395913107192
 20
-152.889548030354
 30
0.0
 10
64.25395913107192
 20
-153.1623995927858
 30
0.0
 10
64.25395913107192
 20
-153.3911539330064
 30
0.0
 10
64.13768715844475
 20
-153.4903726829816
 30
0.0
 10
63.8288343481921
 20
-153.7167154563625
 30
0.0
  0
HATCH
  5
78
330
73
100
AcDbEntity
  8
_U+30EC_U+30A4_U+30E4_U+30FC 1
 62
   179
420
  2234388
100
AcDbHatch
 10
0.0
 20
0.0
 30
0.0
210
0.0
220
0.0
230
1.0
  2
SOLID
 70
     1
 71
     0
 91
        1
 92
        1
 93
        1
 72
     4
 94
        3
 73
     0
 74
     1
 95
       44
 96
       40
 40
0.0
 40
0.0
 40
0.0
 40
0.0
 40
1.0
 40
1.0
 40
1.0
 40
2.0
 40
2.0
 40
2.0
 40
3.0
 40
3.0
 40
3.0
 40
4.0
 40
4.0
 40
4.0
 40
5.0
 40
5.0
 40
5.0
 40
6.0
 40
6.0
 40
6.0
 40
7.0
 40
7.0
 40
7.0
 40
8.0
 40
8.0
 40
8.0
 40
9.0
 40
9.0
 40
9.0
 40
10.0
 40
10.0
 40
10.0
 40
11.0
 40
11.0
 40
11.0
 40
12.0
 40
12.0
 40
12.0
 40
13.0
 40
13.0
 40
13.0
 40
13.0
 10
63.8288343481921
 20
-153.7167154563625
 10
63.61093205875004
 20
-153.8755343582325
 10
63.51774222587404
 20
-153.9496039111654
 10
63.46916637953202
 20
-154.0932643929003
 10
63.46916637953202
 20
-154.0932643929003
 10
64.24758570442422
 20
-154.0932643929003
 10
64.24758570442422
 20
-154.0932643929003
 10
64.24758570442422
 20
-154.0932643929003
 10
64.24758570442422
 20
-154.2985920838212
 10
64.24758570442422
 20
-154.2985920838212
 10
64.24758570442422
 20
-154.2985920838212
 10
63.21956921162567
 20
-154.2985920838212
 10
63.21956921162567
 20
-154.2985920838212
 10
63.25126409008996
 20
-153.9409911724523
 10
63.31672090430971
 20
-153.8627875049371
 10
63.70188257956065
 20
-153.5644422359144
 10
63.9578531741147
 20
-153.3656602264155
 10
64.02330998833445
 20
-153.2977918453561
 10
64.02330998833445
 20
-153.1603325354946
 10
64.02330998833445
 20
-153.0418212508021
 10
63.951479747467
 20
-152.9109076223626
 10
63.75476479525923
 20
-152.9109076223626
 10
63.4944878313486
 20
-152.9109076223626
 10
63.48604734740974
 20
-153.1413845103258
 10
63.48174097805318
 20
-153.2578287377272
 10
63.48174097805318
 20
-153.2578287377272
 10
63.25763751673767
 20
-153.2578287377272
 10
63.25763751673767
 20
-153.2578287377272
 10
63.26607800067654
 20
-153.1307047143215
 10
63.27658554190655
 20
-153.0187391110509
 10
63.35702852148714
 20
-152.9002278263583
 10
63.46692706746661
 20
-152.7393418671971
 10
63.65313447844436
 20
-152.7055799314417
 10
63.7695787058458
 20
-152.7055799314417
 10
64.04673663763415
 20
-152.7055799314417
 10
64.25395913107192
 20
-152.889548030354
 10
64.25395913107192
 20
-153.1623995927858
 10
64.25395913107192
 20
-153.3911539330064
 10
64.13768715844475
 20
-153.4903726829816
 10
63.8288343481921
 20
-153.7167154563625
 97
        0
 97
        0
 75
     2
 76
     1
 98
        0
  0
SPLINE
  5
79
330
73
100
AcDbEntity
  8
_U+30EC_U+30A4_U+30E4_U+30FC 1
370
     0
100
AcDbSpline
210
0.0
220
0.0
230
1.0
 70
    11
 71
     3
 72
    53
 73
    49
 74
     0
 42
0.0000000001
 43
0.0000000001
 12
1.0
 22
0.0
 32
0.0
 13
1.0
 23
0.0
 33
0.0
 40
0.0
 40
0.0
 40
0.0
 40
0.0
 40
1.0
 40
1.0
 40
1.0
 40
2.0
 40
2.0
 40
2.0
 40
3.0
 40
3.0
 40
3.0
 40
4.0
 40
4.0
 40
4.0
 40
5.0
 40
5.0
 40
5.0
 40
6.0
 40
6.0
 40
6.0
 40
7.0
 40
7.0
 40
7.0
 40
8.0
 40
8.0
 40
8.0
 40
9.0
 40
9.0
 40
9.0
 40
10.0
 40
10.0
 40
10.0
 40
11.0
 40
11.0
 40
11.0
 40
12.0
 40
12.0
 40
12.0
 40
13.0
 40
13.0
 40
13.0
 40
14.0
 40
14.0
 40
14.0
 40
15.0
 40
15.0
 40
15.0
 40
16.0
 40
16.0
 40
16.0
 40
16.0
 10
64.89354110790856
 20
-154.3492349874544
 30
0.0
 10
64.81516518561912
 20
-154.3492349874544
 30
0.0
 10
64.71370712357852
 20
-154.3323540195766
 30
0.0
 10
64.61207680676365
 20
-154.268964262648
 30
0.0
 10
64.43861624908132
 20
-154.1590657166686
 30
0.0
 10
64.41742891184704
 20
-154.0278075786806
 30
0.0
 10
64.39848088667816
 20
-153.9199760899922
 30
0.0
 10
64.39848088667816
 20
-153.9199760899922
 30
0.0
 10
64.62051729070251
 20
-153.9199760899922
 30
0.0
 10
64.62051729070251
 20
-153.9199760899922
 30
0.0
 10
64.67563881846651
 20
-154.1187580994911
 30
0.0
 10
64.80259058709797
 20
-154.1483859206643
 30
0.0
 10
64.89560816519972
 20
-154.1483859206643
 30
0.0
 10
65.03513453235233
 20
-154.1483859206643
 30
0.0
 10
65.18758000757464
 20
-154.0488226611406
 30
0.0
 10
65.18758000757464
 20
-153.8162787158862
 30
0.0
 10
65.18758000757464
 20
-153.5603081213322
 30
0.0
 10
65.0077460232446
 20
-153.4903726829816
 30
0.0
 10
64.88716768126085
 20
-153.4903726829816
 30
0.0
 10
64.85547280279656
 20
-153.4903726829816
 30
0.0
 10
64.71370712357852
 20
-153.4903726829816
 30
0.0
 10
64.62482366005908
 20
-153.6195637636785
 30
0.0
 10
64.62482366005908
 20
-153.6195637636785
 30
0.0
 10
64.44929604508559
 20
-153.6006157385096
 30
0.0
 10
64.44929604508559
 20
-153.6006157385096
 30
0.0
 10
64.44929604508559
 20
-153.6006157385096
 30
0.0
 10
64.56987438706933
 20
-152.7541557777837
 30
0.0
 10
64.56987438706933
 20
-152.7541557777837
 30
0.0
 10
64.56987438706933
 20
-152.7541557777837
 30
0.0
 10
65.34829371196155
 20
-152.7541557777837
 30
0.0
 10
65.34829371196155
 20
-152.7541557777837
 30
0.0
 10
65.34829371196155
 20
-152.7541557777837
 30
0.0
 10
65.34829371196155
 20
-152.9488036727003
 30
0.0
 10
65.34829371196155
 20
-152.9488036727003
 30
0.0
 10
65.34829371196155
 20
-152.9488036727003
 30
0.0
 10
64.7326551487474
 20
-152.9488036727003
 30
0.0
 10
64.7326551487474
 20
-152.9488036727003
 30
0.0
 10
64.7326551487474
 20
-152.9488036727003
 30
0.0
 10
64.66719833452765
 20
-153.371861398289
 30
0.0
 10
64.66719833452765
 20
-153.371861398289
 30
0.0
 10
64.7285210341651
 20
-153.3380994625335
 30
0.0
 10
64.81103107103682
 20
-153.2977918453561
 30
0.0
 10
64.92937010095515
 20
-153.2977918453561
 30
0.0
 10
65.18327363821807
 20
-153.2977918453561
 30
0.0
 10
65.42029620760326
 20
-153.4841715111081
 30
0.0
 10
65.42029620760326
 20
-153.7973306907173
 30
0.0
 10
65.42029620760326
 20
-154.1146239849089
 30
0.0
 10
65.1960204915135
 20
-154.3492349874544
 30
0.0
 10
64.89354110790856
 20
-154.3492349874544
 30
0.0
  0
HATCH
  5
7A
330
73
100
AcDbEntity
  8
_U+30EC_U+30A4_U+30E4_U+30FC 1
 62
   179
420
  2234388
100
AcDbHatch
 10
0.0
 20
0.0
 30
0.0
210
0.0
220
0.0
230
1.0
  2
SOLID
 70
     1
 71
     0
 91
        1
 92
        1
 93
        1
 72
     4
 94
        3
 73
     0
 74
     1
 95
       53
 96
       49
 40
0.0
 40
0.0
 40
0.0
 40
0.0
 40
1.0
 40
1.0
 40
1.0
 40
2.0
 40
2.0
 40
2.0
 40
3.0
 40
3.0
 40
3.0
 40
4.0
 40
4.0
 40
4.0
 40
5.0
 40
5.0
 40
5.0
 40
6.0
 40
6.0
 40
6.0
 40
7.0
 40
7.0
 40
7.0
 40
8.0
 40
8.0
 40
8.0
 40
9.0
 40
9.0
 40
9.0
 40
10.0
 40
10.0
 40
10.0
 40
11.0
 40
11.0
 40
11.0
 40
12.0
 40
12.0
 40
12.0
 40
13.0
 40
13.0
 40
13.0
 40
14.0
 40
14.0
 40
14.0
 40
15.0
 40
15.0
 40
15.0
 40
16.0
 40
16.0
 40
16.0
 40
16.0
 10
64.89354110790856
 20
-154.3492349874544
 10
64.81516518561912
 20
-154.3492349874544
 10
64.71370712357852
 20
-154.3323540195766
 10
64.61207680676365
 20
-154.268964262648
 10
64.43861624908132
 20
-154.1590657166686
 10
64.41742891184704
 20
-154.0278075786806
 10
64.39848088667816
 20
-153.9199760899922
 10
64.39848088667816
 20
-153.9199760899922
 10
64.62051729070251
 20
-153.9199760899922
 10
64.62051729070251
 20
-153.9199760899922
 10
64.67563881846651
 20
-154.1187580994911
 10
64.80259058709797
 20
-154.1483859206643
 10
64.89560816519972
 20
-154.1483859206643
 10
65.03513453235233
 20
-154.1483859206643
 10
65.18758000757464
 20
-154.0488226611406
 10
65.18758000757464
 20
-153.8162787158862
 10
65.18758000757464
 20
-153.5603081213322
 10
65.0077460232446
 20
-153.4903726829816
 10
64.88716768126085
 20
-153.4903726829816
 10
64.85547280279656
 20
-153.4903726829816
 10
64.71370712357852
 20
-153.4903726829816
 10
64.62482366005908
 20
-153.6195637636785
 10
64.62482366005908
 20
-153.6195637636785
 10
64.44929604508559
 20
-153.6006157385096
 10
64.44929604508559
 20
-153.6006157385096
 10
64.44929604508559
 20
-153.6006157385096
 10
64.56987438706933
 20
-152.7541557777837
 10
64.56987438706933
 20
-152.7541557777837
 10
64.56987438706933
 20
-152.7541557777837
 10
65.34829371196155
 20
-152.7541557777837
 10
65.34829371196155
 20
-152.7541557777837
 10
65.34829371196155
 20
-152.7541557777837
 10
65.34829371196155
 20
-152.9488036727003
 10
65.34829371196155
 20
-152.9488036727003
 10
65.34829371196155
 20
-152.9488036727003
 10
64.7326551487474
 20
-152.9488036727003
 10
64.7326551487474
 20
-152.9488036727003
 10
64.7326551487474
 20
-152.9488036727003
 10
64.66719833452765
 20
-153.371861398289
 10
64.66719833452765
 20
-153.371861398289
 10
64.7285210341651
 20
-153.3380994625335
 10
64.81103107103682
 20
-153.2977918453561
 10
64.92937010095515
 20
-153.2977918453561
 10
65.18327363821807
 20
-153.2977918453561
 10
65.42029620760326
 20
-153.4841715111081
 10
65.42029620760326
 20
-153.7973306907173
 10
65.42029620760326
 20
-154.1146239849089
 10
65.1960204915135
 20
-154.3492349874544
 10
64.89354110790856
 20
-154.3492349874544
 97
        0
 97
        0
 75
     2
 76
     1
 98
        0
  0
SPLINE
  5
7B
330
73
100
AcDbEntity
  8
_U+30EC_U+30A4_U+30E4_U+30FC 1
370
     0
100
AcDbSpline
210
0.0
220
0.0
230
1.0
 70
    11
 71
     3
 72
    44
 73
    40
 74
     0
 42
0.0000000001
 43
0.0000000001
 12
1.0
 22
0.0
 32
0.0
 13
1.0
 23
0.0
 33
0.0
 40
0.0
 40
0.0
 40
0.0
 40
0.0
 40
1.0
 40
1.0
 40
1.0
 40
2.0
 40
2.0
 40
2.0
 40
3.0
 40
3.0
 40
3.0
 40
4.0
 40
4.0
 40
4.0
 40
5.0
 40
5.0
 40
5.0
 40
6.0
 40
6.0
 40
6.0
 40
7.0
 40
7.0
 40
7.0
 40
8.0
 40
8.0
 40
8.0
 40
9.0
 40
9.0
 40
9.0
 40
10.0
 40
10.0
 40
10.0
 40
11.0
 40
11.0
 40
11.0
 40
12.0
 40
12.0
 40
12.0
 40
13.0
 40
13.0
 40
13.0
 40
13.0
 10
66.60351425201232
 20
-154.2985920838212
 30
0.0
 10
66.58008760271262
 20
-154.2541503520615
 30
0.0
 10
66.5590725202526
 20
-154.2014403911371
 30
0.0
 10
66.55683320818719
 20
-153.9706189936254
 30
0.0
 10
66.55269909360489
 20
-153.7273952523668
 30
0.0
 10
66.49344345125859
 20
-153.6574598140162
 30
0.0
 10
66.3156765242197
 20
-153.6574598140162
 30
0.0
 10
66.3156765242197
 20
-153.6574598140162
 30
0.0
 10
65.90743270921759
 20
-153.6574598140162
 30
0.0
 10
65.90743270921759
 20
-153.6574598140162
 30
0.0
 10
65.90743270921759
 20
-153.6574598140162
 30
0.0
 10
65.90743270921759
 20
-154.2985920838212
 30
0.0
 10
65.90743270921759
 20
-154.2985920838212
 30
0.0
 10
65.90743270921759
 20
-154.2985920838212
 30
0.0
 10
65.67264945189781
 20
-154.2985920838212
 30
0.0
 10
65.67264945189781
 20
-154.2985920838212
 30
0.0
 10
65.67264945189781
 20
-154.2985920838212
 30
0.0
 10
65.67264945189781
 20
-152.7541557777837
 30
0.0
 10
65.67264945189781
 20
-152.7541557777837
 30
0.0
 10
65.67264945189781
 20
-152.7541557777837
 30
0.0
 10
66.34737140268399
 20
-152.7541557777837
 30
0.0
 10
66.34737140268399
 20
-152.7541557777837
 30
0.0
 10
66.65415715564549
 20
-152.7541557777837
 30
0.0
 10
66.82141654145437
 20
-152.9257215329491
 30
0.0
 10
66.82141654145437
 20
-153.1816921275032
 30
0.0
 10
66.82141654145437
 20
-153.2323350311364
 30
0.0
 10
66.81280380274124
 20
-153.3150173227824
 30
0.0
 10
66.76836207098152
 20
-153.3952880475887
 30
0.0
 10
66.7092786834095
 20
-153.4989854216947
 30
0.0
 10
66.64364961441548
 20
-153.5179334468636
 30
0.0
 10
66.58232691477804
 20
-153.5348144147413
 30
0.0
 10
66.7197862246395
 20
-153.5771890892099
 30
0.0
 10
66.78748235092466
 20
-153.6257649355519
 30
0.0
 10
66.79178872028122
 20
-153.9409911724523
 30
0.0
 10
66.79592283486352
 20
-154.2117756775929
 30
0.0
 10
66.83192408268438
 20
-154.2434705560572
 30
0.0
 10
66.89962020896954
 20
-154.2985920838212
 30
0.0
 10
66.89962020896954
 20
-154.2985920838212
 30
0.0
 10
66.60351425201232
 20
-154.2985920838212
 30
0.0
 10
66.60351425201232
 20
-154.2985920838212
 30
0.0
  0
SPLINE
  5
7C
330
73
100
AcDbEntity
  8
_U+30EC_U+30A4_U+30E4_U+30FC 1
370
     0
100
AcDbSpline
210
0.0
220
0.0
230
1.0
 70
    11
 71
     3
 72
    20
 73
    16
 74
     0
 42
0.0000000001
 43
0.0000000001
 12
1.0
 22
0.0
 32
0.0
 13
1.0
 23
0.0
 33
0.0
 40
0.0
 40
0.0
 40
0.0
 40
0.0
 40
1.0
 40
1.0
 40
1.0
 40
2.0
 40
2.0
 40
2.0
 40
3.0
 40
3.0
 40
3.0
 40
4.0
 40
4.0
 40
4.0
 40
5.0
 40
5.0
 40
5.0
 40
5.0
 10
66.35167777204056
 20
-152.965684640578
 30
0.0
 10
66.35167777204056
 20
-152.965684640578
 30
0.0
 10
65.90743270921759
 20
-152.965684640578
 30
0.0
 10
65.90743270921759
 20
-152.965684640578
 30
0.0
 10
65.90743270921759
 20
-152.965684640578
 30
0.0
 10
65.90743270921759
 20
-153.4459309512219
 30
0.0
 10
65.90743270921759
 20
-153.4459309512219
 30
0.0
 10
65.90743270921759
 20
-153.4459309512219
 30
0.0
 10
66.3496107147494
 20
-153.4459309512219
 30
0.0
 10
66.3496107147494
 20
-153.4459309512219
 30
0.0
 10
66.44900171949887
 20
-153.4459309512219
 30
0.0
 10
66.58439397206918
 20
-153.3697943409978
 30
0.0
 10
66.58439397206918
 20
-153.1985730953809
 30
0.0
 10
66.58439397206918
 20
-153.1203694278657
 30
0.0
 10
66.55063203631373
 20
-152.965684640578
 30
0.0
 10
66.35167777204056
 20
-152.965684640578
 30
0.0
  0
HATCH
  5
7D
330
73
100
AcDbEntity
  8
_U+30EC_U+30A4_U+30E4_U+30FC 1
 62
   179
420
  2234388
100
AcDbHatch
 10
0.0
 20
0.0
 30
0.0
210
0.0
220
0.0
230
1.0
  2
SOLID
 70
     1
 71
     0
 91
        2
 92
        1
 93
        1
 72
     4
 94
        3
 73
     0
 74
     1
 95
       44
 96
       40
 40
0.0
 40
0.0
 40
0.0
 40
0.0
 40
1.0
 40
1.0
 40
1.0
 40
2.0
 40
2.0
 40
2.0
 40
3.0
 40
3.0
 40
3.0
 40
4.0
 40
4.0
 40
4.0
 40
5.0
 40
5.0
 40
5.0
 40
6.0
 40
6.0
 40
6.0
 40
7.0
 40
7.0
 40
7.0
 40
8.0
 40
8.0
 40
8.0
 40
9.0
 40
9.0
 40
9.0
 40
10.0
 40
10.0
 40
10.0
 40
11.0
 40
11.0
 40
11.0
 40
12.0
 40
12.0
 40
12.0
 40
13.0
 40
13.0
 40
13.0
 40
13.0
 10
66.60351425201232
 20
-154.2985920838212
 10
66.58008760271262
 20
-154.2541503520615
 10
66.5590725202526
 20
-154.2014403911371
 10
66.55683320818719
 20
-153.9706189936254
 10
66.55269909360489
 20
-153.7273952523668
 10
66.49344345125859
 20
-153.6574598140162
 10
66.3156765242197
 20
-153.6574598140162
 10
66.3156765242197
 20
-153.6574598140162
 10
65.90743270921759
 20
-153.6574598140162
 10
65.90743270921759
 20
-153.6574598140162
 10
65.90743270921759
 20
-153.6574598140162
 10
65.90743270921759
 20
-154.2985920838212
 10
65.90743270921759
 20
-154.2985920838212
 10
65.90743270921759
 20
-154.2985920838212
 10
65.67264945189781
 20
-154.2985920838212
 10
65.67264945189781
 20
-154.2985920838212
 10
65.67264945189781
 20
-154.2985920838212
 10
65.67264945189781
 20
-152.7541557777837
 10
65.67264945189781
 20
-152.7541557777837
 10
65.67264945189781
 20
-152.7541557777837
 10
66.34737140268399
 20
-152.7541557777837
 10
66.34737140268399
 20
-152.7541557777837
 10
66.65415715564549
 20
-152.7541557777837
 10
66.82141654145437
 20
-152.9257215329491
 10
66.82141654145437
 20
-153.1816921275032
 10
66.82141654145437
 20
-153.2323350311364
 10
66.81280380274124
 20
-153.3150173227824
 10
66.76836207098152
 20
-153.3952880475887
 10
66.7092786834095
 20
-153.4989854216947
 10
66.64364961441548
 20
-153.5179334468636
 10
66.58232691477804
 20
-153.5348144147413
 10
66.7197862246395
 20
-153.5771890892099
 10
66.78748235092466
 20
-153.6257649355519
 10
66.79178872028122
 20
-153.9409911724523
 10
66.79592283486352
 20
-154.2117756775929
 10
66.83192408268438
 20
-154.2434705560572
 10
66.89962020896954
 20
-154.2985920838212
 10
66.89962020896954
 20
-154.2985920838212
 10
66.60351425201232
 20
-154.2985920838212
 10
66.60351425201232
 20
-154.2985920838212
 97
        0
 97
        0
 92
        1
 93
        1
 72
     4
 94
        3
 73
     0
 74
     1
 95
       20
 96
       16
 40
0.0
 40
0.0
 40
0.0
 40
0.0
 40
1.0
 40
1.0
 40
1.0
 40
2.0
 40
2.0
 40
2.0
 40
3.0
 40
3.0
 40
3.0
 40
4.0
 40
4.0
 40
4.0
 40
5.0
 40
5.0
 40
5.0
 40
5.0
 10
66.35167777204056
 20
-152.965684640578
 10
66.35167777204056
 20
-152.965684640578
 10
65.90743270921759
 20
-152.965684640578
 10
65.90743270921759
 20
-152.965684640578
 10
65.90743270921759
 20
-152.965684640578
 10
65.90743270921759
 20
-153.4459309512219
 10
65.90743270921759
 20
-153.4459309512219
 10
65.90743270921759
 20
-153.4459309512219
 10
66.3496107147494
 20
-153.4459309512219
 10
66.3496107147494
 20
-153.4459309512219
 10
66.44900171949887
 20
-153.4459309512219
 10
66.58439397206918
 20
-153.3697943409978
 10
66.58439397206918
 20
-153.1985730953809
 10
66.58439397206918
 20
-153.1203694278657
 10
66.55063203631373
 20
-152.965684640578
 10
66.35167777204056
 20
-152.965684640578
 97
        0
 97
        0
 75
     2
 76
     1
 98
        0
  0
ENDBLK
  5
76
330
73
100
AcDbEntity
  8
0
100
AcDbBlockEnd
  0
BLOCK
  5
90
330
8E
100
AcDbEntity
  8
0
100
AcDbBlockBegin
  2
block 3
 70
     0
 10
0.0
 20
0.0
 30
0.0
  3
block 3
  1

  0
SPLINE
  5
92
330
8E
100
AcDbEntity
  8
_U+30EC_U+30A4_U+30E4_U+30FC 1
370
     0
100
AcDbSpline
210
0.0
220
0.0
230
1.0
 70
    11
 71
     3
 72
    29
 73
    25
 74
     0
 42
0.0000000001
 43
0.0000000001
 12
1.0
 22
0.0
 32
0.0
 13
1.0
 23
0.0
 33
0.0
 40
0.0
 40
0.0
 40
0.0
 40
0.0
 40
1.0
 40
1.0
 40
1.0
 40
2.0
 40
2.0
 40
2.0
 40
3.0
 40
3.0
 40
3.0
 40
4.0
 40
4.0
 40
4.0
 40
5.0
 40
5.0
 40
5.0
 40
6.0
 40
6.0
 40
6.0
 40
7.0
 40
7.0
 40
7.0
 40
8.0
 40
8.0
 40
8.0
 40
8.0
 10
117.6017794844884
 20
-147.2285671289915
 30
0.0
 10
117.8112412899916
 20
-147.3367431272283
 30
0.0
 10
117.830533824709
 20
-147.5100314301364
 30
0.0
 10
117.830533824709
 20
-147.6264756575378
 30
0.0
 10
117.830533824709
 20
-147.787361616699
 30
0.0
 10
117.7836805261096
 20
-147.9289550411428
 30
0.0
 10
117.6017794844884
 20
-148.0240396765357
 30
0.0
 10
117.4074760991204
 20
-148.1277370506417
 30
0.0
 10
117.1704535297352
 20
-148.1470295853591
 30
0.0
 10
117.0078450228314
 20
-148.1470295853591
 30
0.0
 10
116.8638400315479
 20
-148.1470295853591
 30
0.0
 10
116.6116590420276
 20
-148.1298041079328
 30
0.0
 10
116.4132215420773
 20
-148.0240396765357
 30
0.0
 10
116.2099609084475
 20
-147.9162081878473
 30
0.0
 10
116.1865342591478
 20
-147.7553222286862
 30
0.0
 10
116.1865342591478
 20
-147.6264756575378
 30
0.0
 10
116.1865342591478
 20
-147.4676567556678
 30
0.0
 10
116.2313205004561
 20
-147.3239962739329
 30
0.0
 10
116.4132215420773
 20
-147.2285671289915
 30
0.0
 10
116.6054578701542
 20
-147.1293483790163
 30
0.0
 10
116.8342122103748
 20
-147.1059217297166
 30
0.0
 10
117.0078450228314
 20
-147.1059217297166
 30
0.0
 10
117.1787217588998
 20
-147.1059217297166
 30
0.0
 10
117.4095431564115
 20
-147.1272813217251
 30
0.0
 10
117.6017794844884
 20
-147.2285671289915
 30
0.0
  0
SPLINE
  5
93
330
8E
100
AcDbEntity
  8
_U+30EC_U+30A4_U+30E4_U+30FC 1
370
     0
100
AcDbSpline
210
0.0
220
0.0
230
1.0
 70
    11
 71
     3
 72
    17
 73
    13
 74
     0
 42
0.0000000001
 43
0.0000000001
 12
1.0
 22
0.0
 32
0.0
 13
1.0
 23
0.0
 33
0.0
 40
0.0
 40
0.0
 40
0.0
 40
0.0
 40
1.0
 40
1.0
 40
1.0
 40
2.0
 40
2.0
 40
2.0
 40
3.0
 40
3.0
 40
3.0
 40
4.0
 40
4.0
 40
4.0
 40
4.0
 10
116.3794596063218
 20
-147.6264756575378
 30
0.0
 10
116.3794596063218
 20
-147.8762450802184
 30
0.0
 10
116.6626464552093
 20
-147.9227538692693
 30
0.0
 10
117.0078450228314
 20
-147.9227538692693
 30
0.0
 10
117.3268608647655
 20
-147.9227538692693
 30
0.0
 10
117.6355414202439
 20
-147.8865803666742
 30
0.0
 10
117.6355414202439
 20
-147.6264756575378
 30
0.0
 10
117.6355414202439
 20
-147.3787732921484
 30
0.0
 10
117.3544216286475
 20
-147.3301974458063
 30
0.0
 10
117.0078450228314
 20
-147.3301974458063
 30
0.0
 10
116.6881401618002
 20
-147.3301974458063
 30
0.0
 10
116.3794596063218
 20
-147.3684380056926
 30
0.0
 10
116.3794596063218
 20
-147.6264756575378
 30
0.0
  0
HATCH
  5
94
330
8E
100
AcDbEntity
  8
_U+30EC_U+30A4_U+30E4_U+30FC 1
 62
   179
420
  2234388
100
AcDbHatch
 10
0.0
 20
0.0
 30
0.0
210
0.0
220
0.0
230
1.0
  2
SOLID
 70
     1
 71
     0
 91
        2
 92
        1
 93
        1
 72
     4
 94
        3
 73
     0
 74
     1
 95
       29
 96
       25
 40
0.0
 40
0.0
 40
0.0
 40
0.0
 40
1.0
 40
1.0
 40
1.0
 40
2.0
 40
2.0
 40
2.0
 40
3.0
 40
3.0
 40
3.0
 40
4.0
 40
4.0
 40
4.0
 40
5.0
 40
5.0
 40
5.0
 40
6.0
 40
6.0
 40
6.0
 40
7.0
 40
7.0
 40
7.0
 40
8.0
 40
8.0
 40
8.0
 40
8.0
 10
117.6017794844884
 20
-147.2285671289915
 10
117.8112412899916
 20
-147.3367431272283
 10
117.830533824709
 20
-147.5100314301364
 10
117.830533824709
 20
-147.6264756575378
 10
117.830533824709
 20
-147.787361616699
 10
117.7836805261096
 20
-147.9289550411428
 10
117.6017794844884
 20
-148.0240396765357
 10
117.4074760991204
 20
-148.1277370506417
 10
117.1704535297352
 20
-148.1470295853591
 10
117.0078450228314
 20
-148.1470295853591
 10
116.8638400315479
 20
-148.1470295853591
 10
116.6116590420276
 20
-148.1298041079328
 10
116.4132215420773
 20
-148.0240396765357
 10
116.2099609084475
 20
-147.9162081878473
 10
116.1865342591478
 20
-147.7553222286862
 10
116.1865342591478
 20
-147.6264756575378
 10
116.1865342591478
 20
-147.4676567556678
 10
116.2313205004561
 20
-147.3239962739329
 10
116.4132215420773
 20
-147.2285671289915
 10
116.6054578701542
 20
-147.1293483790163
 10
116.8342122103748
 20
-147.1059217297166
 10
117.0078450228314
 20
-147.1059217297166
 10
117.1787217588998
 20
-147.1059217297166
 10
117.4095431564115
 20
-147.1272813217251
 10
117.6017794844884
 20
-147.2285671289915
 97
        0
 97
        0
 92
        1
 93
        1
 72
     4
 94
        3
 73
     0
 74
     1
 95
       17
 96
       13
 40
0.0
 40
0.0
 40
0.0
 40
0.0
 40
1.0
 40
1.0
 40
1.0
 40
2.0
 40
2.0
 40
2.0
 40
3.0
 40
3.0
 40
3.0
 40
4.0
 40
4.0
 40
4.0
 40
4.0
 10
116.3794596063218
 20
-147.6264756575378
 10
116.3794596063218
 20
-147.8762450802184
 10
116.6626464552093
 20
-147.9227538692693
 10
117.0078450228314
 20
-147.9227538692693
 10
117.3268608647655
 20
-147.9227538692693
 10
117.6355414202439
 20
-147.8865803666742
 10
117.6355414202439
 20
-147.6264756575378
 10
117.6355414202439
 20
-147.3787732921484
 10
117.3544216286475
 20
-147.3301974458063
 10
117.0078450228314
 20
-147.3301974458063
 10
116.6881401618002
 20
-147.3301974458063
 10
116.3794596063218
 20
-147.3684380056926
 10
116.3794596063218
 20
-147.6264756575378
 97
        0
 97
        0
 75
     2
 76
     1
 98
        0
  0
POLYLINE
  5
95
330
8E
100
AcDbEntity
  8
_U+30EC_U+30A4_U+30E4_U+30FC 1
370
     0
100
AcDb2dPolyline
 66
     1
 10
0.0
 20
0.0
 30
0.0
  0
VERTEX
  5
96
330
95
100
AcDbEntity
  8
_U+30EC_U+30A4_U+30E4_U+30FC 1
370
     0
100
AcDbVertex
100
AcDb2dVertex
 10
117.7795464115273
 20
-146.8895697332429
 30
0.0
  0
VERTEX
  5
97
330
95
100
AcDbEntity
  8
_U+30EC_U+30A4_U+30E4_U+30FC 1
370
     0
100
AcDbVertex
100
AcDb2dVertex
 10
117.5280544411041
 20
-146.8895697332429
 30
0.0
  0
VERTEX
  5
98
330
95
100
AcDbEntity
  8
_U+30EC_U+30A4_U+30E4_U+30FC 1
370
     0
100
AcDbVertex
100
AcDb2dVertex
 10
117.5280544411041
 20
-146.6377332532711
 30
0.0
  0
VERTEX
  5
99
330
95
100
AcDbEntity
  8
_U+30EC_U+30A4_U+30E4_U+30FC 1
370
     0
100
AcDbVertex
100
AcDb2dVertex
 10
117.7795464115273
 20
-146.6377332532711
 30
0.0
  0
VERTEX
  5
9A
330
95
100
AcDbEntity
  8
_U+30EC_U+30A4_U+30E4_U+30FC 1
370
     0
100
AcDbVertex
100
AcDb2dVertex
 10
117.7795464115273
 20
-146.8895697332429
 30
0.0
  0
SEQEND
  5
9B
330
95
100
AcDbEntity
  8
_U+30EC_U+30A4_U+30E4_U+30FC 1
370
     0
  0
HATCH
  5
9C
330
8E
100
AcDbEntity
  8
_U+30EC_U+30A4_U+30E4_U+30FC 1
 62
   179
420
  2234388
100
AcDbHatch
 10
0.0
 20
0.0
 30
0.0
210
0.0
220
0.0
230
1.0
  2
SOLID
 70
     1
 71
     0
 91
        1
 92
        1
 93
        4
 72
     1
 10
117.7795464115273
 20
-146.8895697332429
 11
117.5280544411041
 21
-146.8895697332429
 72
     1
 10
117.5280544411041
 20
-146.8895697332429
 11
117.5280544411041
 21
-146.6377332532711
 72
     1
 10
117.5280544411041
 20
-146.6377332532711
 11
117.7795464115273
 21
-146.6377332532711
 72
     1
 10
117.7795464115273
 20
-146.6377332532711
 11
117.7795464115273
 21
-146.8895697332429
 97
        0
 75
     2
 76
     1
 98
        0
  0
POLYLINE
  5
9D
330
8E
100
AcDbEntity
  8
_U+30EC_U+30A4_U+30E4_U+30FC 1
370
     0
100
AcDb2dPolyline
 66
     1
 10
0.0
 20
0.0
 30
0.0
  0
VERTEX
  5
9E
330
9D
100
AcDbEntity
  8
_U+30EC_U+30A4_U+30E4_U+30FC 1
370
     0
100
AcDbVertex
100
AcDb2dVertex
 10
117.4329698057112
 20
-145.5694091432952
 30
0.0
  0
VERTEX
  5
9F
330
9D
100
AcDbEntity
  8
_U+30EC_U+30A4_U+30E4_U+30FC 1
370
     0
100
AcDbVertex
100
AcDb2dVertex
 10
117.7795464115273
 20
-145.5694091432952
 30
0.0
  0
VERTEX
  5
A0
330
9D
100
AcDbEntity
  8
_U+30EC_U+30A4_U+30E4_U+30FC 1
370
     0
100
AcDbVertex
100
AcDb2dVertex
 10
117.7795464115273
 20
-145.787139177963
 30
0.0
  0
VERTEX
  5
A1
330
9D
100
AcDbEntity
  8
_U+30EC_U+30A4_U+30E4_U+30FC 1
370
     0
100
AcDbVertex
100
AcDb2dVertex
 10
117.4329698057112
 20
-145.787139177963
 30
0.0
  0
VERTEX
  5
A2
330
9D
100
AcDbEntity
  8
_U+30EC_U+30A4_U+30E4_U+30FC 1
370
     0
100
AcDbVertex
100
AcDb2dVertex
 10
117.4329698057112
 20
-146.4430853583545
 30
0.0
  0
VERTEX
  5
A3
330
9D
100
AcDbEntity
  8
_U+30EC_U+30A4_U+30E4_U+30FC 1
370
     0
100
AcDbVertex
100
AcDb2dVertex
 10
117.2083495800729
 20
-146.4430853583545
 30
0.0
  0
VERTEX
  5
A4
330
9D
100
AcDbEntity
  8
_U+30EC_U+30A4_U+30E4_U+30FC 1
370
     0
100
AcDbVertex
100
AcDb2dVertex
 10
116.2354546150384
 20
-145.7640570382118
 30
0.0
  0
VERTEX
  5
A5
330
9D
100
AcDbEntity
  8
_U+30EC_U+30A4_U+30E4_U+30FC 1
370
     0
100
AcDbVertex
100
AcDb2dVertex
 10
116.2354546150384
 20
-145.5694091432952
 30
0.0
  0
VERTEX
  5
A6
330
9D
100
AcDbEntity
  8
_U+30EC_U+30A4_U+30E4_U+30FC 1
370
     0
100
AcDbVertex
100
AcDb2dVertex
 10
117.2338432866638
 20
-145.5694091432952
 30
0.0
  0
VERTEX
  5
A7
330
9D
100
AcDbEntity
  8
_U+30EC_U+30A4_U+30E4_U+30FC 1
370
     0
100
AcDbVertex
100
AcDb2dVertex
 10
117.2338432866638
 20
-145.3620143950831
 30
0.0
  0
VERTEX
  5
A8
330
9D
100
AcDbEntity
  8
_U+30EC_U+30A4_U+30E4_U+30FC 1
370
     0
100
AcDbVertex
100
AcDb2dVertex
 10
117.4329698057112
 20
-145.3620143950831
 30
0.0
  0
VERTEX
  5
A9
330
9D
100
AcDbEntity
  8
_U+30EC_U+30A4_U+30E4_U+30FC 1
370
     0
100
AcDbVertex
100
AcDb2dVertex
 10
117.4329698057112
 20
-145.5694091432952
 30
0.0
  0
SEQEND
  5
AA
330
9D
100
AcDbEntity
  8
_U+30EC_U+30A4_U+30E4_U+30FC 1
370
     0
  0
POLYLINE
  5
AB
330
8E
100
AcDbEntity
  8
_U+30EC_U+30A4_U+30E4_U+30FC 1
370
     0
100
AcDb2dPolyline
 66
     1
 10
0.0
 20
0.0
 30
0.0
  0
VERTEX
  5
AC
330
AB
100
AcDbEntity
  8
_U+30EC_U+30A4_U+30E4_U+30FC 1
370
     0
100
AcDbVertex
100
AcDb2dVertex
 10
116.5778971062722
 20
-145.787139177963
 30
0.0
  0
VERTEX
  5
AD
330
AB
100
AcDbEntity
  8
_U+30EC_U+30A4_U+30E4_U+30FC 1
370
     0
100
AcDbVertex
100
AcDb2dVertex
 10
117.2338432866638
 20
-146.2443033488556
 30
0.0
  0
VERTEX
  5
AE
330
AB
100
AcDbEntity
  8
_U+30EC_U+30A4_U+30E4_U+30FC 1
370
     0
100
AcDbVertex
100
AcDb2dVertex
 10
117.2338432866638
 20
-145.787139177963
 30
0.0
  0
VERTEX
  5
AF
330
AB
100
AcDbEntity
  8
_U+30EC_U+30A4_U+30E4_U+30FC 1
370
     0
100
AcDbVertex
100
AcDb2dVertex
 10
116.5778971062722
 20
-145.787139177963
 30
0.0
  0
SEQEND
  5
B0
330
AB
100
AcDbEntity
  8
_U+30EC_U+30A4_U+30E4_U+30FC 1
370
     0
  0
HATCH
  5
B1
330
8E
100
AcDbEntity
  8
_U+30EC_U+30A4_U+30E4_U+30FC 1
 62
   179
420
  2234388
100
AcDbHatch
 10
0.0
 20
0.0
 30
0.0
210
0.0
220
0.0
230
1.0
  2
SOLID
 70
     1
 71
     0
 91
        2
 92
        1
 93
       11
 72
     1
 10
117.4329698057112
 20
-145.5694091432952
 11
117.7795464115273
 21
-145.5694091432952
 72
     1
 10
117.7795464115273
 20
-145.5694091432952
 11
117.7795464115273
 21
-145.787139177963
 72
     1
 10
117.7795464115273
 20
-145.787139177963
 11
117.4329698057112
 21
-145.787139177963
 72
     1
 10
117.4329698057112
 20
-145.787139177963
 11
117.4329698057112
 21
-146.4430853583545
 72
     1
 10
117.4329698057112
 20
-146.4430853583545
 11
117.2083495800729
 21
-146.4430853583545
 72
     1
 10
117.2083495800729
 20
-146.4430853583545
 11
116.2354546150384
 21
-145.7640570382118
 72
     1
 10
116.2354546150384
 20
-145.7640570382118
 11
116.2354546150384
 21
-145.5694091432952
 72
     1
 10
116.2354546150384
 20
-145.5694091432952
 11
117.2338432866638
 21
-145.5694091432952
 72
     1
 10
117.2338432866638
 20
-145.5694091432952
 11
117.2338432866638
 21
-145.3620143950831
 72
     1
 10
117.2338432866638
 20
-145.3620143950831
 11
117.4329698057112
 21
-145.3620143950831
 72
     1
 10
117.4329698057112
 20
-145.3620143950831
 11
117.4329698057112
 21
-145.5694091432952
 97
        0
 92
        1
 93
        3
 72
     1
 10
116.5778971062722
 20
-145.787139177963
 11
117.2338432866638
 21
-146.2443033488556
 72
     1
 10
117.2338432866638
 20
-146.2443033488556
 11
117.2338432866638
 21
-145.787139177963
 72
     1
 10
117.2338432866638
 20
-145.787139177963
 11
116.5778971062722
 21
-145.787139177963
 97
        0
 75
     2
 76
     1
 98
        0
  0
ENDBLK
  5
91
330
8E
100
AcDbEntity
  8
0
100
AcDbBlockEnd
  0
BLOCK
  5
C4
330
C2
100
AcDbEntity
  8
0
100
AcDbBlockBegin
  2
block 4
 70
     0
 10
0.0
 20
0.0
 30
0.0
  3
block 4
  1

  0
SPLINE
  5
C6
330
C2
100
AcDbEntity
  8
_U+30EC_U+30A4_U+30E4_U+30FC 1
370
     0
100
AcDbSpline
210
0.0
220
0.0
230
1.0
 70
    11
 71
     3
 72
    29
 73
    25
 74
     0
 42
0.0000000001
 43
0.0000000001
 12
1.0
 22
0.0
 32
0.0
 13
1.0
 23
0.0
 33
0.0
 40
0.0
 40
0.0
 40
0.0
 40
0.0
 40
1.0
 40
1.0
 40
1.0
 40
2.0
 40
2.0
 40
2.0
 40
3.0
 40
3.0
 40
3.0
 40
4.0
 40
4.0
 40
4.0
 40
5.0
 40
5.0
 40
5.0
 40
6.0
 40
6.0
 40
6.0
 40
7.0
 40
7.0
 40
7.0
 40
8.0
 40
8.0
 40
8.0
 40
8.0
 10
76.27561982685124
 20
-103.1203206122408
 30
0.0
 10
76.16778833816292
 20
-103.3297824177439
 30
0.0
 10
75.99432778048059
 20
-103.3489026976871
 30
0.0
 10
75.87788355307914
 20
-103.3489026976871
 30
0.0
 10
75.71716984869224
 20
-103.3489026976871
 30
0.0
 10
75.57540416947421
 20
-103.3023939086362
 30
0.0
 10
75.48014727930705
 20
-103.1203206122408
 30
0.0
 10
75.3766221599753
 20
-102.9256727173241
 30
0.0
 10
75.35750188003216
 20
-102.6888224027132
 30
0.0
 10
75.35750188003216
 20
-102.5258693862609
 30
0.0
 10
75.35750188003216
 20
-102.3820366497517
 30
0.0
 10
75.37438284790989
 20
-102.1303724245542
 30
0.0
 10
75.48014727930705
 20
-101.931418160281
 30
0.0
 10
75.58815102276964
 20
-101.7283297814256
 30
0.0
 10
75.74886472715654
 20
-101.7050753869001
 30
0.0
 10
75.87788355307914
 20
-101.7050753869001
 30
0.0
 10
76.0365302001749
 20
-101.7050753869001
 30
0.0
 10
76.18036293668408
 20
-101.7495171186599
 30
0.0
 10
76.27561982685124
 20
-101.931418160281
 30
0.0
 10
76.37501083160069
 20
-102.1239989979065
 30
0.0
 10
76.39826522612613
 20
-102.3524088285786
 30
0.0
 10
76.39826522612613
 20
-102.5258693862609
 30
0.0
 10
76.39826522612613
 20
-102.6972628866521
 30
0.0
 10
76.3772501436661
 20
-102.9279120293896
 30
0.0
 10
76.27561982685124
 20
-103.1203206122408
 30
0.0
  0
SPLINE
  5
C7
330
C2
100
AcDbEntity
  8
_U+30EC_U+30A4_U+30E4_U+30FC 1
370
     0
100
AcDbSpline
210
0.0
220
0.0
230
1.0
 70
    11
 71
     3
 72
    17
 73
    13
 74
     0
 42
0.0000000001
 43
0.0000000001
 12
1.0
 22
0.0
 32
0.0
 13
1.0
 23
0.0
 33
0.0
 40
0.0
 40
0.0
 40
0.0
 40
0.0
 40
1.0
 40
1.0
 40
1.0
 40
2.0
 40
2.0
 40
2.0
 40
3.0
 40
3.0
 40
3.0
 40
4.0
 40
4.0
 40
4.0
 40
4.0
 10
75.87788355307914
 20
-101.8976562245256
 30
0.0
 10
75.6282863851728
 20
-101.8976562245256
 30
0.0
 10
75.58177759612192
 20
-102.1811875829617
 30
0.0
 10
75.58177759612192
 20
-102.5258693862609
 30
0.0
 10
75.58177759612192
 20
-102.8454019925178
 30
0.0
 10
75.61777884394279
 20
-103.1542548027705
 30
0.0
 10
75.87788355307914
 20
-103.1542548027705
 30
0.0
 10
76.12541366369435
 20
-103.1542548027705
 30
0.0
 10
76.17416176481063
 20
-102.8727905016256
 30
0.0
 10
76.17416176481063
 20
-102.5258693862609
 30
0.0
 10
76.17416176481063
 20
-102.2065090347782
 30
0.0
 10
76.13609345969861
 20
-101.8976562245256
 30
0.0
 10
75.87788355307914
 20
-101.8976562245256
 30
0.0
  0
HATCH
  5
C8
330
C2
100
AcDbEntity
  8
_U+30EC_U+30A4_U+30E4_U+30FC 1
 62
   179
420
  2234388
100
AcDbHatch
 10
0.0
 20
0.0
 30
0.0
210
0.0
220
0.0
230
1.0
  2
SOLID
 70
     1
 71
     0
 91
        2
 92
        1
 93
        1
 72
     4
 94
        3
 73
     0
 74
     1
 95
       29
 96
       25
 40
0.0
 40
0.0
 40
0.0
 40
0.0
 40
1.0
 40
1.0
 40
1.0
 40
2.0
 40
2.0
 40
2.0
 40
3.0
 40
3.0
 40
3.0
 40
4.0
 40
4.0
 40
4.0
 40
5.0
 40
5.0
 40
5.0
 40
6.0
 40
6.0
 40
6.0
 40
7.0
 40
7.0
 40
7.0
 40
8.0
 40
8.0
 40
8.0
 40
8.0
 10
76.27561982685124
 20
-103.1203206122408
 10
76.16778833816292
 20
-103.3297824177439
 10
75.99432778048059
 20
-103.3489026976871
 10
75.87788355307914
 20
-103.3489026976871
 10
75.71716984869224
 20
-103.3489026976871
 10
75.57540416947421
 20
-103.3023939086362
 10
75.48014727930705
 20
-103.1203206122408
 10
75.3766221599753
 20
-102.9256727173241
 10
75.35750188003216
 20
-102.6888224027132
 10
75.35750188003216
 20
-102.5258693862609
 10
75.35750188003216
 20
-102.3820366497517
 10
75.37438284790989
 20
-102.1303724245542
 10
75.48014727930705
 20
-101.931418160281
 10
75.58815102276964
 20
-101.7283297814256
 10
75.74886472715654
 20
-101.7050753869001
 10
75.87788355307914
 20
-101.7050753869001
 10
76.0365302001749
 20
-101.7050753869001
 10
76.18036293668408
 20
-101.7495171186599
 10
76.27561982685124
 20
-101.931418160281
 10
76.37501083160069
 20
-102.1239989979065
 10
76.39826522612613
 20
-102.3524088285786
 10
76.39826522612613
 20
-102.5258693862609
 10
76.39826522612613
 20
-102.6972628866521
 10
76.3772501436661
 20
-102.9279120293896
 10
76.27561982685124
 20
-103.1203206122408
 97
        0
 97
        0
 92
        1
 93
        1
 72
     4
 94
        3
 73
     0
 74
     1
 95
       17
 96
       13
 40
0.0
 40
0.0
 40
0.0
 40
0.0
 40
1.0
 40
1.0
 40
1.0
 40
2.0
 40
2.0
 40
2.0
 40
3.0
 40
3.0
 40
3.0
 40
4.0
 40
4.0
 40
4.0
 40
4.0
 10
75.87788355307914
 20
-101.8976562245256
 10
75.6282863851728
 20
-101.8976562245256
 10
75.58177759612192
 20
-102.1811875829617
 10
75.58177759612192
 20
-102.5258693862609
 10
75.58177759612192
 20
-102.8454019925178
 10
75.61777884394279
 20
-103.1542548027705
 10
75.87788355307914
 20
-103.1542548027705
 10
76.12541366369435
 20
-103.1542548027705
 10
76.17416176481063
 20
-102.8727905016256
 10
76.17416176481063
 20
-102.5258693862609
 10
76.17416176481063
 20
-102.2065090347782
 10
76.13609345969861
 20
-101.8976562245256
 10
75.87788355307914
 20
-101.8976562245256
 97
        0
 97
        0
 75
     2
 76
     1
 98
        0
  0
POLYLINE
  5
C9
330
C2
100
AcDbEntity
  8
_U+30EC_U+30A4_U+30E4_U+30FC 1
370
     0
100
AcDb2dPolyline
 66
     1
 10
0.0
 20
0.0
 30
0.0
  0
VERTEX
  5
CA
330
C9
100
AcDbEntity
  8
_U+30EC_U+30A4_U+30E4_U+30FC 1
370
     0
100
AcDbVertex
100
AcDb2dVertex
 10
76.61478947737409
 20
-103.2980875392796
 30
0.0
  0
VERTEX
  5
CB
330
C9
100
AcDbEntity
  8
_U+30EC_U+30A4_U+30E4_U+30FC 1
370
     0
100
AcDbVertex
100
AcDb2dVertex
 10
76.61478947737409
 20
-103.0464233140821
 30
0.0
  0
VERTEX
  5
CC
330
C9
100
AcDbEntity
  8
_U+30EC_U+30A4_U+30E4_U+30FC 1
370
     0
100
AcDbVertex
100
AcDb2dVertex
 10
76.86645370257159
 20
-103.0464233140821
 30
0.0
  0
VERTEX
  5
CD
330
C9
100
AcDbEntity
  8
_U+30EC_U+30A4_U+30E4_U+30FC 1
370
     0
100
AcDbVertex
100
AcDb2dVertex
 10
76.86645370257159
 20
-103.2980875392796
 30
0.0
  0
VERTEX
  5
CE
330
C9
100
AcDbEntity
  8
_U+30EC_U+30A4_U+30E4_U+30FC 1
370
     0
100
AcDbVertex
100
AcDb2dVertex
 10
76.61478947737409
 20
-103.2980875392796
 30
0.0
  0
SEQEND
  5
CF
330
C9
100
AcDbEntity
  8
_U+30EC_U+30A4_U+30E4_U+30FC 1
370
     0
  0
HATCH
  5
D0
330
C2
100
AcDbEntity
  8
_U+30EC_U+30A4_U+30E4_U+30FC 1
 62
   179
420
  2234388
100
AcDbHatch
 10
0.0
 20
0.0
 30
0.0
210
0.0
220
0.0
230
1.0
  2
SOLID
 70
     1
 71
     0
 91
        1
 92
        1
 93
        4
 72
     1
 10
76.61478947737409
 20
-103.2980875392796
 11
76.61478947737409
 21
-103.0464233140821
 72
     1
 10
76.61478947737409
 20
-103.0464233140821
 11
76.86645370257159
 21
-103.0464233140821
 72
     1
 10
76.86645370257159
 20
-103.0464233140821
 11
76.86645370257159
 21
-103.2980875392796
 72
     1
 10
76.86645370257159
 20
-103.2980875392796
 11
76.61478947737409
 21
-103.2980875392796
 97
        0
 75
     2
 76
     1
 98
        0
  0
POLYLINE
  5
D1
330
C2
100
AcDbEntity
  8
_U+30EC_U+30A4_U+30E4_U+30FC 1
370
     0
100
AcDb2dPolyline
 66
     1
 10
0.0
 20
0.0
 30
0.0
  0
VERTEX
  5
D2
330
D1
100
AcDbEntity
  8
_U+30EC_U+30A4_U+30E4_U+30FC 1
370
     0
100
AcDbVertex
100
AcDb2dVertex
 10
77.93512232209608
 20
-102.951166423915
 30
0.0
  0
VERTEX
  5
D3
330
D1
100
AcDbEntity
  8
_U+30EC_U+30A4_U+30E4_U+30FC 1
370
     0
100
AcDbVertex
100
AcDb2dVertex
 10
77.93512232209608
 20
-103.2980875392796
 30
0.0
  0
VERTEX
  5
D4
330
D1
100
AcDbEntity
  8
_U+30EC_U+30A4_U+30E4_U+30FC 1
370
     0
100
AcDbVertex
100
AcDb2dVertex
 10
77.71722003265403
 20
-103.2980875392796
 30
0.0
  0
VERTEX
  5
D5
330
D1
100
AcDbEntity
  8
_U+30EC_U+30A4_U+30E4_U+30FC 1
370
     0
100
AcDbVertex
100
AcDb2dVertex
 10
77.71722003265403
 20
-102.951166423915
 30
0.0
  0
VERTEX
  5
D6
330
D1
100
AcDbEntity
  8
_U+30EC_U+30A4_U+30E4_U+30FC 1
370
     0
100
AcDbVertex
100
AcDb2dVertex
 10
77.06144610703673
 20
-102.951166423915
 30
0.0
  0
VERTEX
  5
D7
330
D1
100
AcDbEntity
  8
_U+30EC_U+30A4_U+30E4_U+30FC 1
370
     0
100
AcDbVertex
100
AcDb2dVertex
 10
77.06144610703673
 20
-102.7268907078252
 30
0.0
  0
VERTEX
  5
D8
330
D1
100
AcDbEntity
  8
_U+30EC_U+30A4_U+30E4_U+30FC 1
370
     0
100
AcDbVertex
100
AcDb2dVertex
 10
77.74047442717946
 20
-101.7538234880164
 30
0.0
  0
VERTEX
  5
D9
330
D1
100
AcDbEntity
  8
_U+30EC_U+30A4_U+30E4_U+30FC 1
370
     0
100
AcDbVertex
100
AcDb2dVertex
 10
77.93512232209608
 20
-101.7538234880164
 30
0.0
  0
VERTEX
  5
DA
330
D1
100
AcDbEntity
  8
_U+30EC_U+30A4_U+30E4_U+30FC 1
370
     0
100
AcDbVertex
100
AcDb2dVertex
 10
77.93512232209608
 20
-102.7522121596418
 30
0.0
  0
VERTEX
  5
DB
330
D1
100
AcDbEntity
  8
_U+30EC_U+30A4_U+30E4_U+30FC 1
370
     0
100
AcDbVertex
100
AcDb2dVertex
 10
78.14251707030813
 20
-102.7522121596418
 30
0.0
  0
VERTEX
  5
DC
330
D1
100
AcDbEntity
  8
_U+30EC_U+30A4_U+30E4_U+30FC 1
370
     0
100
AcDbVertex
100
AcDb2dVertex
 10
78.14251707030813
 20
-102.951166423915
 30
0.0
  0
VERTEX
  5
DD
330
D1
100
AcDbEntity
  8
_U+30EC_U+30A4_U+30E4_U+30FC 1
370
     0
100
AcDbVertex
100
AcDb2dVertex
 10
77.93512232209608
 20
-102.951166423915
 30
0.0
  0
SEQEND
  5
DE
330
D1
100
AcDbEntity
  8
_U+30EC_U+30A4_U+30E4_U+30FC 1
370
     0
  0
POLYLINE
  5
DF
330
C2
100
AcDbEntity
  8
_U+30EC_U+30A4_U+30E4_U+30FC 1
370
     0
100
AcDb2dPolyline
 66
     1
 10
0.0
 20
0.0
 30
0.0
  0
VERTEX
  5
E0
330
DF
100
AcDbEntity
  8
_U+30EC_U+30A4_U+30E4_U+30FC 1
370
     0
100
AcDbVertex
100
AcDb2dVertex
 10
77.71722003265403
 20
-102.0964382340245
 30
0.0
  0
VERTEX
  5
E1
330
DF
100
AcDbEntity
  8
_U+30EC_U+30A4_U+30E4_U+30FC 1
370
     0
100
AcDbVertex
100
AcDb2dVertex
 10
77.2604003713099
 20
-102.7522121596418
 30
0.0
  0
VERTEX
  5
E2
330
DF
100
AcDbEntity
  8
_U+30EC_U+30A4_U+30E4_U+30FC 1
370
     0
100
AcDbVertex
100
AcDb2dVertex
 10
77.71722003265403
 20
-102.7522121596418
 30
0.0
  0
VERTEX
  5
E3
330
DF
100
AcDbEntity
  8
_U+30EC_U+30A4_U+30E4_U+30FC 1
370
     0
100
AcDbVertex
100
AcDb2dVertex
 10
77.71722003265403
 20
-102.0964382340245
 30
0.0
  0
SEQEND
  5
E4
330
DF
100
AcDbEntity
  8
_U+30EC_U+30A4_U+30E4_U+30FC 1
370
     0
  0
HATCH
  5
E5
330
C2
100
AcDbEntity
  8
_U+30EC_U+30A4_U+30E4_U+30FC 1
 62
   179
420
  2234388
100
AcDbHatch
 10
0.0
 20
0.0
 30
0.0
210
0.0
220
0.0
230
1.0
  2
SOLID
 70
     1
 71
     0
 91
        2
 92
        1
 93
       11
 72
     1
 10
77.93512232209608
 20
-102.951166423915
 11
77.93512232209608
 21
-103.2980875392796
 72
     1
 10
77.93512232209608
 20
-103.2980875392796
 11
77.71722003265403
 21
-103.2980875392796
 72
     1
 10
77.71722003265403
 20
-103.2980875392796
 11
77.71722003265403
 21
-102.951166423915
 72
     1
 10
77.71722003265403
 20
-102.951166423915
 11
77.06144610703673
 21
-102.951166423915
 72
     1
 10
77.06144610703673
 20
-102.951166423915
 11
77.06144610703673
 21
-102.7268907078252
 72
     1
 10
77.06144610703673
 20
-102.7268907078252
 11
77.74047442717946
 21
-101.7538234880164
 72
     1
 10
77.74047442717946
 20
-101.7538234880164
 11
77.93512232209608
 21
-101.7538234880164
 72
     1
 10
77.93512232209608
 20
-101.7538234880164
 11
77.93512232209608
 21
-102.7522121596418
 72
     1
 10
77.93512232209608
 20
-102.7522121596418
 11
78.14251707030813
 21
-102.7522121596418
 72
     1
 10
78.14251707030813
 20
-102.7522121596418
 11
78.14251707030813
 21
-102.951166423915
 72
     1
 10
78.14251707030813
 20
-102.951166423915
 11
77.93512232209608
 21
-102.951166423915
 97
        0
 92
        1
 93
        3
 72
     1
 10
77.71722003265403
 20
-102.0964382340245
 11
77.2604003713099
 21
-102.7522121596418
 72
     1
 10
77.2604003713099
 20
-102.7522121596418
 11
77.71722003265403
 21
-102.7522121596418
 72
     1
 10
77.71722003265403
 20
-102.7522121596418
 11
77.71722003265403
 21
-102.0964382340245
 97
        0
 75
     2
 76
     1
 98
        0
  0
ENDBLK
  5
C5
330
C2
100
AcDbEntity
  8
0
100
AcDbBlockEnd
  0
BLOCK
  5
F4
330
F2
100
AcDbEntity
  8
0
100
AcDbBlockBegin
  2
block 5
 70
     0
 10
0.0
 20
0.0
 30
0.0
  3
block 5
  1

  0
POLYLINE
  5
F6
330
F2
100
AcDbEntity
  8
_U+30EC_U+30A4_U+30E4_U+30FC 1
370
     0
100
AcDb2dPolyline
 66
     1
 10
0.0
 20
0.0
 30
0.0
  0
VERTEX
  5
F7
330
F6
100
AcDbEntity
  8
_U+30EC_U+30A4_U+30E4_U+30FC 1
370
     0
100
AcDbVertex
100
AcDb2dVertex
 10
66.43246526116967
 20
-129.8435817817752
 30
0.0
  0
VERTEX
  5
F8
330
F6
100
AcDbEntity
  8
_U+30EC_U+30A4_U+30E4_U+30FC 1
370
     0
100
AcDbVertex
100
AcDb2dVertex
 10
66.77938637653432
 20
-129.8435817817752
 30
0.0
  0
VERTEX
  5
F9
330
F6
100
AcDbEntity
  8
_U+30EC_U+30A4_U+30E4_U+30FC 1
370
     0
100
AcDbVertex
100
AcDb2dVertex
 10
66.77938637653432
 20
-130.061311816443
 30
0.0
  0
VERTEX
  5
FA
330
F6
100
AcDbEntity
  8
_U+30EC_U+30A4_U+30E4_U+30FC 1
370
     0
100
AcDbVertex
100
AcDb2dVertex
 10
66.43246526116967
 20
-130.061311816443
 30
0.0
  0
VERTEX
  5
FB
330
F6
100
AcDbEntity
  8
_U+30EC_U+30A4_U+30E4_U+30FC 1
370
     0
100
AcDbVertex
100
AcDb2dVertex
 10
66.43246526116967
 20
-130.7172579968346
 30
0.0
  0
VERTEX
  5
FC
330
F6
100
AcDbEntity
  8
_U+30EC_U+30A4_U+30E4_U+30FC 1
370
     0
100
AcDbVertex
100
AcDb2dVertex
 10
66.2081895450799
 20
-130.7172579968346
 30
0.0
  0
VERTEX
  5
FD
330
F6
100
AcDbEntity
  8
_U+30EC_U+30A4_U+30E4_U+30FC 1
370
     0
100
AcDbVertex
100
AcDb2dVertex
 10
65.23512232527108
 20
-130.0382296766918
 30
0.0
  0
VERTEX
  5
FE
330
F6
100
AcDbEntity
  8
_U+30EC_U+30A4_U+30E4_U+30FC 1
370
     0
100
AcDbVertex
100
AcDb2dVertex
 10
65.23512232527108
 20
-129.8435817817752
 30
0.0
  0
VERTEX
  5
FF
330
F6
100
AcDbEntity
  8
_U+30EC_U+30A4_U+30E4_U+30FC 1
370
     0
100
AcDbVertex
100
AcDb2dVertex
 10
66.23351099689648
 20
-129.8435817817752
 30
0.0
  0
VERTEX
  5
100
330
F6
100
AcDbEntity
  8
_U+30EC_U+30A4_U+30E4_U+30FC 1
370
     0
100
AcDbVertex
100
AcDb2dVertex
 10
66.23351099689648
 20
-129.6361870335632
 30
0.0
  0
VERTEX
  5
101
330
F6
100
AcDbEntity
  8
_U+30EC_U+30A4_U+30E4_U+30FC 1
370
     0
100
AcDbVertex
100
AcDb2dVertex
 10
66.43246526116967
 20
-129.6361870335632
 30
0.0
  0
VERTEX
  5
102
330
F6
100
AcDbEntity
  8
_U+30EC_U+30A4_U+30E4_U+30FC 1
370
     0
100
AcDbVertex
100
AcDb2dVertex
 10
66.43246526116967
 20
-129.8435817817752
 30
0.0
  0
SEQEND
  5
103
330
F6
100
AcDbEntity
  8
_U+30EC_U+30A4_U+30E4_U+30FC 1
370
     0
  0
POLYLINE
  5
104
330
F2
100
AcDbEntity
  8
_U+30EC_U+30A4_U+30E4_U+30FC 1
370
     0
100
AcDb2dPolyline
 66
     1
 10
0.0
 20
0.0
 30
0.0
  0
VERTEX
  5
105
330
104
100
AcDbEntity
  8
_U+30EC_U+30A4_U+30E4_U+30FC 1
370
     0
100
AcDbVertex
100
AcDb2dVertex
 10
65.57773707127917
 20
-130.061311816443
 30
0.0
  0
VERTEX
  5
106
330
104
100
AcDbEntity
  8
_U+30EC_U+30A4_U+30E4_U+30FC 1
370
     0
100
AcDbVertex
100
AcDb2dVertex
 10
66.23351099689648
 20
-130.5184759873357
 30
0.0
  0
VERTEX
  5
107
330
104
100
AcDbEntity
  8
_U+30EC_U+30A4_U+30E4_U+30FC 1
370
     0
100
AcDbVertex
100
AcDb2dVertex
 10
66.23351099689648
 20
-130.061311816443
 30
0.0
  0
VERTEX
  5
108
330
104
100
AcDbEntity
  8
_U+30EC_U+30A4_U+30E4_U+30FC 1
370
     0
100
AcDbVertex
100
AcDb2dVertex
 10
65.57773707127917
 20
-130.061311816443
 30
0.0
  0
SEQEND
  5
109
330
104
100
AcDbEntity
  8
_U+30EC_U+30A4_U+30E4_U+30FC 1
370
     0
  0
HATCH
  5
10A
330
F2
100
AcDbEntity
  8
_U+30EC_U+30A4_U+30E4_U+30FC 1
 62
   179
420
  2234388
100
AcDbHatch
 10
0.0
 20
0.0
 30
0.0
210
0.0
220
0.0
230
1.0
  2
SOLID
 70
     1
 71
     0
 91
        2
 92
        1
 93
       11
 72
     1
 10
66.43246526116967
 20
-129.8435817817752
 11
66.77938637653432
 21
-129.8435817817752
 72
     1
 10
66.77938637653432
 20
-129.8435817817752
 11
66.77938637653432
 21
-130.061311816443
 72
     1
 10
66.77938637653432
 20
-130.061311816443
 11
66.43246526116967
 21
-130.061311816443
 72
     1
 10
66.43246526116967
 20
-130.061311816443
 11
66.43246526116967
 21
-130.7172579968346
 72
     1
 10
66.43246526116967
 20
-130.7172579968346
 11
66.2081895450799
 21
-130.7172579968346
 72
     1
 10
66.2081895450799
 20
-130.7172579968346
 11
65.23512232527108
 21
-130.0382296766918
 72
     1
 10
65.23512232527108
 20
-130.0382296766918
 11
65.23512232527108
 21
-129.8435817817752
 72
     1
 10
65.23512232527108
 20
-129.8435817817752
 11
66.23351099689648
 21
-129.8435817817752
 72
     1
 10
66.23351099689648
 20
-129.8435817817752
 11
66.23351099689648
 21
-129.6361870335632
 72
     1
 10
66.23351099689648
 20
-129.6361870335632
 11
66.43246526116967
 21
-129.6361870335632
 72
     1
 10
66.43246526116967
 20
-129.6361870335632
 11
66.43246526116967
 21
-129.8435817817752
 97
        0
 92
        1
 93
        3
 72
     1
 10
65.57773707127917
 20
-130.061311816443
 11
66.23351099689648
 21
-130.5184759873357
 72
     1
 10
66.23351099689648
 20
-130.5184759873357
 11
66.23351099689648
 21
-130.061311816443
 72
     1
 10
66.23351099689648
 20
-130.061311816443
 11
65.57773707127917
 21
-130.061311816443
 97
        0
 75
     2
 76
     1
 98
        0
  0
SPLINE
  5
10B
330
F2
100
AcDbEntity
  8
_U+30EC_U+30A4_U+30E4_U+30FC 1
370
     0
100
AcDbSpline
210
0.0
220
0.0
230
1.0
 70
    11
 71
     3
 72
    62
 73
    58
 74
     0
 42
0.0000000001
 43
0.0000000001
 12
1.0
 22
0.0
 32
0.0
 13
1.0
 23
0.0
 33
0.0
 40
0.0
 40
0.0
 40
0.0
 40
0.0
 40
1.0
 40
1.0
 40
1.0
 40
2.0
 40
2.0
 40
2.0
 40
3.0
 40
3.0
 40
3.0
 40
4.0
 40
4.0
 40
4.0
 40
5.0
 40
5.0
 40
5.0
 40
6.0
 40
6.0
 40
6.0
 40
7.0
 40
7.0
 40
7.0
 40
8.0
 40
8.0
 40
8.0
 40
9.0
 40
9.0
 40
9.0
 40
10.0
 40
10.0
 40
10.0
 40
11.0
 40
11.0
 40
11.0
 40
12.0
 40
12.0
 40
12.0
 40
13.0
 40
13.0
 40
13.0
 40
14.0
 40
14.0
 40
14.0
 40
15.0
 40
15.0
 40
15.0
 40
16.0
 40
16.0
 40
16.0
 40
17.0
 40
17.0
 40
17.0
 40
18.0
 40
18.0
 40
18.0
 40
19.0
 40
19.0
 40
19.0
 40
19.0
 10
66.83020153494176
 20
-129.0071125979566
 30
0.0
 10
66.83020153494176
 20
-129.102541742898
 30
0.0
 10
66.80901419770747
 20
-129.3202717775658
 30
0.0
 10
66.62280678672971
 20
-129.4453287436803
 30
0.0
 10
66.51066892868484
 20
-129.5193982966132
 30
0.0
 10
66.41127792393537
 20
-129.5235324111955
 30
0.0
 10
66.32670082977249
 20
-129.5276665257778
 30
0.0
 10
66.32670082977249
 20
-129.5276665257778
 30
0.0
 10
66.32670082977249
 20
-129.3075249242704
 30
0.0
 10
66.32670082977249
 20
-129.3075249242704
 30
0.0
 10
66.40077038270536
 20
-129.3054578669792
 30
0.0
 10
66.63555364002514
 20
-129.2951225805234
 30
0.0
 10
66.63555364002514
 20
-129.0115912220874
 30
0.0
 10
66.63555364002514
 20
-128.8741319122259
 30
0.0
 10
66.56579045644884
 20
-128.7215141822294
 30
0.0
 10
66.3372083710025
 20
-128.7215141822294
 30
0.0
 10
66.22093639837533
 20
-128.7215141822294
 30
0.0
 10
66.17218829725904
 20
-128.7597547421156
 30
0.0
 10
66.14049341879475
 20
-128.7914496205799
 30
0.0
 10
66.06642386586186
 20
-128.8655191735128
 30
0.0
 10
66.05384926734071
 20
-128.9819634009142
 30
0.0
 10
66.05384926734071
 20
-129.0367404191297
 30
0.0
 10
66.05384926734071
 20
-129.0560329538471
 30
0.0
 10
66.05591632463185
 20
-129.0918619468937
 30
0.0
 10
66.06005043921415
 20
-129.1194227107757
 30
0.0
 10
66.06005043921415
 20
-129.1194227107757
 30
0.0
 10
65.86557479907181
 20
-129.1194227107757
 30
0.0
 10
65.86557479907181
 20
-129.1194227107757
 30
0.0
 10
65.87177597094525
 20
-129.0811821508894
 30
0.0
 10
65.87401528301066
 20
-129.0391519859694
 30
0.0
 10
65.87401528301066
 20
-129.0326063045474
 30
0.0
 10
65.87401528301066
 20
-128.9671494903277
 30
0.0
 10
65.85282794577638
 20
-128.7683674808287
 30
0.0
 10
65.6158053763912
 20
-128.7683674808287
 30
0.0
 10
65.43821070412656
 20
-128.7683674808287
 30
0.0
 10
65.38308917636256
 20
-128.8992811092682
 30
0.0
 10
65.38308917636256
 20
-129.0095241647962
 30
0.0
 10
65.38308917636256
 20
-129.2737629885149
 30
0.0
 10
65.6158053763912
 20
-129.282375727228
 30
0.0
 10
65.6878078720329
 20
-129.2865098418103
 30
0.0
 10
65.6878078720329
 20
-129.2865098418103
 30
0.0
 10
65.6878078720329
 20
-129.4897704754401
 30
0.0
 10
65.6878078720329
 20
-129.4897704754401
 30
0.0
 10
65.5629231606926
 20
-129.4811577367269
 30
0.0
 10
65.1863742241548
 20
-129.4535969728449
 30
0.0
 10
65.1863742241548
 20
-128.9967773115008
 30
0.0
 10
65.1863742241548
 20
-128.7725015954111
 30
0.0
 10
65.31332599278626
 20
-128.5313449114436
 30
0.0
 10
65.60943194974348
 20
-128.5313449114436
 30
0.0
 10
65.79563936072124
 20
-128.5313449114436
 30
0.0
 10
65.87814939759296
 20
-128.6264295468364
 30
0.0
 10
65.93947209723041
 20
-128.7259928063602
 30
0.0
 10
65.96703286111241
 20
-128.6646701067227
 30
0.0
 10
66.047475840693
 20
-128.4827690651015
 30
0.0
 10
66.32463377248135
 20
-128.4827690651015
 30
0.0
 10
66.66311440390714
 20
-128.4827690651015
 30
0.0
 10
66.83020153494176
 20
-128.7301269209425
 30
0.0
 10
66.83020153494176
 20
-129.0071125979566
 30
0.0
  0
HATCH
  5
10C
330
F2
100
AcDbEntity
  8
_U+30EC_U+30A4_U+30E4_U+30FC 1
 62
   179
420
  2234388
100
AcDbHatch
 10
0.0
 20
0.0
 30
0.0
210
0.0
220
0.0
230
1.0
  2
SOLID
 70
     1
 71
     0
 91
        1
 92
        1
 93
        1
 72
     4
 94
        3
 73
     0
 74
     1
 95
       62
 96
       58
 40
0.0
 40
0.0
 40
0.0
 40
0.0
 40
1.0
 40
1.0
 40
1.0
 40
2.0
 40
2.0
 40
2.0
 40
3.0
 40
3.0
 40
3.0
 40
4.0
 40
4.0
 40
4.0
 40
5.0
 40
5.0
 40
5.0
 40
6.0
 40
6.0
 40
6.0
 40
7.0
 40
7.0
 40
7.0
 40
8.0
 40
8.0
 40
8.0
 40
9.0
 40
9.0
 40
9.0
 40
10.0
 40
10.0
 40
10.0
 40
11.0
 40
11.0
 40
11.0
 40
12.0
 40
12.0
 40
12.0
 40
13.0
 40
13.0
 40
13.0
 40
14.0
 40
14.0
 40
14.0
 40
15.0
 40
15.0
 40
15.0
 40
16.0
 40
16.0
 40
16.0
 40
17.0
 40
17.0
 40
17.0
 40
18.0
 40
18.0
 40
18.0
 40
19.0
 40
19.0
 40
19.0
 40
19.0
 10
66.83020153494176
 20
-129.0071125979566
 10
66.83020153494176
 20
-129.102541742898
 10
66.80901419770747
 20
-129.3202717775658
 10
66.62280678672971
 20
-129.4453287436803
 10
66.51066892868484
 20
-129.5193982966132
 10
66.41127792393537
 20
-129.5235324111955
 10
66.32670082977249
 20
-129.5276665257778
 10
66.32670082977249
 20
-129.5276665257778
 10
66.32670082977249
 20
-129.3075249242704
 10
66.32670082977249
 20
-129.3075249242704
 10
66.40077038270536
 20
-129.3054578669792
 10
66.63555364002514
 20
-129.2951225805234
 10
66.63555364002514
 20
-129.0115912220874
 10
66.63555364002514
 20
-128.8741319122259
 10
66.56579045644884
 20
-128.7215141822294
 10
66.3372083710025
 20
-128.7215141822294
 10
66.22093639837533
 20
-128.7215141822294
 10
66.17218829725904
 20
-128.7597547421156
 10
66.14049341879475
 20
-128.7914496205799
 10
66.06642386586186
 20
-128.8655191735128
 10
66.05384926734071
 20
-128.9819634009142
 10
66.05384926734071
 20
-129.0367404191297
 10
66.05384926734071
 20
-129.0560329538471
 10
66.05591632463185
 20
-129.0918619468937
 10
66.06005043921415
 20
-129.1194227107757
 10
66.06005043921415
 20
-129.1194227107757
 10
65.86557479907181
 20
-129.1194227107757
 10
65.86557479907181
 20
-129.1194227107757
 10
65.87177597094525
 20
-129.0811821508894
 10
65.87401528301066
 20
-129.0391519859694
 10
65.87401528301066
 20
-129.0326063045474
 10
65.87401528301066
 20
-128.9671494903277
 10
65.85282794577638
 20
-128.7683674808287
 10
65.6158053763912
 20
-128.7683674808287
 10
65.43821070412656
 20
-128.7683674808287
 10
65.38308917636256
 20
-128.8992811092682
 10
65.38308917636256
 20
-129.0095241647962
 10
65.38308917636256
 20
-129.2737629885149
 10
65.6158053763912
 20
-129.282375727228
 10
65.6878078720329
 20
-129.2865098418103
 10
65.6878078720329
 20
-129.2865098418103
 10
65.6878078720329
 20
-129.4897704754401
 10
65.6878078720329
 20
-129.4897704754401
 10
65.5629231606926
 20
-129.4811577367269
 10
65.1863742241548
 20
-129.4535969728449
 10
65.1863742241548
 20
-128.9967773115008
 10
65.1863742241548
 20
-128.7725015954111
 10
65.31332599278626
 20
-128.5313449114436
 10
65.60943194974348
 20
-128.5313449114436
 10
65.79563936072124
 20
-128.5313449114436
 10
65.87814939759296
 20
-128.6264295468364
 10
65.93947209723041
 20
-128.7259928063602
 10
65.96703286111241
 20
-128.6646701067227
 10
66.047475840693
 20
-128.4827690651015
 10
66.32463377248135
 20
-128.4827690651015
 10
66.66311440390714
 20
-128.4827690651015
 10
66.83020153494176
 20
-128.7301269209425
 10
66.83020153494176
 20
-129.0071125979566
 97
        0
 97
        0
 75
     2
 76
     1
 98
        0
  0
ENDBLK
  5
F5
330
F2
100
AcDbEntity
  8
0
100
AcDbBlockEnd
  0
BLOCK
  5
11B
330
119
100
AcDbEntity
  8
0
100
AcDbBlockBegin
  2
block 6
 70
     0
 10
0.0
 20
0.0
 30
0.0
  3
block 6
  1

  0
POLYLINE
  5
11D
330
119
100
AcDbEntity
  8
_U+30EC_U+30A4_U+30E4_U+30FC 1
370
     0
100
AcDb2dPolyline
 66
     1
 10
0.0
 20
0.0
 30
0.0
  0
VERTEX
  5
11E
330
11D
100
AcDbEntity
  8
_U+30EC_U+30A4_U+30E4_U+30FC 1
370
     0
100
AcDbVertex
100
AcDb2dVertex
 10
92.6603216999252
 20
-153.951326458908
 30
0.0
  0
VERTEX
  5
11F
330
11D
100
AcDbEntity
  8
_U+30EC_U+30A4_U+30E4_U+30FC 1
370
     0
100
AcDbVertex
100
AcDb2dVertex
 10
92.6603216999252
 20
-154.2982475742727
 30
0.0
  0
VERTEX
  5
120
330
11D
100
AcDbEntity
  8
_U+30EC_U+30A4_U+30E4_U+30FC 1
370
     0
100
AcDbVertex
100
AcDb2dVertex
 10
92.44259166525741
 20
-154.2982475742727
 30
0.0
  0
VERTEX
  5
121
330
11D
100
AcDbEntity
  8
_U+30EC_U+30A4_U+30E4_U+30FC 1
370
     0
100
AcDbVertex
100
AcDb2dVertex
 10
92.44259166525741
 20
-153.951326458908
 30
0.0
  0
VERTEX
  5
122
330
11D
100
AcDbEntity
  8
_U+30EC_U+30A4_U+30E4_U+30FC 1
370
     0
100
AcDbVertex
100
AcDb2dVertex
 10
91.78664548486584
 20
-153.951326458908
 30
0.0
  0
VERTEX
  5
123
330
11D
100
AcDbEntity
  8
_U+30EC_U+30A4_U+30E4_U+30FC 1
370
     0
100
AcDbVertex
100
AcDb2dVertex
 10
91.78664548486584
 20
-153.7270507428182
 30
0.0
  0
VERTEX
  5
124
330
11D
100
AcDbEntity
  8
_U+30EC_U+30A4_U+30E4_U+30FC 1
370
     0
100
AcDbVertex
100
AcDb2dVertex
 10
92.46567380500859
 20
-152.7538112682352
 30
0.0
  0
VERTEX
  5
125
330
11D
100
AcDbEntity
  8
_U+30EC_U+30A4_U+30E4_U+30FC 1
370
     0
100
AcDbVertex
100
AcDb2dVertex
 10
92.6603216999252
 20
-152.7538112682352
 30
0.0
  0
VERTEX
  5
126
330
11D
100
AcDbEntity
  8
_U+30EC_U+30A4_U+30E4_U+30FC 1
370
     0
100
AcDbVertex
100
AcDb2dVertex
 10
92.6603216999252
 20
-153.7525444494091
 30
0.0
  0
VERTEX
  5
127
330
11D
100
AcDbEntity
  8
_U+30EC_U+30A4_U+30E4_U+30FC 1
370
     0
100
AcDbVertex
100
AcDb2dVertex
 10
92.86771644813724
 20
-153.7525444494091
 30
0.0
  0
VERTEX
  5
128
330
11D
100
AcDbEntity
  8
_U+30EC_U+30A4_U+30E4_U+30FC 1
370
     0
100
AcDbVertex
100
AcDb2dVertex
 10
92.86771644813724
 20
-153.951326458908
 30
0.0
  0
VERTEX
  5
129
330
11D
100
AcDbEntity
  8
_U+30EC_U+30A4_U+30E4_U+30FC 1
370
     0
100
AcDbVertex
100
AcDb2dVertex
 10
92.6603216999252
 20
-153.951326458908
 30
0.0
  0
SEQEND
  5
12A
330
11D
100
AcDbEntity
  8
_U+30EC_U+30A4_U+30E4_U+30FC 1
370
     0
  0
POLYLINE
  5
12B
330
119
100
AcDbEntity
  8
_U+30EC_U+30A4_U+30E4_U+30FC 1
370
     0
100
AcDb2dPolyline
 66
     1
 10
0.0
 20
0.0
 30
0.0
  0
VERTEX
  5
12C
330
12B
100
AcDbEntity
  8
_U+30EC_U+30A4_U+30E4_U+30FC 1
370
     0
100
AcDbVertex
100
AcDb2dVertex
 10
92.44259166525741
 20
-153.0965982690175
 30
0.0
  0
VERTEX
  5
12D
330
12B
100
AcDbEntity
  8
_U+30EC_U+30A4_U+30E4_U+30FC 1
370
     0
100
AcDbVertex
100
AcDb2dVertex
 10
91.98542749436476
 20
-153.7525444494091
 30
0.0
  0
VERTEX
  5
12E
330
12B
100
AcDbEntity
  8
_U+30EC_U+30A4_U+30E4_U+30FC 1
370
     0
100
AcDbVertex
100
AcDb2dVertex
 10
92.44259166525741
 20
-153.7525444494091
 30
0.0
  0
VERTEX
  5
12F
330
12B
100
AcDbEntity
  8
_U+30EC_U+30A4_U+30E4_U+30FC 1
370
     0
100
AcDbVertex
100
AcDb2dVertex
 10
92.44259166525741
 20
-153.0965982690175
 30
0.0
  0
SEQEND
  5
130
330
12B
100
AcDbEntity
  8
_U+30EC_U+30A4_U+30E4_U+30FC 1
370
     0
  0
HATCH
  5
131
330
119
100
AcDbEntity
  8
_U+30EC_U+30A4_U+30E4_U+30FC 1
 62
   179
420
  2234388
100
AcDbHatch
 10
0.0
 20
0.0
 30
0.0
210
0.0
220
0.0
230
1.0
  2
SOLID
 70
     1
 71
     0
 91
        2
 92
        1
 93
       11
 72
     1
 10
92.6603216999252
 20
-153.951326458908
 11
92.6603216999252
 21
-154.2982475742727
 72
     1
 10
92.6603216999252
 20
-154.2982475742727
 11
92.44259166525741
 21
-154.2982475742727
 72
     1
 10
92.44259166525741
 20
-154.2982475742727
 11
92.44259166525741
 21
-153.951326458908
 72
     1
 10
92.44259166525741
 20
-153.951326458908
 11
91.78664548486584
 21
-153.951326458908
 72
     1
 10
91.78664548486584
 20
-153.951326458908
 11
91.78664548486584
 21
-153.7270507428182
 72
     1
 10
91.78664548486584
 20
-153.7270507428182
 11
92.46567380500859
 21
-152.7538112682352
 72
     1
 10
92.46567380500859
 20
-152.7538112682352
 11
92.6603216999252
 21
-152.7538112682352
 72
     1
 10
92.6603216999252
 20
-152.7538112682352
 11
92.6603216999252
 21
-153.7525444494091
 72
     1
 10
92.6603216999252
 20
-153.7525444494091
 11
92.86771644813724
 21
-153.7525444494091
 72
     1
 10
92.86771644813724
 20
-153.7525444494091
 11
92.86771644813724
 21
-153.951326458908
 72
     1
 10
92.86771644813724
 20
-153.951326458908
 11
92.6603216999252
 21
-153.951326458908
 97
        0
 92
        1
 93
        3
 72
     1
 10
92.44259166525741
 20
-153.0965982690175
 11
91.98542749436476
 21
-153.7525444494091
 72
     1
 10
91.98542749436476
 20
-153.7525444494091
 11
92.44259166525741
 21
-153.7525444494091
 72
     1
 10
92.44259166525741
 20
-153.7525444494091
 11
92.44259166525741
 21
-153.0965982690175
 97
        0
 75
     2
 76
     1
 98
        0
  0
SPLINE
  5
132
330
119
100
AcDbEntity
  8
_U+30EC_U+30A4_U+30E4_U+30FC 1
370
     0
100
AcDbSpline
210
0.0
220
0.0
230
1.0
 70
    11
 71
     3
 72
    62
 73
    58
 74
     0
 42
0.0000000001
 43
0.0000000001
 12
1.0
 22
0.0
 32
0.0
 13
1.0
 23
0.0
 33
0.0
 40
0.0
 40
0.0
 40
0.0
 40
0.0
 40
1.0
 40
1.0
 40
1.0
 40
2.0
 40
2.0
 40
2.0
 40
3.0
 40
3.0
 40
3.0
 40
4.0
 40
4.0
 40
4.0
 40
5.0
 40
5.0
 40
5.0
 40
6.0
 40
6.0
 40
6.0
 40
7.0
 40
7.0
 40
7.0
 40
8.0
 40
8.0
 40
8.0
 40
9.0
 40
9.0
 40
9.0
 40
10.0
 40
10.0
 40
10.0
 40
11.0
 40
11.0
 40
11.0
 40
12.0
 40
12.0
 40
12.0
 40
13.0
 40
13.0
 40
13.0
 40
14.0
 40
14.0
 40
14.0
 40
15.0
 40
15.0
 40
15.0
 40
16.0
 40
16.0
 40
16.0
 40
17.0
 40
17.0
 40
17.0
 40
18.0
 40
18.0
 40
18.0
 40
19.0
 40
19.0
 40
19.0
 40
19.0
 10
93.49679088374386
 20
-154.3488904779058
 30
0.0
 10
93.40136173880244
 20
-154.3488904779058
 30
0.0
 10
93.18363170413465
 20
-154.3278753954458
 30
0.0
 10
93.05857473802008
 20
-154.1418402392423
 30
0.0
 10
92.98450518508722
 20
-154.0295301264232
 30
0.0
 10
92.98037107050492
 20
-153.930311376448
 30
0.0
 10
92.97623695592262
 20
-153.8455620275109
 30
0.0
 10
92.97623695592262
 20
-153.8455620275109
 30
0.0
 10
93.19637855743008
 20
-153.8455620275109
 30
0.0
 10
93.19637855743008
 20
-153.8455620275109
 30
0.0
 10
93.19844561472122
 20
-153.9196315804437
 30
0.0
 10
93.20878090117698
 20
-154.1542425829892
 30
0.0
 10
93.49231225961304
 20
-154.1542425829892
 30
0.0
 10
93.6297715694745
 20
-154.1542425829892
 30
0.0
 10
93.78238929947108
 20
-154.0846516541872
 30
0.0
 10
93.78238929947108
 20
-153.8562418235151
 30
0.0
 10
93.78238929947108
 20
-153.7397975961137
 30
0.0
 10
93.7441487395848
 20
-153.6912217497716
 30
0.0
 10
93.71245386112051
 20
-153.6595268713073
 30
0.0
 10
93.63838430818763
 20
-153.5854573183745
 30
0.0
 10
93.52194008078618
 20
-153.572710465079
 30
0.0
 10
93.46716306257072
 20
-153.572710465079
 30
0.0
 10
93.44787052785331
 20
-153.572710465079
 30
0.0
 10
93.41204153480672
 20
-153.5747775223702
 30
0.0
 10
93.38448077092471
 20
-153.5789116369525
 30
0.0
 10
93.38448077092471
 20
-153.5789116369525
 30
0.0
 10
93.38448077092471
 20
-153.3842637420359
 30
0.0
 10
93.38448077092471
 20
-153.3842637420359
 30
0.0
 10
93.42272133081099
 20
-153.3908094234579
 30
0.0
 10
93.46475149573104
 20
-153.392876480749
 30
0.0
 10
93.47129717715302
 20
-153.392876480749
 30
0.0
 10
93.53675399137276
 20
-153.392876480749
 30
0.0
 10
93.73553600087168
 20
-153.3715168887405
 30
0.0
 10
93.73553600087168
 20
-153.1348388289038
 30
0.0
 10
93.73553600087168
 20
-152.9570719018649
 30
0.0
 10
93.60462237243219
 20
-152.9019503741009
 30
0.0
 10
93.49437931690419
 20
-152.9019503741009
 30
0.0
 10
93.23014049318553
 20
-152.9019503741009
 30
0.0
 10
93.2215277544724
 20
-153.1348388289038
 30
0.0
 10
93.2173936398901
 20
-153.206496814997
 30
0.0
 10
93.2173936398901
 20
-153.206496814997
 30
0.0
 10
93.01413300626037
 20
-153.206496814997
 30
0.0
 10
93.01413300626037
 20
-153.206496814997
 30
0.0
 10
93.02274574497349
 20
-153.081784358431
 30
0.0
 10
93.05030650885548
 20
-152.7052354218931
 30
0.0
 10
93.50712617019961
 20
-152.7052354218931
 30
0.0
 10
93.73140188628938
 20
-152.7052354218931
 30
0.0
 10
93.97255857025687
 20
-152.8323594452989
 30
0.0
 10
93.97255857025687
 20
-153.1282931474818
 30
0.0
 10
93.97255857025687
 20
-153.3146728132338
 30
0.0
 10
93.87747393486397
 20
-153.3970105953313
 30
0.0
 10
93.77791067534025
 20
-153.4583332949688
 30
0.0
 10
93.8392333749777
 20
-153.4858940588508
 30
0.0
 10
94.02113441659888
 20
-153.5661647836571
 30
0.0
 10
94.02113441659888
 20
-153.8434949702197
 30
0.0
 10
94.02113441659888
 20
-154.1818033468712
 30
0.0
 10
93.77377656075795
 20
-154.3488904779058
 30
0.0
 10
93.49679088374386
 20
-154.3488904779058
 30
0.0
  0
HATCH
  5
133
330
119
100
AcDbEntity
  8
_U+30EC_U+30A4_U+30E4_U+30FC 1
 62
   179
420
  2234388
100
AcDbHatch
 10
0.0
 20
0.0
 30
0.0
210
0.0
220
0.0
230
1.0
  2
SOLID
 70
     1
 71
     0
 91
        1
 92
        1
 93
        1
 72
     4
 94
        3
 73
     0
 74
     1
 95
       62
 96
       58
 40
0.0
 40
0.0
 40
0.0
 40
0.0
 40
1.0
 40
1.0
 40
1.0
 40
2.0
 40
2.0
 40
2.0
 40
3.0
 40
3.0
 40
3.0
 40
4.0
 40
4.0
 40
4.0
 40
5.0
 40
5.0
 40
5.0
 40
6.0
 40
6.0
 40
6.0
 40
7.0
 40
7.0
 40
7.0
 40
8.0
 40
8.0
 40
8.0
 40
9.0
 40
9.0
 40
9.0
 40
10.0
 40
10.0
 40
10.0
 40
11.0
 40
11.0
 40
11.0
 40
12.0
 40
12.0
 40
12.0
 40
13.0
 40
13.0
 40
13.0
 40
14.0
 40
14.0
 40
14.0
 40
15.0
 40
15.0
 40
15.0
 40
16.0
 40
16.0
 40
16.0
 40
17.0
 40
17.0
 40
17.0
 40
18.0
 40
18.0
 40
18.0
 40
19.0
 40
19.0
 40
19.0
 40
19.0
 10
93.49679088374386
 20
-154.3488904779058
 10
93.40136173880244
 20
-154.3488904779058
 10
93.18363170413465
 20
-154.3278753954458
 10
93.05857473802008
 20
-154.1418402392423
 10
92.98450518508722
 20
-154.0295301264232
 10
92.98037107050492
 20
-153.930311376448
 10
92.97623695592262
 20
-153.8455620275109
 10
92.97623695592262
 20
-153.8455620275109
 10
93.19637855743008
 20
-153.8455620275109
 10
93.19637855743008
 20
-153.8455620275109
 10
93.19844561472122
 20
-153.9196315804437
 10
93.20878090117698
 20
-154.1542425829892
 10
93.49231225961304
 20
-154.1542425829892
 10
93.6297715694745
 20
-154.1542425829892
 10
93.78238929947108
 20
-154.0846516541872
 10
93.78238929947108
 20
-153.8562418235151
 10
93.78238929947108
 20
-153.7397975961137
 10
93.7441487395848
 20
-153.6912217497716
 10
93.71245386112051
 20
-153.6595268713073
 10
93.63838430818763
 20
-153.5854573183745
 10
93.52194008078618
 20
-153.572710465079
 10
93.46716306257072
 20
-153.572710465079
 10
93.44787052785331
 20
-153.572710465079
 10
93.41204153480672
 20
-153.5747775223702
 10
93.38448077092471
 20
-153.5789116369525
 10
93.38448077092471
 20
-153.5789116369525
 10
93.38448077092471
 20
-153.3842637420359
 10
93.38448077092471
 20
-153.3842637420359
 10
93.42272133081099
 20
-153.3908094234579
 10
93.46475149573104
 20
-153.392876480749
 10
93.47129717715302
 20
-153.392876480749
 10
93.53675399137276
 20
-153.392876480749
 10
93.73553600087168
 20
-153.3715168887405
 10
93.73553600087168
 20
-153.1348388289038
 10
93.73553600087168
 20
-152.9570719018649
 10
93.60462237243219
 20
-152.9019503741009
 10
93.49437931690419
 20
-152.9019503741009
 10
93.23014049318553
 20
-152.9019503741009
 10
93.2215277544724
 20
-153.1348388289038
 10
93.2173936398901
 20
-153.206496814997
 10
93.2173936398901
 20
-153.206496814997
 10
93.01413300626037
 20
-153.206496814997
 10
93.01413300626037
 20
-153.206496814997
 10
93.02274574497349
 20
-153.081784358431
 10
93.05030650885548
 20
-152.7052354218931
 10
93.50712617019961
 20
-152.7052354218931
 10
93.73140188628938
 20
-152.7052354218931
 10
93.97255857025687
 20
-152.8323594452989
 10
93.97255857025687
 20
-153.1282931474818
 10
93.97255857025687
 20
-153.3146728132338
 10
93.87747393486397
 20
-153.3970105953313
 10
93.77791067534025
 20
-153.4583332949688
 10
93.8392333749777
 20
-153.4858940588508
 10
94.02113441659888
 20
-153.5661647836571
 10
94.02113441659888
 20
-153.8434949702197
 10
94.02113441659888
 20
-154.1818033468712
 10
93.77377656075795
 20
-154.3488904779058
 10
93.49679088374386
 20
-154.3488904779058
 97
        0
 97
        0
 75
     2
 76
     1
 98
        0
  0
ENDBLK
  5
11C
330
119
100
AcDbEntity
  8
0
100
AcDbBlockEnd
  0
BLOCK
  5
158
330
156
100
AcDbEntity
  8
0
100
AcDbBlockBegin
  2
block 7
 70
     0
 10
0.0
 20
0.0
 30
0.0
  3
block 7
  1

  0
SPLINE
  5
15A
330
156
100
AcDbEntity
  8
_U+30EC_U+30A4_U+30E4_U+30FC 1
370
     0
100
AcDbSpline
210
0.0
220
0.0
230
1.0
 70
    11
 71
     3
 72
   242
 73
   238
 74
     0
 42
0.0000000001
 43
0.0000000001
 12
1.0
 22
0.0
 32
0.0
 13
1.0
 23
0.0
 33
0.0
 40
0.0
 40
0.0
 40
0.0
 40
0.0
 40
1.0
 40
1.0
 40
1.0
 40
2.0
 40
2.0
 40
2.0
 40
3.0
 40
3.0
 40
3.0
 40
4.0
 40
4.0
 40
4.0
 40
5.0
 40
5.0
 40
5.0
 40
6.0
 40
6.0
 40
6.0
 40
7.0
 40
7.0
 40
7.0
 40
8.0
 40
8.0
 40
8.0
 40
9.0
 40
9.0
 40
9.0
 40
10.0
 40
10.0
 40
10.0
 40
11.0
 40
11.0
 40
11.0
 40
12.0
 40
12.0
 40
12.0
 40
13.0
 40
13.0
 40
13.0
 40
14.0
 40
14.0
 40
14.0
 40
15.0
 40
15.0
 40
15.0
 40
16.0
 40
16.0
 40
16.0
 40
17.0
 40
17.0
 40
17.0
 40
18.0
 40
18.0
 40
18.0
 40
19.0
 40
19.0
 40
19.0
 40
20.0
 40
20.0
 40
20.0
 40
21.0
 40
21.0
 40
21.0
 40
22.0
 40
22.0
 40
22.0
 40
23.0
 40
23.0
 40
23.0
 40
24.0
 40
24.0
 40
24.0
 40
25.0
 40
25.0
 40
25.0
 40
26.0
 40
26.0
 40
26.0
 40
27.0
 40
27.0
 40
27.0
 40
28.0
 40
28.0
 40
28.0
 40
29.0
 40
29.0
 40
29.0
 40
30.0
 40
30.0
 40
30.0
 40
31.0
 40
31.0
 40
31.0
 40
32.0
 40
32.0
 40
32.0
 40
33.0
 40
33.0
 40
33.0
 40
34.0
 40
34.0
 40
34.0
 40
35.0
 40
35.0
 40
35.0
 40
36.0
 40
36.0
 40
36.0
 40
37.0
 40
37.0
 40
37.0
 40
38.0
 40
38.0
 40
38.0
 40
39.0
 40
39.0
 40
39.0
 40
40.0
 40
40.0
 40
40.0
 40
41.0
 40
41.0
 40
41.0
 40
42.0
 40
42.0
 40
42.0
 40
43.0
 40
43.0
 40
43.0
 40
44.0
 40
44.0
 40
44.0
 40
45.0
 40
45.0
 40
45.0
 40
46.0
 40
46.0
 40
46.0
 40
47.0
 40
47.0
 40
47.0
 40
48.0
 40
48.0
 40
48.0
 40
49.0
 40
49.0
 40
49.0
 40
50.0
 40
50.0
 40
50.0
 40
51.0
 40
51.0
 40
51.0
 40
52.0
 40
52.0
 40
52.0
 40
53.0
 40
53.0
 40
53.0
 40
54.0
 40
54.0
 40
54.0
 40
55.0
 40
55.0
 40
55.0
 40
56.0
 40
56.0
 40
56.0
 40
57.0
 40
57.0
 40
57.0
 40
58.0
 40
58.0
 40
58.0
 40
59.0
 40
59.0
 40
59.0
 40
60.0
 40
60.0
 40
60.0
 40
61.0
 40
61.0
 40
61.0
 40
62.0
 40
62.0
 40
62.0
 40
63.0
 40
63.0
 40
63.0
 40
64.0
 40
64.0
 40
64.0
 40
65.0
 40
65.0
 40
65.0
 40
66.0
 40
66.0
 40
66.0
 40
67.0
 40
67.0
 40
67.0
 40
68.0
 40
68.0
 40
68.0
 40
69.0
 40
69.0
 40
69.0
 40
70.0
 40
70.0
 40
70.0
 40
71.0
 40
71.0
 40
71.0
 40
72.0
 40
72.0
 40
72.0
 40
73.0
 40
73.0
 40
73.0
 40
74.0
 40
74.0
 40
74.0
 40
75.0
 40
75.0
 40
75.0
 40
76.0
 40
76.0
 40
76.0
 40
77.0
 40
77.0
 40
77.0
 40
78.0
 40
78.0
 40
78.0
 40
79.0
 40
79.0
 40
79.0
 40
79.0
 10
105.3534315057797
 20
-116.0437350512842
 30
0.0
 10
105.3534315057797
 20
-116.0437350512842
 30
0.0
 10
105.1308783374326
 20
-116.0437350512842
 30
0.0
 10
105.1308783374326
 20
-116.0437350512842
 30
0.0
 10
105.1308783374326
 20
-116.0437350512842
 30
0.0
 10
104.888343615271
 20
-116.0437350512842
 30
0.0
 10
104.888343615271
 20
-116.0437350512842
 30
0.0
 10
104.888343615271
 20
-116.0437350512842
 30
0.0
 10
104.9996201994445
 20
-116.0861097257528
 30
0.0
 10
104.9996201994445
 20
-116.0861097257528
 30
0.0
 10
105.0089219572547
 20
-116.0904160951093
 30
0.0
 10
105.0199462628075
 20
-116.0966172669828
 30
0.0
 10
105.0199462628075
 20
-116.1093641202782
 30
0.0
 10
105.0199462628075
 20
-116.1305514575125
 30
0.0
 10
104.992040989377
 20
-116.1369248841602
 30
0.0
 10
104.9737819833052
 20
-116.1410589987425
 30
0.0
 10
104.964480225495
 20
-116.164313393268
 30
0.0
 10
104.9386420093556
 20
-116.229942462262
 30
0.0
 10
104.9217610414779
 20
-116.2743841940217
 30
0.0
 10
104.9217610414779
 20
-116.2743841940217
 30
0.0
 10
105.1587836108631
 20
-116.2743841940217
 30
0.0
 10
105.1587836108631
 20
-116.2743841940217
 30
0.0
 10
105.2383653165724
 20
-116.2743841940217
 30
0.0
 10
105.4106200908349
 20
-116.2700778246651
 30
0.0
 10
105.5346435283038
 20
-116.2616373407263
 30
0.0
 10
105.5346435283038
 20
-116.2616373407263
 30
0.0
 10
105.5346435283038
 20
-116.4394042677652
 30
0.0
 10
105.5346435283038
 20
-116.4394042677652
 30
0.0
 10
105.4626410326621
 20
-116.4350978984086
 30
0.0
 10
105.4440375170418
 20
-116.4350978984086
 30
0.0
 10
105.2865966533659
 20
-116.4309637838263
 30
0.0
 10
105.2586913799353
 20
-116.5853040615655
 30
0.0
 10
105.219761800952
 20
-116.6657470411461
 30
0.0
 10
105.1811767315172
 20
-116.7355102247224
 30
0.0
 10
105.2865966533659
 20
-116.7947658670687
 30
0.0
 10
105.3792697219191
 20
-116.8624619933538
 30
0.0
 10
105.4698757331811
 20
-116.9449720302256
 30
0.0
 10
105.4698757331811
 20
-116.9449720302256
 30
0.0
 10
105.3661783590751
 20
-117.1120591612602
 30
0.0
 10
105.3661783590751
 20
-117.1120591612602
 30
0.0
 10
105.3458522957121
 20
-117.0931111360913
 30
0.0
 10
105.3348279901594
 20
-117.0846706521525
 30
0.0
 10
105.2366427688297
 20
-116.9999213032153
 30
0.0
 10
105.1939235848126
 20
-116.9618529981033
 30
0.0
 10
105.1422471525339
 20
-116.9260240050567
 30
0.0
 10
105.0716226950863
 20
-116.881582273297
 30
0.0
 10
104.8866210675284
 20
-117.0677896842747
 30
0.0
 10
104.7071315927468
 20
-117.0910440788002
 30
0.0
 10
104.4532280554839
 20
-117.1206718999733
 30
0.0
 10
104.4532280554839
 20
-117.1206718999733
 30
0.0
 10
104.3626220442219
 20
-116.9408379156433
 30
0.0
 10
104.3626220442219
 20
-116.9408379156433
 30
0.0
 10
104.640296740333
 20
-116.9365315462867
 30
0.0
 10
104.7939479989751
 20
-116.9112100944701
 30
0.0
 10
104.9272731942543
 20
-116.8011392937164
 30
0.0
 10
104.8235758201483
 20
-116.750324135309
 30
0.0
 10
104.7457166621816
 20
-116.7229356262012
 30
0.0
 10
104.7143662932659
 20
-116.7101887729058
 30
0.0
 10
104.6978298349367
 20
-116.7377495367878
 30
0.0
 10
104.6847384720927
 20
-116.7566975619567
 30
0.0
 10
104.660622803696
 20
-116.7906317524864
 30
0.0
 10
104.660622803696
 20
-116.7906317524864
 30
0.0
 10
104.4883680294335
 20
-116.7081217156146
 30
0.0
 10
104.4883680294335
 20
-116.7081217156146
 30
0.0
 10
104.5607150346237
 20
-116.6276787360341
 30
0.0
 10
104.6144585241936
 20
-116.5324218458669
 30
0.0
 10
104.6644124087297
 20
-116.4309637838263
 30
0.0
 10
104.4976697872436
 20
-116.4350978984086
 30
0.0
 10
104.4790662716233
 20
-116.4350978984086
 30
0.0
 10
104.4070637759816
 20
-116.4394042677652
 30
0.0
 10
104.4070637759816
 20
-116.4394042677652
 30
0.0
 10
104.4070637759816
 20
-116.2616373407263
 30
0.0
 10
104.4070637759816
 20
-116.2616373407263
 30
0.0
 10
104.5293646657079
 20
-116.268010767374
 30
0.0
 10
104.7126437455232
 20
-116.2723171367305
 30
0.0
 10
104.7346923566288
 20
-116.2723171367305
 30
0.0
 10
104.7495062672154
 20
-116.2383829462008
 30
0.0
 10
104.7977376040089
 20
-116.1178046042171
 30
0.0
 10
104.8142740623381
 20
-116.0437350512842
 30
0.0
 10
104.7977376040089
 20
-116.0437350512842
 30
0.0
 10
104.6423637976241
 20
-116.0501084779319
 30
0.0
 10
104.4718315711043
 20
-116.0628553312274
 30
0.0
 10
104.4718315711043
 20
-116.0628553312274
 30
0.0
 10
104.4718315711043
 20
-116.1961805265065
 30
0.0
 10
104.4718315711043
 20
-116.1961805265065
 30
0.0
 10
104.4291123870872
 20
-116.2215019783231
 30
0.0
 10
104.3774359548084
 20
-116.2531968567874
 30
0.0
 10
104.2606472178584
 20
-116.3188259257814
 30
0.0
 10
104.2606472178584
 20
-116.3188259257814
 30
0.0
 10
104.2606472178584
 20
-116.4647257195817
 30
0.0
 10
104.2606472178584
 20
-116.4647257195817
 30
0.0
 10
104.2606472178584
 20
-116.4647257195817
 30
0.0
 10
104.2606472178584
 20
-116.9323974317044
 30
0.0
 10
104.2606472178584
 20
-116.9323974317044
 30
0.0
 10
104.2606472178584
 20
-117.0591769455616
 30
0.0
 10
104.2292968489427
 20
-117.1184325879079
 30
0.0
 10
103.9812499740047
 20
-117.109992103969
 30
0.0
 10
103.9812499740047
 20
-117.109992103969
 30
0.0
 10
103.8902994531941
 20
-116.9027696105313
 30
0.0
 10
103.8902994531941
 20
-116.9027696105313
 30
0.0
 10
103.9457654905066
 20
-116.9153442090524
 30
0.0
 10
103.9884846745237
 20
-116.919650578409
 30
0.0
 10
104.0236246484733
 20
-116.919650578409
 30
0.0
 10
104.0904595008871
 20
-116.919650578409
 30
0.0
 10
104.0997612586973
 20
-116.8963961838835
 30
0.0
 10
104.0997612586973
 20
-116.8307671148895
 30
0.0
 10
104.0997612586973
 20
-116.8307671148895
 30
0.0
 10
104.0997612586973
 20
-116.4013359626531
 30
0.0
 10
104.0997612586973
 20
-116.4013359626531
 30
0.0
 10
104.0143228906631
 20
-116.4414713250563
 30
0.0
 10
103.9995089800765
 20
-116.447844751704
 30
0.0
 10
103.9588568533506
 20
-116.4669650316471
 30
0.0
 10
103.9550672483168
 20
-116.4879801141072
 30
0.0
 10
103.9516221528315
 20
-116.5176079352803
 30
0.0
 10
103.9347411849538
 20
-116.5176079352803
 30
0.0
 10
103.9275064844348
 20
-116.5176079352803
 30
0.0
 10
103.9182047266246
 20
-116.513473820698
 30
0.0
 10
103.9126925738482
 20
-116.4902194261726
 30
0.0
 10
103.9126925738482
 20
-116.4902194261726
 30
0.0
 10
103.8661837847973
 20
-116.2976385885471
 30
0.0
 10
103.8661837847973
 20
-116.2976385885471
 30
0.0
 10
103.9939968273001
 20
-116.2511297994963
 30
0.0
 10
104.0515299219038
 20
-116.2278754049708
 30
0.0
 10
104.0997612586973
 20
-116.2066880677365
 30
0.0
 10
104.0997612586973
 20
-116.2066880677365
 30
0.0
 10
104.0997612586973
 20
-115.7941378833779
 30
0.0
 10
104.0997612586973
 20
-115.7941378833779
 30
0.0
 10
104.0997612586973
 20
-115.7941378833779
 30
0.0
 10
104.0532524696464
 20
-115.7941378833779
 30
0.0
 10
104.0532524696464
 20
-115.7941378833779
 30
0.0
 10
104.0532524696464
 20
-115.7941378833779
 30
0.0
 10
103.9846950694899
 20
-115.7941378833779
 30
0.0
 10
103.9846950694899
 20
-115.7941378833779
 30
0.0
 10
103.9254394271436
 20
-115.7941378833779
 30
0.0
 10
103.9182047266246
 20
-115.7941378833779
 30
0.0
 10
103.8865098481603
 20
-115.8005113100256
 30
0.0
 10
103.8865098481603
 20
-115.8005113100256
 30
0.0
 10
103.8865098481603
 20
-115.605863415109
 30
0.0
 10
103.8865098481603
 20
-115.605863415109
 30
0.0
 10
103.9106255165571
 20
-115.6122368417567
 30
0.0
 10
103.9182047266246
 20
-115.6122368417567
 30
0.0
 10
103.9791829167135
 20
-115.6122368417567
 30
0.0
 10
103.9791829167135
 20
-115.6122368417567
 30
0.0
 10
104.0959716536635
 20
-115.6122368417567
 30
0.0
 10
104.0959716536635
 20
-115.6122368417567
 30
0.0
 10
104.0959716536635
 20
-115.5424736581804
 30
0.0
 10
104.0959716536635
 20
-115.4599636213086
 30
0.0
 10
104.0939045963724
 20
-115.4556572519521
 30
0.0
 10
104.0866698958533
 20
-115.275823267622
 30
0.0
 10
104.0866698958533
 20
-115.2568752424531
 30
0.0
 10
104.0849473481107
 20
-115.2103664534023
 30
0.0
 10
104.0849473481107
 20
-115.2103664534023
 30
0.0
 10
104.2737385807024
 20
-115.2188069373411
 30
0.0
 10
104.2737385807024
 20
-115.2188069373411
 30
0.0
 10
104.2830403385126
 20
-115.2188069373411
 30
0.0
 10
104.3012993445844
 20
-115.2208739946323
 30
0.0
 10
104.3012993445844
 20
-115.23775496251
 30
0.0
 10
104.3012993445844
 20
-115.2568752424531
 30
0.0
 10
104.288552491289
 20
-115.2673827836832
 30
0.0
 10
104.2661593706349
 20
-115.2865030636263
 30
0.0
 10
104.2661593706349
 20
-115.3371459672595
 30
0.0
 10
104.2606472178584
 20
-115.5657280527058
 30
0.0
 10
104.2627142751496
 20
-115.6122368417567
 30
0.0
 10
104.3757134070658
 20
-115.6122368417567
 30
0.0
 10
104.3867377126186
 20
-115.6122368417567
 30
0.0
 10
104.4718315711043
 20
-115.6037963578178
 30
0.0
 10
104.4718315711043
 20
-115.6037963578178
 30
0.0
 10
104.4718315711043
 20
-115.7984442527344
 30
0.0
 10
104.4718315711043
 20
-115.7984442527344
 30
0.0
 10
104.4384141448974
 20
-115.796204940669
 30
0.0
 10
104.379158502551
 20
-115.7920708260867
 30
0.0
 10
104.2606472178584
 20
-115.7941378833779
 30
0.0
 10
104.2606472178584
 20
-115.7941378833779
 30
0.0
 10
104.2606472178584
 20
-116.1326185148037
 30
0.0
 10
104.2606472178584
 20
-116.1326185148037
 30
0.0
 10
104.308878554652
 20
-116.1093641202782
 30
0.0
 10
104.3664116492556
 20
-116.0818033563962
 30
0.0
 10
104.4087863237242
 20
-116.0585489618708
 30
0.0
 10
104.4087863237242
 20
-116.0585489618708
 30
0.0
 10
104.4087863237242
 20
-115.8809542896062
 30
0.0
 10
104.4087863237242
 20
-115.8809542896062
 30
0.0
 10
104.5086940927964
 20
-115.8935288881273
 30
0.0
 10
104.612735976451
 20
-115.8935288881273
 30
0.0
 10
104.7143662932659
 20
-115.8935288881273
 30
0.0
 10
104.6940402299029
 20
-115.7984442527344
 30
0.0
 10
104.6699245615061
 20
-115.7159342158627
 30
0.0
 10
104.6144585241936
 20
-115.5826090205835
 30
0.0
 10
104.5755289452103
 20
-115.5846760778747
 30
0.0
 10
104.50318194002
 20
-115.5889824472312
 30
0.0
 10
104.4701090233616
 20
-115.5910495045224
 30
0.0
 10
104.4701090233616
 20
-115.5910495045224
 30
0.0
 10
104.4701090233616
 20
-115.4112155201923
 30
0.0
 10
104.4701090233616
 20
-115.4112155201923
 30
0.0
 10
104.5793185502441
 20
-115.4196560041312
 30
0.0
 10
104.7312472611436
 20
-115.4239623734878
 30
0.0
 10
104.8032497567853
 20
-115.4239623734878
 30
0.0
 10
104.8032497567853
 20
-115.4239623734878
 30
0.0
 10
104.8755967619755
 20
-115.4239623734878
 30
0.0
 10
104.8755967619755
 20
-115.4239623734878
 30
0.0
 10
104.8755967619755
 20
-115.2610093570354
 30
0.0
 10
104.8755967619755
 20
-115.2505018158054
 30
0.0
 10
104.8735297046844
 20
-115.1955525428157
 30
0.0
 10
104.8735297046844
 20
-115.1955525428157
 30
0.0
 10
105.0699001473436
 20
-115.2208739946323
 30
0.0
 10
105.0699001473436
 20
-115.2208739946323
 30
0.0
 10
105.0736897523774
 20
-115.2208739946323
 30
0.0
 10
105.0922932679978
 20
-115.2229410519234
 30
0.0
 10
105.0922932679978
 20
-115.2398220198012
 30
0.0
 10
105.0922932679978
 20
-115.2546359303877
 30
0.0
 10
105.0829915101876
 20
-115.2632486691009
 30
0.0
 10
105.0588758417908
 20
-115.2780625796874
 30
0.0
 10
105.0533636890144
 20
-115.3435193939072
 30
0.0
 10
105.0512966317233
 20
-115.3647067311415
 30
0.0
 10
105.0512966317233
 20
-115.4239623734878
 30
0.0
 10
105.0512966317233
 20
-115.4239623734878
 30
0.0
 10
105.1346679424663
 20
-115.4239623734878
 30
0.0
 10
105.1346679424663
 20
-115.4239623734878
 30
0.0
 10
105.2070149476566
 20
-115.4239623734878
 30
0.0
 10
105.3589436585561
 20
-115.4196560041312
 30
0.0
 10
105.4681531854385
 20
-115.4112155201923
 30
0.0
 10
105.4681531854385
 20
-115.4112155201923
 30
0.0
 10
105.4681531854385
 20
-115.5910495045224
 30
0.0
 10
105.4681531854385
 20
-115.5910495045224
 30
0.0
 10
105.4423149692991
 20
-115.5889824472312
 30
0.0
 10
105.3382730856446
 20
-115.5846760778747
 30
0.0
 10
105.3031331116951
 20
-115.5826090205835
 30
0.0
 10
105.2903862583996
 20
-115.6334241789909
 30
0.0
 10
105.2607584372265
 20
-115.7455620370358
 30
0.0
 10
105.2032253426228
 20
-115.8850884041885
 30
0.0
 10
105.2404323738635
 20
-115.8850884041885
 30
0.0
 10
105.4829670960251
 20
-115.8661403790196
 30
0.0
 10
105.536710585595
 20
-115.8639010669542
 30
0.0
 10
105.536710585595
 20
-115.8639010669542
 30
0.0
 10
105.536710585595
 20
-116.0480414206408
 30
0.0
 10
105.536710585595
 20
-116.0480414206408
 30
0.0
 10
105.5105278599071
 20
-116.0480414206408
 30
0.0
 10
105.4957139493205
 20
-116.0437350512842
 30
0.0
 10
105.3534315057797
 20
-116.0437350512842
 30
0.0
  0
SPLINE
  5
15B
330
156
100
AcDbEntity
  8
_U+30EC_U+30A4_U+30E4_U+30FC 1
370
     0
100
AcDbSpline
210
0.0
220
0.0
230
1.0
 70
    11
 71
     3
 72
    20
 73
    16
 74
     0
 42
0.0000000001
 43
0.0000000001
 12
1.0
 22
0.0
 32
0.0
 13
1.0
 23
0.0
 33
0.0
 40
0.0
 40
0.0
 40
0.0
 40
0.0
 40
1.0
 40
1.0
 40
1.0
 40
2.0
 40
2.0
 40
2.0
 40
3.0
 40
3.0
 40
3.0
 40
4.0
 40
4.0
 40
4.0
 40
5.0
 40
5.0
 40
5.0
 40
5.0
 10
104.8032497567853
 20
-115.5784749060012
 30
0.0
 10
104.8032497567853
 20
-115.5784749060012
 30
0.0
 10
104.7753444833548
 20
-115.5784749060012
 30
0.0
 10
104.7753444833548
 20
-115.5784749060012
 30
0.0
 10
104.8163411196293
 20
-115.6778659107507
 30
0.0
 10
104.8439018835113
 20
-115.758136635557
 30
0.0
 10
104.8735297046844
 20
-115.8850884041885
 30
0.0
 10
104.8735297046844
 20
-115.8850884041885
 30
0.0
 10
105.0550862367571
 20
-115.8850884041885
 30
0.0
 10
105.0550862367571
 20
-115.8850884041885
 30
0.0
 10
105.0829915101876
 20
-115.7920708260867
 30
0.0
 10
105.1033175735506
 20
-115.7074937319238
 30
0.0
 10
105.1236436369135
 20
-115.5784749060012
 30
0.0
 10
105.1236436369135
 20
-115.5784749060012
 30
0.0
 10
104.8032497567853
 20
-115.5784749060012
 30
0.0
 10
104.8032497567853
 20
-115.5784749060012
 30
0.0
  0
SPLINE
  5
15C
330
156
100
AcDbEntity
  8
_U+30EC_U+30A4_U+30E4_U+30FC 1
370
     0
100
AcDbSpline
210
0.0
220
0.0
230
1.0
 70
    11
 71
     3
 72
    17
 73
    13
 74
     0
 42
0.0000000001
 43
0.0000000001
 12
1.0
 22
0.0
 32
0.0
 13
1.0
 23
0.0
 33
0.0
 40
0.0
 40
0.0
 40
0.0
 40
0.0
 40
1.0
 40
1.0
 40
1.0
 40
2.0
 40
2.0
 40
2.0
 40
3.0
 40
3.0
 40
3.0
 40
4.0
 40
4.0
 40
4.0
 40
4.0
 10
104.8587157940978
 20
-116.4288967265351
 30
0.0
 10
104.8439018835113
 20
-116.458352292934
 30
0.0
 10
104.7994601517515
 20
-116.55154212581
 30
0.0
 10
104.7905029034899
 20
-116.5704901509789
 30
0.0
 10
104.9569010154274
 20
-116.6297457933252
 30
0.0
 10
104.9755045310478
 20
-116.6361192199729
 30
0.0
 10
105.0385497784279
 20
-116.6636799838549
 30
0.0
 10
105.0867811152214
 20
-116.5768635776266
 30
0.0
 10
105.1071071785843
 20
-116.5027940246938
 30
0.0
 10
105.1198540318798
 20
-116.4288967265351
 30
0.0
 10
105.1198540318798
 20
-116.4288967265351
 30
0.0
 10
104.8587157940978
 20
-116.4288967265351
 30
0.0
 10
104.8587157940978
 20
-116.4288967265351
 30
0.0
  0
HATCH
  5
15D
330
156
100
AcDbEntity
  8
_U+30EC_U+30A4_U+30E4_U+30FC 1
 62
   179
420
  2234388
100
AcDbHatch
 10
0.0
 20
0.0
 30
0.0
210
0.0
220
0.0
230
1.0
  2
SOLID
 70
     1
 71
     0
 91
        3
 92
        1
 93
        1
 72
     4
 94
        3
 73
     0
 74
     1
 95
      242
 96
      238
 40
0.0
 40
0.0
 40
0.0
 40
0.0
 40
1.0
 40
1.0
 40
1.0
 40
2.0
 40
2.0
 40
2.0
 40
3.0
 40
3.0
 40
3.0
 40
4.0
 40
4.0
 40
4.0
 40
5.0
 40
5.0
 40
5.0
 40
6.0
 40
6.0
 40
6.0
 40
7.0
 40
7.0
 40
7.0
 40
8.0
 40
8.0
 40
8.0
 40
9.0
 40
9.0
 40
9.0
 40
10.0
 40
10.0
 40
10.0
 40
11.0
 40
11.0
 40
11.0
 40
12.0
 40
12.0
 40
12.0
 40
13.0
 40
13.0
 40
13.0
 40
14.0
 40
14.0
 40
14.0
 40
15.0
 40
15.0
 40
15.0
 40
16.0
 40
16.0
 40
16.0
 40
17.0
 40
17.0
 40
17.0
 40
18.0
 40
18.0
 40
18.0
 40
19.0
 40
19.0
 40
19.0
 40
20.0
 40
20.0
 40
20.0
 40
21.0
 40
21.0
 40
21.0
 40
22.0
 40
22.0
 40
22.0
 40
23.0
 40
23.0
 40
23.0
 40
24.0
 40
24.0
 40
24.0
 40
25.0
 40
25.0
 40
25.0
 40
26.0
 40
26.0
 40
26.0
 40
27.0
 40
27.0
 40
27.0
 40
28.0
 40
28.0
 40
28.0
 40
29.0
 40
29.0
 40
29.0
 40
30.0
 40
30.0
 40
30.0
 40
31.0
 40
31.0
 40
31.0
 40
32.0
 40
32.0
 40
32.0
 40
33.0
 40
33.0
 40
33.0
 40
34.0
 40
34.0
 40
34.0
 40
35.0
 40
35.0
 40
35.0
 40
36.0
 40
36.0
 40
36.0
 40
37.0
 40
37.0
 40
37.0
 40
38.0
 40
38.0
 40
38.0
 40
39.0
 40
39.0
 40
39.0
 40
40.0
 40
40.0
 40
40.0
 40
41.0
 40
41.0
 40
41.0
 40
42.0
 40
42.0
 40
42.0
 40
43.0
 40
43.0
 40
43.0
 40
44.0
 40
44.0
 40
44.0
 40
45.0
 40
45.0
 40
45.0
 40
46.0
 40
46.0
 40
46.0
 40
47.0
 40
47.0
 40
47.0
 40
48.0
 40
48.0
 40
48.0
 40
49.0
 40
49.0
 40
49.0
 40
50.0
 40
50.0
 40
50.0
 40
51.0
 40
51.0
 40
51.0
 40
52.0
 40
52.0
 40
52.0
 40
53.0
 40
53.0
 40
53.0
 40
54.0
 40
54.0
 40
54.0
 40
55.0
 40
55.0
 40
55.0
 40
56.0
 40
56.0
 40
56.0
 40
57.0
 40
57.0
 40
57.0
 40
58.0
 40
58.0
 40
58.0
 40
59.0
 40
59.0
 40
59.0
 40
60.0
 40
60.0
 40
60.0
 40
61.0
 40
61.0
 40
61.0
 40
62.0
 40
62.0
 40
62.0
 40
63.0
 40
63.0
 40
63.0
 40
64.0
 40
64.0
 40
64.0
 40
65.0
 40
65.0
 40
65.0
 40
66.0
 40
66.0
 40
66.0
 40
67.0
 40
67.0
 40
67.0
 40
68.0
 40
68.0
 40
68.0
 40
69.0
 40
69.0
 40
69.0
 40
70.0
 40
70.0
 40
70.0
 40
71.0
 40
71.0
 40
71.0
 40
72.0
 40
72.0
 40
72.0
 40
73.0
 40
73.0
 40
73.0
 40
74.0
 40
74.0
 40
74.0
 40
75.0
 40
75.0
 40
75.0
 40
76.0
 40
76.0
 40
76.0
 40
77.0
 40
77.0
 40
77.0
 40
78.0
 40
78.0
 40
78.0
 40
79.0
 40
79.0
 40
79.0
 40
79.0
 10
105.3534315057797
 20
-116.0437350512842
 10
105.3534315057797
 20
-116.0437350512842
 10
105.1308783374326
 20
-116.0437350512842
 10
105.1308783374326
 20
-116.0437350512842
 10
105.1308783374326
 20
-116.0437350512842
 10
104.888343615271
 20
-116.0437350512842
 10
104.888343615271
 20
-116.0437350512842
 10
104.888343615271
 20
-116.0437350512842
 10
104.9996201994445
 20
-116.0861097257528
 10
104.9996201994445
 20
-116.0861097257528
 10
105.0089219572547
 20
-116.0904160951093
 10
105.0199462628075
 20
-116.0966172669828
 10
105.0199462628075
 20
-116.1093641202782
 10
105.0199462628075
 20
-116.1305514575125
 10
104.992040989377
 20
-116.1369248841602
 10
104.9737819833052
 20
-116.1410589987425
 10
104.964480225495
 20
-116.164313393268
 10
104.9386420093556
 20
-116.229942462262
 10
104.9217610414779
 20
-116.2743841940217
 10
104.9217610414779
 20
-116.2743841940217
 10
105.1587836108631
 20
-116.2743841940217
 10
105.1587836108631
 20
-116.2743841940217
 10
105.2383653165724
 20
-116.2743841940217
 10
105.4106200908349
 20
-116.2700778246651
 10
105.5346435283038
 20
-116.2616373407263
 10
105.5346435283038
 20
-116.2616373407263
 10
105.5346435283038
 20
-116.4394042677652
 10
105.5346435283038
 20
-116.4394042677652
 10
105.4626410326621
 20
-116.4350978984086
 10
105.4440375170418
 20
-116.4350978984086
 10
105.2865966533659
 20
-116.4309637838263
 10
105.2586913799353
 20
-116.5853040615655
 10
105.219761800952
 20
-116.6657470411461
 10
105.1811767315172
 20
-116.7355102247224
 10
105.2865966533659
 20
-116.7947658670687
 10
105.3792697219191
 20
-116.8624619933538
 10
105.4698757331811
 20
-116.9449720302256
 10
105.4698757331811
 20
-116.9449720302256
 10
105.3661783590751
 20
-117.1120591612602
 10
105.3661783590751
 20
-117.1120591612602
 10
105.3458522957121
 20
-117.0931111360913
 10
105.3348279901594
 20
-117.0846706521525
 10
105.2366427688297
 20
-116.9999213032153
 10
105.1939235848126
 20
-116.9618529981033
 10
105.1422471525339
 20
-116.9260240050567
 10
105.0716226950863
 20
-116.881582273297
 10
104.8866210675284
 20
-117.0677896842747
 10
104.7071315927468
 20
-117.0910440788002
 10
104.4532280554839
 20
-117.1206718999733
 10
104.4532280554839
 20
-117.1206718999733
 10
104.3626220442219
 20
-116.9408379156433
 10
104.3626220442219
 20
-116.9408379156433
 10
104.640296740333
 20
-116.9365315462867
 10
104.7939479989751
 20
-116.9112100944701
 10
104.9272731942543
 20
-116.8011392937164
 10
104.8235758201483
 20
-116.750324135309
 10
104.7457166621816
 20
-116.7229356262012
 10
104.7143662932659
 20
-116.7101887729058
 10
104.6978298349367
 20
-116.7377495367878
 10
104.6847384720927
 20
-116.7566975619567
 10
104.660622803696
 20
-116.7906317524864
 10
104.660622803696
 20
-116.7906317524864
 10
104.4883680294335
 20
-116.7081217156146
 10
104.4883680294335
 20
-116.7081217156146
 10
104.5607150346237
 20
-116.6276787360341
 10
104.6144585241936
 20
-116.5324218458669
 10
104.6644124087297
 20
-116.4309637838263
 10
104.4976697872436
 20
-116.4350978984086
 10
104.4790662716233
 20
-116.4350978984086
 10
104.4070637759816
 20
-116.4394042677652
 10
104.4070637759816
 20
-116.4394042677652
 10
104.4070637759816
 20
-116.2616373407263
 10
104.4070637759816
 20
-116.2616373407263
 10
104.5293646657079
 20
-116.268010767374
 10
104.7126437455232
 20
-116.2723171367305
 10
104.7346923566288
 20
-116.2723171367305
 10
104.7495062672154
 20
-116.2383829462008
 10
104.7977376040089
 20
-116.1178046042171
 10
104.8142740623381
 20
-116.0437350512842
 10
104.7977376040089
 20
-116.0437350512842
 10
104.6423637976241
 20
-116.0501084779319
 10
104.4718315711043
 20
-116.0628553312274
 10
104.4718315711043
 20
-116.0628553312274
 10
104.4718315711043
 20
-116.1961805265065
 10
104.4718315711043
 20
-116.1961805265065
 10
104.4291123870872
 20
-116.2215019783231
 10
104.3774359548084
 20
-116.2531968567874
 10
104.2606472178584
 20
-116.3188259257814
 10
104.2606472178584
 20
-116.3188259257814
 10
104.2606472178584
 20
-116.4647257195817
 10
104.2606472178584
 20
-116.4647257195817
 10
104.2606472178584
 20
-116.4647257195817
 10
104.2606472178584
 20
-116.9323974317044
 10
104.2606472178584
 20
-116.9323974317044
 10
104.2606472178584
 20
-117.0591769455616
 10
104.2292968489427
 20
-117.1184325879079
 10
103.9812499740047
 20
-117.109992103969
 10
103.9812499740047
 20
-117.109992103969
 10
103.8902994531941
 20
-116.9027696105313
 10
103.8902994531941
 20
-116.9027696105313
 10
103.9457654905066
 20
-116.9153442090524
 10
103.9884846745237
 20
-116.919650578409
 10
104.0236246484733
 20
-116.919650578409
 10
104.0904595008871
 20
-116.919650578409
 10
104.0997612586973
 20
-116.8963961838835
 10
104.0997612586973
 20
-116.8307671148895
 10
104.0997612586973
 20
-116.8307671148895
 10
104.0997612586973
 20
-116.4013359626531
 10
104.0997612586973
 20
-116.4013359626531
 10
104.0143228906631
 20
-116.4414713250563
 10
103.9995089800765
 20
-116.447844751704
 10
103.9588568533506
 20
-116.4669650316471
 10
103.9550672483168
 20
-116.4879801141072
 10
103.9516221528315
 20
-116.5176079352803
 10
103.9347411849538
 20
-116.5176079352803
 10
103.9275064844348
 20
-116.5176079352803
 10
103.9182047266246
 20
-116.513473820698
 10
103.9126925738482
 20
-116.4902194261726
 10
103.9126925738482
 20
-116.4902194261726
 10
103.8661837847973
 20
-116.2976385885471
 10
103.8661837847973
 20
-116.2976385885471
 10
103.9939968273001
 20
-116.2511297994963
 10
104.0515299219038
 20
-116.2278754049708
 10
104.0997612586973
 20
-116.2066880677365
 10
104.0997612586973
 20
-116.2066880677365
 10
104.0997612586973
 20
-115.7941378833779
 10
104.0997612586973
 20
-115.7941378833779
 10
104.0997612586973
 20
-115.7941378833779
 10
104.0532524696464
 20
-115.7941378833779
 10
104.0532524696464
 20
-115.7941378833779
 10
104.0532524696464
 20
-115.7941378833779
 10
103.9846950694899
 20
-115.7941378833779
 10
103.9846950694899
 20
-115.7941378833779
 10
103.9254394271436
 20
-115.7941378833779
 10
103.9182047266246
 20
-115.7941378833779
 10
103.8865098481603
 20
-115.8005113100256
 10
103.8865098481603
 20
-115.8005113100256
 10
103.8865098481603
 20
-115.605863415109
 10
103.8865098481603
 20
-115.605863415109
 10
103.9106255165571
 20
-115.6122368417567
 10
103.9182047266246
 20
-115.6122368417567
 10
103.9791829167135
 20
-115.6122368417567
 10
103.9791829167135
 20
-115.6122368417567
 10
104.0959716536635
 20
-115.6122368417567
 10
104.0959716536635
 20
-115.6122368417567
 10
104.0959716536635
 20
-115.5424736581804
 10
104.0959716536635
 20
-115.4599636213086
 10
104.0939045963724
 20
-115.4556572519521
 10
104.0866698958533
 20
-115.275823267622
 10
104.0866698958533
 20
-115.2568752424531
 10
104.0849473481107
 20
-115.2103664534023
 10
104.0849473481107
 20
-115.2103664534023
 10
104.2737385807024
 20
-115.2188069373411
 10
104.2737385807024
 20
-115.2188069373411
 10
104.2830403385126
 20
-115.2188069373411
 10
104.3012993445844
 20
-115.2208739946323
 10
104.3012993445844
 20
-115.23775496251
 10
104.3012993445844
 20
-115.2568752424531
 10
104.288552491289
 20
-115.2673827836832
 10
104.2661593706349
 20
-115.2865030636263
 10
104.2661593706349
 20
-115.3371459672595
 10
104.2606472178584
 20
-115.5657280527058
 10
104.2627142751496
 20
-115.6122368417567
 10
104.3757134070658
 20
-115.6122368417567
 10
104.3867377126186
 20
-115.6122368417567
 10
104.4718315711043
 20
-115.6037963578178
 10
104.4718315711043
 20
-115.6037963578178
 10
104.4718315711043
 20
-115.7984442527344
 10
104.4718315711043
 20
-115.7984442527344
 10
104.4384141448974
 20
-115.796204940669
 10
104.379158502551
 20
-115.7920708260867
 10
104.2606472178584
 20
-115.7941378833779
 10
104.2606472178584
 20
-115.7941378833779
 10
104.2606472178584
 20
-116.1326185148037
 10
104.2606472178584
 20
-116.1326185148037
 10
104.308878554652
 20
-116.1093641202782
 10
104.3664116492556
 20
-116.0818033563962
 10
104.4087863237242
 20
-116.0585489618708
 10
104.4087863237242
 20
-116.0585489618708
 10
104.4087863237242
 20
-115.8809542896062
 10
104.4087863237242
 20
-115.8809542896062
 10
104.5086940927964
 20
-115.8935288881273
 10
104.612735976451
 20
-115.8935288881273
 10
104.7143662932659
 20
-115.8935288881273
 10
104.6940402299029
 20
-115.7984442527344
 10
104.6699245615061
 20
-115.7159342158627
 10
104.6144585241936
 20
-115.5826090205835
 10
104.5755289452103
 20
-115.5846760778747
 10
104.50318194002
 20
-115.5889824472312
 10
104.4701090233616
 20
-115.5910495045224
 10
104.4701090233616
 20
-115.5910495045224
 10
104.4701090233616
 20
-115.4112155201923
 10
104.4701090233616
 20
-115.4112155201923
 10
104.5793185502441
 20
-115.4196560041312
 10
104.7312472611436
 20
-115.4239623734878
 10
104.8032497567853
 20
-115.4239623734878
 10
104.8032497567853
 20
-115.4239623734878
 10
104.8755967619755
 20
-115.4239623734878
 10
104.8755967619755
 20
-115.4239623734878
 10
104.8755967619755
 20
-115.2610093570354
 10
104.8755967619755
 20
-115.2505018158054
 10
104.8735297046844
 20
-115.1955525428157
 10
104.8735297046844
 20
-115.1955525428157
 10
105.0699001473436
 20
-115.2208739946323
 10
105.0699001473436
 20
-115.2208739946323
 10
105.0736897523774
 20
-115.2208739946323
 10
105.0922932679978
 20
-115.2229410519234
 10
105.0922932679978
 20
-115.2398220198012
 10
105.0922932679978
 20
-115.2546359303877
 10
105.0829915101876
 20
-115.2632486691009
 10
105.0588758417908
 20
-115.2780625796874
 10
105.0533636890144
 20
-115.3435193939072
 10
105.0512966317233
 20
-115.3647067311415
 10
105.0512966317233
 20
-115.4239623734878
 10
105.0512966317233
 20
-115.4239623734878
 10
105.1346679424663
 20
-115.4239623734878
 10
105.1346679424663
 20
-115.4239623734878
 10
105.2070149476566
 20
-115.4239623734878
 10
105.3589436585561
 20
-115.4196560041312
 10
105.4681531854385
 20
-115.4112155201923
 10
105.4681531854385
 20
-115.4112155201923
 10
105.4681531854385
 20
-115.5910495045224
 10
105.4681531854385
 20
-115.5910495045224
 10
105.4423149692991
 20
-115.5889824472312
 10
105.3382730856446
 20
-115.5846760778747
 10
105.3031331116951
 20
-115.5826090205835
 10
105.2903862583996
 20
-115.6334241789909
 10
105.2607584372265
 20
-115.7455620370358
 10
105.2032253426228
 20
-115.8850884041885
 10
105.2404323738635
 20
-115.8850884041885
 10
105.4829670960251
 20
-115.8661403790196
 10
105.536710585595
 20
-115.8639010669542
 10
105.536710585595
 20
-115.8639010669542
 10
105.536710585595
 20
-116.0480414206408
 10
105.536710585595
 20
-116.0480414206408
 10
105.5105278599071
 20
-116.0480414206408
 10
105.4957139493205
 20
-116.0437350512842
 10
105.3534315057797
 20
-116.0437350512842
 97
        0
 97
        0
 92
        1
 93
        1
 72
     4
 94
        3
 73
     0
 74
     1
 95
       20
 96
       16
 40
0.0
 40
0.0
 40
0.0
 40
0.0
 40
1.0
 40
1.0
 40
1.0
 40
2.0
 40
2.0
 40
2.0
 40
3.0
 40
3.0
 40
3.0
 40
4.0
 40
4.0
 40
4.0
 40
5.0
 40
5.0
 40
5.0
 40
5.0
 10
104.8032497567853
 20
-115.5784749060012
 10
104.8032497567853
 20
-115.5784749060012
 10
104.7753444833548
 20
-115.5784749060012
 10
104.7753444833548
 20
-115.5784749060012
 10
104.8163411196293
 20
-115.6778659107507
 10
104.8439018835113
 20
-115.758136635557
 10
104.8735297046844
 20
-115.8850884041885
 10
104.8735297046844
 20
-115.8850884041885
 10
105.0550862367571
 20
-115.8850884041885
 10
105.0550862367571
 20
-115.8850884041885
 10
105.0829915101876
 20
-115.7920708260867
 10
105.1033175735506
 20
-115.7074937319238
 10
105.1236436369135
 20
-115.5784749060012
 10
105.1236436369135
 20
-115.5784749060012
 10
104.8032497567853
 20
-115.5784749060012
 10
104.8032497567853
 20
-115.5784749060012
 97
        0
 97
        0
 92
        1
 93
        1
 72
     4
 94
        3
 73
     0
 74
     1
 95
       17
 96
       13
 40
0.0
 40
0.0
 40
0.0
 40
0.0
 40
1.0
 40
1.0
 40
1.0
 40
2.0
 40
2.0
 40
2.0
 40
3.0
 40
3.0
 40
3.0
 40
4.0
 40
4.0
 40
4.0
 40
4.0
 10
104.8587157940978
 20
-116.4288967265351
 10
104.8439018835113
 20
-116.458352292934
 10
104.7994601517515
 20
-116.55154212581
 10
104.7905029034899
 20
-116.5704901509789
 10
104.9569010154274
 20
-116.6297457933252
 10
104.9755045310478
 20
-116.6361192199729
 10
105.0385497784279
 20
-116.6636799838549
 10
105.0867811152214
 20
-116.5768635776266
 10
105.1071071785843
 20
-116.5027940246938
 10
105.1198540318798
 20
-116.4288967265351
 10
105.1198540318798
 20
-116.4288967265351
 10
104.8587157940978
 20
-116.4288967265351
 10
104.8587157940978
 20
-116.4288967265351
 97
        0
 97
        0
 75
     2
 76
     1
 98
        0
  0
SPLINE
  5
15E
330
156
100
AcDbEntity
  8
_U+30EC_U+30A4_U+30E4_U+30FC 1
370
     0
100
AcDbSpline
210
0.0
220
0.0
230
1.0
 70
    11
 71
     3
 72
   203
 73
   199
 74
     0
 42
0.0000000001
 43
0.0000000001
 12
1.0
 22
0.0
 32
0.0
 13
1.0
 23
0.0
 33
0.0
 40
0.0
 40
0.0
 40
0.0
 40
0.0
 40
1.0
 40
1.0
 40
1.0
 40
2.0
 40
2.0
 40
2.0
 40
3.0
 40
3.0
 40
3.0
 40
4.0
 40
4.0
 40
4.0
 40
5.0
 40
5.0
 40
5.0
 40
6.0
 40
6.0
 40
6.0
 40
7.0
 40
7.0
 40
7.0
 40
8.0
 40
8.0
 40
8.0
 40
9.0
 40
9.0
 40
9.0
 40
10.0
 40
10.0
 40
10.0
 40
11.0
 40
11.0
 40
11.0
 40
12.0
 40
12.0
 40
12.0
 40
13.0
 40
13.0
 40
13.0
 40
14.0
 40
14.0
 40
14.0
 40
15.0
 40
15.0
 40
15.0
 40
16.0
 40
16.0
 40
16.0
 40
17.0
 40
17.0
 40
17.0
 40
18.0
 40
18.0
 40
18.0
 40
19.0
 40
19.0
 40
19.0
 40
20.0
 40
20.0
 40
20.0
 40
21.0
 40
21.0
 40
21.0
 40
22.0
 40
22.0
 40
22.0
 40
23.0
 40
23.0
 40
23.0
 40
24.0
 40
24.0
 40
24.0
 40
25.0
 40
25.0
 40
25.0
 40
26.0
 40
26.0
 40
26.0
 40
27.0
 40
27.0
 40
27.0
 40
28.0
 40
28.0
 40
28.0
 40
29.0
 40
29.0
 40
29.0
 40
30.0
 40
30.0
 40
30.0
 40
31.0
 40
31.0
 40
31.0
 40
32.0
 40
32.0
 40
32.0
 40
33.0
 40
33.0
 40
33.0
 40
34.0
 40
34.0
 40
34.0
 40
35.0
 40
35.0
 40
35.0
 40
36.0
 40
36.0
 40
36.0
 40
37.0
 40
37.0
 40
37.0
 40
38.0
 40
38.0
 40
38.0
 40
39.0
 40
39.0
 40
39.0
 40
40.0
 40
40.0
 40
40.0
 40
41.0
 40
41.0
 40
41.0
 40
42.0
 40
42.0
 40
42.0
 40
43.0
 40
43.0
 40
43.0
 40
44.0
 40
44.0
 40
44.0
 40
45.0
 40
45.0
 40
45.0
 40
46.0
 40
46.0
 40
46.0
 40
47.0
 40
47.0
 40
47.0
 40
48.0
 40
48.0
 40
48.0
 40
49.0
 40
49.0
 40
49.0
 40
50.0
 40
50.0
 40
50.0
 40
51.0
 40
51.0
 40
51.0
 40
52.0
 40
52.0
 40
52.0
 40
53.0
 40
53.0
 40
53.0
 40
54.0
 40
54.0
 40
54.0
 40
55.0
 40
55.0
 40
55.0
 40
56.0
 40
56.0
 40
56.0
 40
57.0
 40
57.0
 40
57.0
 40
58.0
 40
58.0
 40
58.0
 40
59.0
 40
59.0
 40
59.0
 40
60.0
 40
60.0
 40
60.0
 40
61.0
 40
61.0
 40
61.0
 40
62.0
 40
62.0
 40
62.0
 40
63.0
 40
63.0
 40
63.0
 40
64.0
 40
64.0
 40
64.0
 40
65.0
 40
65.0
 40
65.0
 40
66.0
 40
66.0
 40
66.0
 40
66.0
 10
106.8351670739857
 20
-116.1114311775694
 30
0.0
 10
106.8351670739857
 20
-116.1114311775694
 30
0.0
 10
106.3463080246287
 20
-116.1114311775694
 30
0.0
 10
106.3463080246287
 20
-116.1114311775694
 30
0.0
 10
106.3370062668185
 20
-116.1558729093291
 30
0.0
 10
106.3297715662995
 20
-116.1875677877934
 30
0.0
 10
106.3187472607467
 20
-116.2258083476797
 30
0.0
 10
106.3407958718523
 20
-116.2258083476797
 30
0.0
 10
106.3538872346963
 20
-116.2278754049708
 30
0.0
 10
106.3593993874726
 20
-116.2278754049708
 30
0.0
 10
106.3593993874726
 20
-116.2278754049708
 30
0.0
 10
106.5240749516676
 20
-116.2278754049708
 30
0.0
 10
106.5240749516676
 20
-116.2278754049708
 30
0.0
 10
106.5240749516676
 20
-116.2278754049708
 30
0.0
 10
106.8520480418634
 20
-116.2278754049708
 30
0.0
 10
106.8520480418634
 20
-116.2278754049708
 30
0.0
 10
106.8961452640746
 20
-116.2278754049708
 30
0.0
 10
107.1445366485611
 20
-116.2151285516754
 30
0.0
 10
107.1720974124431
 20
-116.2151285516754
 30
0.0
 10
107.1703748647005
 20
-116.2426893155574
 30
0.0
 10
107.1686523169578
 20
-116.2616373407263
 30
0.0
 10
107.1686523169578
 20
-116.2912651618994
 30
0.0
 10
107.1665852596667
 20
-116.3229600403637
 30
0.0
 10
107.1665852596667
 20
-116.458352292934
 30
0.0
 10
107.1665852596667
 20
-116.485913056816
 30
0.0
 10
107.1665852596667
 20
-116.485913056816
 30
0.0
 10
107.1665852596667
 20
-116.7313761101401
 30
0.0
 10
107.1665852596667
 20
-116.7313761101401
 30
0.0
 10
107.1665852596667
 20
-116.7758178418998
 30
0.0
 10
107.1703748647005
 20
-116.9725327941076
 30
0.0
 10
107.1741644697342
 20
-117.1248060145556
 30
0.0
 10
107.1741644697342
 20
-117.1248060145556
 30
0.0
 10
106.9760714793324
 20
-117.1248060145556
 30
0.0
 10
106.9760714793324
 20
-117.1248060145556
 30
0.0
 10
106.9760714793324
 20
-117.1248060145556
 30
0.0
 10
106.977794027075
 20
-117.0910440788002
 30
0.0
 10
106.977794027075
 20
-117.0910440788002
 30
0.0
 10
106.977794027075
 20
-117.0910440788002
 30
0.0
 10
106.3628444829579
 20
-117.0910440788002
 30
0.0
 10
106.3628444829579
 20
-117.0910440788002
 30
0.0
 10
106.3628444829579
 20
-117.0910440788002
 30
0.0
 10
106.3649115402491
 20
-117.1248060145556
 30
0.0
 10
106.3649115402491
 20
-117.1248060145556
 30
0.0
 10
106.3649115402491
 20
-117.1248060145556
 30
0.0
 10
106.1740532503662
 20
-117.1248060145556
 30
0.0
 10
106.1740532503662
 20
-117.1248060145556
 30
0.0
 10
106.1778428554
 20
-117.0698567415659
 30
0.0
 10
106.1778428554
 20
-117.0571098882704
 30
0.0
 10
106.1833550081764
 20
-116.9429049729344
 30
0.0
 10
106.185077555919
 20
-116.9153442090524
 30
0.0
 10
106.1871446132102
 20
-116.7821912685475
 30
0.0
 10
106.1871446132102
 20
-116.7630709886044
 30
0.0
 10
106.1871446132102
 20
-116.7630709886044
 30
0.0
 10
106.1871446132102
 20
-116.5599826097489
 30
0.0
 10
106.1871446132102
 20
-116.5599826097489
 30
0.0
 10
106.0648437234838
 20
-116.8095797776552
 30
0.0
 10
105.9167046176181
 20
-116.9408379156433
 30
0.0
 10
105.8240315490648
 20
-117.006294729863
 30
0.0
 10
105.8240315490648
 20
-117.006294729863
 30
0.0
 10
105.6724473477138
 20
-116.8667683627104
 30
0.0
 10
105.6724473477138
 20
-116.8667683627104
 30
0.0
 10
105.749961996132
 20
-116.815953204303
 30
0.0
 10
105.8760524908921
 20
-116.7291367980747
 30
0.0
 10
105.9962863233273
 20
-116.5346611579323
 30
0.0
 10
106.0758680290366
 20
-116.4077093893009
 30
0.0
 10
106.1334011236403
 20
-116.2638766527917
 30
0.0
 10
106.1630289448134
 20
-116.1114311775694
 30
0.0
 10
105.9632134066689
 20
-116.1136704896348
 30
0.0
 10
105.805772542993
 20
-116.1200439162825
 30
0.0
 10
105.72240123225
 20
-116.1221109735736
 30
0.0
 10
105.72240123225
 20
-116.1221109735736
 30
0.0
 10
105.72240123225
 20
-115.9443440465348
 30
0.0
 10
105.72240123225
 20
-115.9443440465348
 30
0.0
 10
105.8946560065124
 20
-115.9507174731825
 30
0.0
 10
106.1427028814504
 20
-115.955023842539
 30
0.0
 10
106.2739610194385
 20
-115.955023842539
 30
0.0
 10
106.2739610194385
 20
-115.955023842539
 30
0.0
 10
106.4610297042875
 20
-115.955023842539
 30
0.0
 10
106.4610297042875
 20
-115.955023842539
 30
0.0
 10
106.4610297042875
 20
-115.955023842539
 30
0.0
 10
106.4610297042875
 20
-115.8470200990764
 30
0.0
 10
106.4610297042875
 20
-115.8470200990764
 30
0.0
 10
106.4610297042875
 20
-115.8470200990764
 30
0.0
 10
106.3332166617848
 20
-115.8470200990764
 30
0.0
 10
106.3332166617848
 20
-115.8470200990764
 30
0.0
 10
106.185077555919
 20
-115.8470200990764
 30
0.0
 10
106.0369384500533
 20
-115.851326468433
 30
0.0
 10
105.8908664014787
 20
-115.8576998950807
 30
0.0
 10
105.8908664014787
 20
-115.8576998950807
 30
0.0
 10
105.8908664014787
 20
-115.6863063946895
 30
0.0
 10
105.8908664014787
 20
-115.6863063946895
 30
0.0
 10
106.0259141445005
 20
-115.6968139359196
 30
0.0
 10
106.1888671609528
 20
-115.6968139359196
 30
0.0
 10
106.3332166617848
 20
-115.6968139359196
 30
0.0
 10
106.3332166617848
 20
-115.6968139359196
 30
0.0
 10
106.4610297042875
 20
-115.6968139359196
 30
0.0
 10
106.4610297042875
 20
-115.6968139359196
 30
0.0
 10
106.4610297042875
 20
-115.6968139359196
 30
0.0
 10
106.4610297042875
 20
-115.5784749060012
 30
0.0
 10
106.4610297042875
 20
-115.5784749060012
 30
0.0
 10
106.4610297042875
 20
-115.5784749060012
 30
0.0
 10
106.3463080246287
 20
-115.5784749060012
 30
0.0
 10
106.3463080246287
 20
-115.5784749060012
 30
0.0
 10
106.3056558979028
 20
-115.5784749060012
 30
0.0
 10
106.1278889708639
 20
-115.5869153899401
 30
0.0
 10
106.0906819396232
 20
-115.5869153899401
 30
0.0
 10
105.9129150125843
 20
-115.5910495045224
 30
0.0
 10
105.846424669719
 20
-115.5931165618135
 30
0.0
 10
105.7778672695625
 20
-115.5953558738789
 30
0.0
 10
105.7778672695625
 20
-115.5953558738789
 30
0.0
 10
105.7778672695625
 20
-115.4112155201923
 30
0.0
 10
105.7778672695625
 20
-115.4112155201923
 30
0.0
 10
105.8777750386347
 20
-115.4196560041312
 30
0.0
 10
105.9167046176181
 20
-115.4196560041312
 30
0.0
 10
106.2519124083329
 20
-115.4282687428443
 30
0.0
 10
106.1964463710203
 20
-115.3330118526772
 30
0.0
 10
106.1723307026236
 20
-115.3054510887952
 30
0.0
 10
106.1409803337078
 20
-115.2694498409743
 30
0.0
 10
106.1409803337078
 20
-115.2694498409743
 30
0.0
 10
106.29463159235
 20
-115.1869398041026
 30
0.0
 10
106.29463159235
 20
-115.1869398041026
 30
0.0
 10
106.3297715662995
 20
-115.2229410519234
 30
0.0
 10
106.3687011452828
 20
-115.265315726392
 30
0.0
 10
106.4334689404055
 20
-115.3752142723715
 30
0.0
 10
106.4334689404055
 20
-115.3752142723715
 30
0.0
 10
106.3332166617848
 20
-115.4303358001355
 30
0.0
 10
106.3332166617848
 20
-115.4303358001355
 30
0.0
 10
106.3332166617848
 20
-115.4303358001355
 30
0.0
 10
106.3425184195949
 20
-115.4303358001355
 30
0.0
 10
106.3425184195949
 20
-115.4303358001355
 30
0.0
 10
106.3425184195949
 20
-115.4303358001355
 30
0.0
 10
106.8000271000361
 20
-115.4303358001355
 30
0.0
 10
106.8000271000361
 20
-115.4303358001355
 30
0.0
 10
106.8000271000361
 20
-115.4303358001355
 30
0.0
 10
106.7166557892931
 20
-115.3858940683757
 30
0.0
 10
106.7166557892931
 20
-115.3858940683757
 30
0.0
 10
106.7407714576898
 20
-115.3478257632637
 30
0.0
 10
106.7907253422259
 20
-115.2673827836832
 30
0.0
 10
106.8038167050699
 20
-115.1933132307503
 30
0.0
 10
106.8038167050699
 20
-115.1933132307503
 30
0.0
 10
106.9908853899189
 20
-115.2568752424531
 30
0.0
 10
106.9908853899189
 20
-115.2568752424531
 30
0.0
 10
106.998120090438
 20
-115.2589422997443
 30
0.0
 10
107.0167236060583
 20
-115.2694498409743
 30
0.0
 10
107.0167236060583
 20
-115.2906371782086
 30
0.0
 10
107.0167236060583
 20
-115.3287054833206
 30
0.0
 10
106.9591905114547
 20
-115.3287054833206
 30
0.0
 10
106.9426540531255
 20
-115.3287054833206
 30
0.0
 10
106.9333522953153
 20
-115.3478257632637
 30
0.0
 10
106.9130262319523
 20
-115.3879611256669
 30
0.0
 10
106.8871880158129
 20
-115.4282687428443
 30
0.0
 10
107.2372097171143
 20
-115.4218953161966
 30
0.0
 10
107.2630479332537
 20
-115.4196560041312
 30
0.0
 10
107.329538276119
 20
-115.4134548322578
 30
0.0
 10
107.329538276119
 20
-115.4134548322578
 30
0.0
 10
107.329538276119
 20
-115.5953558738789
 30
0.0
 10
107.329538276119
 20
-115.5953558738789
 30
0.0
 10
107.3130018177898
 20
-115.5953558738789
 30
0.0
 10
107.2906086971357
 20
-115.5931165618135
 30
0.0
 10
107.0980278595102
 20
-115.5846760778747
 30
0.0
 10
107.0535861277505
 20
-115.5826090205835
 30
0.0
 10
106.861005290125
 20
-115.5784749060012
 30
0.0
 10
106.8224202206902
 20
-115.5784749060012
 30
0.0
 10
106.8224202206902
 20
-115.5784749060012
 30
0.0
 10
106.63328447855
 20
-115.5784749060012
 30
0.0
 10
106.63328447855
 20
-115.5784749060012
 30
0.0
 10
106.63328447855
 20
-115.5784749060012
 30
0.0
 10
106.63328447855
 20
-115.6968139359196
 30
0.0
 10
106.63328447855
 20
-115.6968139359196
 30
0.0
 10
106.63328447855
 20
-115.6968139359196
 30
0.0
 10
106.7852131894495
 20
-115.6968139359196
 30
0.0
 10
106.7852131894495
 20
-115.6968139359196
 30
0.0
 10
106.9278401425389
 20
-115.6968139359196
 30
0.0
 10
107.094582764025
 20
-115.6968139359196
 30
0.0
 10
107.2313530547894
 20
-115.6863063946895
 30
0.0
 10
107.2313530547894
 20
-115.6863063946895
 30
0.0
 10
107.2313530547894
 20
-115.8576998950807
 30
0.0
 10
107.2313530547894
 20
-115.8576998950807
 30
0.0
 10
107.0480739749741
 20
-115.8492594111419
 30
0.0
 10
106.8758192007116
 20
-115.8470200990764
 30
0.0
 10
106.7852131894495
 20
-115.8470200990764
 30
0.0
 10
106.7852131894495
 20
-115.8470200990764
 30
0.0
 10
106.63328447855
 20
-115.8470200990764
 30
0.0
 10
106.63328447855
 20
-115.8470200990764
 30
0.0
 10
106.63328447855
 20
-115.8470200990764
 30
0.0
 10
106.63328447855
 20
-115.955023842539
 30
0.0
 10
106.63328447855
 20
-115.955023842539
 30
0.0
 10
106.63328447855
 20
-115.955023842539
 30
0.0
 10
106.8351670739857
 20
-115.955023842539
 30
0.0
 10
106.8351670739857
 20
-115.955023842539
 30
0.0
 10
106.9519558109356
 20
-115.955023842539
 30
0.0
 10
107.2037922909074
 20
-115.9507174731825
 30
0.0
 10
107.3870713707227
 20
-115.9443440465348
 30
0.0
 10
107.3870713707227
 20
-115.9443440465348
 30
0.0
 10
107.3870713707227
 20
-116.1221109735736
 30
0.0
 10
107.3870713707227
 20
-116.1221109735736
 30
0.0
 10
107.218606201494
 20
-116.1157375469259
 30
0.0
 10
106.9443766008681
 20
-116.1114311775694
 30
0.0
 10
106.8351670739857
 20
-116.1114311775694
 30
0.0
  0
POLYLINE
  5
15F
330
156
100
AcDbEntity
  8
_U+30EC_U+30A4_U+30E4_U+30FC 1
370
     0
100
AcDb2dPolyline
 66
     1
 10
0.0
 20
0.0
 30
0.0
  0
VERTEX
  5
160
330
15F
100
AcDbEntity
  8
_U+30EC_U+30A4_U+30E4_U+30FC 1
370
     0
100
AcDbVertex
100
AcDb2dVertex
 10
106.9795165748176
 20
-116.3674017721234
 30
0.0
  0
VERTEX
  5
161
330
15F
100
AcDbEntity
  8
_U+30EC_U+30A4_U+30E4_U+30FC 1
370
     0
100
AcDbVertex
100
AcDb2dVertex
 10
106.3611219352153
 20
-116.3674017721234
 30
0.0
  0
VERTEX
  5
162
330
15F
100
AcDbEntity
  8
_U+30EC_U+30A4_U+30E4_U+30FC 1
370
     0
100
AcDbVertex
100
AcDb2dVertex
 10
106.3611219352153
 20
-116.475405515586
 30
0.0
  0
VERTEX
  5
163
330
15F
100
AcDbEntity
  8
_U+30EC_U+30A4_U+30E4_U+30FC 1
370
     0
100
AcDbVertex
100
AcDb2dVertex
 10
106.9795165748176
 20
-116.475405515586
 30
0.0
  0
VERTEX
  5
164
330
15F
100
AcDbEntity
  8
_U+30EC_U+30A4_U+30E4_U+30FC 1
370
     0
100
AcDbVertex
100
AcDb2dVertex
 10
106.9795165748176
 20
-116.3674017721234
 30
0.0
  0
SEQEND
  5
165
330
15F
100
AcDbEntity
  8
_U+30EC_U+30A4_U+30E4_U+30FC 1
370
     0
  0
POLYLINE
  5
166
330
156
100
AcDbEntity
  8
_U+30EC_U+30A4_U+30E4_U+30FC 1
370
     0
100
AcDb2dPolyline
 66
     1
 10
0.0
 20
0.0
 30
0.0
  0
VERTEX
  5
167
330
166
100
AcDbEntity
  8
_U+30EC_U+30A4_U+30E4_U+30FC 1
370
     0
100
AcDbVertex
100
AcDb2dVertex
 10
106.9795165748176
 20
-116.6001179721521
 30
0.0
  0
VERTEX
  5
168
330
166
100
AcDbEntity
  8
_U+30EC_U+30A4_U+30E4_U+30FC 1
370
     0
100
AcDbVertex
100
AcDb2dVertex
 10
106.3611219352153
 20
-116.6001179721521
 30
0.0
  0
VERTEX
  5
169
330
166
100
AcDbEntity
  8
_U+30EC_U+30A4_U+30E4_U+30FC 1
370
     0
100
AcDbVertex
100
AcDb2dVertex
 10
106.3611219352153
 20
-116.7144951422624
 30
0.0
  0
VERTEX
  5
16A
330
166
100
AcDbEntity
  8
_U+30EC_U+30A4_U+30E4_U+30FC 1
370
     0
100
AcDbVertex
100
AcDb2dVertex
 10
106.9795165748176
 20
-116.7144951422624
 30
0.0
  0
VERTEX
  5
16B
330
166
100
AcDbEntity
  8
_U+30EC_U+30A4_U+30E4_U+30FC 1
370
     0
100
AcDbVertex
100
AcDb2dVertex
 10
106.9795165748176
 20
-116.6001179721521
 30
0.0
  0
SEQEND
  5
16C
330
166
100
AcDbEntity
  8
_U+30EC_U+30A4_U+30E4_U+30FC 1
370
     0
  0
POLYLINE
  5
16D
330
156
100
AcDbEntity
  8
_U+30EC_U+30A4_U+30E4_U+30FC 1
370
     0
100
AcDb2dPolyline
 66
     1
 10
0.0
 20
0.0
 30
0.0
  0
VERTEX
  5
16E
330
16D
100
AcDbEntity
  8
_U+30EC_U+30A4_U+30E4_U+30FC 1
370
     0
100
AcDbVertex
100
AcDb2dVertex
 10
106.9795165748176
 20
-116.843513968185
 30
0.0
  0
VERTEX
  5
16F
330
16D
100
AcDbEntity
  8
_U+30EC_U+30A4_U+30E4_U+30FC 1
370
     0
100
AcDbVertex
100
AcDb2dVertex
 10
106.3611219352153
 20
-116.843513968185
 30
0.0
  0
VERTEX
  5
170
330
16D
100
AcDbEntity
  8
_U+30EC_U+30A4_U+30E4_U+30FC 1
370
     0
100
AcDbVertex
100
AcDb2dVertex
 10
106.3611219352153
 20
-116.957718883521
 30
0.0
  0
VERTEX
  5
171
330
16D
100
AcDbEntity
  8
_U+30EC_U+30A4_U+30E4_U+30FC 1
370
     0
100
AcDbVertex
100
AcDb2dVertex
 10
106.9795165748176
 20
-116.957718883521
 30
0.0
  0
VERTEX
  5
172
330
16D
100
AcDbEntity
  8
_U+30EC_U+30A4_U+30E4_U+30FC 1
370
     0
100
AcDbVertex
100
AcDb2dVertex
 10
106.9795165748176
 20
-116.843513968185
 30
0.0
  0
SEQEND
  5
173
330
16D
100
AcDbEntity
  8
_U+30EC_U+30A4_U+30E4_U+30FC 1
370
     0
  0
HATCH
  5
174
330
156
100
AcDbEntity
  8
_U+30EC_U+30A4_U+30E4_U+30FC 1
 62
   179
420
  2234388
100
AcDbHatch
 10
0.0
 20
0.0
 30
0.0
210
0.0
220
0.0
230
1.0
  2
SOLID
 70
     1
 71
     0
 91
        4
 92
        1
 93
        1
 72
     4
 94
        3
 73
     0
 74
     1
 95
      203
 96
      199
 40
0.0
 40
0.0
 40
0.0
 40
0.0
 40
1.0
 40
1.0
 40
1.0
 40
2.0
 40
2.0
 40
2.0
 40
3.0
 40
3.0
 40
3.0
 40
4.0
 40
4.0
 40
4.0
 40
5.0
 40
5.0
 40
5.0
 40
6.0
 40
6.0
 40
6.0
 40
7.0
 40
7.0
 40
7.0
 40
8.0
 40
8.0
 40
8.0
 40
9.0
 40
9.0
 40
9.0
 40
10.0
 40
10.0
 40
10.0
 40
11.0
 40
11.0
 40
11.0
 40
12.0
 40
12.0
 40
12.0
 40
13.0
 40
13.0
 40
13.0
 40
14.0
 40
14.0
 40
14.0
 40
15.0
 40
15.0
 40
15.0
 40
16.0
 40
16.0
 40
16.0
 40
17.0
 40
17.0
 40
17.0
 40
18.0
 40
18.0
 40
18.0
 40
19.0
 40
19.0
 40
19.0
 40
20.0
 40
20.0
 40
20.0
 40
21.0
 40
21.0
 40
21.0
 40
22.0
 40
22.0
 40
22.0
 40
23.0
 40
23.0
 40
23.0
 40
24.0
 40
24.0
 40
24.0
 40
25.0
 40
25.0
 40
25.0
 40
26.0
 40
26.0
 40
26.0
 40
27.0
 40
27.0
 40
27.0
 40
28.0
 40
28.0
 40
28.0
 40
29.0
 40
29.0
 40
29.0
 40
30.0
 40
30.0
 40
30.0
 40
31.0
 40
31.0
 40
31.0
 40
32.0
 40
32.0
 40
32.0
 40
33.0
 40
33.0
 40
33.0
 40
34.0
 40
34.0
 40
34.0
 40
35.0
 40
35.0
 40
35.0
 40
36.0
 40
36.0
 40
36.0
 40
37.0
 40
37.0
 40
37.0
 40
38.0
 40
38.0
 40
38.0
 40
39.0
 40
39.0
 40
39.0
 40
40.0
 40
40.0
 40
40.0
 40
41.0
 40
41.0
 40
41.0
 40
42.0
 40
42.0
 40
42.0
 40
43.0
 40
43.0
 40
43.0
 40
44.0
 40
44.0
 40
44.0
 40
45.0
 40
45.0
 40
45.0
 40
46.0
 40
46.0
 40
46.0
 40
47.0
 40
47.0
 40
47.0
 40
48.0
 40
48.0
 40
48.0
 40
49.0
 40
49.0
 40
49.0
 40
50.0
 40
50.0
 40
50.0
 40
51.0
 40
51.0
 40
51.0
 40
52.0
 40
52.0
 40
52.0
 40
53.0
 40
53.0
 40
53.0
 40
54.0
 40
54.0
 40
54.0
 40
55.0
 40
55.0
 40
55.0
 40
56.0
 40
56.0
 40
56.0
 40
57.0
 40
57.0
 40
57.0
 40
58.0
 40
58.0
 40
58.0
 40
59.0
 40
59.0
 40
59.0
 40
60.0
 40
60.0
 40
60.0
 40
61.0
 40
61.0
 40
61.0
 40
62.0
 40
62.0
 40
62.0
 40
63.0
 40
63.0
 40
63.0
 40
64.0
 40
64.0
 40
64.0
 40
65.0
 40
65.0
 40
65.0
 40
66.0
 40
66.0
 40
66.0
 40
66.0
 10
106.8351670739857
 20
-116.1114311775694
 10
106.8351670739857
 20
-116.1114311775694
 10
106.3463080246287
 20
-116.1114311775694
 10
106.3463080246287
 20
-116.1114311775694
 10
106.3370062668185
 20
-116.1558729093291
 10
106.3297715662995
 20
-116.1875677877934
 10
106.3187472607467
 20
-116.2258083476797
 10
106.3407958718523
 20
-116.2258083476797
 10
106.3538872346963
 20
-116.2278754049708
 10
106.3593993874726
 20
-116.2278754049708
 10
106.3593993874726
 20
-116.2278754049708
 10
106.5240749516676
 20
-116.2278754049708
 10
106.5240749516676
 20
-116.2278754049708
 10
106.5240749516676
 20
-116.2278754049708
 10
106.8520480418634
 20
-116.2278754049708
 10
106.8520480418634
 20
-116.2278754049708
 10
106.8961452640746
 20
-116.2278754049708
 10
107.1445366485611
 20
-116.2151285516754
 10
107.1720974124431
 20
-116.2151285516754
 10
107.1703748647005
 20
-116.2426893155574
 10
107.1686523169578
 20
-116.2616373407263
 10
107.1686523169578
 20
-116.2912651618994
 10
107.1665852596667
 20
-116.3229600403637
 10
107.1665852596667
 20
-116.458352292934
 10
107.1665852596667
 20
-116.485913056816
 10
107.1665852596667
 20
-116.485913056816
 10
107.1665852596667
 20
-116.7313761101401
 10
107.1665852596667
 20
-116.7313761101401
 10
107.1665852596667
 20
-116.7758178418998
 10
107.1703748647005
 20
-116.9725327941076
 10
107.1741644697342
 20
-117.1248060145556
 10
107.1741644697342
 20
-117.1248060145556
 10
106.9760714793324
 20
-117.1248060145556
 10
106.9760714793324
 20
-117.1248060145556
 10
106.9760714793324
 20
-117.1248060145556
 10
106.977794027075
 20
-117.0910440788002
 10
106.977794027075
 20
-117.0910440788002
 10
106.977794027075
 20
-117.0910440788002
 10
106.3628444829579
 20
-117.0910440788002
 10
106.3628444829579
 20
-117.0910440788002
 10
106.3628444829579
 20
-117.0910440788002
 10
106.3649115402491
 20
-117.1248060145556
 10
106.3649115402491
 20
-117.1248060145556
 10
106.3649115402491
 20
-117.1248060145556
 10
106.1740532503662
 20
-117.1248060145556
 10
106.1740532503662
 20
-117.1248060145556
 10
106.1778428554
 20
-117.0698567415659
 10
106.1778428554
 20
-117.0571098882704
 10
106.1833550081764
 20
-116.9429049729344
 10
106.185077555919
 20
-116.9153442090524
 10
106.1871446132102
 20
-116.7821912685475
 10
106.1871446132102
 20
-116.7630709886044
 10
106.1871446132102
 20
-116.7630709886044
 10
106.1871446132102
 20
-116.5599826097489
 10
106.1871446132102
 20
-116.5599826097489
 10
106.0648437234838
 20
-116.8095797776552
 10
105.9167046176181
 20
-116.9408379156433
 10
105.8240315490648
 20
-117.006294729863
 10
105.8240315490648
 20
-117.006294729863
 10
105.6724473477138
 20
-116.8667683627104
 10
105.6724473477138
 20
-116.8667683627104
 10
105.749961996132
 20
-116.815953204303
 10
105.8760524908921
 20
-116.7291367980747
 10
105.9962863233273
 20
-116.5346611579323
 10
106.0758680290366
 20
-116.4077093893009
 10
106.1334011236403
 20
-116.2638766527917
 10
106.1630289448134
 20
-116.1114311775694
 10
105.9632134066689
 20
-116.1136704896348
 10
105.805772542993
 20
-116.1200439162825
 10
105.72240123225
 20
-116.1221109735736
 10
105.72240123225
 20
-116.1221109735736
 10
105.72240123225
 20
-115.9443440465348
 10
105.72240123225
 20
-115.9443440465348
 10
105.8946560065124
 20
-115.9507174731825
 10
106.1427028814504
 20
-115.955023842539
 10
106.2739610194385
 20
-115.955023842539
 10
106.2739610194385
 20
-115.955023842539
 10
106.4610297042875
 20
-115.955023842539
 10
106.4610297042875
 20
-115.955023842539
 10
106.4610297042875
 20
-115.955023842539
 10
106.4610297042875
 20
-115.8470200990764
 10
106.4610297042875
 20
-115.8470200990764
 10
106.4610297042875
 20
-115.8470200990764
 10
106.3332166617848
 20
-115.8470200990764
 10
106.3332166617848
 20
-115.8470200990764
 10
106.185077555919
 20
-115.8470200990764
 10
106.0369384500533
 20
-115.851326468433
 10
105.8908664014787
 20
-115.8576998950807
 10
105.8908664014787
 20
-115.8576998950807
 10
105.8908664014787
 20
-115.6863063946895
 10
105.8908664014787
 20
-115.6863063946895
 10
106.0259141445005
 20
-115.6968139359196
 10
106.1888671609528
 20
-115.6968139359196
 10
106.3332166617848
 20
-115.6968139359196
 10
106.3332166617848
 20
-115.6968139359196
 10
106.4610297042875
 20
-115.6968139359196
 10
106.4610297042875
 20
-115.6968139359196
 10
106.4610297042875
 20
-115.6968139359196
 10
106.4610297042875
 20
-115.5784749060012
 10
106.4610297042875
 20
-115.5784749060012
 10
106.4610297042875
 20
-115.5784749060012
 10
106.3463080246287
 20
-115.5784749060012
 10
106.3463080246287
 20
-115.5784749060012
 10
106.3056558979028
 20
-115.5784749060012
 10
106.1278889708639
 20
-115.5869153899401
 10
106.0906819396232
 20
-115.5869153899401
 10
105.9129150125843
 20
-115.5910495045224
 10
105.846424669719
 20
-115.5931165618135
 10
105.7778672695625
 20
-115.5953558738789
 10
105.7778672695625
 20
-115.5953558738789
 10
105.7778672695625
 20
-115.4112155201923
 10
105.7778672695625
 20
-115.4112155201923
 10
105.8777750386347
 20
-115.4196560041312
 10
105.9167046176181
 20
-115.4196560041312
 10
106.2519124083329
 20
-115.4282687428443
 10
106.1964463710203
 20
-115.3330118526772
 10
106.1723307026236
 20
-115.3054510887952
 10
106.1409803337078
 20
-115.2694498409743
 10
106.1409803337078
 20
-115.2694498409743
 10
106.29463159235
 20
-115.1869398041026
 10
106.29463159235
 20
-115.1869398041026
 10
106.3297715662995
 20
-115.2229410519234
 10
106.3687011452828
 20
-115.265315726392
 10
106.4334689404055
 20
-115.3752142723715
 10
106.4334689404055
 20
-115.3752142723715
 10
106.3332166617848
 20
-115.4303358001355
 10
106.3332166617848
 20
-115.4303358001355
 10
106.3332166617848
 20
-115.4303358001355
 10
106.3425184195949
 20
-115.4303358001355
 10
106.3425184195949
 20
-115.4303358001355
 10
106.3425184195949
 20
-115.4303358001355
 10
106.8000271000361
 20
-115.4303358001355
 10
106.8000271000361
 20
-115.4303358001355
 10
106.8000271000361
 20
-115.4303358001355
 10
106.7166557892931
 20
-115.3858940683757
 10
106.7166557892931
 20
-115.3858940683757
 10
106.7407714576898
 20
-115.3478257632637
 10
106.7907253422259
 20
-115.2673827836832
 10
106.8038167050699
 20
-115.1933132307503
 10
106.8038167050699
 20
-115.1933132307503
 10
106.9908853899189
 20
-115.2568752424531
 10
106.9908853899189
 20
-115.2568752424531
 10
106.998120090438
 20
-115.2589422997443
 10
107.0167236060583
 20
-115.2694498409743
 10
107.0167236060583
 20
-115.2906371782086
 10
107.0167236060583
 20
-115.3287054833206
 10
106.9591905114547
 20
-115.3287054833206
 10
106.9426540531255
 20
-115.3287054833206
 10
106.9333522953153
 20
-115.3478257632637
 10
106.9130262319523
 20
-115.3879611256669
 10
106.8871880158129
 20
-115.4282687428443
 10
107.2372097171143
 20
-115.4218953161966
 10
107.2630479332537
 20
-115.4196560041312
 10
107.329538276119
 20
-115.4134548322578
 10
107.329538276119
 20
-115.4134548322578
 10
107.329538276119
 20
-115.5953558738789
 10
107.329538276119
 20
-115.5953558738789
 10
107.3130018177898
 20
-115.5953558738789
 10
107.2906086971357
 20
-115.5931165618135
 10
107.0980278595102
 20
-115.5846760778747
 10
107.0535861277505
 20
-115.5826090205835
 10
106.861005290125
 20
-115.5784749060012
 10
106.8224202206902
 20
-115.5784749060012
 10
106.8224202206902
 20
-115.5784749060012
 10
106.63328447855
 20
-115.5784749060012
 10
106.63328447855
 20
-115.5784749060012
 10
106.63328447855
 20
-115.5784749060012
 10
106.63328447855
 20
-115.6968139359196
 10
106.63328447855
 20
-115.6968139359196
 10
106.63328447855
 20
-115.6968139359196
 10
106.7852131894495
 20
-115.6968139359196
 10
106.7852131894495
 20
-115.6968139359196
 10
106.9278401425389
 20
-115.6968139359196
 10
107.094582764025
 20
-115.6968139359196
 10
107.2313530547894
 20
-115.6863063946895
 10
107.2313530547894
 20
-115.6863063946895
 10
107.2313530547894
 20
-115.8576998950807
 10
107.2313530547894
 20
-115.8576998950807
 10
107.0480739749741
 20
-115.8492594111419
 10
106.8758192007116
 20
-115.8470200990764
 10
106.7852131894495
 20
-115.8470200990764
 10
106.7852131894495
 20
-115.8470200990764
 10
106.63328447855
 20
-115.8470200990764
 10
106.63328447855
 20
-115.8470200990764
 10
106.63328447855
 20
-115.8470200990764
 10
106.63328447855
 20
-115.955023842539
 10
106.63328447855
 20
-115.955023842539
 10
106.63328447855
 20
-115.955023842539
 10
106.8351670739857
 20
-115.955023842539
 10
106.8351670739857
 20
-115.955023842539
 10
106.9519558109356
 20
-115.955023842539
 10
107.2037922909074
 20
-115.9507174731825
 10
107.3870713707227
 20
-115.9443440465348
 10
107.3870713707227
 20
-115.9443440465348
 10
107.3870713707227
 20
-116.1221109735736
 10
107.3870713707227
 20
-116.1221109735736
 10
107.218606201494
 20
-116.1157375469259
 10
106.9443766008681
 20
-116.1114311775694
 10
106.8351670739857
 20
-116.1114311775694
 97
        0
 97
        0
 92
        1
 93
        4
 72
     1
 10
106.9795165748176
 20
-116.3674017721234
 11
106.3611219352153
 21
-116.3674017721234
 72
     1
 10
106.3611219352153
 20
-116.3674017721234
 11
106.3611219352153
 21
-116.475405515586
 72
     1
 10
106.3611219352153
 20
-116.475405515586
 11
106.9795165748176
 21
-116.475405515586
 72
     1
 10
106.9795165748176
 20
-116.475405515586
 11
106.9795165748176
 21
-116.3674017721234
 97
        0
 92
        1
 93
        4
 72
     1
 10
106.9795165748176
 20
-116.6001179721521
 11
106.3611219352153
 21
-116.6001179721521
 72
     1
 10
106.3611219352153
 20
-116.6001179721521
 11
106.3611219352153
 21
-116.7144951422624
 72
     1
 10
106.3611219352153
 20
-116.7144951422624
 11
106.9795165748176
 21
-116.7144951422624
 72
     1
 10
106.9795165748176
 20
-116.7144951422624
 11
106.9795165748176
 21
-116.6001179721521
 97
        0
 92
        1
 93
        4
 72
     1
 10
106.9795165748176
 20
-116.843513968185
 11
106.3611219352153
 21
-116.843513968185
 72
     1
 10
106.3611219352153
 20
-116.843513968185
 11
106.3611219352153
 21
-116.957718883521
 72
     1
 10
106.3611219352153
 20
-116.957718883521
 11
106.9795165748176
 21
-116.957718883521
 72
     1
 10
106.9795165748176
 20
-116.957718883521
 11
106.9795165748176
 21
-116.843513968185
 97
        0
 75
     2
 76
     1
 98
        0
  0
SPLINE
  5
175
330
156
100
AcDbEntity
  8
_U+30EC_U+30A4_U+30E4_U+30FC 1
370
     0
100
AcDbSpline
210
0.0
220
0.0
230
1.0
 70
    11
 71
     3
 72
    47
 73
    43
 74
     0
 42
0.0000000001
 43
0.0000000001
 12
1.0
 22
0.0
 32
0.0
 13
1.0
 23
0.0
 33
0.0
 40
0.0
 40
0.0
 40
0.0
 40
0.0
 40
1.0
 40
1.0
 40
1.0
 40
2.0
 40
2.0
 40
2.0
 40
3.0
 40
3.0
 40
3.0
 40
4.0
 40
4.0
 40
4.0
 40
5.0
 40
5.0
 40
5.0
 40
6.0
 40
6.0
 40
6.0
 40
7.0
 40
7.0
 40
7.0
 40
8.0
 40
8.0
 40
8.0
 40
9.0
 40
9.0
 40
9.0
 40
10.0
 40
10.0
 40
10.0
 40
11.0
 40
11.0
 40
11.0
 40
12.0
 40
12.0
 40
12.0
 40
13.0
 40
13.0
 40
13.0
 40
14.0
 40
14.0
 40
14.0
 40
14.0
 10
108.5670165744207
 20
-116.0881767830439
 30
0.0
 10
108.5670165744207
 20
-116.0881767830439
 30
0.0
 10
108.4781331109013
 20
-116.0881767830439
 30
0.0
 10
108.4781331109013
 20
-116.0881767830439
 30
0.0
 10
108.4781331109013
 20
-116.1749931892722
 30
0.0
 10
108.459529595281
 20
-116.5642889791055
 30
0.0
 10
108.2872748210185
 20
-116.7842583258387
 30
0.0
 10
108.1539496257393
 20
-116.9534125141644
 30
0.0
 10
107.9723930936666
 20
-117.023347952515
 30
0.0
 10
107.8983235407338
 20
-117.0507364616227
 30
0.0
 10
107.8983235407338
 20
-117.0507364616227
 30
0.0
 10
107.7281358237624
 20
-116.8836493305881
 30
0.0
 10
107.7281358237624
 20
-116.8836493305881
 30
0.0
 10
107.8132296822481
 20
-116.8709024772927
 30
0.0
 10
107.9668809408902
 20
-116.8476480827673
 30
0.0
 10
108.1315565050852
 20
-116.6593736144983
 30
0.0
 10
108.1966688097564
 20
-116.5875433736309
 30
0.0
 10
108.2872748210185
 20
-116.447844751704
 30
0.0
 10
108.2872748210185
 20
-116.0881767830439
 30
0.0
 10
108.2872748210185
 20
-116.0881767830439
 30
0.0
 10
108.0853922255828
 20
-116.0881767830439
 30
0.0
 10
108.0853922255828
 20
-116.0881767830439
 30
0.0
 10
107.9224392091305
 20
-116.0881767830439
 30
0.0
 10
107.7594861926782
 20
-116.0924831524005
 30
0.0
 10
107.5965331762259
 20
-116.1072970629871
 30
0.0
 10
107.5965331762259
 20
-116.1072970629871
 30
0.0
 10
107.5965331762259
 20
-115.8873277162539
 30
0.0
 10
107.5965331762259
 20
-115.8873277162539
 30
0.0
 10
107.7615532499693
 20
-115.9021416268404
 30
0.0
 10
108.01132267265
 20
-115.9062757414227
 30
0.0
 10
108.0853922255828
 20
-115.9062757414227
 30
0.0
 10
108.0853922255828
 20
-115.9062757414227
 30
0.0
 10
108.5670165744207
 20
-115.9062757414227
 30
0.0
 10
108.5670165744207
 20
-115.9062757414227
 30
0.0
 10
108.5835530327499
 20
-115.9062757414227
 30
0.0
 10
108.8612277288611
 20
-115.9062757414227
 30
0.0
 10
109.0613877765541
 20
-115.8873277162539
 30
0.0
 10
109.0613877765541
 20
-115.8873277162539
 30
0.0
 10
109.0613877765541
 20
-116.1072970629871
 30
0.0
 10
109.0613877765541
 20
-116.1072970629871
 30
0.0
 10
108.8963677028106
 20
-116.0924831524005
 30
0.0
 10
108.7316921386157
 20
-116.0881767830439
 30
0.0
 10
108.5670165744207
 20
-116.0881767830439
 30
0.0
  0
SPLINE
  5
176
330
156
100
AcDbEntity
  8
_U+30EC_U+30A4_U+30E4_U+30FC 1
370
     0
100
AcDbSpline
210
0.0
220
0.0
230
1.0
 70
    11
 71
     3
 72
    29
 73
    25
 74
     0
 42
0.0000000001
 43
0.0000000001
 12
1.0
 22
0.0
 32
0.0
 13
1.0
 23
0.0
 33
0.0
 40
0.0
 40
0.0
 40
0.0
 40
0.0
 40
1.0
 40
1.0
 40
1.0
 40
2.0
 40
2.0
 40
2.0
 40
3.0
 40
3.0
 40
3.0
 40
4.0
 40
4.0
 40
4.0
 40
5.0
 40
5.0
 40
5.0
 40
6.0
 40
6.0
 40
6.0
 40
7.0
 40
7.0
 40
7.0
 40
8.0
 40
8.0
 40
8.0
 40
8.0
 10
108.4781331109013
 20
-115.5593546260581
 30
0.0
 10
108.4781331109013
 20
-115.5593546260581
 30
0.0
 10
108.1687635363259
 20
-115.5593546260581
 30
0.0
 10
108.1687635363259
 20
-115.5593546260581
 30
0.0
 10
108.0705783149963
 20
-115.5593546260581
 30
0.0
 10
107.9482774252699
 20
-115.5657280527058
 30
0.0
 10
107.853881808974
 20
-115.5784749060012
 30
0.0
 10
107.853881808974
 20
-115.5784749060012
 30
0.0
 10
107.853881808974
 20
-115.3435193939072
 30
0.0
 10
107.853881808974
 20
-115.3435193939072
 30
0.0
 10
107.9575791830801
 20
-115.3583333044938
 30
0.0
 10
108.1188096517897
 20
-115.3626396738503
 30
0.0
 10
108.1687635363259
 20
-115.3626396738503
 30
0.0
 10
108.1687635363259
 20
-115.3626396738503
 30
0.0
 10
108.4781331109013
 20
-115.3626396738503
 30
0.0
 10
108.4781331109013
 20
-115.3626396738503
 30
0.0
 10
108.4946695692305
 20
-115.3626396738503
 30
0.0
 10
108.6724364962694
 20
-115.3626396738503
 30
0.0
 10
108.7964599337384
 20
-115.3435193939072
 30
0.0
 10
108.7964599337384
 20
-115.3435193939072
 30
0.0
 10
108.7964599337384
 20
-115.5784749060012
 30
0.0
 10
108.7964599337384
 20
-115.5784749060012
 30
0.0
 10
108.6593451334254
 20
-115.5593546260581
 30
0.0
 10
108.4929470214879
 20
-115.5593546260581
 30
0.0
 10
108.4781331109013
 20
-115.5593546260581
 30
0.0
  0
HATCH
  5
177
330
156
100
AcDbEntity
  8
_U+30EC_U+30A4_U+30E4_U+30FC 1
 62
   179
420
  2234388
100
AcDbHatch
 10
0.0
 20
0.0
 30
0.0
210
0.0
220
0.0
230
1.0
  2
SOLID
 70
     1
 71
     0
 91
        2
 92
        1
 93
        1
 72
     4
 94
        3
 73
     0
 74
     1
 95
       47
 96
       43
 40
0.0
 40
0.0
 40
0.0
 40
0.0
 40
1.0
 40
1.0
 40
1.0
 40
2.0
 40
2.0
 40
2.0
 40
3.0
 40
3.0
 40
3.0
 40
4.0
 40
4.0
 40
4.0
 40
5.0
 40
5.0
 40
5.0
 40
6.0
 40
6.0
 40
6.0
 40
7.0
 40
7.0
 40
7.0
 40
8.0
 40
8.0
 40
8.0
 40
9.0
 40
9.0
 40
9.0
 40
10.0
 40
10.0
 40
10.0
 40
11.0
 40
11.0
 40
11.0
 40
12.0
 40
12.0
 40
12.0
 40
13.0
 40
13.0
 40
13.0
 40
14.0
 40
14.0
 40
14.0
 40
14.0
 10
108.5670165744207
 20
-116.0881767830439
 10
108.5670165744207
 20
-116.0881767830439
 10
108.4781331109013
 20
-116.0881767830439
 10
108.4781331109013
 20
-116.0881767830439
 10
108.4781331109013
 20
-116.1749931892722
 10
108.459529595281
 20
-116.5642889791055
 10
108.2872748210185
 20
-116.7842583258387
 10
108.1539496257393
 20
-116.9534125141644
 10
107.9723930936666
 20
-117.023347952515
 10
107.8983235407338
 20
-117.0507364616227
 10
107.8983235407338
 20
-117.0507364616227
 10
107.7281358237624
 20
-116.8836493305881
 10
107.7281358237624
 20
-116.8836493305881
 10
107.8132296822481
 20
-116.8709024772927
 10
107.9668809408902
 20
-116.8476480827673
 10
108.1315565050852
 20
-116.6593736144983
 10
108.1966688097564
 20
-116.5875433736309
 10
108.2872748210185
 20
-116.447844751704
 10
108.2872748210185
 20
-116.0881767830439
 10
108.2872748210185
 20
-116.0881767830439
 10
108.0853922255828
 20
-116.0881767830439
 10
108.0853922255828
 20
-116.0881767830439
 10
107.9224392091305
 20
-116.0881767830439
 10
107.7594861926782
 20
-116.0924831524005
 10
107.5965331762259
 20
-116.1072970629871
 10
107.5965331762259
 20
-116.1072970629871
 10
107.5965331762259
 20
-115.8873277162539
 10
107.5965331762259
 20
-115.8873277162539
 10
107.7615532499693
 20
-115.9021416268404
 10
108.01132267265
 20
-115.9062757414227
 10
108.0853922255828
 20
-115.9062757414227
 10
108.0853922255828
 20
-115.9062757414227
 10
108.5670165744207
 20
-115.9062757414227
 10
108.5670165744207
 20
-115.9062757414227
 10
108.5835530327499
 20
-115.9062757414227
 10
108.8612277288611
 20
-115.9062757414227
 10
109.0613877765541
 20
-115.8873277162539
 10
109.0613877765541
 20
-115.8873277162539
 10
109.0613877765541
 20
-116.1072970629871
 10
109.0613877765541
 20
-116.1072970629871
 10
108.8963677028106
 20
-116.0924831524005
 10
108.7316921386157
 20
-116.0881767830439
 10
108.5670165744207
 20
-116.0881767830439
 97
        0
 97
        0
 92
        1
 93
        1
 72
     4
 94
        3
 73
     0
 74
     1
 95
       29
 96
       25
 40
0.0
 40
0.0
 40
0.0
 40
0.0
 40
1.0
 40
1.0
 40
1.0
 40
2.0
 40
2.0
 40
2.0
 40
3.0
 40
3.0
 40
3.0
 40
4.0
 40
4.0
 40
4.0
 40
5.0
 40
5.0
 40
5.0
 40
6.0
 40
6.0
 40
6.0
 40
7.0
 40
7.0
 40
7.0
 40
8.0
 40
8.0
 40
8.0
 40
8.0
 10
108.4781331109013
 20
-115.5593546260581
 10
108.4781331109013
 20
-115.5593546260581
 10
108.1687635363259
 20
-115.5593546260581
 10
108.1687635363259
 20
-115.5593546260581
 10
108.0705783149963
 20
-115.5593546260581
 10
107.9482774252699
 20
-115.5657280527058
 10
107.853881808974
 20
-115.5784749060012
 10
107.853881808974
 20
-115.5784749060012
 10
107.853881808974
 20
-115.3435193939072
 10
107.853881808974
 20
-115.3435193939072
 10
107.9575791830801
 20
-115.3583333044938
 10
108.1188096517897
 20
-115.3626396738503
 10
108.1687635363259
 20
-115.3626396738503
 10
108.1687635363259
 20
-115.3626396738503
 10
108.4781331109013
 20
-115.3626396738503
 10
108.4781331109013
 20
-115.3626396738503
 10
108.4946695692305
 20
-115.3626396738503
 10
108.6724364962694
 20
-115.3626396738503
 10
108.7964599337384
 20
-115.3435193939072
 10
108.7964599337384
 20
-115.3435193939072
 10
108.7964599337384
 20
-115.5784749060012
 10
108.7964599337384
 20
-115.5784749060012
 10
108.6593451334254
 20
-115.5593546260581
 10
108.4929470214879
 20
-115.5593546260581
 10
108.4781331109013
 20
-115.5593546260581
 97
        0
 97
        0
 75
     2
 76
     1
 98
        0
  0
SPLINE
  5
178
330
156
100
AcDbEntity
  8
_U+30EC_U+30A4_U+30E4_U+30FC 1
370
     0
100
AcDbSpline
210
0.0
220
0.0
230
1.0
 70
    11
 71
     3
 72
    29
 73
    25
 74
     0
 42
0.0000000001
 43
0.0000000001
 12
1.0
 22
0.0
 32
0.0
 13
1.0
 23
0.0
 33
0.0
 40
0.0
 40
0.0
 40
0.0
 40
0.0
 40
1.0
 40
1.0
 40
1.0
 40
2.0
 40
2.0
 40
2.0
 40
3.0
 40
3.0
 40
3.0
 40
4.0
 40
4.0
 40
4.0
 40
5.0
 40
5.0
 40
5.0
 40
6.0
 40
6.0
 40
6.0
 40
7.0
 40
7.0
 40
7.0
 40
8.0
 40
8.0
 40
8.0
 40
8.0
 10
110.1834553761
 20
-116.2511297994963
 30
0.0
 10
110.1834553761
 20
-116.2511297994963
 30
0.0
 10
109.7597086314142
 20
-116.2511297994963
 30
0.0
 10
109.7597086314142
 20
-116.2511297994963
 30
0.0
 10
109.7355929630175
 20
-116.2511297994963
 30
0.0
 10
109.4579182669064
 20
-116.2511297994963
 30
0.0
 10
109.2725721297999
 20
-116.2764512513128
 30
0.0
 10
109.2725721297999
 20
-116.2764512513128
 30
0.0
 10
109.2725721297999
 20
-116.0459743633496
 30
0.0
 10
109.2725721297999
 20
-116.0459743633496
 30
0.0
 10
109.4114094778555
 20
-116.0692287578751
 30
0.0
 10
109.5781520993416
 20
-116.0712958151662
 30
0.0
 10
109.7597086314142
 20
-116.0712958151662
 30
0.0
 10
109.7597086314142
 20
-116.0712958151662
 30
0.0
 10
110.1834553761
 20
-116.0712958151662
 30
0.0
 10
110.1834553761
 20
-116.0712958151662
 30
0.0
 10
110.3467529021008
 20
-116.0712958151662
 30
0.0
 10
110.5093614090046
 20
-116.0692287578751
 30
0.0
 10
110.6705918777143
 20
-116.0459743633496
 30
0.0
 10
110.6705918777143
 20
-116.0459743633496
 30
0.0
 10
110.6705918777143
 20
-116.2764512513128
 30
0.0
 10
110.6705918777143
 20
-116.2764512513128
 30
0.0
 10
110.5093614090046
 20
-116.2531968567874
 30
0.0
 10
110.2930094125309
 20
-116.2511297994963
 30
0.0
 10
110.1834553761
 20
-116.2511297994963
 30
0.0
  0
HATCH
  5
179
330
156
100
AcDbEntity
  8
_U+30EC_U+30A4_U+30E4_U+30FC 1
 62
   179
420
  2234388
100
AcDbHatch
 10
0.0
 20
0.0
 30
0.0
210
0.0
220
0.0
230
1.0
  2
SOLID
 70
     1
 71
     0
 91
        1
 92
        1
 93
        1
 72
     4
 94
        3
 73
     0
 74
     1
 95
       29
 96
       25
 40
0.0
 40
0.0
 40
0.0
 40
0.0
 40
1.0
 40
1.0
 40
1.0
 40
2.0
 40
2.0
 40
2.0
 40
3.0
 40
3.0
 40
3.0
 40
4.0
 40
4.0
 40
4.0
 40
5.0
 40
5.0
 40
5.0
 40
6.0
 40
6.0
 40
6.0
 40
7.0
 40
7.0
 40
7.0
 40
8.0
 40
8.0
 40
8.0
 40
8.0
 10
110.1834553761
 20
-116.2511297994963
 10
110.1834553761
 20
-116.2511297994963
 10
109.7597086314142
 20
-116.2511297994963
 10
109.7597086314142
 20
-116.2511297994963
 10
109.7355929630175
 20
-116.2511297994963
 10
109.4579182669064
 20
-116.2511297994963
 10
109.2725721297999
 20
-116.2764512513128
 10
109.2725721297999
 20
-116.2764512513128
 10
109.2725721297999
 20
-116.0459743633496
 10
109.2725721297999
 20
-116.0459743633496
 10
109.4114094778555
 20
-116.0692287578751
 10
109.5781520993416
 20
-116.0712958151662
 10
109.7597086314142
 20
-116.0712958151662
 10
109.7597086314142
 20
-116.0712958151662
 10
110.1834553761
 20
-116.0712958151662
 10
110.1834553761
 20
-116.0712958151662
 10
110.3467529021008
 20
-116.0712958151662
 10
110.5093614090046
 20
-116.0692287578751
 10
110.6705918777143
 20
-116.0459743633496
 10
110.6705918777143
 20
-116.0459743633496
 10
110.6705918777143
 20
-116.2764512513128
 10
110.6705918777143
 20
-116.2764512513128
 10
110.5093614090046
 20
-116.2531968567874
 10
110.2930094125309
 20
-116.2511297994963
 10
110.1834553761
 20
-116.2511297994963
 97
        0
 97
        0
 75
     2
 76
     1
 98
        0
  0
SPLINE
  5
17A
330
156
100
AcDbEntity
  8
_U+30EC_U+30A4_U+30E4_U+30FC 1
370
     0
100
AcDbSpline
210
0.0
220
0.0
230
1.0
 70
    11
 71
     3
 72
    44
 73
    40
 74
     0
 42
0.0000000001
 43
0.0000000001
 12
1.0
 22
0.0
 32
0.0
 13
1.0
 23
0.0
 33
0.0
 40
0.0
 40
0.0
 40
0.0
 40
0.0
 40
1.0
 40
1.0
 40
1.0
 40
2.0
 40
2.0
 40
2.0
 40
3.0
 40
3.0
 40
3.0
 40
4.0
 40
4.0
 40
4.0
 40
5.0
 40
5.0
 40
5.0
 40
6.0
 40
6.0
 40
6.0
 40
7.0
 40
7.0
 40
7.0
 40
8.0
 40
8.0
 40
8.0
 40
9.0
 40
9.0
 40
9.0
 40
10.0
 40
10.0
 40
10.0
 40
11.0
 40
11.0
 40
11.0
 40
12.0
 40
12.0
 40
12.0
 40
13.0
 40
13.0
 40
13.0
 40
13.0
 10
112.120632567456
 20
-115.813258163321
 30
0.0
 10
112.0224473461263
 20
-116.1813666159199
 30
0.0
 10
111.9780056143666
 20
-116.3400132630157
 30
0.0
 10
111.8057508401041
 20
-116.5896104309221
 30
0.0
 10
111.644864880943
 20
-116.8202595736595
 30
0.0
 10
111.4374701327309
 20
-117.006294729863
 30
0.0
 10
111.1928683532782
 20
-117.099484562739
 30
0.0
 10
111.1928683532782
 20
-117.099484562739
 30
0.0
 10
111.0244031840495
 20
-116.919650578409
 30
0.0
 10
111.0244031840495
 20
-116.919650578409
 30
0.0
 10
111.5856092385967
 20
-116.7673773579609
 30
0.0
 10
111.8743082402606
 20
-116.2109944370931
 30
0.0
 10
111.9301187871216
 20
-115.7708834888524
 30
0.0
 10
111.9301187871216
 20
-115.7708834888524
 30
0.0
 10
111.259703205692
 20
-115.7708834888524
 30
0.0
 10
111.259703205692
 20
-115.7708834888524
 30
0.0
 10
111.1780544426916
 20
-115.7708834888524
 30
0.0
 10
111.0171684835304
 20
-115.775189858209
 30
0.0
 10
110.8800536832175
 20
-115.7941378833779
 30
0.0
 10
110.8800536832175
 20
-115.7941378833779
 30
0.0
 10
110.8800536832175
 20
-115.5741685366447
 30
0.0
 10
110.8800536832175
 20
-115.5741685366447
 30
0.0
 10
110.955845783893
 20
-115.5953558738789
 30
0.0
 10
111.176331894949
 20
-115.5953558738789
 30
0.0
 10
111.2631483011773
 20
-115.5953558738789
 30
0.0
 10
111.2631483011773
 20
-115.5953558738789
 30
0.0
 10
111.6410752759092
 20
-115.5953558738789
 30
0.0
 10
111.6410752759092
 20
-115.5953558738789
 30
0.0
 10
111.6779377976014
 20
-115.5953558738789
 30
0.0
 10
111.8836099980708
 20
-115.5931165618135
 30
0.0
 10
111.9170274242777
 20
-115.5869153899401
 30
0.0
 10
111.9538899459699
 20
-115.5805419632924
 30
0.0
 10
111.955957003261
 20
-115.5784749060012
 30
0.0
 10
112.0097004928309
 20
-115.5381672888238
 30
0.0
 10
112.0097004928309
 20
-115.5381672888238
 30
0.0
 10
112.1743760570259
 20
-115.6926798213373
 30
0.0
 10
112.1743760570259
 20
-115.6926798213373
 30
0.0
 10
112.1485378408865
 20
-115.7223076425104
 30
0.0
 10
112.1354464780425
 20
-115.7540025209747
 30
0.0
 10
112.120632567456
 20
-115.813258163321
 30
0.0
  0
SPLINE
  5
17B
330
156
100
AcDbEntity
  8
_U+30EC_U+30A4_U+30E4_U+30FC 1
370
     0
100
AcDbSpline
210
0.0
220
0.0
230
1.0
 70
    11
 71
     3
 72
    17
 73
    13
 74
     0
 42
0.0000000001
 43
0.0000000001
 12
1.0
 22
0.0
 32
0.0
 13
1.0
 23
0.0
 33
0.0
 40
0.0
 40
0.0
 40
0.0
 40
0.0
 40
1.0
 40
1.0
 40
1.0
 40
2.0
 40
2.0
 40
2.0
 40
3.0
 40
3.0
 40
3.0
 40
4.0
 40
4.0
 40
4.0
 40
4.0
 10
112.3039116472712
 20
-115.6143038990478
 30
0.0
 10
112.1929795726462
 20
-115.6143038990478
 30
0.0
 10
112.1040961091268
 20
-115.5128458370072
 30
0.0
 10
112.1040961091268
 20
-115.3858940683757
 30
0.0
 10
112.1040961091268
 20
-115.2589422997443
 30
0.0
 10
112.1929795726462
 20
-115.1552449256383
 30
0.0
 10
112.3039116472712
 20
-115.1552449256383
 30
0.0
 10
112.4151882314448
 20
-115.1552449256383
 30
0.0
 10
112.5057942427069
 20
-115.2589422997443
 30
0.0
 10
112.5057942427069
 20
-115.3858940683757
 30
0.0
 10
112.5057942427069
 20
-115.5128458370072
 30
0.0
 10
112.4151882314448
 20
-115.6143038990478
 30
0.0
 10
112.3039116472712
 20
-115.6143038990478
 30
0.0
  0
SPLINE
  5
17C
330
156
100
AcDbEntity
  8
_U+30EC_U+30A4_U+30E4_U+30FC 1
370
     0
100
AcDbSpline
210
0.0
220
0.0
230
1.0
 70
    11
 71
     3
 72
    17
 73
    13
 74
     0
 42
0.0000000001
 43
0.0000000001
 12
1.0
 22
0.0
 32
0.0
 13
1.0
 23
0.0
 33
0.0
 40
0.0
 40
0.0
 40
0.0
 40
0.0
 40
1.0
 40
1.0
 40
1.0
 40
2.0
 40
2.0
 40
2.0
 40
3.0
 40
3.0
 40
3.0
 40
4.0
 40
4.0
 40
4.0
 40
4.0
 10
112.3021890995286
 20
-115.2842637515609
 30
0.0
 10
112.2539577627351
 20
-115.2842637515609
 30
0.0
 10
112.2150281837518
 20
-115.3287054833206
 30
0.0
 10
112.2150281837518
 20
-115.3838270110846
 30
0.0
 10
112.2150281837518
 20
-115.4408433413655
 30
0.0
 10
112.2539577627351
 20
-115.4895914424818
 30
0.0
 10
112.3059787045624
 20
-115.4895914424818
 30
0.0
 10
112.3576551368411
 20
-115.4895914424818
 30
0.0
 10
112.3927951107907
 20
-115.4387762840743
 30
0.0
 10
112.3927951107907
 20
-115.3858940683757
 30
0.0
 10
112.3927951107907
 20
-115.3287054833206
 30
0.0
 10
112.3521429840647
 20
-115.2842637515609
 30
0.0
 10
112.3021890995286
 20
-115.2842637515609
 30
0.0
  0
HATCH
  5
17D
330
156
100
AcDbEntity
  8
_U+30EC_U+30A4_U+30E4_U+30FC 1
 62
   179
420
  2234388
100
AcDbHatch
 10
0.0
 20
0.0
 30
0.0
210
0.0
220
0.0
230
1.0
  2
SOLID
 70
     1
 71
     0
 91
        3
 92
        1
 93
        1
 72
     4
 94
        3
 73
     0
 74
     1
 95
       44
 96
       40
 40
0.0
 40
0.0
 40
0.0
 40
0.0
 40
1.0
 40
1.0
 40
1.0
 40
2.0
 40
2.0
 40
2.0
 40
3.0
 40
3.0
 40
3.0
 40
4.0
 40
4.0
 40
4.0
 40
5.0
 40
5.0
 40
5.0
 40
6.0
 40
6.0
 40
6.0
 40
7.0
 40
7.0
 40
7.0
 40
8.0
 40
8.0
 40
8.0
 40
9.0
 40
9.0
 40
9.0
 40
10.0
 40
10.0
 40
10.0
 40
11.0
 40
11.0
 40
11.0
 40
12.0
 40
12.0
 40
12.0
 40
13.0
 40
13.0
 40
13.0
 40
13.0
 10
112.120632567456
 20
-115.813258163321
 10
112.0224473461263
 20
-116.1813666159199
 10
111.9780056143666
 20
-116.3400132630157
 10
111.8057508401041
 20
-116.5896104309221
 10
111.644864880943
 20
-116.8202595736595
 10
111.4374701327309
 20
-117.006294729863
 10
111.1928683532782
 20
-117.099484562739
 10
111.1928683532782
 20
-117.099484562739
 10
111.0244031840495
 20
-116.919650578409
 10
111.0244031840495
 20
-116.919650578409
 10
111.5856092385967
 20
-116.7673773579609
 10
111.8743082402606
 20
-116.2109944370931
 10
111.9301187871216
 20
-115.7708834888524
 10
111.9301187871216
 20
-115.7708834888524
 10
111.259703205692
 20
-115.7708834888524
 10
111.259703205692
 20
-115.7708834888524
 10
111.1780544426916
 20
-115.7708834888524
 10
111.0171684835304
 20
-115.775189858209
 10
110.8800536832175
 20
-115.7941378833779
 10
110.8800536832175
 20
-115.7941378833779
 10
110.8800536832175
 20
-115.5741685366447
 10
110.8800536832175
 20
-115.5741685366447
 10
110.955845783893
 20
-115.5953558738789
 10
111.176331894949
 20
-115.5953558738789
 10
111.2631483011773
 20
-115.5953558738789
 10
111.2631483011773
 20
-115.5953558738789
 10
111.6410752759092
 20
-115.5953558738789
 10
111.6410752759092
 20
-115.5953558738789
 10
111.6779377976014
 20
-115.5953558738789
 10
111.8836099980708
 20
-115.5931165618135
 10
111.9170274242777
 20
-115.5869153899401
 10
111.9538899459699
 20
-115.5805419632924
 10
111.955957003261
 20
-115.5784749060012
 10
112.0097004928309
 20
-115.5381672888238
 10
112.0097004928309
 20
-115.5381672888238
 10
112.1743760570259
 20
-115.6926798213373
 10
112.1743760570259
 20
-115.6926798213373
 10
112.1485378408865
 20
-115.7223076425104
 10
112.1354464780425
 20
-115.7540025209747
 10
112.120632567456
 20
-115.813258163321
 97
        0
 97
        0
 92
        1
 93
        1
 72
     4
 94
        3
 73
     0
 74
     1
 95
       17
 96
       13
 40
0.0
 40
0.0
 40
0.0
 40
0.0
 40
1.0
 40
1.0
 40
1.0
 40
2.0
 40
2.0
 40
2.0
 40
3.0
 40
3.0
 40
3.0
 40
4.0
 40
4.0
 40
4.0
 40
4.0
 10
112.3039116472712
 20
-115.6143038990478
 10
112.1929795726462
 20
-115.6143038990478
 10
112.1040961091268
 20
-115.5128458370072
 10
112.1040961091268
 20
-115.3858940683757
 10
112.1040961091268
 20
-115.2589422997443
 10
112.1929795726462
 20
-115.1552449256383
 10
112.3039116472712
 20
-115.1552449256383
 10
112.4151882314448
 20
-115.1552449256383
 10
112.5057942427069
 20
-115.2589422997443
 10
112.5057942427069
 20
-115.3858940683757
 10
112.5057942427069
 20
-115.5128458370072
 10
112.4151882314448
 20
-115.6143038990478
 10
112.3039116472712
 20
-115.6143038990478
 97
        0
 97
        0
 92
        1
 93
        1
 72
     4
 94
        3
 73
     0
 74
     1
 95
       17
 96
       13
 40
0.0
 40
0.0
 40
0.0
 40
0.0
 40
1.0
 40
1.0
 40
1.0
 40
2.0
 40
2.0
 40
2.0
 40
3.0
 40
3.0
 40
3.0
 40
4.0
 40
4.0
 40
4.0
 40
4.0
 10
112.3021890995286
 20
-115.2842637515609
 10
112.2539577627351
 20
-115.2842637515609
 10
112.2150281837518
 20
-115.3287054833206
 10
112.2150281837518
 20
-115.3838270110846
 10
112.2150281837518
 20
-115.4408433413655
 10
112.2539577627351
 20
-115.4895914424818
 10
112.3059787045624
 20
-115.4895914424818
 10
112.3576551368411
 20
-115.4895914424818
 10
112.3927951107907
 20
-115.4387762840743
 10
112.3927951107907
 20
-115.3858940683757
 10
112.3927951107907
 20
-115.3287054833206
 10
112.3521429840647
 20
-115.2842637515609
 10
112.3021890995286
 20
-115.2842637515609
 97
        0
 97
        0
 75
     2
 76
     1
 98
        0
  0
ENDBLK
  5
159
330
156
100
AcDbEntity
  8
0
100
AcDbBlockEnd
  0
ENDSEC
  0
SECTION
  2
ENTITIES
  0
POLYLINE
  5
41
330
1F
100
AcDbEntity
  8
_U+30EC_U+30A4_U+30E4_U+30FC 1
 62
   179
420
  2234388
370
    25
100
AcDb2dPolyline
 66
     1
 10
0.0
 20
0.0
 30
0.0
  0
VERTEX
  5
42
330
41
100
AcDbEntity
  8
_U+30EC_U+30A4_U+30E4_U+30FC 1
 62
   179
420
  2234388
370
    25
100
AcDbVertex
100
AcDb2dVertex
 10
96.49092864942243
 20
-149.8109991292137
 30
0.0
  0
VERTEX
  5
43
330
41
100
AcDbEntity
  8
_U+30EC_U+30A4_U+30E4_U+30FC 1
 62
   179
420
  2234388
370
    25
100
AcDbVertex
100
AcDb2dVertex
 10
114.4908527491548
 20
-149.8109991292137
 30
0.0
  0
SEQEND
  5
44
330
41
100
AcDbEntity
  8
_U+30EC_U+30A4_U+30E4_U+30FC 1
 62
   179
420
  2234388
370
    25
  0
POLYLINE
  5
45
330
1F
100
AcDbEntity
  8
_U+30EC_U+30A4_U+30E4_U+30FC 1
 62
   179
420
  2234388
370
    25
100
AcDb2dPolyline
 66
     1
 10
0.0
 20
0.0
 30
0.0
  0
VERTEX
  5
46
330
45
100
AcDbEntity
  8
_U+30EC_U+30A4_U+30E4_U+30FC 1
 62
   179
420
  2234388
370
    25
100
AcDbVertex
100
AcDb2dVertex
 10
114.4908527491548
 20
-149.8109991292137
 30
0.0
  0
VERTEX
  5
47
330
45
100
AcDbEntity
  8
_U+30EC_U+30A4_U+30E4_U+30FC 1
 62
   179
420
  2234388
370
    25
100
AcDbVertex
100
AcDb2dVertex
 10
114.4908527491548
 20
-150.2106257957809
 30
0.0
  0
SEQEND
  5
48
330
45
100
AcDbEntity
  8
_U+30EC_U+30A4_U+30E4_U+30FC 1
 62
   179
420
  2234388
370
    25
  0
POLYLINE
  5
49
330
1F
100
AcDbEntity
  8
_U+30EC_U+30A4_U+30E4_U+30FC 1
 62
   179
420
  2234388
370
    25
100
AcDb2dPolyline
 66
     1
 10
0.0
 20
0.0
 30
0.0
  0
VERTEX
  5
4A
330
49
100
AcDbEntity
  8
_U+30EC_U+30A4_U+30E4_U+30FC 1
 62
   179
420
  2234388
370
    25
100
AcDbVertex
100
AcDb2dVertex
 10
72.69116453438278
 20
-108.0109952507749
 30
0.0
  0
VERTEX
  5
4B
330
49
100
AcDbEntity
  8
_U+30EC_U+30A4_U+30E4_U+30FC 1
 62
   179
420
  2234388
370
    25
100
AcDbVertex
100
AcDb2dVertex
 10
72.29171426679584
 20
-108.0109952507749
 30
0.0
  0
SEQEND
  5
4C
330
49
100
AcDbEntity
  8
_U+30EC_U+30A4_U+30E4_U+30FC 1
 62
   179
420
  2234388
370
    25
  0
POLYLINE
  5
4D
330
1F
100
AcDbEntity
  8
_U+30EC_U+30A4_U+30E4_U+30FC 1
 62
   179
420
  2234388
370
    25
100
AcDb2dPolyline
 66
     1
 10
0.0
 20
0.0
 30
0.0
  0
VERTEX
  5
4E
330
4D
100
AcDbEntity
  8
_U+30EC_U+30A4_U+30E4_U+30FC 1
 62
   179
420
  2234388
370
    25
100
AcDbVertex
100
AcDb2dVertex
 10
72.69116453438278
 20
-126.0109169129416
 30
0.0
  0
VERTEX
  5
4F
330
4D
100
AcDbEntity
  8
_U+30EC_U+30A4_U+30E4_U+30FC 1
 62
   179
420
  2234388
370
    25
100
AcDbVertex
100
AcDb2dVertex
 10
72.69116453438278
 20
-108.0109952507749
 30
0.0
  0
SEQEND
  5
50
330
4D
100
AcDbEntity
  8
_U+30EC_U+30A4_U+30E4_U+30FC 1
 62
   179
420
  2234388
370
    25
  0
POLYLINE
  5
51
330
1F
100
AcDbEntity
  8
_U+30EC_U+30A4_U+30E4_U+30FC 1
 62
   179
420
  2234388
370
     9
100
AcDb2dPolyline
 66
     1
 10
0.0
 20
0.0
 30
0.0
  0
VERTEX
  5
52
330
51
100
AcDbEntity
  8
_U+30EC_U+30A4_U+30E4_U+30FC 1
 62
   179
420
  2234388
370
     9
100
AcDbVertex
100
AcDb2dVertex
 10
78.31356022427686
 20
-144.5544691305283
 30
0.0
  0
VERTEX
  5
53
330
51
100
AcDbEntity
  8
_U+30EC_U+30A4_U+30E4_U+30FC 1
 62
   179
420
  2234388
370
     9
100
AcDbVertex
100
AcDb2dVertex
 10
78.81379910040359
 20
-143.6883996863004
 30
0.0
  0
SEQEND
  5
54
330
51
100
AcDbEntity
  8
_U+30EC_U+30A4_U+30E4_U+30FC 1
 62
   179
420
  2234388
370
     9
  0
POLYLINE
  5
55
330
1F
100
AcDbEntity
  8
_U+30EC_U+30A4_U+30E4_U+30FC 1
 62
   179
420
  2234388
370
     9
100
AcDb2dPolyline
 66
     1
 10
0.0
 20
0.0
 30
0.0
  0
VERTEX
  5
56
330
55
100
AcDbEntity
  8
_U+30EC_U+30A4_U+30E4_U+30FC 1
 62
   179
420
  2234388
370
     9
100
AcDbVertex
100
AcDb2dVertex
 10
77.94769440027753
 20
-144.188603297286
 30
0.0
  0
VERTEX
  5
57
330
55
100
AcDbEntity
  8
_U+30EC_U+30A4_U+30E4_U+30FC 1
 62
   179
420
  2234388
370
     9
100
AcDbVertex
100
AcDb2dVertex
 10
78.81379910040359
 20
-143.6883996863004
 30
0.0
  0
SEQEND
  5
58
330
55
100
AcDbEntity
  8
_U+30EC_U+30A4_U+30E4_U+30FC 1
 62
   179
420
  2234388
370
     9
  0
POLYLINE
  5
59
330
1F
100
AcDbEntity
  8
_U+30EC_U+30A4_U+30E4_U+30FC 1
 62
   179
420
  2234388
370
     9
100
AcDb2dPolyline
 66
     1
 10
0.0
 20
0.0
 30
0.0
  0
VERTEX
  5
5A
330
59
100
AcDbEntity
  8
_U+30EC_U+30A4_U+30E4_U+30FC 1
 62
   179
420
  2234388
370
     9
100
AcDbVertex
100
AcDb2dVertex
 10
67.49181994480689
 20
-155.0110494056919
 30
0.0
  0
VERTEX
  5
5B
330
59
100
AcDbEntity
  8
_U+30EC_U+30A4_U+30E4_U+30FC 1
 62
   179
420
  2234388
370
     9
100
AcDbVertex
100
AcDb2dVertex
 10
78.81379910040359
 20
-143.6883996863004
 30
0.0
  0
SEQEND
  5
5C
330
59
100
AcDbEntity
  8
_U+30EC_U+30A4_U+30E4_U+30FC 1
 62
   179
420
  2234388
370
     9
  0
POLYLINE
  5
5D
330
1F
100
AcDbEntity
  8
_U+30EC_U+30A4_U+30E4_U+30FC 1
 62
   179
420
  2234388
370
     9
100
AcDb2dPolyline
 66
     1
 10
0.0
 20
0.0
 30
0.0
  0
VERTEX
  5
5E
330
5D
100
AcDbEntity
  8
_U+30EC_U+30A4_U+30E4_U+30FC 1
 62
   179
420
  2234388
370
     9
100
AcDbVertex
100
AcDb2dVertex
 10
62.32556590994234
 20
-155.0110494056919
 30
0.0
  0
VERTEX
  5
5F
330
5D
100
AcDbEntity
  8
_U+30EC_U+30A4_U+30E4_U+30FC 1
 62
   179
420
  2234388
370
     9
100
AcDbVertex
100
AcDb2dVertex
 10
67.49181994480689
 20
-155.0110494056919
 30
0.0
  0
SEQEND
  5
60
330
5D
100
AcDbEntity
  8
_U+30EC_U+30A4_U+30E4_U+30FC 1
 62
   179
420
  2234388
370
     9
  0
POLYLINE
  5
61
330
1F
100
AcDbEntity
  8
_U+30EC_U+30A4_U+30E4_U+30FC 1
 62
   179
420
  2234388
370
    25
100
AcDb2dPolyline
 66
     1
 10
0.0
 20
0.0
 30
0.0
  0
VERTEX
  5
62
330
61
100
AcDbEntity
  8
_U+30EC_U+30A4_U+30E4_U+30FC 1
 62
   179
420
  2234388
370
    25
100
AcDbVertex
100
AcDb2dVertex
 10
114.4908527491548
 20
-150.2106257957809
 30
0.0
  0
VERTEX
  5
63
330
61
100
AcDbEntity
  8
_U+30EC_U+30A4_U+30E4_U+30FC 1
 62
   179
420
  2234388
370
    25
100
AcDbVertex
100
AcDb2dVertex
 10
97.63745639794985
 20
-150.9844085733653
 30
0.0
  0
SEQEND
  5
64
330
61
100
AcDbEntity
  8
_U+30EC_U+30A4_U+30E4_U+30FC 1
 62
   179
420
  2234388
370
    25
  0
POLYLINE
  5
65
330
1F
100
AcDbEntity
  8
_U+30EC_U+30A4_U+30E4_U+30FC 1
 62
   179
420
  2234388
370
    25
100
AcDb2dPolyline
 66
     1
 10
0.0
 20
0.0
 30
0.0
  0
VERTEX
  5
66
330
65
100
AcDbEntity
  8
_U+30EC_U+30A4_U+30E4_U+30FC 1
 62
   179
420
  2234388
370
    25
100
AcDbVertex
100
AcDb2dVertex
 10
72.29171426679584
 20
-108.0109952507749
 30
0.0
  0
VERTEX
  5
67
330
65
100
AcDbEntity
  8
_U+30EC_U+30A4_U+30E4_U+30FC 1
 62
   179
420
  2234388
370
    25
100
AcDbVertex
100
AcDb2dVertex
 10
71.51793331545387
 20
-124.8643891354504
 30
0.0
  0
SEQEND
  5
68
330
65
100
AcDbEntity
  8
_U+30EC_U+30A4_U+30E4_U+30FC 1
 62
   179
420
  2234388
370
    25
  0
SPLINE
  5
69
330
1F
100
AcDbEntity
  8
_U+30EC_U+30A4_U+30E4_U+30FC 1
 62
   179
420
  2234388
370
     9
100
AcDbSpline
210
0.0
220
0.0
230
1.0
 70
    11
 71
     3
 72
    17
 73
    13
 74
     0
 42
0.0000000001
 43
0.0000000001
 12
1.0
 22
0.0
 32
0.0
 13
1.0
 23
0.0
 33
0.0
 40
0.0
 40
0.0
 40
0.0
 40
0.0
 40
1.0
 40
1.0
 40
1.0
 40
2.0
 40
2.0
 40
2.0
 40
3.0
 40
3.0
 40
3.0
 40
4.0
 40
4.0
 40
4.0
 40
4.0
 10
118.5912211411526
 20
-149.8109991292137
 30
0.0
 10
118.5912211411526
 20
-149.7551896847833
 30
0.0
 10
118.5464183645178
 20
-149.7104221847947
 30
0.0
 10
118.4913144770347
 20
-149.7104221847947
 30
0.0
 10
118.4361753117748
 20
-149.7104221847947
 30
0.0
 10
118.3914078129169
 20
-149.7551896847833
 30
0.0
 10
118.3914078129169
 20
-149.8109991292137
 30
0.0
 10
118.3914078129169
 20
-149.8661382958668
 30
0.0
 10
118.4361753117748
 20
-149.9109057958553
 30
0.0
 10
118.4913144770347
 20
-149.9109057958553
 30
0.0
 10
118.5464183645178
 20
-149.9109057958553
 30
0.0
 10
118.5912211411526
 20
-149.8661382958668
 30
0.0
 10
118.5912211411526
 20
-149.8109991292137
 30
0.0
  0
SPLINE
  5
6A
330
1F
100
AcDbEntity
  8
_U+30EC_U+30A4_U+30E4_U+30FC 1
 62
   179
420
  2234388
370
     9
100
AcDbSpline
210
0.0
220
0.0
230
1.0
 70
    11
 71
     3
 72
    17
 73
    13
 74
     0
 42
0.0000000001
 43
0.0000000001
 12
1.0
 22
0.0
 32
0.0
 13
1.0
 23
0.0
 33
0.0
 40
0.0
 40
0.0
 40
0.0
 40
0.0
 40
1.0
 40
1.0
 40
1.0
 40
2.0
 40
2.0
 40
2.0
 40
3.0
 40
3.0
 40
3.0
 40
4.0
 40
4.0
 40
4.0
 40
4.0
 10
118.5912211411526
 20
-150.2106257957809
 30
0.0
 10
118.5912211411526
 20
-150.1555219069053
 30
0.0
 10
118.5464183645178
 20
-150.1107191291393
 30
0.0
 10
118.4913144770347
 20
-150.1107191291393
 30
0.0
 10
118.4361753117748
 20
-150.1107191291393
 30
0.0
 10
118.3914078129169
 20
-150.1555219069053
 30
0.0
 10
118.3914078129169
 20
-150.2106257957809
 30
0.0
 10
118.3914078129169
 20
-150.2657649624333
 30
0.0
 10
118.4361753117748
 20
-150.3105324624225
 30
0.0
 10
118.4913144770347
 20
-150.3105324624225
 30
0.0
 10
118.5464183645178
 20
-150.3105324624225
 30
0.0
 10
118.5912211411526
 20
-150.2657649624333
 30
0.0
 10
118.5912211411526
 20
-150.2106257957809
 30
0.0
  0
SPLINE
  5
6B
330
1F
100
AcDbEntity
  8
_U+30EC_U+30A4_U+30E4_U+30FC 1
 62
   179
420
  2234388
370
     9
100
AcDbSpline
210
0.0
220
0.0
230
1.0
 70
    11
 71
     3
 72
    17
 73
    13
 74
     0
 42
0.0000000001
 43
0.0000000001
 12
1.0
 22
0.0
 32
0.0
 13
1.0
 23
0.0
 33
0.0
 40
0.0
 40
0.0
 40
0.0
 40
0.0
 40
1.0
 40
1.0
 40
1.0
 40
2.0
 40
2.0
 40
2.0
 40
3.0
 40
3.0
 40
3.0
 40
4.0
 40
4.0
 40
4.0
 40
4.0
 10
114.5914620765282
 20
-155.0110494056919
 30
0.0
 10
114.5914620765282
 20
-154.9552399612615
 30
0.0
 10
114.5466592998935
 20
-154.9104371834948
 30
0.0
 10
114.4908527491548
 20
-154.9104371834948
 30
0.0
 10
114.4357459693898
 20
-154.9104371834948
 30
0.0
 10
114.390943192755
 20
-154.9552399612615
 30
0.0
 10
114.390943192755
 20
-155.0110494056919
 30
0.0
 10
114.390943192755
 20
-155.0661532945668
 30
0.0
 10
114.4357459693898
 20
-155.1109560723336
 30
0.0
 10
114.4908527491548
 20
-155.1109560723336
 30
0.0
 10
114.5466592998935
 20
-155.1109560723336
 30
0.0
 10
114.5914620765282
 20
-155.0661532945668
 30
0.0
 10
114.5914620765282
 20
-155.0110494056919
 30
0.0
  0
SPLINE
  5
6C
330
1F
100
AcDbEntity
  8
_U+30EC_U+30A4_U+30E4_U+30FC 1
 62
   179
420
  2234388
370
     9
100
AcDbSpline
210
0.0
220
0.0
230
1.0
 70
    11
 71
     3
 72
    17
 73
    13
 74
     0
 42
0.0000000001
 43
0.0000000001
 12
1.0
 22
0.0
 32
0.0
 13
1.0
 23
0.0
 33
0.0
 40
0.0
 40
0.0
 40
0.0
 40
0.0
 40
1.0
 40
1.0
 40
1.0
 40
2.0
 40
2.0
 40
2.0
 40
3.0
 40
3.0
 40
3.0
 40
4.0
 40
4.0
 40
4.0
 40
4.0
 10
71.59166387099094
 20
-155.0110494056919
 30
0.0
 10
71.59166387099094
 20
-154.9552399612615
 30
0.0
 10
71.54689456357553
 20
-154.9104371834948
 30
0.0
 10
71.49175539831559
 20
-154.9104371834948
 30
0.0
 10
71.43665151083252
 20
-154.9104371834948
 30
0.0
 10
71.39184873419775
 20
-154.9552399612615
 30
0.0
 10
71.39184873419775
 20
-155.0110494056919
 30
0.0
 10
71.39184873419775
 20
-155.0661532945668
 30
0.0
 10
71.43665151083252
 20
-155.1109560723336
 30
0.0
 10
71.49175539831559
 20
-155.1109560723336
 30
0.0
 10
71.54689456357553
 20
-155.1109560723336
 30
0.0
 10
71.59166387099094
 20
-155.0661532945668
 30
0.0
 10
71.59166387099094
 20
-155.0110494056919
 30
0.0
  0
SPLINE
  5
6D
330
1F
100
AcDbEntity
  8
_U+30EC_U+30A4_U+30E4_U+30FC 1
 62
   179
420
  2234388
370
     9
100
AcDbSpline
210
0.0
220
0.0
230
1.0
 70
    11
 71
     3
 72
    17
 73
    13
 74
     0
 42
0.0000000001
 43
0.0000000001
 12
1.0
 22
0.0
 32
0.0
 13
1.0
 23
0.0
 33
0.0
 40
0.0
 40
0.0
 40
0.0
 40
0.0
 40
1.0
 40
1.0
 40
1.0
 40
2.0
 40
2.0
 40
2.0
 40
3.0
 40
3.0
 40
3.0
 40
4.0
 40
4.0
 40
4.0
 40
4.0
 10
72.39162093091366
 20
-104.0105305295528
 30
0.0
 10
72.39162093091366
 20
-103.9554266406779
 30
0.0
 10
72.3468181542789
 20
-103.9106238629112
 30
0.0
 10
72.29171426679584
 20
-103.9106238629112
 30
0.0
 10
72.23657510153588
 20
-103.9106238629112
 30
0.0
 10
72.191807602678
 20
-103.9554266406779
 30
0.0
 10
72.191807602678
 20
-104.0105305295528
 30
0.0
 10
72.191807602678
 20
-104.0663399739836
 30
0.0
 10
72.23657510153588
 20
-104.11114275175
 30
0.0
 10
72.29171426679584
 20
-104.11114275175
 30
0.0
 10
72.3468181542789
 20
-104.11114275175
 30
0.0
 10
72.39162093091366
 20
-104.0663399739836
 30
0.0
 10
72.39162093091366
 20
-104.0105305295528
 30
0.0
  0
SPLINE
  5
6E
330
1F
100
AcDbEntity
  8
_U+30EC_U+30A4_U+30E4_U+30FC 1
 62
   179
420
  2234388
370
     9
100
AcDbSpline
210
0.0
220
0.0
230
1.0
 70
    11
 71
     3
 72
    17
 73
    13
 74
     0
 42
0.0000000001
 43
0.0000000001
 12
1.0
 22
0.0
 32
0.0
 13
1.0
 23
0.0
 33
0.0
 40
0.0
 40
0.0
 40
0.0
 40
0.0
 40
1.0
 40
1.0
 40
1.0
 40
2.0
 40
2.0
 40
2.0
 40
3.0
 40
3.0
 40
3.0
 40
4.0
 40
4.0
 40
4.0
 40
4.0
 10
72.79177675403817
 20
-104.0105305295528
 30
0.0
 10
72.79177675403817
 20
-103.9554266406779
 30
0.0
 10
72.74697397740341
 20
-103.9106238629112
 30
0.0
 10
72.69116453438278
 20
-103.9106238629112
 30
0.0
 10
72.63606064689971
 20
-103.9106238629112
 30
0.0
 10
72.59125787026494
 20
-103.9554266406779
 30
0.0
 10
72.59125787026494
 20
-104.0105305295528
 30
0.0
 10
72.59125787026494
 20
-104.0663399739836
 30
0.0
 10
72.63606064689971
 20
-104.11114275175
 30
0.0
 10
72.69116453438278
 20
-104.11114275175
 30
0.0
 10
72.74697397740341
 20
-104.11114275175
 30
0.0
 10
72.79177675403817
 20
-104.0663399739836
 30
0.0
 10
72.79177675403817
 20
-104.0105305295528
 30
0.0
  0
SPLINE
  5
6F
330
1F
100
AcDbEntity
  8
_U+30EC_U+30A4_U+30E4_U+30FC 1
 62
   179
420
  2234388
370
     9
100
AcDbSpline
210
0.0
220
0.0
230
1.0
 70
    11
 71
     3
 72
    17
 73
    13
 74
     0
 42
0.0000000001
 43
0.0000000001
 12
1.0
 22
0.0
 32
0.0
 13
1.0
 23
0.0
 33
0.0
 40
0.0
 40
0.0
 40
0.0
 40
0.0
 40
1.0
 40
1.0
 40
1.0
 40
2.0
 40
2.0
 40
2.0
 40
3.0
 40
3.0
 40
3.0
 40
4.0
 40
4.0
 40
4.0
 40
4.0
 10
67.59172660892473
 20
-108.0109952507749
 30
0.0
 10
67.59172660892473
 20
-107.9558560841221
 30
0.0
 10
67.54695911006684
 20
-107.9110533063557
 30
0.0
 10
67.49181994480689
 20
-107.9110533063557
 30
0.0
 10
67.43601050178626
 20
-107.9110533063557
 30
0.0
 10
67.39124300292838
 20
-107.9558560841221
 30
0.0
 10
67.39124300292838
 20
-108.0109952507749
 30
0.0
 10
67.39124300292838
 20
-108.0660991396501
 30
0.0
 10
67.43601050178626
 20
-108.1109019174168
 30
0.0
 10
67.49181994480689
 20
-108.1109019174168
 30
0.0
 10
67.54695911006684
 20
-108.1109019174168
 30
0.0
 10
67.59172660892473
 20
-108.0660991396501
 30
0.0
 10
67.59172660892473
 20
-108.0109952507749
 30
0.0
  0
SPLINE
  5
70
330
1F
100
AcDbEntity
  8
_U+30EC_U+30A4_U+30E4_U+30FC 1
 62
   179
420
  2234388
370
     9
100
AcDbSpline
210
0.0
220
0.0
230
1.0
 70
    11
 71
     3
 72
    17
 73
    13
 74
     0
 42
0.0000000001
 43
0.0000000001
 12
1.0
 22
0.0
 32
0.0
 13
1.0
 23
0.0
 33
0.0
 40
0.0
 40
0.0
 40
0.0
 40
0.0
 40
1.0
 40
1.0
 40
1.0
 40
2.0
 40
2.0
 40
2.0
 40
3.0
 40
3.0
 40
3.0
 40
4.0
 40
4.0
 40
4.0
 40
4.0
 10
67.59172660892473
 20
-151.0105846844695
 30
0.0
 10
67.59172660892473
 20
-150.9554807955946
 30
0.0
 10
67.54695911006684
 20
-150.9106780178279
 30
0.0
 10
67.49181994480689
 20
-150.9106780178279
 30
0.0
 10
67.43601050178626
 20
-150.9106780178279
 30
0.0
 10
67.39124300292838
 20
-150.9554807955946
 30
0.0
 10
67.39124300292838
 20
-151.0105846844695
 30
0.0
 10
67.39124300292838
 20
-151.0657238511226
 30
0.0
 10
67.43601050178626
 20
-151.1104913511111
 30
0.0
 10
67.49181994480689
 20
-151.1104913511111
 30
0.0
 10
67.54695911006684
 20
-151.1104913511111
 30
0.0
 10
67.59172660892473
 20
-151.0657238511226
 30
0.0
 10
67.59172660892473
 20
-151.0105846844695
 30
0.0
  0
SPLINE
  5
71
330
1F
100
AcDbEntity
  8
_U+30EC_U+30A4_U+30E4_U+30FC 1
 62
   179
420
  2234388
370
    25
100
AcDbSpline
210
0.0
220
0.0
230
1.0
 70
     8
 71
     3
 72
    11
 73
     7
 74
     0
 42
0.0000000001
 43
0.0000000001
 12
1.0
 22
0.0
 32
0.0
 13
1.0
 23
0.0
 33
0.0
 40
0.0
 40
0.0
 40
0.0
 40
0.0
 40
1.0
 40
1.0
 40
1.0
 40
2.0
 40
2.0
 40
2.0
 40
2.0
 10
71.51793331545387
 20
-124.8643891354504
 30
0.0
 10
70.88473069157986
 20
-138.656483298669
 30
0.0
 10
81.55265986386276
 20
-150.3512077401899
 30
0.0
 10
95.34440090089502
 20
-150.9844085733653
 30
0.0
 10
96.10851754806744
 20
-151.019545240023
 30
0.0
 10
96.87401002853811
 20
-151.019545240023
 30
0.0
 10
97.63745639794985
 20
-150.9844085733653
 30
0.0
  0
SPLINE
  5
72
330
1F
100
AcDbEntity
  8
_U+30EC_U+30A4_U+30E4_U+30FC 1
 62
   179
420
  2234388
370
    25
100
AcDbSpline
210
0.0
220
0.0
230
1.0
 70
     8
 71
     3
 72
     8
 73
     4
 74
     0
 42
0.0000000001
 43
0.0000000001
 12
1.0
 22
0.0
 32
0.0
 13
1.0
 23
0.0
 33
0.0
 40
0.0
 40
0.0
 40
0.0
 40
0.0
 40
1.0
 40
1.0
 40
1.0
 40
1.0
 10
72.69116453438278
 20
-126.0109169129416
 30
0.0
 10
72.69116453438278
 20
-139.1553463540999
 30
0.0
 10
83.34685231808909
 20
-149.8109991292137
 30
0.0
 10
96.49092864942243
 20
-149.8109991292137
 30
0.0
  0
INSERT
  5
74
330
1F
100
AcDbEntity
  8
_U+30EC_U+30A4_U+30E4_U+30FC 1
100
AcDbBlockReference
  2
block 2
 10
0.0
 20
0.0
 30
0.0
  0
POLYLINE
  5
7E
330
1F
100
AcDbEntity
  8
_U+30EC_U+30A4_U+30E4_U+30FC 1
 62
   179
420
  2234388
370
     9
100
AcDb2dPolyline
 66
     1
 10
0.0
 20
0.0
 30
0.0
  0
VERTEX
  5
7F
330
7E
100
AcDbEntity
  8
_U+30EC_U+30A4_U+30E4_U+30FC 1
 62
   179
420
  2234388
370
     9
100
AcDbVertex
100
AcDb2dVertex
 10
118.4913144770347
 20
-149.8109991292137
 30
0.0
  0
VERTEX
  5
80
330
7E
100
AcDbEntity
  8
_U+30EC_U+30A4_U+30E4_U+30FC 1
 62
   179
420
  2234388
370
     9
100
AcDbVertex
100
AcDb2dVertex
 10
118.4913144770347
 20
-144.5530932971948
 30
0.0
  0
SEQEND
  5
81
330
7E
100
AcDbEntity
  8
_U+30EC_U+30A4_U+30E4_U+30FC 1
 62
   179
420
  2234388
370
     9
  0
POLYLINE
  5
82
330
1F
100
AcDbEntity
  8
_U+30EC_U+30A4_U+30E4_U+30FC 1
 62
   179
420
  2234388
370
     9
100
AcDb2dPolyline
 66
     1
 10
0.0
 20
0.0
 30
0.0
  0
VERTEX
  5
83
330
82
100
AcDbEntity
  8
_U+30EC_U+30A4_U+30E4_U+30FC 1
 62
   179
420
  2234388
370
     9
100
AcDbVertex
100
AcDb2dVertex
 10
118.4913144770347
 20
-149.8109991292137
 30
0.0
  0
VERTEX
  5
84
330
82
100
AcDbEntity
  8
_U+30EC_U+30A4_U+30E4_U+30FC 1
 62
   179
420
  2234388
370
     9
100
AcDbVertex
100
AcDb2dVertex
 10
118.4913144770347
 20
-151.2111035733083
 30
0.0
  0
SEQEND
  5
85
330
82
100
AcDbEntity
  8
_U+30EC_U+30A4_U+30E4_U+30FC 1
 62
   179
420
  2234388
370
     9
  0
POLYLINE
  5
86
330
1F
100
AcDbEntity
  8
_U+30EC_U+30A4_U+30E4_U+30FC 1
 62
   179
420
  2234388
370
     9
100
AcDb2dPolyline
 66
     1
 10
0.0
 20
0.0
 30
0.0
  0
VERTEX
  5
87
330
86
100
AcDbEntity
  8
_U+30EC_U+30A4_U+30E4_U+30FC 1
 62
   179
420
  2234388
370
     9
100
AcDbVertex
100
AcDb2dVertex
 10
117.0312731253946
 20
-149.8109991292137
 30
0.0
  0
VERTEX
  5
88
330
86
100
AcDbEntity
  8
_U+30EC_U+30A4_U+30E4_U+30FC 1
 62
   179
420
  2234388
370
     9
100
AcDbVertex
100
AcDb2dVertex
 10
119.4910513959738
 20
-149.8109991292137
 30
0.0
  0
SEQEND
  5
89
330
86
100
AcDbEntity
  8
_U+30EC_U+30A4_U+30E4_U+30FC 1
 62
   179
420
  2234388
370
     9
  0
POLYLINE
  5
8A
330
1F
100
AcDbEntity
  8
_U+30EC_U+30A4_U+30E4_U+30FC 1
 62
   179
420
  2234388
370
     9
100
AcDb2dPolyline
 66
     1
 10
0.0
 20
0.0
 30
0.0
  0
VERTEX
  5
8B
330
8A
100
AcDbEntity
  8
_U+30EC_U+30A4_U+30E4_U+30FC 1
 62
   179
420
  2234388
370
     9
100
AcDbVertex
100
AcDb2dVertex
 10
117.0312731253946
 20
-150.2106257957809
 30
0.0
  0
VERTEX
  5
8C
330
8A
100
AcDbEntity
  8
_U+30EC_U+30A4_U+30E4_U+30FC 1
 62
   179
420
  2234388
370
     9
100
AcDbVertex
100
AcDb2dVertex
 10
119.4910513959738
 20
-150.2106257957809
 30
0.0
  0
SEQEND
  5
8D
330
8A
100
AcDbEntity
  8
_U+30EC_U+30A4_U+30E4_U+30FC 1
 62
   179
420
  2234388
370
     9
  0
INSERT
  5
8F
330
1F
100
AcDbEntity
  8
_U+30EC_U+30A4_U+30E4_U+30FC 1
100
AcDbBlockReference
  2
block 3
 10
0.0
 20
0.0
 30
0.0
  0
POLYLINE
  5
B2
330
1F
100
AcDbEntity
  8
_U+30EC_U+30A4_U+30E4_U+30FC 1
 62
   179
420
  2234388
370
     9
100
AcDb2dPolyline
 66
     1
 10
0.0
 20
0.0
 30
0.0
  0
VERTEX
  5
B3
330
B2
100
AcDbEntity
  8
_U+30EC_U+30A4_U+30E4_U+30FC 1
 62
   179
420
  2234388
370
     9
100
AcDbVertex
100
AcDb2dVertex
 10
72.69116453438278
 20
-104.0105305295528
 30
0.0
  0
VERTEX
  5
B4
330
B2
100
AcDbEntity
  8
_U+30EC_U+30A4_U+30E4_U+30FC 1
 62
   179
420
  2234388
370
     9
100
AcDbVertex
100
AcDb2dVertex
 10
78.94951270805235
 20
-104.0105305295528
 30
0.0
  0
SEQEND
  5
B5
330
B2
100
AcDbEntity
  8
_U+30EC_U+30A4_U+30E4_U+30FC 1
 62
   179
420
  2234388
370
     9
  0
POLYLINE
  5
B6
330
1F
100
AcDbEntity
  8
_U+30EC_U+30A4_U+30E4_U+30FC 1
 62
   179
420
  2234388
370
     9
100
AcDb2dPolyline
 66
     1
 10
0.0
 20
0.0
 30
0.0
  0
VERTEX
  5
B7
330
B6
100
AcDbEntity
  8
_U+30EC_U+30A4_U+30E4_U+30FC 1
 62
   179
420
  2234388
370
     9
100
AcDbVertex
100
AcDb2dVertex
 10
72.69116453438278
 20
-104.0105305295528
 30
0.0
  0
VERTEX
  5
B8
330
B6
100
AcDbEntity
  8
_U+30EC_U+30A4_U+30E4_U+30FC 1
 62
   179
420
  2234388
370
     9
100
AcDbVertex
100
AcDb2dVertex
 10
71.29194207007993
 20
-104.0105305295528
 30
0.0
  0
SEQEND
  5
B9
330
B6
100
AcDbEntity
  8
_U+30EC_U+30A4_U+30E4_U+30FC 1
 62
   179
420
  2234388
370
     9
  0
POLYLINE
  5
BA
330
1F
100
AcDbEntity
  8
_U+30EC_U+30A4_U+30E4_U+30FC 1
 62
   179
420
  2234388
370
     9
100
AcDb2dPolyline
 66
     1
 10
0.0
 20
0.0
 30
0.0
  0
VERTEX
  5
BB
330
BA
100
AcDbEntity
  8
_U+30EC_U+30A4_U+30E4_U+30FC 1
 62
   179
420
  2234388
370
     9
100
AcDbVertex
100
AcDb2dVertex
 10
72.69116453438278
 20
-105.4705719180768
 30
0.0
  0
VERTEX
  5
BC
330
BA
100
AcDbEntity
  8
_U+30EC_U+30A4_U+30E4_U+30FC 1
 62
   179
420
  2234388
370
     9
100
AcDbVertex
100
AcDb2dVertex
 10
72.69116453438278
 20
-103.0107583075806
 30
0.0
  0
SEQEND
  5
BD
330
BA
100
AcDbEntity
  8
_U+30EC_U+30A4_U+30E4_U+30FC 1
 62
   179
420
  2234388
370
     9
  0
POLYLINE
  5
BE
330
1F
100
AcDbEntity
  8
_U+30EC_U+30A4_U+30E4_U+30FC 1
 62
   179
420
  2234388
370
     9
100
AcDb2dPolyline
 66
     1
 10
0.0
 20
0.0
 30
0.0
  0
VERTEX
  5
BF
330
BE
100
AcDbEntity
  8
_U+30EC_U+30A4_U+30E4_U+30FC 1
 62
   179
420
  2234388
370
     9
100
AcDbVertex
100
AcDb2dVertex
 10
72.29171426679584
 20
-105.4705719180768
 30
0.0
  0
VERTEX
  5
C0
330
BE
100
AcDbEntity
  8
_U+30EC_U+30A4_U+30E4_U+30FC 1
 62
   179
420
  2234388
370
     9
100
AcDbVertex
100
AcDb2dVertex
 10
72.29171426679584
 20
-103.0107583075806
 30
0.0
  0
SEQEND
  5
C1
330
BE
100
AcDbEntity
  8
_U+30EC_U+30A4_U+30E4_U+30FC 1
 62
   179
420
  2234388
370
     9
  0
INSERT
  5
C3
330
1F
100
AcDbEntity
  8
_U+30EC_U+30A4_U+30E4_U+30FC 1
100
AcDbBlockReference
  2
block 4
 10
0.0
 20
0.0
 30
0.0
  0
POLYLINE
  5
E6
330
1F
100
AcDbEntity
  8
_U+30EC_U+30A4_U+30E4_U+30FC 1
 62
   179
420
  2234388
370
     9
100
AcDb2dPolyline
 66
     1
 10
0.0
 20
0.0
 30
0.0
  0
VERTEX
  5
E7
330
E6
100
AcDbEntity
  8
_U+30EC_U+30A4_U+30E4_U+30FC 1
 62
   179
420
  2234388
370
     9
100
AcDbVertex
100
AcDb2dVertex
 10
67.49181994480689
 20
-108.0109952507749
 30
0.0
  0
VERTEX
  5
E8
330
E6
100
AcDbEntity
  8
_U+30EC_U+30A4_U+30E4_U+30FC 1
 62
   179
420
  2234388
370
     9
100
AcDbVertex
100
AcDb2dVertex
 10
67.49181994480689
 20
-151.0105846844695
 30
0.0
  0
SEQEND
  5
E9
330
E6
100
AcDbEntity
  8
_U+30EC_U+30A4_U+30E4_U+30FC 1
 62
   179
420
  2234388
370
     9
  0
POLYLINE
  5
EA
330
1F
100
AcDbEntity
  8
_U+30EC_U+30A4_U+30E4_U+30FC 1
 62
   179
420
  2234388
370
     9
100
AcDb2dPolyline
 66
     1
 10
0.0
 20
0.0
 30
0.0
  0
VERTEX
  5
EB
330
EA
100
AcDbEntity
  8
_U+30EC_U+30A4_U+30E4_U+30FC 1
 62
   179
420
  2234388
370
     9
100
AcDbVertex
100
AcDb2dVertex
 10
69.75199655381165
 20
-108.0109952507749
 30
0.0
  0
VERTEX
  5
EC
330
EA
100
AcDbEntity
  8
_U+30EC_U+30A4_U+30E4_U+30FC 1
 62
   179
420
  2234388
370
     9
100
AcDbVertex
100
AcDb2dVertex
 10
66.4913774703303
 20
-108.0109952507749
 30
0.0
  0
SEQEND
  5
ED
330
EA
100
AcDbEntity
  8
_U+30EC_U+30A4_U+30E4_U+30FC 1
 62
   179
420
  2234388
370
     9
  0
POLYLINE
  5
EE
330
1F
100
AcDbEntity
  8
_U+30EC_U+30A4_U+30E4_U+30FC 1
 62
   179
420
  2234388
370
     9
100
AcDb2dPolyline
 66
     1
 10
0.0
 20
0.0
 30
0.0
  0
VERTEX
  5
EF
330
EE
100
AcDbEntity
  8
_U+30EC_U+30A4_U+30E4_U+30FC 1
 62
   179
420
  2234388
370
     9
100
AcDbVertex
100
AcDb2dVertex
 10
93.95121093643826
 20
-151.0105846844695
 30
0.0
  0
VERTEX
  5
F0
330
EE
100
AcDbEntity
  8
_U+30EC_U+30A4_U+30E4_U+30FC 1
 62
   179
420
  2234388
370
     9
100
AcDbVertex
100
AcDb2dVertex
 10
66.4913774703303
 20
-151.0105846844695
 30
0.0
  0
SEQEND
  5
F1
330
EE
100
AcDbEntity
  8
_U+30EC_U+30A4_U+30E4_U+30FC 1
 62
   179
420
  2234388
370
     9
  0
INSERT
  5
F3
330
1F
100
AcDbEntity
  8
_U+30EC_U+30A4_U+30E4_U+30FC 1
100
AcDbBlockReference
  2
block 5
 10
0.0
 20
0.0
 30
0.0
  0
POLYLINE
  5
10D
330
1F
100
AcDbEntity
  8
_U+30EC_U+30A4_U+30E4_U+30FC 1
 62
   179
420
  2234388
370
     9
100
AcDb2dPolyline
 66
     1
 10
0.0
 20
0.0
 30
0.0
  0
VERTEX
  5
10E
330
10D
100
AcDbEntity
  8
_U+30EC_U+30A4_U+30E4_U+30FC 1
 62
   179
420
  2234388
370
     9
100
AcDbVertex
100
AcDb2dVertex
 10
114.4908527491548
 20
-155.0110494056919
 30
0.0
  0
VERTEX
  5
10F
330
10D
100
AcDbEntity
  8
_U+30EC_U+30A4_U+30E4_U+30FC 1
 62
   179
420
  2234388
370
     9
100
AcDbVertex
100
AcDb2dVertex
 10
71.49175539831559
 20
-155.0110494056919
 30
0.0
  0
SEQEND
  5
110
330
10D
100
AcDbEntity
  8
_U+30EC_U+30A4_U+30E4_U+30FC 1
 62
   179
420
  2234388
370
     9
  0
POLYLINE
  5
111
330
1F
100
AcDbEntity
  8
_U+30EC_U+30A4_U+30E4_U+30FC 1
 62
   179
420
  2234388
370
     9
100
AcDb2dPolyline
 66
     1
 10
0.0
 20
0.0
 30
0.0
  0
VERTEX
  5
112
330
111
100
AcDbEntity
  8
_U+30EC_U+30A4_U+30E4_U+30FC 1
 62
   179
420
  2234388
370
     9
100
AcDbVertex
100
AcDb2dVertex
 10
114.4908527491548
 20
-152.7510491284789
 30
0.0
  0
VERTEX
  5
113
330
111
100
AcDbEntity
  8
_U+30EC_U+30A4_U+30E4_U+30FC 1
 62
   179
420
  2234388
370
     9
100
AcDbVertex
100
AcDb2dVertex
 10
114.4908527491548
 20
-156.0108216276638
 30
0.0
  0
SEQEND
  5
114
330
111
100
AcDbEntity
  8
_U+30EC_U+30A4_U+30E4_U+30FC 1
 62
   179
420
  2234388
370
     9
  0
POLYLINE
  5
115
330
1F
100
AcDbEntity
  8
_U+30EC_U+30A4_U+30E4_U+30FC 1
 62
   179
420
  2234388
370
     9
100
AcDb2dPolyline
 66
     1
 10
0.0
 20
0.0
 30
0.0
  0
VERTEX
  5
116
330
115
100
AcDbEntity
  8
_U+30EC_U+30A4_U+30E4_U+30FC 1
 62
   179
420
  2234388
370
     9
100
AcDbVertex
100
AcDb2dVertex
 10
71.49175539831559
 20
-128.5506346900845
 30
0.0
  0
VERTEX
  5
117
330
115
100
AcDbEntity
  8
_U+30EC_U+30A4_U+30E4_U+30FC 1
 62
   179
420
  2234388
370
     9
100
AcDbVertex
100
AcDb2dVertex
 10
71.49175539831559
 20
-156.0108216276638
 30
0.0
  0
SEQEND
  5
118
330
115
100
AcDbEntity
  8
_U+30EC_U+30A4_U+30E4_U+30FC 1
 62
   179
420
  2234388
370
     9
  0
INSERT
  5
11A
330
1F
100
AcDbEntity
  8
_U+30EC_U+30A4_U+30E4_U+30FC 1
100
AcDbBlockReference
  2
block 6
 10
0.0
 20
0.0
 30
0.0
  0
POLYLINE
  5
134
330
1F
100
AcDbEntity
  8
_U+30EC_U+30A4_U+30E4_U+30FC 1
  6
AI-Linetype-1
 62
   154
420
    23468
370
    25
100
AcDb2dPolyline
 66
     1
 10
0.0
 20
0.0
 30
0.0
  0
VERTEX
  5
135
330
134
100
AcDbEntity
  8
_U+30EC_U+30A4_U+30E4_U+30FC 1
  6
AI-Linetype-1
 62
   154
420
    23468
370
    25
100
AcDbVertex
100
AcDb2dVertex
 10
73.4752836810449
 20
-108.0144171952187
 30
0.0
  0
VERTEX
  5
136
330
134
100
AcDbEntity
  8
_U+30EC_U+30A4_U+30E4_U+30FC 1
  6
AI-Linetype-1
 62
   154
420
    23468
370
    25
100
AcDbVertex
100
AcDb2dVertex
 10
73.4752836810449
 20
-123.014351913691
 30
0.0
  0
SEQEND
  5
138
330
134
100
AcDbEntity
  8
_U+30EC_U+30A4_U+30E4_U+30FC 1
  6
AI-Linetype-1
 62
   154
420
    23468
370
    25
  0
POLYLINE
  5
139
330
1F
100
AcDbEntity
  8
_U+30EC_U+30A4_U+30E4_U+30FC 1
  6
AI-Linetype-2
 62
   154
420
    23468
370
    25
100
AcDb2dPolyline
 66
     1
 10
0.0
 20
0.0
 30
0.0
  0
VERTEX
  5
13A
330
139
100
AcDbEntity
  8
_U+30EC_U+30A4_U+30E4_U+30FC 1
  6
AI-Linetype-2
 62
   154
420
    23468
370
    25
100
AcDbVertex
100
AcDb2dVertex
 10
99.55706386399989
 20
-149.3245538515576
 30
0.0
  0
VERTEX
  5
13B
330
139
100
AcDbEntity
  8
_U+30EC_U+30A4_U+30E4_U+30FC 1
  6
AI-Linetype-2
 62
   154
420
    23468
370
    25
100
AcDbVertex
100
AcDb2dVertex
 10
114.5569956885187
 20
-149.3245538515576
 30
0.0
  0
SEQEND
  5
13D
330
139
100
AcDbEntity
  8
_U+30EC_U+30A4_U+30E4_U+30FC 1
  6
AI-Linetype-2
 62
   154
420
    23468
370
    25
  0
POLYLINE
  5
13E
330
1F
100
AcDbEntity
  8
_U+30EC_U+30A4_U+30E4_U+30FC 1
 62
   179
420
  2234388
370
     9
100
AcDb2dPolyline
 66
     1
 10
0.0
 20
0.0
 30
0.0
  0
VERTEX
  5
13F
330
13E
100
AcDbEntity
  8
_U+30EC_U+30A4_U+30E4_U+30FC 1
 62
   179
420
  2234388
370
     9
100
AcDbVertex
100
AcDb2dVertex
 10
73.97548727939476
 20
-116.0146410821073
 30
0.0
  0
VERTEX
  5
140
330
13E
100
AcDbEntity
  8
_U+30EC_U+30A4_U+30E4_U+30FC 1
 62
   179
420
  2234388
370
     9
100
AcDbVertex
100
AcDb2dVertex
 10
102.5921848826553
 20
-116.0146410821073
 30
0.0
  0
SEQEND
  5
141
330
13E
100
AcDbEntity
  8
_U+30EC_U+30A4_U+30E4_U+30FC 1
 62
   179
420
  2234388
370
     9
  0
POLYLINE
  5
142
330
1F
100
AcDbEntity
  8
_U+30EC_U+30A4_U+30E4_U+30FC 1
 62
   179
420
  2234388
370
     9
100
AcDb2dPolyline
 66
     1
 10
0.0
 20
0.0
 30
0.0
  0
VERTEX
  5
143
330
142
100
AcDbEntity
  8
_U+30EC_U+30A4_U+30E4_U+30FC 1
 62
   179
420
  2234388
370
     9
100
AcDbVertex
100
AcDb2dVertex
 10
73.97548727939476
 20
-116.0146410821073
 30
0.0
  0
VERTEX
  5
144
330
142
100
AcDbEntity
  8
_U+30EC_U+30A4_U+30E4_U+30FC 1
 62
   179
420
  2234388
370
     9
100
AcDbVertex
100
AcDb2dVertex
 10
74.94149864363864
 20
-115.7555610821723
 30
0.0
  0
SEQEND
  5
145
330
142
100
AcDbEntity
  8
_U+30EC_U+30A4_U+30E4_U+30FC 1
 62
   179
420
  2234388
370
     9
  0
POLYLINE
  5
146
330
1F
100
AcDbEntity
  8
_U+30EC_U+30A4_U+30E4_U+30FC 1
 62
   179
420
  2234388
370
     9
100
AcDb2dPolyline
 66
     1
 10
0.0
 20
0.0
 30
0.0
  0
VERTEX
  5
147
330
146
100
AcDbEntity
  8
_U+30EC_U+30A4_U+30E4_U+30FC 1
 62
   179
420
  2234388
370
     9
100
AcDbVertex
100
AcDb2dVertex
 10
73.97548727939476
 20
-116.0146410821073
 30
0.0
  0
VERTEX
  5
148
330
146
100
AcDbEntity
  8
_U+30EC_U+30A4_U+30E4_U+30FC 1
 62
   179
420
  2234388
370
     9
100
AcDbVertex
100
AcDb2dVertex
 10
74.94149864363864
 20
-116.2730155264874
 30
0.0
  0
SEQEND
  5
149
330
146
100
AcDbEntity
  8
_U+30EC_U+30A4_U+30E4_U+30FC 1
 62
   179
420
  2234388
370
     9
  0
POLYLINE
  5
14A
330
1F
100
AcDbEntity
  8
_U+30EC_U+30A4_U+30E4_U+30FC 1
 62
   179
420
  2234388
370
     9
100
AcDb2dPolyline
 66
     1
 10
0.0
 20
0.0
 30
0.0
  0
VERTEX
  5
14B
330
14A
100
AcDbEntity
  8
_U+30EC_U+30A4_U+30E4_U+30FC 1
 62
   179
420
  2234388
370
     9
100
AcDbVertex
100
AcDb2dVertex
 10
106.5568072815094
 20
-148.8243502405714
 30
0.0
  0
VERTEX
  5
14C
330
14A
100
AcDbEntity
  8
_U+30EC_U+30A4_U+30E4_U+30FC 1
 62
   179
420
  2234388
370
     9
100
AcDbVertex
100
AcDb2dVertex
 10
106.8158872748997
 20
-147.8583388519244
 30
0.0
  0
SEQEND
  5
14D
330
14A
100
AcDbEntity
  8
_U+30EC_U+30A4_U+30E4_U+30FC 1
 62
   179
420
  2234388
370
     9
  0
POLYLINE
  5
14E
330
1F
100
AcDbEntity
  8
_U+30EC_U+30A4_U+30E4_U+30FC 1
 62
   179
420
  2234388
370
     9
100
AcDb2dPolyline
 66
     1
 10
0.0
 20
0.0
 30
0.0
  0
VERTEX
  5
14F
330
14E
100
AcDbEntity
  8
_U+30EC_U+30A4_U+30E4_U+30FC 1
 62
   179
420
  2234388
370
     9
100
AcDbVertex
100
AcDb2dVertex
 10
106.5568072815094
 20
-148.8243502405714
 30
0.0
  0
VERTEX
  5
150
330
14E
100
AcDbEntity
  8
_U+30EC_U+30A4_U+30E4_U+30FC 1
 62
   179
420
  2234388
370
     9
100
AcDbVertex
100
AcDb2dVertex
 10
106.5568072815094
 20
-118.0534144149313
 30
0.0
  0
SEQEND
  5
151
330
14E
100
AcDbEntity
  8
_U+30EC_U+30A4_U+30E4_U+30FC 1
 62
   179
420
  2234388
370
     9
  0
POLYLINE
  5
152
330
1F
100
AcDbEntity
  8
_U+30EC_U+30A4_U+30E4_U+30FC 1
 62
   179
420
  2234388
370
     9
100
AcDb2dPolyline
 66
     1
 10
0.0
 20
0.0
 30
0.0
  0
VERTEX
  5
153
330
152
100
AcDbEntity
  8
_U+30EC_U+30A4_U+30E4_U+30FC 1
 62
   179
420
  2234388
370
     9
100
AcDbVertex
100
AcDb2dVertex
 10
106.5568072815094
 20
-148.8243502405714
 30
0.0
  0
VERTEX
  5
154
330
152
100
AcDbEntity
  8
_U+30EC_U+30A4_U+30E4_U+30FC 1
 62
   179
420
  2234388
370
     9
100
AcDbVertex
100
AcDb2dVertex
 10
106.2984328436566
 20
-147.8583388519244
 30
0.0
  0
SEQEND
  5
155
330
152
100
AcDbEntity
  8
_U+30EC_U+30A4_U+30E4_U+30FC 1
 62
   179
420
  2234388
370
     9
  0
INSERT
  5
157
330
1F
100
AcDbEntity
  8
_U+30EC_U+30A4_U+30E4_U+30FC 1
100
AcDbBlockReference
  2
block 7
 10
0.0
 20
0.0
 30
0.0
  0
ENDSEC
  0
SECTION
  2
OBJECTS
  0
DICTIONARY
  5
C
330
0
100
AcDbDictionary
281
     1
  3
ACAD_GROUP
350
D
  3
ACAD_LAYOUT
350
1A
  3
ACAD_MATERIAL
350
3B
  3
ACAD_MLEADERSTYLE
350
17F
  3
ACAD_MLINESTYLE
350
17
  3
ACAD_PLOTSETTINGS
350
19
  3
ACAD_PLOTSTYLENAME
350
E
  3
ACAD_TABLESTYLE
350
17E
  3
ACAD_VISUALSTYLE
350
2A
  0
SUN
  5
3F
330
29
100
AcDbSun
 90
        1
290
     0
 63
     7
421
 16777215
 40
1.0
291
     1
 91
  2455826
 92
 54000000
292
     0
 70
     2
 71
   256
280
     1
  0
DICTIONARY
  5
D
102
{ACAD_REACTORS
330
C
102
}
330
C
100
AcDbDictionary
281
     1
  0
DICTIONARY
  5
1A
102
{ACAD_REACTORS
330
C
102
}
330
C
100
AcDbDictionary
281
     1
  3
Layout1
350
1E
  3
Layout2
350
26
  3
Model
350
22
  0
DICTIONARY
  5
3B
102
{ACAD_REACTORS
330
C
102
}
330
C
100
AcDbDictionary
281
     1
  3
ByBlock
350
3D
  3
ByLayer
350
3C
  3
Global
350
3E
  0
DICTIONARY
  5
17F
102
{ACAD_REACTORS
330
C
102
}
330
C
100
AcDbDictionary
281
     1
  0
DICTIONARY
  5
17
102
{ACAD_REACTORS
330
C
102
}
330
C
100
AcDbDictionary
281
     1
  3
Standard
350
18
  0
DICTIONARY
  5
19
102
{ACAD_REACTORS
330
C
102
}
330
C
100
AcDbDictionary
281
     1
  0
ACDBDICTIONARYWDFLT
  5
E
102
{ACAD_REACTORS
330
C
102
}
330
C
100
AcDbDictionary
281
     1
  3
Normal
350
F
100
AcDbDictionaryWithDefault
340
F
  0
DICTIONARY
  5
17E
102
{ACAD_REACTORS
330
C
102
}
330
C
100
AcDbDictionary
281
     1
  0
DICTIONARY
  5
2A
102
{ACAD_REACTORS
330
C
102
}
330
C
100
AcDbDictionary
281
     1
  3
2dWireframe
350
2F
  3
3D Hidden
350
31
  3
3dWireframe
350
30
  3
Basic
350
32
  3
Brighten
350
36
  3
ColorChange
350
3A
  3
Conceptual
350
34
  3
Dim
350
35
  3
Facepattern
350
39
  3
Flat
350
2B
  3
FlatWithEdges
350
2C
  3
Gouraud
350
2D
  3
GouraudWithEdges
350
2E
  3
Linepattern
350
38
  3
Realistic
350
33
  3
Thicken
350
37
  0
LAYOUT
  5
1E
102
{ACAD_REACTORS
330
1A
102
}
330
1A
100
AcDbPlotSettings
  1

  2
none_device
  4

  6

 40
0.0
 41
0.0
 42
0.0
 43
0.0
 44
0.0
 45
0.0
 46
0.0
 47
0.0
 48
0.0
 49
0.0
140
0.0
141
0.0
142
1.0
143
1.0
 70
   688
 72
     0
 73
     0
 74
     5
  7

 75
    16
 76
     0
 77
     2
 78
   300
147
1.0
148
0.0
149
0.0
100
AcDbLayout
  1
Layout1
 70
     1
 71
     1
 10
0.0
 20
0.0
 11
12.0
 21
9.0
 12
0.0
 22
0.0
 32
0.0
 14
1.000000000000000E+20
 24
1.000000000000000E+20
 34
1.000000000000000E+20
 15
-1.000000000000000E+20
 25
-1.000000000000000E+20
 35
-1.000000000000000E+20
146
0.0
 13
0.0
 23
0.0
 33
0.0
 16
1.0
 26
0.0
 36
0.0
 17
0.0
 27
1.0
 37
0.0
 76
     0
330
1B
  0
LAYOUT
  5
26
102
{ACAD_REACTORS
330
1A
102
}
330
1A
100
AcDbPlotSettings
  1

  2
none_device
  4

  6

 40
0.0
 41
0.0
 42
0.0
 43
0.0
 44
0.0
 45
0.0
 46
0.0
 47
0.0
 48
0.0
 49
0.0
140
0.0
141
0.0
142
1.0
143
1.0
 70
   688
 72
     0
 73
     0
 74
     5
  7

 75
    16
 76
     0
 77
     2
 78
   300
147
1.0
148
0.0
149
0.0
100
AcDbLayout
  1
Layout2
 70
     1
 71
     2
 10
0.0
 20
0.0
 11
0.0
 21
0.0
 12
0.0
 22
0.0
 32
0.0
 14
0.0
 24
0.0
 34
0.0
 15
0.0
 25
0.0
 35
0.0
146
0.0
 13
0.0
 23
0.0
 33
0.0
 16
1.0
 26
0.0
 36
0.0
 17
0.0
 27
1.0
 37
0.0
 76
     0
330
23
  0
LAYOUT
  5
22
102
{ACAD_REACTORS
330
1A
102
}
330
1A
100
AcDbPlotSettings
  1

  2
none_device
  4

  6

 40
0.0
 41
0.0
 42
0.0
 43
0.0
 44
0.0
 45
0.0
 46
0.0
 47
0.0
 48
0.0
 49
0.0
140
0.0
141
0.0
142
1.0
143
1.0
 70
  1712
 72
     0
 73
     0
 74
     0
  7

 75
     0
 76
     0
 77
     2
 78
   300
147
1.0
148
0.0
149
0.0
100
AcDbLayout
  1
Model
 70
     1
 71
     0
 10
0.0
 20
0.0
 11
12.0
 21
9.0
 12
0.0
 22
0.0
 32
0.0
 14
1.000000000000000E+20
 24
1.000000000000000E+20
 34
1.000000000000000E+20
 15
-1.000000000000000E+20
 25
-1.000000000000000E+20
 35
-1.000000000000000E+20
146
0.0
 13
0.0
 23
0.0
 33
0.0
 16
1.0
 26
0.0
 36
0.0
 17
0.0
 27
1.0
 37
0.0
 76
     0
330
1F
331
29
  0
MATERIAL
  5
3D
102
{ACAD_REACTORS
330
3B
102
}
330
3B
100
AcDbMaterial
  1
ByBlock
 72
     1
 94
      127
  0
MATERIAL
  5
3C
102
{ACAD_REACTORS
330
3B
102
}
330
3B
100
AcDbMaterial
  1
ByLayer
 72
     1
 94
      127
  0
MATERIAL
  5
3E
102
{ACAD_REACTORS
330
3B
102
}
330
3B
100
AcDbMaterial
  1
Global
 72
     1
 94
      127
  0
MLINESTYLE
  5
18
102
{ACAD_REACTORS
330
17
102
}
330
17
100
AcDbMlineStyle
  2
Standard
 70
     0
  3

 62
   256
 51
90.0
 52
90.0
 71
     2
 49
0.5
 62
   256
  6
BYLAYER
 49
-0.5
 62
   256
  6
BYLAYER
  0
ACDBPLACEHOLDER
  5
F
102
{ACAD_REACTORS
330
E
102
}
330
E
  0
VISUALSTYLE
  5
2F
102
{ACAD_REACTORS
330
2A
102
}
330
2A
100
AcDbVisualStyle
  2
2dWireframe
 70
     4
177
     2
291
     0
 71
     0
176
     1
 72
     2
176
     1
 73
     0
176
     1
 90
        0
176
     1
 40
-0.6
176
     1
 41
-30.0
176
     1
 62
     5
 63
     7
421
 16777215
176
     1
 74
     1
176
     1
 91
        4
176
     1
 64
     7
176
     1
 65
   257
176
     1
 75
     1
176
     1
175
     1
176
     1
 42
1.0
176
     1
 92
        0
176
     1
 66
   257
176
     1
 43
1.0
176
     1
 76
     1
176
     1
 77
     6
176
     1
 78
     2
176
     1
 67
     7
176
     1
 79
     5
176
     1
170
     0
176
     1
171
     0
176
     1
290
     0
176
     1
 93
        1
176
     1
 44
0.0
176
     1
173
     0
176
     1
  0
VISUALSTYLE
  5
31
102
{ACAD_REACTORS
330
2A
102
}
330
2A
100
AcDbVisualStyle
  2
3D Hidden
 70
     6
177
     2
291
     0
 71
     1
176
     1
 72
     2
176
     1
 73
     2
176
     1
 90
        0
176
     1
 40
-0.6
176
     1
 41
-30.0
176
     1
 62
     5
 63
     7
421
 16777215
176
     1
 74
     2
176
     1
 91
        2
176
     1
 64
     7
176
     1
 65
   257
176
     1
 75
     2
176
     1
175
     1
176
     1
 42
40.0
176
     1
 92
        0
176
     1
 66
   257
176
     1
 43
1.0
176
     1
 76
     1
176
     1
 77
     6
176
     1
 78
     2
176
     1
 67
     7
176
     1
 79
     3
176
     1
170
     0
176
     1
171
     0
176
     1
290
     0
176
     1
 93
        1
176
     1
 44
0.0
176
     1
173
     0
176
     1
  0
VISUALSTYLE
  5
30
102
{ACAD_REACTORS
330
2A
102
}
330
2A
100
AcDbVisualStyle
  2
3dWireframe
 70
     5
177
     2
291
     0
 71
     0
176
     1
 72
     2
176
     1
 73
     0
176
     1
 90
        0
176
     1
 40
-0.6
176
     1
 41
-30.0
176
     1
 62
     5
 63
     7
421
 16777215
176
     1
 74
     1
176
     1
 91
        4
176
     1
 64
     7
176
     1
 65
   257
176
     1
 75
     1
176
     1
175
     1
176
     1
 42
1.0
176
     1
 92
        0
176
     1
 66
   257
176
     1
 43
1.0
176
     1
 76
     1
176
     1
 77
     6
176
     1
 78
     2
176
     1
 67
     7
176
     1
 79
     5
176
     1
170
     0
176
     1
171
     0
176
     1
290
     0
176
     1
 93
        1
176
     1
 44
0.0
176
     1
173
     0
176
     1
  0
VISUALSTYLE
  5
32
102
{ACAD_REACTORS
330
2A
102
}
330
2A
100
AcDbVisualStyle
  2
Basic
 70
     7
177
     2
291
     1
 71
     1
176
     1
 72
     0
176
     1
 73
     1
176
     1
 90
        0
176
     1
 40
-0.6
176
     1
 41
-30.0
176
     1
 62
     5
 63
     7
421
 16777215
176
     1
 74
     0
176
     1
 91
        4
176
     1
 64
     7
176
     1
 65
   257
176
     1
 75
     1
176
     1
175
     1
176
     1
 42
1.0
176
     1
 92
        8
176
     1
 66
     7
176
     1
 43
1.0
176
     1
 76
     1
176
     1
 77
     6
176
     1
 78
     2
176
     1
 67
     7
176
     1
 79
     5
176
     1
170
     0
176
     1
171
     0
176
     1
290
     0
176
     1
 93
        1
176
     1
 44
0.0
176
     1
173
     0
176
     1
  0
VISUALSTYLE
  5
36
102
{ACAD_REACTORS
330
2A
102
}
330
2A
100
AcDbVisualStyle
  2
Brighten
 70
    12
177
     2
291
     1
 71
     2
176
     1
 72
     2
176
     1
 73
     0
176
     1
 90
        0
176
     1
 40
-0.6
176
     1
 41
-30.0
176
     1
 62
     5
 63
     7
421
 16777215
176
     1
 74
     1
176
     1
 91
        4
176
     1
 64
     7
176
     1
 65
   257
176
     1
 75
     1
176
     1
175
     1
176
     1
 42
1.0
176
     1
 92
        8
176
     1
 66
     7
176
     1
 43
1.0
176
     1
 76
     1
176
     1
 77
     6
176
     1
 78
     2
176
     1
 67
     7
176
     1
 79
     5
176
     1
170
     0
176
     1
171
     0
176
     1
290
     0
176
     1
 93
        1
176
     1
 44
50.0
176
     1
173
     0
176
     1
  0
VISUALSTYLE
  5
3A
102
{ACAD_REACTORS
330
2A
102
}
330
2A
100
AcDbVisualStyle
  2
ColorChange
 70
    16
177
     2
291
     1
 71
     2
176
     1
 72
     2
176
     1
 73
     3
176
     1
 90
        0
176
     1
 40
-0.6
176
     1
 41
-30.0
176
     1
 62
     5
 63
     8
421
  8421504
176
     1
 74
     1
176
     1
 91
        4
176
     1
 64
     7
176
     1
 65
   257
176
     1
 75
     1
176
     1
175
     1
176
     1
 42
1.0
176
     1
 92
        8
176
     1
 66
     8
424
  8421504
176
     1
 43
1.0
176
     1
 76
     1
176
     1
 77
     6
176
     1
 78
     2
176
     1
 67
     7
176
     1
 79
     5
176
     1
170
     0
176
     1
171
     0
176
     1
290
     0
176
     1
 93
        1
176
     1
 44
0.0
176
     1
173
     0
176
     1
  0
VISUALSTYLE
  5
34
102
{ACAD_REACTORS
330
2A
102
}
330
2A
100
AcDbVisualStyle
  2
Conceptual
 70
     9
177
     2
291
     0
 71
     3
176
     1
 72
     2
176
     1
 73
     0
176
     1
 90
        0
176
     1
 40
-0.6
176
     1
 41
-30.0
176
     1
 62
     5
 63
     7
421
 16777215
176
     1
 74
     2
176
     1
 91
        2
176
     1
 64
     7
176
     1
 65
   257
176
     1
 75
     1
176
     1
175
     1
176
     1
 42
40.0
176
     1
 92
        8
176
     1
 66
     7
176
     1
 43
1.0
176
     1
 76
     1
176
     1
 77
     6
176
     1
 78
     2
176
     1
 67
     7
176
     1
 79
     3
176
     1
170
     0
176
     1
171
     0
176
     1
290
     0
176
     1
 93
        1
176
     1
 44
0.0
176
     1
173
     0
176
     1
  0
VISUALSTYLE
  5
35
102
{ACAD_REACTORS
330
2A
102
}
330
2A
100
AcDbVisualStyle
  2
Dim
 70
    11
177
     2
291
     1
 71
     2
176
     1
 72
     2
176
     1
 73
     0
176
     1
 90
        0
176
     1
 40
-0.6
176
     1
 41
-30.0
176
     1
 62
     5
 63
     7
421
 16777215
176
     1
 74
     1
176
     1
 91
        4
176
     1
 64
     7
176
     1
 65
   257
176
     1
 75
     1
176
     1
175
     1
176
     1
 42
1.0
176
     1
 92
        8
176
     1
 66
     7
176
     1
 43
1.0
176
     1
 76
     1
176
     1
 77
     6
176
     1
 78
     2
176
     1
 67
     7
176
     1
 79
     5
176
     1
170
     0
176
     1
171
     0
176
     1
290
     0
176
     1
 93
        1
176
     1
 44
-50.0
176
     1
173
     0
176
     1
  0
VISUALSTYLE
  5
39
102
{ACAD_REACTORS
330
2A
102
}
330
2A
100
AcDbVisualStyle
  2
Facepattern
 70
    15
177
     2
291
     1
 71
     2
176
     1
 72
     2
176
     1
 73
     0
176
     1
 90
        0
176
     1
 40
-0.6
176
     1
 41
-30.0
176
     1
 62
     5
 63
     7
421
 16777215
176
     1
 74
     1
176
     1
 91
        4
176
     1
 64
     7
176
     1
 65
   257
176
     1
 75
     1
176
     1
175
     1
176
     1
 42
1.0
176
     1
 92
        8
176
     1
 66
     7
176
     1
 43
1.0
176
     1
 76
     1
176
     1
 77
     6
176
     1
 78
     2
176
     1
 67
     7
176
     1
 79
     5
176
     1
170
     0
176
     1
171
     0
176
     1
290
     0
176
     1
 93
        1
176
     1
 44
0.0
176
     1
173
     0
176
     1
  0
VISUALSTYLE
  5
2B
102
{ACAD_REACTORS
330
2A
102
}
330
2A
100
AcDbVisualStyle
  2
Flat
 70
     0
177
     2
291
     1
 71
     2
176
     1
 72
     1
176
     1
 73
     1
176
     1
 90
        2
176
     1
 40
-0.6
176
     1
 41
30.0
176
     1
 62
     5
 63
     7
421
 16777215
176
     1
 74
     0
176
     1
 91
        4
176
     1
 64
     7
176
     1
 65
   257
176
     1
 75
     1
176
     1
175
     1
176
     1
 42
1.0
176
     1
 92
        8
176
     1
 66
     7
176
     1
 43
1.0
176
     1
 76
     1
176
     1
 77
     6
176
     1
 78
     2
176
     1
 67
     7
176
     1
 79
     5
176
     1
170
     0
176
     1
171
     0
176
     1
290
     0
176
     1
 93
       13
176
     1
 44
0.0
176
     1
173
     0
176
     1
  0
VISUALSTYLE
  5
2C
102
{ACAD_REACTORS
330
2A
102
}
330
2A
100
AcDbVisualStyle
  2
FlatWithEdges
 70
     1
177
     2
291
     1
 71
     2
176
     1
 72
     1
176
     1
 73
     1
176
     1
 90
        2
176
     1
 40
-0.6
176
     1
 41
30.0
176
     1
 62
     5
 63
     7
421
 16777215
176
     1
 74
     1
176
     1
 91
        4
176
     1
 64
     7
176
     1
 65
   257
176
     1
 75
     1
176
     1
175
     1
176
     1
 42
1.0
176
     1
 92
        0
176
     1
 66
   257
176
     1
 43
1.0
176
     1
 76
     1
176
     1
 77
     6
176
     1
 78
     2
176
     1
 67
     7
176
     1
 79
     5
176
     1
170
     0
176
     1
171
     0
176
     1
290
     0
176
     1
 93
       13
176
     1
 44
0.0
176
     1
173
     0
176
     1
  0
VISUALSTYLE
  5
2D
102
{ACAD_REACTORS
330
2A
102
}
330
2A
100
AcDbVisualStyle
  2
Gouraud
 70
     2
177
     2
291
     1
 71
     2
176
     1
 72
     2
176
     1
 73
     1
176
     1
 90
        2
176
     1
 40
-0.6
176
     1
 41
30.0
176
     1
 62
     5
 63
     7
421
 16777215
176
     1
 74
     0
176
     1
 91
        4
176
     1
 64
     7
176
     1
 65
   257
176
     1
 75
     1
176
     1
175
     1
176
     1
 42
1.0
176
     1
 92
        0
176
     1
 66
     7
176
     1
 43
1.0
176
     1
 76
     1
176
     1
 77
     6
176
     1
 78
     2
176
     1
 67
     7
176
     1
 79
     5
176
     1
170
     0
176
     1
171
     0
176
     1
290
     0
176
     1
 93
       13
176
     1
 44
0.0
176
     1
173
     0
176
     1
  0
VISUALSTYLE
  5
2E
102
{ACAD_REACTORS
330
2A
102
}
330
2A
100
AcDbVisualStyle
  2
GouraudWithEdges
 70
     3
177
     2
291
     1
 71
     2
176
     1
 72
     2
176
     1
 73
     1
176
     1
 90
        2
176
     1
 40
-0.6
176
     1
 41
30.0
176
     1
 62
     5
 63
     7
421
 16777215
176
     1
 74
     1
176
     1
 91
        4
176
     1
 64
     7
176
     1
 65
   257
176
     1
 75
     1
176
     1
175
     1
176
     1
 42
1.0
176
     1
 92
        0
176
     1
 66
   257
176
     1
 43
1.0
176
     1
 76
     1
176
     1
 77
     6
176
     1
 78
     2
176
     1
 67
     7
176
     1
 79
     5
176
     1
170
     0
176
     1
171
     0
176
     1
290
     0
176
     1
 93
       13
176
     1
 44
0.0
176
     1
173
     0
176
     1
  0
VISUALSTYLE
  5
38
102
{ACAD_REACTORS
330
2A
102
}
330
2A
100
AcDbVisualStyle
  2
Linepattern
 70
    14
177
     2
291
     1
 71
     2
176
     1
 72
     2
176
     1
 73
     0
176
     1
 90
        0
176
     1
 40
-0.6
176
     1
 41
-30.0
176
     1
 62
     5
 63
     7
421
 16777215
176
     1
 74
     1
176
     1
 91
        4
176
     1
 64
     7
176
     1
 65
   257
176
     1
 75
     7
176
     1
175
     7
176
     1
 42
1.0
176
     1
 92
        8
176
     1
 66
     7
176
     1
 43
1.0
176
     1
 76
     1
176
     1
 77
     6
176
     1
 78
     2
176
     1
 67
     7
176
     1
 79
     5
176
     1
170
     0
176
     1
171
     0
176
     1
290
     0
176
     1
 93
        1
176
     1
 44
0.0
176
     1
173
     0
176
     1
  0
VISUALSTYLE
  5
33
102
{ACAD_REACTORS
330
2A
102
}
330
2A
100
AcDbVisualStyle
  2
Realistic
 70
     8
177
     2
291
     0
 71
     2
176
     1
 72
     2
176
     1
 73
     0
176
     1
 90
        0
176
     1
 40
-0.6
176
     1
 41
-30.0
176
     1
 62
     5
 63
     7
421
 16777215
176
     1
 74
     1
176
     1
 91
        0
176
     1
 64
     7
176
     1
 65
   257
176
     1
 75
     1
176
     1
175
     1
176
     1
 42
1.0
176
     1
 92
        8
176
     1
 66
     8
424
  7895160
176
     1
 43
1.0
176
     1
 76
     1
176
     1
 77
     6
176
     1
 78
     2
176
     1
 67
     7
176
     1
 79
     5
176
     1
170
     0
176
     1
171
     0
176
     1
290
     0
176
     1
 93
       13
176
     1
 44
0.0
176
     1
173
     0
176
     1
  0
VISUALSTYLE
  5
37
102
{ACAD_REACTORS
330
2A
102
}
330
2A
100
AcDbVisualStyle
  2
Thicken
 70
    13
177
     2
291
     1
 71
     2
176
     1
 72
     2
176
     1
 73
     0
176
     1
 90
        0
176
     1
 40
-0.6
176
     1
 41
-30.0
176
     1
 62
     5
 63
     7
421
 16777215
176
     1
 74
     1
176
     1
 91
        4
176
     1
 64
     7
176
     1
 65
   257
176
     1
 75
     1
176
     1
175
     1
176
     1
 42
1.0
176
     1
 92
       12
176
     1
 66
     7
176
     1
 43
1.0
176
     1
 76
     1
176
     1
 77
     6
176
     1
 78
     2
176
     1
 67
     7
176
     1
 79
     5
176
     1
170
     0
176
     1
171
     0
176
     1
290
     0
176
     1
 93
        1
176
     1
 44
0.0
176
     1
173
     0
176
     1
  0
ENDSEC
  0
EOF
