  0
SECTION
  2
HEADER
  9
$ACADVER
  1
AC1024
  9
$ACADMAINTVER
 70
     6
  9
$DWGCODEPAGE
  3
UNDEFINED
  9
$INSBASE
 10
0.0
 20
0.0
 30
0.0
  9
$EXTMIN
 10
1.000000000000000E+20
 20
1.000000000000000E+20
 30
1.000000000000000E+20
  9
$EXTMAX
 10
-1.000000000000000E+20
 20
-1.000000000000000E+20
 30
-1.000000000000000E+20
  9
$LIMMIN
 10
0.0
 20
0.0
  9
$LIMMAX
 10
12.0
 20
9.0
  9
$ORTHOMODE
 70
     0
  9
$REGENMODE
 70
     1
  9
$FILLMODE
 70
     1
  9
$QTEXTMODE
 70
     0
  9
$MIRRTEXT
 70
     1
  9
$LTSCALE
 40
1.0
  9
$ATTMODE
 70
     1
  9
$TEXTSIZE
 40
0.2
  9
$TRACEWID
 40
0.05
  9
$TEXTSTYLE
  7
Standard
  9
$CLAYER
  8
0
  9
$CELTYPE
  6
ByLayer
  9
$CECOLOR
 62
   256
  9
$CELTSCALE
 40
1.0
  9
$DISPSILH
 70
     0
  9
$DIMSCALE
 40
1.0
  9
$DIMASZ
 40
0.18
  9
$DIMEXO
 40
0.0625
  9
$DIMDLI
 40
0.38
  9
$DIMRND
 40
0.0
  9
$DIMDLE
 40
0.0
  9
$DIMEXE
 40
0.18
  9
$DIMTP
 40
0.0
  9
$DIMTM
 40
0.0
  9
$DIMTXT
 40
0.18
  9
$DIMCEN
 40
0.09
  9
$DIMTSZ
 40
0.0
  9
$DIMTOL
 70
     0
  9
$DIMLIM
 70
     0
  9
$DIMTIH
 70
     1
  9
$DIMTOH
 70
     1
  9
$DIMSE1
 70
     0
  9
$DIMSE2
 70
     0
  9
$DIMTAD
 70
     0
  9
$DIMZIN
 70
     0
  9
$DIMBLK
  1

  9
$DIMASO
 70
     1
  9
$DIMSHO
 70
     1
  9
$DIMPOST
  1

  9
$DIMAPOST
  1

  9
$DIMALT
 70
     0
  9
$DIMALTD
 70
     2
  9
$DIMALTF
 40
25.4
  9
$DIMLFAC
 40
1.0
  9
$DIMTOFL
 70
     0
  9
$DIMTVP
 40
0.0
  9
$DIMTIX
 70
     0
  9
$DIMSOXD
 70
     0
  9
$DIMSAH
 70
     0
  9
$DIMBLK1
  1

  9
$DIMBLK2
  1

  9
$DIMSTYLE
  2
Standard
  9
$DIMCLRD
 70
     0
  9
$DIMCLRE
 70
     0
  9
$DIMCLRT
 70
     0
  9
$DIMTFAC
 40
1.0
  9
$DIMGAP
 40
0.09
  9
$DIMJUST
 70
     0
  9
$DIMSD1
 70
     0
  9
$DIMSD2
 70
     0
  9
$DIMTOLJ
 70
     1
  9
$DIMTZIN
 70
     0
  9
$DIMALTZ
 70
     0
  9
$DIMALTTZ
 70
     0
  9
$DIMUPT
 70
     0
  9
$DIMDEC
 70
     4
  9
$DIMTDEC
 70
     4
  9
$DIMALTU
 70
     2
  9
$DIMALTTD
 70
     2
  9
$DIMTXSTY
  7
Standard
  9
$DIMAUNIT
 70
     0
  9
$DIMADEC
 70
     0
  9
$DIMALTRND
 40
0.0
  9
$DIMAZIN
 70
     0
  9
$DIMDSEP
 70
    46
  9
$DIMATFIT
 70
     3
  9
$DIMFRAC
 70
     0
  9
$DIMLDRBLK
  1

  9
$DIMLUNIT
 70
     2
  9
$DIMLWD
 70
    -2
  9
$DIMLWE
 70
    -2
  9
$DIMTMOVE
 70
     0
  9
$DIMFXL
 40
1.0
  9
$DIMFXLON
 70
     0
  9
$DIMJOGANG
 40
0.7853981633974483
  9
$DIMTFILL
 70
     0
  9
$DIMTFILLCLR
 70
     0
  9
$DIMARCSYM
 70
     0
  9
$DIMLTYPE
  6

  9
$DIMLTEX1
  6

  9
$DIMLTEX2
  6

  9
$DIMTXTDIRECTION
 70
     0
  9
$LUNITS
 70
     2
  9
$LUPREC
 70
     4
  9
$SKETCHINC
 40
0.1
  9
$FILLETRAD
 40
0.5
  9
$AUNITS
 70
     0
  9
$AUPREC
 70
     0
  9
$MENU
  1
.
  9
$ELEVATION
 40
0.0
  9
$PELEVATION
 40
0.0
  9
$THICKNESS
 40
0.0
  9
$LIMCHECK
 70
     0
  9
$CHAMFERA
 40
0.5
  9
$CHAMFERB
 40
0.5
  9
$CHAMFERC
 40
1.0
  9
$CHAMFERD
 40
0.0
  9
$SKPOLY
 70
     0
  9
$TDCREATE
 40
2457917.585324074
  9
$TDUCREATE
 40
2457917.210324074
  9
$TDUPDATE
 40
2457917.585324074
  9
$TDUUPDATE
 40
2457917.210324074
  9
$TDINDWG
 40
0.0000000116
  9
$TDUSRTIMER
 40
0.0000000116
  9
$USRTIMER
 70
     1
  9
$ANGBASE
 50
0.0
  9
$ANGDIR
 70
     0
  9
$PDMODE
 70
     0
  9
$PDSIZE
 40
0.0
  9
$PLINEWID
 40
0.0
  9
$SPLFRAME
 70
     0
  9
$SPLINETYPE
 70
     6
  9
$SPLINESEGS
 70
     8
  9
$HANDSEED
  5
15F
  9
$SURFTAB1
 70
     6
  9
$SURFTAB2
 70
     6
  9
$SURFTYPE
 70
     6
  9
$SURFU
 70
     6
  9
$SURFV
 70
     6
  9
$UCSBASE
  2

  9
$UCSNAME
  2

  9
$UCSORG
 10
0.0
 20
0.0
 30
0.0
  9
$UCSXDIR
 10
1.0
 20
0.0
 30
0.0
  9
$UCSYDIR
 10
0.0
 20
1.0
 30
0.0
  9
$UCSORTHOREF
  2

  9
$UCSORTHOVIEW
 70
     0
  9
$UCSORGTOP
 10
0.0
 20
0.0
 30
0.0
  9
$UCSORGBOTTOM
 10
0.0
 20
0.0
 30
0.0
  9
$UCSORGLEFT
 10
0.0
 20
0.0
 30
0.0
  9
$UCSORGRIGHT
 10
0.0
 20
0.0
 30
0.0
  9
$UCSORGFRONT
 10
0.0
 20
0.0
 30
0.0
  9
$UCSORGBACK
 10
0.0
 20
0.0
 30
0.0
  9
$PUCSBASE
  2

  9
$PUCSNAME
  2

  9
$PUCSORG
 10
0.0
 20
0.0
 30
0.0
  9
$PUCSXDIR
 10
1.0
 20
0.0
 30
0.0
  9
$PUCSYDIR
 10
0.0
 20
1.0
 30
0.0
  9
$PUCSORTHOREF
  2

  9
$PUCSORTHOVIEW
 70
     0
  9
$PUCSORGTOP
 10
0.0
 20
0.0
 30
0.0
  9
$PUCSORGBOTTOM
 10
0.0
 20
0.0
 30
0.0
  9
$PUCSORGLEFT
 10
0.0
 20
0.0
 30
0.0
  9
$PUCSORGRIGHT
 10
0.0
 20
0.0
 30
0.0
  9
$PUCSORGFRONT
 10
0.0
 20
0.0
 30
0.0
  9
$PUCSORGBACK
 10
0.0
 20
0.0
 30
0.0
  9
$USERI1
 70
     0
  9
$USERI2
 70
     0
  9
$USERI3
 70
     0
  9
$USERI4
 70
     0
  9
$USERI5
 70
     0
  9
$USERR1
 40
0.0
  9
$USERR2
 40
0.0
  9
$USERR3
 40
0.0
  9
$USERR4
 40
0.0
  9
$USERR5
 40
0.0
  9
$WORLDVIEW
 70
     1
  9
$SHADEDGE
 70
     3
  9
$SHADEDIF
 70
    70
  9
$TILEMODE
 70
     1
  9
$MAXACTVP
 70
    64
  9
$PINSBASE
 10
0.0
 20
0.0
 30
0.0
  9
$PLIMCHECK
 70
     0
  9
$PEXTMIN
 10
1.000000000000000E+20
 20
1.000000000000000E+20
 30
1.000000000000000E+20
  9
$PEXTMAX
 10
-1.000000000000000E+20
 20
-1.000000000000000E+20
 30
-1.000000000000000E+20
  9
$PLIMMIN
 10
0.0
 20
0.0
  9
$PLIMMAX
 10
12.0
 20
9.0
  9
$UNITMODE
 70
     0
  9
$VISRETAIN
 70
     1
  9
$PLINEGEN
 70
     0
  9
$PSLTSCALE
 70
     1
  9
$TREEDEPTH
 70
  3020
  9
$CMLSTYLE
  2
Standard
  9
$CMLJUST
 70
     0
  9
$CMLSCALE
 40
1.0
  9
$PROXYGRAPHICS
 70
     1
  9
$MEASUREMENT
 70
     0
  9
$CELWEIGHT
370
    -1
  9
$ENDCAPS
280
     0
  9
$JOINSTYLE
280
     0
  9
$LWDISPLAY
290
     1
  9
$INSUNITS
 70
     1
  9
$HYPERLINKBASE
  1

  9
$STYLESHEET
  1

  9
$XEDIT
290
     1
  9
$CEPSNTYPE
380
     0
  9
$PSTYLEMODE
290
     1
  9
$FINGERPRINTGUID
  2
{E2B178CC-3056-379C-4571-AFF1474F6AE2}
  9
$VERSIONGUID
  2
{FAEB1C32-E019-11D5-929B-00C0DF256EC4}
  9
$EXTNAMES
290
     1
  9
$PSVPSCALE
 40
0.0
  9
$OLESTARTUP
290
     0
  9
$SORTENTS
280
   127
  9
$INDEXCTL
280
     0
  9
$HIDETEXT
280
     1
  9
$XCLIPFRAME
280
     2
  9
$HALOGAP
280
     0
  9
$OBSCOLOR
 70
   257
  9
$OBSLTYPE
280
     0
  9
$INTERSECTIONDISPLAY
280
     0
  9
$INTERSECTIONCOLOR
 70
   257
  9
$DIMASSOC
280
     2
  9
$PROJECTNAME
  1

  9
$CAMERADISPLAY
290
     0
  9
$LENSLENGTH
 40
50.0
  9
$CAMERAHEIGHT
 40
0.0
  9
$STEPSPERSEC
 40
2.0
  9
$STEPSIZE
 40
6.0
  9
$3DDWFPREC
 40
2.0
  9
$PSOLWIDTH
 40
0.25
  9
$PSOLHEIGHT
 40
4.0
  9
$LOFTANG1
 40
1.570796326794897
  9
$LOFTANG2
 40
1.570796326794897
  9
$LOFTMAG1
 40
0.0
  9
$LOFTMAG2
 40
0.0
  9
$LOFTPARAM
 70
     7
  9
$LOFTNORMALS
280
     1
  9
$LATITUDE
 40
37.795
  9
$LONGITUDE
 40
-122.394
  9
$NORTHDIRECTION
 40
0.0
  9
$TIMEZONE
 70
 -8000
  9
$LIGHTGLYPHDISPLAY
280
     1
  9
$TILEMODELIGHTSYNCH
280
     1
  9
$CMATERIAL
347
3C
  9
$SOLIDHIST
280
     1
  9
$SHOWHIST
280
     1
  9
$DWFFRAME
280
     2
  9
$DGNFRAME
280
     2
  9
$REALWORLDSCALE
290
     1
  9
$INTERFERECOLOR
 62
   256
  9
$CSHADOW
280
     0
  9
$SHADOWPLANELOCATION
 40
0.0
  0
ENDSEC
  0
SECTION
  2
CLASSES
  0
CLASS
  1
ACDBDICTIONARYWDFLT
  2
AcDbDictionaryWithDefault
  3
ObjectDBX Classes
 90
        0
 91
        4
280
     0
281
     0
  0
CLASS
  1
VISUALSTYLE
  2
AcDbVisualStyle
  3
ObjectDBX Classes
 90
     4095
 91
        4
280
     0
281
     0
  0
CLASS
  1
MATERIAL
  2
AcDbMaterial
  3
ObjectDBX Classes
 90
     1153
 91
        4
280
     0
281
     0
  0
CLASS
  1
SUN
  2
AcDbSun
  3
SCENEOE
 90
     1024
 91
        4
280
     0
281
     0
  0
ENDSEC
  0
SECTION
  2
TABLES
  0
TABLE
  2
VPORT
  5
8
330
0
100
AcDbSymbolTable
 70
     1
  0
VPORT
  5
29
330
8
100
AcDbSymbolTableRecord
100
AcDbViewportTableRecord
  2
*Active
 70
     0
 10
0.0
 20
0.0
 11
1.0
 21
1.0
 12
0.0
 22
0.0
 13
0.0
 23
0.0
 14
0.5
 24
0.5
 15
0.5
 25
0.5
 16
0.0
 26
0.0
 36
1.0
 17
91.00082462281999
 27
-128.4993055234307
 37
0.0
 40
256.9986110468615
 41
0.7081814508812795
 42
50.0
 43
0.0
 44
0.0
 50
0.0
 51
0.0
 71
     0
 72
   100
 73
     1
 74
     3
 75
     0
 76
     0
 77
     0
 78
     0
281
     0
 65
     1
110
0.0
120
0.0
130
0.0
111
1.0
121
0.0
131
0.0
112
0.0
122
1.0
132
0.0
 79
     0
146
0.0
 60
     3
 61
     5
292
     1
282
     1
141
0.0
142
0.0
 63
   250
361
3F
  0
ENDTAB
  0
TABLE
  2
LTYPE
  5
5
330
0
100
AcDbSymbolTable
 70
     3
  0
LTYPE
  5
14
330
5
100
AcDbSymbolTableRecord
100
AcDbLinetypeTableRecord
  2
ByBlock
 70
     0
  3

 72
    65
 73
     0
 40
0.0
  0
LTYPE
  5
15
330
5
100
AcDbSymbolTableRecord
100
AcDbLinetypeTableRecord
  2
ByLayer
 70
     0
  3

 72
    65
 73
     0
 40
0.0
  0
LTYPE
  5
16
330
5
100
AcDbSymbolTableRecord
100
AcDbLinetypeTableRecord
  2
Continuous
 70
     0
  3
Solid line
 72
    65
 73
     0
 40
0.0
  0
LTYPE
  5
116
330
5
100
AcDbSymbolTableRecord
100
AcDbLinetypeTableRecord
  2
AI-Linetype-1
 70
     0
  3
Adobe Illustrator Linetype No. 1
 72
    65
 73
     2
 40
1.411111110758333
 49
0.7055555553791667
 74
     0
 49
-0.7055555553791667
 74
     0
  0
LTYPE
  5
11B
330
5
100
AcDbSymbolTableRecord
100
AcDbLinetypeTableRecord
  2
AI-Linetype-2
 70
     0
  3
Adobe Illustrator Linetype No. 2
 72
    65
 73
     2
 40
1.411111110758333
 49
0.7055555553791667
 74
     0
 49
-0.7055555553791667
 74
     0
  0
ENDTAB
  0
TABLE
  2
LAYER
  5
2
330
0
100
AcDbSymbolTable
 70
     2
  0
LAYER
  5
10
330
2
100
AcDbSymbolTableRecord
100
AcDbLayerTableRecord
  2
0
 70
     0
 62
     7
  6
Continuous
370
    -3
390
F
347
3E
  0
LAYER
  5
40
330
2
100
AcDbSymbolTableRecord
100
AcDbLayerTableRecord
  2
_U+30EC_U+30A4_U+30E4_U+30FC 1
 70
     0
 62
     7
  6
Continuous
370
    -3
390
F
347
3E
  0
ENDTAB
  0
TABLE
  2
STYLE
  5
3
330
0
100
AcDbSymbolTable
 70
     1
  0
STYLE
  5
11
330
3
100
AcDbSymbolTableRecord
100
AcDbTextStyleTableRecord
  2
Standard
 70
     0
 40
0.0
 41
1.0
 50
0.0
 71
     0
 42
0.2
  3
txt
  4

  0
ENDTAB
  0
TABLE
  2
VIEW
  5
6
330
0
100
AcDbSymbolTable
 70
     0
  0
ENDTAB
  0
TABLE
  2
UCS
  5
7
330
0
100
AcDbSymbolTable
 70
     0
  0
ENDTAB
  0
TABLE
  2
APPID
  5
9
330
0
100
AcDbSymbolTable
 70
     1
  0
APPID
  5
12
330
9
100
AcDbSymbolTableRecord
100
AcDbRegAppTableRecord
  2
ACAD
 70
     0
  0
ENDTAB
  0
TABLE
  2
DIMSTYLE
  5
A
330
0
100
AcDbSymbolTable
 70
     1
100
AcDbDimStyleTable
  0
DIMSTYLE
105
27
330
A
100
AcDbSymbolTableRecord
100
AcDbDimStyleTableRecord
  2
Standard
 70
     0
178
     0
340
11
  0
ENDTAB
  0
TABLE
  2
BLOCK_RECORD
  5
1
330
0
100
AcDbSymbolTable
 70
     7
  0
BLOCK_RECORD
  5
1F
330
1
100
AcDbSymbolTableRecord
100
AcDbBlockTableRecord
  2
*Model_Space
340
22
 70
     0
280
     1
281
     0
  0
BLOCK_RECORD
  5
1B
330
1
100
AcDbSymbolTableRecord
100
AcDbBlockTableRecord
  2
*Paper_Space
340
1E
 70
     0
280
     1
281
     0
  0
BLOCK_RECORD
  5
23
330
1
100
AcDbSymbolTableRecord
100
AcDbBlockTableRecord
  2
*Paper_Space0
340
26
 70
     0
280
     1
281
     0
  0
BLOCK_RECORD
  5
73
330
1
100
AcDbSymbolTableRecord
100
AcDbBlockTableRecord
  2
block 2
340
0
102
{BLKREFS
331
74
102
}
 70
     0
280
     1
281
     0
  0
BLOCK_RECORD
  5
8F
330
1
100
AcDbSymbolTableRecord
100
AcDbBlockTableRecord
  2
block 3
340
0
102
{BLKREFS
331
90
102
}
 70
     0
280
     1
281
     0
  0
BLOCK_RECORD
  5
C3
330
1
100
AcDbSymbolTableRecord
100
AcDbBlockTableRecord
  2
block 4
340
0
102
{BLKREFS
331
C4
102
}
 70
     0
280
     1
281
     0
  0
BLOCK_RECORD
  5
F3
330
1
100
AcDbSymbolTableRecord
100
AcDbBlockTableRecord
  2
block 5
340
0
102
{BLKREFS
331
F4
102
}
 70
     0
280
     1
281
     0
  0
BLOCK_RECORD
  5
109
330
1
100
AcDbSymbolTableRecord
100
AcDbBlockTableRecord
  2
block 6
340
0
102
{BLKREFS
331
10A
102
}
 70
     0
280
     1
281
     0
  0
BLOCK_RECORD
  5
135
330
1
100
AcDbSymbolTableRecord
100
AcDbBlockTableRecord
  2
block 7
340
0
102
{BLKREFS
331
136
102
}
 70
     0
280
     1
281
     0
  0
ENDTAB
  0
ENDSEC
  0
SECTION
  2
BLOCKS
  0
BLOCK
  5
20
330
1F
100
AcDbEntity
  8
0
100
AcDbBlockBegin
  2
*Model_Space
 70
     0
 10
0.0
 20
0.0
 30
0.0
  3
*Model_Space
  1

  0
ENDBLK
  5
21
330
1F
100
AcDbEntity
  8
0
100
AcDbBlockEnd
  0
BLOCK
  5
1C
330
1B
100
AcDbEntity
 67
     1
  8
0
100
AcDbBlockBegin
  2
*Paper_Space
 70
     0
 10
0.0
 20
0.0
 30
0.0
  3
*Paper_Space
  1

  0
ENDBLK
  5
1D
330
1B
100
AcDbEntity
 67
     1
  8
0
100
AcDbBlockEnd
  0
BLOCK
  5
24
330
23
100
AcDbEntity
  8
0
100
AcDbBlockBegin
  2
*Paper_Space0
 70
     0
 10
0.0
 20
0.0
 30
0.0
  3
*Paper_Space0
  1

  0
ENDBLK
  5
25
330
23
100
AcDbEntity
  8
0
100
AcDbBlockEnd
  0
BLOCK
  5
75
330
73
100
AcDbEntity
  8
0
100
AcDbBlockBegin
  2
block 2
 70
     0
 10
0.0
 20
0.0
 30
0.0
  3
block 2
  1

  0
SPLINE
  5
77
330
73
100
AcDbEntity
  8
_U+30EC_U+30A4_U+30E4_U+30FC 1
370
     0
100
AcDbSpline
210
0.0
220
0.0
230
1.0
 70
    11
 71
     3
 72
    44
 73
    40
 74
     0
 42
0.0000000001
 43
0.0000000001
 12
1.0
 22
0.0
 32
0.0
 13
1.0
 23
0.0
 33
0.0
 40
0.0
 40
0.0
 40
0.0
 40
0.0
 40
1.0
 40
1.0
 40
1.0
 40
2.0
 40
2.0
 40
2.0
 40
3.0
 40
3.0
 40
3.0
 40
4.0
 40
4.0
 40
4.0
 40
5.0
 40
5.0
 40
5.0
 40
6.0
 40
6.0
 40
6.0
 40
7.0
 40
7.0
 40
7.0
 40
8.0
 40
8.0
 40
8.0
 40
9.0
 40
9.0
 40
9.0
 40
10.0
 40
10.0
 40
10.0
 40
11.0
 40
11.0
 40
11.0
 40
12.0
 40
12.0
 40
12.0
 40
13.0
 40
13.0
 40
13.0
 40
13.0
 10
66.18097329074642
 20
-151.0464219457454
 30
0.0
 10
65.96307100130437
 20
-151.2052408476154
 30
0.0
 10
65.86988116842836
 20
-151.2793104005482
 30
0.0
 10
65.82130532208635
 20
-151.4229708822832
 30
0.0
 10
65.82130532208635
 20
-151.4229708822832
 30
0.0
 10
66.59972464697854
 20
-151.4229708822832
 30
0.0
 10
66.59972464697854
 20
-151.4229708822832
 30
0.0
 10
66.59972464697854
 20
-151.4229708822832
 30
0.0
 10
66.59972464697854
 20
-151.628298573204
 30
0.0
 10
66.59972464697854
 20
-151.628298573204
 30
0.0
 10
66.59972464697854
 20
-151.628298573204
 30
0.0
 10
65.57170815417999
 20
-151.628298573204
 30
0.0
 10
65.57170815417999
 20
-151.628298573204
 30
0.0
 10
65.6034030326443
 20
-151.2706976618351
 30
0.0
 10
65.6690321016383
 20
-151.1924939943199
 30
0.0
 10
66.05402152211497
 20
-150.8941487252973
 30
0.0
 10
66.30999211666904
 20
-150.6953667157984
 30
0.0
 10
66.37544893088878
 20
-150.627498334739
 30
0.0
 10
66.37544893088878
 20
-150.4900390248775
 30
0.0
 10
66.37544893088878
 20
-150.3715277401849
 30
0.0
 10
66.30361869002132
 20
-150.2406141117454
 30
0.0
 10
66.10690373781355
 20
-150.2406141117454
 30
0.0
 10
65.84662677390293
 20
-150.2406141117454
 30
0.0
 10
65.83818628996407
 20
-150.4710909997086
 30
0.0
 10
65.8338799206075
 20
-150.5875352271101
 30
0.0
 10
65.8338799206075
 20
-150.5875352271101
 30
0.0
 10
65.60977645929201
 20
-150.5875352271101
 30
0.0
 10
65.60977645929201
 20
-150.5875352271101
 30
0.0
 10
65.61821694323086
 20
-150.4604112037044
 30
0.0
 10
65.62872448446088
 20
-150.3484456004337
 30
0.0
 10
65.70916746404146
 20
-150.2299343157411
 30
0.0
 10
65.81906601002093
 20
-150.06904835658
 30
0.0
 10
66.00527342099869
 20
-150.0352864208245
 30
0.0
 10
66.12171764840014
 20
-150.0352864208245
 30
0.0
 10
66.39887558018847
 20
-150.0352864208245
 30
0.0
 10
66.60609807362626
 20
-150.2192545197369
 30
0.0
 10
66.60609807362626
 20
-150.4921060821686
 30
0.0
 10
66.60609807362626
 20
-150.7208604223892
 30
0.0
 10
66.48982610099907
 20
-150.8200791723644
 30
0.0
 10
66.18097329074642
 20
-151.0464219457454
 30
0.0
  0
HATCH
  5
78
330
73
100
AcDbEntity
  8
_U+30EC_U+30A4_U+30E4_U+30FC 1
 62
   179
420
  2234388
100
AcDbHatch
 10
0.0
 20
0.0
 30
0.0
210
0.0
220
0.0
230
1.0
  2
SOLID
 70
     1
 71
     0
 91
        1
 92
        1
 93
        1
 72
     4
 94
        3
 73
     0
 74
     1
 95
       44
 96
       40
 40
0.0
 40
0.0
 40
0.0
 40
0.0
 40
1.0
 40
1.0
 40
1.0
 40
2.0
 40
2.0
 40
2.0
 40
3.0
 40
3.0
 40
3.0
 40
4.0
 40
4.0
 40
4.0
 40
5.0
 40
5.0
 40
5.0
 40
6.0
 40
6.0
 40
6.0
 40
7.0
 40
7.0
 40
7.0
 40
8.0
 40
8.0
 40
8.0
 40
9.0
 40
9.0
 40
9.0
 40
10.0
 40
10.0
 40
10.0
 40
11.0
 40
11.0
 40
11.0
 40
12.0
 40
12.0
 40
12.0
 40
13.0
 40
13.0
 40
13.0
 40
13.0
 10
66.18097329074642
 20
-151.0464219457454
 10
65.96307100130437
 20
-151.2052408476154
 10
65.86988116842836
 20
-151.2793104005482
 10
65.82130532208635
 20
-151.4229708822832
 10
65.82130532208635
 20
-151.4229708822832
 10
66.59972464697854
 20
-151.4229708822832
 10
66.59972464697854
 20
-151.4229708822832
 10
66.59972464697854
 20
-151.4229708822832
 10
66.59972464697854
 20
-151.628298573204
 10
66.59972464697854
 20
-151.628298573204
 10
66.59972464697854
 20
-151.628298573204
 10
65.57170815417999
 20
-151.628298573204
 10
65.57170815417999
 20
-151.628298573204
 10
65.6034030326443
 20
-151.2706976618351
 10
65.6690321016383
 20
-151.1924939943199
 10
66.05402152211497
 20
-150.8941487252973
 10
66.30999211666904
 20
-150.6953667157984
 10
66.37544893088878
 20
-150.627498334739
 10
66.37544893088878
 20
-150.4900390248775
 10
66.37544893088878
 20
-150.3715277401849
 10
66.30361869002132
 20
-150.2406141117454
 10
66.10690373781355
 20
-150.2406141117454
 10
65.84662677390293
 20
-150.2406141117454
 10
65.83818628996407
 20
-150.4710909997086
 10
65.8338799206075
 20
-150.5875352271101
 10
65.8338799206075
 20
-150.5875352271101
 10
65.60977645929201
 20
-150.5875352271101
 10
65.60977645929201
 20
-150.5875352271101
 10
65.61821694323086
 20
-150.4604112037044
 10
65.62872448446088
 20
-150.3484456004337
 10
65.70916746404146
 20
-150.2299343157411
 10
65.81906601002093
 20
-150.06904835658
 10
66.00527342099869
 20
-150.0352864208245
 10
66.12171764840014
 20
-150.0352864208245
 10
66.39887558018847
 20
-150.0352864208245
 10
66.60609807362626
 20
-150.2192545197369
 10
66.60609807362626
 20
-150.4921060821686
 10
66.60609807362626
 20
-150.7208604223892
 10
66.48982610099907
 20
-150.8200791723644
 10
66.18097329074642
 20
-151.0464219457454
 97
        0
 97
        0
 75
     2
 76
     1
 98
        0
  0
SPLINE
  5
79
330
73
100
AcDbEntity
  8
_U+30EC_U+30A4_U+30E4_U+30FC 1
370
     0
100
AcDbSpline
210
0.0
220
0.0
230
1.0
 70
    11
 71
     3
 72
    29
 73
    25
 74
     0
 42
0.0000000001
 43
0.0000000001
 12
1.0
 22
0.0
 32
0.0
 13
1.0
 23
0.0
 33
0.0
 40
0.0
 40
0.0
 40
0.0
 40
0.0
 40
1.0
 40
1.0
 40
1.0
 40
2.0
 40
2.0
 40
2.0
 40
3.0
 40
3.0
 40
3.0
 40
4.0
 40
4.0
 40
4.0
 40
5.0
 40
5.0
 40
5.0
 40
6.0
 40
6.0
 40
6.0
 40
7.0
 40
7.0
 40
7.0
 40
8.0
 40
8.0
 40
8.0
 40
8.0
 10
67.66236434940386
 20
-151.4505316461652
 30
0.0
 10
67.55453286071554
 20
-151.6599934516684
 30
0.0
 10
67.3810723030332
 20
-151.6789414768372
 30
0.0
 10
67.26462807563176
 20
-151.6789414768372
 30
0.0
 10
67.10391437124485
 20
-151.6789414768372
 30
0.0
 10
66.96214869202683
 20
-151.6324326877863
 30
0.0
 10
66.86689180185967
 20
-151.4505316461652
 30
0.0
 10
66.76336668252792
 20
-151.2558837512485
 30
0.0
 10
66.74424640258478
 20
-151.0188611818633
 30
0.0
 10
66.74424640258478
 20
-150.8562526749596
 30
0.0
 10
66.74424640258478
 20
-150.7122476836761
 30
0.0
 10
66.7611273704625
 20
-150.4604112037044
 30
0.0
 10
66.86689180185967
 20
-150.2616291942054
 30
0.0
 10
66.97489554532225
 20
-150.0587130701242
 30
0.0
 10
67.13560924970916
 20
-150.0352864208245
 30
0.0
 10
67.26462807563176
 20
-150.0352864208245
 30
0.0
 10
67.42327472272751
 20
-150.0352864208245
 30
0.0
 10
67.5671074592367
 20
-150.0797281525842
 30
0.0
 10
67.66236434940386
 20
-150.2616291942054
 30
0.0
 10
67.76175535415331
 20
-150.4542100318309
 30
0.0
 10
67.78500974867875
 20
-150.682619862503
 30
0.0
 10
67.78500974867875
 20
-150.8562526749596
 30
0.0
 10
67.78500974867875
 20
-151.0274739205765
 30
0.0
 10
67.76399466621872
 20
-151.2579508085397
 30
0.0
 10
67.66236434940386
 20
-151.4505316461652
 30
0.0
  0
SPLINE
  5
7A
330
73
100
AcDbEntity
  8
_U+30EC_U+30A4_U+30E4_U+30FC 1
370
     0
100
AcDbSpline
210
0.0
220
0.0
230
1.0
 70
    11
 71
     3
 72
    17
 73
    13
 74
     0
 42
0.0000000001
 43
0.0000000001
 12
1.0
 22
0.0
 32
0.0
 13
1.0
 23
0.0
 33
0.0
 40
0.0
 40
0.0
 40
0.0
 40
0.0
 40
1.0
 40
1.0
 40
1.0
 40
2.0
 40
2.0
 40
2.0
 40
3.0
 40
3.0
 40
3.0
 40
4.0
 40
4.0
 40
4.0
 40
4.0
 10
67.26462807563176
 20
-150.22786725845
 30
0.0
 10
67.01503090772542
 20
-150.22786725845
 30
0.0
 10
66.96852211867454
 20
-150.5113986168861
 30
0.0
 10
66.96852211867454
 20
-150.8562526749596
 30
0.0
 10
66.96852211867454
 20
-151.1756130264422
 30
0.0
 10
67.0045233664954
 20
-151.4842935819206
 30
0.0
 10
67.26462807563176
 20
-151.4842935819206
 30
0.0
 10
67.51215818624696
 20
-151.4842935819206
 30
0.0
 10
67.56090628736325
 20
-151.2031737903242
 30
0.0
 10
67.56090628736325
 20
-150.8562526749596
 30
0.0
 10
67.56090628736325
 20
-150.5365478139284
 30
0.0
 10
67.52283798225123
 20
-150.22786725845
 30
0.0
 10
67.26462807563176
 20
-150.22786725845
 30
0.0
  0
HATCH
  5
7B
330
73
100
AcDbEntity
  8
_U+30EC_U+30A4_U+30E4_U+30FC 1
 62
   179
420
  2234388
100
AcDbHatch
 10
0.0
 20
0.0
 30
0.0
210
0.0
220
0.0
230
1.0
  2
SOLID
 70
     1
 71
     0
 91
        2
 92
        1
 93
        1
 72
     4
 94
        3
 73
     0
 74
     1
 95
       29
 96
       25
 40
0.0
 40
0.0
 40
0.0
 40
0.0
 40
1.0
 40
1.0
 40
1.0
 40
2.0
 40
2.0
 40
2.0
 40
3.0
 40
3.0
 40
3.0
 40
4.0
 40
4.0
 40
4.0
 40
5.0
 40
5.0
 40
5.0
 40
6.0
 40
6.0
 40
6.0
 40
7.0
 40
7.0
 40
7.0
 40
8.0
 40
8.0
 40
8.0
 40
8.0
 10
67.66236434940386
 20
-151.4505316461652
 10
67.55453286071554
 20
-151.6599934516684
 10
67.3810723030332
 20
-151.6789414768372
 10
67.26462807563176
 20
-151.6789414768372
 10
67.10391437124485
 20
-151.6789414768372
 10
66.96214869202683
 20
-151.6324326877863
 10
66.86689180185967
 20
-151.4505316461652
 10
66.76336668252792
 20
-151.2558837512485
 10
66.74424640258478
 20
-151.0188611818633
 10
66.74424640258478
 20
-150.8562526749596
 10
66.74424640258478
 20
-150.7122476836761
 10
66.7611273704625
 20
-150.4604112037044
 10
66.86689180185967
 20
-150.2616291942054
 10
66.97489554532225
 20
-150.0587130701242
 10
67.13560924970916
 20
-150.0352864208245
 10
67.26462807563176
 20
-150.0352864208245
 10
67.42327472272751
 20
-150.0352864208245
 10
67.5671074592367
 20
-150.0797281525842
 10
67.66236434940386
 20
-150.2616291942054
 10
67.76175535415331
 20
-150.4542100318309
 10
67.78500974867875
 20
-150.682619862503
 10
67.78500974867875
 20
-150.8562526749596
 10
67.78500974867875
 20
-151.0274739205765
 10
67.76399466621872
 20
-151.2579508085397
 10
67.66236434940386
 20
-151.4505316461652
 97
        0
 97
        0
 92
        1
 93
        1
 72
     4
 94
        3
 73
     0
 74
     1
 95
       17
 96
       13
 40
0.0
 40
0.0
 40
0.0
 40
0.0
 40
1.0
 40
1.0
 40
1.0
 40
2.0
 40
2.0
 40
2.0
 40
3.0
 40
3.0
 40
3.0
 40
4.0
 40
4.0
 40
4.0
 40
4.0
 10
67.26462807563176
 20
-150.22786725845
 10
67.01503090772542
 20
-150.22786725845
 10
66.96852211867454
 20
-150.5113986168861
 10
66.96852211867454
 20
-150.8562526749596
 10
66.96852211867454
 20
-151.1756130264422
 10
67.0045233664954
 20
-151.4842935819206
 10
67.26462807563176
 20
-151.4842935819206
 10
67.51215818624696
 20
-151.4842935819206
 10
67.56090628736325
 20
-151.2031737903242
 10
67.56090628736325
 20
-150.8562526749596
 10
67.56090628736325
 20
-150.5365478139284
 10
67.52283798225123
 20
-150.22786725845
 10
67.26462807563176
 20
-150.22786725845
 97
        0
 97
        0
 75
     2
 76
     1
 98
        0
  0
SPLINE
  5
7C
330
73
100
AcDbEntity
  8
_U+30EC_U+30A4_U+30E4_U+30FC 1
370
     0
100
AcDbSpline
210
0.0
220
0.0
230
1.0
 70
    11
 71
     3
 72
    44
 73
    40
 74
     0
 42
0.0000000001
 43
0.0000000001
 12
1.0
 22
0.0
 32
0.0
 13
1.0
 23
0.0
 33
0.0
 40
0.0
 40
0.0
 40
0.0
 40
0.0
 40
1.0
 40
1.0
 40
1.0
 40
2.0
 40
2.0
 40
2.0
 40
3.0
 40
3.0
 40
3.0
 40
4.0
 40
4.0
 40
4.0
 40
5.0
 40
5.0
 40
5.0
 40
6.0
 40
6.0
 40
6.0
 40
7.0
 40
7.0
 40
7.0
 40
8.0
 40
8.0
 40
8.0
 40
9.0
 40
9.0
 40
9.0
 40
10.0
 40
10.0
 40
10.0
 40
11.0
 40
11.0
 40
11.0
 40
12.0
 40
12.0
 40
12.0
 40
13.0
 40
13.0
 40
13.0
 40
13.0
 10
68.95565319456665
 20
-151.628298573204
 30
0.0
 10
68.93222654526694
 20
-151.5838568414443
 30
0.0
 10
68.91121146280692
 20
-151.53114688052
 30
0.0
 10
68.9089721507415
 20
-151.3003254830083
 30
0.0
 10
68.9048380361592
 20
-151.0571017417496
 30
0.0
 10
68.84558239381292
 20
-150.9871663033991
 30
0.0
 10
68.66781546677402
 20
-150.9871663033991
 30
0.0
 10
68.66781546677402
 20
-150.9871663033991
 30
0.0
 10
68.25957165177192
 20
-150.9871663033991
 30
0.0
 10
68.25957165177192
 20
-150.9871663033991
 30
0.0
 10
68.25957165177192
 20
-150.9871663033991
 30
0.0
 10
68.25957165177192
 20
-151.628298573204
 30
0.0
 10
68.25957165177192
 20
-151.628298573204
 30
0.0
 10
68.25957165177192
 20
-151.628298573204
 30
0.0
 10
68.02478839445214
 20
-151.628298573204
 30
0.0
 10
68.02478839445214
 20
-151.628298573204
 30
0.0
 10
68.02478839445214
 20
-151.628298573204
 30
0.0
 10
68.02478839445214
 20
-150.0838622671666
 30
0.0
 10
68.02478839445214
 20
-150.0838622671666
 30
0.0
 10
68.02478839445214
 20
-150.0838622671666
 30
0.0
 10
68.69968260001258
 20
-150.0838622671666
 30
0.0
 10
68.69968260001258
 20
-150.0838622671666
 30
0.0
 10
69.00629609819981
 20
-150.0838622671666
 30
0.0
 10
69.17338322923443
 20
-150.255428022332
 30
0.0
 10
69.17338322923443
 20
-150.5113986168861
 30
0.0
 10
69.17338322923443
 20
-150.5620415205192
 30
0.0
 10
69.16494274529558
 20
-150.6447238121652
 30
0.0
 10
69.12050101353584
 20
-150.7249945369715
 30
0.0
 10
69.06141762596381
 20
-150.8286919110776
 30
0.0
 10
68.9957885569698
 20
-150.8476399362464
 30
0.0
 10
68.93446585733236
 20
-150.8645209041242
 30
0.0
 10
69.07192516719383
 20
-150.9068955785927
 30
0.0
 10
69.13962129347898
 20
-150.9554714249348
 30
0.0
 10
69.14392766283555
 20
-151.2706976618351
 30
0.0
 10
69.14806177741785
 20
-151.5414821669758
 30
0.0
 10
69.18406302523871
 20
-151.57317704544
 30
0.0
 10
69.25175915152387
 20
-151.628298573204
 30
0.0
 10
69.25175915152387
 20
-151.628298573204
 30
0.0
 10
68.95565319456665
 20
-151.628298573204
 30
0.0
 10
68.95565319456665
 20
-151.628298573204
 30
0.0
  0
SPLINE
  5
7D
330
73
100
AcDbEntity
  8
_U+30EC_U+30A4_U+30E4_U+30FC 1
370
     0
100
AcDbSpline
210
0.0
220
0.0
230
1.0
 70
    11
 71
     3
 72
    20
 73
    16
 74
     0
 42
0.0000000001
 43
0.0000000001
 12
1.0
 22
0.0
 32
0.0
 13
1.0
 23
0.0
 33
0.0
 40
0.0
 40
0.0
 40
0.0
 40
0.0
 40
1.0
 40
1.0
 40
1.0
 40
2.0
 40
2.0
 40
2.0
 40
3.0
 40
3.0
 40
3.0
 40
4.0
 40
4.0
 40
4.0
 40
5.0
 40
5.0
 40
5.0
 40
5.0
 10
68.70381671459488
 20
-150.2953911299609
 30
0.0
 10
68.70381671459488
 20
-150.2953911299609
 30
0.0
 10
68.25957165177192
 20
-150.2953911299609
 30
0.0
 10
68.25957165177192
 20
-150.2953911299609
 30
0.0
 10
68.25957165177192
 20
-150.2953911299609
 30
0.0
 10
68.25957165177192
 20
-150.7756374406047
 30
0.0
 10
68.25957165177192
 20
-150.7756374406047
 30
0.0
 10
68.25957165177192
 20
-150.7756374406047
 30
0.0
 10
68.70174965730374
 20
-150.7756374406047
 30
0.0
 10
68.70174965730374
 20
-150.7756374406047
 30
0.0
 10
68.80114066205319
 20
-150.7756374406047
 30
0.0
 10
68.93653291462351
 20
-150.6995008303807
 30
0.0
 10
68.93653291462351
 20
-150.5282795847638
 30
0.0
 10
68.93653291462351
 20
-150.4500759172486
 30
0.0
 10
68.90259872409379
 20
-150.2953911299609
 30
0.0
 10
68.70381671459488
 20
-150.2953911299609
 30
0.0
  0
HATCH
  5
7E
330
73
100
AcDbEntity
  8
_U+30EC_U+30A4_U+30E4_U+30FC 1
 62
   179
420
  2234388
100
AcDbHatch
 10
0.0
 20
0.0
 30
0.0
210
0.0
220
0.0
230
1.0
  2
SOLID
 70
     1
 71
     0
 91
        2
 92
        1
 93
        1
 72
     4
 94
        3
 73
     0
 74
     1
 95
       44
 96
       40
 40
0.0
 40
0.0
 40
0.0
 40
0.0
 40
1.0
 40
1.0
 40
1.0
 40
2.0
 40
2.0
 40
2.0
 40
3.0
 40
3.0
 40
3.0
 40
4.0
 40
4.0
 40
4.0
 40
5.0
 40
5.0
 40
5.0
 40
6.0
 40
6.0
 40
6.0
 40
7.0
 40
7.0
 40
7.0
 40
8.0
 40
8.0
 40
8.0
 40
9.0
 40
9.0
 40
9.0
 40
10.0
 40
10.0
 40
10.0
 40
11.0
 40
11.0
 40
11.0
 40
12.0
 40
12.0
 40
12.0
 40
13.0
 40
13.0
 40
13.0
 40
13.0
 10
68.95565319456665
 20
-151.628298573204
 10
68.93222654526694
 20
-151.5838568414443
 10
68.91121146280692
 20
-151.53114688052
 10
68.9089721507415
 20
-151.3003254830083
 10
68.9048380361592
 20
-151.0571017417496
 10
68.84558239381292
 20
-150.9871663033991
 10
68.66781546677402
 20
-150.9871663033991
 10
68.66781546677402
 20
-150.9871663033991
 10
68.25957165177192
 20
-150.9871663033991
 10
68.25957165177192
 20
-150.9871663033991
 10
68.25957165177192
 20
-150.9871663033991
 10
68.25957165177192
 20
-151.628298573204
 10
68.25957165177192
 20
-151.628298573204
 10
68.25957165177192
 20
-151.628298573204
 10
68.02478839445214
 20
-151.628298573204
 10
68.02478839445214
 20
-151.628298573204
 10
68.02478839445214
 20
-151.628298573204
 10
68.02478839445214
 20
-150.0838622671666
 10
68.02478839445214
 20
-150.0838622671666
 10
68.02478839445214
 20
-150.0838622671666
 10
68.69968260001258
 20
-150.0838622671666
 10
68.69968260001258
 20
-150.0838622671666
 10
69.00629609819981
 20
-150.0838622671666
 10
69.17338322923443
 20
-150.255428022332
 10
69.17338322923443
 20
-150.5113986168861
 10
69.17338322923443
 20
-150.5620415205192
 10
69.16494274529558
 20
-150.6447238121652
 10
69.12050101353584
 20
-150.7249945369715
 10
69.06141762596381
 20
-150.8286919110776
 10
68.9957885569698
 20
-150.8476399362464
 10
68.93446585733236
 20
-150.8645209041242
 10
69.07192516719383
 20
-150.9068955785927
 10
69.13962129347898
 20
-150.9554714249348
 10
69.14392766283555
 20
-151.2706976618351
 10
69.14806177741785
 20
-151.5414821669758
 10
69.18406302523871
 20
-151.57317704544
 10
69.25175915152387
 20
-151.628298573204
 10
69.25175915152387
 20
-151.628298573204
 10
68.95565319456665
 20
-151.628298573204
 10
68.95565319456665
 20
-151.628298573204
 97
        0
 97
        0
 92
        1
 93
        1
 72
     4
 94
        3
 73
     0
 74
     1
 95
       20
 96
       16
 40
0.0
 40
0.0
 40
0.0
 40
0.0
 40
1.0
 40
1.0
 40
1.0
 40
2.0
 40
2.0
 40
2.0
 40
3.0
 40
3.0
 40
3.0
 40
4.0
 40
4.0
 40
4.0
 40
5.0
 40
5.0
 40
5.0
 40
5.0
 10
68.70381671459488
 20
-150.2953911299609
 10
68.70381671459488
 20
-150.2953911299609
 10
68.25957165177192
 20
-150.2953911299609
 10
68.25957165177192
 20
-150.2953911299609
 10
68.25957165177192
 20
-150.2953911299609
 10
68.25957165177192
 20
-150.7756374406047
 10
68.25957165177192
 20
-150.7756374406047
 10
68.25957165177192
 20
-150.7756374406047
 10
68.70174965730374
 20
-150.7756374406047
 10
68.70174965730374
 20
-150.7756374406047
 10
68.80114066205319
 20
-150.7756374406047
 10
68.93653291462351
 20
-150.6995008303807
 10
68.93653291462351
 20
-150.5282795847638
 10
68.93653291462351
 20
-150.4500759172486
 10
68.90259872409379
 20
-150.2953911299609
 10
68.70381671459488
 20
-150.2953911299609
 97
        0
 97
        0
 75
     2
 76
     1
 98
        0
  0
ENDBLK
  5
76
330
73
100
AcDbEntity
  8
0
100
AcDbBlockEnd
  0
BLOCK
  5
91
330
8F
100
AcDbEntity
  8
0
100
AcDbBlockBegin
  2
block 3
 70
     0
 10
0.0
 20
0.0
 30
0.0
  3
block 3
  1

  0
SPLINE
  5
93
330
8F
100
AcDbEntity
  8
_U+30EC_U+30A4_U+30E4_U+30FC 1
370
     0
100
AcDbSpline
210
0.0
220
0.0
230
1.0
 70
    11
 71
     3
 72
    29
 73
    25
 74
     0
 42
0.0000000001
 43
0.0000000001
 12
1.0
 22
0.0
 32
0.0
 13
1.0
 23
0.0
 33
0.0
 40
0.0
 40
0.0
 40
0.0
 40
0.0
 40
1.0
 40
1.0
 40
1.0
 40
2.0
 40
2.0
 40
2.0
 40
3.0
 40
3.0
 40
3.0
 40
4.0
 40
4.0
 40
4.0
 40
5.0
 40
5.0
 40
5.0
 40
6.0
 40
6.0
 40
6.0
 40
7.0
 40
7.0
 40
7.0
 40
8.0
 40
8.0
 40
8.0
 40
8.0
 10
114.3554660087375
 20
-144.5582736183743
 30
0.0
 10
114.5649278142407
 20
-144.6664496166112
 30
0.0
 10
114.5838758394096
 20
-144.8397379195193
 30
0.0
 10
114.5838758394096
 20
-144.9561821469207
 30
0.0
 10
114.5838758394096
 20
-145.1170681060819
 30
0.0
 10
114.5373670503587
 20
-145.2586615305256
 30
0.0
 10
114.3554660087375
 20
-145.3537461659185
 30
0.0
 10
114.1608181138209
 20
-145.4574435400245
 30
0.0
 10
113.9241400539842
 20
-145.4767360747419
 30
0.0
 10
113.7611870375319
 20
-145.4767360747419
 30
0.0
 10
113.6171820462485
 20
-145.4767360747419
 30
0.0
 10
113.3653455662767
 20
-145.4595105973157
 30
0.0
 10
113.1665635567778
 20
-145.3537461659185
 30
0.0
 10
112.9636474326966
 20
-145.2459146772302
 30
0.0
 10
112.9402207833969
 20
-145.085028718069
 30
0.0
 10
112.9402207833969
 20
-144.9561821469207
 30
0.0
 10
112.9402207833969
 20
-144.7973632450507
 30
0.0
 10
112.9846625151566
 20
-144.6537027633157
 30
0.0
 10
113.1665635567778
 20
-144.5582736183743
 30
0.0
 10
113.3591443944033
 20
-144.4590548683991
 30
0.0
 10
113.5875542250753
 20
-144.4356282190994
 30
0.0
 10
113.7611870375319
 20
-144.4356282190994
 30
0.0
 10
113.9324082831488
 20
-144.4356282190994
 30
0.0
 10
114.1628851711121
 20
-144.456987811108
 30
0.0
 10
114.3554660087375
 20
-144.5582736183743
 30
0.0
  0
SPLINE
  5
94
330
8F
100
AcDbEntity
  8
_U+30EC_U+30A4_U+30E4_U+30FC 1
370
     0
100
AcDbSpline
210
0.0
220
0.0
230
1.0
 70
    11
 71
     3
 72
    17
 73
    13
 74
     0
 42
0.0000000001
 43
0.0000000001
 12
1.0
 22
0.0
 32
0.0
 13
1.0
 23
0.0
 33
0.0
 40
0.0
 40
0.0
 40
0.0
 40
0.0
 40
1.0
 40
1.0
 40
1.0
 40
2.0
 40
2.0
 40
2.0
 40
3.0
 40
3.0
 40
3.0
 40
4.0
 40
4.0
 40
4.0
 40
4.0
 10
113.1328016210224
 20
-144.9561821469207
 30
0.0
 10
113.1328016210224
 20
-145.2059515696013
 30
0.0
 10
113.4163329794584
 20
-145.2524603586522
 30
0.0
 10
113.7611870375319
 20
-145.2524603586522
 30
0.0
 10
114.0805473890146
 20
-145.2524603586522
 30
0.0
 10
114.389227944493
 20
-145.2162868560571
 30
0.0
 10
114.389227944493
 20
-144.9561821469207
 30
0.0
 10
114.389227944493
 20
-144.7084797815312
 30
0.0
 10
114.1081081528966
 20
-144.6599039351892
 30
0.0
 10
113.7611870375319
 20
-144.6599039351892
 30
0.0
 10
113.4414821765007
 20
-144.6599039351892
 30
0.0
 10
113.1328016210224
 20
-144.6981444950755
 30
0.0
 10
113.1328016210224
 20
-144.9561821469207
 30
0.0
  0
HATCH
  5
95
330
8F
100
AcDbEntity
  8
_U+30EC_U+30A4_U+30E4_U+30FC 1
 62
   179
420
  2234388
100
AcDbHatch
 10
0.0
 20
0.0
 30
0.0
210
0.0
220
0.0
230
1.0
  2
SOLID
 70
     1
 71
     0
 91
        2
 92
        1
 93
        1
 72
     4
 94
        3
 73
     0
 74
     1
 95
       29
 96
       25
 40
0.0
 40
0.0
 40
0.0
 40
0.0
 40
1.0
 40
1.0
 40
1.0
 40
2.0
 40
2.0
 40
2.0
 40
3.0
 40
3.0
 40
3.0
 40
4.0
 40
4.0
 40
4.0
 40
5.0
 40
5.0
 40
5.0
 40
6.0
 40
6.0
 40
6.0
 40
7.0
 40
7.0
 40
7.0
 40
8.0
 40
8.0
 40
8.0
 40
8.0
 10
114.3554660087375
 20
-144.5582736183743
 10
114.5649278142407
 20
-144.6664496166112
 10
114.5838758394096
 20
-144.8397379195193
 10
114.5838758394096
 20
-144.9561821469207
 10
114.5838758394096
 20
-145.1170681060819
 10
114.5373670503587
 20
-145.2586615305256
 10
114.3554660087375
 20
-145.3537461659185
 10
114.1608181138209
 20
-145.4574435400245
 10
113.9241400539842
 20
-145.4767360747419
 10
113.7611870375319
 20
-145.4767360747419
 10
113.6171820462485
 20
-145.4767360747419
 10
113.3653455662767
 20
-145.4595105973157
 10
113.1665635567778
 20
-145.3537461659185
 10
112.9636474326966
 20
-145.2459146772302
 10
112.9402207833969
 20
-145.085028718069
 10
112.9402207833969
 20
-144.9561821469207
 10
112.9402207833969
 20
-144.7973632450507
 10
112.9846625151566
 20
-144.6537027633157
 10
113.1665635567778
 20
-144.5582736183743
 10
113.3591443944033
 20
-144.4590548683991
 10
113.5875542250753
 20
-144.4356282190994
 10
113.7611870375319
 20
-144.4356282190994
 10
113.9324082831488
 20
-144.4356282190994
 10
114.1628851711121
 20
-144.456987811108
 10
114.3554660087375
 20
-144.5582736183743
 97
        0
 97
        0
 92
        1
 93
        1
 72
     4
 94
        3
 73
     0
 74
     1
 95
       17
 96
       13
 40
0.0
 40
0.0
 40
0.0
 40
0.0
 40
1.0
 40
1.0
 40
1.0
 40
2.0
 40
2.0
 40
2.0
 40
3.0
 40
3.0
 40
3.0
 40
4.0
 40
4.0
 40
4.0
 40
4.0
 10
113.1328016210224
 20
-144.9561821469207
 10
113.1328016210224
 20
-145.2059515696013
 10
113.4163329794584
 20
-145.2524603586522
 10
113.7611870375319
 20
-145.2524603586522
 10
114.0805473890146
 20
-145.2524603586522
 10
114.389227944493
 20
-145.2162868560571
 10
114.389227944493
 20
-144.9561821469207
 10
114.389227944493
 20
-144.7084797815312
 10
114.1081081528966
 20
-144.6599039351892
 10
113.7611870375319
 20
-144.6599039351892
 10
113.4414821765007
 20
-144.6599039351892
 10
113.1328016210224
 20
-144.6981444950755
 10
113.1328016210224
 20
-144.9561821469207
 97
        0
 97
        0
 75
     2
 76
     1
 98
        0
  0
POLYLINE
  5
96
330
8F
100
AcDbEntity
  8
_U+30EC_U+30A4_U+30E4_U+30FC 1
370
     0
100
AcDb2dPolyline
 66
     1
 10
0.0
 20
0.0
 30
0.0
  0
VERTEX
  5
97
330
96
100
AcDbEntity
  8
_U+30EC_U+30A4_U+30E4_U+30FC 1
370
     0
100
AcDbVertex
100
AcDb2dVertex
 10
114.5332329357764
 20
-144.2192762226258
 30
0.0
  0
VERTEX
  5
98
330
96
100
AcDbEntity
  8
_U+30EC_U+30A4_U+30E4_U+30FC 1
370
     0
100
AcDbVertex
100
AcDb2dVertex
 10
114.2813964558047
 20
-144.2192762226258
 30
0.0
  0
VERTEX
  5
99
330
96
100
AcDbEntity
  8
_U+30EC_U+30A4_U+30E4_U+30FC 1
370
     0
100
AcDbVertex
100
AcDb2dVertex
 10
114.2813964558047
 20
-143.967439742654
 30
0.0
  0
VERTEX
  5
9A
330
96
100
AcDbEntity
  8
_U+30EC_U+30A4_U+30E4_U+30FC 1
370
     0
100
AcDbVertex
100
AcDb2dVertex
 10
114.5332329357764
 20
-143.967439742654
 30
0.0
  0
VERTEX
  5
9B
330
96
100
AcDbEntity
  8
_U+30EC_U+30A4_U+30E4_U+30FC 1
370
     0
100
AcDbVertex
100
AcDb2dVertex
 10
114.5332329357764
 20
-144.2192762226258
 30
0.0
  0
SEQEND
  5
9C
330
96
100
AcDbEntity
  8
_U+30EC_U+30A4_U+30E4_U+30FC 1
370
     0
  0
HATCH
  5
9D
330
8F
100
AcDbEntity
  8
_U+30EC_U+30A4_U+30E4_U+30FC 1
 62
   179
420
  2234388
100
AcDbHatch
 10
0.0
 20
0.0
 30
0.0
210
0.0
220
0.0
230
1.0
  2
SOLID
 70
     1
 71
     0
 91
        1
 92
        1
 93
        4
 72
     1
 10
114.5332329357764
 20
-144.2192762226258
 11
114.2813964558047
 21
-144.2192762226258
 72
     1
 10
114.2813964558047
 20
-144.2192762226258
 11
114.2813964558047
 21
-143.967439742654
 72
     1
 10
114.2813964558047
 20
-143.967439742654
 11
114.5332329357764
 21
-143.967439742654
 72
     1
 10
114.5332329357764
 20
-143.967439742654
 11
114.5332329357764
 21
-144.2192762226258
 97
        0
 75
     2
 76
     1
 98
        0
  0
POLYLINE
  5
9E
330
8F
100
AcDbEntity
  8
_U+30EC_U+30A4_U+30E4_U+30FC 1
370
     0
100
AcDb2dPolyline
 66
     1
 10
0.0
 20
0.0
 30
0.0
  0
VERTEX
  5
9F
330
9E
100
AcDbEntity
  8
_U+30EC_U+30A4_U+30E4_U+30FC 1
370
     0
100
AcDbVertex
100
AcDb2dVertex
 10
114.1863118204118
 20
-142.899115632678
 30
0.0
  0
VERTEX
  5
A0
330
9E
100
AcDbEntity
  8
_U+30EC_U+30A4_U+30E4_U+30FC 1
370
     0
100
AcDbVertex
100
AcDb2dVertex
 10
114.5332329357764
 20
-142.899115632678
 30
0.0
  0
VERTEX
  5
A1
330
9E
100
AcDbEntity
  8
_U+30EC_U+30A4_U+30E4_U+30FC 1
370
     0
100
AcDbVertex
100
AcDb2dVertex
 10
114.5332329357764
 20
-143.1168456673458
 30
0.0
  0
VERTEX
  5
A2
330
9E
100
AcDbEntity
  8
_U+30EC_U+30A4_U+30E4_U+30FC 1
370
     0
100
AcDbVertex
100
AcDb2dVertex
 10
114.1863118204118
 20
-143.1168456673458
 30
0.0
  0
VERTEX
  5
A3
330
9E
100
AcDbEntity
  8
_U+30EC_U+30A4_U+30E4_U+30FC 1
370
     0
100
AcDbVertex
100
AcDb2dVertex
 10
114.1863118204118
 20
-143.7727918477374
 30
0.0
  0
VERTEX
  5
A4
330
9E
100
AcDbEntity
  8
_U+30EC_U+30A4_U+30E4_U+30FC 1
370
     0
100
AcDbVertex
100
AcDb2dVertex
 10
113.962036104322
 20
-143.7727918477374
 30
0.0
  0
VERTEX
  5
A5
330
9E
100
AcDbEntity
  8
_U+30EC_U+30A4_U+30E4_U+30FC 1
370
     0
100
AcDbVertex
100
AcDb2dVertex
 10
112.9887966297389
 20
-143.0937635275946
 30
0.0
  0
VERTEX
  5
A6
330
9E
100
AcDbEntity
  8
_U+30EC_U+30A4_U+30E4_U+30FC 1
370
     0
100
AcDbVertex
100
AcDb2dVertex
 10
112.9887966297389
 20
-142.899115632678
 30
0.0
  0
VERTEX
  5
A7
330
9E
100
AcDbEntity
  8
_U+30EC_U+30A4_U+30E4_U+30FC 1
370
     0
100
AcDbVertex
100
AcDb2dVertex
 10
113.9875298109128
 20
-142.899115632678
 30
0.0
  0
VERTEX
  5
A8
330
9E
100
AcDbEntity
  8
_U+30EC_U+30A4_U+30E4_U+30FC 1
370
     0
100
AcDbVertex
100
AcDb2dVertex
 10
113.9875298109128
 20
-142.691720884466
 30
0.0
  0
VERTEX
  5
A9
330
9E
100
AcDbEntity
  8
_U+30EC_U+30A4_U+30E4_U+30FC 1
370
     0
100
AcDbVertex
100
AcDb2dVertex
 10
114.1863118204118
 20
-142.691720884466
 30
0.0
  0
VERTEX
  5
AA
330
9E
100
AcDbEntity
  8
_U+30EC_U+30A4_U+30E4_U+30FC 1
370
     0
100
AcDbVertex
100
AcDb2dVertex
 10
114.1863118204118
 20
-142.899115632678
 30
0.0
  0
SEQEND
  5
AB
330
9E
100
AcDbEntity
  8
_U+30EC_U+30A4_U+30E4_U+30FC 1
370
     0
  0
POLYLINE
  5
AC
330
8F
100
AcDbEntity
  8
_U+30EC_U+30A4_U+30E4_U+30FC 1
370
     0
100
AcDb2dPolyline
 66
     1
 10
0.0
 20
0.0
 30
0.0
  0
VERTEX
  5
AD
330
AC
100
AcDbEntity
  8
_U+30EC_U+30A4_U+30E4_U+30FC 1
370
     0
100
AcDbVertex
100
AcDb2dVertex
 10
113.3315836305213
 20
-143.1168456673458
 30
0.0
  0
VERTEX
  5
AE
330
AC
100
AcDbEntity
  8
_U+30EC_U+30A4_U+30E4_U+30FC 1
370
     0
100
AcDbVertex
100
AcDb2dVertex
 10
113.9875298109128
 20
-143.5740098382385
 30
0.0
  0
VERTEX
  5
AF
330
AC
100
AcDbEntity
  8
_U+30EC_U+30A4_U+30E4_U+30FC 1
370
     0
100
AcDbVertex
100
AcDb2dVertex
 10
113.9875298109128
 20
-143.1168456673458
 30
0.0
  0
VERTEX
  5
B0
330
AC
100
AcDbEntity
  8
_U+30EC_U+30A4_U+30E4_U+30FC 1
370
     0
100
AcDbVertex
100
AcDb2dVertex
 10
113.3315836305213
 20
-143.1168456673458
 30
0.0
  0
SEQEND
  5
B1
330
AC
100
AcDbEntity
  8
_U+30EC_U+30A4_U+30E4_U+30FC 1
370
     0
  0
HATCH
  5
B2
330
8F
100
AcDbEntity
  8
_U+30EC_U+30A4_U+30E4_U+30FC 1
 62
   179
420
  2234388
100
AcDbHatch
 10
0.0
 20
0.0
 30
0.0
210
0.0
220
0.0
230
1.0
  2
SOLID
 70
     1
 71
     0
 91
        2
 92
        1
 93
       11
 72
     1
 10
114.1863118204118
 20
-142.899115632678
 11
114.5332329357764
 21
-142.899115632678
 72
     1
 10
114.5332329357764
 20
-142.899115632678
 11
114.5332329357764
 21
-143.1168456673458
 72
     1
 10
114.5332329357764
 20
-143.1168456673458
 11
114.1863118204118
 21
-143.1168456673458
 72
     1
 10
114.1863118204118
 20
-143.1168456673458
 11
114.1863118204118
 21
-143.7727918477374
 72
     1
 10
114.1863118204118
 20
-143.7727918477374
 11
113.962036104322
 21
-143.7727918477374
 72
     1
 10
113.962036104322
 20
-143.7727918477374
 11
112.9887966297389
 21
-143.0937635275946
 72
     1
 10
112.9887966297389
 20
-143.0937635275946
 11
112.9887966297389
 21
-142.899115632678
 72
     1
 10
112.9887966297389
 20
-142.899115632678
 11
113.9875298109128
 21
-142.899115632678
 72
     1
 10
113.9875298109128
 20
-142.899115632678
 11
113.9875298109128
 21
-142.691720884466
 72
     1
 10
113.9875298109128
 20
-142.691720884466
 11
114.1863118204118
 21
-142.691720884466
 72
     1
 10
114.1863118204118
 20
-142.691720884466
 11
114.1863118204118
 21
-142.899115632678
 97
        0
 92
        1
 93
        3
 72
     1
 10
113.3315836305213
 20
-143.1168456673458
 11
113.9875298109128
 21
-143.5740098382385
 72
     1
 10
113.9875298109128
 20
-143.5740098382385
 11
113.9875298109128
 21
-143.1168456673458
 72
     1
 10
113.9875298109128
 20
-143.1168456673458
 11
113.3315836305213
 21
-143.1168456673458
 97
        0
 75
     2
 76
     1
 98
        0
  0
ENDBLK
  5
92
330
8F
100
AcDbEntity
  8
0
100
AcDbBlockEnd
  0
BLOCK
  5
C5
330
C3
100
AcDbEntity
  8
0
100
AcDbBlockBegin
  2
block 4
 70
     0
 10
0.0
 20
0.0
 30
0.0
  3
block 4
  1

  0
SPLINE
  5
C7
330
C3
100
AcDbEntity
  8
_U+30EC_U+30A4_U+30E4_U+30FC 1
370
     0
100
AcDbSpline
210
0.0
220
0.0
230
1.0
 70
    11
 71
     3
 72
    29
 73
    25
 74
     0
 42
0.0000000001
 43
0.0000000001
 12
1.0
 22
0.0
 32
0.0
 13
1.0
 23
0.0
 33
0.0
 40
0.0
 40
0.0
 40
0.0
 40
0.0
 40
1.0
 40
1.0
 40
1.0
 40
2.0
 40
2.0
 40
2.0
 40
3.0
 40
3.0
 40
3.0
 40
4.0
 40
4.0
 40
4.0
 40
5.0
 40
5.0
 40
5.0
 40
6.0
 40
6.0
 40
6.0
 40
7.0
 40
7.0
 40
7.0
 40
8.0
 40
8.0
 40
8.0
 40
8.0
 10
79.88711342403865
 20
-105.450066434141
 30
0.0
 10
79.77928193535033
 20
-105.6595282396441
 30
0.0
 10
79.605821377668
 20
-105.6786485195873
 30
0.0
 10
79.48937715026655
 20
-105.6786485195873
 30
0.0
 10
79.32866344587964
 20
-105.6786485195873
 30
0.0
 10
79.18689776666162
 20
-105.6321397305364
 30
0.0
 10
79.09164087649445
 20
-105.450066434141
 30
0.0
 10
78.9881157571627
 20
-105.2555907939986
 30
0.0
 10
78.96899547721956
 20
-105.0185682246134
 30
0.0
 10
78.96899547721956
 20
-104.8556152081611
 30
0.0
 10
78.96899547721956
 20
-104.7117824716519
 30
0.0
 10
78.98587644509729
 20
-104.4601182464544
 30
0.0
 10
79.09164087649445
 20
-104.2611639821812
 30
0.0
 10
79.19964461995704
 20
-104.0580756033258
 30
0.0
 10
79.36035832434395
 20
-104.0348212088003
 30
0.0
 10
79.48937715026655
 20
-104.0348212088003
 30
0.0
 10
79.6480237973623
 20
-104.0348212088003
 30
0.0
 10
79.79185653387148
 20
-104.0792629405601
 30
0.0
 10
79.88711342403865
 20
-104.2611639821812
 30
0.0
 10
79.9865044287881
 20
-104.4537448198067
 30
0.0
 10
80.00975882331353
 20
-104.6821546504788
 30
0.0
 10
80.00975882331353
 20
-104.8556152081611
 30
0.0
 10
80.00975882331353
 20
-105.0270087085523
 30
0.0
 10
79.98874374085351
 20
-105.2576578512898
 30
0.0
 10
79.88711342403865
 20
-105.450066434141
 30
0.0
  0
SPLINE
  5
C8
330
C3
100
AcDbEntity
  8
_U+30EC_U+30A4_U+30E4_U+30FC 1
370
     0
100
AcDbSpline
210
0.0
220
0.0
230
1.0
 70
    11
 71
     3
 72
    17
 73
    13
 74
     0
 42
0.0000000001
 43
0.0000000001
 12
1.0
 22
0.0
 32
0.0
 13
1.0
 23
0.0
 33
0.0
 40
0.0
 40
0.0
 40
0.0
 40
0.0
 40
1.0
 40
1.0
 40
1.0
 40
2.0
 40
2.0
 40
2.0
 40
3.0
 40
3.0
 40
3.0
 40
4.0
 40
4.0
 40
4.0
 40
4.0
 10
79.48937715026655
 20
-104.2274020464258
 30
0.0
 10
79.2397799823602
 20
-104.2274020464258
 30
0.0
 10
79.19327119330933
 20
-104.5107611500876
 30
0.0
 10
79.19327119330933
 20
-104.8556152081611
 30
0.0
 10
79.19327119330933
 20
-105.175147814418
 30
0.0
 10
79.22927244113019
 20
-105.4840006246707
 30
0.0
 10
79.48937715026655
 20
-105.4840006246707
 30
0.0
 10
79.73690726088175
 20
-105.4840006246707
 30
0.0
 10
79.78565536199804
 20
-105.2025363235258
 30
0.0
 10
79.78565536199804
 20
-104.8556152081611
 30
0.0
 10
79.78565536199804
 20
-104.5362548566784
 30
0.0
 10
79.74758705688602
 20
-104.2274020464258
 30
0.0
 10
79.48937715026655
 20
-104.2274020464258
 30
0.0
  0
HATCH
  5
C9
330
C3
100
AcDbEntity
  8
_U+30EC_U+30A4_U+30E4_U+30FC 1
 62
   179
420
  2234388
100
AcDbHatch
 10
0.0
 20
0.0
 30
0.0
210
0.0
220
0.0
230
1.0
  2
SOLID
 70
     1
 71
     0
 91
        2
 92
        1
 93
        1
 72
     4
 94
        3
 73
     0
 74
     1
 95
       29
 96
       25
 40
0.0
 40
0.0
 40
0.0
 40
0.0
 40
1.0
 40
1.0
 40
1.0
 40
2.0
 40
2.0
 40
2.0
 40
3.0
 40
3.0
 40
3.0
 40
4.0
 40
4.0
 40
4.0
 40
5.0
 40
5.0
 40
5.0
 40
6.0
 40
6.0
 40
6.0
 40
7.0
 40
7.0
 40
7.0
 40
8.0
 40
8.0
 40
8.0
 40
8.0
 10
79.88711342403865
 20
-105.450066434141
 10
79.77928193535033
 20
-105.6595282396441
 10
79.605821377668
 20
-105.6786485195873
 10
79.48937715026655
 20
-105.6786485195873
 10
79.32866344587964
 20
-105.6786485195873
 10
79.18689776666162
 20
-105.6321397305364
 10
79.09164087649445
 20
-105.450066434141
 10
78.9881157571627
 20
-105.2555907939986
 10
78.96899547721956
 20
-105.0185682246134
 10
78.96899547721956
 20
-104.8556152081611
 10
78.96899547721956
 20
-104.7117824716519
 10
78.98587644509729
 20
-104.4601182464544
 10
79.09164087649445
 20
-104.2611639821812
 10
79.19964461995704
 20
-104.0580756033258
 10
79.36035832434395
 20
-104.0348212088003
 10
79.48937715026655
 20
-104.0348212088003
 10
79.6480237973623
 20
-104.0348212088003
 10
79.79185653387148
 20
-104.0792629405601
 10
79.88711342403865
 20
-104.2611639821812
 10
79.9865044287881
 20
-104.4537448198067
 10
80.00975882331353
 20
-104.6821546504788
 10
80.00975882331353
 20
-104.8556152081611
 10
80.00975882331353
 20
-105.0270087085523
 10
79.98874374085351
 20
-105.2576578512898
 10
79.88711342403865
 20
-105.450066434141
 97
        0
 97
        0
 92
        1
 93
        1
 72
     4
 94
        3
 73
     0
 74
     1
 95
       17
 96
       13
 40
0.0
 40
0.0
 40
0.0
 40
0.0
 40
1.0
 40
1.0
 40
1.0
 40
2.0
 40
2.0
 40
2.0
 40
3.0
 40
3.0
 40
3.0
 40
4.0
 40
4.0
 40
4.0
 40
4.0
 10
79.48937715026655
 20
-104.2274020464258
 10
79.2397799823602
 20
-104.2274020464258
 10
79.19327119330933
 20
-104.5107611500876
 10
79.19327119330933
 20
-104.8556152081611
 10
79.19327119330933
 20
-105.175147814418
 10
79.22927244113019
 20
-105.4840006246707
 10
79.48937715026655
 20
-105.4840006246707
 10
79.73690726088175
 20
-105.4840006246707
 10
79.78565536199804
 20
-105.2025363235258
 10
79.78565536199804
 20
-104.8556152081611
 10
79.78565536199804
 20
-104.5362548566784
 10
79.74758705688602
 20
-104.2274020464258
 10
79.48937715026655
 20
-104.2274020464258
 97
        0
 97
        0
 75
     2
 76
     1
 98
        0
  0
POLYLINE
  5
CA
330
C3
100
AcDbEntity
  8
_U+30EC_U+30A4_U+30E4_U+30FC 1
370
     0
100
AcDb2dPolyline
 66
     1
 10
0.0
 20
0.0
 30
0.0
  0
VERTEX
  5
CB
330
CA
100
AcDbEntity
  8
_U+30EC_U+30A4_U+30E4_U+30FC 1
370
     0
100
AcDbVertex
100
AcDb2dVertex
 10
80.2262830745615
 20
-105.6278333611799
 30
0.0
  0
VERTEX
  5
CC
330
CA
100
AcDbEntity
  8
_U+30EC_U+30A4_U+30E4_U+30FC 1
370
     0
100
AcDbVertex
100
AcDb2dVertex
 10
80.2262830745615
 20
-105.3761691359824
 30
0.0
  0
VERTEX
  5
CD
330
CA
100
AcDbEntity
  8
_U+30EC_U+30A4_U+30E4_U+30FC 1
370
     0
100
AcDbVertex
100
AcDb2dVertex
 10
80.477947299759
 20
-105.3761691359824
 30
0.0
  0
VERTEX
  5
CE
330
CA
100
AcDbEntity
  8
_U+30EC_U+30A4_U+30E4_U+30FC 1
370
     0
100
AcDbVertex
100
AcDb2dVertex
 10
80.477947299759
 20
-105.6278333611799
 30
0.0
  0
VERTEX
  5
CF
330
CA
100
AcDbEntity
  8
_U+30EC_U+30A4_U+30E4_U+30FC 1
370
     0
100
AcDbVertex
100
AcDb2dVertex
 10
80.2262830745615
 20
-105.6278333611799
 30
0.0
  0
SEQEND
  5
D0
330
CA
100
AcDbEntity
  8
_U+30EC_U+30A4_U+30E4_U+30FC 1
370
     0
  0
HATCH
  5
D1
330
C3
100
AcDbEntity
  8
_U+30EC_U+30A4_U+30E4_U+30FC 1
 62
   179
420
  2234388
100
AcDbHatch
 10
0.0
 20
0.0
 30
0.0
210
0.0
220
0.0
230
1.0
  2
SOLID
 70
     1
 71
     0
 91
        1
 92
        1
 93
        4
 72
     1
 10
80.2262830745615
 20
-105.6278333611799
 11
80.2262830745615
 21
-105.3761691359824
 72
     1
 10
80.2262830745615
 20
-105.3761691359824
 11
80.477947299759
 21
-105.3761691359824
 72
     1
 10
80.477947299759
 20
-105.3761691359824
 11
80.477947299759
 21
-105.6278333611799
 72
     1
 10
80.477947299759
 20
-105.6278333611799
 11
80.2262830745615
 21
-105.6278333611799
 97
        0
 75
     2
 76
     1
 98
        0
  0
POLYLINE
  5
D2
330
C3
100
AcDbEntity
  8
_U+30EC_U+30A4_U+30E4_U+30FC 1
370
     0
100
AcDb2dPolyline
 66
     1
 10
0.0
 20
0.0
 30
0.0
  0
VERTEX
  5
D3
330
D2
100
AcDbEntity
  8
_U+30EC_U+30A4_U+30E4_U+30FC 1
370
     0
100
AcDbVertex
100
AcDb2dVertex
 10
81.54661591928348
 20
-105.2809122458152
 30
0.0
  0
VERTEX
  5
D4
330
D2
100
AcDbEntity
  8
_U+30EC_U+30A4_U+30E4_U+30FC 1
370
     0
100
AcDbVertex
100
AcDb2dVertex
 10
81.54661591928348
 20
-105.6278333611799
 30
0.0
  0
VERTEX
  5
D5
330
D2
100
AcDbEntity
  8
_U+30EC_U+30A4_U+30E4_U+30FC 1
370
     0
100
AcDbVertex
100
AcDb2dVertex
 10
81.32871362984143
 20
-105.6278333611799
 30
0.0
  0
VERTEX
  5
D6
330
D2
100
AcDbEntity
  8
_U+30EC_U+30A4_U+30E4_U+30FC 1
370
     0
100
AcDbVertex
100
AcDb2dVertex
 10
81.32871362984143
 20
-105.2809122458152
 30
0.0
  0
VERTEX
  5
D7
330
D2
100
AcDbEntity
  8
_U+30EC_U+30A4_U+30E4_U+30FC 1
370
     0
100
AcDbVertex
100
AcDb2dVertex
 10
80.67293970422413
 20
-105.2809122458152
 30
0.0
  0
VERTEX
  5
D8
330
D2
100
AcDbEntity
  8
_U+30EC_U+30A4_U+30E4_U+30FC 1
370
     0
100
AcDbVertex
100
AcDb2dVertex
 10
80.67293970422413
 20
-105.0566365297254
 30
0.0
  0
VERTEX
  5
D9
330
D2
100
AcDbEntity
  8
_U+30EC_U+30A4_U+30E4_U+30FC 1
370
     0
100
AcDbVertex
100
AcDb2dVertex
 10
81.35196802436687
 20
-104.0835693099166
 30
0.0
  0
VERTEX
  5
DA
330
D2
100
AcDbEntity
  8
_U+30EC_U+30A4_U+30E4_U+30FC 1
370
     0
100
AcDbVertex
100
AcDb2dVertex
 10
81.54661591928348
 20
-104.0835693099166
 30
0.0
  0
VERTEX
  5
DB
330
D2
100
AcDbEntity
  8
_U+30EC_U+30A4_U+30E4_U+30FC 1
370
     0
100
AcDbVertex
100
AcDb2dVertex
 10
81.54661591928348
 20
-105.081957981542
 30
0.0
  0
VERTEX
  5
DC
330
D2
100
AcDbEntity
  8
_U+30EC_U+30A4_U+30E4_U+30FC 1
370
     0
100
AcDbVertex
100
AcDb2dVertex
 10
81.75401066749554
 20
-105.081957981542
 30
0.0
  0
VERTEX
  5
DD
330
D2
100
AcDbEntity
  8
_U+30EC_U+30A4_U+30E4_U+30FC 1
370
     0
100
AcDbVertex
100
AcDb2dVertex
 10
81.75401066749554
 20
-105.2809122458152
 30
0.0
  0
VERTEX
  5
DE
330
D2
100
AcDbEntity
  8
_U+30EC_U+30A4_U+30E4_U+30FC 1
370
     0
100
AcDbVertex
100
AcDb2dVertex
 10
81.54661591928348
 20
-105.2809122458152
 30
0.0
  0
SEQEND
  5
DF
330
D2
100
AcDbEntity
  8
_U+30EC_U+30A4_U+30E4_U+30FC 1
370
     0
  0
POLYLINE
  5
E0
330
C3
100
AcDbEntity
  8
_U+30EC_U+30A4_U+30E4_U+30FC 1
370
     0
100
AcDb2dPolyline
 66
     1
 10
0.0
 20
0.0
 30
0.0
  0
VERTEX
  5
E1
330
E0
100
AcDbEntity
  8
_U+30EC_U+30A4_U+30E4_U+30FC 1
370
     0
100
AcDbVertex
100
AcDb2dVertex
 10
81.32871362984143
 20
-104.4261840559247
 30
0.0
  0
VERTEX
  5
E2
330
E0
100
AcDbEntity
  8
_U+30EC_U+30A4_U+30E4_U+30FC 1
370
     0
100
AcDbVertex
100
AcDb2dVertex
 10
80.8718939684973
 20
-105.081957981542
 30
0.0
  0
VERTEX
  5
E3
330
E0
100
AcDbEntity
  8
_U+30EC_U+30A4_U+30E4_U+30FC 1
370
     0
100
AcDbVertex
100
AcDb2dVertex
 10
81.32871362984143
 20
-105.081957981542
 30
0.0
  0
VERTEX
  5
E4
330
E0
100
AcDbEntity
  8
_U+30EC_U+30A4_U+30E4_U+30FC 1
370
     0
100
AcDbVertex
100
AcDb2dVertex
 10
81.32871362984143
 20
-104.4261840559247
 30
0.0
  0
SEQEND
  5
E5
330
E0
100
AcDbEntity
  8
_U+30EC_U+30A4_U+30E4_U+30FC 1
370
     0
  0
HATCH
  5
E6
330
C3
100
AcDbEntity
  8
_U+30EC_U+30A4_U+30E4_U+30FC 1
 62
   179
420
  2234388
100
AcDbHatch
 10
0.0
 20
0.0
 30
0.0
210
0.0
220
0.0
230
1.0
  2
SOLID
 70
     1
 71
     0
 91
        2
 92
        1
 93
       11
 72
     1
 10
81.54661591928348
 20
-105.2809122458152
 11
81.54661591928348
 21
-105.6278333611799
 72
     1
 10
81.54661591928348
 20
-105.6278333611799
 11
81.32871362984143
 21
-105.6278333611799
 72
     1
 10
81.32871362984143
 20
-105.6278333611799
 11
81.32871362984143
 21
-105.2809122458152
 72
     1
 10
81.32871362984143
 20
-105.2809122458152
 11
80.67293970422413
 21
-105.2809122458152
 72
     1
 10
80.67293970422413
 20
-105.2809122458152
 11
80.67293970422413
 21
-105.0566365297254
 72
     1
 10
80.67293970422413
 20
-105.0566365297254
 11
81.35196802436687
 21
-104.0835693099166
 72
     1
 10
81.35196802436687
 20
-104.0835693099166
 11
81.54661591928348
 21
-104.0835693099166
 72
     1
 10
81.54661591928348
 20
-104.0835693099166
 11
81.54661591928348
 21
-105.081957981542
 72
     1
 10
81.54661591928348
 20
-105.081957981542
 11
81.75401066749554
 21
-105.081957981542
 72
     1
 10
81.75401066749554
 20
-105.081957981542
 11
81.75401066749554
 21
-105.2809122458152
 72
     1
 10
81.75401066749554
 20
-105.2809122458152
 11
81.54661591928348
 21
-105.2809122458152
 97
        0
 92
        1
 93
        3
 72
     1
 10
81.32871362984143
 20
-104.4261840559247
 11
80.8718939684973
 21
-105.081957981542
 72
     1
 10
80.8718939684973
 20
-105.081957981542
 11
81.32871362984143
 21
-105.081957981542
 72
     1
 10
81.32871362984143
 20
-105.081957981542
 11
81.32871362984143
 21
-104.4261840559247
 97
        0
 75
     2
 76
     1
 98
        0
  0
ENDBLK
  5
C6
330
C3
100
AcDbEntity
  8
0
100
AcDbBlockEnd
  0
BLOCK
  5
F5
330
F3
100
AcDbEntity
  8
0
100
AcDbBlockBegin
  2
block 5
 70
     0
 10
0.0
 20
0.0
 30
0.0
  3
block 5
  1

  0
SPLINE
  5
F7
330
F3
100
AcDbEntity
  8
_U+30EC_U+30A4_U+30E4_U+30FC 1
370
     0
100
AcDbSpline
210
0.0
220
0.0
230
1.0
 70
    11
 71
     3
 72
    62
 73
    58
 74
     0
 42
0.0000000001
 43
0.0000000001
 12
1.0
 22
0.0
 32
0.0
 13
1.0
 23
0.0
 33
0.0
 40
0.0
 40
0.0
 40
0.0
 40
0.0
 40
1.0
 40
1.0
 40
1.0
 40
2.0
 40
2.0
 40
2.0
 40
3.0
 40
3.0
 40
3.0
 40
4.0
 40
4.0
 40
4.0
 40
5.0
 40
5.0
 40
5.0
 40
6.0
 40
6.0
 40
6.0
 40
7.0
 40
7.0
 40
7.0
 40
8.0
 40
8.0
 40
8.0
 40
9.0
 40
9.0
 40
9.0
 40
10.0
 40
10.0
 40
10.0
 40
11.0
 40
11.0
 40
11.0
 40
12.0
 40
12.0
 40
12.0
 40
13.0
 40
13.0
 40
13.0
 40
14.0
 40
14.0
 40
14.0
 40
15.0
 40
15.0
 40
15.0
 40
16.0
 40
16.0
 40
16.0
 40
17.0
 40
17.0
 40
17.0
 40
18.0
 40
18.0
 40
18.0
 40
19.0
 40
19.0
 40
19.0
 40
19.0
 10
70.44169513212917
 20
-130.013424989198
 30
0.0
 10
70.44169513212917
 20
-130.1088541341394
 30
0.0
 10
70.42050779489487
 20
-130.3265841688072
 30
0.0
 10
70.23430038391712
 20
-130.4516411349218
 30
0.0
 10
70.12216252587224
 20
-130.5257106878547
 30
0.0
 10
70.02277152112278
 20
-130.529844802437
 30
0.0
 10
69.9381944269599
 20
-130.5339789170193
 30
0.0
 10
69.9381944269599
 20
-130.5339789170193
 30
0.0
 10
69.9381944269599
 20
-130.3138373155118
 30
0.0
 10
69.9381944269599
 20
-130.3138373155118
 30
0.0
 10
70.01226397989277
 20
-130.3117702582207
 30
0.0
 10
70.24704723721254
 20
-130.3014349717649
 30
0.0
 10
70.24704723721254
 20
-130.0179036133289
 30
0.0
 10
70.24704723721254
 20
-129.8804443034674
 30
0.0
 10
70.17728405363624
 20
-129.7278265734708
 30
0.0
 10
69.94870196818991
 20
-129.7278265734708
 30
0.0
 10
69.83242999556273
 20
-129.7278265734708
 30
0.0
 10
69.78368189444645
 20
-129.7660671333571
 30
0.0
 10
69.75198701598215
 20
-129.7977620118214
 30
0.0
 10
69.67791746304927
 20
-129.8718315647543
 30
0.0
 10
69.66534286452811
 20
-129.9882757921557
 30
0.0
 10
69.66534286452811
 20
-130.0430528103712
 30
0.0
 10
69.66534286452811
 20
-130.0623453450886
 30
0.0
 10
69.66740992181926
 20
-130.0981743381352
 30
0.0
 10
69.67154403640156
 20
-130.1257351020172
 30
0.0
 10
69.67154403640156
 20
-130.1257351020172
 30
0.0
 10
69.47689614148494
 20
-130.1257351020172
 30
0.0
 10
69.47689614148494
 20
-130.1257351020172
 30
0.0
 10
69.48326956813266
 20
-130.0874945421309
 30
0.0
 10
69.48550888019807
 20
-130.0454643772109
 30
0.0
 10
69.48550888019807
 20
-130.0389186957889
 30
0.0
 10
69.48550888019807
 20
-129.9734618815691
 30
0.0
 10
69.46432154296379
 20
-129.7746798720702
 30
0.0
 10
69.2272989735786
 20
-129.7746798720702
 30
0.0
 10
69.04970430131397
 20
-129.7746798720702
 30
0.0
 10
68.99458277354996
 20
-129.9055935005097
 30
0.0
 10
68.99458277354996
 20
-130.0158365560377
 30
0.0
 10
68.99458277354996
 20
-130.2800753797564
 30
0.0
 10
69.2272989735786
 20
-130.2886881184695
 30
0.0
 10
69.29930146922031
 20
-130.2928222330518
 30
0.0
 10
69.29930146922031
 20
-130.2928222330518
 30
0.0
 10
69.29930146922031
 20
-130.4960828666815
 30
0.0
 10
69.29930146922031
 20
-130.4960828666815
 30
0.0
 10
69.17441675788001
 20
-130.4874701279684
 30
0.0
 10
68.79786782134221
 20
-130.4599093640864
 30
0.0
 10
68.79786782134221
 20
-130.0030897027423
 30
0.0
 10
68.79786782134221
 20
-129.7788139866525
 30
0.0
 10
68.92481958997367
 20
-129.537657302685
 30
0.0
 10
69.22092554693089
 20
-129.537657302685
 30
0.0
 10
69.40713295790863
 20
-129.537657302685
 30
0.0
 10
69.48964299478037
 20
-129.6327419380779
 30
0.0
 10
69.55096569441781
 20
-129.7323051976016
 30
0.0
 10
69.57852645829982
 20
-129.6709824979642
 30
0.0
 10
69.6589694378804
 20
-129.489081456343
 30
0.0
 10
69.93612736966875
 20
-129.489081456343
 30
0.0
 10
70.27460800109455
 20
-129.489081456343
 30
0.0
 10
70.44169513212917
 20
-129.736439312184
 30
0.0
 10
70.44169513212917
 20
-130.013424989198
 30
0.0
  0
HATCH
  5
F8
330
F3
100
AcDbEntity
  8
_U+30EC_U+30A4_U+30E4_U+30FC 1
 62
   179
420
  2234388
100
AcDbHatch
 10
0.0
 20
0.0
 30
0.0
210
0.0
220
0.0
230
1.0
  2
SOLID
 70
     1
 71
     0
 91
        1
 92
        1
 93
        1
 72
     4
 94
        3
 73
     0
 74
     1
 95
       62
 96
       58
 40
0.0
 40
0.0
 40
0.0
 40
0.0
 40
1.0
 40
1.0
 40
1.0
 40
2.0
 40
2.0
 40
2.0
 40
3.0
 40
3.0
 40
3.0
 40
4.0
 40
4.0
 40
4.0
 40
5.0
 40
5.0
 40
5.0
 40
6.0
 40
6.0
 40
6.0
 40
7.0
 40
7.0
 40
7.0
 40
8.0
 40
8.0
 40
8.0
 40
9.0
 40
9.0
 40
9.0
 40
10.0
 40
10.0
 40
10.0
 40
11.0
 40
11.0
 40
11.0
 40
12.0
 40
12.0
 40
12.0
 40
13.0
 40
13.0
 40
13.0
 40
14.0
 40
14.0
 40
14.0
 40
15.0
 40
15.0
 40
15.0
 40
16.0
 40
16.0
 40
16.0
 40
17.0
 40
17.0
 40
17.0
 40
18.0
 40
18.0
 40
18.0
 40
19.0
 40
19.0
 40
19.0
 40
19.0
 10
70.44169513212917
 20
-130.013424989198
 10
70.44169513212917
 20
-130.1088541341394
 10
70.42050779489487
 20
-130.3265841688072
 10
70.23430038391712
 20
-130.4516411349218
 10
70.12216252587224
 20
-130.5257106878547
 10
70.02277152112278
 20
-130.529844802437
 10
69.9381944269599
 20
-130.5339789170193
 10
69.9381944269599
 20
-130.5339789170193
 10
69.9381944269599
 20
-130.3138373155118
 10
69.9381944269599
 20
-130.3138373155118
 10
70.01226397989277
 20
-130.3117702582207
 10
70.24704723721254
 20
-130.3014349717649
 10
70.24704723721254
 20
-130.0179036133289
 10
70.24704723721254
 20
-129.8804443034674
 10
70.17728405363624
 20
-129.7278265734708
 10
69.94870196818991
 20
-129.7278265734708
 10
69.83242999556273
 20
-129.7278265734708
 10
69.78368189444645
 20
-129.7660671333571
 10
69.75198701598215
 20
-129.7977620118214
 10
69.67791746304927
 20
-129.8718315647543
 10
69.66534286452811
 20
-129.9882757921557
 10
69.66534286452811
 20
-130.0430528103712
 10
69.66534286452811
 20
-130.0623453450886
 10
69.66740992181926
 20
-130.0981743381352
 10
69.67154403640156
 20
-130.1257351020172
 10
69.67154403640156
 20
-130.1257351020172
 10
69.47689614148494
 20
-130.1257351020172
 10
69.47689614148494
 20
-130.1257351020172
 10
69.48326956813266
 20
-130.0874945421309
 10
69.48550888019807
 20
-130.0454643772109
 10
69.48550888019807
 20
-130.0389186957889
 10
69.48550888019807
 20
-129.9734618815691
 10
69.46432154296379
 20
-129.7746798720702
 10
69.2272989735786
 20
-129.7746798720702
 10
69.04970430131397
 20
-129.7746798720702
 10
68.99458277354996
 20
-129.9055935005097
 10
68.99458277354996
 20
-130.0158365560377
 10
68.99458277354996
 20
-130.2800753797564
 10
69.2272989735786
 20
-130.2886881184695
 10
69.29930146922031
 20
-130.2928222330518
 10
69.29930146922031
 20
-130.2928222330518
 10
69.29930146922031
 20
-130.4960828666815
 10
69.29930146922031
 20
-130.4960828666815
 10
69.17441675788001
 20
-130.4874701279684
 10
68.79786782134221
 20
-130.4599093640864
 10
68.79786782134221
 20
-130.0030897027423
 10
68.79786782134221
 20
-129.7788139866525
 10
68.92481958997367
 20
-129.537657302685
 10
69.22092554693089
 20
-129.537657302685
 10
69.40713295790863
 20
-129.537657302685
 10
69.48964299478037
 20
-129.6327419380779
 10
69.55096569441781
 20
-129.7323051976016
 10
69.57852645829982
 20
-129.6709824979642
 10
69.6589694378804
 20
-129.489081456343
 10
69.93612736966875
 20
-129.489081456343
 10
70.27460800109455
 20
-129.489081456343
 10
70.44169513212917
 20
-129.736439312184
 10
70.44169513212917
 20
-130.013424989198
 97
        0
 97
        0
 75
     2
 76
     1
 98
        0
  0
SPLINE
  5
F9
330
F3
100
AcDbEntity
  8
_U+30EC_U+30A4_U+30E4_U+30FC 1
370
     0
100
AcDbSpline
210
0.0
220
0.0
230
1.0
 70
    11
 71
     3
 72
    29
 73
    25
 74
     0
 42
0.0000000001
 43
0.0000000001
 12
1.0
 22
0.0
 32
0.0
 13
1.0
 23
0.0
 33
0.0
 40
0.0
 40
0.0
 40
0.0
 40
0.0
 40
1.0
 40
1.0
 40
1.0
 40
2.0
 40
2.0
 40
2.0
 40
3.0
 40
3.0
 40
3.0
 40
4.0
 40
4.0
 40
4.0
 40
5.0
 40
5.0
 40
5.0
 40
6.0
 40
6.0
 40
6.0
 40
7.0
 40
7.0
 40
7.0
 40
8.0
 40
8.0
 40
8.0
 40
8.0
 10
70.44169513212917
 20
-128.8283121422721
 30
0.0
 10
70.44169513212917
 20
-129.0949625328304
 30
0.0
 10
70.30406356749343
 20
-129.3488660700934
 30
0.0
 10
69.95507539483762
 20
-129.3488660700934
 30
0.0
 10
69.69910480028356
 20
-129.3488660700934
 30
0.0
 10
69.6038479101164
 20
-129.2069281361011
 30
0.0
 10
69.54252521047896
 20
-129.1011637047039
 30
0.0
 10
69.48326956813266
 20
-129.2258761612699
 30
0.0
 10
69.36906465279662
 20
-129.3020127714939
 30
0.0
 10
69.20835094840972
 20
-129.3020127714939
 30
0.0
 10
68.93326007391252
 20
-129.3020127714939
 30
0.0
 10
68.79786782134221
 20
-129.103230761995
 30
0.0
 10
68.79786782134221
 20
-128.8283121422721
 30
0.0
 10
68.79786782134221
 20
-128.544780783836
 30
0.0
 10
68.94170055785138
 20
-128.3542670035017
 30
0.0
 10
69.20835094840972
 20
-128.3542670035017
 30
0.0
 10
69.36906465279662
 20
-128.3542670035017
 30
0.0
 10
69.48326956813266
 20
-128.4328151805654
 30
0.0
 10
69.54252521047896
 20
-128.5575276371315
 30
0.0
 10
69.59334036888639
 20
-128.468644173612
 30
0.0
 10
69.68859725905355
 20
-128.309825271742
 30
0.0
 10
69.95094128025532
 20
-128.309825271742
 30
0.0
 10
70.32525090472772
 20
-128.309825271742
 30
0.0
 10
70.44169513212917
 20
-128.5892225155958
 30
0.0
 10
70.44169513212917
 20
-128.8283121422721
 30
0.0
  0
SPLINE
  5
FA
330
F3
100
AcDbEntity
  8
_U+30EC_U+30A4_U+30E4_U+30FC 1
370
     0
100
AcDbSpline
210
0.0
220
0.0
230
1.0
 70
    11
 71
     3
 72
    17
 73
    13
 74
     0
 42
0.0000000001
 43
0.0000000001
 12
1.0
 22
0.0
 32
0.0
 13
1.0
 23
0.0
 33
0.0
 40
0.0
 40
0.0
 40
0.0
 40
0.0
 40
1.0
 40
1.0
 40
1.0
 40
2.0
 40
2.0
 40
2.0
 40
3.0
 40
3.0
 40
3.0
 40
4.0
 40
4.0
 40
4.0
 40
4.0
 10
68.99044865896767
 20
-128.8283121422721
 30
0.0
 10
68.99044865896767
 20
-128.9933322160156
 30
0.0
 10
69.08553329436056
 20
-129.0780815649527
 30
0.0
 10
69.22092554693089
 20
-129.0780815649527
 30
0.0
 10
69.34374320098004
 20
-129.0780815649527
 30
0.0
 10
69.46225448567263
 20
-129.006079069311
 30
0.0
 10
69.46225448567263
 20
-128.8283121422721
 30
0.0
 10
69.46225448567263
 20
-128.6505452152332
 30
0.0
 10
69.34374320098004
 20
-128.5785427195915
 30
0.0
 10
69.22092554693089
 20
-128.5785427195915
 30
0.0
 10
69.08553329436056
 20
-128.5785427195915
 30
0.0
 10
68.99044865896767
 20
-128.6653591258198
 30
0.0
 10
68.99044865896767
 20
-128.8283121422721
 30
0.0
  0
SPLINE
  5
FB
330
F3
100
AcDbEntity
  8
_U+30EC_U+30A4_U+30E4_U+30FC 1
370
     0
100
AcDbSpline
210
0.0
220
0.0
230
1.0
 70
    11
 71
     3
 72
    17
 73
    13
 74
     0
 42
0.0000000001
 43
0.0000000001
 12
1.0
 22
0.0
 32
0.0
 13
1.0
 23
0.0
 33
0.0
 40
0.0
 40
0.0
 40
0.0
 40
0.0
 40
1.0
 40
1.0
 40
1.0
 40
2.0
 40
2.0
 40
2.0
 40
3.0
 40
3.0
 40
3.0
 40
4.0
 40
4.0
 40
4.0
 40
4.0
 10
69.65052895394153
 20
-128.8283121422721
 30
0.0
 10
69.65052895394153
 20
-128.971972624007
 30
0.0
 10
69.73717310539557
 20
-129.1245903540036
 30
0.0
 10
69.94026148425105
 20
-129.1245903540036
 30
0.0
 10
70.14541692039768
 20
-129.1245903540036
 30
0.0
 10
70.24704723721254
 20
-128.9974663305979
 30
0.0
 10
70.24704723721254
 20
-128.8283121422721
 30
0.0
 10
70.24704723721254
 20
-128.6422769860686
 30
0.0
 10
70.12440183793765
 20
-128.5320339305406
 30
0.0
 10
69.94663491089877
 20
-128.5320339305406
 30
0.0
 10
69.72442625210014
 20
-128.5320339305406
 30
0.0
 10
69.65052895394153
 20
-128.6949869469929
 30
0.0
 10
69.65052895394153
 20
-128.8283121422721
 30
0.0
  0
HATCH
  5
FC
330
F3
100
AcDbEntity
  8
_U+30EC_U+30A4_U+30E4_U+30FC 1
 62
   179
420
  2234388
100
AcDbHatch
 10
0.0
 20
0.0
 30
0.0
210
0.0
220
0.0
230
1.0
  2
SOLID
 70
     1
 71
     0
 91
        3
 92
        1
 93
        1
 72
     4
 94
        3
 73
     0
 74
     1
 95
       29
 96
       25
 40
0.0
 40
0.0
 40
0.0
 40
0.0
 40
1.0
 40
1.0
 40
1.0
 40
2.0
 40
2.0
 40
2.0
 40
3.0
 40
3.0
 40
3.0
 40
4.0
 40
4.0
 40
4.0
 40
5.0
 40
5.0
 40
5.0
 40
6.0
 40
6.0
 40
6.0
 40
7.0
 40
7.0
 40
7.0
 40
8.0
 40
8.0
 40
8.0
 40
8.0
 10
70.44169513212917
 20
-128.8283121422721
 10
70.44169513212917
 20
-129.0949625328304
 10
70.30406356749343
 20
-129.3488660700934
 10
69.95507539483762
 20
-129.3488660700934
 10
69.69910480028356
 20
-129.3488660700934
 10
69.6038479101164
 20
-129.2069281361011
 10
69.54252521047896
 20
-129.1011637047039
 10
69.48326956813266
 20
-129.2258761612699
 10
69.36906465279662
 20
-129.3020127714939
 10
69.20835094840972
 20
-129.3020127714939
 10
68.93326007391252
 20
-129.3020127714939
 10
68.79786782134221
 20
-129.103230761995
 10
68.79786782134221
 20
-128.8283121422721
 10
68.79786782134221
 20
-128.544780783836
 10
68.94170055785138
 20
-128.3542670035017
 10
69.20835094840972
 20
-128.3542670035017
 10
69.36906465279662
 20
-128.3542670035017
 10
69.48326956813266
 20
-128.4328151805654
 10
69.54252521047896
 20
-128.5575276371315
 10
69.59334036888639
 20
-128.468644173612
 10
69.68859725905355
 20
-128.309825271742
 10
69.95094128025532
 20
-128.309825271742
 10
70.32525090472772
 20
-128.309825271742
 10
70.44169513212917
 20
-128.5892225155958
 10
70.44169513212917
 20
-128.8283121422721
 97
        0
 97
        0
 92
        1
 93
        1
 72
     4
 94
        3
 73
     0
 74
     1
 95
       17
 96
       13
 40
0.0
 40
0.0
 40
0.0
 40
0.0
 40
1.0
 40
1.0
 40
1.0
 40
2.0
 40
2.0
 40
2.0
 40
3.0
 40
3.0
 40
3.0
 40
4.0
 40
4.0
 40
4.0
 40
4.0
 10
68.99044865896767
 20
-128.8283121422721
 10
68.99044865896767
 20
-128.9933322160156
 10
69.08553329436056
 20
-129.0780815649527
 10
69.22092554693089
 20
-129.0780815649527
 10
69.34374320098004
 20
-129.0780815649527
 10
69.46225448567263
 20
-129.006079069311
 10
69.46225448567263
 20
-128.8283121422721
 10
69.46225448567263
 20
-128.6505452152332
 10
69.34374320098004
 20
-128.5785427195915
 10
69.22092554693089
 20
-128.5785427195915
 10
69.08553329436056
 20
-128.5785427195915
 10
68.99044865896767
 20
-128.6653591258198
 10
68.99044865896767
 20
-128.8283121422721
 97
        0
 97
        0
 92
        1
 93
        1
 72
     4
 94
        3
 73
     0
 74
     1
 95
       17
 96
       13
 40
0.0
 40
0.0
 40
0.0
 40
0.0
 40
1.0
 40
1.0
 40
1.0
 40
2.0
 40
2.0
 40
2.0
 40
3.0
 40
3.0
 40
3.0
 40
4.0
 40
4.0
 40
4.0
 40
4.0
 10
69.65052895394153
 20
-128.8283121422721
 10
69.65052895394153
 20
-128.971972624007
 10
69.73717310539557
 20
-129.1245903540036
 10
69.94026148425105
 20
-129.1245903540036
 10
70.14541692039768
 20
-129.1245903540036
 10
70.24704723721254
 20
-128.9974663305979
 10
70.24704723721254
 20
-128.8283121422721
 10
70.24704723721254
 20
-128.6422769860686
 10
70.12440183793765
 20
-128.5320339305406
 10
69.94663491089877
 20
-128.5320339305406
 10
69.72442625210014
 20
-128.5320339305406
 10
69.65052895394153
 20
-128.6949869469929
 10
69.65052895394153
 20
-128.8283121422721
 97
        0
 97
        0
 75
     2
 76
     1
 98
        0
  0
ENDBLK
  5
F6
330
F3
100
AcDbEntity
  8
0
100
AcDbBlockEnd
  0
BLOCK
  5
10B
330
109
100
AcDbEntity
  8
0
100
AcDbBlockBegin
  2
block 6
 70
     0
 10
0.0
 20
0.0
 30
0.0
  3
block 6
  1

  0
SPLINE
  5
10D
330
109
100
AcDbEntity
  8
_U+30EC_U+30A4_U+30E4_U+30FC 1
370
     0
100
AcDbSpline
210
0.0
220
0.0
230
1.0
 70
    11
 71
     3
 72
    62
 73
    58
 74
     0
 42
0.0000000001
 43
0.0000000001
 12
1.0
 22
0.0
 32
0.0
 13
1.0
 23
0.0
 33
0.0
 40
0.0
 40
0.0
 40
0.0
 40
0.0
 40
1.0
 40
1.0
 40
1.0
 40
2.0
 40
2.0
 40
2.0
 40
3.0
 40
3.0
 40
3.0
 40
4.0
 40
4.0
 40
4.0
 40
5.0
 40
5.0
 40
5.0
 40
6.0
 40
6.0
 40
6.0
 40
7.0
 40
7.0
 40
7.0
 40
8.0
 40
8.0
 40
8.0
 40
9.0
 40
9.0
 40
9.0
 40
10.0
 40
10.0
 40
10.0
 40
11.0
 40
11.0
 40
11.0
 40
12.0
 40
12.0
 40
12.0
 40
13.0
 40
13.0
 40
13.0
 40
14.0
 40
14.0
 40
14.0
 40
15.0
 40
15.0
 40
15.0
 40
16.0
 40
16.0
 40
16.0
 40
17.0
 40
17.0
 40
17.0
 40
18.0
 40
18.0
 40
18.0
 40
19.0
 40
19.0
 40
19.0
 40
19.0
 10
93.43133406952411
 20
-151.6785969672887
 30
0.0
 10
93.33590492458269
 20
-151.6785969672887
 30
0.0
 10
93.11817488991491
 20
-151.6575818848287
 30
0.0
 10
92.99311792380034
 20
-151.4715467286252
 30
0.0
 10
92.91939288041598
 20
-151.359236615806
 30
0.0
 10
92.91491425628516
 20
-151.2600178658308
 30
0.0
 10
92.91078014170286
 20
-151.1752685168937
 30
0.0
 10
92.91078014170286
 20
-151.1752685168937
 30
0.0
 10
93.13092174321032
 20
-151.1752685168937
 30
0.0
 10
93.13092174321032
 20
-151.1752685168937
 30
0.0
 10
93.13298880050148
 20
-151.2493380698266
 30
0.0
 10
93.14332408695724
 20
-151.4839490723721
 30
0.0
 10
93.42685544539329
 20
-151.4839490723721
 30
0.0
 10
93.56431475525476
 20
-151.4839490723721
 30
0.0
 10
93.71693248525132
 20
-151.41435814357
 30
0.0
 10
93.71693248525132
 20
-151.185948312898
 30
0.0
 10
93.71693248525132
 20
-151.0695040854965
 30
0.0
 10
93.67869192536506
 20
-151.0209282391545
 30
0.0
 10
93.64699704690075
 20
-150.9892333606902
 30
0.0
 10
93.57292749396788
 20
-150.9151638077573
 30
0.0
 10
93.45648326656644
 20
-150.9024169544619
 30
0.0
 10
93.40170624835096
 20
-150.9024169544619
 30
0.0
 10
93.38241371363357
 20
-150.9024169544619
 30
0.0
 10
93.34658472058697
 20
-150.9044840117531
 30
0.0
 10
93.31902395670497
 20
-150.9086181263353
 30
0.0
 10
93.31902395670497
 20
-150.9086181263353
 30
0.0
 10
93.31902395670497
 20
-150.7139702314187
 30
0.0
 10
93.31902395670497
 20
-150.7139702314187
 30
0.0
 10
93.35726451659124
 20
-150.7205159128407
 30
0.0
 10
93.3992946815113
 20
-150.7225829701319
 30
0.0
 10
93.40584036293326
 20
-150.7225829701319
 30
0.0
 10
93.47129717715302
 20
-150.7225829701319
 30
0.0
 10
93.67007918665193
 20
-150.7012233781233
 30
0.0
 10
93.67007918665193
 20
-150.4645453182866
 30
0.0
 10
93.67007918665193
 20
-150.2867783912478
 30
0.0
 10
93.53916555821243
 20
-150.2316568634837
 30
0.0
 10
93.42892250268444
 20
-150.2316568634837
 30
0.0
 10
93.16468367896577
 20
-150.2316568634837
 30
0.0
 10
93.15607094025265
 20
-150.4645453182866
 30
0.0
 10
93.15193682567035
 20
-150.5362033043799
 30
0.0
 10
93.15193682567035
 20
-150.5362033043799
 30
0.0
 10
92.94867619204061
 20
-150.5362033043799
 30
0.0
 10
92.94867619204061
 20
-150.5362033043799
 30
0.0
 10
92.95728893075373
 20
-150.4114908478138
 30
0.0
 10
92.98484969463574
 20
-150.034941911276
 30
0.0
 10
93.44166935597987
 20
-150.034941911276
 30
0.0
 10
93.66594507206963
 20
-150.034941911276
 30
0.0
 10
93.90710175603712
 20
-150.1620659346817
 30
0.0
 10
93.90710175603712
 20
-150.4579996368647
 30
0.0
 10
93.90710175603712
 20
-150.6443793026167
 30
0.0
 10
93.81201712064423
 20
-150.7267170847142
 30
0.0
 10
93.71245386112051
 20
-150.7880397843516
 30
0.0
 10
93.77377656075795
 20
-150.8156005482336
 30
0.0
 10
93.95567760237914
 20
-150.8958712730399
 30
0.0
 10
93.95567760237914
 20
-151.1732014596026
 30
0.0
 10
93.95567760237914
 20
-151.5115098362541
 30
0.0
 10
93.70831974653821
 20
-151.6785969672887
 30
0.0
 10
93.43133406952411
 20
-151.6785969672887
 30
0.0
  0
HATCH
  5
10E
330
109
100
AcDbEntity
  8
_U+30EC_U+30A4_U+30E4_U+30FC 1
 62
   179
420
  2234388
100
AcDbHatch
 10
0.0
 20
0.0
 30
0.0
210
0.0
220
0.0
230
1.0
  2
SOLID
 70
     1
 71
     0
 91
        1
 92
        1
 93
        1
 72
     4
 94
        3
 73
     0
 74
     1
 95
       62
 96
       58
 40
0.0
 40
0.0
 40
0.0
 40
0.0
 40
1.0
 40
1.0
 40
1.0
 40
2.0
 40
2.0
 40
2.0
 40
3.0
 40
3.0
 40
3.0
 40
4.0
 40
4.0
 40
4.0
 40
5.0
 40
5.0
 40
5.0
 40
6.0
 40
6.0
 40
6.0
 40
7.0
 40
7.0
 40
7.0
 40
8.0
 40
8.0
 40
8.0
 40
9.0
 40
9.0
 40
9.0
 40
10.0
 40
10.0
 40
10.0
 40
11.0
 40
11.0
 40
11.0
 40
12.0
 40
12.0
 40
12.0
 40
13.0
 40
13.0
 40
13.0
 40
14.0
 40
14.0
 40
14.0
 40
15.0
 40
15.0
 40
15.0
 40
16.0
 40
16.0
 40
16.0
 40
17.0
 40
17.0
 40
17.0
 40
18.0
 40
18.0
 40
18.0
 40
19.0
 40
19.0
 40
19.0
 40
19.0
 10
93.43133406952411
 20
-151.6785969672887
 10
93.33590492458269
 20
-151.6785969672887
 10
93.11817488991491
 20
-151.6575818848287
 10
92.99311792380034
 20
-151.4715467286252
 10
92.91939288041598
 20
-151.359236615806
 10
92.91491425628516
 20
-151.2600178658308
 10
92.91078014170286
 20
-151.1752685168937
 10
92.91078014170286
 20
-151.1752685168937
 10
93.13092174321032
 20
-151.1752685168937
 10
93.13092174321032
 20
-151.1752685168937
 10
93.13298880050148
 20
-151.2493380698266
 10
93.14332408695724
 20
-151.4839490723721
 10
93.42685544539329
 20
-151.4839490723721
 10
93.56431475525476
 20
-151.4839490723721
 10
93.71693248525132
 20
-151.41435814357
 10
93.71693248525132
 20
-151.185948312898
 10
93.71693248525132
 20
-151.0695040854965
 10
93.67869192536506
 20
-151.0209282391545
 10
93.64699704690075
 20
-150.9892333606902
 10
93.57292749396788
 20
-150.9151638077573
 10
93.45648326656644
 20
-150.9024169544619
 10
93.40170624835096
 20
-150.9024169544619
 10
93.38241371363357
 20
-150.9024169544619
 10
93.34658472058697
 20
-150.9044840117531
 10
93.31902395670497
 20
-150.9086181263353
 10
93.31902395670497
 20
-150.9086181263353
 10
93.31902395670497
 20
-150.7139702314187
 10
93.31902395670497
 20
-150.7139702314187
 10
93.35726451659124
 20
-150.7205159128407
 10
93.3992946815113
 20
-150.7225829701319
 10
93.40584036293326
 20
-150.7225829701319
 10
93.47129717715302
 20
-150.7225829701319
 10
93.67007918665193
 20
-150.7012233781233
 10
93.67007918665193
 20
-150.4645453182866
 10
93.67007918665193
 20
-150.2867783912478
 10
93.53916555821243
 20
-150.2316568634837
 10
93.42892250268444
 20
-150.2316568634837
 10
93.16468367896577
 20
-150.2316568634837
 10
93.15607094025265
 20
-150.4645453182866
 10
93.15193682567035
 20
-150.5362033043799
 10
93.15193682567035
 20
-150.5362033043799
 10
92.94867619204061
 20
-150.5362033043799
 10
92.94867619204061
 20
-150.5362033043799
 10
92.95728893075373
 20
-150.4114908478138
 10
92.98484969463574
 20
-150.034941911276
 10
93.44166935597987
 20
-150.034941911276
 10
93.66594507206963
 20
-150.034941911276
 10
93.90710175603712
 20
-150.1620659346817
 10
93.90710175603712
 20
-150.4579996368647
 10
93.90710175603712
 20
-150.6443793026167
 10
93.81201712064423
 20
-150.7267170847142
 10
93.71245386112051
 20
-150.7880397843516
 10
93.77377656075795
 20
-150.8156005482336
 10
93.95567760237914
 20
-150.8958712730399
 10
93.95567760237914
 20
-151.1732014596026
 10
93.95567760237914
 20
-151.5115098362541
 10
93.70831974653821
 20
-151.6785969672887
 10
93.43133406952411
 20
-151.6785969672887
 97
        0
 97
        0
 75
     2
 76
     1
 98
        0
  0
SPLINE
  5
10F
330
109
100
AcDbEntity
  8
_U+30EC_U+30A4_U+30E4_U+30FC 1
370
     0
100
AcDbSpline
210
0.0
220
0.0
230
1.0
 70
    11
 71
     3
 72
    29
 73
    25
 74
     0
 42
0.0000000001
 43
0.0000000001
 12
1.0
 22
0.0
 32
0.0
 13
1.0
 23
0.0
 33
0.0
 40
0.0
 40
0.0
 40
0.0
 40
0.0
 40
1.0
 40
1.0
 40
1.0
 40
2.0
 40
2.0
 40
2.0
 40
3.0
 40
3.0
 40
3.0
 40
4.0
 40
4.0
 40
4.0
 40
5.0
 40
5.0
 40
5.0
 40
6.0
 40
6.0
 40
6.0
 40
7.0
 40
7.0
 40
7.0
 40
8.0
 40
8.0
 40
8.0
 40
8.0
 10
94.61644691645006
 20
-151.6785969672887
 30
0.0
 10
94.34979652589172
 20
-151.6785969672887
 30
0.0
 10
94.09623749817733
 20
-151.5411376574272
 30
0.0
 10
94.09623749817733
 20
-151.1921494847714
 30
0.0
 10
94.09623749817733
 20
-150.9361788902173
 30
0.0
 10
94.2378309226211
 20
-150.8410942548245
 30
0.0
 10
94.34359535401828
 20
-150.779771555187
 30
0.0
 10
94.21888289745223
 20
-150.7205159128407
 30
0.0
 10
94.1427462872282
 20
-150.6061387427304
 30
0.0
 10
94.1427462872282
 20
-150.4452527835693
 30
0.0
 10
94.1427462872282
 20
-150.1703341638463
 30
0.0
 10
94.34152829672712
 20
-150.034941911276
 30
0.0
 10
94.61644691645006
 20
-150.034941911276
 30
0.0
 10
94.89997827488612
 20
-150.034941911276
 30
0.0
 10
95.09049205522044
 20
-150.1789469025594
 30
0.0
 10
95.09049205522044
 20
-150.4452527835693
 30
0.0
 10
95.09049205522044
 20
-150.6061387427304
 30
0.0
 10
95.01194387815674
 20
-150.7205159128407
 30
0.0
 10
94.8872314215907
 20
-150.779771555187
 30
0.0
 10
94.97611488511014
 20
-150.8304144588202
 30
0.0
 10
95.13493378698016
 20
-150.9254990942131
 30
0.0
 10
95.13493378698016
 20
-151.1880153701891
 30
0.0
 10
95.13493378698016
 20
-151.5624972494358
 30
0.0
 10
94.8555365431264
 20
-151.6785969672887
 30
0.0
 10
94.61644691645006
 20
-151.6785969672887
 30
0.0
  0
SPLINE
  5
110
330
109
100
AcDbEntity
  8
_U+30EC_U+30A4_U+30E4_U+30FC 1
370
     0
100
AcDbSpline
210
0.0
220
0.0
230
1.0
 70
    11
 71
     3
 72
    17
 73
    13
 74
     0
 42
0.0000000001
 43
0.0000000001
 12
1.0
 22
0.0
 32
0.0
 13
1.0
 23
0.0
 33
0.0
 40
0.0
 40
0.0
 40
0.0
 40
0.0
 40
1.0
 40
1.0
 40
1.0
 40
2.0
 40
2.0
 40
2.0
 40
3.0
 40
3.0
 40
3.0
 40
4.0
 40
4.0
 40
4.0
 40
4.0
 10
94.61644691645006
 20
-150.8876030438753
 30
0.0
 10
94.47278643471515
 20
-150.8876030438753
 30
0.0
 10
94.32016870471857
 20
-150.9744194501036
 30
0.0
 10
94.32016870471857
 20
-151.1773355741848
 30
0.0
 10
94.32016870471857
 20
-151.3826632651057
 30
0.0
 10
94.4472927281243
 20
-151.4839490723721
 30
0.0
 10
94.61644691645006
 20
-151.4839490723721
 30
0.0
 10
94.80248207265355
 20
-151.4839490723721
 30
0.0
 10
94.91272512818155
 20
-151.3613036730972
 30
0.0
 10
94.91272512818155
 20
-151.1835367460583
 30
0.0
 10
94.91272512818155
 20
-150.9616725968082
 30
0.0
 10
94.74977211172923
 20
-150.8876030438753
 30
0.0
 10
94.61644691645006
 20
-150.8876030438753
 30
0.0
  0
SPLINE
  5
111
330
109
100
AcDbEntity
  8
_U+30EC_U+30A4_U+30E4_U+30FC 1
370
     0
100
AcDbSpline
210
0.0
220
0.0
230
1.0
 70
    11
 71
     3
 72
    17
 73
    13
 74
     0
 42
0.0000000001
 43
0.0000000001
 12
1.0
 22
0.0
 32
0.0
 13
1.0
 23
0.0
 33
0.0
 40
0.0
 40
0.0
 40
0.0
 40
0.0
 40
1.0
 40
1.0
 40
1.0
 40
2.0
 40
2.0
 40
2.0
 40
3.0
 40
3.0
 40
3.0
 40
4.0
 40
4.0
 40
4.0
 40
4.0
 10
94.61644691645006
 20
-150.2275227489015
 30
0.0
 10
94.4514268427066
 20
-150.2275227489015
 30
0.0
 10
94.36702200331797
 20
-150.3226073842943
 30
0.0
 10
94.36702200331797
 20
-150.4579996368647
 30
0.0
 10
94.36702200331797
 20
-150.5806450361396
 30
0.0
 10
94.43867998941117
 20
-150.6991563208322
 30
0.0
 10
94.61644691645006
 20
-150.6991563208322
 30
0.0
 10
94.79421384348895
 20
-150.6991563208322
 30
0.0
 10
94.86621633913067
 20
-150.5806450361396
 30
0.0
 10
94.86621633913067
 20
-150.4579996368647
 30
0.0
 10
94.86621633913067
 20
-150.3226073842943
 30
0.0
 10
94.77939993290238
 20
-150.2275227489015
 30
0.0
 10
94.61644691645006
 20
-150.2275227489015
 30
0.0
  0
HATCH
  5
112
330
109
100
AcDbEntity
  8
_U+30EC_U+30A4_U+30E4_U+30FC 1
 62
   179
420
  2234388
100
AcDbHatch
 10
0.0
 20
0.0
 30
0.0
210
0.0
220
0.0
230
1.0
  2
SOLID
 70
     1
 71
     0
 91
        3
 92
        1
 93
        1
 72
     4
 94
        3
 73
     0
 74
     1
 95
       29
 96
       25
 40
0.0
 40
0.0
 40
0.0
 40
0.0
 40
1.0
 40
1.0
 40
1.0
 40
2.0
 40
2.0
 40
2.0
 40
3.0
 40
3.0
 40
3.0
 40
4.0
 40
4.0
 40
4.0
 40
5.0
 40
5.0
 40
5.0
 40
6.0
 40
6.0
 40
6.0
 40
7.0
 40
7.0
 40
7.0
 40
8.0
 40
8.0
 40
8.0
 40
8.0
 10
94.61644691645006
 20
-151.6785969672887
 10
94.34979652589172
 20
-151.6785969672887
 10
94.09623749817733
 20
-151.5411376574272
 10
94.09623749817733
 20
-151.1921494847714
 10
94.09623749817733
 20
-150.9361788902173
 10
94.2378309226211
 20
-150.8410942548245
 10
94.34359535401828
 20
-150.779771555187
 10
94.21888289745223
 20
-150.7205159128407
 10
94.1427462872282
 20
-150.6061387427304
 10
94.1427462872282
 20
-150.4452527835693
 10
94.1427462872282
 20
-150.1703341638463
 10
94.34152829672712
 20
-150.034941911276
 10
94.61644691645006
 20
-150.034941911276
 10
94.89997827488612
 20
-150.034941911276
 10
95.09049205522044
 20
-150.1789469025594
 10
95.09049205522044
 20
-150.4452527835693
 10
95.09049205522044
 20
-150.6061387427304
 10
95.01194387815674
 20
-150.7205159128407
 10
94.8872314215907
 20
-150.779771555187
 10
94.97611488511014
 20
-150.8304144588202
 10
95.13493378698016
 20
-150.9254990942131
 10
95.13493378698016
 20
-151.1880153701891
 10
95.13493378698016
 20
-151.5624972494358
 10
94.8555365431264
 20
-151.6785969672887
 10
94.61644691645006
 20
-151.6785969672887
 97
        0
 97
        0
 92
        1
 93
        1
 72
     4
 94
        3
 73
     0
 74
     1
 95
       17
 96
       13
 40
0.0
 40
0.0
 40
0.0
 40
0.0
 40
1.0
 40
1.0
 40
1.0
 40
2.0
 40
2.0
 40
2.0
 40
3.0
 40
3.0
 40
3.0
 40
4.0
 40
4.0
 40
4.0
 40
4.0
 10
94.61644691645006
 20
-150.8876030438753
 10
94.47278643471515
 20
-150.8876030438753
 10
94.32016870471857
 20
-150.9744194501036
 10
94.32016870471857
 20
-151.1773355741848
 10
94.32016870471857
 20
-151.3826632651057
 10
94.4472927281243
 20
-151.4839490723721
 10
94.61644691645006
 20
-151.4839490723721
 10
94.80248207265355
 20
-151.4839490723721
 10
94.91272512818155
 20
-151.3613036730972
 10
94.91272512818155
 20
-151.1835367460583
 10
94.91272512818155
 20
-150.9616725968082
 10
94.74977211172923
 20
-150.8876030438753
 10
94.61644691645006
 20
-150.8876030438753
 97
        0
 97
        0
 92
        1
 93
        1
 72
     4
 94
        3
 73
     0
 74
     1
 95
       17
 96
       13
 40
0.0
 40
0.0
 40
0.0
 40
0.0
 40
1.0
 40
1.0
 40
1.0
 40
2.0
 40
2.0
 40
2.0
 40
3.0
 40
3.0
 40
3.0
 40
4.0
 40
4.0
 40
4.0
 40
4.0
 10
94.61644691645006
 20
-150.2275227489015
 10
94.4514268427066
 20
-150.2275227489015
 10
94.36702200331797
 20
-150.3226073842943
 10
94.36702200331797
 20
-150.4579996368647
 10
94.36702200331797
 20
-150.5806450361396
 10
94.43867998941117
 20
-150.6991563208322
 10
94.61644691645006
 20
-150.6991563208322
 10
94.79421384348895
 20
-150.6991563208322
 10
94.86621633913067
 20
-150.5806450361396
 10
94.86621633913067
 20
-150.4579996368647
 10
94.86621633913067
 20
-150.3226073842943
 10
94.77939993290238
 20
-150.2275227489015
 10
94.61644691645006
 20
-150.2275227489015
 97
        0
 97
        0
 75
     2
 76
     1
 98
        0
  0
ENDBLK
  5
10C
330
109
100
AcDbEntity
  8
0
100
AcDbBlockEnd
  0
BLOCK
  5
137
330
135
100
AcDbEntity
  8
0
100
AcDbBlockBegin
  2
block 7
 70
     0
 10
0.0
 20
0.0
 30
0.0
  3
block 7
  1

  0
SPLINE
  5
139
330
135
100
AcDbEntity
  8
_U+30EC_U+30A4_U+30E4_U+30FC 1
370
     0
100
AcDbSpline
210
0.0
220
0.0
230
1.0
 70
    11
 71
     3
 72
   242
 73
   238
 74
     0
 42
0.0000000001
 43
0.0000000001
 12
1.0
 22
0.0
 32
0.0
 13
1.0
 23
0.0
 33
0.0
 40
0.0
 40
0.0
 40
0.0
 40
0.0
 40
1.0
 40
1.0
 40
1.0
 40
2.0
 40
2.0
 40
2.0
 40
3.0
 40
3.0
 40
3.0
 40
4.0
 40
4.0
 40
4.0
 40
5.0
 40
5.0
 40
5.0
 40
6.0
 40
6.0
 40
6.0
 40
7.0
 40
7.0
 40
7.0
 40
8.0
 40
8.0
 40
8.0
 40
9.0
 40
9.0
 40
9.0
 40
10.0
 40
10.0
 40
10.0
 40
11.0
 40
11.0
 40
11.0
 40
12.0
 40
12.0
 40
12.0
 40
13.0
 40
13.0
 40
13.0
 40
14.0
 40
14.0
 40
14.0
 40
15.0
 40
15.0
 40
15.0
 40
16.0
 40
16.0
 40
16.0
 40
17.0
 40
17.0
 40
17.0
 40
18.0
 40
18.0
 40
18.0
 40
19.0
 40
19.0
 40
19.0
 40
20.0
 40
20.0
 40
20.0
 40
21.0
 40
21.0
 40
21.0
 40
22.0
 40
22.0
 40
22.0
 40
23.0
 40
23.0
 40
23.0
 40
24.0
 40
24.0
 40
24.0
 40
25.0
 40
25.0
 40
25.0
 40
26.0
 40
26.0
 40
26.0
 40
27.0
 40
27.0
 40
27.0
 40
28.0
 40
28.0
 40
28.0
 40
29.0
 40
29.0
 40
29.0
 40
30.0
 40
30.0
 40
30.0
 40
31.0
 40
31.0
 40
31.0
 40
32.0
 40
32.0
 40
32.0
 40
33.0
 40
33.0
 40
33.0
 40
34.0
 40
34.0
 40
34.0
 40
35.0
 40
35.0
 40
35.0
 40
36.0
 40
36.0
 40
36.0
 40
37.0
 40
37.0
 40
37.0
 40
38.0
 40
38.0
 40
38.0
 40
39.0
 40
39.0
 40
39.0
 40
40.0
 40
40.0
 40
40.0
 40
41.0
 40
41.0
 40
41.0
 40
42.0
 40
42.0
 40
42.0
 40
43.0
 40
43.0
 40
43.0
 40
44.0
 40
44.0
 40
44.0
 40
45.0
 40
45.0
 40
45.0
 40
46.0
 40
46.0
 40
46.0
 40
47.0
 40
47.0
 40
47.0
 40
48.0
 40
48.0
 40
48.0
 40
49.0
 40
49.0
 40
49.0
 40
50.0
 40
50.0
 40
50.0
 40
51.0
 40
51.0
 40
51.0
 40
52.0
 40
52.0
 40
52.0
 40
53.0
 40
53.0
 40
53.0
 40
54.0
 40
54.0
 40
54.0
 40
55.0
 40
55.0
 40
55.0
 40
56.0
 40
56.0
 40
56.0
 40
57.0
 40
57.0
 40
57.0
 40
58.0
 40
58.0
 40
58.0
 40
59.0
 40
59.0
 40
59.0
 40
60.0
 40
60.0
 40
60.0
 40
61.0
 40
61.0
 40
61.0
 40
62.0
 40
62.0
 40
62.0
 40
63.0
 40
63.0
 40
63.0
 40
64.0
 40
64.0
 40
64.0
 40
65.0
 40
65.0
 40
65.0
 40
66.0
 40
66.0
 40
66.0
 40
67.0
 40
67.0
 40
67.0
 40
68.0
 40
68.0
 40
68.0
 40
69.0
 40
69.0
 40
69.0
 40
70.0
 40
70.0
 40
70.0
 40
71.0
 40
71.0
 40
71.0
 40
72.0
 40
72.0
 40
72.0
 40
73.0
 40
73.0
 40
73.0
 40
74.0
 40
74.0
 40
74.0
 40
75.0
 40
75.0
 40
75.0
 40
76.0
 40
76.0
 40
76.0
 40
77.0
 40
77.0
 40
77.0
 40
78.0
 40
78.0
 40
78.0
 40
79.0
 40
79.0
 40
79.0
 40
79.0
 10
99.36551104286696
 20
-117.8124470734115
 30
0.0
 10
99.36551104286696
 20
-117.8124470734115
 30
0.0
 10
99.14295787451982
 20
-117.8124470734115
 30
0.0
 10
99.14295787451982
 20
-117.8124470734115
 30
0.0
 10
99.14295787451982
 20
-117.8124470734115
 30
0.0
 10
98.90042315235823
 20
-117.8124470734115
 30
0.0
 10
98.90042315235823
 20
-117.8124470734115
 30
0.0
 10
98.90042315235823
 20
-117.8124470734115
 30
0.0
 10
99.0116997365318
 20
-117.8548217478801
 30
0.0
 10
99.0116997365318
 20
-117.8548217478801
 30
0.0
 10
99.02100149434197
 20
-117.8591281172366
 30
0.0
 10
99.03202579989478
 20
-117.8653292891101
 30
0.0
 10
99.03202579989478
 20
-117.8780761424055
 30
0.0
 10
99.03202579989478
 20
-117.8992634796398
 30
0.0
 10
99.00412052646425
 20
-117.9056369062875
 30
0.0
 10
98.98586152039243
 20
-117.9097710208698
 30
0.0
 10
98.97655976258226
 20
-117.9330254153952
 30
0.0
 10
98.95072154644288
 20
-117.9986544843892
 30
0.0
 10
98.93384057856515
 20
-118.043096216149
 30
0.0
 10
98.93384057856515
 20
-118.043096216149
 30
0.0
 10
99.17086314795034
 20
-118.043096216149
 30
0.0
 10
99.17086314795034
 20
-118.043096216149
 30
0.0
 10
99.25044485365962
 20
-118.043096216149
 30
0.0
 10
99.42269962792211
 20
-118.0387898467924
 30
0.0
 10
99.5467230653911
 20
-118.0303493628535
 30
0.0
 10
99.5467230653911
 20
-118.0303493628535
 30
0.0
 10
99.5467230653911
 20
-118.2081162898924
 30
0.0
 10
99.5467230653911
 20
-118.2081162898924
 30
0.0
 10
99.47472056974938
 20
-118.2038099205359
 30
0.0
 10
99.45611705412902
 20
-118.2038099205359
 30
0.0
 10
99.29867619045311
 20
-118.1996758059536
 30
0.0
 10
99.27077091702259
 20
-118.3540160836928
 30
0.0
 10
99.23184133803926
 20
-118.4344590632733
 30
0.0
 10
99.19325626860447
 20
-118.5042222468497
 30
0.0
 10
99.29867619045311
 20
-118.5634778891959
 30
0.0
 10
99.39134925900633
 20
-118.6311740154811
 30
0.0
 10
99.4819552702684
 20
-118.7136840523528
 30
0.0
 10
99.4819552702684
 20
-118.7136840523528
 30
0.0
 10
99.37825789616238
 20
-118.8807711833875
 30
0.0
 10
99.37825789616238
 20
-118.8807711833875
 30
0.0
 10
99.35793183279941
 20
-118.8618231582186
 30
0.0
 10
99.34690752724661
 20
-118.8533826742797
 30
0.0
 10
99.24872230591698
 20
-118.7686333253426
 30
0.0
 10
99.2060031218999
 20
-118.7305650202306
 30
0.0
 10
99.15432668962114
 20
-118.694736027184
 30
0.0
 10
99.08370223217352
 20
-118.6502942954242
 30
0.0
 10
98.89870060461561
 20
-118.836501706402
 30
0.0
 10
98.7192111298341
 20
-118.8597561009274
 30
0.0
 10
98.46530759257118
 20
-118.8893839221006
 30
0.0
 10
98.46530759257118
 20
-118.8893839221006
 30
0.0
 10
98.37470158130911
 20
-118.7095499377705
 30
0.0
 10
98.37470158130911
 20
-118.7095499377705
 30
0.0
 10
98.65237627742025
 20
-118.705243568414
 30
0.0
 10
98.80602753606239
 20
-118.6799221165974
 30
0.0
 10
98.93935273134156
 20
-118.5698513158436
 30
0.0
 10
98.83565535723554
 20
-118.5190361574362
 30
0.0
 10
98.7577961992689
 20
-118.4916476483285
 30
0.0
 10
98.72644583035311
 20
-118.4789007950331
 30
0.0
 10
98.70990937202392
 20
-118.5064615589151
 30
0.0
 10
98.69681800917996
 20
-118.5254095840839
 30
0.0
 10
98.67270234078322
 20
-118.5593437746136
 30
0.0
 10
98.67270234078322
 20
-118.5593437746136
 30
0.0
 10
98.50044756652072
 20
-118.4768337377419
 30
0.0
 10
98.50044756652072
 20
-118.4768337377419
 30
0.0
 10
98.57279457171097
 20
-118.3963907581613
 30
0.0
 10
98.62653806128087
 20
-118.3011338679942
 30
0.0
 10
98.67649194581699
 20
-118.1996758059536
 30
0.0
 10
98.5097493243309
 20
-118.2038099205359
 30
0.0
 10
98.49114580871056
 20
-118.2038099205359
 30
0.0
 10
98.41914331306883
 20
-118.2081162898924
 30
0.0
 10
98.41914331306883
 20
-118.2081162898924
 30
0.0
 10
98.41914331306883
 20
-118.0303493628535
 30
0.0
 10
98.41914331306883
 20
-118.0303493628535
 30
0.0
 10
98.5414442027952
 20
-118.0367227895012
 30
0.0
 10
98.72472328261048
 20
-118.0410291588578
 30
0.0
 10
98.74677189371609
 20
-118.0410291588578
 30
0.0
 10
98.76158580430267
 20
-118.0070949683281
 30
0.0
 10
98.80981714109616
 20
-117.8865166263443
 30
0.0
 10
98.82635359942536
 20
-117.8124470734115
 30
0.0
 10
98.80981714109616
 20
-117.8124470734115
 30
0.0
 10
98.65444333471139
 20
-117.8188205000592
 30
0.0
 10
98.48391110819152
 20
-117.8315673533546
 30
0.0
 10
98.48391110819152
 20
-117.8315673533546
 30
0.0
 10
98.48391110819152
 20
-117.9648925486338
 30
0.0
 10
98.48391110819152
 20
-117.9648925486338
 30
0.0
 10
98.44119192417443
 20
-117.9902140004504
 30
0.0
 10
98.38951549189568
 20
-118.0219088789147
 30
0.0
 10
98.27272675494571
 20
-118.0875379479087
 30
0.0
 10
98.27272675494571
 20
-118.0875379479087
 30
0.0
 10
98.27272675494571
 20
-118.233437741709
 30
0.0
 10
98.27272675494571
 20
-118.233437741709
 30
0.0
 10
98.27272675494571
 20
-118.233437741709
 30
0.0
 10
98.27272675494571
 20
-118.7011094538317
 30
0.0
 10
98.27272675494571
 20
-118.7011094538317
 30
0.0
 10
98.27272675494571
 20
-118.8278889676889
 30
0.0
 10
98.24137638602994
 20
-118.8871446100352
 30
0.0
 10
97.99332951109194
 20
-118.8787041260963
 30
0.0
 10
97.99332951109194
 20
-118.8787041260963
 30
0.0
 10
97.90237899028135
 20
-118.6714816326585
 30
0.0
 10
97.90237899028135
 20
-118.6714816326585
 30
0.0
 10
97.95784502759388
 20
-118.6840562311797
 30
0.0
 10
98.00056421161098
 20
-118.6883626005363
 30
0.0
 10
98.03570418556052
 20
-118.6883626005363
 30
0.0
 10
98.10253903797437
 20
-118.6883626005363
 30
0.0
 10
98.11184079578454
 20
-118.6651082060108
 30
0.0
 10
98.11184079578454
 20
-118.5994791370168
 30
0.0
 10
98.11184079578454
 20
-118.5994791370168
 30
0.0
 10
98.11184079578454
 20
-118.1700479847804
 30
0.0
 10
98.11184079578454
 20
-118.1700479847804
 30
0.0
 10
98.02640242775036
 20
-118.2101833471836
 30
0.0
 10
98.01158851716377
 20
-118.2165567738313
 30
0.0
 10
97.97093639043783
 20
-118.2356770537744
 30
0.0
 10
97.96714678540405
 20
-118.2566921362344
 30
0.0
 10
97.9637016899188
 20
-118.2863199574076
 30
0.0
 10
97.94682072204108
 20
-118.2863199574076
 30
0.0
 10
97.93958602152205
 20
-118.2863199574076
 30
0.0
 10
97.93028426371188
 20
-118.2821858428253
 30
0.0
 10
97.92477211093548
 20
-118.2589314482999
 30
0.0
 10
97.92477211093548
 20
-118.2589314482999
 30
0.0
 10
97.8782633218846
 20
-118.0663506106744
 30
0.0
 10
97.8782633218846
 20
-118.0663506106744
 30
0.0
 10
98.00607636438737
 20
-118.0198418216235
 30
0.0
 10
98.06360945899105
 20
-117.9965874270981
 30
0.0
 10
98.11184079578454
 20
-117.9754000898638
 30
0.0
 10
98.11184079578454
 20
-117.9754000898638
 30
0.0
 10
98.11184079578454
 20
-117.5628499055051
 30
0.0
 10
98.11184079578454
 20
-117.5628499055051
 30
0.0
 10
98.11184079578454
 20
-117.5628499055051
 30
0.0
 10
98.06533200673367
 20
-117.5628499055051
 30
0.0
 10
98.06533200673367
 20
-117.5628499055051
 30
0.0
 10
98.06533200673367
 20
-117.5628499055051
 30
0.0
 10
97.9967746065772
 20
-117.5628499055051
 30
0.0
 10
97.9967746065772
 20
-117.5628499055051
 30
0.0
 10
97.9375189642309
 20
-117.5628499055051
 30
0.0
 10
97.93028426371188
 20
-117.5628499055051
 30
0.0
 10
97.89858938524758
 20
-117.5692233321528
 30
0.0
 10
97.89858938524758
 20
-117.5692233321528
 30
0.0
 10
97.89858938524758
 20
-117.3745754372362
 30
0.0
 10
97.89858938524758
 20
-117.3745754372362
 30
0.0
 10
97.92270505364432
 20
-117.3809488638839
 30
0.0
 10
97.93028426371188
 20
-117.3809488638839
 30
0.0
 10
97.9912624538008
 20
-117.3809488638839
 30
0.0
 10
97.9912624538008
 20
-117.3809488638839
 30
0.0
 10
98.10805119075077
 20
-117.3809488638839
 30
0.0
 10
98.10805119075077
 20
-117.3809488638839
 30
0.0
 10
98.10805119075077
 20
-117.3111856803076
 30
0.0
 10
98.10805119075077
 20
-117.2286756434359
 30
0.0
 10
98.10598413345961
 20
-117.2243692740793
 30
0.0
 10
98.0987494329406
 20
-117.0445352897493
 30
0.0
 10
98.0987494329406
 20
-117.0255872645804
 30
0.0
 10
98.09702688519798
 20
-116.9790784755295
 30
0.0
 10
98.09702688519798
 20
-116.9790784755295
 30
0.0
 10
98.28581811778966
 20
-116.9875189594684
 30
0.0
 10
98.28581811778966
 20
-116.9875189594684
 30
0.0
 10
98.29511987559984
 20
-116.9875189594684
 30
0.0
 10
98.31337888167165
 20
-116.9895860167596
 30
0.0
 10
98.31337888167165
 20
-117.0064669846373
 30
0.0
 10
98.31337888167165
 20
-117.0255872645804
 30
0.0
 10
98.30063202837624
 20
-117.0360948058104
 30
0.0
 10
98.27823890772211
 20
-117.0552150857536
 30
0.0
 10
98.27823890772211
 20
-117.1058579893867
 30
0.0
 10
98.27272675494571
 20
-117.3344400748331
 30
0.0
 10
98.27479381223687
 20
-117.3809488638839
 30
0.0
 10
98.38779294415306
 20
-117.3809488638839
 30
0.0
 10
98.39881724970586
 20
-117.3809488638839
 30
0.0
 10
98.48391110819152
 20
-117.3725083799451
 30
0.0
 10
98.48391110819152
 20
-117.3725083799451
 30
0.0
 10
98.48391110819152
 20
-117.5671562748617
 30
0.0
 10
98.48391110819152
 20
-117.5671562748617
 30
0.0
 10
98.4504936819846
 20
-117.5649169627963
 30
0.0
 10
98.39123803963831
 20
-117.560782848214
 30
0.0
 10
98.27272675494571
 20
-117.5628499055051
 30
0.0
 10
98.27272675494571
 20
-117.5628499055051
 30
0.0
 10
98.27272675494571
 20
-117.9013305369309
 30
0.0
 10
98.27272675494571
 20
-117.9013305369309
 30
0.0
 10
98.32095809173921
 20
-117.8780761424055
 30
0.0
 10
98.37849118634288
 20
-117.8505153785235
 30
0.0
 10
98.42086586081146
 20
-117.827260983998
 30
0.0
 10
98.42086586081146
 20
-117.827260983998
 30
0.0
 10
98.42086586081146
 20
-117.6496663117334
 30
0.0
 10
98.42086586081146
 20
-117.6496663117334
 30
0.0
 10
98.5207736298837
 20
-117.6622409102546
 30
0.0
 10
98.62481551353825
 20
-117.6622409102546
 30
0.0
 10
98.72644583035311
 20
-117.6622409102546
 30
0.0
 10
98.70611976699014
 20
-117.5671562748617
 30
0.0
 10
98.6820040985934
 20
-117.4846462379899
 30
0.0
 10
98.62653806128087
 20
-117.3513210427108
 30
0.0
 10
98.58760848229754
 20
-117.3533881000019
 30
0.0
 10
98.5152614771073
 20
-117.3576944693585
 30
0.0
 10
98.4821885604489
 20
-117.3597615266496
 30
0.0
 10
98.4821885604489
 20
-117.3597615266496
 30
0.0
 10
98.4821885604489
 20
-117.1799275423196
 30
0.0
 10
98.4821885604489
 20
-117.1799275423196
 30
0.0
 10
98.59139808733133
 20
-117.1883680262585
 30
0.0
 10
98.74332679823084
 20
-117.192674395615
 30
0.0
 10
98.81532929387257
 20
-117.192674395615
 30
0.0
 10
98.81532929387257
 20
-117.192674395615
 30
0.0
 10
98.8876762990628
 20
-117.192674395615
 30
0.0
 10
98.8876762990628
 20
-117.192674395615
 30
0.0
 10
98.8876762990628
 20
-117.0297213791627
 30
0.0
 10
98.8876762990628
 20
-117.0192138379327
 30
0.0
 10
98.88560924177166
 20
-116.964264564943
 30
0.0
 10
98.88560924177166
 20
-116.964264564943
 30
0.0
 10
99.0819796844309
 20
-116.9895860167596
 30
0.0
 10
99.0819796844309
 20
-116.9895860167596
 30
0.0
 10
99.08576928946468
 20
-116.9895860167596
 30
0.0
 10
99.10437280508502
 20
-116.9916530740507
 30
0.0
 10
99.10437280508502
 20
-117.0085340419284
 30
0.0
 10
99.10437280508502
 20
-117.023347952515
 30
0.0
 10
99.09507104727484
 20
-117.0319606912281
 30
0.0
 10
99.0709553788781
 20
-117.0467746018147
 30
0.0
 10
99.06544322610169
 20
-117.1122314160344
 30
0.0
 10
99.06337616881055
 20
-117.1334187532687
 30
0.0
 10
99.06337616881055
 20
-117.192674395615
 30
0.0
 10
99.06337616881055
 20
-117.192674395615
 30
0.0
 10
99.1467474795536
 20
-117.192674395615
 30
0.0
 10
99.1467474795536
 20
-117.192674395615
 30
0.0
 10
99.21909448474385
 20
-117.192674395615
 30
0.0
 10
99.37102319564336
 20
-117.1883680262585
 30
0.0
 10
99.48023272252578
 20
-117.1799275423196
 30
0.0
 10
99.48023272252578
 20
-117.1799275423196
 30
0.0
 10
99.48023272252578
 20
-117.3597615266496
 30
0.0
 10
99.48023272252578
 20
-117.3597615266496
 30
0.0
 10
99.45439450638641
 20
-117.3576944693585
 30
0.0
 10
99.35035262273186
 20
-117.3533881000019
 30
0.0
 10
99.3152126487823
 20
-117.3513210427108
 30
0.0
 10
99.30246579548688
 20
-117.4021362011182
 30
0.0
 10
99.27283797431375
 20
-117.5142740591631
 30
0.0
 10
99.21530487971006
 20
-117.6538004263157
 30
0.0
 10
99.25251191095076
 20
-117.6538004263157
 30
0.0
 10
99.49504663311235
 20
-117.6348524011468
 30
0.0
 10
99.54879012268225
 20
-117.6326130890814
 30
0.0
 10
99.54879012268225
 20
-117.6326130890814
 30
0.0
 10
99.54879012268225
 20
-117.816753442768
 30
0.0
 10
99.54879012268225
 20
-117.816753442768
 30
0.0
 10
99.52260739699435
 20
-117.816753442768
 30
0.0
 10
99.50779348640778
 20
-117.8124470734115
 30
0.0
 10
99.36551104286696
 20
-117.8124470734115
 30
0.0
  0
SPLINE
  5
13A
330
135
100
AcDbEntity
  8
_U+30EC_U+30A4_U+30E4_U+30FC 1
370
     0
100
AcDbSpline
210
0.0
220
0.0
230
1.0
 70
    11
 71
     3
 72
    20
 73
    16
 74
     0
 42
0.0000000001
 43
0.0000000001
 12
1.0
 22
0.0
 32
0.0
 13
1.0
 23
0.0
 33
0.0
 40
0.0
 40
0.0
 40
0.0
 40
0.0
 40
1.0
 40
1.0
 40
1.0
 40
2.0
 40
2.0
 40
2.0
 40
3.0
 40
3.0
 40
3.0
 40
4.0
 40
4.0
 40
4.0
 40
5.0
 40
5.0
 40
5.0
 40
5.0
 10
98.81532929387257
 20
-117.3471869281285
 30
0.0
 10
98.81532929387257
 20
-117.3471869281285
 30
0.0
 10
98.78742402044203
 20
-117.3471869281285
 30
0.0
 10
98.78742402044203
 20
-117.3471869281285
 30
0.0
 10
98.82842065671652
 20
-117.4465779328779
 30
0.0
 10
98.85598142059851
 20
-117.5268486576843
 30
0.0
 10
98.88560924177166
 20
-117.6538004263157
 30
0.0
 10
98.88560924177166
 20
-117.6538004263157
 30
0.0
 10
99.06716577384432
 20
-117.6538004263157
 30
0.0
 10
99.06716577384432
 20
-117.6538004263157
 30
0.0
 10
99.09507104727484
 20
-117.560782848214
 30
0.0
 10
99.11539711063782
 20
-117.4762057540511
 30
0.0
 10
99.1357231740008
 20
-117.3471869281285
 30
0.0
 10
99.1357231740008
 20
-117.3471869281285
 30
0.0
 10
98.81532929387257
 20
-117.3471869281285
 30
0.0
 10
98.81532929387257
 20
-117.3471869281285
 30
0.0
  0
SPLINE
  5
13B
330
135
100
AcDbEntity
  8
_U+30EC_U+30A4_U+30E4_U+30FC 1
370
     0
100
AcDbSpline
210
0.0
220
0.0
230
1.0
 70
    11
 71
     3
 72
    17
 73
    13
 74
     0
 42
0.0000000001
 43
0.0000000001
 12
1.0
 22
0.0
 32
0.0
 13
1.0
 23
0.0
 33
0.0
 40
0.0
 40
0.0
 40
0.0
 40
0.0
 40
1.0
 40
1.0
 40
1.0
 40
2.0
 40
2.0
 40
2.0
 40
3.0
 40
3.0
 40
3.0
 40
4.0
 40
4.0
 40
4.0
 40
4.0
 10
98.87079533118508
 20
-118.1976087486624
 30
0.0
 10
98.85598142059851
 20
-118.2270643150613
 30
0.0
 10
98.81153968883879
 20
-118.3202541479373
 30
0.0
 10
98.80258244057714
 20
-118.3392021731062
 30
0.0
 10
98.96898055251471
 20
-118.3984578154525
 30
0.0
 10
98.98758406813505
 20
-118.4048312421002
 30
0.0
 10
99.05062931551512
 20
-118.4323920059822
 30
0.0
 10
99.09886065230862
 20
-118.3455755997539
 30
0.0
 10
99.1191867156716
 20
-118.271506046821
 30
0.0
 10
99.13193356896703
 20
-118.1976087486624
 30
0.0
 10
99.13193356896703
 20
-118.1976087486624
 30
0.0
 10
98.87079533118508
 20
-118.1976087486624
 30
0.0
 10
98.87079533118508
 20
-118.1976087486624
 30
0.0
  0
HATCH
  5
13C
330
135
100
AcDbEntity
  8
_U+30EC_U+30A4_U+30E4_U+30FC 1
 62
   179
420
  2234388
100
AcDbHatch
 10
0.0
 20
0.0
 30
0.0
210
0.0
220
0.0
230
1.0
  2
SOLID
 70
     1
 71
     0
 91
        3
 92
        1
 93
        1
 72
     4
 94
        3
 73
     0
 74
     1
 95
      242
 96
      238
 40
0.0
 40
0.0
 40
0.0
 40
0.0
 40
1.0
 40
1.0
 40
1.0
 40
2.0
 40
2.0
 40
2.0
 40
3.0
 40
3.0
 40
3.0
 40
4.0
 40
4.0
 40
4.0
 40
5.0
 40
5.0
 40
5.0
 40
6.0
 40
6.0
 40
6.0
 40
7.0
 40
7.0
 40
7.0
 40
8.0
 40
8.0
 40
8.0
 40
9.0
 40
9.0
 40
9.0
 40
10.0
 40
10.0
 40
10.0
 40
11.0
 40
11.0
 40
11.0
 40
12.0
 40
12.0
 40
12.0
 40
13.0
 40
13.0
 40
13.0
 40
14.0
 40
14.0
 40
14.0
 40
15.0
 40
15.0
 40
15.0
 40
16.0
 40
16.0
 40
16.0
 40
17.0
 40
17.0
 40
17.0
 40
18.0
 40
18.0
 40
18.0
 40
19.0
 40
19.0
 40
19.0
 40
20.0
 40
20.0
 40
20.0
 40
21.0
 40
21.0
 40
21.0
 40
22.0
 40
22.0
 40
22.0
 40
23.0
 40
23.0
 40
23.0
 40
24.0
 40
24.0
 40
24.0
 40
25.0
 40
25.0
 40
25.0
 40
26.0
 40
26.0
 40
26.0
 40
27.0
 40
27.0
 40
27.0
 40
28.0
 40
28.0
 40
28.0
 40
29.0
 40
29.0
 40
29.0
 40
30.0
 40
30.0
 40
30.0
 40
31.0
 40
31.0
 40
31.0
 40
32.0
 40
32.0
 40
32.0
 40
33.0
 40
33.0
 40
33.0
 40
34.0
 40
34.0
 40
34.0
 40
35.0
 40
35.0
 40
35.0
 40
36.0
 40
36.0
 40
36.0
 40
37.0
 40
37.0
 40
37.0
 40
38.0
 40
38.0
 40
38.0
 40
39.0
 40
39.0
 40
39.0
 40
40.0
 40
40.0
 40
40.0
 40
41.0
 40
41.0
 40
41.0
 40
42.0
 40
42.0
 40
42.0
 40
43.0
 40
43.0
 40
43.0
 40
44.0
 40
44.0
 40
44.0
 40
45.0
 40
45.0
 40
45.0
 40
46.0
 40
46.0
 40
46.0
 40
47.0
 40
47.0
 40
47.0
 40
48.0
 40
48.0
 40
48.0
 40
49.0
 40
49.0
 40
49.0
 40
50.0
 40
50.0
 40
50.0
 40
51.0
 40
51.0
 40
51.0
 40
52.0
 40
52.0
 40
52.0
 40
53.0
 40
53.0
 40
53.0
 40
54.0
 40
54.0
 40
54.0
 40
55.0
 40
55.0
 40
55.0
 40
56.0
 40
56.0
 40
56.0
 40
57.0
 40
57.0
 40
57.0
 40
58.0
 40
58.0
 40
58.0
 40
59.0
 40
59.0
 40
59.0
 40
60.0
 40
60.0
 40
60.0
 40
61.0
 40
61.0
 40
61.0
 40
62.0
 40
62.0
 40
62.0
 40
63.0
 40
63.0
 40
63.0
 40
64.0
 40
64.0
 40
64.0
 40
65.0
 40
65.0
 40
65.0
 40
66.0
 40
66.0
 40
66.0
 40
67.0
 40
67.0
 40
67.0
 40
68.0
 40
68.0
 40
68.0
 40
69.0
 40
69.0
 40
69.0
 40
70.0
 40
70.0
 40
70.0
 40
71.0
 40
71.0
 40
71.0
 40
72.0
 40
72.0
 40
72.0
 40
73.0
 40
73.0
 40
73.0
 40
74.0
 40
74.0
 40
74.0
 40
75.0
 40
75.0
 40
75.0
 40
76.0
 40
76.0
 40
76.0
 40
77.0
 40
77.0
 40
77.0
 40
78.0
 40
78.0
 40
78.0
 40
79.0
 40
79.0
 40
79.0
 40
79.0
 10
99.36551104286696
 20
-117.8124470734115
 10
99.36551104286696
 20
-117.8124470734115
 10
99.14295787451982
 20
-117.8124470734115
 10
99.14295787451982
 20
-117.8124470734115
 10
99.14295787451982
 20
-117.8124470734115
 10
98.90042315235823
 20
-117.8124470734115
 10
98.90042315235823
 20
-117.8124470734115
 10
98.90042315235823
 20
-117.8124470734115
 10
99.0116997365318
 20
-117.8548217478801
 10
99.0116997365318
 20
-117.8548217478801
 10
99.02100149434197
 20
-117.8591281172366
 10
99.03202579989478
 20
-117.8653292891101
 10
99.03202579989478
 20
-117.8780761424055
 10
99.03202579989478
 20
-117.8992634796398
 10
99.00412052646425
 20
-117.9056369062875
 10
98.98586152039243
 20
-117.9097710208698
 10
98.97655976258226
 20
-117.9330254153952
 10
98.95072154644288
 20
-117.9986544843892
 10
98.93384057856515
 20
-118.043096216149
 10
98.93384057856515
 20
-118.043096216149
 10
99.17086314795034
 20
-118.043096216149
 10
99.17086314795034
 20
-118.043096216149
 10
99.25044485365962
 20
-118.043096216149
 10
99.42269962792211
 20
-118.0387898467924
 10
99.5467230653911
 20
-118.0303493628535
 10
99.5467230653911
 20
-118.0303493628535
 10
99.5467230653911
 20
-118.2081162898924
 10
99.5467230653911
 20
-118.2081162898924
 10
99.47472056974938
 20
-118.2038099205359
 10
99.45611705412902
 20
-118.2038099205359
 10
99.29867619045311
 20
-118.1996758059536
 10
99.27077091702259
 20
-118.3540160836928
 10
99.23184133803926
 20
-118.4344590632733
 10
99.19325626860447
 20
-118.5042222468497
 10
99.29867619045311
 20
-118.5634778891959
 10
99.39134925900633
 20
-118.6311740154811
 10
99.4819552702684
 20
-118.7136840523528
 10
99.4819552702684
 20
-118.7136840523528
 10
99.37825789616238
 20
-118.8807711833875
 10
99.37825789616238
 20
-118.8807711833875
 10
99.35793183279941
 20
-118.8618231582186
 10
99.34690752724661
 20
-118.8533826742797
 10
99.24872230591698
 20
-118.7686333253426
 10
99.2060031218999
 20
-118.7305650202306
 10
99.15432668962114
 20
-118.694736027184
 10
99.08370223217352
 20
-118.6502942954242
 10
98.89870060461561
 20
-118.836501706402
 10
98.7192111298341
 20
-118.8597561009274
 10
98.46530759257118
 20
-118.8893839221006
 10
98.46530759257118
 20
-118.8893839221006
 10
98.37470158130911
 20
-118.7095499377705
 10
98.37470158130911
 20
-118.7095499377705
 10
98.65237627742025
 20
-118.705243568414
 10
98.80602753606239
 20
-118.6799221165974
 10
98.93935273134156
 20
-118.5698513158436
 10
98.83565535723554
 20
-118.5190361574362
 10
98.7577961992689
 20
-118.4916476483285
 10
98.72644583035311
 20
-118.4789007950331
 10
98.70990937202392
 20
-118.5064615589151
 10
98.69681800917996
 20
-118.5254095840839
 10
98.67270234078322
 20
-118.5593437746136
 10
98.67270234078322
 20
-118.5593437746136
 10
98.50044756652072
 20
-118.4768337377419
 10
98.50044756652072
 20
-118.4768337377419
 10
98.57279457171097
 20
-118.3963907581613
 10
98.62653806128087
 20
-118.3011338679942
 10
98.67649194581699
 20
-118.1996758059536
 10
98.5097493243309
 20
-118.2038099205359
 10
98.49114580871056
 20
-118.2038099205359
 10
98.41914331306883
 20
-118.2081162898924
 10
98.41914331306883
 20
-118.2081162898924
 10
98.41914331306883
 20
-118.0303493628535
 10
98.41914331306883
 20
-118.0303493628535
 10
98.5414442027952
 20
-118.0367227895012
 10
98.72472328261048
 20
-118.0410291588578
 10
98.74677189371609
 20
-118.0410291588578
 10
98.76158580430267
 20
-118.0070949683281
 10
98.80981714109616
 20
-117.8865166263443
 10
98.82635359942536
 20
-117.8124470734115
 10
98.80981714109616
 20
-117.8124470734115
 10
98.65444333471139
 20
-117.8188205000592
 10
98.48391110819152
 20
-117.8315673533546
 10
98.48391110819152
 20
-117.8315673533546
 10
98.48391110819152
 20
-117.9648925486338
 10
98.48391110819152
 20
-117.9648925486338
 10
98.44119192417443
 20
-117.9902140004504
 10
98.38951549189568
 20
-118.0219088789147
 10
98.27272675494571
 20
-118.0875379479087
 10
98.27272675494571
 20
-118.0875379479087
 10
98.27272675494571
 20
-118.233437741709
 10
98.27272675494571
 20
-118.233437741709
 10
98.27272675494571
 20
-118.233437741709
 10
98.27272675494571
 20
-118.7011094538317
 10
98.27272675494571
 20
-118.7011094538317
 10
98.27272675494571
 20
-118.8278889676889
 10
98.24137638602994
 20
-118.8871446100352
 10
97.99332951109194
 20
-118.8787041260963
 10
97.99332951109194
 20
-118.8787041260963
 10
97.90237899028135
 20
-118.6714816326585
 10
97.90237899028135
 20
-118.6714816326585
 10
97.95784502759388
 20
-118.6840562311797
 10
98.00056421161098
 20
-118.6883626005363
 10
98.03570418556052
 20
-118.6883626005363
 10
98.10253903797437
 20
-118.6883626005363
 10
98.11184079578454
 20
-118.6651082060108
 10
98.11184079578454
 20
-118.5994791370168
 10
98.11184079578454
 20
-118.5994791370168
 10
98.11184079578454
 20
-118.1700479847804
 10
98.11184079578454
 20
-118.1700479847804
 10
98.02640242775036
 20
-118.2101833471836
 10
98.01158851716377
 20
-118.2165567738313
 10
97.97093639043783
 20
-118.2356770537744
 10
97.96714678540405
 20
-118.2566921362344
 10
97.9637016899188
 20
-118.2863199574076
 10
97.94682072204108
 20
-118.2863199574076
 10
97.93958602152205
 20
-118.2863199574076
 10
97.93028426371188
 20
-118.2821858428253
 10
97.92477211093548
 20
-118.2589314482999
 10
97.92477211093548
 20
-118.2589314482999
 10
97.8782633218846
 20
-118.0663506106744
 10
97.8782633218846
 20
-118.0663506106744
 10
98.00607636438737
 20
-118.0198418216235
 10
98.06360945899105
 20
-117.9965874270981
 10
98.11184079578454
 20
-117.9754000898638
 10
98.11184079578454
 20
-117.9754000898638
 10
98.11184079578454
 20
-117.5628499055051
 10
98.11184079578454
 20
-117.5628499055051
 10
98.11184079578454
 20
-117.5628499055051
 10
98.06533200673367
 20
-117.5628499055051
 10
98.06533200673367
 20
-117.5628499055051
 10
98.06533200673367
 20
-117.5628499055051
 10
97.9967746065772
 20
-117.5628499055051
 10
97.9967746065772
 20
-117.5628499055051
 10
97.9375189642309
 20
-117.5628499055051
 10
97.93028426371188
 20
-117.5628499055051
 10
97.89858938524758
 20
-117.5692233321528
 10
97.89858938524758
 20
-117.5692233321528
 10
97.89858938524758
 20
-117.3745754372362
 10
97.89858938524758
 20
-117.3745754372362
 10
97.92270505364432
 20
-117.3809488638839
 10
97.93028426371188
 20
-117.3809488638839
 10
97.9912624538008
 20
-117.3809488638839
 10
97.9912624538008
 20
-117.3809488638839
 10
98.10805119075077
 20
-117.3809488638839
 10
98.10805119075077
 20
-117.3809488638839
 10
98.10805119075077
 20
-117.3111856803076
 10
98.10805119075077
 20
-117.2286756434359
 10
98.10598413345961
 20
-117.2243692740793
 10
98.0987494329406
 20
-117.0445352897493
 10
98.0987494329406
 20
-117.0255872645804
 10
98.09702688519798
 20
-116.9790784755295
 10
98.09702688519798
 20
-116.9790784755295
 10
98.28581811778966
 20
-116.9875189594684
 10
98.28581811778966
 20
-116.9875189594684
 10
98.29511987559984
 20
-116.9875189594684
 10
98.31337888167165
 20
-116.9895860167596
 10
98.31337888167165
 20
-117.0064669846373
 10
98.31337888167165
 20
-117.0255872645804
 10
98.30063202837624
 20
-117.0360948058104
 10
98.27823890772211
 20
-117.0552150857536
 10
98.27823890772211
 20
-117.1058579893867
 10
98.27272675494571
 20
-117.3344400748331
 10
98.27479381223687
 20
-117.3809488638839
 10
98.38779294415306
 20
-117.3809488638839
 10
98.39881724970586
 20
-117.3809488638839
 10
98.48391110819152
 20
-117.3725083799451
 10
98.48391110819152
 20
-117.3725083799451
 10
98.48391110819152
 20
-117.5671562748617
 10
98.48391110819152
 20
-117.5671562748617
 10
98.4504936819846
 20
-117.5649169627963
 10
98.39123803963831
 20
-117.560782848214
 10
98.27272675494571
 20
-117.5628499055051
 10
98.27272675494571
 20
-117.5628499055051
 10
98.27272675494571
 20
-117.9013305369309
 10
98.27272675494571
 20
-117.9013305369309
 10
98.32095809173921
 20
-117.8780761424055
 10
98.37849118634288
 20
-117.8505153785235
 10
98.42086586081146
 20
-117.827260983998
 10
98.42086586081146
 20
-117.827260983998
 10
98.42086586081146
 20
-117.6496663117334
 10
98.42086586081146
 20
-117.6496663117334
 10
98.5207736298837
 20
-117.6622409102546
 10
98.62481551353825
 20
-117.6622409102546
 10
98.72644583035311
 20
-117.6622409102546
 10
98.70611976699014
 20
-117.5671562748617
 10
98.6820040985934
 20
-117.4846462379899
 10
98.62653806128087
 20
-117.3513210427108
 10
98.58760848229754
 20
-117.3533881000019
 10
98.5152614771073
 20
-117.3576944693585
 10
98.4821885604489
 20
-117.3597615266496
 10
98.4821885604489
 20
-117.3597615266496
 10
98.4821885604489
 20
-117.1799275423196
 10
98.4821885604489
 20
-117.1799275423196
 10
98.59139808733133
 20
-117.1883680262585
 10
98.74332679823084
 20
-117.192674395615
 10
98.81532929387257
 20
-117.192674395615
 10
98.81532929387257
 20
-117.192674395615
 10
98.8876762990628
 20
-117.192674395615
 10
98.8876762990628
 20
-117.192674395615
 10
98.8876762990628
 20
-117.0297213791627
 10
98.8876762990628
 20
-117.0192138379327
 10
98.88560924177166
 20
-116.964264564943
 10
98.88560924177166
 20
-116.964264564943
 10
99.0819796844309
 20
-116.9895860167596
 10
99.0819796844309
 20
-116.9895860167596
 10
99.08576928946468
 20
-116.9895860167596
 10
99.10437280508502
 20
-116.9916530740507
 10
99.10437280508502
 20
-117.0085340419284
 10
99.10437280508502
 20
-117.023347952515
 10
99.09507104727484
 20
-117.0319606912281
 10
99.0709553788781
 20
-117.0467746018147
 10
99.06544322610169
 20
-117.1122314160344
 10
99.06337616881055
 20
-117.1334187532687
 10
99.06337616881055
 20
-117.192674395615
 10
99.06337616881055
 20
-117.192674395615
 10
99.1467474795536
 20
-117.192674395615
 10
99.1467474795536
 20
-117.192674395615
 10
99.21909448474385
 20
-117.192674395615
 10
99.37102319564336
 20
-117.1883680262585
 10
99.48023272252578
 20
-117.1799275423196
 10
99.48023272252578
 20
-117.1799275423196
 10
99.48023272252578
 20
-117.3597615266496
 10
99.48023272252578
 20
-117.3597615266496
 10
99.45439450638641
 20
-117.3576944693585
 10
99.35035262273186
 20
-117.3533881000019
 10
99.3152126487823
 20
-117.3513210427108
 10
99.30246579548688
 20
-117.4021362011182
 10
99.27283797431375
 20
-117.5142740591631
 10
99.21530487971006
 20
-117.6538004263157
 10
99.25251191095076
 20
-117.6538004263157
 10
99.49504663311235
 20
-117.6348524011468
 10
99.54879012268225
 20
-117.6326130890814
 10
99.54879012268225
 20
-117.6326130890814
 10
99.54879012268225
 20
-117.816753442768
 10
99.54879012268225
 20
-117.816753442768
 10
99.52260739699435
 20
-117.816753442768
 10
99.50779348640778
 20
-117.8124470734115
 10
99.36551104286696
 20
-117.8124470734115
 97
        0
 97
        0
 92
        1
 93
        1
 72
     4
 94
        3
 73
     0
 74
     1
 95
       20
 96
       16
 40
0.0
 40
0.0
 40
0.0
 40
0.0
 40
1.0
 40
1.0
 40
1.0
 40
2.0
 40
2.0
 40
2.0
 40
3.0
 40
3.0
 40
3.0
 40
4.0
 40
4.0
 40
4.0
 40
5.0
 40
5.0
 40
5.0
 40
5.0
 10
98.81532929387257
 20
-117.3471869281285
 10
98.81532929387257
 20
-117.3471869281285
 10
98.78742402044203
 20
-117.3471869281285
 10
98.78742402044203
 20
-117.3471869281285
 10
98.82842065671652
 20
-117.4465779328779
 10
98.85598142059851
 20
-117.5268486576843
 10
98.88560924177166
 20
-117.6538004263157
 10
98.88560924177166
 20
-117.6538004263157
 10
99.06716577384432
 20
-117.6538004263157
 10
99.06716577384432
 20
-117.6538004263157
 10
99.09507104727484
 20
-117.560782848214
 10
99.11539711063782
 20
-117.4762057540511
 10
99.1357231740008
 20
-117.3471869281285
 10
99.1357231740008
 20
-117.3471869281285
 10
98.81532929387257
 20
-117.3471869281285
 10
98.81532929387257
 20
-117.3471869281285
 97
        0
 97
        0
 92
        1
 93
        1
 72
     4
 94
        3
 73
     0
 74
     1
 95
       17
 96
       13
 40
0.0
 40
0.0
 40
0.0
 40
0.0
 40
1.0
 40
1.0
 40
1.0
 40
2.0
 40
2.0
 40
2.0
 40
3.0
 40
3.0
 40
3.0
 40
4.0
 40
4.0
 40
4.0
 40
4.0
 10
98.87079533118508
 20
-118.1976087486624
 10
98.85598142059851
 20
-118.2270643150613
 10
98.81153968883879
 20
-118.3202541479373
 10
98.80258244057714
 20
-118.3392021731062
 10
98.96898055251471
 20
-118.3984578154525
 10
98.98758406813505
 20
-118.4048312421002
 10
99.05062931551512
 20
-118.4323920059822
 10
99.09886065230862
 20
-118.3455755997539
 10
99.1191867156716
 20
-118.271506046821
 10
99.13193356896703
 20
-118.1976087486624
 10
99.13193356896703
 20
-118.1976087486624
 10
98.87079533118508
 20
-118.1976087486624
 10
98.87079533118508
 20
-118.1976087486624
 97
        0
 97
        0
 75
     2
 76
     1
 98
        0
  0
SPLINE
  5
13D
330
135
100
AcDbEntity
  8
_U+30EC_U+30A4_U+30E4_U+30FC 1
370
     0
100
AcDbSpline
210
0.0
220
0.0
230
1.0
 70
    11
 71
     3
 72
   203
 73
   199
 74
     0
 42
0.0000000001
 43
0.0000000001
 12
1.0
 22
0.0
 32
0.0
 13
1.0
 23
0.0
 33
0.0
 40
0.0
 40
0.0
 40
0.0
 40
0.0
 40
1.0
 40
1.0
 40
1.0
 40
2.0
 40
2.0
 40
2.0
 40
3.0
 40
3.0
 40
3.0
 40
4.0
 40
4.0
 40
4.0
 40
5.0
 40
5.0
 40
5.0
 40
6.0
 40
6.0
 40
6.0
 40
7.0
 40
7.0
 40
7.0
 40
8.0
 40
8.0
 40
8.0
 40
9.0
 40
9.0
 40
9.0
 40
10.0
 40
10.0
 40
10.0
 40
11.0
 40
11.0
 40
11.0
 40
12.0
 40
12.0
 40
12.0
 40
13.0
 40
13.0
 40
13.0
 40
14.0
 40
14.0
 40
14.0
 40
15.0
 40
15.0
 40
15.0
 40
16.0
 40
16.0
 40
16.0
 40
17.0
 40
17.0
 40
17.0
 40
18.0
 40
18.0
 40
18.0
 40
19.0
 40
19.0
 40
19.0
 40
20.0
 40
20.0
 40
20.0
 40
21.0
 40
21.0
 40
21.0
 40
22.0
 40
22.0
 40
22.0
 40
23.0
 40
23.0
 40
23.0
 40
24.0
 40
24.0
 40
24.0
 40
25.0
 40
25.0
 40
25.0
 40
26.0
 40
26.0
 40
26.0
 40
27.0
 40
27.0
 40
27.0
 40
28.0
 40
28.0
 40
28.0
 40
29.0
 40
29.0
 40
29.0
 40
30.0
 40
30.0
 40
30.0
 40
31.0
 40
31.0
 40
31.0
 40
32.0
 40
32.0
 40
32.0
 40
33.0
 40
33.0
 40
33.0
 40
34.0
 40
34.0
 40
34.0
 40
35.0
 40
35.0
 40
35.0
 40
36.0
 40
36.0
 40
36.0
 40
37.0
 40
37.0
 40
37.0
 40
38.0
 40
38.0
 40
38.0
 40
39.0
 40
39.0
 40
39.0
 40
40.0
 40
40.0
 40
40.0
 40
41.0
 40
41.0
 40
41.0
 40
42.0
 40
42.0
 40
42.0
 40
43.0
 40
43.0
 40
43.0
 40
44.0
 40
44.0
 40
44.0
 40
45.0
 40
45.0
 40
45.0
 40
46.0
 40
46.0
 40
46.0
 40
47.0
 40
47.0
 40
47.0
 40
48.0
 40
48.0
 40
48.0
 40
49.0
 40
49.0
 40
49.0
 40
50.0
 40
50.0
 40
50.0
 40
51.0
 40
51.0
 40
51.0
 40
52.0
 40
52.0
 40
52.0
 40
53.0
 40
53.0
 40
53.0
 40
54.0
 40
54.0
 40
54.0
 40
55.0
 40
55.0
 40
55.0
 40
56.0
 40
56.0
 40
56.0
 40
57.0
 40
57.0
 40
57.0
 40
58.0
 40
58.0
 40
58.0
 40
59.0
 40
59.0
 40
59.0
 40
60.0
 40
60.0
 40
60.0
 40
61.0
 40
61.0
 40
61.0
 40
62.0
 40
62.0
 40
62.0
 40
63.0
 40
63.0
 40
63.0
 40
64.0
 40
64.0
 40
64.0
 40
65.0
 40
65.0
 40
65.0
 40
66.0
 40
66.0
 40
66.0
 40
66.0
 10
100.8472466110729
 20
-117.8801431996966
 30
0.0
 10
100.8472466110729
 20
-117.8801431996966
 30
0.0
 10
100.358387561716
 20
-117.8801431996966
 30
0.0
 10
100.358387561716
 20
-117.8801431996966
 30
0.0
 10
100.3490858039058
 20
-117.9245849314564
 30
0.0
 10
100.3418511033868
 20
-117.9562798099207
 30
0.0
 10
100.330826797834
 20
-117.9945203698069
 30
0.0
 10
100.3528754089396
 20
-117.9945203698069
 30
0.0
 10
100.3659667717835
 20
-117.9965874270981
 30
0.0
 10
100.3714789245599
 20
-117.9965874270981
 30
0.0
 10
100.3714789245599
 20
-117.9965874270981
 30
0.0
 10
100.5361544887549
 20
-117.9965874270981
 30
0.0
 10
100.5361544887549
 20
-117.9965874270981
 30
0.0
 10
100.5361544887549
 20
-117.9965874270981
 30
0.0
 10
100.8641275789506
 20
-117.9965874270981
 30
0.0
 10
100.8641275789506
 20
-117.9965874270981
 30
0.0
 10
100.9082248011618
 20
-117.9965874270981
 30
0.0
 10
101.1566161856483
 20
-117.9838405738027
 30
0.0
 10
101.1841769495304
 20
-117.9838405738027
 30
0.0
 10
101.1824544017877
 20
-118.0114013376847
 30
0.0
 10
101.1807318540451
 20
-118.0303493628535
 30
0.0
 10
101.1807318540451
 20
-118.0599771840267
 30
0.0
 10
101.1786647967539
 20
-118.091672062491
 30
0.0
 10
101.1786647967539
 20
-118.2270643150613
 30
0.0
 10
101.1786647967539
 20
-118.2546250789433
 30
0.0
 10
101.1786647967539
 20
-118.2546250789433
 30
0.0
 10
101.1786647967539
 20
-118.5000881322674
 30
0.0
 10
101.1786647967539
 20
-118.5000881322674
 30
0.0
 10
101.1786647967539
 20
-118.5445298640271
 30
0.0
 10
101.1824544017877
 20
-118.7412448162348
 30
0.0
 10
101.1862440068215
 20
-118.8935180366829
 30
0.0
 10
101.1862440068215
 20
-118.8935180366829
 30
0.0
 10
100.9881510164196
 20
-118.8935180366829
 30
0.0
 10
100.9881510164196
 20
-118.8935180366829
 30
0.0
 10
100.9881510164196
 20
-118.8935180366829
 30
0.0
 10
100.9898735641623
 20
-118.8597561009274
 30
0.0
 10
100.9898735641623
 20
-118.8597561009274
 30
0.0
 10
100.9898735641623
 20
-118.8597561009274
 30
0.0
 10
100.3749240200452
 20
-118.8597561009274
 30
0.0
 10
100.3749240200452
 20
-118.8597561009274
 30
0.0
 10
100.3749240200452
 20
-118.8597561009274
 30
0.0
 10
100.3769910773363
 20
-118.8935180366829
 30
0.0
 10
100.3769910773363
 20
-118.8935180366829
 30
0.0
 10
100.3769910773363
 20
-118.8935180366829
 30
0.0
 10
100.1861327874535
 20
-118.8935180366829
 30
0.0
 10
100.1861327874535
 20
-118.8935180366829
 30
0.0
 10
100.1899223924872
 20
-118.8385687636931
 30
0.0
 10
100.1899223924872
 20
-118.8258219103977
 30
0.0
 10
100.1954345452637
 20
-118.7116169950617
 30
0.0
 10
100.1971570930063
 20
-118.6840562311797
 30
0.0
 10
100.1992241502974
 20
-118.5509032906748
 30
0.0
 10
100.1992241502974
 20
-118.5317830107316
 30
0.0
 10
100.1992241502974
 20
-118.5317830107316
 30
0.0
 10
100.1992241502974
 20
-118.3286946318762
 30
0.0
 10
100.1992241502974
 20
-118.3286946318762
 30
0.0
 10
100.076923260571
 20
-118.5782917997825
 30
0.0
 10
99.92878415470531
 20
-118.7095499377705
 30
0.0
 10
99.83611108615209
 20
-118.7750067519903
 30
0.0
 10
99.83611108615209
 20
-118.7750067519903
 30
0.0
 10
99.6845268848011
 20
-118.6354803848377
 30
0.0
 10
99.6845268848011
 20
-118.6354803848377
 30
0.0
 10
99.76204153321922
 20
-118.5846652264302
 30
0.0
 10
99.88813202797937
 20
-118.4978488202019
 30
0.0
 10
100.0083658604146
 20
-118.3033731800596
 30
0.0
 10
100.0879475661238
 20
-118.1764214114281
 30
0.0
 10
100.1454806607275
 20
-118.0325886749189
 30
0.0
 10
100.1751084819007
 20
-117.8801431996966
 30
0.0
 10
99.97529294375619
 20
-117.882382511762
 30
0.0
 10
99.81785208008026
 20
-117.8887559384098
 30
0.0
 10
99.73448076933722
 20
-117.8908229957009
 30
0.0
 10
99.73448076933722
 20
-117.8908229957009
 30
0.0
 10
99.73448076933722
 20
-117.713056068662
 30
0.0
 10
99.73448076933722
 20
-117.713056068662
 30
0.0
 10
99.90673554359971
 20
-117.7194294953097
 30
0.0
 10
100.1547824185377
 20
-117.7237358646663
 30
0.0
 10
100.2860405565257
 20
-117.7237358646663
 30
0.0
 10
100.2860405565257
 20
-117.7237358646663
 30
0.0
 10
100.4731092413748
 20
-117.7237358646663
 30
0.0
 10
100.4731092413748
 20
-117.7237358646663
 30
0.0
 10
100.4731092413748
 20
-117.7237358646663
 30
0.0
 10
100.4731092413748
 20
-117.6157321212037
 30
0.0
 10
100.4731092413748
 20
-117.6157321212037
 30
0.0
 10
100.4731092413748
 20
-117.6157321212037
 30
0.0
 10
100.345296198872
 20
-117.6157321212037
 30
0.0
 10
100.345296198872
 20
-117.6157321212037
 30
0.0
 10
100.1971570930063
 20
-117.6157321212037
 30
0.0
 10
100.0490179871405
 20
-117.6200384905603
 30
0.0
 10
99.90294593856594
 20
-117.626411917208
 30
0.0
 10
99.90294593856594
 20
-117.626411917208
 30
0.0
 10
99.90294593856594
 20
-117.4550184168168
 30
0.0
 10
99.90294593856594
 20
-117.4550184168168
 30
0.0
 10
100.0379936815877
 20
-117.4655259580468
 30
0.0
 10
100.20094669804
 20
-117.4655259580468
 30
0.0
 10
100.345296198872
 20
-117.4655259580468
 30
0.0
 10
100.345296198872
 20
-117.4655259580468
 30
0.0
 10
100.4731092413748
 20
-117.4655259580468
 30
0.0
 10
100.4731092413748
 20
-117.4655259580468
 30
0.0
 10
100.4731092413748
 20
-117.4655259580468
 30
0.0
 10
100.4731092413748
 20
-117.3471869281285
 30
0.0
 10
100.4731092413748
 20
-117.3471869281285
 30
0.0
 10
100.4731092413748
 20
-117.3471869281285
 30
0.0
 10
100.358387561716
 20
-117.3471869281285
 30
0.0
 10
100.358387561716
 20
-117.3471869281285
 30
0.0
 10
100.31773543499
 20
-117.3471869281285
 30
0.0
 10
100.1399685079511
 20
-117.3556274120673
 30
0.0
 10
100.1027614767104
 20
-117.3556274120673
 30
0.0
 10
99.92499454967154
 20
-117.3597615266496
 30
0.0
 10
99.85850420680622
 20
-117.3618285839408
 30
0.0
 10
99.78994680664974
 20
-117.3640678960062
 30
0.0
 10
99.78994680664974
 20
-117.3640678960062
 30
0.0
 10
99.78994680664974
 20
-117.1799275423196
 30
0.0
 10
99.78994680664974
 20
-117.1799275423196
 30
0.0
 10
99.88985457572198
 20
-117.1883680262585
 30
0.0
 10
99.92878415470531
 20
-117.1883680262585
 30
0.0
 10
100.2639919454201
 20
-117.1969807649716
 30
0.0
 10
100.2085259081076
 20
-117.1017238748044
 30
0.0
 10
100.1844102397108
 20
-117.0741631109224
 30
0.0
 10
100.1530598707951
 20
-117.0381618631016
 30
0.0
 10
100.1530598707951
 20
-117.0381618631016
 30
0.0
 10
100.3067111294372
 20
-116.9556518262298
 30
0.0
 10
100.3067111294372
 20
-116.9556518262298
 30
0.0
 10
100.3418511033868
 20
-116.9916530740507
 30
0.0
 10
100.3807806823701
 20
-117.0340277485193
 30
0.0
 10
100.4455484774928
 20
-117.1439262944987
 30
0.0
 10
100.4455484774928
 20
-117.1439262944987
 30
0.0
 10
100.345296198872
 20
-117.1990478222627
 30
0.0
 10
100.345296198872
 20
-117.1990478222627
 30
0.0
 10
100.345296198872
 20
-117.1990478222627
 30
0.0
 10
100.3545979566822
 20
-117.1990478222627
 30
0.0
 10
100.3545979566822
 20
-117.1990478222627
 30
0.0
 10
100.3545979566822
 20
-117.1990478222627
 30
0.0
 10
100.8121066371234
 20
-117.1990478222627
 30
0.0
 10
100.8121066371234
 20
-117.1990478222627
 30
0.0
 10
100.8121066371234
 20
-117.1990478222627
 30
0.0
 10
100.7287353263803
 20
-117.154606090503
 30
0.0
 10
100.7287353263803
 20
-117.154606090503
 30
0.0
 10
100.7528509947771
 20
-117.116537785391
 30
0.0
 10
100.8028048793132
 20
-117.0360948058104
 30
0.0
 10
100.8158962421571
 20
-116.9620252528776
 30
0.0
 10
100.8158962421571
 20
-116.9620252528776
 30
0.0
 10
101.0029649270062
 20
-117.0255872645804
 30
0.0
 10
101.0029649270062
 20
-117.0255872645804
 30
0.0
 10
101.0101996275252
 20
-117.0276543218716
 30
0.0
 10
101.0288031431456
 20
-117.0381618631016
 30
0.0
 10
101.0288031431456
 20
-117.0593492003359
 30
0.0
 10
101.0288031431456
 20
-117.0974175054479
 30
0.0
 10
100.9712700485419
 20
-117.0974175054479
 30
0.0
 10
100.9547335902127
 20
-117.0974175054479
 30
0.0
 10
100.9454318324025
 20
-117.116537785391
 30
0.0
 10
100.9251057690396
 20
-117.1566731477942
 30
0.0
 10
100.8992675529002
 20
-117.1969807649716
 30
0.0
 10
101.2492892542016
 20
-117.1906073383239
 30
0.0
 10
101.2751274703409
 20
-117.1883680262585
 30
0.0
 10
101.3416178132063
 20
-117.182166854385
 30
0.0
 10
101.3416178132063
 20
-117.182166854385
 30
0.0
 10
101.3416178132063
 20
-117.3640678960062
 30
0.0
 10
101.3416178132063
 20
-117.3640678960062
 30
0.0
 10
101.3250813548771
 20
-117.3640678960062
 30
0.0
 10
101.3026882342229
 20
-117.3618285839408
 30
0.0
 10
101.1101073965975
 20
-117.3533881000019
 30
0.0
 10
101.0656656648378
 20
-117.3513210427108
 30
0.0
 10
100.8730848272123
 20
-117.3471869281285
 30
0.0
 10
100.8344997577775
 20
-117.3471869281285
 30
0.0
 10
100.8344997577775
 20
-117.3471869281285
 30
0.0
 10
100.6453640156373
 20
-117.3471869281285
 30
0.0
 10
100.6453640156373
 20
-117.3471869281285
 30
0.0
 10
100.6453640156373
 20
-117.3471869281285
 30
0.0
 10
100.6453640156373
 20
-117.4655259580468
 30
0.0
 10
100.6453640156373
 20
-117.4655259580468
 30
0.0
 10
100.6453640156373
 20
-117.4655259580468
 30
0.0
 10
100.7972927265368
 20
-117.4655259580468
 30
0.0
 10
100.7972927265368
 20
-117.4655259580468
 30
0.0
 10
100.9399196796261
 20
-117.4655259580468
 30
0.0
 10
101.1066623011122
 20
-117.4655259580468
 30
0.0
 10
101.2434325918766
 20
-117.4550184168168
 30
0.0
 10
101.2434325918766
 20
-117.4550184168168
 30
0.0
 10
101.2434325918766
 20
-117.626411917208
 30
0.0
 10
101.2434325918766
 20
-117.626411917208
 30
0.0
 10
101.0601535120614
 20
-117.6179714332691
 30
0.0
 10
100.8878987377989
 20
-117.6157321212037
 30
0.0
 10
100.7972927265368
 20
-117.6157321212037
 30
0.0
 10
100.7972927265368
 20
-117.6157321212037
 30
0.0
 10
100.6453640156373
 20
-117.6157321212037
 30
0.0
 10
100.6453640156373
 20
-117.6157321212037
 30
0.0
 10
100.6453640156373
 20
-117.6157321212037
 30
0.0
 10
100.6453640156373
 20
-117.7237358646663
 30
0.0
 10
100.6453640156373
 20
-117.7237358646663
 30
0.0
 10
100.6453640156373
 20
-117.7237358646663
 30
0.0
 10
100.8472466110729
 20
-117.7237358646663
 30
0.0
 10
100.8472466110729
 20
-117.7237358646663
 30
0.0
 10
100.9640353480229
 20
-117.7237358646663
 30
0.0
 10
101.2158718279946
 20
-117.7194294953097
 30
0.0
 10
101.3991509078099
 20
-117.713056068662
 30
0.0
 10
101.3991509078099
 20
-117.713056068662
 30
0.0
 10
101.3991509078099
 20
-117.8908229957009
 30
0.0
 10
101.3991509078099
 20
-117.8908229957009
 30
0.0
 10
101.2306857385812
 20
-117.8844495690532
 30
0.0
 10
100.9564561379553
 20
-117.8801431996966
 30
0.0
 10
100.8472466110729
 20
-117.8801431996966
 30
0.0
  0
POLYLINE
  5
13E
330
135
100
AcDbEntity
  8
_U+30EC_U+30A4_U+30E4_U+30FC 1
370
     0
100
AcDb2dPolyline
 66
     1
 10
0.0
 20
0.0
 30
0.0
  0
VERTEX
  5
13F
330
13E
100
AcDbEntity
  8
_U+30EC_U+30A4_U+30E4_U+30FC 1
370
     0
100
AcDbVertex
100
AcDb2dVertex
 10
100.9915961119049
 20
-118.1361137942507
 30
0.0
  0
VERTEX
  5
140
330
13E
100
AcDbEntity
  8
_U+30EC_U+30A4_U+30E4_U+30FC 1
370
     0
100
AcDbVertex
100
AcDb2dVertex
 10
100.3732014723025
 20
-118.1361137942507
 30
0.0
  0
VERTEX
  5
141
330
13E
100
AcDbEntity
  8
_U+30EC_U+30A4_U+30E4_U+30FC 1
370
     0
100
AcDbVertex
100
AcDb2dVertex
 10
100.3732014723025
 20
-118.2441175377133
 30
0.0
  0
VERTEX
  5
142
330
13E
100
AcDbEntity
  8
_U+30EC_U+30A4_U+30E4_U+30FC 1
370
     0
100
AcDbVertex
100
AcDb2dVertex
 10
100.9915961119049
 20
-118.2441175377133
 30
0.0
  0
VERTEX
  5
143
330
13E
100
AcDbEntity
  8
_U+30EC_U+30A4_U+30E4_U+30FC 1
370
     0
100
AcDbVertex
100
AcDb2dVertex
 10
100.9915961119049
 20
-118.1361137942507
 30
0.0
  0
SEQEND
  5
144
330
13E
100
AcDbEntity
  8
_U+30EC_U+30A4_U+30E4_U+30FC 1
370
     0
  0
POLYLINE
  5
145
330
135
100
AcDbEntity
  8
_U+30EC_U+30A4_U+30E4_U+30FC 1
370
     0
100
AcDb2dPolyline
 66
     1
 10
0.0
 20
0.0
 30
0.0
  0
VERTEX
  5
146
330
145
100
AcDbEntity
  8
_U+30EC_U+30A4_U+30E4_U+30FC 1
370
     0
100
AcDbVertex
100
AcDb2dVertex
 10
100.9915961119049
 20
-118.3688299942793
 30
0.0
  0
VERTEX
  5
147
330
145
100
AcDbEntity
  8
_U+30EC_U+30A4_U+30E4_U+30FC 1
370
     0
100
AcDbVertex
100
AcDb2dVertex
 10
100.3732014723025
 20
-118.3688299942793
 30
0.0
  0
VERTEX
  5
148
330
145
100
AcDbEntity
  8
_U+30EC_U+30A4_U+30E4_U+30FC 1
370
     0
100
AcDbVertex
100
AcDb2dVertex
 10
100.3732014723025
 20
-118.4832071643896
 30
0.0
  0
VERTEX
  5
149
330
145
100
AcDbEntity
  8
_U+30EC_U+30A4_U+30E4_U+30FC 1
370
     0
100
AcDbVertex
100
AcDb2dVertex
 10
100.9915961119049
 20
-118.4832071643896
 30
0.0
  0
VERTEX
  5
14A
330
145
100
AcDbEntity
  8
_U+30EC_U+30A4_U+30E4_U+30FC 1
370
     0
100
AcDbVertex
100
AcDb2dVertex
 10
100.9915961119049
 20
-118.3688299942793
 30
0.0
  0
SEQEND
  5
14B
330
145
100
AcDbEntity
  8
_U+30EC_U+30A4_U+30E4_U+30FC 1
370
     0
  0
POLYLINE
  5
14C
330
135
100
AcDbEntity
  8
_U+30EC_U+30A4_U+30E4_U+30FC 1
370
     0
100
AcDb2dPolyline
 66
     1
 10
0.0
 20
0.0
 30
0.0
  0
VERTEX
  5
14D
330
14C
100
AcDbEntity
  8
_U+30EC_U+30A4_U+30E4_U+30FC 1
370
     0
100
AcDbVertex
100
AcDb2dVertex
 10
100.9915961119049
 20
-118.6122259903122
 30
0.0
  0
VERTEX
  5
14E
330
14C
100
AcDbEntity
  8
_U+30EC_U+30A4_U+30E4_U+30FC 1
370
     0
100
AcDbVertex
100
AcDb2dVertex
 10
100.3732014723025
 20
-118.6122259903122
 30
0.0
  0
VERTEX
  5
14F
330
14C
100
AcDbEntity
  8
_U+30EC_U+30A4_U+30E4_U+30FC 1
370
     0
100
AcDbVertex
100
AcDb2dVertex
 10
100.3732014723025
 20
-118.7264309056483
 30
0.0
  0
VERTEX
  5
150
330
14C
100
AcDbEntity
  8
_U+30EC_U+30A4_U+30E4_U+30FC 1
370
     0
100
AcDbVertex
100
AcDb2dVertex
 10
100.9915961119049
 20
-118.7264309056483
 30
0.0
  0
VERTEX
  5
151
330
14C
100
AcDbEntity
  8
_U+30EC_U+30A4_U+30E4_U+30FC 1
370
     0
100
AcDbVertex
100
AcDb2dVertex
 10
100.9915961119049
 20
-118.6122259903122
 30
0.0
  0
SEQEND
  5
152
330
14C
100
AcDbEntity
  8
_U+30EC_U+30A4_U+30E4_U+30FC 1
370
     0
  0
HATCH
  5
153
330
135
100
AcDbEntity
  8
_U+30EC_U+30A4_U+30E4_U+30FC 1
 62
   179
420
  2234388
100
AcDbHatch
 10
0.0
 20
0.0
 30
0.0
210
0.0
220
0.0
230
1.0
  2
SOLID
 70
     1
 71
     0
 91
        4
 92
        1
 93
        1
 72
     4
 94
        3
 73
     0
 74
     1
 95
      203
 96
      199
 40
0.0
 40
0.0
 40
0.0
 40
0.0
 40
1.0
 40
1.0
 40
1.0
 40
2.0
 40
2.0
 40
2.0
 40
3.0
 40
3.0
 40
3.0
 40
4.0
 40
4.0
 40
4.0
 40
5.0
 40
5.0
 40
5.0
 40
6.0
 40
6.0
 40
6.0
 40
7.0
 40
7.0
 40
7.0
 40
8.0
 40
8.0
 40
8.0
 40
9.0
 40
9.0
 40
9.0
 40
10.0
 40
10.0
 40
10.0
 40
11.0
 40
11.0
 40
11.0
 40
12.0
 40
12.0
 40
12.0
 40
13.0
 40
13.0
 40
13.0
 40
14.0
 40
14.0
 40
14.0
 40
15.0
 40
15.0
 40
15.0
 40
16.0
 40
16.0
 40
16.0
 40
17.0
 40
17.0
 40
17.0
 40
18.0
 40
18.0
 40
18.0
 40
19.0
 40
19.0
 40
19.0
 40
20.0
 40
20.0
 40
20.0
 40
21.0
 40
21.0
 40
21.0
 40
22.0
 40
22.0
 40
22.0
 40
23.0
 40
23.0
 40
23.0
 40
24.0
 40
24.0
 40
24.0
 40
25.0
 40
25.0
 40
25.0
 40
26.0
 40
26.0
 40
26.0
 40
27.0
 40
27.0
 40
27.0
 40
28.0
 40
28.0
 40
28.0
 40
29.0
 40
29.0
 40
29.0
 40
30.0
 40
30.0
 40
30.0
 40
31.0
 40
31.0
 40
31.0
 40
32.0
 40
32.0
 40
32.0
 40
33.0
 40
33.0
 40
33.0
 40
34.0
 40
34.0
 40
34.0
 40
35.0
 40
35.0
 40
35.0
 40
36.0
 40
36.0
 40
36.0
 40
37.0
 40
37.0
 40
37.0
 40
38.0
 40
38.0
 40
38.0
 40
39.0
 40
39.0
 40
39.0
 40
40.0
 40
40.0
 40
40.0
 40
41.0
 40
41.0
 40
41.0
 40
42.0
 40
42.0
 40
42.0
 40
43.0
 40
43.0
 40
43.0
 40
44.0
 40
44.0
 40
44.0
 40
45.0
 40
45.0
 40
45.0
 40
46.0
 40
46.0
 40
46.0
 40
47.0
 40
47.0
 40
47.0
 40
48.0
 40
48.0
 40
48.0
 40
49.0
 40
49.0
 40
49.0
 40
50.0
 40
50.0
 40
50.0
 40
51.0
 40
51.0
 40
51.0
 40
52.0
 40
52.0
 40
52.0
 40
53.0
 40
53.0
 40
53.0
 40
54.0
 40
54.0
 40
54.0
 40
55.0
 40
55.0
 40
55.0
 40
56.0
 40
56.0
 40
56.0
 40
57.0
 40
57.0
 40
57.0
 40
58.0
 40
58.0
 40
58.0
 40
59.0
 40
59.0
 40
59.0
 40
60.0
 40
60.0
 40
60.0
 40
61.0
 40
61.0
 40
61.0
 40
62.0
 40
62.0
 40
62.0
 40
63.0
 40
63.0
 40
63.0
 40
64.0
 40
64.0
 40
64.0
 40
65.0
 40
65.0
 40
65.0
 40
66.0
 40
66.0
 40
66.0
 40
66.0
 10
100.8472466110729
 20
-117.8801431996966
 10
100.8472466110729
 20
-117.8801431996966
 10
100.358387561716
 20
-117.8801431996966
 10
100.358387561716
 20
-117.8801431996966
 10
100.3490858039058
 20
-117.9245849314564
 10
100.3418511033868
 20
-117.9562798099207
 10
100.330826797834
 20
-117.9945203698069
 10
100.3528754089396
 20
-117.9945203698069
 10
100.3659667717835
 20
-117.9965874270981
 10
100.3714789245599
 20
-117.9965874270981
 10
100.3714789245599
 20
-117.9965874270981
 10
100.5361544887549
 20
-117.9965874270981
 10
100.5361544887549
 20
-117.9965874270981
 10
100.5361544887549
 20
-117.9965874270981
 10
100.8641275789506
 20
-117.9965874270981
 10
100.8641275789506
 20
-117.9965874270981
 10
100.9082248011618
 20
-117.9965874270981
 10
101.1566161856483
 20
-117.9838405738027
 10
101.1841769495304
 20
-117.9838405738027
 10
101.1824544017877
 20
-118.0114013376847
 10
101.1807318540451
 20
-118.0303493628535
 10
101.1807318540451
 20
-118.0599771840267
 10
101.1786647967539
 20
-118.091672062491
 10
101.1786647967539
 20
-118.2270643150613
 10
101.1786647967539
 20
-118.2546250789433
 10
101.1786647967539
 20
-118.2546250789433
 10
101.1786647967539
 20
-118.5000881322674
 10
101.1786647967539
 20
-118.5000881322674
 10
101.1786647967539
 20
-118.5445298640271
 10
101.1824544017877
 20
-118.7412448162348
 10
101.1862440068215
 20
-118.8935180366829
 10
101.1862440068215
 20
-118.8935180366829
 10
100.9881510164196
 20
-118.8935180366829
 10
100.9881510164196
 20
-118.8935180366829
 10
100.9881510164196
 20
-118.8935180366829
 10
100.9898735641623
 20
-118.8597561009274
 10
100.9898735641623
 20
-118.8597561009274
 10
100.9898735641623
 20
-118.8597561009274
 10
100.3749240200452
 20
-118.8597561009274
 10
100.3749240200452
 20
-118.8597561009274
 10
100.3749240200452
 20
-118.8597561009274
 10
100.3769910773363
 20
-118.8935180366829
 10
100.3769910773363
 20
-118.8935180366829
 10
100.3769910773363
 20
-118.8935180366829
 10
100.1861327874535
 20
-118.8935180366829
 10
100.1861327874535
 20
-118.8935180366829
 10
100.1899223924872
 20
-118.8385687636931
 10
100.1899223924872
 20
-118.8258219103977
 10
100.1954345452637
 20
-118.7116169950617
 10
100.1971570930063
 20
-118.6840562311797
 10
100.1992241502974
 20
-118.5509032906748
 10
100.1992241502974
 20
-118.5317830107316
 10
100.1992241502974
 20
-118.5317830107316
 10
100.1992241502974
 20
-118.3286946318762
 10
100.1992241502974
 20
-118.3286946318762
 10
100.076923260571
 20
-118.5782917997825
 10
99.92878415470531
 20
-118.7095499377705
 10
99.83611108615209
 20
-118.7750067519903
 10
99.83611108615209
 20
-118.7750067519903
 10
99.6845268848011
 20
-118.6354803848377
 10
99.6845268848011
 20
-118.6354803848377
 10
99.76204153321922
 20
-118.5846652264302
 10
99.88813202797937
 20
-118.4978488202019
 10
100.0083658604146
 20
-118.3033731800596
 10
100.0879475661238
 20
-118.1764214114281
 10
100.1454806607275
 20
-118.0325886749189
 10
100.1751084819007
 20
-117.8801431996966
 10
99.97529294375619
 20
-117.882382511762
 10
99.81785208008026
 20
-117.8887559384098
 10
99.73448076933722
 20
-117.8908229957009
 10
99.73448076933722
 20
-117.8908229957009
 10
99.73448076933722
 20
-117.713056068662
 10
99.73448076933722
 20
-117.713056068662
 10
99.90673554359971
 20
-117.7194294953097
 10
100.1547824185377
 20
-117.7237358646663
 10
100.2860405565257
 20
-117.7237358646663
 10
100.2860405565257
 20
-117.7237358646663
 10
100.4731092413748
 20
-117.7237358646663
 10
100.4731092413748
 20
-117.7237358646663
 10
100.4731092413748
 20
-117.7237358646663
 10
100.4731092413748
 20
-117.6157321212037
 10
100.4731092413748
 20
-117.6157321212037
 10
100.4731092413748
 20
-117.6157321212037
 10
100.345296198872
 20
-117.6157321212037
 10
100.345296198872
 20
-117.6157321212037
 10
100.1971570930063
 20
-117.6157321212037
 10
100.0490179871405
 20
-117.6200384905603
 10
99.90294593856594
 20
-117.626411917208
 10
99.90294593856594
 20
-117.626411917208
 10
99.90294593856594
 20
-117.4550184168168
 10
99.90294593856594
 20
-117.4550184168168
 10
100.0379936815877
 20
-117.4655259580468
 10
100.20094669804
 20
-117.4655259580468
 10
100.345296198872
 20
-117.4655259580468
 10
100.345296198872
 20
-117.4655259580468
 10
100.4731092413748
 20
-117.4655259580468
 10
100.4731092413748
 20
-117.4655259580468
 10
100.4731092413748
 20
-117.4655259580468
 10
100.4731092413748
 20
-117.3471869281285
 10
100.4731092413748
 20
-117.3471869281285
 10
100.4731092413748
 20
-117.3471869281285
 10
100.358387561716
 20
-117.3471869281285
 10
100.358387561716
 20
-117.3471869281285
 10
100.31773543499
 20
-117.3471869281285
 10
100.1399685079511
 20
-117.3556274120673
 10
100.1027614767104
 20
-117.3556274120673
 10
99.92499454967154
 20
-117.3597615266496
 10
99.85850420680622
 20
-117.3618285839408
 10
99.78994680664974
 20
-117.3640678960062
 10
99.78994680664974
 20
-117.3640678960062
 10
99.78994680664974
 20
-117.1799275423196
 10
99.78994680664974
 20
-117.1799275423196
 10
99.88985457572198
 20
-117.1883680262585
 10
99.92878415470531
 20
-117.1883680262585
 10
100.2639919454201
 20
-117.1969807649716
 10
100.2085259081076
 20
-117.1017238748044
 10
100.1844102397108
 20
-117.0741631109224
 10
100.1530598707951
 20
-117.0381618631016
 10
100.1530598707951
 20
-117.0381618631016
 10
100.3067111294372
 20
-116.9556518262298
 10
100.3067111294372
 20
-116.9556518262298
 10
100.3418511033868
 20
-116.9916530740507
 10
100.3807806823701
 20
-117.0340277485193
 10
100.4455484774928
 20
-117.1439262944987
 10
100.4455484774928
 20
-117.1439262944987
 10
100.345296198872
 20
-117.1990478222627
 10
100.345296198872
 20
-117.1990478222627
 10
100.345296198872
 20
-117.1990478222627
 10
100.3545979566822
 20
-117.1990478222627
 10
100.3545979566822
 20
-117.1990478222627
 10
100.3545979566822
 20
-117.1990478222627
 10
100.8121066371234
 20
-117.1990478222627
 10
100.8121066371234
 20
-117.1990478222627
 10
100.8121066371234
 20
-117.1990478222627
 10
100.7287353263803
 20
-117.154606090503
 10
100.7287353263803
 20
-117.154606090503
 10
100.7528509947771
 20
-117.116537785391
 10
100.8028048793132
 20
-117.0360948058104
 10
100.8158962421571
 20
-116.9620252528776
 10
100.8158962421571
 20
-116.9620252528776
 10
101.0029649270062
 20
-117.0255872645804
 10
101.0029649270062
 20
-117.0255872645804
 10
101.0101996275252
 20
-117.0276543218716
 10
101.0288031431456
 20
-117.0381618631016
 10
101.0288031431456
 20
-117.0593492003359
 10
101.0288031431456
 20
-117.0974175054479
 10
100.9712700485419
 20
-117.0974175054479
 10
100.9547335902127
 20
-117.0974175054479
 10
100.9454318324025
 20
-117.116537785391
 10
100.9251057690396
 20
-117.1566731477942
 10
100.8992675529002
 20
-117.1969807649716
 10
101.2492892542016
 20
-117.1906073383239
 10
101.2751274703409
 20
-117.1883680262585
 10
101.3416178132063
 20
-117.182166854385
 10
101.3416178132063
 20
-117.182166854385
 10
101.3416178132063
 20
-117.3640678960062
 10
101.3416178132063
 20
-117.3640678960062
 10
101.3250813548771
 20
-117.3640678960062
 10
101.3026882342229
 20
-117.3618285839408
 10
101.1101073965975
 20
-117.3533881000019
 10
101.0656656648378
 20
-117.3513210427108
 10
100.8730848272123
 20
-117.3471869281285
 10
100.8344997577775
 20
-117.3471869281285
 10
100.8344997577775
 20
-117.3471869281285
 10
100.6453640156373
 20
-117.3471869281285
 10
100.6453640156373
 20
-117.3471869281285
 10
100.6453640156373
 20
-117.3471869281285
 10
100.6453640156373
 20
-117.4655259580468
 10
100.6453640156373
 20
-117.4655259580468
 10
100.6453640156373
 20
-117.4655259580468
 10
100.7972927265368
 20
-117.4655259580468
 10
100.7972927265368
 20
-117.4655259580468
 10
100.9399196796261
 20
-117.4655259580468
 10
101.1066623011122
 20
-117.4655259580468
 10
101.2434325918766
 20
-117.4550184168168
 10
101.2434325918766
 20
-117.4550184168168
 10
101.2434325918766
 20
-117.626411917208
 10
101.2434325918766
 20
-117.626411917208
 10
101.0601535120614
 20
-117.6179714332691
 10
100.8878987377989
 20
-117.6157321212037
 10
100.7972927265368
 20
-117.6157321212037
 10
100.7972927265368
 20
-117.6157321212037
 10
100.6453640156373
 20
-117.6157321212037
 10
100.6453640156373
 20
-117.6157321212037
 10
100.6453640156373
 20
-117.6157321212037
 10
100.6453640156373
 20
-117.7237358646663
 10
100.6453640156373
 20
-117.7237358646663
 10
100.6453640156373
 20
-117.7237358646663
 10
100.8472466110729
 20
-117.7237358646663
 10
100.8472466110729
 20
-117.7237358646663
 10
100.9640353480229
 20
-117.7237358646663
 10
101.2158718279946
 20
-117.7194294953097
 10
101.3991509078099
 20
-117.713056068662
 10
101.3991509078099
 20
-117.713056068662
 10
101.3991509078099
 20
-117.8908229957009
 10
101.3991509078099
 20
-117.8908229957009
 10
101.2306857385812
 20
-117.8844495690532
 10
100.9564561379553
 20
-117.8801431996966
 10
100.8472466110729
 20
-117.8801431996966
 97
        0
 97
        0
 92
        1
 93
        4
 72
     1
 10
100.9915961119049
 20
-118.1361137942507
 11
100.3732014723025
 21
-118.1361137942507
 72
     1
 10
100.3732014723025
 20
-118.1361137942507
 11
100.3732014723025
 21
-118.2441175377133
 72
     1
 10
100.3732014723025
 20
-118.2441175377133
 11
100.9915961119049
 21
-118.2441175377133
 72
     1
 10
100.9915961119049
 20
-118.2441175377133
 11
100.9915961119049
 21
-118.1361137942507
 97
        0
 92
        1
 93
        4
 72
     1
 10
100.9915961119049
 20
-118.3688299942793
 11
100.3732014723025
 21
-118.3688299942793
 72
     1
 10
100.3732014723025
 20
-118.3688299942793
 11
100.3732014723025
 21
-118.4832071643896
 72
     1
 10
100.3732014723025
 20
-118.4832071643896
 11
100.9915961119049
 21
-118.4832071643896
 72
     1
 10
100.9915961119049
 20
-118.4832071643896
 11
100.9915961119049
 21
-118.3688299942793
 97
        0
 92
        1
 93
        4
 72
     1
 10
100.9915961119049
 20
-118.6122259903122
 11
100.3732014723025
 21
-118.6122259903122
 72
     1
 10
100.3732014723025
 20
-118.6122259903122
 11
100.3732014723025
 21
-118.7264309056483
 72
     1
 10
100.3732014723025
 20
-118.7264309056483
 11
100.9915961119049
 21
-118.7264309056483
 72
     1
 10
100.9915961119049
 20
-118.7264309056483
 11
100.9915961119049
 21
-118.6122259903122
 97
        0
 75
     2
 76
     1
 98
        0
  0
SPLINE
  5
154
330
135
100
AcDbEntity
  8
_U+30EC_U+30A4_U+30E4_U+30FC 1
370
     0
100
AcDbSpline
210
0.0
220
0.0
230
1.0
 70
    11
 71
     3
 72
    47
 73
    43
 74
     0
 42
0.0000000001
 43
0.0000000001
 12
1.0
 22
0.0
 32
0.0
 13
1.0
 23
0.0
 33
0.0
 40
0.0
 40
0.0
 40
0.0
 40
0.0
 40
1.0
 40
1.0
 40
1.0
 40
2.0
 40
2.0
 40
2.0
 40
3.0
 40
3.0
 40
3.0
 40
4.0
 40
4.0
 40
4.0
 40
5.0
 40
5.0
 40
5.0
 40
6.0
 40
6.0
 40
6.0
 40
7.0
 40
7.0
 40
7.0
 40
8.0
 40
8.0
 40
8.0
 40
9.0
 40
9.0
 40
9.0
 40
10.0
 40
10.0
 40
10.0
 40
11.0
 40
11.0
 40
11.0
 40
12.0
 40
12.0
 40
12.0
 40
13.0
 40
13.0
 40
13.0
 40
14.0
 40
14.0
 40
14.0
 40
14.0
 10
102.579096111508
 20
-117.8568888051712
 30
0.0
 10
102.579096111508
 20
-117.8568888051712
 30
0.0
 10
102.4902126479886
 20
-117.8568888051712
 30
0.0
 10
102.4902126479886
 20
-117.8568888051712
 30
0.0
 10
102.4902126479886
 20
-117.9437052113995
 30
0.0
 10
102.4716091323682
 20
-118.3330010012327
 30
0.0
 10
102.2993543581057
 20
-118.5529703479659
 30
0.0
 10
102.1660291628265
 20
-118.7221245362917
 30
0.0
 10
101.9844726307539
 20
-118.7920599746423
 30
0.0
 10
101.910403077821
 20
-118.81944848375
 30
0.0
 10
101.910403077821
 20
-118.81944848375
 30
0.0
 10
101.7402153608497
 20
-118.6523613527154
 30
0.0
 10
101.7402153608497
 20
-118.6523613527154
 30
0.0
 10
101.8253092193353
 20
-118.63961449942
 30
0.0
 10
101.9789604779775
 20
-118.6163601048945
 30
0.0
 10
102.1436360421724
 20
-118.4280856366256
 30
0.0
 10
102.2087483468436
 20
-118.3562553957582
 30
0.0
 10
102.2993543581057
 20
-118.2165567738313
 30
0.0
 10
102.2993543581057
 20
-117.8568888051712
 30
0.0
 10
102.2993543581057
 20
-117.8568888051712
 30
0.0
 10
102.0974717626701
 20
-117.8568888051712
 30
0.0
 10
102.0974717626701
 20
-117.8568888051712
 30
0.0
 10
101.9345187462178
 20
-117.8568888051712
 30
0.0
 10
101.7715657297654
 20
-117.8611951745278
 30
0.0
 10
101.6086127133131
 20
-117.8760090851143
 30
0.0
 10
101.6086127133131
 20
-117.8760090851143
 30
0.0
 10
101.6086127133131
 20
-117.6560397383811
 30
0.0
 10
101.6086127133131
 20
-117.6560397383811
 30
0.0
 10
101.7736327870566
 20
-117.6708536489677
 30
0.0
 10
102.0234022097372
 20
-117.67498776355
 30
0.0
 10
102.0974717626701
 20
-117.67498776355
 30
0.0
 10
102.0974717626701
 20
-117.67498776355
 30
0.0
 10
102.579096111508
 20
-117.67498776355
 30
0.0
 10
102.579096111508
 20
-117.67498776355
 30
0.0
 10
102.5956325698372
 20
-117.67498776355
 30
0.0
 10
102.8733072659483
 20
-117.67498776355
 30
0.0
 10
103.0734673136414
 20
-117.6560397383811
 30
0.0
 10
103.0734673136414
 20
-117.6560397383811
 30
0.0
 10
103.0734673136414
 20
-117.8760090851143
 30
0.0
 10
103.0734673136414
 20
-117.8760090851143
 30
0.0
 10
102.9084472398979
 20
-117.8611951745278
 30
0.0
 10
102.7437716757029
 20
-117.8568888051712
 30
0.0
 10
102.579096111508
 20
-117.8568888051712
 30
0.0
  0
SPLINE
  5
155
330
135
100
AcDbEntity
  8
_U+30EC_U+30A4_U+30E4_U+30FC 1
370
     0
100
AcDbSpline
210
0.0
220
0.0
230
1.0
 70
    11
 71
     3
 72
    29
 73
    25
 74
     0
 42
0.0000000001
 43
0.0000000001
 12
1.0
 22
0.0
 32
0.0
 13
1.0
 23
0.0
 33
0.0
 40
0.0
 40
0.0
 40
0.0
 40
0.0
 40
1.0
 40
1.0
 40
1.0
 40
2.0
 40
2.0
 40
2.0
 40
3.0
 40
3.0
 40
3.0
 40
4.0
 40
4.0
 40
4.0
 40
5.0
 40
5.0
 40
5.0
 40
6.0
 40
6.0
 40
6.0
 40
7.0
 40
7.0
 40
7.0
 40
8.0
 40
8.0
 40
8.0
 40
8.0
 10
102.4902126479886
 20
-117.3280666481854
 30
0.0
 10
102.4902126479886
 20
-117.3280666481854
 30
0.0
 10
102.1808430734131
 20
-117.3280666481854
 30
0.0
 10
102.1808430734131
 20
-117.3280666481854
 30
0.0
 10
102.0826578520835
 20
-117.3280666481854
 30
0.0
 10
101.9603569623571
 20
-117.3344400748331
 30
0.0
 10
101.8659613460613
 20
-117.3471869281285
 30
0.0
 10
101.8659613460613
 20
-117.3471869281285
 30
0.0
 10
101.8659613460613
 20
-117.1122314160344
 30
0.0
 10
101.8659613460613
 20
-117.1122314160344
 30
0.0
 10
101.9696587201673
 20
-117.127045326621
 30
0.0
 10
102.130889188877
 20
-117.1313516959776
 30
0.0
 10
102.1808430734131
 20
-117.1313516959776
 30
0.0
 10
102.1808430734131
 20
-117.1313516959776
 30
0.0
 10
102.4902126479886
 20
-117.1313516959776
 30
0.0
 10
102.4902126479886
 20
-117.1313516959776
 30
0.0
 10
102.5067491063178
 20
-117.1313516959776
 30
0.0
 10
102.6845160333567
 20
-117.1313516959776
 30
0.0
 10
102.8085394708257
 20
-117.1122314160344
 30
0.0
 10
102.8085394708257
 20
-117.1122314160344
 30
0.0
 10
102.8085394708257
 20
-117.3471869281285
 30
0.0
 10
102.8085394708257
 20
-117.3471869281285
 30
0.0
 10
102.6714246705127
 20
-117.3280666481854
 30
0.0
 10
102.5050265585751
 20
-117.3280666481854
 30
0.0
 10
102.4902126479886
 20
-117.3280666481854
 30
0.0
  0
HATCH
  5
156
330
135
100
AcDbEntity
  8
_U+30EC_U+30A4_U+30E4_U+30FC 1
 62
   179
420
  2234388
100
AcDbHatch
 10
0.0
 20
0.0
 30
0.0
210
0.0
220
0.0
230
1.0
  2
SOLID
 70
     1
 71
     0
 91
        2
 92
        1
 93
        1
 72
     4
 94
        3
 73
     0
 74
     1
 95
       47
 96
       43
 40
0.0
 40
0.0
 40
0.0
 40
0.0
 40
1.0
 40
1.0
 40
1.0
 40
2.0
 40
2.0
 40
2.0
 40
3.0
 40
3.0
 40
3.0
 40
4.0
 40
4.0
 40
4.0
 40
5.0
 40
5.0
 40
5.0
 40
6.0
 40
6.0
 40
6.0
 40
7.0
 40
7.0
 40
7.0
 40
8.0
 40
8.0
 40
8.0
 40
9.0
 40
9.0
 40
9.0
 40
10.0
 40
10.0
 40
10.0
 40
11.0
 40
11.0
 40
11.0
 40
12.0
 40
12.0
 40
12.0
 40
13.0
 40
13.0
 40
13.0
 40
14.0
 40
14.0
 40
14.0
 40
14.0
 10
102.579096111508
 20
-117.8568888051712
 10
102.579096111508
 20
-117.8568888051712
 10
102.4902126479886
 20
-117.8568888051712
 10
102.4902126479886
 20
-117.8568888051712
 10
102.4902126479886
 20
-117.9437052113995
 10
102.4716091323682
 20
-118.3330010012327
 10
102.2993543581057
 20
-118.5529703479659
 10
102.1660291628265
 20
-118.7221245362917
 10
101.9844726307539
 20
-118.7920599746423
 10
101.910403077821
 20
-118.81944848375
 10
101.910403077821
 20
-118.81944848375
 10
101.7402153608497
 20
-118.6523613527154
 10
101.7402153608497
 20
-118.6523613527154
 10
101.8253092193353
 20
-118.63961449942
 10
101.9789604779775
 20
-118.6163601048945
 10
102.1436360421724
 20
-118.4280856366256
 10
102.2087483468436
 20
-118.3562553957582
 10
102.2993543581057
 20
-118.2165567738313
 10
102.2993543581057
 20
-117.8568888051712
 10
102.2993543581057
 20
-117.8568888051712
 10
102.0974717626701
 20
-117.8568888051712
 10
102.0974717626701
 20
-117.8568888051712
 10
101.9345187462178
 20
-117.8568888051712
 10
101.7715657297654
 20
-117.8611951745278
 10
101.6086127133131
 20
-117.8760090851143
 10
101.6086127133131
 20
-117.8760090851143
 10
101.6086127133131
 20
-117.6560397383811
 10
101.6086127133131
 20
-117.6560397383811
 10
101.7736327870566
 20
-117.6708536489677
 10
102.0234022097372
 20
-117.67498776355
 10
102.0974717626701
 20
-117.67498776355
 10
102.0974717626701
 20
-117.67498776355
 10
102.579096111508
 20
-117.67498776355
 10
102.579096111508
 20
-117.67498776355
 10
102.5956325698372
 20
-117.67498776355
 10
102.8733072659483
 20
-117.67498776355
 10
103.0734673136414
 20
-117.6560397383811
 10
103.0734673136414
 20
-117.6560397383811
 10
103.0734673136414
 20
-117.8760090851143
 10
103.0734673136414
 20
-117.8760090851143
 10
102.9084472398979
 20
-117.8611951745278
 10
102.7437716757029
 20
-117.8568888051712
 10
102.579096111508
 20
-117.8568888051712
 97
        0
 97
        0
 92
        1
 93
        1
 72
     4
 94
        3
 73
     0
 74
     1
 95
       29
 96
       25
 40
0.0
 40
0.0
 40
0.0
 40
0.0
 40
1.0
 40
1.0
 40
1.0
 40
2.0
 40
2.0
 40
2.0
 40
3.0
 40
3.0
 40
3.0
 40
4.0
 40
4.0
 40
4.0
 40
5.0
 40
5.0
 40
5.0
 40
6.0
 40
6.0
 40
6.0
 40
7.0
 40
7.0
 40
7.0
 40
8.0
 40
8.0
 40
8.0
 40
8.0
 10
102.4902126479886
 20
-117.3280666481854
 10
102.4902126479886
 20
-117.3280666481854
 10
102.1808430734131
 20
-117.3280666481854
 10
102.1808430734131
 20
-117.3280666481854
 10
102.0826578520835
 20
-117.3280666481854
 10
101.9603569623571
 20
-117.3344400748331
 10
101.8659613460613
 20
-117.3471869281285
 10
101.8659613460613
 20
-117.3471869281285
 10
101.8659613460613
 20
-117.1122314160344
 10
101.8659613460613
 20
-117.1122314160344
 10
101.9696587201673
 20
-117.127045326621
 10
102.130889188877
 20
-117.1313516959776
 10
102.1808430734131
 20
-117.1313516959776
 10
102.1808430734131
 20
-117.1313516959776
 10
102.4902126479886
 20
-117.1313516959776
 10
102.4902126479886
 20
-117.1313516959776
 10
102.5067491063178
 20
-117.1313516959776
 10
102.6845160333567
 20
-117.1313516959776
 10
102.8085394708257
 20
-117.1122314160344
 10
102.8085394708257
 20
-117.1122314160344
 10
102.8085394708257
 20
-117.3471869281285
 10
102.8085394708257
 20
-117.3471869281285
 10
102.6714246705127
 20
-117.3280666481854
 10
102.5050265585751
 20
-117.3280666481854
 10
102.4902126479886
 20
-117.3280666481854
 97
        0
 97
        0
 75
     2
 76
     1
 98
        0
  0
SPLINE
  5
157
330
135
100
AcDbEntity
  8
_U+30EC_U+30A4_U+30E4_U+30FC 1
370
     0
100
AcDbSpline
210
0.0
220
0.0
230
1.0
 70
    11
 71
     3
 72
    29
 73
    25
 74
     0
 42
0.0000000001
 43
0.0000000001
 12
1.0
 22
0.0
 32
0.0
 13
1.0
 23
0.0
 33
0.0
 40
0.0
 40
0.0
 40
0.0
 40
0.0
 40
1.0
 40
1.0
 40
1.0
 40
2.0
 40
2.0
 40
2.0
 40
3.0
 40
3.0
 40
3.0
 40
4.0
 40
4.0
 40
4.0
 40
5.0
 40
5.0
 40
5.0
 40
6.0
 40
6.0
 40
6.0
 40
7.0
 40
7.0
 40
7.0
 40
8.0
 40
8.0
 40
8.0
 40
8.0
 10
104.1955349131872
 20
-118.0198418216235
 30
0.0
 10
104.1955349131872
 20
-118.0198418216235
 30
0.0
 10
103.7717881685015
 20
-118.0198418216235
 30
0.0
 10
103.7717881685015
 20
-118.0198418216235
 30
0.0
 10
103.7476725001048
 20
-118.0198418216235
 30
0.0
 10
103.4699978039936
 20
-118.0198418216235
 30
0.0
 10
103.2846516668872
 20
-118.0451632734401
 30
0.0
 10
103.2846516668872
 20
-118.0451632734401
 30
0.0
 10
103.2846516668872
 20
-117.8146863854769
 30
0.0
 10
103.2846516668872
 20
-117.8146863854769
 30
0.0
 10
103.4234890149427
 20
-117.8379407800023
 30
0.0
 10
103.5902316364288
 20
-117.8400078372935
 30
0.0
 10
103.7717881685015
 20
-117.8400078372935
 30
0.0
 10
103.7717881685015
 20
-117.8400078372935
 30
0.0
 10
104.1955349131872
 20
-117.8400078372935
 30
0.0
 10
104.1955349131872
 20
-117.8400078372935
 30
0.0
 10
104.3588324391881
 20
-117.8400078372935
 30
0.0
 10
104.5214409460919
 20
-117.8379407800023
 30
0.0
 10
104.6826714148016
 20
-117.8146863854769
 30
0.0
 10
104.6826714148016
 20
-117.8146863854769
 30
0.0
 10
104.6826714148016
 20
-118.0451632734401
 30
0.0
 10
104.6826714148016
 20
-118.0451632734401
 30
0.0
 10
104.5214409460919
 20
-118.0219088789147
 30
0.0
 10
104.3050889496182
 20
-118.0198418216235
 30
0.0
 10
104.1955349131872
 20
-118.0198418216235
 30
0.0
  0
HATCH
  5
158
330
135
100
AcDbEntity
  8
_U+30EC_U+30A4_U+30E4_U+30FC 1
 62
   179
420
  2234388
100
AcDbHatch
 10
0.0
 20
0.0
 30
0.0
210
0.0
220
0.0
230
1.0
  2
SOLID
 70
     1
 71
     0
 91
        1
 92
        1
 93
        1
 72
     4
 94
        3
 73
     0
 74
     1
 95
       29
 96
       25
 40
0.0
 40
0.0
 40
0.0
 40
0.0
 40
1.0
 40
1.0
 40
1.0
 40
2.0
 40
2.0
 40
2.0
 40
3.0
 40
3.0
 40
3.0
 40
4.0
 40
4.0
 40
4.0
 40
5.0
 40
5.0
 40
5.0
 40
6.0
 40
6.0
 40
6.0
 40
7.0
 40
7.0
 40
7.0
 40
8.0
 40
8.0
 40
8.0
 40
8.0
 10
104.1955349131872
 20
-118.0198418216235
 10
104.1955349131872
 20
-118.0198418216235
 10
103.7717881685015
 20
-118.0198418216235
 10
103.7717881685015
 20
-118.0198418216235
 10
103.7476725001048
 20
-118.0198418216235
 10
103.4699978039936
 20
-118.0198418216235
 10
103.2846516668872
 20
-118.0451632734401
 10
103.2846516668872
 20
-118.0451632734401
 10
103.2846516668872
 20
-117.8146863854769
 10
103.2846516668872
 20
-117.8146863854769
 10
103.4234890149427
 20
-117.8379407800023
 10
103.5902316364288
 20
-117.8400078372935
 10
103.7717881685015
 20
-117.8400078372935
 10
103.7717881685015
 20
-117.8400078372935
 10
104.1955349131872
 20
-117.8400078372935
 10
104.1955349131872
 20
-117.8400078372935
 10
104.3588324391881
 20
-117.8400078372935
 10
104.5214409460919
 20
-117.8379407800023
 10
104.6826714148016
 20
-117.8146863854769
 10
104.6826714148016
 20
-117.8146863854769
 10
104.6826714148016
 20
-118.0451632734401
 10
104.6826714148016
 20
-118.0451632734401
 10
104.5214409460919
 20
-118.0219088789147
 10
104.3050889496182
 20
-118.0198418216235
 10
104.1955349131872
 20
-118.0198418216235
 97
        0
 97
        0
 75
     2
 76
     1
 98
        0
  0
SPLINE
  5
159
330
135
100
AcDbEntity
  8
_U+30EC_U+30A4_U+30E4_U+30FC 1
370
     0
100
AcDbSpline
210
0.0
220
0.0
230
1.0
 70
    11
 71
     3
 72
    44
 73
    40
 74
     0
 42
0.0000000001
 43
0.0000000001
 12
1.0
 22
0.0
 32
0.0
 13
1.0
 23
0.0
 33
0.0
 40
0.0
 40
0.0
 40
0.0
 40
0.0
 40
1.0
 40
1.0
 40
1.0
 40
2.0
 40
2.0
 40
2.0
 40
3.0
 40
3.0
 40
3.0
 40
4.0
 40
4.0
 40
4.0
 40
5.0
 40
5.0
 40
5.0
 40
6.0
 40
6.0
 40
6.0
 40
7.0
 40
7.0
 40
7.0
 40
8.0
 40
8.0
 40
8.0
 40
9.0
 40
9.0
 40
9.0
 40
10.0
 40
10.0
 40
10.0
 40
11.0
 40
11.0
 40
11.0
 40
12.0
 40
12.0
 40
12.0
 40
13.0
 40
13.0
 40
13.0
 40
13.0
 10
106.1327121045432
 20
-117.5819701854483
 30
0.0
 10
106.0345268832136
 20
-117.9500786380472
 30
0.0
 10
105.9900851514539
 20
-118.108725285143
 30
0.0
 10
105.8178303771914
 20
-118.3583224530493
 30
0.0
 10
105.6569444180302
 20
-118.5889715957868
 30
0.0
 10
105.4495496698182
 20
-118.7750067519903
 30
0.0
 10
105.2049478903654
 20
-118.8681965848663
 30
0.0
 10
105.2049478903654
 20
-118.8681965848663
 30
0.0
 10
105.0364827211367
 20
-118.6883626005363
 30
0.0
 10
105.0364827211367
 20
-118.6883626005363
 30
0.0
 10
105.5976887756839
 20
-118.5360893800882
 30
0.0
 10
105.8863877773478
 20
-117.9797064592204
 30
0.0
 10
105.9421983242089
 20
-117.5395955109797
 30
0.0
 10
105.9421983242089
 20
-117.5395955109797
 30
0.0
 10
105.2717827427793
 20
-117.5395955109797
 30
0.0
 10
105.2717827427793
 20
-117.5395955109797
 30
0.0
 10
105.1901339797789
 20
-117.5395955109797
 30
0.0
 10
105.0292480206177
 20
-117.5439018803363
 30
0.0
 10
104.8921332203047
 20
-117.5628499055051
 30
0.0
 10
104.8921332203047
 20
-117.5628499055051
 30
0.0
 10
104.8921332203047
 20
-117.3428805587719
 30
0.0
 10
104.8921332203047
 20
-117.3428805587719
 30
0.0
 10
104.9679253209802
 20
-117.3640678960062
 30
0.0
 10
105.1884114320362
 20
-117.3640678960062
 30
0.0
 10
105.2752278382645
 20
-117.3640678960062
 30
0.0
 10
105.2752278382645
 20
-117.3640678960062
 30
0.0
 10
105.6531548129964
 20
-117.3640678960062
 30
0.0
 10
105.6531548129964
 20
-117.3640678960062
 30
0.0
 10
105.6900173346886
 20
-117.3640678960062
 30
0.0
 10
105.895689535158
 20
-117.3618285839408
 30
0.0
 10
105.929106961365
 20
-117.3556274120673
 30
0.0
 10
105.9659694830571
 20
-117.3492539854196
 30
0.0
 10
105.9680365403483
 20
-117.3471869281285
 30
0.0
 10
106.0217800299182
 20
-117.3068793109511
 30
0.0
 10
106.0217800299182
 20
-117.3068793109511
 30
0.0
 10
106.1864555941131
 20
-117.4613918434645
 30
0.0
 10
106.1864555941131
 20
-117.4613918434645
 30
0.0
 10
106.1606173779737
 20
-117.4910196646377
 30
0.0
 10
106.1475260151298
 20
-117.522714543102
 30
0.0
 10
106.1327121045432
 20
-117.5819701854483
 30
0.0
  0
SPLINE
  5
15A
330
135
100
AcDbEntity
  8
_U+30EC_U+30A4_U+30E4_U+30FC 1
370
     0
100
AcDbSpline
210
0.0
220
0.0
230
1.0
 70
    11
 71
     3
 72
    17
 73
    13
 74
     0
 42
0.0000000001
 43
0.0000000001
 12
1.0
 22
0.0
 32
0.0
 13
1.0
 23
0.0
 33
0.0
 40
0.0
 40
0.0
 40
0.0
 40
0.0
 40
1.0
 40
1.0
 40
1.0
 40
2.0
 40
2.0
 40
2.0
 40
3.0
 40
3.0
 40
3.0
 40
4.0
 40
4.0
 40
4.0
 40
4.0
 10
106.3159911843585
 20
-117.3830159211751
 30
0.0
 10
106.2050591097335
 20
-117.3830159211751
 30
0.0
 10
106.116175646214
 20
-117.2815578591345
 30
0.0
 10
106.116175646214
 20
-117.154606090503
 30
0.0
 10
106.116175646214
 20
-117.0276543218716
 30
0.0
 10
106.2050591097335
 20
-116.9239569477655
 30
0.0
 10
106.3159911843585
 20
-116.9239569477655
 30
0.0
 10
106.4272677685321
 20
-116.9239569477655
 30
0.0
 10
106.5178737797941
 20
-117.0276543218716
 30
0.0
 10
106.5178737797941
 20
-117.154606090503
 30
0.0
 10
106.5178737797941
 20
-117.2815578591345
 30
0.0
 10
106.4272677685321
 20
-117.3830159211751
 30
0.0
 10
106.3159911843585
 20
-117.3830159211751
 30
0.0
  0
SPLINE
  5
15B
330
135
100
AcDbEntity
  8
_U+30EC_U+30A4_U+30E4_U+30FC 1
370
     0
100
AcDbSpline
210
0.0
220
0.0
230
1.0
 70
    11
 71
     3
 72
    17
 73
    13
 74
     0
 42
0.0000000001
 43
0.0000000001
 12
1.0
 22
0.0
 32
0.0
 13
1.0
 23
0.0
 33
0.0
 40
0.0
 40
0.0
 40
0.0
 40
0.0
 40
1.0
 40
1.0
 40
1.0
 40
2.0
 40
2.0
 40
2.0
 40
3.0
 40
3.0
 40
3.0
 40
4.0
 40
4.0
 40
4.0
 40
4.0
 10
106.3142686366159
 20
-117.0529757736881
 30
0.0
 10
106.2660372998224
 20
-117.0529757736881
 30
0.0
 10
106.2271077208391
 20
-117.0974175054479
 30
0.0
 10
106.2271077208391
 20
-117.1525390332119
 30
0.0
 10
106.2271077208391
 20
-117.2095553634928
 30
0.0
 10
106.2660372998224
 20
-117.258303464609
 30
0.0
 10
106.3180582416497
 20
-117.258303464609
 30
0.0
 10
106.3697346739284
 20
-117.258303464609
 30
0.0
 10
106.4048746478779
 20
-117.2074883062016
 30
0.0
 10
106.4048746478779
 20
-117.154606090503
 30
0.0
 10
106.4048746478779
 20
-117.0974175054479
 30
0.0
 10
106.364222521152
 20
-117.0529757736881
 30
0.0
 10
106.3142686366159
 20
-117.0529757736881
 30
0.0
  0
HATCH
  5
15C
330
135
100
AcDbEntity
  8
_U+30EC_U+30A4_U+30E4_U+30FC 1
 62
   179
420
  2234388
100
AcDbHatch
 10
0.0
 20
0.0
 30
0.0
210
0.0
220
0.0
230
1.0
  2
SOLID
 70
     1
 71
     0
 91
        3
 92
        1
 93
        1
 72
     4
 94
        3
 73
     0
 74
     1
 95
       44
 96
       40
 40
0.0
 40
0.0
 40
0.0
 40
0.0
 40
1.0
 40
1.0
 40
1.0
 40
2.0
 40
2.0
 40
2.0
 40
3.0
 40
3.0
 40
3.0
 40
4.0
 40
4.0
 40
4.0
 40
5.0
 40
5.0
 40
5.0
 40
6.0
 40
6.0
 40
6.0
 40
7.0
 40
7.0
 40
7.0
 40
8.0
 40
8.0
 40
8.0
 40
9.0
 40
9.0
 40
9.0
 40
10.0
 40
10.0
 40
10.0
 40
11.0
 40
11.0
 40
11.0
 40
12.0
 40
12.0
 40
12.0
 40
13.0
 40
13.0
 40
13.0
 40
13.0
 10
106.1327121045432
 20
-117.5819701854483
 10
106.0345268832136
 20
-117.9500786380472
 10
105.9900851514539
 20
-118.108725285143
 10
105.8178303771914
 20
-118.3583224530493
 10
105.6569444180302
 20
-118.5889715957868
 10
105.4495496698182
 20
-118.7750067519903
 10
105.2049478903654
 20
-118.8681965848663
 10
105.2049478903654
 20
-118.8681965848663
 10
105.0364827211367
 20
-118.6883626005363
 10
105.0364827211367
 20
-118.6883626005363
 10
105.5976887756839
 20
-118.5360893800882
 10
105.8863877773478
 20
-117.9797064592204
 10
105.9421983242089
 20
-117.5395955109797
 10
105.9421983242089
 20
-117.5395955109797
 10
105.2717827427793
 20
-117.5395955109797
 10
105.2717827427793
 20
-117.5395955109797
 10
105.1901339797789
 20
-117.5395955109797
 10
105.0292480206177
 20
-117.5439018803363
 10
104.8921332203047
 20
-117.5628499055051
 10
104.8921332203047
 20
-117.5628499055051
 10
104.8921332203047
 20
-117.3428805587719
 10
104.8921332203047
 20
-117.3428805587719
 10
104.9679253209802
 20
-117.3640678960062
 10
105.1884114320362
 20
-117.3640678960062
 10
105.2752278382645
 20
-117.3640678960062
 10
105.2752278382645
 20
-117.3640678960062
 10
105.6531548129964
 20
-117.3640678960062
 10
105.6531548129964
 20
-117.3640678960062
 10
105.6900173346886
 20
-117.3640678960062
 10
105.895689535158
 20
-117.3618285839408
 10
105.929106961365
 20
-117.3556274120673
 10
105.9659694830571
 20
-117.3492539854196
 10
105.9680365403483
 20
-117.3471869281285
 10
106.0217800299182
 20
-117.3068793109511
 10
106.0217800299182
 20
-117.3068793109511
 10
106.1864555941131
 20
-117.4613918434645
 10
106.1864555941131
 20
-117.4613918434645
 10
106.1606173779737
 20
-117.4910196646377
 10
106.1475260151298
 20
-117.522714543102
 10
106.1327121045432
 20
-117.5819701854483
 97
        0
 97
        0
 92
        1
 93
        1
 72
     4
 94
        3
 73
     0
 74
     1
 95
       17
 96
       13
 40
0.0
 40
0.0
 40
0.0
 40
0.0
 40
1.0
 40
1.0
 40
1.0
 40
2.0
 40
2.0
 40
2.0
 40
3.0
 40
3.0
 40
3.0
 40
4.0
 40
4.0
 40
4.0
 40
4.0
 10
106.3159911843585
 20
-117.3830159211751
 10
106.2050591097335
 20
-117.3830159211751
 10
106.116175646214
 20
-117.2815578591345
 10
106.116175646214
 20
-117.154606090503
 10
106.116175646214
 20
-117.0276543218716
 10
106.2050591097335
 20
-116.9239569477655
 10
106.3159911843585
 20
-116.9239569477655
 10
106.4272677685321
 20
-116.9239569477655
 10
106.5178737797941
 20
-117.0276543218716
 10
106.5178737797941
 20
-117.154606090503
 10
106.5178737797941
 20
-117.2815578591345
 10
106.4272677685321
 20
-117.3830159211751
 10
106.3159911843585
 20
-117.3830159211751
 97
        0
 97
        0
 92
        1
 93
        1
 72
     4
 94
        3
 73
     0
 74
     1
 95
       17
 96
       13
 40
0.0
 40
0.0
 40
0.0
 40
0.0
 40
1.0
 40
1.0
 40
1.0
 40
2.0
 40
2.0
 40
2.0
 40
3.0
 40
3.0
 40
3.0
 40
4.0
 40
4.0
 40
4.0
 40
4.0
 10
106.3142686366159
 20
-117.0529757736881
 10
106.2660372998224
 20
-117.0529757736881
 10
106.2271077208391
 20
-117.0974175054479
 10
106.2271077208391
 20
-117.1525390332119
 10
106.2271077208391
 20
-117.2095553634928
 10
106.2660372998224
 20
-117.258303464609
 10
106.3180582416497
 20
-117.258303464609
 10
106.3697346739284
 20
-117.258303464609
 10
106.4048746478779
 20
-117.2074883062016
 10
106.4048746478779
 20
-117.154606090503
 10
106.4048746478779
 20
-117.0974175054479
 10
106.364222521152
 20
-117.0529757736881
 10
106.3142686366159
 20
-117.0529757736881
 97
        0
 97
        0
 75
     2
 76
     1
 98
        0
  0
ENDBLK
  5
138
330
135
100
AcDbEntity
  8
0
100
AcDbBlockEnd
  0
ENDSEC
  0
SECTION
  2
ENTITIES
  0
POLYLINE
  5
41
330
1F
100
AcDbEntity
  8
_U+30EC_U+30A4_U+30E4_U+30FC 1
 62
   179
420
  2234388
370
    25
100
AcDb2dPolyline
 66
     1
 10
0.0
 20
0.0
 30
0.0
  0
VERTEX
  5
42
330
41
100
AcDbEntity
  8
_U+30EC_U+30A4_U+30E4_U+30FC 1
 62
   179
420
  2234388
370
    25
100
AcDbVertex
100
AcDb2dVertex
 10
95.10359719844602
 20
-147.1407182965482
 30
0.0
  0
VERTEX
  5
43
330
41
100
AcDbEntity
  8
_U+30EC_U+30A4_U+30E4_U+30FC 1
 62
   179
420
  2234388
370
    25
100
AcDbVertex
100
AcDb2dVertex
 10
113.103163225609
 20
-147.1407182965482
 30
0.0
  0
SEQEND
  5
44
330
41
100
AcDbEntity
  8
_U+30EC_U+30A4_U+30E4_U+30FC 1
 62
   179
420
  2234388
370
    25
  0
POLYLINE
  5
45
330
1F
100
AcDbEntity
  8
_U+30EC_U+30A4_U+30E4_U+30FC 1
 62
   179
420
  2234388
370
    25
100
AcDb2dPolyline
 66
     1
 10
0.0
 20
0.0
 30
0.0
  0
VERTEX
  5
46
330
45
100
AcDbEntity
  8
_U+30EC_U+30A4_U+30E4_U+30FC 1
 62
   179
420
  2234388
370
    25
100
AcDbVertex
100
AcDb2dVertex
 10
113.103163225609
 20
-147.1407182965482
 30
0.0
  0
VERTEX
  5
47
330
45
100
AcDbEntity
  8
_U+30EC_U+30A4_U+30E4_U+30FC 1
 62
   179
420
  2234388
370
    25
100
AcDbVertex
100
AcDb2dVertex
 10
113.103163225609
 20
-147.5410505186703
 30
0.0
  0
SEQEND
  5
48
330
45
100
AcDbEntity
  8
_U+30EC_U+30A4_U+30E4_U+30FC 1
 62
   179
420
  2234388
370
    25
  0
POLYLINE
  5
49
330
1F
100
AcDbEntity
  8
_U+30EC_U+30A4_U+30E4_U+30FC 1
 62
   179
420
  2234388
370
    25
100
AcDb2dPolyline
 66
     1
 10
0.0
 20
0.0
 30
0.0
  0
VERTEX
  5
4A
330
49
100
AcDbEntity
  8
_U+30EC_U+30A4_U+30E4_U+30FC 1
 62
   179
420
  2234388
370
    25
100
AcDbVertex
100
AcDb2dVertex
 10
76.30301109203549
 20
-110.340739694637
 30
0.0
  0
VERTEX
  5
4B
330
49
100
AcDbEntity
  8
_U+30EC_U+30A4_U+30E4_U+30FC 1
 62
   179
420
  2234388
370
    25
100
AcDbVertex
100
AcDb2dVertex
 10
75.90338250798783
 20
-110.340739694637
 30
0.0
  0
SEQEND
  5
4C
330
49
100
AcDbEntity
  8
_U+30EC_U+30A4_U+30E4_U+30FC 1
 62
   179
420
  2234388
370
    25
  0
POLYLINE
  5
4D
330
1F
100
AcDbEntity
  8
_U+30EC_U+30A4_U+30E4_U+30FC 1
 62
   179
420
  2234388
370
    25
100
AcDb2dPolyline
 66
     1
 10
0.0
 20
0.0
 30
0.0
  0
VERTEX
  5
4E
330
4D
100
AcDbEntity
  8
_U+30EC_U+30A4_U+30E4_U+30FC 1
 62
   179
420
  2234388
370
    25
100
AcDbVertex
100
AcDb2dVertex
 10
76.30301109203549
 20
-128.3406613568037
 30
0.0
  0
VERTEX
  5
4F
330
4D
100
AcDbEntity
  8
_U+30EC_U+30A4_U+30E4_U+30FC 1
 62
   179
420
  2234388
370
    25
100
AcDbVertex
100
AcDb2dVertex
 10
76.30301109203549
 20
-110.340739694637
 30
0.0
  0
SEQEND
  5
50
330
4D
100
AcDbEntity
  8
_U+30EC_U+30A4_U+30E4_U+30FC 1
 62
   179
420
  2234388
370
    25
  0
POLYLINE
  5
51
330
1F
100
AcDbEntity
  8
_U+30EC_U+30A4_U+30E4_U+30FC 1
 62
   179
420
  2234388
370
     9
100
AcDb2dPolyline
 66
     1
 10
0.0
 20
0.0
 30
0.0
  0
VERTEX
  5
52
330
51
100
AcDbEntity
  8
_U+30EC_U+30A4_U+30E4_U+30FC 1
 62
   179
420
  2234388
370
     9
100
AcDbVertex
100
AcDb2dVertex
 10
80.46088322504963
 20
-143.3490627419407
 30
0.0
  0
VERTEX
  5
53
330
51
100
AcDbEntity
  8
_U+30EC_U+30A4_U+30E4_U+30FC 1
 62
   179
420
  2234388
370
     9
100
AcDbVertex
100
AcDb2dVertex
 10
80.96112210117636
 20
-142.4829580199346
 30
0.0
  0
SEQEND
  5
54
330
51
100
AcDbEntity
  8
_U+30EC_U+30A4_U+30E4_U+30FC 1
 62
   179
420
  2234388
370
     9
  0
POLYLINE
  5
55
330
1F
100
AcDbEntity
  8
_U+30EC_U+30A4_U+30E4_U+30FC 1
 62
   179
420
  2234388
370
     9
100
AcDb2dPolyline
 66
     1
 10
0.0
 20
0.0
 30
0.0
  0
VERTEX
  5
56
330
55
100
AcDbEntity
  8
_U+30EC_U+30A4_U+30E4_U+30FC 1
 62
   179
420
  2234388
370
     9
100
AcDbVertex
100
AcDb2dVertex
 10
80.09501942442076
 20
-142.9831616309208
 30
0.0
  0
VERTEX
  5
57
330
55
100
AcDbEntity
  8
_U+30EC_U+30A4_U+30E4_U+30FC 1
 62
   179
420
  2234388
370
     9
100
AcDbVertex
100
AcDb2dVertex
 10
80.96112210117636
 20
-142.4829580199346
 30
0.0
  0
SEQEND
  5
58
330
55
100
AcDbEntity
  8
_U+30EC_U+30A4_U+30E4_U+30FC 1
 62
   179
420
  2234388
370
     9
  0
POLYLINE
  5
59
330
1F
100
AcDbEntity
  8
_U+30EC_U+30A4_U+30E4_U+30FC 1
 62
   179
420
  2234388
370
     9
100
AcDb2dPolyline
 66
     1
 10
0.0
 20
0.0
 30
0.0
  0
VERTEX
  5
5A
330
59
100
AcDbEntity
  8
_U+30EC_U+30A4_U+30E4_U+30FC 1
 62
   179
420
  2234388
370
     9
100
AcDbVertex
100
AcDb2dVertex
 10
71.1029942971226
 20
-152.3407332952483
 30
0.0
  0
VERTEX
  5
5B
330
59
100
AcDbEntity
  8
_U+30EC_U+30A4_U+30E4_U+30FC 1
 62
   179
420
  2234388
370
     9
100
AcDbVertex
100
AcDb2dVertex
 10
80.96112210117636
 20
-142.4829580199346
 30
0.0
  0
SEQEND
  5
5C
330
59
100
AcDbEntity
  8
_U+30EC_U+30A4_U+30E4_U+30FC 1
 62
   179
420
  2234388
370
     9
  0
POLYLINE
  5
5D
330
1F
100
AcDbEntity
  8
_U+30EC_U+30A4_U+30E4_U+30FC 1
 62
   179
420
  2234388
370
     9
100
AcDb2dPolyline
 66
     1
 10
0.0
 20
0.0
 30
0.0
  0
VERTEX
  5
5E
330
5D
100
AcDbEntity
  8
_U+30EC_U+30A4_U+30E4_U+30FC 1
 62
   179
420
  2234388
370
     9
100
AcDbVertex
100
AcDb2dVertex
 10
65.93741054001873
 20
-152.3407332952483
 30
0.0
  0
VERTEX
  5
5F
330
5D
100
AcDbEntity
  8
_U+30EC_U+30A4_U+30E4_U+30FC 1
 62
   179
420
  2234388
370
     9
100
AcDbVertex
100
AcDb2dVertex
 10
71.1029942971226
 20
-152.3407332952483
 30
0.0
  0
SEQEND
  5
60
330
5D
100
AcDbEntity
  8
_U+30EC_U+30A4_U+30E4_U+30FC 1
 62
   179
420
  2234388
370
     9
  0
POLYLINE
  5
61
330
1F
100
AcDbEntity
  8
_U+30EC_U+30A4_U+30E4_U+30FC 1
 62
   179
420
  2234388
370
    25
100
AcDb2dPolyline
 66
     1
 10
0.0
 20
0.0
 30
0.0
  0
VERTEX
  5
62
330
61
100
AcDbEntity
  8
_U+30EC_U+30A4_U+30E4_U+30FC 1
 62
   179
420
  2234388
370
    25
100
AcDbVertex
100
AcDb2dVertex
 10
113.103163225609
 20
-147.5410505186703
 30
0.0
  0
VERTEX
  5
63
330
61
100
AcDbEntity
  8
_U+30EC_U+30A4_U+30E4_U+30FC 1
 62
   179
420
  2234388
370
    25
100
AcDbVertex
100
AcDb2dVertex
 10
96.01411664266288
 20
-148.3203013518087
 30
0.0
  0
SEQEND
  5
64
330
61
100
AcDbEntity
  8
_U+30EC_U+30A4_U+30E4_U+30FC 1
 62
   179
420
  2234388
370
    25
  0
POLYLINE
  5
65
330
1F
100
AcDbEntity
  8
_U+30EC_U+30A4_U+30E4_U+30FC 1
 62
   179
420
  2234388
370
    25
100
AcDb2dPolyline
 66
     1
 10
0.0
 20
0.0
 30
0.0
  0
VERTEX
  5
66
330
65
100
AcDbEntity
  8
_U+30EC_U+30A4_U+30E4_U+30FC 1
 62
   179
420
  2234388
370
    25
100
AcDbVertex
100
AcDb2dVertex
 10
75.90338250798783
 20
-110.340739694637
 30
0.0
  0
VERTEX
  5
67
330
65
100
AcDbEntity
  8
_U+30EC_U+30A4_U+30E4_U+30FC 1
 62
   179
420
  2234388
370
    25
100
AcDbVertex
100
AcDb2dVertex
 10
75.12427280564235
 20
-127.4297891348094
 30
0.0
  0
SEQEND
  5
68
330
65
100
AcDbEntity
  8
_U+30EC_U+30A4_U+30E4_U+30FC 1
 62
   179
420
  2234388
370
    25
  0
SPLINE
  5
69
330
1F
100
AcDbEntity
  8
_U+30EC_U+30A4_U+30E4_U+30FC 1
 62
   179
420
  2234388
370
     9
100
AcDbSpline
210
0.0
220
0.0
230
1.0
 70
    11
 71
     3
 72
    17
 73
    13
 74
     0
 42
0.0000000001
 43
0.0000000001
 12
1.0
 22
0.0
 32
0.0
 13
1.0
 23
0.0
 33
0.0
 40
0.0
 40
0.0
 40
0.0
 40
0.0
 40
1.0
 40
1.0
 40
1.0
 40
2.0
 40
2.0
 40
2.0
 40
3.0
 40
3.0
 40
3.0
 40
4.0
 40
4.0
 40
4.0
 40
4.0
 10
115.3452423350755
 20
-147.1407182965482
 30
0.0
 10
115.3452423350755
 20
-147.0855791298951
 30
0.0
 10
115.3004395584407
 20
-147.0408116299066
 30
0.0
 10
115.2453356709577
 20
-147.0408116299066
 30
0.0
 10
115.189526227937
 20
-147.0408116299066
 30
0.0
 10
115.1447234513023
 20
-147.0855791298951
 30
0.0
 10
115.1447234513023
 20
-147.1407182965482
 30
0.0
 10
115.1447234513023
 20
-147.1958221854231
 30
0.0
 10
115.189526227937
 20
-147.2406249631898
 30
0.0
 10
115.2453356709577
 20
-147.2406249631898
 30
0.0
 10
115.3004395584407
 20
-147.2406249631898
 30
0.0
 10
115.3452423350755
 20
-147.1958221854231
 30
0.0
 10
115.3452423350755
 20
-147.1407182965482
 30
0.0
  0
SPLINE
  5
6A
330
1F
100
AcDbEntity
  8
_U+30EC_U+30A4_U+30E4_U+30FC 1
 62
   179
420
  2234388
370
     9
100
AcDbSpline
210
0.0
220
0.0
230
1.0
 70
    11
 71
     3
 72
    17
 73
    13
 74
     0
 42
0.0000000001
 43
0.0000000001
 12
1.0
 22
0.0
 32
0.0
 13
1.0
 23
0.0
 33
0.0
 40
0.0
 40
0.0
 40
0.0
 40
0.0
 40
1.0
 40
1.0
 40
1.0
 40
2.0
 40
2.0
 40
2.0
 40
3.0
 40
3.0
 40
3.0
 40
4.0
 40
4.0
 40
4.0
 40
4.0
 10
115.3452423350755
 20
-147.5410505186703
 30
0.0
 10
115.3452423350755
 20
-147.4859113520172
 30
0.0
 10
115.3004395584407
 20
-147.4411438520287
 30
0.0
 10
115.2453356709577
 20
-147.4411438520287
 30
0.0
 10
115.189526227937
 20
-147.4411438520287
 30
0.0
 10
115.1447234513023
 20
-147.4859113520172
 30
0.0
 10
115.1447234513023
 20
-147.5410505186703
 30
0.0
 10
115.1447234513023
 20
-147.5961544075452
 30
0.0
 10
115.189526227937
 20
-147.6409571853119
 30
0.0
 10
115.2453356709577
 20
-147.6409571853119
 30
0.0
 10
115.3004395584407
 20
-147.6409571853119
 30
0.0
 10
115.3452423350755
 20
-147.5961544075452
 30
0.0
 10
115.3452423350755
 20
-147.5410505186703
 30
0.0
  0
SPLINE
  5
6B
330
1F
100
AcDbEntity
  8
_U+30EC_U+30A4_U+30E4_U+30FC 1
 62
   179
420
  2234388
370
     9
100
AcDbSpline
210
0.0
220
0.0
230
1.0
 70
    11
 71
     3
 72
    17
 73
    13
 74
     0
 42
0.0000000001
 43
0.0000000001
 12
1.0
 22
0.0
 32
0.0
 13
1.0
 23
0.0
 33
0.0
 40
0.0
 40
0.0
 40
0.0
 40
0.0
 40
1.0
 40
1.0
 40
1.0
 40
2.0
 40
2.0
 40
2.0
 40
3.0
 40
3.0
 40
3.0
 40
4.0
 40
4.0
 40
4.0
 40
4.0
 10
113.2030698897269
 20
-152.3407332952483
 30
0.0
 10
113.2030698897269
 20
-152.2856294063733
 30
0.0
 10
113.158302390869
 20
-152.2408266286066
 30
0.0
 10
113.103163225609
 20
-152.2408266286066
 30
0.0
 10
113.048059338126
 20
-152.2408266286066
 30
0.0
 10
113.0032565614912
 20
-152.2856294063733
 30
0.0
 10
113.0032565614912
 20
-152.3407332952483
 30
0.0
 10
113.0032565614912
 20
-152.3958724619013
 30
0.0
 10
113.048059338126
 20
-152.4406399618899
 30
0.0
 10
113.103163225609
 20
-152.4406399618899
 30
0.0
 10
113.158302390869
 20
-152.4406399618899
 30
0.0
 10
113.2030698897269
 20
-152.3958724619013
 30
0.0
 10
113.2030698897269
 20
-152.3407332952483
 30
0.0
  0
SPLINE
  5
6C
330
1F
100
AcDbEntity
  8
_U+30EC_U+30A4_U+30E4_U+30FC 1
 62
   179
420
  2234388
370
     9
100
AcDbSpline
210
0.0
220
0.0
230
1.0
 70
    11
 71
     3
 72
    17
 73
    13
 74
     0
 42
0.0000000001
 43
0.0000000001
 12
1.0
 22
0.0
 32
0.0
 13
1.0
 23
0.0
 33
0.0
 40
0.0
 40
0.0
 40
0.0
 40
0.0
 40
1.0
 40
1.0
 40
1.0
 40
2.0
 40
2.0
 40
2.0
 40
3.0
 40
3.0
 40
3.0
 40
4.0
 40
4.0
 40
4.0
 40
4.0
 10
75.20350669250982
 20
-152.3407332952483
 30
0.0
 10
75.20350669250982
 20
-152.2856294063733
 30
0.0
 10
75.15870391587505
 20
-152.2408266286066
 30
0.0
 10
75.1032472506232
 20
-152.2408266286066
 30
0.0
 10
75.04814336314013
 20
-152.2408266286066
 30
0.0
 10
75.00334058650537
 20
-152.2856294063733
 30
0.0
 10
75.00334058650537
 20
-152.3407332952483
 30
0.0
 10
75.00334058650537
 20
-152.3958724619013
 30
0.0
 10
75.04814336314013
 20
-152.4406399618899
 30
0.0
 10
75.1032472506232
 20
-152.4406399618899
 30
0.0
 10
75.15870391587505
 20
-152.4406399618899
 30
0.0
 10
75.20350669250982
 20
-152.3958724619013
 30
0.0
 10
75.20350669250982
 20
-152.3407332952483
 30
0.0
  0
SPLINE
  5
6D
330
1F
100
AcDbEntity
  8
_U+30EC_U+30A4_U+30E4_U+30FC 1
 62
   179
420
  2234388
370
     9
100
AcDbSpline
210
0.0
220
0.0
230
1.0
 70
    11
 71
     3
 72
    17
 73
    13
 74
     0
 42
0.0000000001
 43
0.0000000001
 12
1.0
 22
0.0
 32
0.0
 13
1.0
 23
0.0
 33
0.0
 40
0.0
 40
0.0
 40
0.0
 40
0.0
 40
1.0
 40
1.0
 40
1.0
 40
2.0
 40
2.0
 40
2.0
 40
3.0
 40
3.0
 40
3.0
 40
4.0
 40
4.0
 40
4.0
 40
4.0
 10
76.00328917210567
 20
-106.3406277511927
 30
0.0
 10
76.00328917210567
 20
-106.2854885845396
 30
0.0
 10
75.9584863954709
 20
-106.240721084551
 30
0.0
 10
75.90338250798783
 20
-106.240721084551
 30
0.0
 10
75.84792775881594
 20
-106.240721084551
 30
0.0
 10
75.80312498104922
 20
-106.2854885845396
 30
0.0
 10
75.80312498104922
 20
-106.3406277511927
 30
0.0
 10
75.80312498104922
 20
-106.3960844178453
 30
0.0
 10
75.84792775881594
 20
-106.4408871956121
 30
0.0
 10
75.90338250798783
 20
-106.4408871956121
 30
0.0
 10
75.9584863954709
 20
-106.4408871956121
 30
0.0
 10
76.00328917210567
 20
-106.3960844178453
 30
0.0
 10
76.00328917210567
 20
-106.3406277511927
 30
0.0
  0
SPLINE
  5
6E
330
1F
100
AcDbEntity
  8
_U+30EC_U+30A4_U+30E4_U+30FC 1
 62
   179
420
  2234388
370
     9
100
AcDbSpline
210
0.0
220
0.0
230
1.0
 70
    11
 71
     3
 72
    17
 73
    13
 74
     0
 42
0.0000000001
 43
0.0000000001
 12
1.0
 22
0.0
 32
0.0
 13
1.0
 23
0.0
 33
0.0
 40
0.0
 40
0.0
 40
0.0
 40
0.0
 40
1.0
 40
1.0
 40
1.0
 40
2.0
 40
2.0
 40
2.0
 40
3.0
 40
3.0
 40
3.0
 40
4.0
 40
4.0
 40
4.0
 40
4.0
 10
76.40326860634579
 20
-106.3406277511927
 30
0.0
 10
76.40326860634579
 20
-106.2854885845396
 30
0.0
 10
76.35846582971102
 20
-106.240721084551
 30
0.0
 10
76.30301109203549
 20
-106.240721084551
 30
0.0
 10
76.24786999919922
 20
-106.240721084551
 30
0.0
 10
76.20310250034133
 20
-106.2854885845396
 30
0.0
 10
76.20310250034133
 20
-106.3406277511927
 30
0.0
 10
76.20310250034133
 20
-106.3960844178453
 30
0.0
 10
76.24786999919922
 20
-106.4408871956121
 30
0.0
 10
76.30301109203549
 20
-106.4408871956121
 30
0.0
 10
76.35846582971102
 20
-106.4408871956121
 30
0.0
 10
76.40326860634579
 20
-106.3960844178453
 30
0.0
 10
76.40326860634579
 20
-106.3406277511927
 30
0.0
  0
SPLINE
  5
6F
330
1F
100
AcDbEntity
  8
_U+30EC_U+30A4_U+30E4_U+30FC 1
 62
   179
420
  2234388
370
     9
100
AcDbSpline
210
0.0
220
0.0
230
1.0
 70
    11
 71
     3
 72
    17
 73
    13
 74
     0
 42
0.0000000001
 43
0.0000000001
 12
1.0
 22
0.0
 32
0.0
 13
1.0
 23
0.0
 33
0.0
 40
0.0
 40
0.0
 40
0.0
 40
0.0
 40
1.0
 40
1.0
 40
1.0
 40
2.0
 40
2.0
 40
2.0
 40
3.0
 40
3.0
 40
3.0
 40
4.0
 40
4.0
 40
4.0
 40
4.0
 10
71.20304207234796
 20
-110.340739694637
 30
0.0
 10
71.20304207234796
 20
-110.2856005279842
 30
0.0
 10
71.15862735125884
 20
-110.2408330279954
 30
0.0
 10
71.1029942971226
 20
-110.2408330279954
 30
0.0
 10
71.04785513186265
 20
-110.2408330279954
 30
0.0
 10
71.00308763300477
 20
-110.2856005279842
 30
0.0
 10
71.00308763300477
 20
-110.340739694637
 30
0.0
 10
71.00308763300477
 20
-110.39619636129
 30
0.0
 10
71.04785513186265
 20
-110.4409638612785
 30
0.0
 10
71.1029942971226
 20
-110.4409638612785
 30
0.0
 10
71.15862735125884
 20
-110.4409638612785
 30
0.0
 10
71.20304207234796
 20
-110.39619636129
 30
0.0
 10
71.20304207234796
 20
-110.340739694637
 30
0.0
  0
SPLINE
  5
70
330
1F
100
AcDbEntity
  8
_U+30EC_U+30A4_U+30E4_U+30FC 1
 62
   179
420
  2234388
370
     9
100
AcDbSpline
210
0.0
220
0.0
230
1.0
 70
    11
 71
     3
 72
    17
 73
    13
 74
     0
 42
0.0000000001
 43
0.0000000001
 12
1.0
 22
0.0
 32
0.0
 13
1.0
 23
0.0
 33
0.0
 40
0.0
 40
0.0
 40
0.0
 40
0.0
 40
1.0
 40
1.0
 40
1.0
 40
2.0
 40
2.0
 40
2.0
 40
3.0
 40
3.0
 40
3.0
 40
4.0
 40
4.0
 40
4.0
 40
4.0
 10
71.20304207234796
 20
-148.3409741295814
 30
0.0
 10
71.20304207234796
 20
-148.2858702407065
 30
0.0
 10
71.15862735125884
 20
-148.2410674629398
 30
0.0
 10
71.1029942971226
 20
-148.2410674629398
 30
0.0
 10
71.04785513186265
 20
-148.2410674629398
 30
0.0
 10
71.00308763300477
 20
-148.2858702407065
 30
0.0
 10
71.00308763300477
 20
-148.3409741295814
 30
0.0
 10
71.00308763300477
 20
-148.3961132962345
 30
0.0
 10
71.04785513186265
 20
-148.440880796223
 30
0.0
 10
71.1029942971226
 20
-148.440880796223
 30
0.0
 10
71.15862735125884
 20
-148.440880796223
 30
0.0
 10
71.20304207234796
 20
-148.3961132962345
 30
0.0
 10
71.20304207234796
 20
-148.3409741295814
 30
0.0
  0
SPLINE
  5
71
330
1F
100
AcDbEntity
  8
_U+30EC_U+30A4_U+30E4_U+30FC 1
 62
   179
420
  2234388
370
    25
100
AcDbSpline
210
0.0
220
0.0
230
1.0
 70
     8
 71
     3
 72
    11
 73
     7
 74
     0
 42
0.0000000001
 43
0.0000000001
 12
1.0
 22
0.0
 32
0.0
 13
1.0
 23
0.0
 33
0.0
 40
0.0
 40
0.0
 40
0.0
 40
0.0
 40
1.0
 40
1.0
 40
1.0
 40
2.0
 40
2.0
 40
2.0
 40
2.0
 10
75.12427280564235
 20
-127.4297891348094
 30
0.0
 10
74.62092948515037
 20
-138.4639019098286
 30
0.0
 10
83.15772815624739
 20
-147.8166405186012
 30
0.0
 10
94.19201942089651
 20
-148.3203013518087
 30
0.0
 10
94.79904174814162
 20
-148.347888574024
 30
0.0
 10
95.4070895104068
 20
-148.347888574024
 30
0.0
 10
96.01411664266288
 20
-148.3203013518087
 30
0.0
  0
SPLINE
  5
72
330
1F
100
AcDbEntity
  8
_U+30EC_U+30A4_U+30E4_U+30FC 1
 62
   179
420
  2234388
370
    25
100
AcDbSpline
210
0.0
220
0.0
230
1.0
 70
     8
 71
     3
 72
     8
 73
     4
 74
     0
 42
0.0000000001
 43
0.0000000001
 12
1.0
 22
0.0
 32
0.0
 13
1.0
 23
0.0
 33
0.0
 40
0.0
 40
0.0
 40
0.0
 40
0.0
 40
1.0
 40
1.0
 40
1.0
 40
1.0
 10
76.30301109203549
 20
-128.3406613568037
 30
0.0
 10
76.30301109203549
 20
-138.7236521875416
 30
0.0
 10
84.72007506083304
 20
-147.1407182965482
 30
0.0
 10
95.10359719844602
 20
-147.1407182965482
 30
0.0
  0
INSERT
  5
74
330
1F
100
AcDbEntity
  8
_U+30EC_U+30A4_U+30E4_U+30FC 1
100
AcDbBlockReference
  2
block 2
 10
0.0
 20
0.0
 30
0.0
  0
POLYLINE
  5
7F
330
1F
100
AcDbEntity
  8
_U+30EC_U+30A4_U+30E4_U+30FC 1
 62
   179
420
  2234388
370
     9
100
AcDb2dPolyline
 66
     1
 10
0.0
 20
0.0
 30
0.0
  0
VERTEX
  5
80
330
7F
100
AcDbEntity
  8
_U+30EC_U+30A4_U+30E4_U+30FC 1
 62
   179
420
  2234388
370
     9
100
AcDbVertex
100
AcDb2dVertex
 10
115.2453356709577
 20
-147.1407182965482
 30
0.0
  0
VERTEX
  5
81
330
7F
100
AcDbEntity
  8
_U+30EC_U+30A4_U+30E4_U+30FC 1
 62
   179
420
  2234388
370
     9
100
AcDbVertex
100
AcDb2dVertex
 10
115.2453356709577
 20
-141.8828124645293
 30
0.0
  0
SEQEND
  5
82
330
7F
100
AcDbEntity
  8
_U+30EC_U+30A4_U+30E4_U+30FC 1
 62
   179
420
  2234388
370
     9
  0
POLYLINE
  5
83
330
1F
100
AcDbEntity
  8
_U+30EC_U+30A4_U+30E4_U+30FC 1
 62
   179
420
  2234388
370
     9
100
AcDb2dPolyline
 66
     1
 10
0.0
 20
0.0
 30
0.0
  0
VERTEX
  5
84
330
83
100
AcDbEntity
  8
_U+30EC_U+30A4_U+30E4_U+30FC 1
 62
   179
420
  2234388
370
     9
100
AcDbVertex
100
AcDb2dVertex
 10
115.2453356709577
 20
-147.1407182965482
 30
0.0
  0
VERTEX
  5
85
330
83
100
AcDbEntity
  8
_U+30EC_U+30A4_U+30E4_U+30FC 1
 62
   179
420
  2234388
370
     9
100
AcDbVertex
100
AcDb2dVertex
 10
115.2453356709577
 20
-148.5407874628647
 30
0.0
  0
SEQEND
  5
86
330
83
100
AcDbEntity
  8
_U+30EC_U+30A4_U+30E4_U+30FC 1
 62
   179
420
  2234388
370
     9
  0
POLYLINE
  5
87
330
1F
100
AcDbEntity
  8
_U+30EC_U+30A4_U+30E4_U+30FC 1
 62
   179
420
  2234388
370
     9
100
AcDb2dPolyline
 66
     1
 10
0.0
 20
0.0
 30
0.0
  0
VERTEX
  5
88
330
87
100
AcDbEntity
  8
_U+30EC_U+30A4_U+30E4_U+30FC 1
 62
   179
420
  2234388
370
     9
100
AcDbVertex
100
AcDb2dVertex
 10
113.7852971937756
 20
-147.1407182965482
 30
0.0
  0
VERTEX
  5
89
330
87
100
AcDbEntity
  8
_U+30EC_U+30A4_U+30E4_U+30FC 1
 62
   179
420
  2234388
370
     9
100
AcDbVertex
100
AcDb2dVertex
 10
116.2451078676736
 20
-147.1407182965482
 30
0.0
  0
SEQEND
  5
8A
330
87
100
AcDbEntity
  8
_U+30EC_U+30A4_U+30E4_U+30FC 1
 62
   179
420
  2234388
370
     9
  0
POLYLINE
  5
8B
330
1F
100
AcDbEntity
  8
_U+30EC_U+30A4_U+30E4_U+30FC 1
 62
   179
420
  2234388
370
     9
100
AcDb2dPolyline
 66
     1
 10
0.0
 20
0.0
 30
0.0
  0
VERTEX
  5
8C
330
8B
100
AcDbEntity
  8
_U+30EC_U+30A4_U+30E4_U+30FC 1
 62
   179
420
  2234388
370
     9
100
AcDbVertex
100
AcDb2dVertex
 10
113.7852971937756
 20
-147.5410505186703
 30
0.0
  0
VERTEX
  5
8D
330
8B
100
AcDbEntity
  8
_U+30EC_U+30A4_U+30E4_U+30FC 1
 62
   179
420
  2234388
370
     9
100
AcDbVertex
100
AcDb2dVertex
 10
116.2451078676736
 20
-147.5410505186703
 30
0.0
  0
SEQEND
  5
8E
330
8B
100
AcDbEntity
  8
_U+30EC_U+30A4_U+30E4_U+30FC 1
 62
   179
420
  2234388
370
     9
  0
INSERT
  5
90
330
1F
100
AcDbEntity
  8
_U+30EC_U+30A4_U+30E4_U+30FC 1
100
AcDbBlockReference
  2
block 3
 10
0.0
 20
0.0
 30
0.0
  0
POLYLINE
  5
B3
330
1F
100
AcDbEntity
  8
_U+30EC_U+30A4_U+30E4_U+30FC 1
 62
   179
420
  2234388
370
     9
100
AcDb2dPolyline
 66
     1
 10
0.0
 20
0.0
 30
0.0
  0
VERTEX
  5
B4
330
B3
100
AcDbEntity
  8
_U+30EC_U+30A4_U+30E4_U+30FC 1
 62
   179
420
  2234388
370
     9
100
AcDbVertex
100
AcDb2dVertex
 10
76.30301109203549
 20
-106.3406277511927
 30
0.0
  0
VERTEX
  5
B5
330
B3
100
AcDbEntity
  8
_U+30EC_U+30A4_U+30E4_U+30FC 1
 62
   179
420
  2234388
370
     9
100
AcDbVertex
100
AcDb2dVertex
 10
82.56103983813684
 20
-106.3406277511927
 30
0.0
  0
SEQEND
  5
B6
330
B3
100
AcDbEntity
  8
_U+30EC_U+30A4_U+30E4_U+30FC 1
 62
   179
420
  2234388
370
     9
  0
POLYLINE
  5
B7
330
1F
100
AcDbEntity
  8
_U+30EC_U+30A4_U+30E4_U+30FC 1
 62
   179
420
  2234388
370
     9
100
AcDb2dPolyline
 66
     1
 10
0.0
 20
0.0
 30
0.0
  0
VERTEX
  5
B8
330
B7
100
AcDbEntity
  8
_U+30EC_U+30A4_U+30E4_U+30FC 1
 62
   179
420
  2234388
370
     9
100
AcDbVertex
100
AcDb2dVertex
 10
76.30301109203549
 20
-106.3406277511927
 30
0.0
  0
VERTEX
  5
B9
330
B7
100
AcDbEntity
  8
_U+30EC_U+30A4_U+30E4_U+30FC 1
 62
   179
420
  2234388
370
     9
100
AcDbVertex
100
AcDb2dVertex
 10
74.90308114461875
 20
-106.3406277511927
 30
0.0
  0
SEQEND
  5
BA
330
B7
100
AcDbEntity
  8
_U+30EC_U+30A4_U+30E4_U+30FC 1
 62
   179
420
  2234388
370
     9
  0
POLYLINE
  5
BB
330
1F
100
AcDbEntity
  8
_U+30EC_U+30A4_U+30E4_U+30FC 1
 62
   179
420
  2234388
370
     9
100
AcDb2dPolyline
 66
     1
 10
0.0
 20
0.0
 30
0.0
  0
VERTEX
  5
BC
330
BB
100
AcDbEntity
  8
_U+30EC_U+30A4_U+30E4_U+30FC 1
 62
   179
420
  2234388
370
     9
100
AcDbVertex
100
AcDb2dVertex
 10
76.30301109203549
 20
-107.8006691397164
 30
0.0
  0
VERTEX
  5
BD
330
BB
100
AcDbEntity
  8
_U+30EC_U+30A4_U+30E4_U+30FC 1
 62
   179
420
  2234388
370
     9
100
AcDbVertex
100
AcDb2dVertex
 10
76.30301109203549
 20
-105.3408555292204
 30
0.0
  0
SEQEND
  5
BE
330
BB
100
AcDbEntity
  8
_U+30EC_U+30A4_U+30E4_U+30FC 1
 62
   179
420
  2234388
370
     9
  0
POLYLINE
  5
BF
330
1F
100
AcDbEntity
  8
_U+30EC_U+30A4_U+30E4_U+30FC 1
 62
   179
420
  2234388
370
     9
100
AcDb2dPolyline
 66
     1
 10
0.0
 20
0.0
 30
0.0
  0
VERTEX
  5
C0
330
BF
100
AcDbEntity
  8
_U+30EC_U+30A4_U+30E4_U+30FC 1
 62
   179
420
  2234388
370
     9
100
AcDbVertex
100
AcDb2dVertex
 10
75.90338250798783
 20
-107.8006691397164
 30
0.0
  0
VERTEX
  5
C1
330
BF
100
AcDbEntity
  8
_U+30EC_U+30A4_U+30E4_U+30FC 1
 62
   179
420
  2234388
370
     9
100
AcDbVertex
100
AcDb2dVertex
 10
75.90338250798783
 20
-105.3408555292204
 30
0.0
  0
SEQEND
  5
C2
330
BF
100
AcDbEntity
  8
_U+30EC_U+30A4_U+30E4_U+30FC 1
 62
   179
420
  2234388
370
     9
  0
INSERT
  5
C4
330
1F
100
AcDbEntity
  8
_U+30EC_U+30A4_U+30E4_U+30FC 1
100
AcDbBlockReference
  2
block 4
 10
0.0
 20
0.0
 30
0.0
  0
POLYLINE
  5
E7
330
1F
100
AcDbEntity
  8
_U+30EC_U+30A4_U+30E4_U+30FC 1
 62
   179
420
  2234388
370
     9
100
AcDb2dPolyline
 66
     1
 10
0.0
 20
0.0
 30
0.0
  0
VERTEX
  5
E8
330
E7
100
AcDbEntity
  8
_U+30EC_U+30A4_U+30E4_U+30FC 1
 62
   179
420
  2234388
370
     9
100
AcDbVertex
100
AcDb2dVertex
 10
71.1029942971226
 20
-110.340739694637
 30
0.0
  0
VERTEX
  5
E9
330
E7
100
AcDbEntity
  8
_U+30EC_U+30A4_U+30E4_U+30FC 1
 62
   179
420
  2234388
370
     9
100
AcDbVertex
100
AcDb2dVertex
 10
71.1029942971226
 20
-148.3409741295814
 30
0.0
  0
SEQEND
  5
EA
330
E7
100
AcDbEntity
  8
_U+30EC_U+30A4_U+30E4_U+30FC 1
 62
   179
420
  2234388
370
     9
  0
POLYLINE
  5
EB
330
1F
100
AcDbEntity
  8
_U+30EC_U+30A4_U+30E4_U+30FC 1
 62
   179
420
  2234388
370
     9
100
AcDb2dPolyline
 66
     1
 10
0.0
 20
0.0
 30
0.0
  0
VERTEX
  5
EC
330
EB
100
AcDbEntity
  8
_U+30EC_U+30A4_U+30E4_U+30FC 1
 62
   179
420
  2234388
370
     9
100
AcDbVertex
100
AcDb2dVertex
 10
73.36313562835048
 20
-110.340739694637
 30
0.0
  0
VERTEX
  5
ED
330
EB
100
AcDbEntity
  8
_U+30EC_U+30A4_U+30E4_U+30FC 1
 62
   179
420
  2234388
370
     9
100
AcDbVertex
100
AcDb2dVertex
 10
70.1032221004067
 20
-110.340739694637
 30
0.0
  0
SEQEND
  5
EE
330
EB
100
AcDbEntity
  8
_U+30EC_U+30A4_U+30E4_U+30FC 1
 62
   179
420
  2234388
370
     9
  0
POLYLINE
  5
EF
330
1F
100
AcDbEntity
  8
_U+30EC_U+30A4_U+30E4_U+30FC 1
 62
   179
420
  2234388
370
     9
100
AcDb2dPolyline
 66
     1
 10
0.0
 20
0.0
 30
0.0
  0
VERTEX
  5
F0
330
EF
100
AcDbEntity
  8
_U+30EC_U+30A4_U+30E4_U+30FC 1
 62
   179
420
  2234388
370
     9
100
AcDbVertex
100
AcDb2dVertex
 10
92.56317152740564
 20
-148.3409741295814
 30
0.0
  0
VERTEX
  5
F1
330
EF
100
AcDbEntity
  8
_U+30EC_U+30A4_U+30E4_U+30FC 1
 62
   179
420
  2234388
370
     9
100
AcDbVertex
100
AcDb2dVertex
 10
70.1032221004067
 20
-148.3409741295814
 30
0.0
  0
SEQEND
  5
F2
330
EF
100
AcDbEntity
  8
_U+30EC_U+30A4_U+30E4_U+30FC 1
 62
   179
420
  2234388
370
     9
  0
INSERT
  5
F4
330
1F
100
AcDbEntity
  8
_U+30EC_U+30A4_U+30E4_U+30FC 1
100
AcDbBlockReference
  2
block 5
 10
0.0
 20
0.0
 30
0.0
  0
POLYLINE
  5
FD
330
1F
100
AcDbEntity
  8
_U+30EC_U+30A4_U+30E4_U+30FC 1
 62
   179
420
  2234388
370
     9
100
AcDb2dPolyline
 66
     1
 10
0.0
 20
0.0
 30
0.0
  0
VERTEX
  5
FE
330
FD
100
AcDbEntity
  8
_U+30EC_U+30A4_U+30E4_U+30FC 1
 62
   179
420
  2234388
370
     9
100
AcDbVertex
100
AcDb2dVertex
 10
113.103163225609
 20
-152.3407332952483
 30
0.0
  0
VERTEX
  5
FF
330
FD
100
AcDbEntity
  8
_U+30EC_U+30A4_U+30E4_U+30FC 1
 62
   179
420
  2234388
370
     9
100
AcDbVertex
100
AcDb2dVertex
 10
75.1032472506232
 20
-152.3407332952483
 30
0.0
  0
SEQEND
  5
100
330
FD
100
AcDbEntity
  8
_U+30EC_U+30A4_U+30E4_U+30FC 1
 62
   179
420
  2234388
370
     9
  0
POLYLINE
  5
101
330
1F
100
AcDbEntity
  8
_U+30EC_U+30A4_U+30E4_U+30FC 1
 62
   179
420
  2234388
370
     9
100
AcDb2dPolyline
 66
     1
 10
0.0
 20
0.0
 30
0.0
  0
VERTEX
  5
102
330
101
100
AcDbEntity
  8
_U+30EC_U+30A4_U+30E4_U+30FC 1
 62
   179
420
  2234388
370
     9
100
AcDbVertex
100
AcDb2dVertex
 10
113.103163225609
 20
-150.0807682958135
 30
0.0
  0
VERTEX
  5
103
330
101
100
AcDbEntity
  8
_U+30EC_U+30A4_U+30E4_U+30FC 1
 62
   179
420
  2234388
370
     9
100
AcDbVertex
100
AcDb2dVertex
 10
113.103163225609
 20
-153.3405055172202
 30
0.0
  0
SEQEND
  5
104
330
101
100
AcDbEntity
  8
_U+30EC_U+30A4_U+30E4_U+30FC 1
 62
   179
420
  2234388
370
     9
  0
POLYLINE
  5
105
330
1F
100
AcDbEntity
  8
_U+30EC_U+30A4_U+30E4_U+30FC 1
 62
   179
420
  2234388
370
     9
100
AcDb2dPolyline
 66
     1
 10
0.0
 20
0.0
 30
0.0
  0
VERTEX
  5
106
330
105
100
AcDbEntity
  8
_U+30EC_U+30A4_U+30E4_U+30FC 1
 62
   179
420
  2234388
370
     9
100
AcDbVertex
100
AcDb2dVertex
 10
75.1032472506232
 20
-130.8805555228354
 30
0.0
  0
VERTEX
  5
107
330
105
100
AcDbEntity
  8
_U+30EC_U+30A4_U+30E4_U+30FC 1
 62
   179
420
  2234388
370
     9
100
AcDbVertex
100
AcDb2dVertex
 10
75.1032472506232
 20
-153.3405055172202
 30
0.0
  0
SEQEND
  5
108
330
105
100
AcDbEntity
  8
_U+30EC_U+30A4_U+30E4_U+30FC 1
 62
   179
420
  2234388
370
     9
  0
INSERT
  5
10A
330
1F
100
AcDbEntity
  8
_U+30EC_U+30A4_U+30E4_U+30FC 1
100
AcDbBlockReference
  2
block 6
 10
0.0
 20
0.0
 30
0.0
  0
POLYLINE
  5
113
330
1F
100
AcDbEntity
  8
_U+30EC_U+30A4_U+30E4_U+30FC 1
  6
AI-Linetype-1
 62
   154
420
    23468
370
    25
100
AcDb2dPolyline
 66
     1
 10
0.0
 20
0.0
 30
0.0
  0
VERTEX
  5
114
330
113
100
AcDbEntity
  8
_U+30EC_U+30A4_U+30E4_U+30FC 1
  6
AI-Linetype-1
 62
   154
420
    23468
370
    25
100
AcDbVertex
100
AcDb2dVertex
 10
76.95377831452333
 20
-110.1950071946735
 30
0.0
  0
VERTEX
  5
115
330
113
100
AcDbEntity
  8
_U+30EC_U+30A4_U+30E4_U+30FC 1
  6
AI-Linetype-1
 62
   154
420
    23468
370
    25
100
AcDbVertex
100
AcDb2dVertex
 10
76.95377831452333
 20
-122.1949549694512
 30
0.0
  0
SEQEND
  5
117
330
113
100
AcDbEntity
  8
_U+30EC_U+30A4_U+30E4_U+30FC 1
  6
AI-Linetype-1
 62
   154
420
    23468
370
    25
  0
POLYLINE
  5
118
330
1F
100
AcDbEntity
  8
_U+30EC_U+30A4_U+30E4_U+30FC 1
  6
AI-Linetype-2
 62
   154
420
    23468
370
    25
100
AcDb2dPolyline
 66
     1
 10
0.0
 20
0.0
 30
0.0
  0
VERTEX
  5
119
330
118
100
AcDbEntity
  8
_U+30EC_U+30A4_U+30E4_U+30FC 1
  6
AI-Linetype-2
 62
   154
420
    23468
370
    25
100
AcDbVertex
100
AcDb2dVertex
 10
101.164528530189
 20
-146.5709116300239
 30
0.0
  0
VERTEX
  5
11A
330
118
100
AcDbEntity
  8
_U+30EC_U+30A4_U+30E4_U+30FC 1
  6
AI-Linetype-2
 62
   154
420
    23468
370
    25
100
AcDbVertex
100
AcDb2dVertex
 10
113.1645112795995
 20
-146.5709116300239
 30
0.0
  0
SEQEND
  5
11C
330
118
100
AcDbEntity
  8
_U+30EC_U+30A4_U+30E4_U+30FC 1
  6
AI-Linetype-2
 62
   154
420
    23468
370
    25
  0
POLYLINE
  5
11D
330
1F
100
AcDbEntity
  8
_U+30EC_U+30A4_U+30E4_U+30FC 1
 62
   179
420
  2234388
370
     9
100
AcDb2dPolyline
 66
     1
 10
0.0
 20
0.0
 30
0.0
  0
VERTEX
  5
11E
330
11D
100
AcDbEntity
  8
_U+30EC_U+30A4_U+30E4_U+30FC 1
 62
   179
420
  2234388
370
     9
100
AcDbVertex
100
AcDb2dVertex
 10
77.45401719065006
 20
-118.1951958037846
 30
0.0
  0
VERTEX
  5
11F
330
11D
100
AcDbEntity
  8
_U+30EC_U+30A4_U+30E4_U+30FC 1
 62
   179
420
  2234388
370
     9
100
AcDbVertex
100
AcDb2dVertex
 10
96.29316386481572
 20
-118.1951958037846
 30
0.0
  0
SEQEND
  5
120
330
11D
100
AcDbEntity
  8
_U+30EC_U+30A4_U+30E4_U+30FC 1
 62
   179
420
  2234388
370
     9
  0
POLYLINE
  5
121
330
1F
100
AcDbEntity
  8
_U+30EC_U+30A4_U+30E4_U+30FC 1
 62
   179
420
  2234388
370
     9
100
AcDb2dPolyline
 66
     1
 10
0.0
 20
0.0
 30
0.0
  0
VERTEX
  5
122
330
121
100
AcDbEntity
  8
_U+30EC_U+30A4_U+30E4_U+30FC 1
 62
   179
420
  2234388
370
     9
100
AcDbVertex
100
AcDb2dVertex
 10
77.45401719065006
 20
-118.1951958037846
 30
0.0
  0
VERTEX
  5
123
330
121
100
AcDbEntity
  8
_U+30EC_U+30A4_U+30E4_U+30FC 1
 62
   179
420
  2234388
370
     9
100
AcDbVertex
100
AcDb2dVertex
 10
78.42003053595043
 20
-117.9361158038493
 30
0.0
  0
SEQEND
  5
124
330
121
100
AcDbEntity
  8
_U+30EC_U+30A4_U+30E4_U+30FC 1
 62
   179
420
  2234388
370
     9
  0
POLYLINE
  5
125
330
1F
100
AcDbEntity
  8
_U+30EC_U+30A4_U+30E4_U+30FC 1
 62
   179
420
  2234388
370
     9
100
AcDb2dPolyline
 66
     1
 10
0.0
 20
0.0
 30
0.0
  0
VERTEX
  5
126
330
125
100
AcDbEntity
  8
_U+30EC_U+30A4_U+30E4_U+30FC 1
 62
   179
420
  2234388
370
     9
100
AcDbVertex
100
AcDb2dVertex
 10
77.45401719065006
 20
-118.1951958037846
 30
0.0
  0
VERTEX
  5
127
330
125
100
AcDbEntity
  8
_U+30EC_U+30A4_U+30E4_U+30FC 1
 62
   179
420
  2234388
370
     9
100
AcDbVertex
100
AcDb2dVertex
 10
78.42003053595043
 20
-118.4539230259422
 30
0.0
  0
SEQEND
  5
128
330
125
100
AcDbEntity
  8
_U+30EC_U+30A4_U+30E4_U+30FC 1
 62
   179
420
  2234388
370
     9
  0
POLYLINE
  5
129
330
1F
100
AcDbEntity
  8
_U+30EC_U+30A4_U+30E4_U+30FC 1
 62
   179
420
  2234388
370
     9
100
AcDb2dPolyline
 66
     1
 10
0.0
 20
0.0
 30
0.0
  0
VERTEX
  5
12A
330
129
100
AcDbEntity
  8
_U+30EC_U+30A4_U+30E4_U+30FC 1
 62
   179
420
  2234388
370
     9
100
AcDbVertex
100
AcDb2dVertex
 10
105.1642875948133
 20
-146.0706727412602
 30
0.0
  0
VERTEX
  5
12B
330
129
100
AcDbEntity
  8
_U+30EC_U+30A4_U+30E4_U+30FC 1
 62
   179
420
  2234388
370
     9
100
AcDbVertex
100
AcDb2dVertex
 10
105.4233675882036
 20
-145.1046613526125
 30
0.0
  0
SEQEND
  5
12C
330
129
100
AcDbEntity
  8
_U+30EC_U+30A4_U+30E4_U+30FC 1
 62
   179
420
  2234388
370
     9
  0
POLYLINE
  5
12D
330
1F
100
AcDbEntity
  8
_U+30EC_U+30A4_U+30E4_U+30FC 1
 62
   179
420
  2234388
370
     9
100
AcDb2dPolyline
 66
     1
 10
0.0
 20
0.0
 30
0.0
  0
VERTEX
  5
12E
330
12D
100
AcDbEntity
  8
_U+30EC_U+30A4_U+30E4_U+30FC 1
 62
   179
420
  2234388
370
     9
100
AcDbVertex
100
AcDb2dVertex
 10
105.1642875948133
 20
-146.0706727412602
 30
0.0
  0
VERTEX
  5
12F
330
12D
100
AcDbEntity
  8
_U+30EC_U+30A4_U+30E4_U+30FC 1
 62
   179
420
  2234388
370
     9
100
AcDbVertex
100
AcDb2dVertex
 10
105.1642875948133
 20
-120.8079738586869
 30
0.0
  0
SEQEND
  5
130
330
12D
100
AcDbEntity
  8
_U+30EC_U+30A4_U+30E4_U+30FC 1
 62
   179
420
  2234388
370
     9
  0
POLYLINE
  5
131
330
1F
100
AcDbEntity
  8
_U+30EC_U+30A4_U+30E4_U+30FC 1
 62
   179
420
  2234388
370
     9
100
AcDb2dPolyline
 66
     1
 10
0.0
 20
0.0
 30
0.0
  0
VERTEX
  5
132
330
131
100
AcDbEntity
  8
_U+30EC_U+30A4_U+30E4_U+30FC 1
 62
   179
420
  2234388
370
     9
100
AcDbVertex
100
AcDb2dVertex
 10
105.1642875948133
 20
-146.0706727412602
 30
0.0
  0
VERTEX
  5
133
330
131
100
AcDbEntity
  8
_U+30EC_U+30A4_U+30E4_U+30FC 1
 62
   179
420
  2234388
370
     9
100
AcDbVertex
100
AcDb2dVertex
 10
104.9059131569605
 20
-145.1046613526125
 30
0.0
  0
SEQEND
  5
134
330
131
100
AcDbEntity
  8
_U+30EC_U+30A4_U+30E4_U+30FC 1
 62
   179
420
  2234388
370
     9
  0
INSERT
  5
136
330
1F
100
AcDbEntity
  8
_U+30EC_U+30A4_U+30E4_U+30FC 1
100
AcDbBlockReference
  2
block 7
 10
0.0
 20
0.0
 30
0.0
  0
ENDSEC
  0
SECTION
  2
OBJECTS
  0
DICTIONARY
  5
C
330
0
100
AcDbDictionary
281
     1
  3
ACAD_GROUP
350
D
  3
ACAD_LAYOUT
350
1A
  3
ACAD_MATERIAL
350
3B
  3
ACAD_MLEADERSTYLE
350
15E
  3
ACAD_MLINESTYLE
350
17
  3
ACAD_PLOTSETTINGS
350
19
  3
ACAD_PLOTSTYLENAME
350
E
  3
ACAD_TABLESTYLE
350
15D
  3
ACAD_VISUALSTYLE
350
2A
  0
SUN
  5
3F
330
29
100
AcDbSun
 90
        1
290
     0
 63
     7
421
 16777215
 40
1.0
291
     1
 91
  2455826
 92
 54000000
292
     0
 70
     2
 71
   256
280
     1
  0
DICTIONARY
  5
D
102
{ACAD_REACTORS
330
C
102
}
330
C
100
AcDbDictionary
281
     1
  0
DICTIONARY
  5
1A
102
{ACAD_REACTORS
330
C
102
}
330
C
100
AcDbDictionary
281
     1
  3
Layout1
350
1E
  3
Layout2
350
26
  3
Model
350
22
  0
DICTIONARY
  5
3B
102
{ACAD_REACTORS
330
C
102
}
330
C
100
AcDbDictionary
281
     1
  3
ByBlock
350
3D
  3
ByLayer
350
3C
  3
Global
350
3E
  0
DICTIONARY
  5
15E
102
{ACAD_REACTORS
330
C
102
}
330
C
100
AcDbDictionary
281
     1
  0
DICTIONARY
  5
17
102
{ACAD_REACTORS
330
C
102
}
330
C
100
AcDbDictionary
281
     1
  3
Standard
350
18
  0
DICTIONARY
  5
19
102
{ACAD_REACTORS
330
C
102
}
330
C
100
AcDbDictionary
281
     1
  0
ACDBDICTIONARYWDFLT
  5
E
102
{ACAD_REACTORS
330
C
102
}
330
C
100
AcDbDictionary
281
     1
  3
Normal
350
F
100
AcDbDictionaryWithDefault
340
F
  0
DICTIONARY
  5
15D
102
{ACAD_REACTORS
330
C
102
}
330
C
100
AcDbDictionary
281
     1
  0
DICTIONARY
  5
2A
102
{ACAD_REACTORS
330
C
102
}
330
C
100
AcDbDictionary
281
     1
  3
2dWireframe
350
2F
  3
3D Hidden
350
31
  3
3dWireframe
350
30
  3
Basic
350
32
  3
Brighten
350
36
  3
ColorChange
350
3A
  3
Conceptual
350
34
  3
Dim
350
35
  3
Facepattern
350
39
  3
Flat
350
2B
  3
FlatWithEdges
350
2C
  3
Gouraud
350
2D
  3
GouraudWithEdges
350
2E
  3
Linepattern
350
38
  3
Realistic
350
33
  3
Thicken
350
37
  0
LAYOUT
  5
1E
102
{ACAD_REACTORS
330
1A
102
}
330
1A
100
AcDbPlotSettings
  1

  2
none_device
  4

  6

 40
0.0
 41
0.0
 42
0.0
 43
0.0
 44
0.0
 45
0.0
 46
0.0
 47
0.0
 48
0.0
 49
0.0
140
0.0
141
0.0
142
1.0
143
1.0
 70
   688
 72
     0
 73
     0
 74
     5
  7

 75
    16
 76
     0
 77
     2
 78
   300
147
1.0
148
0.0
149
0.0
100
AcDbLayout
  1
Layout1
 70
     1
 71
     1
 10
0.0
 20
0.0
 11
12.0
 21
9.0
 12
0.0
 22
0.0
 32
0.0
 14
1.000000000000000E+20
 24
1.000000000000000E+20
 34
1.000000000000000E+20
 15
-1.000000000000000E+20
 25
-1.000000000000000E+20
 35
-1.000000000000000E+20
146
0.0
 13
0.0
 23
0.0
 33
0.0
 16
1.0
 26
0.0
 36
0.0
 17
0.0
 27
1.0
 37
0.0
 76
     0
330
1B
  0
LAYOUT
  5
26
102
{ACAD_REACTORS
330
1A
102
}
330
1A
100
AcDbPlotSettings
  1

  2
none_device
  4

  6

 40
0.0
 41
0.0
 42
0.0
 43
0.0
 44
0.0
 45
0.0
 46
0.0
 47
0.0
 48
0.0
 49
0.0
140
0.0
141
0.0
142
1.0
143
1.0
 70
   688
 72
     0
 73
     0
 74
     5
  7

 75
    16
 76
     0
 77
     2
 78
   300
147
1.0
148
0.0
149
0.0
100
AcDbLayout
  1
Layout2
 70
     1
 71
     2
 10
0.0
 20
0.0
 11
0.0
 21
0.0
 12
0.0
 22
0.0
 32
0.0
 14
0.0
 24
0.0
 34
0.0
 15
0.0
 25
0.0
 35
0.0
146
0.0
 13
0.0
 23
0.0
 33
0.0
 16
1.0
 26
0.0
 36
0.0
 17
0.0
 27
1.0
 37
0.0
 76
     0
330
23
  0
LAYOUT
  5
22
102
{ACAD_REACTORS
330
1A
102
}
330
1A
100
AcDbPlotSettings
  1

  2
none_device
  4

  6

 40
0.0
 41
0.0
 42
0.0
 43
0.0
 44
0.0
 45
0.0
 46
0.0
 47
0.0
 48
0.0
 49
0.0
140
0.0
141
0.0
142
1.0
143
1.0
 70
  1712
 72
     0
 73
     0
 74
     0
  7

 75
     0
 76
     0
 77
     2
 78
   300
147
1.0
148
0.0
149
0.0
100
AcDbLayout
  1
Model
 70
     1
 71
     0
 10
0.0
 20
0.0
 11
12.0
 21
9.0
 12
0.0
 22
0.0
 32
0.0
 14
1.000000000000000E+20
 24
1.000000000000000E+20
 34
1.000000000000000E+20
 15
-1.000000000000000E+20
 25
-1.000000000000000E+20
 35
-1.000000000000000E+20
146
0.0
 13
0.0
 23
0.0
 33
0.0
 16
1.0
 26
0.0
 36
0.0
 17
0.0
 27
1.0
 37
0.0
 76
     0
330
1F
331
29
  0
MATERIAL
  5
3D
102
{ACAD_REACTORS
330
3B
102
}
330
3B
100
AcDbMaterial
  1
ByBlock
 72
     1
 94
      127
  0
MATERIAL
  5
3C
102
{ACAD_REACTORS
330
3B
102
}
330
3B
100
AcDbMaterial
  1
ByLayer
 72
     1
 94
      127
  0
MATERIAL
  5
3E
102
{ACAD_REACTORS
330
3B
102
}
330
3B
100
AcDbMaterial
  1
Global
 72
     1
 94
      127
  0
MLINESTYLE
  5
18
102
{ACAD_REACTORS
330
17
102
}
330
17
100
AcDbMlineStyle
  2
Standard
 70
     0
  3

 62
   256
 51
90.0
 52
90.0
 71
     2
 49
0.5
 62
   256
  6
BYLAYER
 49
-0.5
 62
   256
  6
BYLAYER
  0
ACDBPLACEHOLDER
  5
F
102
{ACAD_REACTORS
330
E
102
}
330
E
  0
VISUALSTYLE
  5
2F
102
{ACAD_REACTORS
330
2A
102
}
330
2A
100
AcDbVisualStyle
  2
2dWireframe
 70
     4
177
     2
291
     0
 71
     0
176
     1
 72
     2
176
     1
 73
     0
176
     1
 90
        0
176
     1
 40
-0.6
176
     1
 41
-30.0
176
     1
 62
     5
 63
     7
421
 16777215
176
     1
 74
     1
176
     1
 91
        4
176
     1
 64
     7
176
     1
 65
   257
176
     1
 75
     1
176
     1
175
     1
176
     1
 42
1.0
176
     1
 92
        0
176
     1
 66
   257
176
     1
 43
1.0
176
     1
 76
     1
176
     1
 77
     6
176
     1
 78
     2
176
     1
 67
     7
176
     1
 79
     5
176
     1
170
     0
176
     1
171
     0
176
     1
290
     0
176
     1
 93
        1
176
     1
 44
0.0
176
     1
173
     0
176
     1
  0
VISUALSTYLE
  5
31
102
{ACAD_REACTORS
330
2A
102
}
330
2A
100
AcDbVisualStyle
  2
3D Hidden
 70
     6
177
     2
291
     0
 71
     1
176
     1
 72
     2
176
     1
 73
     2
176
     1
 90
        0
176
     1
 40
-0.6
176
     1
 41
-30.0
176
     1
 62
     5
 63
     7
421
 16777215
176
     1
 74
     2
176
     1
 91
        2
176
     1
 64
     7
176
     1
 65
   257
176
     1
 75
     2
176
     1
175
     1
176
     1
 42
40.0
176
     1
 92
        0
176
     1
 66
   257
176
     1
 43
1.0
176
     1
 76
     1
176
     1
 77
     6
176
     1
 78
     2
176
     1
 67
     7
176
     1
 79
     3
176
     1
170
     0
176
     1
171
     0
176
     1
290
     0
176
     1
 93
        1
176
     1
 44
0.0
176
     1
173
     0
176
     1
  0
VISUALSTYLE
  5
30
102
{ACAD_REACTORS
330
2A
102
}
330
2A
100
AcDbVisualStyle
  2
3dWireframe
 70
     5
177
     2
291
     0
 71
     0
176
     1
 72
     2
176
     1
 73
     0
176
     1
 90
        0
176
     1
 40
-0.6
176
     1
 41
-30.0
176
     1
 62
     5
 63
     7
421
 16777215
176
     1
 74
     1
176
     1
 91
        4
176
     1
 64
     7
176
     1
 65
   257
176
     1
 75
     1
176
     1
175
     1
176
     1
 42
1.0
176
     1
 92
        0
176
     1
 66
   257
176
     1
 43
1.0
176
     1
 76
     1
176
     1
 77
     6
176
     1
 78
     2
176
     1
 67
     7
176
     1
 79
     5
176
     1
170
     0
176
     1
171
     0
176
     1
290
     0
176
     1
 93
        1
176
     1
 44
0.0
176
     1
173
     0
176
     1
  0
VISUALSTYLE
  5
32
102
{ACAD_REACTORS
330
2A
102
}
330
2A
100
AcDbVisualStyle
  2
Basic
 70
     7
177
     2
291
     1
 71
     1
176
     1
 72
     0
176
     1
 73
     1
176
     1
 90
        0
176
     1
 40
-0.6
176
     1
 41
-30.0
176
     1
 62
     5
 63
     7
421
 16777215
176
     1
 74
     0
176
     1
 91
        4
176
     1
 64
     7
176
     1
 65
   257
176
     1
 75
     1
176
     1
175
     1
176
     1
 42
1.0
176
     1
 92
        8
176
     1
 66
     7
176
     1
 43
1.0
176
     1
 76
     1
176
     1
 77
     6
176
     1
 78
     2
176
     1
 67
     7
176
     1
 79
     5
176
     1
170
     0
176
     1
171
     0
176
     1
290
     0
176
     1
 93
        1
176
     1
 44
0.0
176
     1
173
     0
176
     1
  0
VISUALSTYLE
  5
36
102
{ACAD_REACTORS
330
2A
102
}
330
2A
100
AcDbVisualStyle
  2
Brighten
 70
    12
177
     2
291
     1
 71
     2
176
     1
 72
     2
176
     1
 73
     0
176
     1
 90
        0
176
     1
 40
-0.6
176
     1
 41
-30.0
176
     1
 62
     5
 63
     7
421
 16777215
176
     1
 74
     1
176
     1
 91
        4
176
     1
 64
     7
176
     1
 65
   257
176
     1
 75
     1
176
     1
175
     1
176
     1
 42
1.0
176
     1
 92
        8
176
     1
 66
     7
176
     1
 43
1.0
176
     1
 76
     1
176
     1
 77
     6
176
     1
 78
     2
176
     1
 67
     7
176
     1
 79
     5
176
     1
170
     0
176
     1
171
     0
176
     1
290
     0
176
     1
 93
        1
176
     1
 44
50.0
176
     1
173
     0
176
     1
  0
VISUALSTYLE
  5
3A
102
{ACAD_REACTORS
330
2A
102
}
330
2A
100
AcDbVisualStyle
  2
ColorChange
 70
    16
177
     2
291
     1
 71
     2
176
     1
 72
     2
176
     1
 73
     3
176
     1
 90
        0
176
     1
 40
-0.6
176
     1
 41
-30.0
176
     1
 62
     5
 63
     8
421
  8421504
176
     1
 74
     1
176
     1
 91
        4
176
     1
 64
     7
176
     1
 65
   257
176
     1
 75
     1
176
     1
175
     1
176
     1
 42
1.0
176
     1
 92
        8
176
     1
 66
     8
424
  8421504
176
     1
 43
1.0
176
     1
 76
     1
176
     1
 77
     6
176
     1
 78
     2
176
     1
 67
     7
176
     1
 79
     5
176
     1
170
     0
176
     1
171
     0
176
     1
290
     0
176
     1
 93
        1
176
     1
 44
0.0
176
     1
173
     0
176
     1
  0
VISUALSTYLE
  5
34
102
{ACAD_REACTORS
330
2A
102
}
330
2A
100
AcDbVisualStyle
  2
Conceptual
 70
     9
177
     2
291
     0
 71
     3
176
     1
 72
     2
176
     1
 73
     0
176
     1
 90
        0
176
     1
 40
-0.6
176
     1
 41
-30.0
176
     1
 62
     5
 63
     7
421
 16777215
176
     1
 74
     2
176
     1
 91
        2
176
     1
 64
     7
176
     1
 65
   257
176
     1
 75
     1
176
     1
175
     1
176
     1
 42
40.0
176
     1
 92
        8
176
     1
 66
     7
176
     1
 43
1.0
176
     1
 76
     1
176
     1
 77
     6
176
     1
 78
     2
176
     1
 67
     7
176
     1
 79
     3
176
     1
170
     0
176
     1
171
     0
176
     1
290
     0
176
     1
 93
        1
176
     1
 44
0.0
176
     1
173
     0
176
     1
  0
VISUALSTYLE
  5
35
102
{ACAD_REACTORS
330
2A
102
}
330
2A
100
AcDbVisualStyle
  2
Dim
 70
    11
177
     2
291
     1
 71
     2
176
     1
 72
     2
176
     1
 73
     0
176
     1
 90
        0
176
     1
 40
-0.6
176
     1
 41
-30.0
176
     1
 62
     5
 63
     7
421
 16777215
176
     1
 74
     1
176
     1
 91
        4
176
     1
 64
     7
176
     1
 65
   257
176
     1
 75
     1
176
     1
175
     1
176
     1
 42
1.0
176
     1
 92
        8
176
     1
 66
     7
176
     1
 43
1.0
176
     1
 76
     1
176
     1
 77
     6
176
     1
 78
     2
176
     1
 67
     7
176
     1
 79
     5
176
     1
170
     0
176
     1
171
     0
176
     1
290
     0
176
     1
 93
        1
176
     1
 44
-50.0
176
     1
173
     0
176
     1
  0
VISUALSTYLE
  5
39
102
{ACAD_REACTORS
330
2A
102
}
330
2A
100
AcDbVisualStyle
  2
Facepattern
 70
    15
177
     2
291
     1
 71
     2
176
     1
 72
     2
176
     1
 73
     0
176
     1
 90
        0
176
     1
 40
-0.6
176
     1
 41
-30.0
176
     1
 62
     5
 63
     7
421
 16777215
176
     1
 74
     1
176
     1
 91
        4
176
     1
 64
     7
176
     1
 65
   257
176
     1
 75
     1
176
     1
175
     1
176
     1
 42
1.0
176
     1
 92
        8
176
     1
 66
     7
176
     1
 43
1.0
176
     1
 76
     1
176
     1
 77
     6
176
     1
 78
     2
176
     1
 67
     7
176
     1
 79
     5
176
     1
170
     0
176
     1
171
     0
176
     1
290
     0
176
     1
 93
        1
176
     1
 44
0.0
176
     1
173
     0
176
     1
  0
VISUALSTYLE
  5
2B
102
{ACAD_REACTORS
330
2A
102
}
330
2A
100
AcDbVisualStyle
  2
Flat
 70
     0
177
     2
291
     1
 71
     2
176
     1
 72
     1
176
     1
 73
     1
176
     1
 90
        2
176
     1
 40
-0.6
176
     1
 41
30.0
176
     1
 62
     5
 63
     7
421
 16777215
176
     1
 74
     0
176
     1
 91
        4
176
     1
 64
     7
176
     1
 65
   257
176
     1
 75
     1
176
     1
175
     1
176
     1
 42
1.0
176
     1
 92
        8
176
     1
 66
     7
176
     1
 43
1.0
176
     1
 76
     1
176
     1
 77
     6
176
     1
 78
     2
176
     1
 67
     7
176
     1
 79
     5
176
     1
170
     0
176
     1
171
     0
176
     1
290
     0
176
     1
 93
       13
176
     1
 44
0.0
176
     1
173
     0
176
     1
  0
VISUALSTYLE
  5
2C
102
{ACAD_REACTORS
330
2A
102
}
330
2A
100
AcDbVisualStyle
  2
FlatWithEdges
 70
     1
177
     2
291
     1
 71
     2
176
     1
 72
     1
176
     1
 73
     1
176
     1
 90
        2
176
     1
 40
-0.6
176
     1
 41
30.0
176
     1
 62
     5
 63
     7
421
 16777215
176
     1
 74
     1
176
     1
 91
        4
176
     1
 64
     7
176
     1
 65
   257
176
     1
 75
     1
176
     1
175
     1
176
     1
 42
1.0
176
     1
 92
        0
176
     1
 66
   257
176
     1
 43
1.0
176
     1
 76
     1
176
     1
 77
     6
176
     1
 78
     2
176
     1
 67
     7
176
     1
 79
     5
176
     1
170
     0
176
     1
171
     0
176
     1
290
     0
176
     1
 93
       13
176
     1
 44
0.0
176
     1
173
     0
176
     1
  0
VISUALSTYLE
  5
2D
102
{ACAD_REACTORS
330
2A
102
}
330
2A
100
AcDbVisualStyle
  2
Gouraud
 70
     2
177
     2
291
     1
 71
     2
176
     1
 72
     2
176
     1
 73
     1
176
     1
 90
        2
176
     1
 40
-0.6
176
     1
 41
30.0
176
     1
 62
     5
 63
     7
421
 16777215
176
     1
 74
     0
176
     1
 91
        4
176
     1
 64
     7
176
     1
 65
   257
176
     1
 75
     1
176
     1
175
     1
176
     1
 42
1.0
176
     1
 92
        0
176
     1
 66
     7
176
     1
 43
1.0
176
     1
 76
     1
176
     1
 77
     6
176
     1
 78
     2
176
     1
 67
     7
176
     1
 79
     5
176
     1
170
     0
176
     1
171
     0
176
     1
290
     0
176
     1
 93
       13
176
     1
 44
0.0
176
     1
173
     0
176
     1
  0
VISUALSTYLE
  5
2E
102
{ACAD_REACTORS
330
2A
102
}
330
2A
100
AcDbVisualStyle
  2
GouraudWithEdges
 70
     3
177
     2
291
     1
 71
     2
176
     1
 72
     2
176
     1
 73
     1
176
     1
 90
        2
176
     1
 40
-0.6
176
     1
 41
30.0
176
     1
 62
     5
 63
     7
421
 16777215
176
     1
 74
     1
176
     1
 91
        4
176
     1
 64
     7
176
     1
 65
   257
176
     1
 75
     1
176
     1
175
     1
176
     1
 42
1.0
176
     1
 92
        0
176
     1
 66
   257
176
     1
 43
1.0
176
     1
 76
     1
176
     1
 77
     6
176
     1
 78
     2
176
     1
 67
     7
176
     1
 79
     5
176
     1
170
     0
176
     1
171
     0
176
     1
290
     0
176
     1
 93
       13
176
     1
 44
0.0
176
     1
173
     0
176
     1
  0
VISUALSTYLE
  5
38
102
{ACAD_REACTORS
330
2A
102
}
330
2A
100
AcDbVisualStyle
  2
Linepattern
 70
    14
177
     2
291
     1
 71
     2
176
     1
 72
     2
176
     1
 73
     0
176
     1
 90
        0
176
     1
 40
-0.6
176
     1
 41
-30.0
176
     1
 62
     5
 63
     7
421
 16777215
176
     1
 74
     1
176
     1
 91
        4
176
     1
 64
     7
176
     1
 65
   257
176
     1
 75
     7
176
     1
175
     7
176
     1
 42
1.0
176
     1
 92
        8
176
     1
 66
     7
176
     1
 43
1.0
176
     1
 76
     1
176
     1
 77
     6
176
     1
 78
     2
176
     1
 67
     7
176
     1
 79
     5
176
     1
170
     0
176
     1
171
     0
176
     1
290
     0
176
     1
 93
        1
176
     1
 44
0.0
176
     1
173
     0
176
     1
  0
VISUALSTYLE
  5
33
102
{ACAD_REACTORS
330
2A
102
}
330
2A
100
AcDbVisualStyle
  2
Realistic
 70
     8
177
     2
291
     0
 71
     2
176
     1
 72
     2
176
     1
 73
     0
176
     1
 90
        0
176
     1
 40
-0.6
176
     1
 41
-30.0
176
     1
 62
     5
 63
     7
421
 16777215
176
     1
 74
     1
176
     1
 91
        0
176
     1
 64
     7
176
     1
 65
   257
176
     1
 75
     1
176
     1
175
     1
176
     1
 42
1.0
176
     1
 92
        8
176
     1
 66
     8
424
  7895160
176
     1
 43
1.0
176
     1
 76
     1
176
     1
 77
     6
176
     1
 78
     2
176
     1
 67
     7
176
     1
 79
     5
176
     1
170
     0
176
     1
171
     0
176
     1
290
     0
176
     1
 93
       13
176
     1
 44
0.0
176
     1
173
     0
176
     1
  0
VISUALSTYLE
  5
37
102
{ACAD_REACTORS
330
2A
102
}
330
2A
100
AcDbVisualStyle
  2
Thicken
 70
    13
177
     2
291
     1
 71
     2
176
     1
 72
     2
176
     1
 73
     0
176
     1
 90
        0
176
     1
 40
-0.6
176
     1
 41
-30.0
176
     1
 62
     5
 63
     7
421
 16777215
176
     1
 74
     1
176
     1
 91
        4
176
     1
 64
     7
176
     1
 65
   257
176
     1
 75
     1
176
     1
175
     1
176
     1
 42
1.0
176
     1
 92
       12
176
     1
 66
     7
176
     1
 43
1.0
176
     1
 76
     1
176
     1
 77
     6
176
     1
 78
     2
176
     1
 67
     7
176
     1
 79
     5
176
     1
170
     0
176
     1
171
     0
176
     1
290
     0
176
     1
 93
        1
176
     1
 44
0.0
176
     1
173
     0
176
     1
  0
ENDSEC
  0
EOF
