  0
SECTION
  2
HEADER
  9
$ACADVER
  1
AC1024
  9
$ACADMAINTVER
 70
     6
  9
$DWGCODEPAGE
  3
UNDEFINED
  9
$INSBASE
 10
0.0
 20
0.0
 30
0.0
  9
$EXTMIN
 10
1.000000000000000E+20
 20
1.000000000000000E+20
 30
1.000000000000000E+20
  9
$EXTMAX
 10
-1.000000000000000E+20
 20
-1.000000000000000E+20
 30
-1.000000000000000E+20
  9
$LIMMIN
 10
0.0
 20
0.0
  9
$LIMMAX
 10
12.0
 20
9.0
  9
$ORTHOMODE
 70
     0
  9
$REGENMODE
 70
     1
  9
$FILLMODE
 70
     1
  9
$QTEXTMODE
 70
     0
  9
$MIRRTEXT
 70
     1
  9
$LTSCALE
 40
1.0
  9
$ATTMODE
 70
     1
  9
$TEXTSIZE
 40
0.2
  9
$TRACEWID
 40
0.05
  9
$TEXTSTYLE
  7
Standard
  9
$CLAYER
  8
0
  9
$CELTYPE
  6
ByLayer
  9
$CECOLOR
 62
   256
  9
$CELTSCALE
 40
1.0
  9
$DISPSILH
 70
     0
  9
$DIMSCALE
 40
1.0
  9
$DIMASZ
 40
0.18
  9
$DIMEXO
 40
0.0625
  9
$DIMDLI
 40
0.38
  9
$DIMRND
 40
0.0
  9
$DIMDLE
 40
0.0
  9
$DIMEXE
 40
0.18
  9
$DIMTP
 40
0.0
  9
$DIMTM
 40
0.0
  9
$DIMTXT
 40
0.18
  9
$DIMCEN
 40
0.09
  9
$DIMTSZ
 40
0.0
  9
$DIMTOL
 70
     0
  9
$DIMLIM
 70
     0
  9
$DIMTIH
 70
     1
  9
$DIMTOH
 70
     1
  9
$DIMSE1
 70
     0
  9
$DIMSE2
 70
     0
  9
$DIMTAD
 70
     0
  9
$DIMZIN
 70
     0
  9
$DIMBLK
  1

  9
$DIMASO
 70
     1
  9
$DIMSHO
 70
     1
  9
$DIMPOST
  1

  9
$DIMAPOST
  1

  9
$DIMALT
 70
     0
  9
$DIMALTD
 70
     2
  9
$DIMALTF
 40
25.4
  9
$DIMLFAC
 40
1.0
  9
$DIMTOFL
 70
     0
  9
$DIMTVP
 40
0.0
  9
$DIMTIX
 70
     0
  9
$DIMSOXD
 70
     0
  9
$DIMSAH
 70
     0
  9
$DIMBLK1
  1

  9
$DIMBLK2
  1

  9
$DIMSTYLE
  2
Standard
  9
$DIMCLRD
 70
     0
  9
$DIMCLRE
 70
     0
  9
$DIMCLRT
 70
     0
  9
$DIMTFAC
 40
1.0
  9
$DIMGAP
 40
0.09
  9
$DIMJUST
 70
     0
  9
$DIMSD1
 70
     0
  9
$DIMSD2
 70
     0
  9
$DIMTOLJ
 70
     1
  9
$DIMTZIN
 70
     0
  9
$DIMALTZ
 70
     0
  9
$DIMALTTZ
 70
     0
  9
$DIMUPT
 70
     0
  9
$DIMDEC
 70
     4
  9
$DIMTDEC
 70
     4
  9
$DIMALTU
 70
     2
  9
$DIMALTTD
 70
     2
  9
$DIMTXSTY
  7
Standard
  9
$DIMAUNIT
 70
     0
  9
$DIMADEC
 70
     0
  9
$DIMALTRND
 40
0.0
  9
$DIMAZIN
 70
     0
  9
$DIMDSEP
 70
    46
  9
$DIMATFIT
 70
     3
  9
$DIMFRAC
 70
     0
  9
$DIMLDRBLK
  1

  9
$DIMLUNIT
 70
     2
  9
$DIMLWD
 70
    -2
  9
$DIMLWE
 70
    -2
  9
$DIMTMOVE
 70
     0
  9
$DIMFXL
 40
1.0
  9
$DIMFXLON
 70
     0
  9
$DIMJOGANG
 40
0.7853981633974483
  9
$DIMTFILL
 70
     0
  9
$DIMTFILLCLR
 70
     0
  9
$DIMARCSYM
 70
     0
  9
$DIMLTYPE
  6

  9
$DIMLTEX1
  6

  9
$DIMLTEX2
  6

  9
$DIMTXTDIRECTION
 70
     0
  9
$LUNITS
 70
     2
  9
$LUPREC
 70
     4
  9
$SKETCHINC
 40
0.1
  9
$FILLETRAD
 40
0.5
  9
$AUNITS
 70
     0
  9
$AUPREC
 70
     0
  9
$MENU
  1
.
  9
$ELEVATION
 40
0.0
  9
$PELEVATION
 40
0.0
  9
$THICKNESS
 40
0.0
  9
$LIMCHECK
 70
     0
  9
$CHAMFERA
 40
0.5
  9
$CHAMFERB
 40
0.5
  9
$CHAMFERC
 40
1.0
  9
$CHAMFERD
 40
0.0
  9
$SKPOLY
 70
     0
  9
$TDCREATE
 40
2457917.583993044
  9
$TDUCREATE
 40
2457917.208993055
  9
$TDUPDATE
 40
2457917.584004618
  9
$TDUUPDATE
 40
2457917.209004629
  9
$TDINDWG
 40
0.0000000116
  9
$TDUSRTIMER
 40
0.0000000116
  9
$USRTIMER
 70
     1
  9
$ANGBASE
 50
0.0
  9
$ANGDIR
 70
     0
  9
$PDMODE
 70
     0
  9
$PDSIZE
 40
0.0
  9
$PLINEWID
 40
0.0
  9
$SPLFRAME
 70
     0
  9
$SPLINETYPE
 70
     6
  9
$SPLINESEGS
 70
     8
  9
$HANDSEED
  5
115
  9
$SURFTAB1
 70
     6
  9
$SURFTAB2
 70
     6
  9
$SURFTYPE
 70
     6
  9
$SURFU
 70
     6
  9
$SURFV
 70
     6
  9
$UCSBASE
  2

  9
$UCSNAME
  2

  9
$UCSORG
 10
0.0
 20
0.0
 30
0.0
  9
$UCSXDIR
 10
1.0
 20
0.0
 30
0.0
  9
$UCSYDIR
 10
0.0
 20
1.0
 30
0.0
  9
$UCSORTHOREF
  2

  9
$UCSORTHOVIEW
 70
     0
  9
$UCSORGTOP
 10
0.0
 20
0.0
 30
0.0
  9
$UCSORGBOTTOM
 10
0.0
 20
0.0
 30
0.0
  9
$UCSORGLEFT
 10
0.0
 20
0.0
 30
0.0
  9
$UCSORGRIGHT
 10
0.0
 20
0.0
 30
0.0
  9
$UCSORGFRONT
 10
0.0
 20
0.0
 30
0.0
  9
$UCSORGBACK
 10
0.0
 20
0.0
 30
0.0
  9
$PUCSBASE
  2

  9
$PUCSNAME
  2

  9
$PUCSORG
 10
0.0
 20
0.0
 30
0.0
  9
$PUCSXDIR
 10
1.0
 20
0.0
 30
0.0
  9
$PUCSYDIR
 10
0.0
 20
1.0
 30
0.0
  9
$PUCSORTHOREF
  2

  9
$PUCSORTHOVIEW
 70
     0
  9
$PUCSORGTOP
 10
0.0
 20
0.0
 30
0.0
  9
$PUCSORGBOTTOM
 10
0.0
 20
0.0
 30
0.0
  9
$PUCSORGLEFT
 10
0.0
 20
0.0
 30
0.0
  9
$PUCSORGRIGHT
 10
0.0
 20
0.0
 30
0.0
  9
$PUCSORGFRONT
 10
0.0
 20
0.0
 30
0.0
  9
$PUCSORGBACK
 10
0.0
 20
0.0
 30
0.0
  9
$USERI1
 70
     0
  9
$USERI2
 70
     0
  9
$USERI3
 70
     0
  9
$USERI4
 70
     0
  9
$USERI5
 70
     0
  9
$USERR1
 40
0.0
  9
$USERR2
 40
0.0
  9
$USERR3
 40
0.0
  9
$USERR4
 40
0.0
  9
$USERR5
 40
0.0
  9
$WORLDVIEW
 70
     1
  9
$SHADEDGE
 70
     3
  9
$SHADEDIF
 70
    70
  9
$TILEMODE
 70
     1
  9
$MAXACTVP
 70
    64
  9
$PINSBASE
 10
0.0
 20
0.0
 30
0.0
  9
$PLIMCHECK
 70
     0
  9
$PEXTMIN
 10
1.000000000000000E+20
 20
1.000000000000000E+20
 30
1.000000000000000E+20
  9
$PEXTMAX
 10
-1.000000000000000E+20
 20
-1.000000000000000E+20
 30
-1.000000000000000E+20
  9
$PLIMMIN
 10
0.0
 20
0.0
  9
$PLIMMAX
 10
12.0
 20
9.0
  9
$UNITMODE
 70
     0
  9
$VISRETAIN
 70
     1
  9
$PLINEGEN
 70
     0
  9
$PSLTSCALE
 70
     1
  9
$TREEDEPTH
 70
  3020
  9
$CMLSTYLE
  2
Standard
  9
$CMLJUST
 70
     0
  9
$CMLSCALE
 40
1.0
  9
$PROXYGRAPHICS
 70
     1
  9
$MEASUREMENT
 70
     0
  9
$CELWEIGHT
370
    -1
  9
$ENDCAPS
280
     0
  9
$JOINSTYLE
280
     0
  9
$LWDISPLAY
290
     1
  9
$INSUNITS
 70
     1
  9
$HYPERLINKBASE
  1

  9
$STYLESHEET
  1

  9
$XEDIT
290
     1
  9
$CEPSNTYPE
380
     0
  9
$PSTYLEMODE
290
     1
  9
$FINGERPRINTGUID
  2
{3A946A9B-E084-DD53-1E3B-54568876EADC}
  9
$VERSIONGUID
  2
{FAEB1C32-E019-11D5-929B-00C0DF256EC4}
  9
$EXTNAMES
290
     1
  9
$PSVPSCALE
 40
0.0
  9
$OLESTARTUP
290
     0
  9
$SORTENTS
280
   127
  9
$INDEXCTL
280
     0
  9
$HIDETEXT
280
     1
  9
$XCLIPFRAME
280
     2
  9
$HALOGAP
280
     0
  9
$OBSCOLOR
 70
   257
  9
$OBSLTYPE
280
     0
  9
$INTERSECTIONDISPLAY
280
     0
  9
$INTERSECTIONCOLOR
 70
   257
  9
$DIMASSOC
280
     2
  9
$PROJECTNAME
  1

  9
$CAMERADISPLAY
290
     0
  9
$LENSLENGTH
 40
50.0
  9
$CAMERAHEIGHT
 40
0.0
  9
$STEPSPERSEC
 40
2.0
  9
$STEPSIZE
 40
6.0
  9
$3DDWFPREC
 40
2.0
  9
$PSOLWIDTH
 40
0.25
  9
$PSOLHEIGHT
 40
4.0
  9
$LOFTANG1
 40
1.570796326794897
  9
$LOFTANG2
 40
1.570796326794897
  9
$LOFTMAG1
 40
0.0
  9
$LOFTMAG2
 40
0.0
  9
$LOFTPARAM
 70
     7
  9
$LOFTNORMALS
280
     1
  9
$LATITUDE
 40
37.795
  9
$LONGITUDE
 40
-122.394
  9
$NORTHDIRECTION
 40
0.0
  9
$TIMEZONE
 70
 -8000
  9
$LIGHTGLYPHDISPLAY
280
     1
  9
$TILEMODELIGHTSYNCH
280
     1
  9
$CMATERIAL
347
3C
  9
$SOLIDHIST
280
     1
  9
$SHOWHIST
280
     1
  9
$DWFFRAME
280
     2
  9
$DGNFRAME
280
     2
  9
$REALWORLDSCALE
290
     1
  9
$INTERFERECOLOR
 62
   256
  9
$CSHADOW
280
     0
  9
$SHADOWPLANELOCATION
 40
0.0
  0
ENDSEC
  0
SECTION
  2
CLASSES
  0
CLASS
  1
ACDBDICTIONARYWDFLT
  2
AcDbDictionaryWithDefault
  3
ObjectDBX Classes
 90
        0
 91
        4
280
     0
281
     0
  0
CLASS
  1
VISUALSTYLE
  2
AcDbVisualStyle
  3
ObjectDBX Classes
 90
     4095
 91
        4
280
     0
281
     0
  0
CLASS
  1
MATERIAL
  2
AcDbMaterial
  3
ObjectDBX Classes
 90
     1153
 91
        4
280
     0
281
     0
  0
CLASS
  1
SUN
  2
AcDbSun
  3
SCENEOE
 90
     1024
 91
        4
280
     0
281
     0
  0
ENDSEC
  0
SECTION
  2
TABLES
  0
TABLE
  2
VPORT
  5
8
330
0
100
AcDbSymbolTable
 70
     1
  0
VPORT
  5
29
330
8
100
AcDbSymbolTableRecord
100
AcDbViewportTableRecord
  2
*Active
 70
     0
 10
0.0
 20
0.0
 11
1.0
 21
1.0
 12
0.0
 22
0.0
 13
0.0
 23
0.0
 14
0.5
 24
0.5
 15
0.5
 25
0.5
 16
0.0
 26
0.0
 36
1.0
 17
91.00082462281999
 27
-128.4993055234307
 37
0.0
 40
256.9986110468615
 41
0.7081814508812795
 42
50.0
 43
0.0
 44
0.0
 50
0.0
 51
0.0
 71
     0
 72
   100
 73
     1
 74
     3
 75
     0
 76
     0
 77
     0
 78
     0
281
     0
 65
     1
110
0.0
120
0.0
130
0.0
111
1.0
121
0.0
131
0.0
112
0.0
122
1.0
132
0.0
 79
     0
146
0.0
 60
     3
 61
     5
292
     1
282
     1
141
0.0
142
0.0
 63
   250
361
3F
  0
ENDTAB
  0
TABLE
  2
LTYPE
  5
5
330
0
100
AcDbSymbolTable
 70
     1
  0
LTYPE
  5
14
330
5
100
AcDbSymbolTableRecord
100
AcDbLinetypeTableRecord
  2
ByBlock
 70
     0
  3

 72
    65
 73
     0
 40
0.0
  0
LTYPE
  5
15
330
5
100
AcDbSymbolTableRecord
100
AcDbLinetypeTableRecord
  2
ByLayer
 70
     0
  3

 72
    65
 73
     0
 40
0.0
  0
LTYPE
  5
16
330
5
100
AcDbSymbolTableRecord
100
AcDbLinetypeTableRecord
  2
Continuous
 70
     0
  3
Solid line
 72
    65
 73
     0
 40
0.0
  0
ENDTAB
  0
TABLE
  2
LAYER
  5
2
330
0
100
AcDbSymbolTable
 70
     2
  0
LAYER
  5
10
330
2
100
AcDbSymbolTableRecord
100
AcDbLayerTableRecord
  2
0
 70
     0
 62
     7
  6
Continuous
370
    -3
390
F
347
3E
  0
LAYER
  5
40
330
2
100
AcDbSymbolTableRecord
100
AcDbLayerTableRecord
  2
_U+30EC_U+30A4_U+30E4_U+30FC 1
 70
     0
 62
     7
  6
Continuous
370
    -3
390
F
347
3E
  0
ENDTAB
  0
TABLE
  2
STYLE
  5
3
330
0
100
AcDbSymbolTable
 70
     1
  0
STYLE
  5
11
330
3
100
AcDbSymbolTableRecord
100
AcDbTextStyleTableRecord
  2
Standard
 70
     0
 40
0.0
 41
1.0
 50
0.0
 71
     0
 42
0.2
  3
txt
  4

  0
ENDTAB
  0
TABLE
  2
VIEW
  5
6
330
0
100
AcDbSymbolTable
 70
     0
  0
ENDTAB
  0
TABLE
  2
UCS
  5
7
330
0
100
AcDbSymbolTable
 70
     0
  0
ENDTAB
  0
TABLE
  2
APPID
  5
9
330
0
100
AcDbSymbolTable
 70
     1
  0
APPID
  5
12
330
9
100
AcDbSymbolTableRecord
100
AcDbRegAppTableRecord
  2
ACAD
 70
     0
  0
ENDTAB
  0
TABLE
  2
DIMSTYLE
  5
A
330
0
100
AcDbSymbolTable
 70
     1
100
AcDbDimStyleTable
  0
DIMSTYLE
105
27
330
A
100
AcDbSymbolTableRecord
100
AcDbDimStyleTableRecord
  2
Standard
 70
     0
178
     0
340
11
  0
ENDTAB
  0
TABLE
  2
BLOCK_RECORD
  5
1
330
0
100
AcDbSymbolTable
 70
     6
  0
BLOCK_RECORD
  5
1F
330
1
100
AcDbSymbolTableRecord
100
AcDbBlockTableRecord
  2
*Model_Space
340
22
 70
     0
280
     1
281
     0
  0
BLOCK_RECORD
  5
1B
330
1
100
AcDbSymbolTableRecord
100
AcDbBlockTableRecord
  2
*Paper_Space
340
1E
 70
     0
280
     1
281
     0
  0
BLOCK_RECORD
  5
23
330
1
100
AcDbSymbolTableRecord
100
AcDbBlockTableRecord
  2
*Paper_Space0
340
26
 70
     0
280
     1
281
     0
  0
BLOCK_RECORD
  5
73
330
1
100
AcDbSymbolTableRecord
100
AcDbBlockTableRecord
  2
block 2
340
0
102
{BLKREFS
331
74
102
}
 70
     0
280
     1
281
     0
  0
BLOCK_RECORD
  5
8F
330
1
100
AcDbSymbolTableRecord
100
AcDbBlockTableRecord
  2
block 3
340
0
102
{BLKREFS
331
90
102
}
 70
     0
280
     1
281
     0
  0
BLOCK_RECORD
  5
C3
330
1
100
AcDbSymbolTableRecord
100
AcDbBlockTableRecord
  2
block 4
340
0
102
{BLKREFS
331
C4
102
}
 70
     0
280
     1
281
     0
  0
BLOCK_RECORD
  5
F3
330
1
100
AcDbSymbolTableRecord
100
AcDbBlockTableRecord
  2
block 5
340
0
102
{BLKREFS
331
F4
102
}
 70
     0
280
     1
281
     0
  0
BLOCK_RECORD
  5
109
330
1
100
AcDbSymbolTableRecord
100
AcDbBlockTableRecord
  2
block 6
340
0
102
{BLKREFS
331
10A
102
}
 70
     0
280
     1
281
     0
  0
ENDTAB
  0
ENDSEC
  0
SECTION
  2
BLOCKS
  0
BLOCK
  5
20
330
1F
100
AcDbEntity
  8
0
100
AcDbBlockBegin
  2
*Model_Space
 70
     0
 10
0.0
 20
0.0
 30
0.0
  3
*Model_Space
  1

  0
ENDBLK
  5
21
330
1F
100
AcDbEntity
  8
0
100
AcDbBlockEnd
  0
BLOCK
  5
1C
330
1B
100
AcDbEntity
 67
     1
  8
0
100
AcDbBlockBegin
  2
*Paper_Space
 70
     0
 10
0.0
 20
0.0
 30
0.0
  3
*Paper_Space
  1

  0
ENDBLK
  5
1D
330
1B
100
AcDbEntity
 67
     1
  8
0
100
AcDbBlockEnd
  0
BLOCK
  5
24
330
23
100
AcDbEntity
  8
0
100
AcDbBlockBegin
  2
*Paper_Space0
 70
     0
 10
0.0
 20
0.0
 30
0.0
  3
*Paper_Space0
  1

  0
ENDBLK
  5
25
330
23
100
AcDbEntity
  8
0
100
AcDbBlockEnd
  0
BLOCK
  5
75
330
73
100
AcDbEntity
  8
0
100
AcDbBlockBegin
  2
block 2
 70
     0
 10
0.0
 20
0.0
 30
0.0
  3
block 2
  1

  0
SPLINE
  5
77
330
73
100
AcDbEntity
  8
_U+30EC_U+30A4_U+30E4_U+30FC 1
370
     0
100
AcDbSpline
210
0.0
220
0.0
230
1.0
 70
    11
 71
     3
 72
    44
 73
    40
 74
     0
 42
0.0000000001
 43
0.0000000001
 12
1.0
 22
0.0
 32
0.0
 13
1.0
 23
0.0
 33
0.0
 40
0.0
 40
0.0
 40
0.0
 40
0.0
 40
1.0
 40
1.0
 40
1.0
 40
2.0
 40
2.0
 40
2.0
 40
3.0
 40
3.0
 40
3.0
 40
4.0
 40
4.0
 40
4.0
 40
5.0
 40
5.0
 40
5.0
 40
6.0
 40
6.0
 40
6.0
 40
7.0
 40
7.0
 40
7.0
 40
8.0
 40
8.0
 40
8.0
 40
9.0
 40
9.0
 40
9.0
 40
10.0
 40
10.0
 40
10.0
 40
11.0
 40
11.0
 40
11.0
 40
12.0
 40
12.0
 40
12.0
 40
13.0
 40
13.0
 40
13.0
 40
13.0
 10
66.13411999214703
 20
-151.1449516766235
 30
0.0
 10
65.91621770270497
 20
-151.3037705784935
 30
0.0
 10
65.82302786982896
 20
-151.3778401314264
 30
0.0
 10
65.77445202348694
 20
-151.5215006131613
 30
0.0
 10
65.77445202348694
 20
-151.5215006131613
 30
0.0
 10
66.55287134837914
 20
-151.5215006131613
 30
0.0
 10
66.55287134837914
 20
-151.5215006131613
 30
0.0
 10
66.55287134837914
 20
-151.5215006131613
 30
0.0
 10
66.55287134837914
 20
-151.7268283040822
 30
0.0
 10
66.55287134837914
 20
-151.7268283040822
 30
0.0
 10
66.55287134837914
 20
-151.7268283040822
 30
0.0
 10
65.5248548555806
 20
-151.7268283040822
 30
0.0
 10
65.5248548555806
 20
-151.7268283040822
 30
0.0
 10
65.55654973404489
 20
-151.3692273927132
 30
0.0
 10
65.6221788030389
 20
-151.2910237251981
 30
0.0
 10
66.00716822351558
 20
-150.9926784561754
 30
0.0
 10
66.26313881806963
 20
-150.7938964466765
 30
0.0
 10
66.32859563228938
 20
-150.7260280656171
 30
0.0
 10
66.32859563228938
 20
-150.5885687557556
 30
0.0
 10
66.32859563228938
 20
-150.4700574710631
 30
0.0
 10
66.25676539142192
 20
-150.3391438426235
 30
0.0
 10
66.06005043921415
 20
-150.3391438426235
 30
0.0
 10
65.79977347530354
 20
-150.3391438426235
 30
0.0
 10
65.79133299136467
 20
-150.5696207305868
 30
0.0
 10
65.78702662200811
 20
-150.6860649579882
 30
0.0
 10
65.78702662200811
 20
-150.6860649579882
 30
0.0
 10
65.5629231606926
 20
-150.6860649579882
 30
0.0
 10
65.5629231606926
 20
-150.6860649579882
 30
0.0
 10
65.57136364463146
 20
-150.5589409345825
 30
0.0
 10
65.58187118586147
 20
-150.4469753313119
 30
0.0
 10
65.66231416544207
 20
-150.3284640466193
 30
0.0
 10
65.77221271142153
 20
-150.1675780874581
 30
0.0
 10
65.95842012239929
 20
-150.1338161517027
 30
0.0
 10
66.07486434980073
 20
-150.1338161517027
 30
0.0
 10
66.35202228158909
 20
-150.1338161517027
 30
0.0
 10
66.55924477502685
 20
-150.317784250615
 30
0.0
 10
66.55924477502685
 20
-150.5906358130468
 30
0.0
 10
66.55924477502685
 20
-150.8193901532674
 30
0.0
 10
66.44297280239968
 20
-150.9186089032426
 30
0.0
 10
66.13411999214703
 20
-151.1449516766235
 30
0.0
  0
HATCH
  5
78
330
73
100
AcDbEntity
  8
_U+30EC_U+30A4_U+30E4_U+30FC 1
 62
   179
420
  2234388
100
AcDbHatch
 10
0.0
 20
0.0
 30
0.0
210
0.0
220
0.0
230
1.0
  2
SOLID
 70
     1
 71
     0
 91
        1
 92
        1
 93
        1
 72
     4
 94
        3
 73
     0
 74
     1
 95
       44
 96
       40
 40
0.0
 40
0.0
 40
0.0
 40
0.0
 40
1.0
 40
1.0
 40
1.0
 40
2.0
 40
2.0
 40
2.0
 40
3.0
 40
3.0
 40
3.0
 40
4.0
 40
4.0
 40
4.0
 40
5.0
 40
5.0
 40
5.0
 40
6.0
 40
6.0
 40
6.0
 40
7.0
 40
7.0
 40
7.0
 40
8.0
 40
8.0
 40
8.0
 40
9.0
 40
9.0
 40
9.0
 40
10.0
 40
10.0
 40
10.0
 40
11.0
 40
11.0
 40
11.0
 40
12.0
 40
12.0
 40
12.0
 40
13.0
 40
13.0
 40
13.0
 40
13.0
 10
66.13411999214703
 20
-151.1449516766235
 10
65.91621770270497
 20
-151.3037705784935
 10
65.82302786982896
 20
-151.3778401314264
 10
65.77445202348694
 20
-151.5215006131613
 10
65.77445202348694
 20
-151.5215006131613
 10
66.55287134837914
 20
-151.5215006131613
 10
66.55287134837914
 20
-151.5215006131613
 10
66.55287134837914
 20
-151.5215006131613
 10
66.55287134837914
 20
-151.7268283040822
 10
66.55287134837914
 20
-151.7268283040822
 10
66.55287134837914
 20
-151.7268283040822
 10
65.5248548555806
 20
-151.7268283040822
 10
65.5248548555806
 20
-151.7268283040822
 10
65.55654973404489
 20
-151.3692273927132
 10
65.6221788030389
 20
-151.2910237251981
 10
66.00716822351558
 20
-150.9926784561754
 10
66.26313881806963
 20
-150.7938964466765
 10
66.32859563228938
 20
-150.7260280656171
 10
66.32859563228938
 20
-150.5885687557556
 10
66.32859563228938
 20
-150.4700574710631
 10
66.25676539142192
 20
-150.3391438426235
 10
66.06005043921415
 20
-150.3391438426235
 10
65.79977347530354
 20
-150.3391438426235
 10
65.79133299136467
 20
-150.5696207305868
 10
65.78702662200811
 20
-150.6860649579882
 10
65.78702662200811
 20
-150.6860649579882
 10
65.5629231606926
 20
-150.6860649579882
 10
65.5629231606926
 20
-150.6860649579882
 10
65.57136364463146
 20
-150.5589409345825
 10
65.58187118586147
 20
-150.4469753313119
 10
65.66231416544207
 20
-150.3284640466193
 10
65.77221271142153
 20
-150.1675780874581
 10
65.95842012239929
 20
-150.1338161517027
 10
66.07486434980073
 20
-150.1338161517027
 10
66.35202228158909
 20
-150.1338161517027
 10
66.55924477502685
 20
-150.317784250615
 10
66.55924477502685
 20
-150.5906358130468
 10
66.55924477502685
 20
-150.8193901532674
 10
66.44297280239968
 20
-150.9186089032426
 10
66.13411999214703
 20
-151.1449516766235
 97
        0
 97
        0
 75
     2
 76
     1
 98
        0
  0
SPLINE
  5
79
330
73
100
AcDbEntity
  8
_U+30EC_U+30A4_U+30E4_U+30FC 1
370
     0
100
AcDbSpline
210
0.0
220
0.0
230
1.0
 70
    11
 71
     3
 72
    29
 73
    25
 74
     0
 42
0.0000000001
 43
0.0000000001
 12
1.0
 22
0.0
 32
0.0
 13
1.0
 23
0.0
 33
0.0
 40
0.0
 40
0.0
 40
0.0
 40
0.0
 40
1.0
 40
1.0
 40
1.0
 40
2.0
 40
2.0
 40
2.0
 40
3.0
 40
3.0
 40
3.0
 40
4.0
 40
4.0
 40
4.0
 40
5.0
 40
5.0
 40
5.0
 40
6.0
 40
6.0
 40
6.0
 40
7.0
 40
7.0
 40
7.0
 40
8.0
 40
8.0
 40
8.0
 40
8.0
 10
67.61551105080446
 20
-151.5490613770433
 30
0.0
 10
67.50767956211614
 20
-151.7585231825465
 30
0.0
 10
67.3342190044338
 20
-151.7774712077154
 30
0.0
 10
67.21777477703236
 20
-151.7774712077154
 30
0.0
 10
67.05706107264545
 20
-151.7774712077154
 30
0.0
 10
66.91529539342743
 20
-151.7309624186645
 30
0.0
 10
66.82003850326028
 20
-151.5490613770433
 30
0.0
 10
66.71651338392851
 20
-151.3544134821267
 30
0.0
 10
66.69739310398538
 20
-151.1173909127415
 30
0.0
 10
66.69739310398538
 20
-150.9547824058377
 30
0.0
 10
66.69739310398538
 20
-150.8107774145543
 30
0.0
 10
66.7142740718631
 20
-150.5589409345825
 30
0.0
 10
66.82003850326028
 20
-150.3601589250836
 30
0.0
 10
66.92804224672285
 20
-150.1572428010024
 30
0.0
 10
67.08875595110976
 20
-150.1338161517027
 30
0.0
 10
67.21777477703236
 20
-150.1338161517027
 30
0.0
 10
67.37642142412813
 20
-150.1338161517027
 30
0.0
 10
67.52025416063731
 20
-150.1782578834624
 30
0.0
 10
67.61551105080446
 20
-150.3601589250836
 30
0.0
 10
67.71490205555392
 20
-150.5527397627091
 30
0.0
 10
67.73815645007936
 20
-150.7811495933811
 30
0.0
 10
67.73815645007936
 20
-150.9547824058377
 30
0.0
 10
67.73815645007936
 20
-151.1260036514546
 30
0.0
 10
67.71714136761933
 20
-151.3564805394178
 30
0.0
 10
67.61551105080446
 20
-151.5490613770433
 30
0.0
  0
SPLINE
  5
7A
330
73
100
AcDbEntity
  8
_U+30EC_U+30A4_U+30E4_U+30FC 1
370
     0
100
AcDbSpline
210
0.0
220
0.0
230
1.0
 70
    11
 71
     3
 72
    17
 73
    13
 74
     0
 42
0.0000000001
 43
0.0000000001
 12
1.0
 22
0.0
 32
0.0
 13
1.0
 23
0.0
 33
0.0
 40
0.0
 40
0.0
 40
0.0
 40
0.0
 40
1.0
 40
1.0
 40
1.0
 40
2.0
 40
2.0
 40
2.0
 40
3.0
 40
3.0
 40
3.0
 40
4.0
 40
4.0
 40
4.0
 40
4.0
 10
67.21777477703236
 20
-150.3263969893281
 30
0.0
 10
66.96817760912602
 20
-150.3263969893281
 30
0.0
 10
66.92166882007514
 20
-150.6099283477642
 30
0.0
 10
66.92166882007514
 20
-150.9547824058377
 30
0.0
 10
66.92166882007514
 20
-151.2741427573204
 30
0.0
 10
66.957670067896
 20
-151.5828233127988
 30
0.0
 10
67.21777477703236
 20
-151.5828233127988
 30
0.0
 10
67.46530488764756
 20
-151.5828233127988
 30
0.0
 10
67.51405298876385
 20
-151.3017035212024
 30
0.0
 10
67.51405298876385
 20
-150.9547824058377
 30
0.0
 10
67.51405298876385
 20
-150.6350775448065
 30
0.0
 10
67.47598468365184
 20
-150.3263969893281
 30
0.0
 10
67.21777477703236
 20
-150.3263969893281
 30
0.0
  0
HATCH
  5
7B
330
73
100
AcDbEntity
  8
_U+30EC_U+30A4_U+30E4_U+30FC 1
 62
   179
420
  2234388
100
AcDbHatch
 10
0.0
 20
0.0
 30
0.0
210
0.0
220
0.0
230
1.0
  2
SOLID
 70
     1
 71
     0
 91
        2
 92
        1
 93
        1
 72
     4
 94
        3
 73
     0
 74
     1
 95
       29
 96
       25
 40
0.0
 40
0.0
 40
0.0
 40
0.0
 40
1.0
 40
1.0
 40
1.0
 40
2.0
 40
2.0
 40
2.0
 40
3.0
 40
3.0
 40
3.0
 40
4.0
 40
4.0
 40
4.0
 40
5.0
 40
5.0
 40
5.0
 40
6.0
 40
6.0
 40
6.0
 40
7.0
 40
7.0
 40
7.0
 40
8.0
 40
8.0
 40
8.0
 40
8.0
 10
67.61551105080446
 20
-151.5490613770433
 10
67.50767956211614
 20
-151.7585231825465
 10
67.3342190044338
 20
-151.7774712077154
 10
67.21777477703236
 20
-151.7774712077154
 10
67.05706107264545
 20
-151.7774712077154
 10
66.91529539342743
 20
-151.7309624186645
 10
66.82003850326028
 20
-151.5490613770433
 10
66.71651338392851
 20
-151.3544134821267
 10
66.69739310398538
 20
-151.1173909127415
 10
66.69739310398538
 20
-150.9547824058377
 10
66.69739310398538
 20
-150.8107774145543
 10
66.7142740718631
 20
-150.5589409345825
 10
66.82003850326028
 20
-150.3601589250836
 10
66.92804224672285
 20
-150.1572428010024
 10
67.08875595110976
 20
-150.1338161517027
 10
67.21777477703236
 20
-150.1338161517027
 10
67.37642142412813
 20
-150.1338161517027
 10
67.52025416063731
 20
-150.1782578834624
 10
67.61551105080446
 20
-150.3601589250836
 10
67.71490205555392
 20
-150.5527397627091
 10
67.73815645007936
 20
-150.7811495933811
 10
67.73815645007936
 20
-150.9547824058377
 10
67.73815645007936
 20
-151.1260036514546
 10
67.71714136761933
 20
-151.3564805394178
 10
67.61551105080446
 20
-151.5490613770433
 97
        0
 97
        0
 92
        1
 93
        1
 72
     4
 94
        3
 73
     0
 74
     1
 95
       17
 96
       13
 40
0.0
 40
0.0
 40
0.0
 40
0.0
 40
1.0
 40
1.0
 40
1.0
 40
2.0
 40
2.0
 40
2.0
 40
3.0
 40
3.0
 40
3.0
 40
4.0
 40
4.0
 40
4.0
 40
4.0
 10
67.21777477703236
 20
-150.3263969893281
 10
66.96817760912602
 20
-150.3263969893281
 10
66.92166882007514
 20
-150.6099283477642
 10
66.92166882007514
 20
-150.9547824058377
 10
66.92166882007514
 20
-151.2741427573204
 10
66.957670067896
 20
-151.5828233127988
 10
67.21777477703236
 20
-151.5828233127988
 10
67.46530488764756
 20
-151.5828233127988
 10
67.51405298876385
 20
-151.3017035212024
 10
67.51405298876385
 20
-150.9547824058377
 10
67.51405298876385
 20
-150.6350775448065
 10
67.47598468365184
 20
-150.3263969893281
 10
67.21777477703236
 20
-150.3263969893281
 97
        0
 97
        0
 75
     2
 76
     1
 98
        0
  0
SPLINE
  5
7C
330
73
100
AcDbEntity
  8
_U+30EC_U+30A4_U+30E4_U+30FC 1
370
     0
100
AcDbSpline
210
0.0
220
0.0
230
1.0
 70
    11
 71
     3
 72
    44
 73
    40
 74
     0
 42
0.0000000001
 43
0.0000000001
 12
1.0
 22
0.0
 32
0.0
 13
1.0
 23
0.0
 33
0.0
 40
0.0
 40
0.0
 40
0.0
 40
0.0
 40
1.0
 40
1.0
 40
1.0
 40
2.0
 40
2.0
 40
2.0
 40
3.0
 40
3.0
 40
3.0
 40
4.0
 40
4.0
 40
4.0
 40
5.0
 40
5.0
 40
5.0
 40
6.0
 40
6.0
 40
6.0
 40
7.0
 40
7.0
 40
7.0
 40
8.0
 40
8.0
 40
8.0
 40
9.0
 40
9.0
 40
9.0
 40
10.0
 40
10.0
 40
10.0
 40
11.0
 40
11.0
 40
11.0
 40
12.0
 40
12.0
 40
12.0
 40
13.0
 40
13.0
 40
13.0
 40
13.0
 10
68.90879989596725
 20
-151.7268283040822
 30
0.0
 10
68.88537324666756
 20
-151.6823865723225
 30
0.0
 10
68.86435816420753
 20
-151.6296766113981
 30
0.0
 10
68.86211885214212
 20
-151.3988552138864
 30
0.0
 10
68.85798473755982
 20
-151.1556314726278
 30
0.0
 10
68.79872909521352
 20
-151.0856960342772
 30
0.0
 10
68.62096216817463
 20
-151.0856960342772
 30
0.0
 10
68.62096216817463
 20
-151.0856960342772
 30
0.0
 10
68.21271835317252
 20
-151.0856960342772
 30
0.0
 10
68.21271835317252
 20
-151.0856960342772
 30
0.0
 10
68.21271835317252
 20
-151.0856960342772
 30
0.0
 10
68.21271835317252
 20
-151.7268283040822
 30
0.0
 10
68.21271835317252
 20
-151.7268283040822
 30
0.0
 10
68.21271835317252
 20
-151.7268283040822
 30
0.0
 10
67.97793509585274
 20
-151.7268283040822
 30
0.0
 10
67.97793509585274
 20
-151.7268283040822
 30
0.0
 10
67.97793509585274
 20
-151.7268283040822
 30
0.0
 10
67.97793509585274
 20
-150.1823919980447
 30
0.0
 10
67.97793509585274
 20
-150.1823919980447
 30
0.0
 10
67.97793509585274
 20
-150.1823919980447
 30
0.0
 10
68.65282930141318
 20
-150.1823919980447
 30
0.0
 10
68.65282930141318
 20
-150.1823919980447
 30
0.0
 10
68.95944279960042
 20
-150.1823919980447
 30
0.0
 10
69.12652993063504
 20
-150.3539577532101
 30
0.0
 10
69.12652993063504
 20
-150.6099283477642
 30
0.0
 10
69.12652993063504
 20
-150.6605712513974
 30
0.0
 10
69.11808944669617
 20
-150.7432535430434
 30
0.0
 10
69.07364771493646
 20
-150.8235242678497
 30
0.0
 10
69.01456432736441
 20
-150.9272216419557
 30
0.0
 10
68.94893525837041
 20
-150.9461696671246
 30
0.0
 10
68.88761255873297
 20
-150.9630506350023
 30
0.0
 10
69.02507186859442
 20
-151.0054253094709
 30
0.0
 10
69.0927679948796
 20
-151.0540011558129
 30
0.0
 10
69.09707436423615
 20
-151.3692273927132
 30
0.0
 10
69.10120847881845
 20
-151.6400118978539
 30
0.0
 10
69.13720972663931
 20
-151.6717067763182
 30
0.0
 10
69.20490585292447
 20
-151.7268283040822
 30
0.0
 10
69.20490585292447
 20
-151.7268283040822
 30
0.0
 10
68.90879989596725
 20
-151.7268283040822
 30
0.0
 10
68.90879989596725
 20
-151.7268283040822
 30
0.0
  0
SPLINE
  5
7D
330
73
100
AcDbEntity
  8
_U+30EC_U+30A4_U+30E4_U+30FC 1
370
     0
100
AcDbSpline
210
0.0
220
0.0
230
1.0
 70
    11
 71
     3
 72
    20
 73
    16
 74
     0
 42
0.0000000001
 43
0.0000000001
 12
1.0
 22
0.0
 32
0.0
 13
1.0
 23
0.0
 33
0.0
 40
0.0
 40
0.0
 40
0.0
 40
0.0
 40
1.0
 40
1.0
 40
1.0
 40
2.0
 40
2.0
 40
2.0
 40
3.0
 40
3.0
 40
3.0
 40
4.0
 40
4.0
 40
4.0
 40
5.0
 40
5.0
 40
5.0
 40
5.0
 10
68.65696341599549
 20
-150.393920860839
 30
0.0
 10
68.65696341599549
 20
-150.393920860839
 30
0.0
 10
68.21271835317252
 20
-150.393920860839
 30
0.0
 10
68.21271835317252
 20
-150.393920860839
 30
0.0
 10
68.21271835317252
 20
-150.393920860839
 30
0.0
 10
68.21271835317252
 20
-150.8741671714829
 30
0.0
 10
68.21271835317252
 20
-150.8741671714829
 30
0.0
 10
68.21271835317252
 20
-150.8741671714829
 30
0.0
 10
68.65489635870433
 20
-150.8741671714829
 30
0.0
 10
68.65489635870433
 20
-150.8741671714829
 30
0.0
 10
68.7542873634538
 20
-150.8741671714829
 30
0.0
 10
68.88967961602411
 20
-150.7980305612588
 30
0.0
 10
68.88967961602411
 20
-150.6268093156419
 30
0.0
 10
68.88967961602411
 20
-150.5486056481267
 30
0.0
 10
68.8557454254944
 20
-150.393920860839
 30
0.0
 10
68.65696341599549
 20
-150.393920860839
 30
0.0
  0
HATCH
  5
7E
330
73
100
AcDbEntity
  8
_U+30EC_U+30A4_U+30E4_U+30FC 1
 62
   179
420
  2234388
100
AcDbHatch
 10
0.0
 20
0.0
 30
0.0
210
0.0
220
0.0
230
1.0
  2
SOLID
 70
     1
 71
     0
 91
        2
 92
        1
 93
        1
 72
     4
 94
        3
 73
     0
 74
     1
 95
       44
 96
       40
 40
0.0
 40
0.0
 40
0.0
 40
0.0
 40
1.0
 40
1.0
 40
1.0
 40
2.0
 40
2.0
 40
2.0
 40
3.0
 40
3.0
 40
3.0
 40
4.0
 40
4.0
 40
4.0
 40
5.0
 40
5.0
 40
5.0
 40
6.0
 40
6.0
 40
6.0
 40
7.0
 40
7.0
 40
7.0
 40
8.0
 40
8.0
 40
8.0
 40
9.0
 40
9.0
 40
9.0
 40
10.0
 40
10.0
 40
10.0
 40
11.0
 40
11.0
 40
11.0
 40
12.0
 40
12.0
 40
12.0
 40
13.0
 40
13.0
 40
13.0
 40
13.0
 10
68.90879989596725
 20
-151.7268283040822
 10
68.88537324666756
 20
-151.6823865723225
 10
68.86435816420753
 20
-151.6296766113981
 10
68.86211885214212
 20
-151.3988552138864
 10
68.85798473755982
 20
-151.1556314726278
 10
68.79872909521352
 20
-151.0856960342772
 10
68.62096216817463
 20
-151.0856960342772
 10
68.62096216817463
 20
-151.0856960342772
 10
68.21271835317252
 20
-151.0856960342772
 10
68.21271835317252
 20
-151.0856960342772
 10
68.21271835317252
 20
-151.0856960342772
 10
68.21271835317252
 20
-151.7268283040822
 10
68.21271835317252
 20
-151.7268283040822
 10
68.21271835317252
 20
-151.7268283040822
 10
67.97793509585274
 20
-151.7268283040822
 10
67.97793509585274
 20
-151.7268283040822
 10
67.97793509585274
 20
-151.7268283040822
 10
67.97793509585274
 20
-150.1823919980447
 10
67.97793509585274
 20
-150.1823919980447
 10
67.97793509585274
 20
-150.1823919980447
 10
68.65282930141318
 20
-150.1823919980447
 10
68.65282930141318
 20
-150.1823919980447
 10
68.95944279960042
 20
-150.1823919980447
 10
69.12652993063504
 20
-150.3539577532101
 10
69.12652993063504
 20
-150.6099283477642
 10
69.12652993063504
 20
-150.6605712513974
 10
69.11808944669617
 20
-150.7432535430434
 10
69.07364771493646
 20
-150.8235242678497
 10
69.01456432736441
 20
-150.9272216419557
 10
68.94893525837041
 20
-150.9461696671246
 10
68.88761255873297
 20
-150.9630506350023
 10
69.02507186859442
 20
-151.0054253094709
 10
69.0927679948796
 20
-151.0540011558129
 10
69.09707436423615
 20
-151.3692273927132
 10
69.10120847881845
 20
-151.6400118978539
 10
69.13720972663931
 20
-151.6717067763182
 10
69.20490585292447
 20
-151.7268283040822
 10
69.20490585292447
 20
-151.7268283040822
 10
68.90879989596725
 20
-151.7268283040822
 10
68.90879989596725
 20
-151.7268283040822
 97
        0
 97
        0
 92
        1
 93
        1
 72
     4
 94
        3
 73
     0
 74
     1
 95
       20
 96
       16
 40
0.0
 40
0.0
 40
0.0
 40
0.0
 40
1.0
 40
1.0
 40
1.0
 40
2.0
 40
2.0
 40
2.0
 40
3.0
 40
3.0
 40
3.0
 40
4.0
 40
4.0
 40
4.0
 40
5.0
 40
5.0
 40
5.0
 40
5.0
 10
68.65696341599549
 20
-150.393920860839
 10
68.65696341599549
 20
-150.393920860839
 10
68.21271835317252
 20
-150.393920860839
 10
68.21271835317252
 20
-150.393920860839
 10
68.21271835317252
 20
-150.393920860839
 10
68.21271835317252
 20
-150.8741671714829
 10
68.21271835317252
 20
-150.8741671714829
 10
68.21271835317252
 20
-150.8741671714829
 10
68.65489635870433
 20
-150.8741671714829
 10
68.65489635870433
 20
-150.8741671714829
 10
68.7542873634538
 20
-150.8741671714829
 10
68.88967961602411
 20
-150.7980305612588
 10
68.88967961602411
 20
-150.6268093156419
 10
68.88967961602411
 20
-150.5486056481267
 10
68.8557454254944
 20
-150.393920860839
 10
68.65696341599549
 20
-150.393920860839
 97
        0
 97
        0
 75
     2
 76
     1
 98
        0
  0
ENDBLK
  5
76
330
73
100
AcDbEntity
  8
0
100
AcDbBlockEnd
  0
BLOCK
  5
91
330
8F
100
AcDbEntity
  8
0
100
AcDbBlockBegin
  2
block 3
 70
     0
 10
0.0
 20
0.0
 30
0.0
  3
block 3
  1

  0
SPLINE
  5
93
330
8F
100
AcDbEntity
  8
_U+30EC_U+30A4_U+30E4_U+30FC 1
370
     0
100
AcDbSpline
210
0.0
220
0.0
230
1.0
 70
    11
 71
     3
 72
    29
 73
    25
 74
     0
 42
0.0000000001
 43
0.0000000001
 12
1.0
 22
0.0
 32
0.0
 13
1.0
 23
0.0
 33
0.0
 40
0.0
 40
0.0
 40
0.0
 40
0.0
 40
1.0
 40
1.0
 40
1.0
 40
2.0
 40
2.0
 40
2.0
 40
3.0
 40
3.0
 40
3.0
 40
4.0
 40
4.0
 40
4.0
 40
5.0
 40
5.0
 40
5.0
 40
6.0
 40
6.0
 40
6.0
 40
7.0
 40
7.0
 40
7.0
 40
8.0
 40
8.0
 40
8.0
 40
8.0
 10
114.4498616250334
 20
-144.657147858801
 30
0.0
 10
114.6593234305366
 20
-144.7653238570379
 30
0.0
 10
114.6782714557054
 20
-144.9386121599459
 30
0.0
 10
114.6782714557054
 20
-145.0550563873473
 30
0.0
 10
114.6782714557054
 20
-145.2159423465085
 30
0.0
 10
114.6317626666546
 20
-145.3575357709523
 30
0.0
 10
114.4498616250334
 20
-145.4526204063452
 30
0.0
 10
114.2552137301168
 20
-145.5563177804512
 30
0.0
 10
114.0185356702801
 20
-145.5756103151686
 30
0.0
 10
113.8555826538278
 20
-145.5756103151686
 30
0.0
 10
113.7115776625443
 20
-145.5756103151686
 30
0.0
 10
113.4597411825726
 20
-145.5583848377424
 30
0.0
 10
113.2609591730737
 20
-145.4526204063452
 30
0.0
 10
113.0580430489924
 20
-145.3447889176569
 30
0.0
 10
113.0346163996927
 20
-145.1839029584957
 30
0.0
 10
113.0346163996927
 20
-145.0550563873473
 30
0.0
 10
113.0346163996927
 20
-144.8962374854773
 30
0.0
 10
113.0790581314525
 20
-144.7525770037424
 30
0.0
 10
113.2609591730737
 20
-144.657147858801
 30
0.0
 10
113.4535400106991
 20
-144.5579291088258
 30
0.0
 10
113.6819498413712
 20
-144.5345024595261
 30
0.0
 10
113.8555826538278
 20
-144.5345024595261
 30
0.0
 10
114.0268038994447
 20
-144.5345024595261
 30
0.0
 10
114.2572807874079
 20
-144.5558620515347
 30
0.0
 10
114.4498616250334
 20
-144.657147858801
 30
0.0
  0
SPLINE
  5
94
330
8F
100
AcDbEntity
  8
_U+30EC_U+30A4_U+30E4_U+30FC 1
370
     0
100
AcDbSpline
210
0.0
220
0.0
230
1.0
 70
    11
 71
     3
 72
    17
 73
    13
 74
     0
 42
0.0000000001
 43
0.0000000001
 12
1.0
 22
0.0
 32
0.0
 13
1.0
 23
0.0
 33
0.0
 40
0.0
 40
0.0
 40
0.0
 40
0.0
 40
1.0
 40
1.0
 40
1.0
 40
2.0
 40
2.0
 40
2.0
 40
3.0
 40
3.0
 40
3.0
 40
4.0
 40
4.0
 40
4.0
 40
4.0
 10
113.2271972373182
 20
-145.0550563873473
 30
0.0
 10
113.2271972373182
 20
-145.304825810028
 30
0.0
 10
113.5107285957543
 20
-145.3513345990789
 30
0.0
 10
113.8555826538278
 20
-145.3513345990789
 30
0.0
 10
114.1749430053104
 20
-145.3513345990789
 30
0.0
 10
114.4836235607888
 20
-145.3151610964837
 30
0.0
 10
114.4836235607888
 20
-145.0550563873473
 30
0.0
 10
114.4836235607888
 20
-144.8073540219579
 30
0.0
 10
114.2025037691924
 20
-144.7587781756159
 30
0.0
 10
113.8555826538278
 20
-144.7587781756159
 30
0.0
 10
113.5358777927966
 20
-144.7587781756159
 30
0.0
 10
113.2271972373182
 20
-144.7970187355021
 30
0.0
 10
113.2271972373182
 20
-145.0550563873473
 30
0.0
  0
HATCH
  5
95
330
8F
100
AcDbEntity
  8
_U+30EC_U+30A4_U+30E4_U+30FC 1
 62
   179
420
  2234388
100
AcDbHatch
 10
0.0
 20
0.0
 30
0.0
210
0.0
220
0.0
230
1.0
  2
SOLID
 70
     1
 71
     0
 91
        2
 92
        1
 93
        1
 72
     4
 94
        3
 73
     0
 74
     1
 95
       29
 96
       25
 40
0.0
 40
0.0
 40
0.0
 40
0.0
 40
1.0
 40
1.0
 40
1.0
 40
2.0
 40
2.0
 40
2.0
 40
3.0
 40
3.0
 40
3.0
 40
4.0
 40
4.0
 40
4.0
 40
5.0
 40
5.0
 40
5.0
 40
6.0
 40
6.0
 40
6.0
 40
7.0
 40
7.0
 40
7.0
 40
8.0
 40
8.0
 40
8.0
 40
8.0
 10
114.4498616250334
 20
-144.657147858801
 10
114.6593234305366
 20
-144.7653238570379
 10
114.6782714557054
 20
-144.9386121599459
 10
114.6782714557054
 20
-145.0550563873473
 10
114.6782714557054
 20
-145.2159423465085
 10
114.6317626666546
 20
-145.3575357709523
 10
114.4498616250334
 20
-145.4526204063452
 10
114.2552137301168
 20
-145.5563177804512
 10
114.0185356702801
 20
-145.5756103151686
 10
113.8555826538278
 20
-145.5756103151686
 10
113.7115776625443
 20
-145.5756103151686
 10
113.4597411825726
 20
-145.5583848377424
 10
113.2609591730737
 20
-145.4526204063452
 10
113.0580430489924
 20
-145.3447889176569
 10
113.0346163996927
 20
-145.1839029584957
 10
113.0346163996927
 20
-145.0550563873473
 10
113.0346163996927
 20
-144.8962374854773
 10
113.0790581314525
 20
-144.7525770037424
 10
113.2609591730737
 20
-144.657147858801
 10
113.4535400106991
 20
-144.5579291088258
 10
113.6819498413712
 20
-144.5345024595261
 10
113.8555826538278
 20
-144.5345024595261
 10
114.0268038994447
 20
-144.5345024595261
 10
114.2572807874079
 20
-144.5558620515347
 10
114.4498616250334
 20
-144.657147858801
 97
        0
 97
        0
 92
        1
 93
        1
 72
     4
 94
        3
 73
     0
 74
     1
 95
       17
 96
       13
 40
0.0
 40
0.0
 40
0.0
 40
0.0
 40
1.0
 40
1.0
 40
1.0
 40
2.0
 40
2.0
 40
2.0
 40
3.0
 40
3.0
 40
3.0
 40
4.0
 40
4.0
 40
4.0
 40
4.0
 10
113.2271972373182
 20
-145.0550563873473
 10
113.2271972373182
 20
-145.304825810028
 10
113.5107285957543
 20
-145.3513345990789
 10
113.8555826538278
 20
-145.3513345990789
 10
114.1749430053104
 20
-145.3513345990789
 10
114.4836235607888
 20
-145.3151610964837
 10
114.4836235607888
 20
-145.0550563873473
 10
114.4836235607888
 20
-144.8073540219579
 10
114.2025037691924
 20
-144.7587781756159
 10
113.8555826538278
 20
-144.7587781756159
 10
113.5358777927966
 20
-144.7587781756159
 10
113.2271972373182
 20
-144.7970187355021
 10
113.2271972373182
 20
-145.0550563873473
 97
        0
 97
        0
 75
     2
 76
     1
 98
        0
  0
POLYLINE
  5
96
330
8F
100
AcDbEntity
  8
_U+30EC_U+30A4_U+30E4_U+30FC 1
370
     0
100
AcDb2dPolyline
 66
     1
 10
0.0
 20
0.0
 30
0.0
  0
VERTEX
  5
97
330
96
100
AcDbEntity
  8
_U+30EC_U+30A4_U+30E4_U+30FC 1
370
     0
100
AcDbVertex
100
AcDb2dVertex
 10
114.6276285520723
 20
-144.3181504630524
 30
0.0
  0
VERTEX
  5
98
330
96
100
AcDbEntity
  8
_U+30EC_U+30A4_U+30E4_U+30FC 1
370
     0
100
AcDbVertex
100
AcDb2dVertex
 10
114.3757920721005
 20
-144.3181504630524
 30
0.0
  0
VERTEX
  5
99
330
96
100
AcDbEntity
  8
_U+30EC_U+30A4_U+30E4_U+30FC 1
370
     0
100
AcDbVertex
100
AcDb2dVertex
 10
114.3757920721005
 20
-144.0663139830806
 30
0.0
  0
VERTEX
  5
9A
330
96
100
AcDbEntity
  8
_U+30EC_U+30A4_U+30E4_U+30FC 1
370
     0
100
AcDbVertex
100
AcDb2dVertex
 10
114.6276285520723
 20
-144.0663139830806
 30
0.0
  0
VERTEX
  5
9B
330
96
100
AcDbEntity
  8
_U+30EC_U+30A4_U+30E4_U+30FC 1
370
     0
100
AcDbVertex
100
AcDb2dVertex
 10
114.6276285520723
 20
-144.3181504630524
 30
0.0
  0
SEQEND
  5
9C
330
96
100
AcDbEntity
  8
_U+30EC_U+30A4_U+30E4_U+30FC 1
370
     0
  0
HATCH
  5
9D
330
8F
100
AcDbEntity
  8
_U+30EC_U+30A4_U+30E4_U+30FC 1
 62
   179
420
  2234388
100
AcDbHatch
 10
0.0
 20
0.0
 30
0.0
210
0.0
220
0.0
230
1.0
  2
SOLID
 70
     1
 71
     0
 91
        1
 92
        1
 93
        4
 72
     1
 10
114.6276285520723
 20
-144.3181504630524
 11
114.3757920721005
 21
-144.3181504630524
 72
     1
 10
114.3757920721005
 20
-144.3181504630524
 11
114.3757920721005
 21
-144.0663139830806
 72
     1
 10
114.3757920721005
 20
-144.0663139830806
 11
114.6276285520723
 21
-144.0663139830806
 72
     1
 10
114.6276285520723
 20
-144.0663139830806
 11
114.6276285520723
 21
-144.3181504630524
 97
        0
 75
     2
 76
     1
 98
        0
  0
POLYLINE
  5
9E
330
8F
100
AcDbEntity
  8
_U+30EC_U+30A4_U+30E4_U+30FC 1
370
     0
100
AcDb2dPolyline
 66
     1
 10
0.0
 20
0.0
 30
0.0
  0
VERTEX
  5
9F
330
9E
100
AcDbEntity
  8
_U+30EC_U+30A4_U+30E4_U+30FC 1
370
     0
100
AcDbVertex
100
AcDb2dVertex
 10
114.2807074367076
 20
-142.9979898731047
 30
0.0
  0
VERTEX
  5
A0
330
9E
100
AcDbEntity
  8
_U+30EC_U+30A4_U+30E4_U+30FC 1
370
     0
100
AcDbVertex
100
AcDb2dVertex
 10
114.6276285520723
 20
-142.9979898731047
 30
0.0
  0
VERTEX
  5
A1
330
9E
100
AcDbEntity
  8
_U+30EC_U+30A4_U+30E4_U+30FC 1
370
     0
100
AcDbVertex
100
AcDb2dVertex
 10
114.6276285520723
 20
-143.2157199077725
 30
0.0
  0
VERTEX
  5
A2
330
9E
100
AcDbEntity
  8
_U+30EC_U+30A4_U+30E4_U+30FC 1
370
     0
100
AcDbVertex
100
AcDb2dVertex
 10
114.2807074367076
 20
-143.2157199077725
 30
0.0
  0
VERTEX
  5
A3
330
9E
100
AcDbEntity
  8
_U+30EC_U+30A4_U+30E4_U+30FC 1
370
     0
100
AcDbVertex
100
AcDb2dVertex
 10
114.2807074367076
 20
-143.871666088164
 30
0.0
  0
VERTEX
  5
A4
330
9E
100
AcDbEntity
  8
_U+30EC_U+30A4_U+30E4_U+30FC 1
370
     0
100
AcDbVertex
100
AcDb2dVertex
 10
114.0564317206178
 20
-143.871666088164
 30
0.0
  0
VERTEX
  5
A5
330
9E
100
AcDbEntity
  8
_U+30EC_U+30A4_U+30E4_U+30FC 1
370
     0
100
AcDbVertex
100
AcDb2dVertex
 10
113.0831922460348
 20
-143.1926377680213
 30
0.0
  0
VERTEX
  5
A6
330
9E
100
AcDbEntity
  8
_U+30EC_U+30A4_U+30E4_U+30FC 1
370
     0
100
AcDbVertex
100
AcDb2dVertex
 10
113.0831922460348
 20
-142.9979898731047
 30
0.0
  0
VERTEX
  5
A7
330
9E
100
AcDbEntity
  8
_U+30EC_U+30A4_U+30E4_U+30FC 1
370
     0
100
AcDbVertex
100
AcDb2dVertex
 10
114.0819254272087
 20
-142.9979898731047
 30
0.0
  0
VERTEX
  5
A8
330
9E
100
AcDbEntity
  8
_U+30EC_U+30A4_U+30E4_U+30FC 1
370
     0
100
AcDbVertex
100
AcDb2dVertex
 10
114.0819254272087
 20
-142.7905951248926
 30
0.0
  0
VERTEX
  5
A9
330
9E
100
AcDbEntity
  8
_U+30EC_U+30A4_U+30E4_U+30FC 1
370
     0
100
AcDbVertex
100
AcDb2dVertex
 10
114.2807074367076
 20
-142.7905951248926
 30
0.0
  0
VERTEX
  5
AA
330
9E
100
AcDbEntity
  8
_U+30EC_U+30A4_U+30E4_U+30FC 1
370
     0
100
AcDbVertex
100
AcDb2dVertex
 10
114.2807074367076
 20
-142.9979898731047
 30
0.0
  0
SEQEND
  5
AB
330
9E
100
AcDbEntity
  8
_U+30EC_U+30A4_U+30E4_U+30FC 1
370
     0
  0
POLYLINE
  5
AC
330
8F
100
AcDbEntity
  8
_U+30EC_U+30A4_U+30E4_U+30FC 1
370
     0
100
AcDb2dPolyline
 66
     1
 10
0.0
 20
0.0
 30
0.0
  0
VERTEX
  5
AD
330
AC
100
AcDbEntity
  8
_U+30EC_U+30A4_U+30E4_U+30FC 1
370
     0
100
AcDbVertex
100
AcDb2dVertex
 10
113.4259792468171
 20
-143.2157199077725
 30
0.0
  0
VERTEX
  5
AE
330
AC
100
AcDbEntity
  8
_U+30EC_U+30A4_U+30E4_U+30FC 1
370
     0
100
AcDbVertex
100
AcDb2dVertex
 10
114.0819254272087
 20
-143.6728840786651
 30
0.0
  0
VERTEX
  5
AF
330
AC
100
AcDbEntity
  8
_U+30EC_U+30A4_U+30E4_U+30FC 1
370
     0
100
AcDbVertex
100
AcDb2dVertex
 10
114.0819254272087
 20
-143.2157199077725
 30
0.0
  0
VERTEX
  5
B0
330
AC
100
AcDbEntity
  8
_U+30EC_U+30A4_U+30E4_U+30FC 1
370
     0
100
AcDbVertex
100
AcDb2dVertex
 10
113.4259792468171
 20
-143.2157199077725
 30
0.0
  0
SEQEND
  5
B1
330
AC
100
AcDbEntity
  8
_U+30EC_U+30A4_U+30E4_U+30FC 1
370
     0
  0
HATCH
  5
B2
330
8F
100
AcDbEntity
  8
_U+30EC_U+30A4_U+30E4_U+30FC 1
 62
   179
420
  2234388
100
AcDbHatch
 10
0.0
 20
0.0
 30
0.0
210
0.0
220
0.0
230
1.0
  2
SOLID
 70
     1
 71
     0
 91
        2
 92
        1
 93
       11
 72
     1
 10
114.2807074367076
 20
-142.9979898731047
 11
114.6276285520723
 21
-142.9979898731047
 72
     1
 10
114.6276285520723
 20
-142.9979898731047
 11
114.6276285520723
 21
-143.2157199077725
 72
     1
 10
114.6276285520723
 20
-143.2157199077725
 11
114.2807074367076
 21
-143.2157199077725
 72
     1
 10
114.2807074367076
 20
-143.2157199077725
 11
114.2807074367076
 21
-143.871666088164
 72
     1
 10
114.2807074367076
 20
-143.871666088164
 11
114.0564317206178
 21
-143.871666088164
 72
     1
 10
114.0564317206178
 20
-143.871666088164
 11
113.0831922460348
 21
-143.1926377680213
 72
     1
 10
113.0831922460348
 20
-143.1926377680213
 11
113.0831922460348
 21
-142.9979898731047
 72
     1
 10
113.0831922460348
 20
-142.9979898731047
 11
114.0819254272087
 21
-142.9979898731047
 72
     1
 10
114.0819254272087
 20
-142.9979898731047
 11
114.0819254272087
 21
-142.7905951248926
 72
     1
 10
114.0819254272087
 20
-142.7905951248926
 11
114.2807074367076
 21
-142.7905951248926
 72
     1
 10
114.2807074367076
 20
-142.7905951248926
 11
114.2807074367076
 21
-142.9979898731047
 97
        0
 92
        1
 93
        3
 72
     1
 10
113.4259792468171
 20
-143.2157199077725
 11
114.0819254272087
 21
-143.6728840786651
 72
     1
 10
114.0819254272087
 20
-143.6728840786651
 11
114.0819254272087
 21
-143.2157199077725
 72
     1
 10
114.0819254272087
 20
-143.2157199077725
 11
113.4259792468171
 21
-143.2157199077725
 97
        0
 75
     2
 76
     1
 98
        0
  0
ENDBLK
  5
92
330
8F
100
AcDbEntity
  8
0
100
AcDbBlockEnd
  0
BLOCK
  5
C5
330
C3
100
AcDbEntity
  8
0
100
AcDbBlockBegin
  2
block 4
 70
     0
 10
0.0
 20
0.0
 30
0.0
  3
block 4
  1

  0
SPLINE
  5
C7
330
C3
100
AcDbEntity
  8
_U+30EC_U+30A4_U+30E4_U+30FC 1
370
     0
100
AcDbSpline
210
0.0
220
0.0
230
1.0
 70
    11
 71
     3
 72
    29
 73
    25
 74
     0
 42
0.0000000001
 43
0.0000000001
 12
1.0
 22
0.0
 32
0.0
 13
1.0
 23
0.0
 33
0.0
 40
0.0
 40
0.0
 40
0.0
 40
0.0
 40
1.0
 40
1.0
 40
1.0
 40
2.0
 40
2.0
 40
2.0
 40
3.0
 40
3.0
 40
3.0
 40
4.0
 40
4.0
 40
4.0
 40
5.0
 40
5.0
 40
5.0
 40
6.0
 40
6.0
 40
6.0
 40
7.0
 40
7.0
 40
7.0
 40
8.0
 40
8.0
 40
8.0
 40
8.0
 10
79.84026012543924
 20
-105.5485961650191
 30
0.0
 10
79.73242863675092
 20
-105.7580579705223
 30
0.0
 10
79.55896807906859
 20
-105.7771782504654
 30
0.0
 10
79.44252385166715
 20
-105.7771782504654
 30
0.0
 10
79.28181014728024
 20
-105.7771782504654
 30
0.0
 10
79.14004446806221
 20
-105.7306694614146
 30
0.0
 10
79.04478757789505
 20
-105.5485961650191
 30
0.0
 10
78.9412624585633
 20
-105.3541205248767
 30
0.0
 10
78.92214217862016
 20
-105.1170979554916
 30
0.0
 10
78.92214217862016
 20
-104.9541449390393
 30
0.0
 10
78.92214217862016
 20
-104.8103122025301
 30
0.0
 10
78.93902314649789
 20
-104.5586479773326
 30
0.0
 10
79.04478757789505
 20
-104.3596937130594
 30
0.0
 10
79.15279132135764
 20
-104.1566053342039
 30
0.0
 10
79.31350502574455
 20
-104.1333509396785
 30
0.0
 10
79.44252385166715
 20
-104.1333509396785
 30
0.0
 10
79.60117049876291
 20
-104.1333509396785
 30
0.0
 10
79.74500323527208
 20
-104.1777926714382
 30
0.0
 10
79.84026012543924
 20
-104.3596937130594
 30
0.0
 10
79.93965113018871
 20
-104.5522745506849
 30
0.0
 10
79.96290552471415
 20
-104.7806843813569
 30
0.0
 10
79.96290552471415
 20
-104.9541449390393
 30
0.0
 10
79.96290552471415
 20
-105.1255384394304
 30
0.0
 10
79.94189044225412
 20
-105.3561875821679
 30
0.0
 10
79.84026012543924
 20
-105.5485961650191
 30
0.0
  0
SPLINE
  5
C8
330
C3
100
AcDbEntity
  8
_U+30EC_U+30A4_U+30E4_U+30FC 1
370
     0
100
AcDbSpline
210
0.0
220
0.0
230
1.0
 70
    11
 71
     3
 72
    17
 73
    13
 74
     0
 42
0.0000000001
 43
0.0000000001
 12
1.0
 22
0.0
 32
0.0
 13
1.0
 23
0.0
 33
0.0
 40
0.0
 40
0.0
 40
0.0
 40
0.0
 40
1.0
 40
1.0
 40
1.0
 40
2.0
 40
2.0
 40
2.0
 40
3.0
 40
3.0
 40
3.0
 40
4.0
 40
4.0
 40
4.0
 40
4.0
 10
79.44252385166715
 20
-104.3259317773039
 30
0.0
 10
79.1929266837608
 20
-104.3259317773039
 30
0.0
 10
79.14641789470993
 20
-104.6092908809657
 30
0.0
 10
79.14641789470993
 20
-104.9541449390393
 30
0.0
 10
79.14641789470993
 20
-105.2736775452962
 30
0.0
 10
79.18241914253079
 20
-105.5825303555488
 30
0.0
 10
79.44252385166715
 20
-105.5825303555488
 30
0.0
 10
79.69005396228235
 20
-105.5825303555488
 30
0.0
 10
79.73880206339864
 20
-105.3010660544039
 30
0.0
 10
79.73880206339864
 20
-104.9541449390393
 30
0.0
 10
79.73880206339864
 20
-104.6347845875566
 30
0.0
 10
79.70073375828663
 20
-104.3259317773039
 30
0.0
 10
79.44252385166715
 20
-104.3259317773039
 30
0.0
  0
HATCH
  5
C9
330
C3
100
AcDbEntity
  8
_U+30EC_U+30A4_U+30E4_U+30FC 1
 62
   179
420
  2234388
100
AcDbHatch
 10
0.0
 20
0.0
 30
0.0
210
0.0
220
0.0
230
1.0
  2
SOLID
 70
     1
 71
     0
 91
        2
 92
        1
 93
        1
 72
     4
 94
        3
 73
     0
 74
     1
 95
       29
 96
       25
 40
0.0
 40
0.0
 40
0.0
 40
0.0
 40
1.0
 40
1.0
 40
1.0
 40
2.0
 40
2.0
 40
2.0
 40
3.0
 40
3.0
 40
3.0
 40
4.0
 40
4.0
 40
4.0
 40
5.0
 40
5.0
 40
5.0
 40
6.0
 40
6.0
 40
6.0
 40
7.0
 40
7.0
 40
7.0
 40
8.0
 40
8.0
 40
8.0
 40
8.0
 10
79.84026012543924
 20
-105.5485961650191
 10
79.73242863675092
 20
-105.7580579705223
 10
79.55896807906859
 20
-105.7771782504654
 10
79.44252385166715
 20
-105.7771782504654
 10
79.28181014728024
 20
-105.7771782504654
 10
79.14004446806221
 20
-105.7306694614146
 10
79.04478757789505
 20
-105.5485961650191
 10
78.9412624585633
 20
-105.3541205248767
 10
78.92214217862016
 20
-105.1170979554916
 10
78.92214217862016
 20
-104.9541449390393
 10
78.92214217862016
 20
-104.8103122025301
 10
78.93902314649789
 20
-104.5586479773326
 10
79.04478757789505
 20
-104.3596937130594
 10
79.15279132135764
 20
-104.1566053342039
 10
79.31350502574455
 20
-104.1333509396785
 10
79.44252385166715
 20
-104.1333509396785
 10
79.60117049876291
 20
-104.1333509396785
 10
79.74500323527208
 20
-104.1777926714382
 10
79.84026012543924
 20
-104.3596937130594
 10
79.93965113018871
 20
-104.5522745506849
 10
79.96290552471415
 20
-104.7806843813569
 10
79.96290552471415
 20
-104.9541449390393
 10
79.96290552471415
 20
-105.1255384394304
 10
79.94189044225412
 20
-105.3561875821679
 10
79.84026012543924
 20
-105.5485961650191
 97
        0
 97
        0
 92
        1
 93
        1
 72
     4
 94
        3
 73
     0
 74
     1
 95
       17
 96
       13
 40
0.0
 40
0.0
 40
0.0
 40
0.0
 40
1.0
 40
1.0
 40
1.0
 40
2.0
 40
2.0
 40
2.0
 40
3.0
 40
3.0
 40
3.0
 40
4.0
 40
4.0
 40
4.0
 40
4.0
 10
79.44252385166715
 20
-104.3259317773039
 10
79.1929266837608
 20
-104.3259317773039
 10
79.14641789470993
 20
-104.6092908809657
 10
79.14641789470993
 20
-104.9541449390393
 10
79.14641789470993
 20
-105.2736775452962
 10
79.18241914253079
 20
-105.5825303555488
 10
79.44252385166715
 20
-105.5825303555488
 10
79.69005396228235
 20
-105.5825303555488
 10
79.73880206339864
 20
-105.3010660544039
 10
79.73880206339864
 20
-104.9541449390393
 10
79.73880206339864
 20
-104.6347845875566
 10
79.70073375828663
 20
-104.3259317773039
 10
79.44252385166715
 20
-104.3259317773039
 97
        0
 97
        0
 75
     2
 76
     1
 98
        0
  0
POLYLINE
  5
CA
330
C3
100
AcDbEntity
  8
_U+30EC_U+30A4_U+30E4_U+30FC 1
370
     0
100
AcDb2dPolyline
 66
     1
 10
0.0
 20
0.0
 30
0.0
  0
VERTEX
  5
CB
330
CA
100
AcDbEntity
  8
_U+30EC_U+30A4_U+30E4_U+30FC 1
370
     0
100
AcDbVertex
100
AcDb2dVertex
 10
80.17942977596209
 20
-105.726363092058
 30
0.0
  0
VERTEX
  5
CC
330
CA
100
AcDbEntity
  8
_U+30EC_U+30A4_U+30E4_U+30FC 1
370
     0
100
AcDbVertex
100
AcDb2dVertex
 10
80.17942977596209
 20
-105.4746988668605
 30
0.0
  0
VERTEX
  5
CD
330
CA
100
AcDbEntity
  8
_U+30EC_U+30A4_U+30E4_U+30FC 1
370
     0
100
AcDbVertex
100
AcDb2dVertex
 10
80.4310940011596
 20
-105.4746988668605
 30
0.0
  0
VERTEX
  5
CE
330
CA
100
AcDbEntity
  8
_U+30EC_U+30A4_U+30E4_U+30FC 1
370
     0
100
AcDbVertex
100
AcDb2dVertex
 10
80.4310940011596
 20
-105.726363092058
 30
0.0
  0
VERTEX
  5
CF
330
CA
100
AcDbEntity
  8
_U+30EC_U+30A4_U+30E4_U+30FC 1
370
     0
100
AcDbVertex
100
AcDb2dVertex
 10
80.17942977596209
 20
-105.726363092058
 30
0.0
  0
SEQEND
  5
D0
330
CA
100
AcDbEntity
  8
_U+30EC_U+30A4_U+30E4_U+30FC 1
370
     0
  0
HATCH
  5
D1
330
C3
100
AcDbEntity
  8
_U+30EC_U+30A4_U+30E4_U+30FC 1
 62
   179
420
  2234388
100
AcDbHatch
 10
0.0
 20
0.0
 30
0.0
210
0.0
220
0.0
230
1.0
  2
SOLID
 70
     1
 71
     0
 91
        1
 92
        1
 93
        4
 72
     1
 10
80.17942977596209
 20
-105.726363092058
 11
80.17942977596209
 21
-105.4746988668605
 72
     1
 10
80.17942977596209
 20
-105.4746988668605
 11
80.4310940011596
 21
-105.4746988668605
 72
     1
 10
80.4310940011596
 20
-105.4746988668605
 11
80.4310940011596
 21
-105.726363092058
 72
     1
 10
80.4310940011596
 20
-105.726363092058
 11
80.17942977596209
 21
-105.726363092058
 97
        0
 75
     2
 76
     1
 98
        0
  0
POLYLINE
  5
D2
330
C3
100
AcDbEntity
  8
_U+30EC_U+30A4_U+30E4_U+30FC 1
370
     0
100
AcDb2dPolyline
 66
     1
 10
0.0
 20
0.0
 30
0.0
  0
VERTEX
  5
D3
330
D2
100
AcDbEntity
  8
_U+30EC_U+30A4_U+30E4_U+30FC 1
370
     0
100
AcDbVertex
100
AcDb2dVertex
 10
81.4997626206841
 20
-105.3794419766933
 30
0.0
  0
VERTEX
  5
D4
330
D2
100
AcDbEntity
  8
_U+30EC_U+30A4_U+30E4_U+30FC 1
370
     0
100
AcDbVertex
100
AcDb2dVertex
 10
81.4997626206841
 20
-105.726363092058
 30
0.0
  0
VERTEX
  5
D5
330
D2
100
AcDbEntity
  8
_U+30EC_U+30A4_U+30E4_U+30FC 1
370
     0
100
AcDbVertex
100
AcDb2dVertex
 10
81.28186033124204
 20
-105.726363092058
 30
0.0
  0
VERTEX
  5
D6
330
D2
100
AcDbEntity
  8
_U+30EC_U+30A4_U+30E4_U+30FC 1
370
     0
100
AcDbVertex
100
AcDb2dVertex
 10
81.28186033124204
 20
-105.3794419766933
 30
0.0
  0
VERTEX
  5
D7
330
D2
100
AcDbEntity
  8
_U+30EC_U+30A4_U+30E4_U+30FC 1
370
     0
100
AcDbVertex
100
AcDb2dVertex
 10
80.62608640562473
 20
-105.3794419766933
 30
0.0
  0
VERTEX
  5
D8
330
D2
100
AcDbEntity
  8
_U+30EC_U+30A4_U+30E4_U+30FC 1
370
     0
100
AcDbVertex
100
AcDb2dVertex
 10
80.62608640562473
 20
-105.1551662606036
 30
0.0
  0
VERTEX
  5
D9
330
D2
100
AcDbEntity
  8
_U+30EC_U+30A4_U+30E4_U+30FC 1
370
     0
100
AcDbVertex
100
AcDb2dVertex
 10
81.30511472576748
 20
-104.1820990407948
 30
0.0
  0
VERTEX
  5
DA
330
D2
100
AcDbEntity
  8
_U+30EC_U+30A4_U+30E4_U+30FC 1
370
     0
100
AcDbVertex
100
AcDb2dVertex
 10
81.4997626206841
 20
-104.1820990407948
 30
0.0
  0
VERTEX
  5
DB
330
D2
100
AcDbEntity
  8
_U+30EC_U+30A4_U+30E4_U+30FC 1
370
     0
100
AcDbVertex
100
AcDb2dVertex
 10
81.4997626206841
 20
-105.1804877124202
 30
0.0
  0
VERTEX
  5
DC
330
D2
100
AcDbEntity
  8
_U+30EC_U+30A4_U+30E4_U+30FC 1
370
     0
100
AcDbVertex
100
AcDb2dVertex
 10
81.70715736889613
 20
-105.1804877124202
 30
0.0
  0
VERTEX
  5
DD
330
D2
100
AcDbEntity
  8
_U+30EC_U+30A4_U+30E4_U+30FC 1
370
     0
100
AcDbVertex
100
AcDb2dVertex
 10
81.70715736889613
 20
-105.3794419766933
 30
0.0
  0
VERTEX
  5
DE
330
D2
100
AcDbEntity
  8
_U+30EC_U+30A4_U+30E4_U+30FC 1
370
     0
100
AcDbVertex
100
AcDb2dVertex
 10
81.4997626206841
 20
-105.3794419766933
 30
0.0
  0
SEQEND
  5
DF
330
D2
100
AcDbEntity
  8
_U+30EC_U+30A4_U+30E4_U+30FC 1
370
     0
  0
POLYLINE
  5
E0
330
C3
100
AcDbEntity
  8
_U+30EC_U+30A4_U+30E4_U+30FC 1
370
     0
100
AcDb2dPolyline
 66
     1
 10
0.0
 20
0.0
 30
0.0
  0
VERTEX
  5
E1
330
E0
100
AcDbEntity
  8
_U+30EC_U+30A4_U+30E4_U+30FC 1
370
     0
100
AcDbVertex
100
AcDb2dVertex
 10
81.28186033124204
 20
-104.5247137868028
 30
0.0
  0
VERTEX
  5
E2
330
E0
100
AcDbEntity
  8
_U+30EC_U+30A4_U+30E4_U+30FC 1
370
     0
100
AcDbVertex
100
AcDb2dVertex
 10
80.82504066989792
 20
-105.1804877124202
 30
0.0
  0
VERTEX
  5
E3
330
E0
100
AcDbEntity
  8
_U+30EC_U+30A4_U+30E4_U+30FC 1
370
     0
100
AcDbVertex
100
AcDb2dVertex
 10
81.28186033124204
 20
-105.1804877124202
 30
0.0
  0
VERTEX
  5
E4
330
E0
100
AcDbEntity
  8
_U+30EC_U+30A4_U+30E4_U+30FC 1
370
     0
100
AcDbVertex
100
AcDb2dVertex
 10
81.28186033124204
 20
-104.5247137868028
 30
0.0
  0
SEQEND
  5
E5
330
E0
100
AcDbEntity
  8
_U+30EC_U+30A4_U+30E4_U+30FC 1
370
     0
  0
HATCH
  5
E6
330
C3
100
AcDbEntity
  8
_U+30EC_U+30A4_U+30E4_U+30FC 1
 62
   179
420
  2234388
100
AcDbHatch
 10
0.0
 20
0.0
 30
0.0
210
0.0
220
0.0
230
1.0
  2
SOLID
 70
     1
 71
     0
 91
        2
 92
        1
 93
       11
 72
     1
 10
81.4997626206841
 20
-105.3794419766933
 11
81.4997626206841
 21
-105.726363092058
 72
     1
 10
81.4997626206841
 20
-105.726363092058
 11
81.28186033124204
 21
-105.726363092058
 72
     1
 10
81.28186033124204
 20
-105.726363092058
 11
81.28186033124204
 21
-105.3794419766933
 72
     1
 10
81.28186033124204
 20
-105.3794419766933
 11
80.62608640562473
 21
-105.3794419766933
 72
     1
 10
80.62608640562473
 20
-105.3794419766933
 11
80.62608640562473
 21
-105.1551662606036
 72
     1
 10
80.62608640562473
 20
-105.1551662606036
 11
81.30511472576748
 21
-104.1820990407948
 72
     1
 10
81.30511472576748
 20
-104.1820990407948
 11
81.4997626206841
 21
-104.1820990407948
 72
     1
 10
81.4997626206841
 20
-104.1820990407948
 11
81.4997626206841
 21
-105.1804877124202
 72
     1
 10
81.4997626206841
 20
-105.1804877124202
 11
81.70715736889613
 21
-105.1804877124202
 72
     1
 10
81.70715736889613
 20
-105.1804877124202
 11
81.70715736889613
 21
-105.3794419766933
 72
     1
 10
81.70715736889613
 20
-105.3794419766933
 11
81.4997626206841
 21
-105.3794419766933
 97
        0
 92
        1
 93
        3
 72
     1
 10
81.28186033124204
 20
-104.5247137868028
 11
80.82504066989792
 21
-105.1804877124202
 72
     1
 10
80.82504066989792
 20
-105.1804877124202
 11
81.28186033124204
 21
-105.1804877124202
 72
     1
 10
81.28186033124204
 20
-105.1804877124202
 11
81.28186033124204
 21
-104.5247137868028
 97
        0
 75
     2
 76
     1
 98
        0
  0
ENDBLK
  5
C6
330
C3
100
AcDbEntity
  8
0
100
AcDbBlockEnd
  0
BLOCK
  5
F5
330
F3
100
AcDbEntity
  8
0
100
AcDbBlockBegin
  2
block 5
 70
     0
 10
0.0
 20
0.0
 30
0.0
  3
block 5
  1

  0
SPLINE
  5
F7
330
F3
100
AcDbEntity
  8
_U+30EC_U+30A4_U+30E4_U+30FC 1
370
     0
100
AcDbSpline
210
0.0
220
0.0
230
1.0
 70
    11
 71
     3
 72
    62
 73
    58
 74
     0
 42
0.0000000001
 43
0.0000000001
 12
1.0
 22
0.0
 32
0.0
 13
1.0
 23
0.0
 33
0.0
 40
0.0
 40
0.0
 40
0.0
 40
0.0
 40
1.0
 40
1.0
 40
1.0
 40
2.0
 40
2.0
 40
2.0
 40
3.0
 40
3.0
 40
3.0
 40
4.0
 40
4.0
 40
4.0
 40
5.0
 40
5.0
 40
5.0
 40
6.0
 40
6.0
 40
6.0
 40
7.0
 40
7.0
 40
7.0
 40
8.0
 40
8.0
 40
8.0
 40
9.0
 40
9.0
 40
9.0
 40
10.0
 40
10.0
 40
10.0
 40
11.0
 40
11.0
 40
11.0
 40
12.0
 40
12.0
 40
12.0
 40
13.0
 40
13.0
 40
13.0
 40
14.0
 40
14.0
 40
14.0
 40
15.0
 40
15.0
 40
15.0
 40
16.0
 40
16.0
 40
16.0
 40
17.0
 40
17.0
 40
17.0
 40
18.0
 40
18.0
 40
18.0
 40
19.0
 40
19.0
 40
19.0
 40
19.0
 10
70.39484183352977
 20
-130.1122992296247
 30
0.0
 10
70.39484183352977
 20
-130.2077283745661
 30
0.0
 10
70.37365449629547
 20
-130.4254584092339
 30
0.0
 10
70.18744708531773
 20
-130.5505153753485
 30
0.0
 10
70.07530922727284
 20
-130.6245849282814
 30
0.0
 10
69.97591822252339
 20
-130.6287190428637
 30
0.0
 10
69.8913411283605
 20
-130.632853157446
 30
0.0
 10
69.8913411283605
 20
-130.632853157446
 30
0.0
 10
69.8913411283605
 20
-130.4127115559385
 30
0.0
 10
69.8913411283605
 20
-130.4127115559385
 30
0.0
 10
69.96541068129338
 20
-130.4106444986473
 30
0.0
 10
70.20019393861315
 20
-130.4003092121916
 30
0.0
 10
70.20019393861315
 20
-130.1167778537555
 30
0.0
 10
70.20019393861315
 20
-129.9793185438941
 30
0.0
 10
70.13043075503684
 20
-129.8267008138975
 30
0.0
 10
69.9018486695905
 20
-129.8267008138975
 30
0.0
 10
69.78557669696333
 20
-129.8267008138975
 30
0.0
 10
69.73682859584704
 20
-129.8649413737838
 30
0.0
 10
69.70513371738275
 20
-129.8966362522481
 30
0.0
 10
69.63106416444988
 20
-129.9707058051809
 30
0.0
 10
69.61848956592871
 20
-130.0871500325824
 30
0.0
 10
69.61848956592871
 20
-130.1419270507978
 30
0.0
 10
69.61848956592871
 20
-130.1612195855153
 30
0.0
 10
69.62055662321987
 20
-130.1970485785619
 30
0.0
 10
69.62469073780217
 20
-130.2246093424438
 30
0.0
 10
69.62469073780217
 20
-130.2246093424438
 30
0.0
 10
69.43004284288554
 20
-130.2246093424438
 30
0.0
 10
69.43004284288554
 20
-130.2246093424438
 30
0.0
 10
69.43641626953325
 20
-130.1863687825576
 30
0.0
 10
69.43865558159867
 20
-130.1443386176375
 30
0.0
 10
69.43865558159867
 20
-130.1377929362156
 30
0.0
 10
69.43865558159867
 20
-130.0723361219958
 30
0.0
 10
69.41746824436439
 20
-129.8735541124969
 30
0.0
 10
69.1804456749792
 20
-129.8735541124969
 30
0.0
 10
69.00285100271456
 20
-129.8735541124969
 30
0.0
 10
68.94772947495058
 20
-130.0044677409364
 30
0.0
 10
68.94772947495058
 20
-130.1147107964644
 30
0.0
 10
68.94772947495058
 20
-130.3789496201831
 30
0.0
 10
69.1804456749792
 20
-130.3875623588962
 30
0.0
 10
69.25244817062092
 20
-130.3916964734785
 30
0.0
 10
69.25244817062092
 20
-130.3916964734785
 30
0.0
 10
69.25244817062092
 20
-130.5949571071082
 30
0.0
 10
69.25244817062092
 20
-130.5949571071082
 30
0.0
 10
69.12756345928061
 20
-130.5863443683951
 30
0.0
 10
68.7510145227428
 20
-130.5587836045131
 30
0.0
 10
68.7510145227428
 20
-130.101963943169
 30
0.0
 10
68.7510145227428
 20
-129.8776882270792
 30
0.0
 10
68.87796629137426
 20
-129.6365315431117
 30
0.0
 10
69.17407224833148
 20
-129.6365315431117
 30
0.0
 10
69.36027965930924
 20
-129.6365315431117
 30
0.0
 10
69.44278969618097
 20
-129.7316161785046
 30
0.0
 10
69.50411239581842
 20
-129.8311794380283
 30
0.0
 10
69.53167315970042
 20
-129.7698567383909
 30
0.0
 10
69.612116139281
 20
-129.5879556967697
 30
0.0
 10
69.88927407106935
 20
-129.5879556967697
 30
0.0
 10
70.22775470249515
 20
-129.5879556967697
 30
0.0
 10
70.39484183352977
 20
-129.8353135526106
 30
0.0
 10
70.39484183352977
 20
-130.1122992296247
 30
0.0
  0
HATCH
  5
F8
330
F3
100
AcDbEntity
  8
_U+30EC_U+30A4_U+30E4_U+30FC 1
 62
   179
420
  2234388
100
AcDbHatch
 10
0.0
 20
0.0
 30
0.0
210
0.0
220
0.0
230
1.0
  2
SOLID
 70
     1
 71
     0
 91
        1
 92
        1
 93
        1
 72
     4
 94
        3
 73
     0
 74
     1
 95
       62
 96
       58
 40
0.0
 40
0.0
 40
0.0
 40
0.0
 40
1.0
 40
1.0
 40
1.0
 40
2.0
 40
2.0
 40
2.0
 40
3.0
 40
3.0
 40
3.0
 40
4.0
 40
4.0
 40
4.0
 40
5.0
 40
5.0
 40
5.0
 40
6.0
 40
6.0
 40
6.0
 40
7.0
 40
7.0
 40
7.0
 40
8.0
 40
8.0
 40
8.0
 40
9.0
 40
9.0
 40
9.0
 40
10.0
 40
10.0
 40
10.0
 40
11.0
 40
11.0
 40
11.0
 40
12.0
 40
12.0
 40
12.0
 40
13.0
 40
13.0
 40
13.0
 40
14.0
 40
14.0
 40
14.0
 40
15.0
 40
15.0
 40
15.0
 40
16.0
 40
16.0
 40
16.0
 40
17.0
 40
17.0
 40
17.0
 40
18.0
 40
18.0
 40
18.0
 40
19.0
 40
19.0
 40
19.0
 40
19.0
 10
70.39484183352977
 20
-130.1122992296247
 10
70.39484183352977
 20
-130.2077283745661
 10
70.37365449629547
 20
-130.4254584092339
 10
70.18744708531773
 20
-130.5505153753485
 10
70.07530922727284
 20
-130.6245849282814
 10
69.97591822252339
 20
-130.6287190428637
 10
69.8913411283605
 20
-130.632853157446
 10
69.8913411283605
 20
-130.632853157446
 10
69.8913411283605
 20
-130.4127115559385
 10
69.8913411283605
 20
-130.4127115559385
 10
69.96541068129338
 20
-130.4106444986473
 10
70.20019393861315
 20
-130.4003092121916
 10
70.20019393861315
 20
-130.1167778537555
 10
70.20019393861315
 20
-129.9793185438941
 10
70.13043075503684
 20
-129.8267008138975
 10
69.9018486695905
 20
-129.8267008138975
 10
69.78557669696333
 20
-129.8267008138975
 10
69.73682859584704
 20
-129.8649413737838
 10
69.70513371738275
 20
-129.8966362522481
 10
69.63106416444988
 20
-129.9707058051809
 10
69.61848956592871
 20
-130.0871500325824
 10
69.61848956592871
 20
-130.1419270507978
 10
69.61848956592871
 20
-130.1612195855153
 10
69.62055662321987
 20
-130.1970485785619
 10
69.62469073780217
 20
-130.2246093424438
 10
69.62469073780217
 20
-130.2246093424438
 10
69.43004284288554
 20
-130.2246093424438
 10
69.43004284288554
 20
-130.2246093424438
 10
69.43641626953325
 20
-130.1863687825576
 10
69.43865558159867
 20
-130.1443386176375
 10
69.43865558159867
 20
-130.1377929362156
 10
69.43865558159867
 20
-130.0723361219958
 10
69.41746824436439
 20
-129.8735541124969
 10
69.1804456749792
 20
-129.8735541124969
 10
69.00285100271456
 20
-129.8735541124969
 10
68.94772947495058
 20
-130.0044677409364
 10
68.94772947495058
 20
-130.1147107964644
 10
68.94772947495058
 20
-130.3789496201831
 10
69.1804456749792
 20
-130.3875623588962
 10
69.25244817062092
 20
-130.3916964734785
 10
69.25244817062092
 20
-130.3916964734785
 10
69.25244817062092
 20
-130.5949571071082
 10
69.25244817062092
 20
-130.5949571071082
 10
69.12756345928061
 20
-130.5863443683951
 10
68.7510145227428
 20
-130.5587836045131
 10
68.7510145227428
 20
-130.101963943169
 10
68.7510145227428
 20
-129.8776882270792
 10
68.87796629137426
 20
-129.6365315431117
 10
69.17407224833148
 20
-129.6365315431117
 10
69.36027965930924
 20
-129.6365315431117
 10
69.44278969618097
 20
-129.7316161785046
 10
69.50411239581842
 20
-129.8311794380283
 10
69.53167315970042
 20
-129.7698567383909
 10
69.612116139281
 20
-129.5879556967697
 10
69.88927407106935
 20
-129.5879556967697
 10
70.22775470249515
 20
-129.5879556967697
 10
70.39484183352977
 20
-129.8353135526106
 10
70.39484183352977
 20
-130.1122992296247
 97
        0
 97
        0
 75
     2
 76
     1
 98
        0
  0
SPLINE
  5
F9
330
F3
100
AcDbEntity
  8
_U+30EC_U+30A4_U+30E4_U+30FC 1
370
     0
100
AcDbSpline
210
0.0
220
0.0
230
1.0
 70
    11
 71
     3
 72
    29
 73
    25
 74
     0
 42
0.0000000001
 43
0.0000000001
 12
1.0
 22
0.0
 32
0.0
 13
1.0
 23
0.0
 33
0.0
 40
0.0
 40
0.0
 40
0.0
 40
0.0
 40
1.0
 40
1.0
 40
1.0
 40
2.0
 40
2.0
 40
2.0
 40
3.0
 40
3.0
 40
3.0
 40
4.0
 40
4.0
 40
4.0
 40
5.0
 40
5.0
 40
5.0
 40
6.0
 40
6.0
 40
6.0
 40
7.0
 40
7.0
 40
7.0
 40
8.0
 40
8.0
 40
8.0
 40
8.0
 10
70.39484183352977
 20
-128.9271863826988
 30
0.0
 10
70.39484183352977
 20
-129.1938367732571
 30
0.0
 10
70.25721026889403
 20
-129.44774031052
 30
0.0
 10
69.90822209623822
 20
-129.44774031052
 30
0.0
 10
69.65225150168416
 20
-129.44774031052
 30
0.0
 10
69.556994611517
 20
-129.3058023765277
 30
0.0
 10
69.49567191187955
 20
-129.2000379451306
 30
0.0
 10
69.43641626953325
 20
-129.3247504016966
 30
0.0
 10
69.32221135419722
 20
-129.4008870119206
 30
0.0
 10
69.16149764981033
 20
-129.4008870119206
 30
0.0
 10
68.88640677531312
 20
-129.4008870119206
 30
0.0
 10
68.7510145227428
 20
-129.2021050024217
 30
0.0
 10
68.7510145227428
 20
-128.9271863826988
 30
0.0
 10
68.7510145227428
 20
-128.6436550242627
 30
0.0
 10
68.89484725925199
 20
-128.4531412439284
 30
0.0
 10
69.16149764981033
 20
-128.4531412439284
 30
0.0
 10
69.32221135419722
 20
-128.4531412439284
 30
0.0
 10
69.43641626953325
 20
-128.5316894209921
 30
0.0
 10
69.49567191187955
 20
-128.6564018775581
 30
0.0
 10
69.54648707028699
 20
-128.5675184140387
 30
0.0
 10
69.64174396045415
 20
-128.4086995121687
 30
0.0
 10
69.90408798165592
 20
-128.4086995121687
 30
0.0
 10
70.27839760612832
 20
-128.4086995121687
 30
0.0
 10
70.39484183352977
 20
-128.6880967560224
 30
0.0
 10
70.39484183352977
 20
-128.9271863826988
 30
0.0
  0
SPLINE
  5
FA
330
F3
100
AcDbEntity
  8
_U+30EC_U+30A4_U+30E4_U+30FC 1
370
     0
100
AcDbSpline
210
0.0
220
0.0
230
1.0
 70
    11
 71
     3
 72
    17
 73
    13
 74
     0
 42
0.0000000001
 43
0.0000000001
 12
1.0
 22
0.0
 32
0.0
 13
1.0
 23
0.0
 33
0.0
 40
0.0
 40
0.0
 40
0.0
 40
0.0
 40
1.0
 40
1.0
 40
1.0
 40
2.0
 40
2.0
 40
2.0
 40
3.0
 40
3.0
 40
3.0
 40
4.0
 40
4.0
 40
4.0
 40
4.0
 10
68.94359536036828
 20
-128.9271863826988
 30
0.0
 10
68.94359536036828
 20
-129.0922064564422
 30
0.0
 10
69.03867999576117
 20
-129.1769558053794
 30
0.0
 10
69.17407224833148
 20
-129.1769558053794
 30
0.0
 10
69.29688990238064
 20
-129.1769558053794
 30
0.0
 10
69.41540118707324
 20
-129.1049533097377
 30
0.0
 10
69.41540118707324
 20
-128.9271863826988
 30
0.0
 10
69.41540118707324
 20
-128.7494194556599
 30
0.0
 10
69.29688990238064
 20
-128.6774169600181
 30
0.0
 10
69.17407224833148
 20
-128.6774169600181
 30
0.0
 10
69.03867999576117
 20
-128.6774169600181
 30
0.0
 10
68.94359536036828
 20
-128.7642333662465
 30
0.0
 10
68.94359536036828
 20
-128.9271863826988
 30
0.0
  0
SPLINE
  5
FB
330
F3
100
AcDbEntity
  8
_U+30EC_U+30A4_U+30E4_U+30FC 1
370
     0
100
AcDbSpline
210
0.0
220
0.0
230
1.0
 70
    11
 71
     3
 72
    17
 73
    13
 74
     0
 42
0.0000000001
 43
0.0000000001
 12
1.0
 22
0.0
 32
0.0
 13
1.0
 23
0.0
 33
0.0
 40
0.0
 40
0.0
 40
0.0
 40
0.0
 40
1.0
 40
1.0
 40
1.0
 40
2.0
 40
2.0
 40
2.0
 40
3.0
 40
3.0
 40
3.0
 40
4.0
 40
4.0
 40
4.0
 40
4.0
 10
69.60367565534214
 20
-128.9271863826988
 30
0.0
 10
69.60367565534214
 20
-129.0708468644337
 30
0.0
 10
69.69031980679617
 20
-129.2234645944303
 30
0.0
 10
69.89340818565165
 20
-129.2234645944303
 30
0.0
 10
70.09856362179828
 20
-129.2234645944303
 30
0.0
 10
70.20019393861315
 20
-129.0963405710245
 30
0.0
 10
70.20019393861315
 20
-128.9271863826988
 30
0.0
 10
70.20019393861315
 20
-128.7411512264953
 30
0.0
 10
70.07754853933825
 20
-128.6309081709673
 30
0.0
 10
69.89978161229936
 20
-128.6309081709673
 30
0.0
 10
69.67757295350074
 20
-128.6309081709673
 30
0.0
 10
69.60367565534214
 20
-128.7938611874196
 30
0.0
 10
69.60367565534214
 20
-128.9271863826988
 30
0.0
  0
HATCH
  5
FC
330
F3
100
AcDbEntity
  8
_U+30EC_U+30A4_U+30E4_U+30FC 1
 62
   179
420
  2234388
100
AcDbHatch
 10
0.0
 20
0.0
 30
0.0
210
0.0
220
0.0
230
1.0
  2
SOLID
 70
     1
 71
     0
 91
        3
 92
        1
 93
        1
 72
     4
 94
        3
 73
     0
 74
     1
 95
       29
 96
       25
 40
0.0
 40
0.0
 40
0.0
 40
0.0
 40
1.0
 40
1.0
 40
1.0
 40
2.0
 40
2.0
 40
2.0
 40
3.0
 40
3.0
 40
3.0
 40
4.0
 40
4.0
 40
4.0
 40
5.0
 40
5.0
 40
5.0
 40
6.0
 40
6.0
 40
6.0
 40
7.0
 40
7.0
 40
7.0
 40
8.0
 40
8.0
 40
8.0
 40
8.0
 10
70.39484183352977
 20
-128.9271863826988
 10
70.39484183352977
 20
-129.1938367732571
 10
70.25721026889403
 20
-129.44774031052
 10
69.90822209623822
 20
-129.44774031052
 10
69.65225150168416
 20
-129.44774031052
 10
69.556994611517
 20
-129.3058023765277
 10
69.49567191187955
 20
-129.2000379451306
 10
69.43641626953325
 20
-129.3247504016966
 10
69.32221135419722
 20
-129.4008870119206
 10
69.16149764981033
 20
-129.4008870119206
 10
68.88640677531312
 20
-129.4008870119206
 10
68.7510145227428
 20
-129.2021050024217
 10
68.7510145227428
 20
-128.9271863826988
 10
68.7510145227428
 20
-128.6436550242627
 10
68.89484725925199
 20
-128.4531412439284
 10
69.16149764981033
 20
-128.4531412439284
 10
69.32221135419722
 20
-128.4531412439284
 10
69.43641626953325
 20
-128.5316894209921
 10
69.49567191187955
 20
-128.6564018775581
 10
69.54648707028699
 20
-128.5675184140387
 10
69.64174396045415
 20
-128.4086995121687
 10
69.90408798165592
 20
-128.4086995121687
 10
70.27839760612832
 20
-128.4086995121687
 10
70.39484183352977
 20
-128.6880967560224
 10
70.39484183352977
 20
-128.9271863826988
 97
        0
 97
        0
 92
        1
 93
        1
 72
     4
 94
        3
 73
     0
 74
     1
 95
       17
 96
       13
 40
0.0
 40
0.0
 40
0.0
 40
0.0
 40
1.0
 40
1.0
 40
1.0
 40
2.0
 40
2.0
 40
2.0
 40
3.0
 40
3.0
 40
3.0
 40
4.0
 40
4.0
 40
4.0
 40
4.0
 10
68.94359536036828
 20
-128.9271863826988
 10
68.94359536036828
 20
-129.0922064564422
 10
69.03867999576117
 20
-129.1769558053794
 10
69.17407224833148
 20
-129.1769558053794
 10
69.29688990238064
 20
-129.1769558053794
 10
69.41540118707324
 20
-129.1049533097377
 10
69.41540118707324
 20
-128.9271863826988
 10
69.41540118707324
 20
-128.7494194556599
 10
69.29688990238064
 20
-128.6774169600181
 10
69.17407224833148
 20
-128.6774169600181
 10
69.03867999576117
 20
-128.6774169600181
 10
68.94359536036828
 20
-128.7642333662465
 10
68.94359536036828
 20
-128.9271863826988
 97
        0
 97
        0
 92
        1
 93
        1
 72
     4
 94
        3
 73
     0
 74
     1
 95
       17
 96
       13
 40
0.0
 40
0.0
 40
0.0
 40
0.0
 40
1.0
 40
1.0
 40
1.0
 40
2.0
 40
2.0
 40
2.0
 40
3.0
 40
3.0
 40
3.0
 40
4.0
 40
4.0
 40
4.0
 40
4.0
 10
69.60367565534214
 20
-128.9271863826988
 10
69.60367565534214
 20
-129.0708468644337
 10
69.69031980679617
 20
-129.2234645944303
 10
69.89340818565165
 20
-129.2234645944303
 10
70.09856362179828
 20
-129.2234645944303
 10
70.20019393861315
 20
-129.0963405710245
 10
70.20019393861315
 20
-128.9271863826988
 10
70.20019393861315
 20
-128.7411512264953
 10
70.07754853933825
 20
-128.6309081709673
 10
69.89978161229936
 20
-128.6309081709673
 10
69.67757295350074
 20
-128.6309081709673
 10
69.60367565534214
 20
-128.7938611874196
 10
69.60367565534214
 20
-128.9271863826988
 97
        0
 97
        0
 75
     2
 76
     1
 98
        0
  0
ENDBLK
  5
F6
330
F3
100
AcDbEntity
  8
0
100
AcDbBlockEnd
  0
BLOCK
  5
10B
330
109
100
AcDbEntity
  8
0
100
AcDbBlockBegin
  2
block 6
 70
     0
 10
0.0
 20
0.0
 30
0.0
  3
block 6
  1

  0
SPLINE
  5
10D
330
109
100
AcDbEntity
  8
_U+30EC_U+30A4_U+30E4_U+30FC 1
370
     0
100
AcDbSpline
210
0.0
220
0.0
230
1.0
 70
    11
 71
     3
 72
    62
 73
    58
 74
     0
 42
0.0000000001
 43
0.0000000001
 12
1.0
 22
0.0
 32
0.0
 13
1.0
 23
0.0
 33
0.0
 40
0.0
 40
0.0
 40
0.0
 40
0.0
 40
1.0
 40
1.0
 40
1.0
 40
2.0
 40
2.0
 40
2.0
 40
3.0
 40
3.0
 40
3.0
 40
4.0
 40
4.0
 40
4.0
 40
5.0
 40
5.0
 40
5.0
 40
6.0
 40
6.0
 40
6.0
 40
7.0
 40
7.0
 40
7.0
 40
8.0
 40
8.0
 40
8.0
 40
9.0
 40
9.0
 40
9.0
 40
10.0
 40
10.0
 40
10.0
 40
11.0
 40
11.0
 40
11.0
 40
12.0
 40
12.0
 40
12.0
 40
13.0
 40
13.0
 40
13.0
 40
14.0
 40
14.0
 40
14.0
 40
15.0
 40
15.0
 40
15.0
 40
16.0
 40
16.0
 40
16.0
 40
17.0
 40
17.0
 40
17.0
 40
18.0
 40
18.0
 40
18.0
 40
19.0
 40
19.0
 40
19.0
 40
19.0
 10
93.38448077092471
 20
-151.7771266981668
 30
0.0
 10
93.28905162598329
 20
-151.7771266981668
 30
0.0
 10
93.07132159131551
 20
-151.7561116157068
 30
0.0
 10
92.94626462520094
 20
-151.5700764595033
 30
0.0
 10
92.8725395818166
 20
-151.4577663466842
 30
0.0
 10
92.86806095768577
 20
-151.358547596709
 30
0.0
 10
92.86392684310347
 20
-151.2737982477718
 30
0.0
 10
92.86392684310347
 20
-151.2737982477718
 30
0.0
 10
93.08406844461093
 20
-151.2737982477718
 30
0.0
 10
93.08406844461093
 20
-151.2737982477718
 30
0.0
 10
93.08613550190208
 20
-151.3478678007047
 30
0.0
 10
93.09647078835783
 20
-151.5824788032502
 30
0.0
 10
93.3800021467939
 20
-151.5824788032502
 30
0.0
 10
93.51746145665535
 20
-151.5824788032502
 30
0.0
 10
93.67007918665193
 20
-151.5128878744482
 30
0.0
 10
93.67007918665193
 20
-151.2844780437761
 30
0.0
 10
93.67007918665193
 20
-151.1680338163747
 30
0.0
 10
93.63183862676566
 20
-151.1194579700326
 30
0.0
 10
93.60014374830136
 20
-151.0877630915683
 30
0.0
 10
93.52607419536848
 20
-151.0136935386355
 30
0.0
 10
93.40962996796704
 20
-151.00094668534
 30
0.0
 10
93.35485294975157
 20
-151.00094668534
 30
0.0
 10
93.33556041503417
 20
-151.00094668534
 30
0.0
 10
93.29973142198757
 20
-151.0030137426312
 30
0.0
 10
93.27217065810557
 20
-151.0071478572135
 30
0.0
 10
93.27217065810557
 20
-151.0071478572135
 30
0.0
 10
93.27217065810557
 20
-150.8124999622969
 30
0.0
 10
93.27217065810557
 20
-150.8124999622969
 30
0.0
 10
93.31041121799184
 20
-150.8190456437189
 30
0.0
 10
93.35244138291189
 20
-150.82111270101
 30
0.0
 10
93.35898706433387
 20
-150.82111270101
 30
0.0
 10
93.42444387855362
 20
-150.82111270101
 30
0.0
 10
93.62322588805253
 20
-150.7997531090014
 30
0.0
 10
93.62322588805253
 20
-150.5630750491648
 30
0.0
 10
93.62322588805253
 20
-150.3853081221259
 30
0.0
 10
93.49231225961304
 20
-150.3301865943619
 30
0.0
 10
93.38206920408504
 20
-150.3301865943619
 30
0.0
 10
93.11783038036639
 20
-150.3301865943619
 30
0.0
 10
93.10921764165326
 20
-150.5630750491648
 30
0.0
 10
93.10508352707096
 20
-150.634733035258
 30
0.0
 10
93.10508352707096
 20
-150.634733035258
 30
0.0
 10
92.90182289344122
 20
-150.634733035258
 30
0.0
 10
92.90182289344122
 20
-150.634733035258
 30
0.0
 10
92.91043563215435
 20
-150.510020578692
 30
0.0
 10
92.93799639603634
 20
-150.1334716421541
 30
0.0
 10
93.39481605738047
 20
-150.1334716421541
 30
0.0
 10
93.61909177347023
 20
-150.1334716421541
 30
0.0
 10
93.86024845743772
 20
-150.2605956655599
 30
0.0
 10
93.86024845743772
 20
-150.5565293677428
 30
0.0
 10
93.86024845743772
 20
-150.7429090334948
 30
0.0
 10
93.76516382204483
 20
-150.8252468155923
 30
0.0
 10
93.6656005625211
 20
-150.8865695152298
 30
0.0
 10
93.72692326215855
 20
-150.9141302791118
 30
0.0
 10
93.90882430377974
 20
-150.9944010039181
 30
0.0
 10
93.90882430377974
 20
-151.2717311904807
 30
0.0
 10
93.90882430377974
 20
-151.6100395671322
 30
0.0
 10
93.6614664479388
 20
-151.7771266981668
 30
0.0
 10
93.38448077092471
 20
-151.7771266981668
 30
0.0
  0
HATCH
  5
10E
330
109
100
AcDbEntity
  8
_U+30EC_U+30A4_U+30E4_U+30FC 1
 62
   179
420
  2234388
100
AcDbHatch
 10
0.0
 20
0.0
 30
0.0
210
0.0
220
0.0
230
1.0
  2
SOLID
 70
     1
 71
     0
 91
        1
 92
        1
 93
        1
 72
     4
 94
        3
 73
     0
 74
     1
 95
       62
 96
       58
 40
0.0
 40
0.0
 40
0.0
 40
0.0
 40
1.0
 40
1.0
 40
1.0
 40
2.0
 40
2.0
 40
2.0
 40
3.0
 40
3.0
 40
3.0
 40
4.0
 40
4.0
 40
4.0
 40
5.0
 40
5.0
 40
5.0
 40
6.0
 40
6.0
 40
6.0
 40
7.0
 40
7.0
 40
7.0
 40
8.0
 40
8.0
 40
8.0
 40
9.0
 40
9.0
 40
9.0
 40
10.0
 40
10.0
 40
10.0
 40
11.0
 40
11.0
 40
11.0
 40
12.0
 40
12.0
 40
12.0
 40
13.0
 40
13.0
 40
13.0
 40
14.0
 40
14.0
 40
14.0
 40
15.0
 40
15.0
 40
15.0
 40
16.0
 40
16.0
 40
16.0
 40
17.0
 40
17.0
 40
17.0
 40
18.0
 40
18.0
 40
18.0
 40
19.0
 40
19.0
 40
19.0
 40
19.0
 10
93.38448077092471
 20
-151.7771266981668
 10
93.28905162598329
 20
-151.7771266981668
 10
93.07132159131551
 20
-151.7561116157068
 10
92.94626462520094
 20
-151.5700764595033
 10
92.8725395818166
 20
-151.4577663466842
 10
92.86806095768577
 20
-151.358547596709
 10
92.86392684310347
 20
-151.2737982477718
 10
92.86392684310347
 20
-151.2737982477718
 10
93.08406844461093
 20
-151.2737982477718
 10
93.08406844461093
 20
-151.2737982477718
 10
93.08613550190208
 20
-151.3478678007047
 10
93.09647078835783
 20
-151.5824788032502
 10
93.3800021467939
 20
-151.5824788032502
 10
93.51746145665535
 20
-151.5824788032502
 10
93.67007918665193
 20
-151.5128878744482
 10
93.67007918665193
 20
-151.2844780437761
 10
93.67007918665193
 20
-151.1680338163747
 10
93.63183862676566
 20
-151.1194579700326
 10
93.60014374830136
 20
-151.0877630915683
 10
93.52607419536848
 20
-151.0136935386355
 10
93.40962996796704
 20
-151.00094668534
 10
93.35485294975157
 20
-151.00094668534
 10
93.33556041503417
 20
-151.00094668534
 10
93.29973142198757
 20
-151.0030137426312
 10
93.27217065810557
 20
-151.0071478572135
 10
93.27217065810557
 20
-151.0071478572135
 10
93.27217065810557
 20
-150.8124999622969
 10
93.27217065810557
 20
-150.8124999622969
 10
93.31041121799184
 20
-150.8190456437189
 10
93.35244138291189
 20
-150.82111270101
 10
93.35898706433387
 20
-150.82111270101
 10
93.42444387855362
 20
-150.82111270101
 10
93.62322588805253
 20
-150.7997531090014
 10
93.62322588805253
 20
-150.5630750491648
 10
93.62322588805253
 20
-150.3853081221259
 10
93.49231225961304
 20
-150.3301865943619
 10
93.38206920408504
 20
-150.3301865943619
 10
93.11783038036639
 20
-150.3301865943619
 10
93.10921764165326
 20
-150.5630750491648
 10
93.10508352707096
 20
-150.634733035258
 10
93.10508352707096
 20
-150.634733035258
 10
92.90182289344122
 20
-150.634733035258
 10
92.90182289344122
 20
-150.634733035258
 10
92.91043563215435
 20
-150.510020578692
 10
92.93799639603634
 20
-150.1334716421541
 10
93.39481605738047
 20
-150.1334716421541
 10
93.61909177347023
 20
-150.1334716421541
 10
93.86024845743772
 20
-150.2605956655599
 10
93.86024845743772
 20
-150.5565293677428
 10
93.86024845743772
 20
-150.7429090334948
 10
93.76516382204483
 20
-150.8252468155923
 10
93.6656005625211
 20
-150.8865695152298
 10
93.72692326215855
 20
-150.9141302791118
 10
93.90882430377974
 20
-150.9944010039181
 10
93.90882430377974
 20
-151.2717311904807
 10
93.90882430377974
 20
-151.6100395671322
 10
93.6614664479388
 20
-151.7771266981668
 10
93.38448077092471
 20
-151.7771266981668
 97
        0
 97
        0
 75
     2
 76
     1
 98
        0
  0
SPLINE
  5
10F
330
109
100
AcDbEntity
  8
_U+30EC_U+30A4_U+30E4_U+30FC 1
370
     0
100
AcDbSpline
210
0.0
220
0.0
230
1.0
 70
    11
 71
     3
 72
    29
 73
    25
 74
     0
 42
0.0000000001
 43
0.0000000001
 12
1.0
 22
0.0
 32
0.0
 13
1.0
 23
0.0
 33
0.0
 40
0.0
 40
0.0
 40
0.0
 40
0.0
 40
1.0
 40
1.0
 40
1.0
 40
2.0
 40
2.0
 40
2.0
 40
3.0
 40
3.0
 40
3.0
 40
4.0
 40
4.0
 40
4.0
 40
5.0
 40
5.0
 40
5.0
 40
6.0
 40
6.0
 40
6.0
 40
7.0
 40
7.0
 40
7.0
 40
8.0
 40
8.0
 40
8.0
 40
8.0
 10
94.56959361785066
 20
-151.7771266981668
 30
0.0
 10
94.30294322729232
 20
-151.7771266981668
 30
0.0
 10
94.04938419957793
 20
-151.6396673883054
 30
0.0
 10
94.04938419957793
 20
-151.2906792156496
 30
0.0
 10
94.04938419957793
 20
-151.0347086210955
 30
0.0
 10
94.1909776240217
 20
-150.9396239857026
 30
0.0
 10
94.29674205541887
 20
-150.8783012860652
 30
0.0
 10
94.17202959885283
 20
-150.8190456437189
 30
0.0
 10
94.0958929886288
 20
-150.7046684736086
 30
0.0
 10
94.0958929886288
 20
-150.5437825144474
 30
0.0
 10
94.0958929886288
 20
-150.2688638947245
 30
0.0
 10
94.29467499812772
 20
-150.1334716421541
 30
0.0
 10
94.56959361785066
 20
-150.1334716421541
 30
0.0
 10
94.85312497628672
 20
-150.1334716421541
 30
0.0
 10
95.04363875662104
 20
-150.2774766334376
 30
0.0
 10
95.04363875662104
 20
-150.5437825144474
 30
0.0
 10
95.04363875662104
 20
-150.7046684736086
 30
0.0
 10
94.96509057955734
 20
-150.8190456437189
 30
0.0
 10
94.8403781229913
 20
-150.8783012860652
 30
0.0
 10
94.92926158651075
 20
-150.9289441896983
 30
0.0
 10
95.08808048838077
 20
-151.0240288250912
 30
0.0
 10
95.08808048838077
 20
-151.2865451010672
 30
0.0
 10
95.08808048838077
 20
-151.6610269803139
 30
0.0
 10
94.808683244527
 20
-151.7771266981668
 30
0.0
 10
94.56959361785066
 20
-151.7771266981668
 30
0.0
  0
SPLINE
  5
110
330
109
100
AcDbEntity
  8
_U+30EC_U+30A4_U+30E4_U+30FC 1
370
     0
100
AcDbSpline
210
0.0
220
0.0
230
1.0
 70
    11
 71
     3
 72
    17
 73
    13
 74
     0
 42
0.0000000001
 43
0.0000000001
 12
1.0
 22
0.0
 32
0.0
 13
1.0
 23
0.0
 33
0.0
 40
0.0
 40
0.0
 40
0.0
 40
0.0
 40
1.0
 40
1.0
 40
1.0
 40
2.0
 40
2.0
 40
2.0
 40
3.0
 40
3.0
 40
3.0
 40
4.0
 40
4.0
 40
4.0
 40
4.0
 10
94.56959361785066
 20
-150.9861327747535
 30
0.0
 10
94.42593313611575
 20
-150.9861327747535
 30
0.0
 10
94.27331540611918
 20
-151.0729491809818
 30
0.0
 10
94.27331540611918
 20
-151.275865305063
 30
0.0
 10
94.27331540611918
 20
-151.4811929959839
 30
0.0
 10
94.4004394295249
 20
-151.5824788032502
 30
0.0
 10
94.56959361785066
 20
-151.5824788032502
 30
0.0
 10
94.75562877405416
 20
-151.5824788032502
 30
0.0
 10
94.86587182958215
 20
-151.4598334039753
 30
0.0
 10
94.86587182958215
 20
-151.2820664769364
 30
0.0
 10
94.86587182958215
 20
-151.0602023276863
 30
0.0
 10
94.70291881312983
 20
-150.9861327747535
 30
0.0
 10
94.56959361785066
 20
-150.9861327747535
 30
0.0
  0
SPLINE
  5
111
330
109
100
AcDbEntity
  8
_U+30EC_U+30A4_U+30E4_U+30FC 1
370
     0
100
AcDbSpline
210
0.0
220
0.0
230
1.0
 70
    11
 71
     3
 72
    17
 73
    13
 74
     0
 42
0.0000000001
 43
0.0000000001
 12
1.0
 22
0.0
 32
0.0
 13
1.0
 23
0.0
 33
0.0
 40
0.0
 40
0.0
 40
0.0
 40
0.0
 40
1.0
 40
1.0
 40
1.0
 40
2.0
 40
2.0
 40
2.0
 40
3.0
 40
3.0
 40
3.0
 40
4.0
 40
4.0
 40
4.0
 40
4.0
 10
94.56959361785066
 20
-150.3260524797796
 30
0.0
 10
94.4045735441072
 20
-150.3260524797796
 30
0.0
 10
94.32016870471857
 20
-150.4211371151725
 30
0.0
 10
94.32016870471857
 20
-150.5565293677428
 30
0.0
 10
94.32016870471857
 20
-150.6791747670177
 30
0.0
 10
94.39182669081177
 20
-150.7976860517103
 30
0.0
 10
94.56959361785066
 20
-150.7976860517103
 30
0.0
 10
94.74736054488956
 20
-150.7976860517103
 30
0.0
 10
94.81936304053127
 20
-150.6791747670177
 30
0.0
 10
94.81936304053127
 20
-150.5565293677428
 30
0.0
 10
94.81936304053127
 20
-150.4211371151725
 30
0.0
 10
94.73254663430298
 20
-150.3260524797796
 30
0.0
 10
94.56959361785066
 20
-150.3260524797796
 30
0.0
  0
HATCH
  5
112
330
109
100
AcDbEntity
  8
_U+30EC_U+30A4_U+30E4_U+30FC 1
 62
   179
420
  2234388
100
AcDbHatch
 10
0.0
 20
0.0
 30
0.0
210
0.0
220
0.0
230
1.0
  2
SOLID
 70
     1
 71
     0
 91
        3
 92
        1
 93
        1
 72
     4
 94
        3
 73
     0
 74
     1
 95
       29
 96
       25
 40
0.0
 40
0.0
 40
0.0
 40
0.0
 40
1.0
 40
1.0
 40
1.0
 40
2.0
 40
2.0
 40
2.0
 40
3.0
 40
3.0
 40
3.0
 40
4.0
 40
4.0
 40
4.0
 40
5.0
 40
5.0
 40
5.0
 40
6.0
 40
6.0
 40
6.0
 40
7.0
 40
7.0
 40
7.0
 40
8.0
 40
8.0
 40
8.0
 40
8.0
 10
94.56959361785066
 20
-151.7771266981668
 10
94.30294322729232
 20
-151.7771266981668
 10
94.04938419957793
 20
-151.6396673883054
 10
94.04938419957793
 20
-151.2906792156496
 10
94.04938419957793
 20
-151.0347086210955
 10
94.1909776240217
 20
-150.9396239857026
 10
94.29674205541887
 20
-150.8783012860652
 10
94.17202959885283
 20
-150.8190456437189
 10
94.0958929886288
 20
-150.7046684736086
 10
94.0958929886288
 20
-150.5437825144474
 10
94.0958929886288
 20
-150.2688638947245
 10
94.29467499812772
 20
-150.1334716421541
 10
94.56959361785066
 20
-150.1334716421541
 10
94.85312497628672
 20
-150.1334716421541
 10
95.04363875662104
 20
-150.2774766334376
 10
95.04363875662104
 20
-150.5437825144474
 10
95.04363875662104
 20
-150.7046684736086
 10
94.96509057955734
 20
-150.8190456437189
 10
94.8403781229913
 20
-150.8783012860652
 10
94.92926158651075
 20
-150.9289441896983
 10
95.08808048838077
 20
-151.0240288250912
 10
95.08808048838077
 20
-151.2865451010672
 10
95.08808048838077
 20
-151.6610269803139
 10
94.808683244527
 20
-151.7771266981668
 10
94.56959361785066
 20
-151.7771266981668
 97
        0
 97
        0
 92
        1
 93
        1
 72
     4
 94
        3
 73
     0
 74
     1
 95
       17
 96
       13
 40
0.0
 40
0.0
 40
0.0
 40
0.0
 40
1.0
 40
1.0
 40
1.0
 40
2.0
 40
2.0
 40
2.0
 40
3.0
 40
3.0
 40
3.0
 40
4.0
 40
4.0
 40
4.0
 40
4.0
 10
94.56959361785066
 20
-150.9861327747535
 10
94.42593313611575
 20
-150.9861327747535
 10
94.27331540611918
 20
-151.0729491809818
 10
94.27331540611918
 20
-151.275865305063
 10
94.27331540611918
 20
-151.4811929959839
 10
94.4004394295249
 20
-151.5824788032502
 10
94.56959361785066
 20
-151.5824788032502
 10
94.75562877405416
 20
-151.5824788032502
 10
94.86587182958215
 20
-151.4598334039753
 10
94.86587182958215
 20
-151.2820664769364
 10
94.86587182958215
 20
-151.0602023276863
 10
94.70291881312983
 20
-150.9861327747535
 10
94.56959361785066
 20
-150.9861327747535
 97
        0
 97
        0
 92
        1
 93
        1
 72
     4
 94
        3
 73
     0
 74
     1
 95
       17
 96
       13
 40
0.0
 40
0.0
 40
0.0
 40
0.0
 40
1.0
 40
1.0
 40
1.0
 40
2.0
 40
2.0
 40
2.0
 40
3.0
 40
3.0
 40
3.0
 40
4.0
 40
4.0
 40
4.0
 40
4.0
 10
94.56959361785066
 20
-150.3260524797796
 10
94.4045735441072
 20
-150.3260524797796
 10
94.32016870471857
 20
-150.4211371151725
 10
94.32016870471857
 20
-150.5565293677428
 10
94.32016870471857
 20
-150.6791747670177
 10
94.39182669081177
 20
-150.7976860517103
 10
94.56959361785066
 20
-150.7976860517103
 10
94.74736054488956
 20
-150.7976860517103
 10
94.81936304053127
 20
-150.6791747670177
 10
94.81936304053127
 20
-150.5565293677428
 10
94.81936304053127
 20
-150.4211371151725
 10
94.73254663430298
 20
-150.3260524797796
 10
94.56959361785066
 20
-150.3260524797796
 97
        0
 97
        0
 75
     2
 76
     1
 98
        0
  0
ENDBLK
  5
10C
330
109
100
AcDbEntity
  8
0
100
AcDbBlockEnd
  0
ENDSEC
  0
SECTION
  2
ENTITIES
  0
POLYLINE
  5
41
330
1F
100
AcDbEntity
  8
_U+30EC_U+30A4_U+30E4_U+30FC 1
 62
   179
420
  2234388
370
    25
100
AcDb2dPolyline
 66
     1
 10
0.0
 20
0.0
 30
0.0
  0
VERTEX
  5
42
330
41
100
AcDbEntity
  8
_U+30EC_U+30A4_U+30E4_U+30FC 1
 62
   179
420
  2234388
370
    25
100
AcDbVertex
100
AcDb2dVertex
 10
95.05639313046493
 20
-147.2388963520792
 30
0.0
  0
VERTEX
  5
43
330
41
100
AcDbEntity
  8
_U+30EC_U+30A4_U+30E4_U+30FC 1
 62
   179
420
  2234388
370
    25
100
AcDbVertex
100
AcDb2dVertex
 10
113.0563143379154
 20
-147.2388963520792
 30
0.0
  0
SEQEND
  5
44
330
41
100
AcDbEntity
  8
_U+30EC_U+30A4_U+30E4_U+30FC 1
 62
   179
420
  2234388
370
    25
  0
POLYLINE
  5
45
330
1F
100
AcDbEntity
  8
_U+30EC_U+30A4_U+30E4_U+30FC 1
 62
   179
420
  2234388
370
    25
100
AcDb2dPolyline
 66
     1
 10
0.0
 20
0.0
 30
0.0
  0
VERTEX
  5
46
330
45
100
AcDbEntity
  8
_U+30EC_U+30A4_U+30E4_U+30FC 1
 62
   179
420
  2234388
370
    25
100
AcDbVertex
100
AcDb2dVertex
 10
113.0563143379154
 20
-147.2388963520792
 30
0.0
  0
VERTEX
  5
47
330
45
100
AcDbEntity
  8
_U+30EC_U+30A4_U+30E4_U+30FC 1
 62
   179
420
  2234388
370
    25
100
AcDbVertex
100
AcDb2dVertex
 10
113.0563143379154
 20
-147.6385230186457
 30
0.0
  0
SEQEND
  5
48
330
45
100
AcDbEntity
  8
_U+30EC_U+30A4_U+30E4_U+30FC 1
 62
   179
420
  2234388
370
    25
  0
POLYLINE
  5
49
330
1F
100
AcDbEntity
  8
_U+30EC_U+30A4_U+30E4_U+30FC 1
 62
   179
420
  2234388
370
    25
100
AcDb2dPolyline
 66
     1
 10
0.0
 20
0.0
 30
0.0
  0
VERTEX
  5
4A
330
49
100
AcDbEntity
  8
_U+30EC_U+30A4_U+30E4_U+30FC 1
 62
   179
420
  2234388
370
    25
100
AcDbVertex
100
AcDb2dVertex
 10
76.25633666564988
 20
-110.4385649723905
 30
0.0
  0
VERTEX
  5
4B
330
49
100
AcDbEntity
  8
_U+30EC_U+30A4_U+30E4_U+30FC 1
 62
   179
420
  2234388
370
    25
100
AcDbVertex
100
AcDb2dVertex
 10
75.85671000917854
 20
-110.4385649723905
 30
0.0
  0
SEQEND
  5
4C
330
49
100
AcDbEntity
  8
_U+30EC_U+30A4_U+30E4_U+30FC 1
 62
   179
420
  2234388
370
    25
  0
POLYLINE
  5
4D
330
1F
100
AcDbEntity
  8
_U+30EC_U+30A4_U+30E4_U+30FC 1
 62
   179
420
  2234388
370
    25
100
AcDb2dPolyline
 66
     1
 10
0.0
 20
0.0
 30
0.0
  0
VERTEX
  5
4E
330
4D
100
AcDbEntity
  8
_U+30EC_U+30A4_U+30E4_U+30FC 1
 62
   179
420
  2234388
370
    25
100
AcDbVertex
100
AcDb2dVertex
 10
76.25633666564988
 20
-128.4386630234458
 30
0.0
  0
VERTEX
  5
4F
330
4D
100
AcDbEntity
  8
_U+30EC_U+30A4_U+30E4_U+30FC 1
 62
   179
420
  2234388
370
    25
100
AcDbVertex
100
AcDb2dVertex
 10
76.25633666564988
 20
-110.4385649723905
 30
0.0
  0
SEQEND
  5
50
330
4D
100
AcDbEntity
  8
_U+30EC_U+30A4_U+30E4_U+30FC 1
 62
   179
420
  2234388
370
    25
  0
POLYLINE
  5
51
330
1F
100
AcDbEntity
  8
_U+30EC_U+30A4_U+30E4_U+30FC 1
 62
   179
420
  2234388
370
     9
100
AcDb2dPolyline
 66
     1
 10
0.0
 20
0.0
 30
0.0
  0
VERTEX
  5
52
330
51
100
AcDbEntity
  8
_U+30EC_U+30A4_U+30E4_U+30FC 1
 62
   179
420
  2234388
370
     9
100
AcDbVertex
100
AcDb2dVertex
 10
80.41421072624034
 20
-143.4465352419162
 30
0.0
  0
VERTEX
  5
53
330
51
100
AcDbEntity
  8
_U+30EC_U+30A4_U+30E4_U+30FC 1
 62
   179
420
  2234388
370
     9
100
AcDbVertex
100
AcDb2dVertex
 10
80.91444960236709
 20
-142.5804305199107
 30
0.0
  0
SEQEND
  5
54
330
51
100
AcDbEntity
  8
_U+30EC_U+30A4_U+30E4_U+30FC 1
 62
   179
420
  2234388
370
     9
  0
POLYLINE
  5
55
330
1F
100
AcDbEntity
  8
_U+30EC_U+30A4_U+30E4_U+30FC 1
 62
   179
420
  2234388
370
     9
100
AcDb2dPolyline
 66
     1
 10
0.0
 20
0.0
 30
0.0
  0
VERTEX
  5
56
330
55
100
AcDbEntity
  8
_U+30EC_U+30A4_U+30E4_U+30FC 1
 62
   179
420
  2234388
370
     9
100
AcDbVertex
100
AcDb2dVertex
 10
80.04834490224103
 20
-143.0806694086745
 30
0.0
  0
VERTEX
  5
57
330
55
100
AcDbEntity
  8
_U+30EC_U+30A4_U+30E4_U+30FC 1
 62
   179
420
  2234388
370
     9
100
AcDbVertex
100
AcDb2dVertex
 10
80.91444960236709
 20
-142.5804305199107
 30
0.0
  0
SEQEND
  5
58
330
55
100
AcDbEntity
  8
_U+30EC_U+30A4_U+30E4_U+30FC 1
 62
   179
420
  2234388
370
     9
  0
POLYLINE
  5
59
330
1F
100
AcDbEntity
  8
_U+30EC_U+30A4_U+30E4_U+30FC 1
 62
   179
420
  2234388
370
     9
100
AcDb2dPolyline
 66
     1
 10
0.0
 20
0.0
 30
0.0
  0
VERTEX
  5
5A
330
59
100
AcDbEntity
  8
_U+30EC_U+30A4_U+30E4_U+30FC 1
 62
   179
420
  2234388
370
     9
100
AcDbVertex
100
AcDb2dVertex
 10
71.05628652053643
 20
-152.4389466285568
 30
0.0
  0
VERTEX
  5
5B
330
59
100
AcDbEntity
  8
_U+30EC_U+30A4_U+30E4_U+30FC 1
 62
   179
420
  2234388
370
     9
100
AcDbVertex
100
AcDb2dVertex
 10
80.91444960236709
 20
-142.5804305199107
 30
0.0
  0
SEQEND
  5
5C
330
59
100
AcDbEntity
  8
_U+30EC_U+30A4_U+30E4_U+30FC 1
 62
   179
420
  2234388
370
     9
  0
POLYLINE
  5
5D
330
1F
100
AcDbEntity
  8
_U+30EC_U+30A4_U+30E4_U+30FC 1
 62
   179
420
  2234388
370
     9
100
AcDb2dPolyline
 66
     1
 10
0.0
 20
0.0
 30
0.0
  0
VERTEX
  5
5E
330
5D
100
AcDbEntity
  8
_U+30EC_U+30A4_U+30E4_U+30FC 1
 62
   179
420
  2234388
370
     9
100
AcDbVertex
100
AcDb2dVertex
 10
65.89073804120945
 20
-152.4389466285568
 30
0.0
  0
VERTEX
  5
5F
330
5D
100
AcDbEntity
  8
_U+30EC_U+30A4_U+30E4_U+30FC 1
 62
   179
420
  2234388
370
     9
100
AcDbVertex
100
AcDb2dVertex
 10
71.05628652053643
 20
-152.4389466285568
 30
0.0
  0
SEQEND
  5
60
330
5D
100
AcDbEntity
  8
_U+30EC_U+30A4_U+30E4_U+30FC 1
 62
   179
420
  2234388
370
     9
  0
POLYLINE
  5
61
330
1F
100
AcDbEntity
  8
_U+30EC_U+30A4_U+30E4_U+30FC 1
 62
   179
420
  2234388
370
    25
100
AcDb2dPolyline
 66
     1
 10
0.0
 20
0.0
 30
0.0
  0
VERTEX
  5
62
330
61
100
AcDbEntity
  8
_U+30EC_U+30A4_U+30E4_U+30FC 1
 62
   179
420
  2234388
370
    25
100
AcDbVertex
100
AcDb2dVertex
 10
113.0563143379154
 20
-147.6385230186457
 30
0.0
  0
VERTEX
  5
63
330
61
100
AcDbEntity
  8
_U+30EC_U+30A4_U+30E4_U+30FC 1
 62
   179
420
  2234388
370
    25
100
AcDbVertex
100
AcDb2dVertex
 10
95.96726532944886
 20
-148.4178091295623
 30
0.0
  0
SEQEND
  5
64
330
61
100
AcDbEntity
  8
_U+30EC_U+30A4_U+30E4_U+30FC 1
 62
   179
420
  2234388
370
    25
  0
POLYLINE
  5
65
330
1F
100
AcDbEntity
  8
_U+30EC_U+30A4_U+30E4_U+30FC 1
 62
   179
420
  2234388
370
    25
100
AcDb2dPolyline
 66
     1
 10
0.0
 20
0.0
 30
0.0
  0
VERTEX
  5
66
330
65
100
AcDbEntity
  8
_U+30EC_U+30A4_U+30E4_U+30FC 1
 62
   179
420
  2234388
370
    25
100
AcDbVertex
100
AcDb2dVertex
 10
75.85671000917854
 20
-110.4385649723905
 30
0.0
  0
VERTEX
  5
67
330
65
100
AcDbEntity
  8
_U+30EC_U+30A4_U+30E4_U+30FC 1
 62
   179
420
  2234388
370
    25
100
AcDbVertex
100
AcDb2dVertex
 10
75.07742391794868
 20
-127.5276144125626
 30
0.0
  0
SEQEND
  5
68
330
65
100
AcDbEntity
  8
_U+30EC_U+30A4_U+30E4_U+30FC 1
 62
   179
420
  2234388
370
    25
  0
SPLINE
  5
69
330
1F
100
AcDbEntity
  8
_U+30EC_U+30A4_U+30E4_U+30FC 1
 62
   179
420
  2234388
370
     9
100
AcDbSpline
210
0.0
220
0.0
230
1.0
 70
    11
 71
     3
 72
    17
 73
    13
 74
     0
 42
0.0000000001
 43
0.0000000001
 12
1.0
 22
0.0
 32
0.0
 13
1.0
 23
0.0
 33
0.0
 40
0.0
 40
0.0
 40
0.0
 40
0.0
 40
1.0
 40
1.0
 40
1.0
 40
2.0
 40
2.0
 40
2.0
 40
3.0
 40
3.0
 40
3.0
 40
4.0
 40
4.0
 40
4.0
 40
4.0
 10
115.4396456660004
 20
-147.2388963520792
 30
0.0
 10
115.4396456660004
 20
-147.1830869076488
 30
0.0
 10
115.3948428893656
 20
-147.1383194076596
 30
0.0
 10
115.3397390018825
 20
-147.1383194076596
 30
0.0
 10
115.2846027489564
 20
-147.1383194076596
 30
0.0
 10
115.2398323377647
 20
-147.1830869076488
 30
0.0
 10
115.2398323377647
 20
-147.2388963520792
 30
0.0
 10
115.2398323377647
 20
-147.2940355187323
 30
0.0
 10
115.2846027489564
 20
-147.3388030187209
 30
0.0
 10
115.3397390018825
 20
-147.3388030187209
 30
0.0
 10
115.3948428893656
 20
-147.3388030187209
 30
0.0
 10
115.4396456660004
 20
-147.2940355187323
 30
0.0
 10
115.4396456660004
 20
-147.2388963520792
 30
0.0
  0
SPLINE
  5
6A
330
1F
100
AcDbEntity
  8
_U+30EC_U+30A4_U+30E4_U+30FC 1
 62
   179
420
  2234388
370
     9
100
AcDbSpline
210
0.0
220
0.0
230
1.0
 70
    11
 71
     3
 72
    17
 73
    13
 74
     0
 42
0.0000000001
 43
0.0000000001
 12
1.0
 22
0.0
 32
0.0
 13
1.0
 23
0.0
 33
0.0
 40
0.0
 40
0.0
 40
0.0
 40
0.0
 40
1.0
 40
1.0
 40
1.0
 40
2.0
 40
2.0
 40
2.0
 40
3.0
 40
3.0
 40
3.0
 40
4.0
 40
4.0
 40
4.0
 40
4.0
 10
115.4396456660004
 20
-147.6385230186457
 30
0.0
 10
115.4396456660004
 20
-147.5834191297708
 30
0.0
 10
115.3948428893656
 20
-147.5386163520041
 30
0.0
 10
115.3397390018825
 20
-147.5386163520041
 30
0.0
 10
115.2846027489564
 20
-147.5386163520041
 30
0.0
 10
115.2398323377647
 20
-147.5834191297708
 30
0.0
 10
115.2398323377647
 20
-147.6385230186457
 30
0.0
 10
115.2398323377647
 20
-147.6936621852988
 30
0.0
 10
115.2846027489564
 20
-147.7384296852874
 30
0.0
 10
115.3397390018825
 20
-147.7384296852874
 30
0.0
 10
115.3948428893656
 20
-147.7384296852874
 30
0.0
 10
115.4396456660004
 20
-147.6936621852988
 30
0.0
 10
115.4396456660004
 20
-147.6385230186457
 30
0.0
  0
SPLINE
  5
6B
330
1F
100
AcDbEntity
  8
_U+30EC_U+30A4_U+30E4_U+30FC 1
 62
   179
420
  2234388
370
     9
100
AcDbSpline
210
0.0
220
0.0
230
1.0
 70
    11
 71
     3
 72
    17
 73
    13
 74
     0
 42
0.0000000001
 43
0.0000000001
 12
1.0
 22
0.0
 32
0.0
 13
1.0
 23
0.0
 33
0.0
 40
0.0
 40
0.0
 40
0.0
 40
0.0
 40
1.0
 40
1.0
 40
1.0
 40
2.0
 40
2.0
 40
2.0
 40
3.0
 40
3.0
 40
3.0
 40
4.0
 40
4.0
 40
4.0
 40
4.0
 10
113.1562210020332
 20
-152.4389466285568
 30
0.0
 10
113.1562210020332
 20
-152.3831019063488
 30
0.0
 10
113.1114535031753
 20
-152.3383344063596
 30
0.0
 10
113.0563143379154
 20
-152.3383344063596
 30
0.0
 10
113.0012104504323
 20
-152.3383344063596
 30
0.0
 10
112.9564076737975
 20
-152.3831019063488
 30
0.0
 10
112.9564076737975
 20
-152.4389466285568
 30
0.0
 10
112.9564076737975
 20
-152.4940505174324
 30
0.0
 10
113.0012104504323
 20
-152.5388532951984
 30
0.0
 10
113.0563143379154
 20
-152.5388532951984
 30
0.0
 10
113.1114535031753
 20
-152.5388532951984
 30
0.0
 10
113.1562210020332
 20
-152.4940505174324
 30
0.0
 10
113.1562210020332
 20
-152.4389466285568
 30
0.0
  0
SPLINE
  5
6C
330
1F
100
AcDbEntity
  8
_U+30EC_U+30A4_U+30E4_U+30FC 1
 62
   179
420
  2234388
370
     9
100
AcDbSpline
210
0.0
220
0.0
230
1.0
 70
    11
 71
     3
 72
    17
 73
    13
 74
     0
 42
0.0000000001
 43
0.0000000001
 12
1.0
 22
0.0
 32
0.0
 13
1.0
 23
0.0
 33
0.0
 40
0.0
 40
0.0
 40
0.0
 40
0.0
 40
1.0
 40
1.0
 40
1.0
 40
2.0
 40
2.0
 40
2.0
 40
3.0
 40
3.0
 40
3.0
 40
4.0
 40
4.0
 40
4.0
 40
4.0
 10
75.15665780481613
 20
-152.4389466285568
 30
0.0
 10
75.15665780481613
 20
-152.3831019063488
 30
0.0
 10
75.11185502818138
 20
-152.3383344063596
 30
0.0
 10
75.05639836292953
 20
-152.3383344063596
 30
0.0
 10
75.00129447544646
 20
-152.3383344063596
 30
0.0
 10
74.95649169881169
 20
-152.3831019063488
 30
0.0
 10
74.95649169881169
 20
-152.4389466285568
 30
0.0
 10
74.95649169881169
 20
-152.4940505174324
 30
0.0
 10
75.00129447544646
 20
-152.5388532951984
 30
0.0
 10
75.05639836292953
 20
-152.5388532951984
 30
0.0
 10
75.11185502818138
 20
-152.5388532951984
 30
0.0
 10
75.15665780481613
 20
-152.4940505174324
 30
0.0
 10
75.15665780481613
 20
-152.4389466285568
 30
0.0
  0
SPLINE
  5
6D
330
1F
100
AcDbEntity
  8
_U+30EC_U+30A4_U+30E4_U+30FC 1
 62
   179
420
  2234388
370
     9
100
AcDbSpline
210
0.0
220
0.0
230
1.0
 70
    11
 71
     3
 72
    17
 73
    13
 74
     0
 42
0.0000000001
 43
0.0000000001
 12
1.0
 22
0.0
 32
0.0
 13
1.0
 23
0.0
 33
0.0
 40
0.0
 40
0.0
 40
0.0
 40
0.0
 40
1.0
 40
1.0
 40
1.0
 40
2.0
 40
2.0
 40
2.0
 40
3.0
 40
3.0
 40
3.0
 40
4.0
 40
4.0
 40
4.0
 40
4.0
 10
75.95661667329638
 20
-106.4384530289459
 30
0.0
 10
75.95661667329638
 20
-106.383349140071
 30
0.0
 10
75.91181389666161
 20
-106.3385463623043
 30
0.0
 10
75.85671000917854
 20
-106.3385463623043
 30
0.0
 10
75.80121806614981
 20
-106.3385463623043
 30
0.0
 10
75.75645056729194
 20
-106.383349140071
 30
0.0
 10
75.75645056729194
 20
-106.4384530289459
 30
0.0
 10
75.75645056729194
 20
-106.4939449733764
 30
0.0
 10
75.80121806614981
 20
-106.5387124733653
 30
0.0
 10
75.85671000917854
 20
-106.5387124733653
 30
0.0
 10
75.91181389666161
 20
-106.5387124733653
 30
0.0
 10
75.95661667329638
 20
-106.4939449733764
 30
0.0
 10
75.95661667329638
 20
-106.4384530289459
 30
0.0
  0
SPLINE
  5
6E
330
1F
100
AcDbEntity
  8
_U+30EC_U+30A4_U+30E4_U+30FC 1
 62
   179
420
  2234388
370
     9
100
AcDbSpline
210
0.0
220
0.0
230
1.0
 70
    11
 71
     3
 72
    17
 73
    13
 74
     0
 42
0.0000000001
 43
0.0000000001
 12
1.0
 22
0.0
 32
0.0
 13
1.0
 23
0.0
 33
0.0
 40
0.0
 40
0.0
 40
0.0
 40
0.0
 40
1.0
 40
1.0
 40
1.0
 40
2.0
 40
2.0
 40
2.0
 40
3.0
 40
3.0
 40
3.0
 40
4.0
 40
4.0
 40
4.0
 40
4.0
 10
76.35656082975962
 20
-106.4384530289459
 30
0.0
 10
76.35656082975962
 20
-106.383349140071
 30
0.0
 10
76.31179333090174
 20
-106.3385463623043
 30
0.0
 10
76.25633666564988
 20
-106.3385463623043
 30
0.0
 10
76.20119750038994
 20
-106.3385463623043
 30
0.0
 10
76.15643000153204
 20
-106.383349140071
 30
0.0
 10
76.15643000153204
 20
-106.4384530289459
 30
0.0
 10
76.15643000153204
 20
-106.4939449733764
 30
0.0
 10
76.20119750038994
 20
-106.5387124733653
 30
0.0
 10
76.25633666564988
 20
-106.5387124733653
 30
0.0
 10
76.31179333090174
 20
-106.5387124733653
 30
0.0
 10
76.35656082975962
 20
-106.4939449733764
 30
0.0
 10
76.35656082975962
 20
-106.4384530289459
 30
0.0
  0
SPLINE
  5
6F
330
1F
100
AcDbEntity
  8
_U+30EC_U+30A4_U+30E4_U+30FC 1
 62
   179
420
  2234388
370
     9
100
AcDbSpline
210
0.0
220
0.0
230
1.0
 70
    11
 71
     3
 72
    17
 73
    13
 74
     0
 42
0.0000000001
 43
0.0000000001
 12
1.0
 22
0.0
 32
0.0
 13
1.0
 23
0.0
 33
0.0
 40
0.0
 40
0.0
 40
0.0
 40
0.0
 40
1.0
 40
1.0
 40
1.0
 40
2.0
 40
2.0
 40
2.0
 40
3.0
 40
3.0
 40
3.0
 40
4.0
 40
4.0
 40
4.0
 40
4.0
 10
71.15619318465427
 20
-110.4385649723905
 30
0.0
 10
71.15619318465427
 20
-110.3834258057375
 30
0.0
 10
71.11177846356516
 20
-110.3386583057486
 30
0.0
 10
71.05628652053643
 20
-110.3386583057486
 30
0.0
 10
71.00118263305336
 20
-110.3386583057486
 30
0.0
 10
70.95637985641861
 20
-110.3834258057375
 30
0.0
 10
70.95637985641861
 20
-110.4385649723905
 30
0.0
 10
70.95637985641861
 20
-110.4940216390432
 30
0.0
 10
71.00118263305336
 20
-110.5388244168096
 30
0.0
 10
71.05628652053643
 20
-110.5388244168096
 30
0.0
 10
71.11177846356516
 20
-110.5388244168096
 30
0.0
 10
71.15619318465427
 20
-110.4940216390432
 30
0.0
 10
71.15619318465427
 20
-110.4385649723905
 30
0.0
  0
SPLINE
  5
70
330
1F
100
AcDbEntity
  8
_U+30EC_U+30A4_U+30E4_U+30FC 1
 62
   179
420
  2234388
370
     9
100
AcDbSpline
210
0.0
220
0.0
230
1.0
 70
    11
 71
     3
 72
    17
 73
    13
 74
     0
 42
0.0000000001
 43
0.0000000001
 12
1.0
 22
0.0
 32
0.0
 13
1.0
 23
0.0
 33
0.0
 40
0.0
 40
0.0
 40
0.0
 40
0.0
 40
1.0
 40
1.0
 40
1.0
 40
2.0
 40
2.0
 40
2.0
 40
3.0
 40
3.0
 40
3.0
 40
4.0
 40
4.0
 40
4.0
 40
4.0
 10
71.15619318465427
 20
-148.438481907335
 30
0.0
 10
71.15619318465427
 20
-148.3833780184595
 30
0.0
 10
71.11177846356516
 20
-148.3385752406934
 30
0.0
 10
71.05628652053643
 20
-148.3385752406934
 30
0.0
 10
71.00118263305336
 20
-148.3385752406934
 30
0.0
 10
70.95637985641861
 20
-148.3833780184595
 30
0.0
 10
70.95637985641861
 20
-148.438481907335
 30
0.0
 10
70.95637985641861
 20
-148.4936210739875
 30
0.0
 10
71.00118263305336
 20
-148.5383885739766
 30
0.0
 10
71.05628652053643
 20
-148.5383885739766
 30
0.0
 10
71.11177846356516
 20
-148.5383885739766
 30
0.0
 10
71.15619318465427
 20
-148.4936210739875
 30
0.0
 10
71.15619318465427
 20
-148.438481907335
 30
0.0
  0
SPLINE
  5
71
330
1F
100
AcDbEntity
  8
_U+30EC_U+30A4_U+30E4_U+30FC 1
 62
   179
420
  2234388
370
    25
100
AcDbSpline
210
0.0
220
0.0
230
1.0
 70
     8
 71
     3
 72
    11
 73
     7
 74
     0
 42
0.0000000001
 43
0.0000000001
 12
1.0
 22
0.0
 32
0.0
 13
1.0
 23
0.0
 33
0.0
 40
0.0
 40
0.0
 40
0.0
 40
0.0
 40
1.0
 40
1.0
 40
1.0
 40
2.0
 40
2.0
 40
2.0
 40
2.0
 10
75.07742391794868
 20
-127.5276144125626
 30
0.0
 10
74.5740805974567
 20
-138.5620799653596
 30
0.0
 10
83.11102037966123
 20
-147.9148185741322
 30
0.0
 10
94.14548565370411
 20
-148.4178091295623
 30
0.0
 10
94.75251036043984
 20
-148.4453610740001
 30
0.0
 10
95.36024062271314
 20
-148.4453610740001
 30
0.0
 10
95.96726532944886
 20
-148.4178091295623
 30
0.0
  0
SPLINE
  5
72
330
1F
100
AcDbEntity
  8
_U+30EC_U+30A4_U+30E4_U+30FC 1
 62
   179
420
  2234388
370
    25
100
AcDbSpline
210
0.0
220
0.0
230
1.0
 70
     8
 71
     3
 72
     8
 73
     4
 74
     0
 42
0.0000000001
 43
0.0000000001
 12
1.0
 22
0.0
 32
0.0
 13
1.0
 23
0.0
 33
0.0
 40
0.0
 40
0.0
 40
0.0
 40
0.0
 40
1.0
 40
1.0
 40
1.0
 40
1.0
 10
76.25633666564988
 20
-128.4386630234458
 30
0.0
 10
76.25633666564988
 20
-138.8218302430726
 30
0.0
 10
84.67336942327618
 20
-147.2388963520792
 30
0.0
 10
95.05639313046493
 20
-147.2388963520792
 30
0.0
  0
INSERT
  5
74
330
1F
100
AcDbEntity
  8
_U+30EC_U+30A4_U+30E4_U+30FC 1
100
AcDbBlockReference
  2
block 2
 10
0.0
 20
0.0
 30
0.0
  0
POLYLINE
  5
7F
330
1F
100
AcDbEntity
  8
_U+30EC_U+30A4_U+30E4_U+30FC 1
 62
   179
420
  2234388
370
     9
100
AcDb2dPolyline
 66
     1
 10
0.0
 20
0.0
 30
0.0
  0
VERTEX
  5
80
330
7F
100
AcDbEntity
  8
_U+30EC_U+30A4_U+30E4_U+30FC 1
 62
   179
420
  2234388
370
     9
100
AcDbVertex
100
AcDb2dVertex
 10
115.3397390018825
 20
-147.2388963520792
 30
0.0
  0
VERTEX
  5
81
330
7F
100
AcDbEntity
  8
_U+30EC_U+30A4_U+30E4_U+30FC 1
 62
   179
420
  2234388
370
     9
100
AcDbVertex
100
AcDb2dVertex
 10
115.3397390018825
 20
-141.9809905200603
 30
0.0
  0
SEQEND
  5
82
330
7F
100
AcDbEntity
  8
_U+30EC_U+30A4_U+30E4_U+30FC 1
 62
   179
420
  2234388
370
     9
  0
POLYLINE
  5
83
330
1F
100
AcDbEntity
  8
_U+30EC_U+30A4_U+30E4_U+30FC 1
 62
   179
420
  2234388
370
     9
100
AcDb2dPolyline
 66
     1
 10
0.0
 20
0.0
 30
0.0
  0
VERTEX
  5
84
330
83
100
AcDbEntity
  8
_U+30EC_U+30A4_U+30E4_U+30FC 1
 62
   179
420
  2234388
370
     9
100
AcDbVertex
100
AcDb2dVertex
 10
115.3397390018825
 20
-147.2388963520792
 30
0.0
  0
VERTEX
  5
85
330
83
100
AcDbEntity
  8
_U+30EC_U+30A4_U+30E4_U+30FC 1
 62
   179
420
  2234388
370
     9
100
AcDbVertex
100
AcDb2dVertex
 10
115.3397390018825
 20
-148.6390007961738
 30
0.0
  0
SEQEND
  5
86
330
83
100
AcDbEntity
  8
_U+30EC_U+30A4_U+30E4_U+30FC 1
 62
   179
420
  2234388
370
     9
  0
POLYLINE
  5
87
330
1F
100
AcDbEntity
  8
_U+30EC_U+30A4_U+30E4_U+30FC 1
 62
   179
420
  2234388
370
     9
100
AcDb2dPolyline
 66
     1
 10
0.0
 20
0.0
 30
0.0
  0
VERTEX
  5
88
330
87
100
AcDbEntity
  8
_U+30EC_U+30A4_U+30E4_U+30FC 1
 62
   179
420
  2234388
370
     9
100
AcDbVertex
100
AcDb2dVertex
 10
113.8796976502424
 20
-147.2388963520792
 30
0.0
  0
VERTEX
  5
89
330
87
100
AcDbEntity
  8
_U+30EC_U+30A4_U+30E4_U+30FC 1
 62
   179
420
  2234388
370
     9
100
AcDbVertex
100
AcDb2dVertex
 10
116.3395111985985
 20
-147.2388963520792
 30
0.0
  0
SEQEND
  5
8A
330
87
100
AcDbEntity
  8
_U+30EC_U+30A4_U+30E4_U+30FC 1
 62
   179
420
  2234388
370
     9
  0
POLYLINE
  5
8B
330
1F
100
AcDbEntity
  8
_U+30EC_U+30A4_U+30E4_U+30FC 1
 62
   179
420
  2234388
370
     9
100
AcDb2dPolyline
 66
     1
 10
0.0
 20
0.0
 30
0.0
  0
VERTEX
  5
8C
330
8B
100
AcDbEntity
  8
_U+30EC_U+30A4_U+30E4_U+30FC 1
 62
   179
420
  2234388
370
     9
100
AcDbVertex
100
AcDb2dVertex
 10
113.8796976502424
 20
-147.6385230186457
 30
0.0
  0
VERTEX
  5
8D
330
8B
100
AcDbEntity
  8
_U+30EC_U+30A4_U+30E4_U+30FC 1
 62
   179
420
  2234388
370
     9
100
AcDbVertex
100
AcDb2dVertex
 10
116.3395111985985
 20
-147.6385230186457
 30
0.0
  0
SEQEND
  5
8E
330
8B
100
AcDbEntity
  8
_U+30EC_U+30A4_U+30E4_U+30FC 1
 62
   179
420
  2234388
370
     9
  0
INSERT
  5
90
330
1F
100
AcDbEntity
  8
_U+30EC_U+30A4_U+30E4_U+30FC 1
100
AcDbBlockReference
  2
block 3
 10
0.0
 20
0.0
 30
0.0
  0
POLYLINE
  5
B3
330
1F
100
AcDbEntity
  8
_U+30EC_U+30A4_U+30E4_U+30FC 1
 62
   179
420
  2234388
370
     9
100
AcDb2dPolyline
 66
     1
 10
0.0
 20
0.0
 30
0.0
  0
VERTEX
  5
B4
330
B3
100
AcDbEntity
  8
_U+30EC_U+30A4_U+30E4_U+30FC 1
 62
   179
420
  2234388
370
     9
100
AcDbVertex
100
AcDb2dVertex
 10
76.25633666564988
 20
-106.4384530289459
 30
0.0
  0
VERTEX
  5
B5
330
B3
100
AcDbEntity
  8
_U+30EC_U+30A4_U+30E4_U+30FC 1
 62
   179
420
  2234388
370
     9
100
AcDbVertex
100
AcDb2dVertex
 10
82.51433206155068
 20
-106.4384530289459
 30
0.0
  0
SEQEND
  5
B6
330
B3
100
AcDbEntity
  8
_U+30EC_U+30A4_U+30E4_U+30FC 1
 62
   179
420
  2234388
370
     9
  0
POLYLINE
  5
B7
330
1F
100
AcDbEntity
  8
_U+30EC_U+30A4_U+30E4_U+30FC 1
 62
   179
420
  2234388
370
     9
100
AcDb2dPolyline
 66
     1
 10
0.0
 20
0.0
 30
0.0
  0
VERTEX
  5
B8
330
B7
100
AcDbEntity
  8
_U+30EC_U+30A4_U+30E4_U+30FC 1
 62
   179
420
  2234388
370
     9
100
AcDbVertex
100
AcDb2dVertex
 10
76.25633666564988
 20
-106.4384530289459
 30
0.0
  0
VERTEX
  5
B9
330
B7
100
AcDbEntity
  8
_U+30EC_U+30A4_U+30E4_U+30FC 1
 62
   179
420
  2234388
370
     9
100
AcDbVertex
100
AcDb2dVertex
 10
74.85623225692508
 20
-106.4384530289459
 30
0.0
  0
SEQEND
  5
BA
330
B7
100
AcDbEntity
  8
_U+30EC_U+30A4_U+30E4_U+30FC 1
 62
   179
420
  2234388
370
     9
  0
POLYLINE
  5
BB
330
1F
100
AcDbEntity
  8
_U+30EC_U+30A4_U+30E4_U+30FC 1
 62
   179
420
  2234388
370
     9
100
AcDb2dPolyline
 66
     1
 10
0.0
 20
0.0
 30
0.0
  0
VERTEX
  5
BC
330
BB
100
AcDbEntity
  8
_U+30EC_U+30A4_U+30E4_U+30FC 1
 62
   179
420
  2234388
370
     9
100
AcDbVertex
100
AcDb2dVertex
 10
76.25633666564988
 20
-107.8984944174699
 30
0.0
  0
VERTEX
  5
BD
330
BB
100
AcDbEntity
  8
_U+30EC_U+30A4_U+30E4_U+30FC 1
 62
   179
420
  2234388
370
     9
100
AcDbVertex
100
AcDb2dVertex
 10
76.25633666564988
 20
-105.4386808069737
 30
0.0
  0
SEQEND
  5
BE
330
BB
100
AcDbEntity
  8
_U+30EC_U+30A4_U+30E4_U+30FC 1
 62
   179
420
  2234388
370
     9
  0
POLYLINE
  5
BF
330
1F
100
AcDbEntity
  8
_U+30EC_U+30A4_U+30E4_U+30FC 1
 62
   179
420
  2234388
370
     9
100
AcDb2dPolyline
 66
     1
 10
0.0
 20
0.0
 30
0.0
  0
VERTEX
  5
C0
330
BF
100
AcDbEntity
  8
_U+30EC_U+30A4_U+30E4_U+30FC 1
 62
   179
420
  2234388
370
     9
100
AcDbVertex
100
AcDb2dVertex
 10
75.85671000917854
 20
-107.8984944174699
 30
0.0
  0
VERTEX
  5
C1
330
BF
100
AcDbEntity
  8
_U+30EC_U+30A4_U+30E4_U+30FC 1
 62
   179
420
  2234388
370
     9
100
AcDbVertex
100
AcDb2dVertex
 10
75.85671000917854
 20
-105.4386808069737
 30
0.0
  0
SEQEND
  5
C2
330
BF
100
AcDbEntity
  8
_U+30EC_U+30A4_U+30E4_U+30FC 1
 62
   179
420
  2234388
370
     9
  0
INSERT
  5
C4
330
1F
100
AcDbEntity
  8
_U+30EC_U+30A4_U+30E4_U+30FC 1
100
AcDbBlockReference
  2
block 4
 10
0.0
 20
0.0
 30
0.0
  0
POLYLINE
  5
E7
330
1F
100
AcDbEntity
  8
_U+30EC_U+30A4_U+30E4_U+30FC 1
 62
   179
420
  2234388
370
     9
100
AcDb2dPolyline
 66
     1
 10
0.0
 20
0.0
 30
0.0
  0
VERTEX
  5
E8
330
E7
100
AcDbEntity
  8
_U+30EC_U+30A4_U+30E4_U+30FC 1
 62
   179
420
  2234388
370
     9
100
AcDbVertex
100
AcDb2dVertex
 10
71.05628652053643
 20
-110.4385649723905
 30
0.0
  0
VERTEX
  5
E9
330
E7
100
AcDbEntity
  8
_U+30EC_U+30A4_U+30E4_U+30FC 1
 62
   179
420
  2234388
370
     9
100
AcDbVertex
100
AcDb2dVertex
 10
71.05628652053643
 20
-148.438481907335
 30
0.0
  0
SEQEND
  5
EA
330
E7
100
AcDbEntity
  8
_U+30EC_U+30A4_U+30E4_U+30FC 1
 62
   179
420
  2234388
370
     9
  0
POLYLINE
  5
EB
330
1F
100
AcDbEntity
  8
_U+30EC_U+30A4_U+30E4_U+30FC 1
 62
   179
420
  2234388
370
     9
100
AcDb2dPolyline
 66
     1
 10
0.0
 20
0.0
 30
0.0
  0
VERTEX
  5
EC
330
EB
100
AcDbEntity
  8
_U+30EC_U+30A4_U+30E4_U+30FC 1
 62
   179
420
  2234388
370
     9
100
AcDbVertex
100
AcDb2dVertex
 10
73.3162867406568
 20
-110.4385649723905
 30
0.0
  0
VERTEX
  5
ED
330
EB
100
AcDbEntity
  8
_U+30EC_U+30A4_U+30E4_U+30FC 1
 62
   179
420
  2234388
370
     9
100
AcDbVertex
100
AcDb2dVertex
 10
70.05651432382054
 20
-110.4385649723905
 30
0.0
  0
SEQEND
  5
EE
330
EB
100
AcDbEntity
  8
_U+30EC_U+30A4_U+30E4_U+30FC 1
 62
   179
420
  2234388
370
     9
  0
POLYLINE
  5
EF
330
1F
100
AcDbEntity
  8
_U+30EC_U+30A4_U+30E4_U+30FC 1
 62
   179
420
  2234388
370
     9
100
AcDb2dPolyline
 66
     1
 10
0.0
 20
0.0
 30
0.0
  0
VERTEX
  5
F0
330
EF
100
AcDbEntity
  8
_U+30EC_U+30A4_U+30E4_U+30FC 1
 62
   179
420
  2234388
370
     9
100
AcDbVertex
100
AcDb2dVertex
 10
92.51667775464875
 20
-148.438481907335
 30
0.0
  0
VERTEX
  5
F1
330
EF
100
AcDbEntity
  8
_U+30EC_U+30A4_U+30E4_U+30FC 1
 62
   179
420
  2234388
370
     9
100
AcDbVertex
100
AcDb2dVertex
 10
70.05651432382054
 20
-148.438481907335
 30
0.0
  0
SEQEND
  5
F2
330
EF
100
AcDbEntity
  8
_U+30EC_U+30A4_U+30E4_U+30FC 1
 62
   179
420
  2234388
370
     9
  0
INSERT
  5
F4
330
1F
100
AcDbEntity
  8
_U+30EC_U+30A4_U+30E4_U+30FC 1
100
AcDbBlockReference
  2
block 5
 10
0.0
 20
0.0
 30
0.0
  0
POLYLINE
  5
FD
330
1F
100
AcDbEntity
  8
_U+30EC_U+30A4_U+30E4_U+30FC 1
 62
   179
420
  2234388
370
     9
100
AcDb2dPolyline
 66
     1
 10
0.0
 20
0.0
 30
0.0
  0
VERTEX
  5
FE
330
FD
100
AcDbEntity
  8
_U+30EC_U+30A4_U+30E4_U+30FC 1
 62
   179
420
  2234388
370
     9
100
AcDbVertex
100
AcDb2dVertex
 10
113.0563143379154
 20
-152.4389466285568
 30
0.0
  0
VERTEX
  5
FF
330
FD
100
AcDbEntity
  8
_U+30EC_U+30A4_U+30E4_U+30FC 1
 62
   179
420
  2234388
370
     9
100
AcDbVertex
100
AcDb2dVertex
 10
75.05639836292953
 20
-152.4389466285568
 30
0.0
  0
SEQEND
  5
100
330
FD
100
AcDbEntity
  8
_U+30EC_U+30A4_U+30E4_U+30FC 1
 62
   179
420
  2234388
370
     9
  0
POLYLINE
  5
101
330
1F
100
AcDbEntity
  8
_U+30EC_U+30A4_U+30E4_U+30FC 1
 62
   179
420
  2234388
370
     9
100
AcDb2dPolyline
 66
     1
 10
0.0
 20
0.0
 30
0.0
  0
VERTEX
  5
102
330
101
100
AcDbEntity
  8
_U+30EC_U+30A4_U+30E4_U+30FC 1
 62
   179
420
  2234388
370
     9
100
AcDbVertex
100
AcDb2dVertex
 10
113.0563143379154
 20
-150.1789463513445
 30
0.0
  0
VERTEX
  5
103
330
101
100
AcDbEntity
  8
_U+30EC_U+30A4_U+30E4_U+30FC 1
 62
   179
420
  2234388
370
     9
100
AcDbVertex
100
AcDb2dVertex
 10
113.0563143379154
 20
-153.4386835727512
 30
0.0
  0
SEQEND
  5
104
330
101
100
AcDbEntity
  8
_U+30EC_U+30A4_U+30E4_U+30FC 1
 62
   179
420
  2234388
370
     9
  0
POLYLINE
  5
105
330
1F
100
AcDbEntity
  8
_U+30EC_U+30A4_U+30E4_U+30FC 1
 62
   179
420
  2234388
370
     9
100
AcDb2dPolyline
 66
     1
 10
0.0
 20
0.0
 30
0.0
  0
VERTEX
  5
106
330
105
100
AcDbEntity
  8
_U+30EC_U+30A4_U+30E4_U+30FC 1
 62
   179
420
  2234388
370
     9
100
AcDbVertex
100
AcDb2dVertex
 10
75.05639836292953
 20
-130.9783808005887
 30
0.0
  0
VERTEX
  5
107
330
105
100
AcDbEntity
  8
_U+30EC_U+30A4_U+30E4_U+30FC 1
 62
   179
420
  2234388
370
     9
100
AcDbVertex
100
AcDb2dVertex
 10
75.05639836292953
 20
-153.4386835727512
 30
0.0
  0
SEQEND
  5
108
330
105
100
AcDbEntity
  8
_U+30EC_U+30A4_U+30E4_U+30FC 1
 62
   179
420
  2234388
370
     9
  0
INSERT
  5
10A
330
1F
100
AcDbEntity
  8
_U+30EC_U+30A4_U+30E4_U+30FC 1
100
AcDbBlockReference
  2
block 6
 10
0.0
 20
0.0
 30
0.0
  0
ENDSEC
  0
SECTION
  2
OBJECTS
  0
DICTIONARY
  5
C
330
0
100
AcDbDictionary
281
     1
  3
ACAD_GROUP
350
D
  3
ACAD_LAYOUT
350
1A
  3
ACAD_MATERIAL
350
3B
  3
ACAD_MLEADERSTYLE
350
114
  3
ACAD_MLINESTYLE
350
17
  3
ACAD_PLOTSETTINGS
350
19
  3
ACAD_PLOTSTYLENAME
350
E
  3
ACAD_TABLESTYLE
350
113
  3
ACAD_VISUALSTYLE
350
2A
  0
SUN
  5
3F
330
29
100
AcDbSun
 90
        1
290
     0
 63
     7
421
 16777215
 40
1.0
291
     1
 91
  2455826
 92
 54000000
292
     0
 70
     2
 71
   256
280
     1
  0
DICTIONARY
  5
D
102
{ACAD_REACTORS
330
C
102
}
330
C
100
AcDbDictionary
281
     1
  0
DICTIONARY
  5
1A
102
{ACAD_REACTORS
330
C
102
}
330
C
100
AcDbDictionary
281
     1
  3
Layout1
350
1E
  3
Layout2
350
26
  3
Model
350
22
  0
DICTIONARY
  5
3B
102
{ACAD_REACTORS
330
C
102
}
330
C
100
AcDbDictionary
281
     1
  3
ByBlock
350
3D
  3
ByLayer
350
3C
  3
Global
350
3E
  0
DICTIONARY
  5
114
102
{ACAD_REACTORS
330
C
102
}
330
C
100
AcDbDictionary
281
     1
  0
DICTIONARY
  5
17
102
{ACAD_REACTORS
330
C
102
}
330
C
100
AcDbDictionary
281
     1
  3
Standard
350
18
  0
DICTIONARY
  5
19
102
{ACAD_REACTORS
330
C
102
}
330
C
100
AcDbDictionary
281
     1
  0
ACDBDICTIONARYWDFLT
  5
E
102
{ACAD_REACTORS
330
C
102
}
330
C
100
AcDbDictionary
281
     1
  3
Normal
350
F
100
AcDbDictionaryWithDefault
340
F
  0
DICTIONARY
  5
113
102
{ACAD_REACTORS
330
C
102
}
330
C
100
AcDbDictionary
281
     1
  0
DICTIONARY
  5
2A
102
{ACAD_REACTORS
330
C
102
}
330
C
100
AcDbDictionary
281
     1
  3
2dWireframe
350
2F
  3
3D Hidden
350
31
  3
3dWireframe
350
30
  3
Basic
350
32
  3
Brighten
350
36
  3
ColorChange
350
3A
  3
Conceptual
350
34
  3
Dim
350
35
  3
Facepattern
350
39
  3
Flat
350
2B
  3
FlatWithEdges
350
2C
  3
Gouraud
350
2D
  3
GouraudWithEdges
350
2E
  3
Linepattern
350
38
  3
Realistic
350
33
  3
Thicken
350
37
  0
LAYOUT
  5
1E
102
{ACAD_REACTORS
330
1A
102
}
330
1A
100
AcDbPlotSettings
  1

  2
none_device
  4

  6

 40
0.0
 41
0.0
 42
0.0
 43
0.0
 44
0.0
 45
0.0
 46
0.0
 47
0.0
 48
0.0
 49
0.0
140
0.0
141
0.0
142
1.0
143
1.0
 70
   688
 72
     0
 73
     0
 74
     5
  7

 75
    16
 76
     0
 77
     2
 78
   300
147
1.0
148
0.0
149
0.0
100
AcDbLayout
  1
Layout1
 70
     1
 71
     1
 10
0.0
 20
0.0
 11
12.0
 21
9.0
 12
0.0
 22
0.0
 32
0.0
 14
1.000000000000000E+20
 24
1.000000000000000E+20
 34
1.000000000000000E+20
 15
-1.000000000000000E+20
 25
-1.000000000000000E+20
 35
-1.000000000000000E+20
146
0.0
 13
0.0
 23
0.0
 33
0.0
 16
1.0
 26
0.0
 36
0.0
 17
0.0
 27
1.0
 37
0.0
 76
     0
330
1B
  0
LAYOUT
  5
26
102
{ACAD_REACTORS
330
1A
102
}
330
1A
100
AcDbPlotSettings
  1

  2
none_device
  4

  6

 40
0.0
 41
0.0
 42
0.0
 43
0.0
 44
0.0
 45
0.0
 46
0.0
 47
0.0
 48
0.0
 49
0.0
140
0.0
141
0.0
142
1.0
143
1.0
 70
   688
 72
     0
 73
     0
 74
     5
  7

 75
    16
 76
     0
 77
     2
 78
   300
147
1.0
148
0.0
149
0.0
100
AcDbLayout
  1
Layout2
 70
     1
 71
     2
 10
0.0
 20
0.0
 11
0.0
 21
0.0
 12
0.0
 22
0.0
 32
0.0
 14
0.0
 24
0.0
 34
0.0
 15
0.0
 25
0.0
 35
0.0
146
0.0
 13
0.0
 23
0.0
 33
0.0
 16
1.0
 26
0.0
 36
0.0
 17
0.0
 27
1.0
 37
0.0
 76
     0
330
23
  0
LAYOUT
  5
22
102
{ACAD_REACTORS
330
1A
102
}
330
1A
100
AcDbPlotSettings
  1

  2
none_device
  4

  6

 40
0.0
 41
0.0
 42
0.0
 43
0.0
 44
0.0
 45
0.0
 46
0.0
 47
0.0
 48
0.0
 49
0.0
140
0.0
141
0.0
142
1.0
143
1.0
 70
  1712
 72
     0
 73
     0
 74
     0
  7

 75
     0
 76
     0
 77
     2
 78
   300
147
1.0
148
0.0
149
0.0
100
AcDbLayout
  1
Model
 70
     1
 71
     0
 10
0.0
 20
0.0
 11
12.0
 21
9.0
 12
0.0
 22
0.0
 32
0.0
 14
1.000000000000000E+20
 24
1.000000000000000E+20
 34
1.000000000000000E+20
 15
-1.000000000000000E+20
 25
-1.000000000000000E+20
 35
-1.000000000000000E+20
146
0.0
 13
0.0
 23
0.0
 33
0.0
 16
1.0
 26
0.0
 36
0.0
 17
0.0
 27
1.0
 37
0.0
 76
     0
330
1F
331
29
  0
MATERIAL
  5
3D
102
{ACAD_REACTORS
330
3B
102
}
330
3B
100
AcDbMaterial
  1
ByBlock
 72
     1
 94
      127
  0
MATERIAL
  5
3C
102
{ACAD_REACTORS
330
3B
102
}
330
3B
100
AcDbMaterial
  1
ByLayer
 72
     1
 94
      127
  0
MATERIAL
  5
3E
102
{ACAD_REACTORS
330
3B
102
}
330
3B
100
AcDbMaterial
  1
Global
 72
     1
 94
      127
  0
MLINESTYLE
  5
18
102
{ACAD_REACTORS
330
17
102
}
330
17
100
AcDbMlineStyle
  2
Standard
 70
     0
  3

 62
   256
 51
90.0
 52
90.0
 71
     2
 49
0.5
 62
   256
  6
BYLAYER
 49
-0.5
 62
   256
  6
BYLAYER
  0
ACDBPLACEHOLDER
  5
F
102
{ACAD_REACTORS
330
E
102
}
330
E
  0
VISUALSTYLE
  5
2F
102
{ACAD_REACTORS
330
2A
102
}
330
2A
100
AcDbVisualStyle
  2
2dWireframe
 70
     4
177
     2
291
     0
 71
     0
176
     1
 72
     2
176
     1
 73
     0
176
     1
 90
        0
176
     1
 40
-0.6
176
     1
 41
-30.0
176
     1
 62
     5
 63
     7
421
 16777215
176
     1
 74
     1
176
     1
 91
        4
176
     1
 64
     7
176
     1
 65
   257
176
     1
 75
     1
176
     1
175
     1
176
     1
 42
1.0
176
     1
 92
        0
176
     1
 66
   257
176
     1
 43
1.0
176
     1
 76
     1
176
     1
 77
     6
176
     1
 78
     2
176
     1
 67
     7
176
     1
 79
     5
176
     1
170
     0
176
     1
171
     0
176
     1
290
     0
176
     1
 93
        1
176
     1
 44
0.0
176
     1
173
     0
176
     1
  0
VISUALSTYLE
  5
31
102
{ACAD_REACTORS
330
2A
102
}
330
2A
100
AcDbVisualStyle
  2
3D Hidden
 70
     6
177
     2
291
     0
 71
     1
176
     1
 72
     2
176
     1
 73
     2
176
     1
 90
        0
176
     1
 40
-0.6
176
     1
 41
-30.0
176
     1
 62
     5
 63
     7
421
 16777215
176
     1
 74
     2
176
     1
 91
        2
176
     1
 64
     7
176
     1
 65
   257
176
     1
 75
     2
176
     1
175
     1
176
     1
 42
40.0
176
     1
 92
        0
176
     1
 66
   257
176
     1
 43
1.0
176
     1
 76
     1
176
     1
 77
     6
176
     1
 78
     2
176
     1
 67
     7
176
     1
 79
     3
176
     1
170
     0
176
     1
171
     0
176
     1
290
     0
176
     1
 93
        1
176
     1
 44
0.0
176
     1
173
     0
176
     1
  0
VISUALSTYLE
  5
30
102
{ACAD_REACTORS
330
2A
102
}
330
2A
100
AcDbVisualStyle
  2
3dWireframe
 70
     5
177
     2
291
     0
 71
     0
176
     1
 72
     2
176
     1
 73
     0
176
     1
 90
        0
176
     1
 40
-0.6
176
     1
 41
-30.0
176
     1
 62
     5
 63
     7
421
 16777215
176
     1
 74
     1
176
     1
 91
        4
176
     1
 64
     7
176
     1
 65
   257
176
     1
 75
     1
176
     1
175
     1
176
     1
 42
1.0
176
     1
 92
        0
176
     1
 66
   257
176
     1
 43
1.0
176
     1
 76
     1
176
     1
 77
     6
176
     1
 78
     2
176
     1
 67
     7
176
     1
 79
     5
176
     1
170
     0
176
     1
171
     0
176
     1
290
     0
176
     1
 93
        1
176
     1
 44
0.0
176
     1
173
     0
176
     1
  0
VISUALSTYLE
  5
32
102
{ACAD_REACTORS
330
2A
102
}
330
2A
100
AcDbVisualStyle
  2
Basic
 70
     7
177
     2
291
     1
 71
     1
176
     1
 72
     0
176
     1
 73
     1
176
     1
 90
        0
176
     1
 40
-0.6
176
     1
 41
-30.0
176
     1
 62
     5
 63
     7
421
 16777215
176
     1
 74
     0
176
     1
 91
        4
176
     1
 64
     7
176
     1
 65
   257
176
     1
 75
     1
176
     1
175
     1
176
     1
 42
1.0
176
     1
 92
        8
176
     1
 66
     7
176
     1
 43
1.0
176
     1
 76
     1
176
     1
 77
     6
176
     1
 78
     2
176
     1
 67
     7
176
     1
 79
     5
176
     1
170
     0
176
     1
171
     0
176
     1
290
     0
176
     1
 93
        1
176
     1
 44
0.0
176
     1
173
     0
176
     1
  0
VISUALSTYLE
  5
36
102
{ACAD_REACTORS
330
2A
102
}
330
2A
100
AcDbVisualStyle
  2
Brighten
 70
    12
177
     2
291
     1
 71
     2
176
     1
 72
     2
176
     1
 73
     0
176
     1
 90
        0
176
     1
 40
-0.6
176
     1
 41
-30.0
176
     1
 62
     5
 63
     7
421
 16777215
176
     1
 74
     1
176
     1
 91
        4
176
     1
 64
     7
176
     1
 65
   257
176
     1
 75
     1
176
     1
175
     1
176
     1
 42
1.0
176
     1
 92
        8
176
     1
 66
     7
176
     1
 43
1.0
176
     1
 76
     1
176
     1
 77
     6
176
     1
 78
     2
176
     1
 67
     7
176
     1
 79
     5
176
     1
170
     0
176
     1
171
     0
176
     1
290
     0
176
     1
 93
        1
176
     1
 44
50.0
176
     1
173
     0
176
     1
  0
VISUALSTYLE
  5
3A
102
{ACAD_REACTORS
330
2A
102
}
330
2A
100
AcDbVisualStyle
  2
ColorChange
 70
    16
177
     2
291
     1
 71
     2
176
     1
 72
     2
176
     1
 73
     3
176
     1
 90
        0
176
     1
 40
-0.6
176
     1
 41
-30.0
176
     1
 62
     5
 63
     8
421
  8421504
176
     1
 74
     1
176
     1
 91
        4
176
     1
 64
     7
176
     1
 65
   257
176
     1
 75
     1
176
     1
175
     1
176
     1
 42
1.0
176
     1
 92
        8
176
     1
 66
     8
424
  8421504
176
     1
 43
1.0
176
     1
 76
     1
176
     1
 77
     6
176
     1
 78
     2
176
     1
 67
     7
176
     1
 79
     5
176
     1
170
     0
176
     1
171
     0
176
     1
290
     0
176
     1
 93
        1
176
     1
 44
0.0
176
     1
173
     0
176
     1
  0
VISUALSTYLE
  5
34
102
{ACAD_REACTORS
330
2A
102
}
330
2A
100
AcDbVisualStyle
  2
Conceptual
 70
     9
177
     2
291
     0
 71
     3
176
     1
 72
     2
176
     1
 73
     0
176
     1
 90
        0
176
     1
 40
-0.6
176
     1
 41
-30.0
176
     1
 62
     5
 63
     7
421
 16777215
176
     1
 74
     2
176
     1
 91
        2
176
     1
 64
     7
176
     1
 65
   257
176
     1
 75
     1
176
     1
175
     1
176
     1
 42
40.0
176
     1
 92
        8
176
     1
 66
     7
176
     1
 43
1.0
176
     1
 76
     1
176
     1
 77
     6
176
     1
 78
     2
176
     1
 67
     7
176
     1
 79
     3
176
     1
170
     0
176
     1
171
     0
176
     1
290
     0
176
     1
 93
        1
176
     1
 44
0.0
176
     1
173
     0
176
     1
  0
VISUALSTYLE
  5
35
102
{ACAD_REACTORS
330
2A
102
}
330
2A
100
AcDbVisualStyle
  2
Dim
 70
    11
177
     2
291
     1
 71
     2
176
     1
 72
     2
176
     1
 73
     0
176
     1
 90
        0
176
     1
 40
-0.6
176
     1
 41
-30.0
176
     1
 62
     5
 63
     7
421
 16777215
176
     1
 74
     1
176
     1
 91
        4
176
     1
 64
     7
176
     1
 65
   257
176
     1
 75
     1
176
     1
175
     1
176
     1
 42
1.0
176
     1
 92
        8
176
     1
 66
     7
176
     1
 43
1.0
176
     1
 76
     1
176
     1
 77
     6
176
     1
 78
     2
176
     1
 67
     7
176
     1
 79
     5
176
     1
170
     0
176
     1
171
     0
176
     1
290
     0
176
     1
 93
        1
176
     1
 44
-50.0
176
     1
173
     0
176
     1
  0
VISUALSTYLE
  5
39
102
{ACAD_REACTORS
330
2A
102
}
330
2A
100
AcDbVisualStyle
  2
Facepattern
 70
    15
177
     2
291
     1
 71
     2
176
     1
 72
     2
176
     1
 73
     0
176
     1
 90
        0
176
     1
 40
-0.6
176
     1
 41
-30.0
176
     1
 62
     5
 63
     7
421
 16777215
176
     1
 74
     1
176
     1
 91
        4
176
     1
 64
     7
176
     1
 65
   257
176
     1
 75
     1
176
     1
175
     1
176
     1
 42
1.0
176
     1
 92
        8
176
     1
 66
     7
176
     1
 43
1.0
176
     1
 76
     1
176
     1
 77
     6
176
     1
 78
     2
176
     1
 67
     7
176
     1
 79
     5
176
     1
170
     0
176
     1
171
     0
176
     1
290
     0
176
     1
 93
        1
176
     1
 44
0.0
176
     1
173
     0
176
     1
  0
VISUALSTYLE
  5
2B
102
{ACAD_REACTORS
330
2A
102
}
330
2A
100
AcDbVisualStyle
  2
Flat
 70
     0
177
     2
291
     1
 71
     2
176
     1
 72
     1
176
     1
 73
     1
176
     1
 90
        2
176
     1
 40
-0.6
176
     1
 41
30.0
176
     1
 62
     5
 63
     7
421
 16777215
176
     1
 74
     0
176
     1
 91
        4
176
     1
 64
     7
176
     1
 65
   257
176
     1
 75
     1
176
     1
175
     1
176
     1
 42
1.0
176
     1
 92
        8
176
     1
 66
     7
176
     1
 43
1.0
176
     1
 76
     1
176
     1
 77
     6
176
     1
 78
     2
176
     1
 67
     7
176
     1
 79
     5
176
     1
170
     0
176
     1
171
     0
176
     1
290
     0
176
     1
 93
       13
176
     1
 44
0.0
176
     1
173
     0
176
     1
  0
VISUALSTYLE
  5
2C
102
{ACAD_REACTORS
330
2A
102
}
330
2A
100
AcDbVisualStyle
  2
FlatWithEdges
 70
     1
177
     2
291
     1
 71
     2
176
     1
 72
     1
176
     1
 73
     1
176
     1
 90
        2
176
     1
 40
-0.6
176
     1
 41
30.0
176
     1
 62
     5
 63
     7
421
 16777215
176
     1
 74
     1
176
     1
 91
        4
176
     1
 64
     7
176
     1
 65
   257
176
     1
 75
     1
176
     1
175
     1
176
     1
 42
1.0
176
     1
 92
        0
176
     1
 66
   257
176
     1
 43
1.0
176
     1
 76
     1
176
     1
 77
     6
176
     1
 78
     2
176
     1
 67
     7
176
     1
 79
     5
176
     1
170
     0
176
     1
171
     0
176
     1
290
     0
176
     1
 93
       13
176
     1
 44
0.0
176
     1
173
     0
176
     1
  0
VISUALSTYLE
  5
2D
102
{ACAD_REACTORS
330
2A
102
}
330
2A
100
AcDbVisualStyle
  2
Gouraud
 70
     2
177
     2
291
     1
 71
     2
176
     1
 72
     2
176
     1
 73
     1
176
     1
 90
        2
176
     1
 40
-0.6
176
     1
 41
30.0
176
     1
 62
     5
 63
     7
421
 16777215
176
     1
 74
     0
176
     1
 91
        4
176
     1
 64
     7
176
     1
 65
   257
176
     1
 75
     1
176
     1
175
     1
176
     1
 42
1.0
176
     1
 92
        0
176
     1
 66
     7
176
     1
 43
1.0
176
     1
 76
     1
176
     1
 77
     6
176
     1
 78
     2
176
     1
 67
     7
176
     1
 79
     5
176
     1
170
     0
176
     1
171
     0
176
     1
290
     0
176
     1
 93
       13
176
     1
 44
0.0
176
     1
173
     0
176
     1
  0
VISUALSTYLE
  5
2E
102
{ACAD_REACTORS
330
2A
102
}
330
2A
100
AcDbVisualStyle
  2
GouraudWithEdges
 70
     3
177
     2
291
     1
 71
     2
176
     1
 72
     2
176
     1
 73
     1
176
     1
 90
        2
176
     1
 40
-0.6
176
     1
 41
30.0
176
     1
 62
     5
 63
     7
421
 16777215
176
     1
 74
     1
176
     1
 91
        4
176
     1
 64
     7
176
     1
 65
   257
176
     1
 75
     1
176
     1
175
     1
176
     1
 42
1.0
176
     1
 92
        0
176
     1
 66
   257
176
     1
 43
1.0
176
     1
 76
     1
176
     1
 77
     6
176
     1
 78
     2
176
     1
 67
     7
176
     1
 79
     5
176
     1
170
     0
176
     1
171
     0
176
     1
290
     0
176
     1
 93
       13
176
     1
 44
0.0
176
     1
173
     0
176
     1
  0
VISUALSTYLE
  5
38
102
{ACAD_REACTORS
330
2A
102
}
330
2A
100
AcDbVisualStyle
  2
Linepattern
 70
    14
177
     2
291
     1
 71
     2
176
     1
 72
     2
176
     1
 73
     0
176
     1
 90
        0
176
     1
 40
-0.6
176
     1
 41
-30.0
176
     1
 62
     5
 63
     7
421
 16777215
176
     1
 74
     1
176
     1
 91
        4
176
     1
 64
     7
176
     1
 65
   257
176
     1
 75
     7
176
     1
175
     7
176
     1
 42
1.0
176
     1
 92
        8
176
     1
 66
     7
176
     1
 43
1.0
176
     1
 76
     1
176
     1
 77
     6
176
     1
 78
     2
176
     1
 67
     7
176
     1
 79
     5
176
     1
170
     0
176
     1
171
     0
176
     1
290
     0
176
     1
 93
        1
176
     1
 44
0.0
176
     1
173
     0
176
     1
  0
VISUALSTYLE
  5
33
102
{ACAD_REACTORS
330
2A
102
}
330
2A
100
AcDbVisualStyle
  2
Realistic
 70
     8
177
     2
291
     0
 71
     2
176
     1
 72
     2
176
     1
 73
     0
176
     1
 90
        0
176
     1
 40
-0.6
176
     1
 41
-30.0
176
     1
 62
     5
 63
     7
421
 16777215
176
     1
 74
     1
176
     1
 91
        0
176
     1
 64
     7
176
     1
 65
   257
176
     1
 75
     1
176
     1
175
     1
176
     1
 42
1.0
176
     1
 92
        8
176
     1
 66
     8
424
  7895160
176
     1
 43
1.0
176
     1
 76
     1
176
     1
 77
     6
176
     1
 78
     2
176
     1
 67
     7
176
     1
 79
     5
176
     1
170
     0
176
     1
171
     0
176
     1
290
     0
176
     1
 93
       13
176
     1
 44
0.0
176
     1
173
     0
176
     1
  0
VISUALSTYLE
  5
37
102
{ACAD_REACTORS
330
2A
102
}
330
2A
100
AcDbVisualStyle
  2
Thicken
 70
    13
177
     2
291
     1
 71
     2
176
     1
 72
     2
176
     1
 73
     0
176
     1
 90
        0
176
     1
 40
-0.6
176
     1
 41
-30.0
176
     1
 62
     5
 63
     7
421
 16777215
176
     1
 74
     1
176
     1
 91
        4
176
     1
 64
     7
176
     1
 65
   257
176
     1
 75
     1
176
     1
175
     1
176
     1
 42
1.0
176
     1
 92
       12
176
     1
 66
     7
176
     1
 43
1.0
176
     1
 76
     1
176
     1
 77
     6
176
     1
 78
     2
176
     1
 67
     7
176
     1
 79
     5
176
     1
170
     0
176
     1
171
     0
176
     1
290
     0
176
     1
 93
        1
176
     1
 44
0.0
176
     1
173
     0
176
     1
  0
ENDSEC
  0
EOF
