  0
SECTION
  2
HEADER
  9
$ACADVER
  1
AC1024
  9
$ACADMAINTVER
 70
   226
  9
$DWGCODEPAGE
  3
ANSI_932
  9
$INSBASE
 10
0.0
 20
0.0
 30
0.0
  9
$EXTMIN
 10
1.000000000000000E+20
 20
1.000000000000000E+20
 30
1.000000000000000E+20
  9
$EXTMAX
 10
-1.000000000000000E+20
 20
-1.000000000000000E+20
 30
-1.000000000000000E+20
  9
$LIMMIN
 10
0.0
 20
0.0
  9
$LIMMAX
 10
12.0
 20
9.0
  9
$ORTHOMODE
 70
     0
  9
$REGENMODE
 70
     1
  9
$FILLMODE
 70
     1
  9
$QTEXTMODE
 70
     0
  9
$MIRRTEXT
 70
     0
  9
$LTSCALE
 40
1.0
  9
$ATTMODE
 70
     1
  9
$TEXTSIZE
 40
0.2
  9
$TRACEWID
 40
0.05
  9
$TEXTSTYLE
  7
Standard
  9
$CLAYER
  8
0
  9
$CELTYPE
  6
ByLayer
  9
$CECOLOR
 62
   256
  9
$CELTSCALE
 40
1.0
  9
$DISPSILH
 70
     0
  9
$DIMSCALE
 40
1.0
  9
$DIMASZ
 40
0.18
  9
$DIMEXO
 40
0.0625
  9
$DIMDLI
 40
0.38
  9
$DIMRND
 40
0.0
  9
$DIMDLE
 40
0.0
  9
$DIMEXE
 40
0.18
  9
$DIMTP
 40
0.0
  9
$DIMTM
 40
0.0
  9
$DIMTXT
 40
0.18
  9
$DIMCEN
 40
0.09
  9
$DIMTSZ
 40
0.0
  9
$DIMTOL
 70
     0
  9
$DIMLIM
 70
     0
  9
$DIMTIH
 70
     1
  9
$DIMTOH
 70
     1
  9
$DIMSE1
 70
     0
  9
$DIMSE2
 70
     0
  9
$DIMTAD
 70
     0
  9
$DIMZIN
 70
     0
  9
$DIMBLK
  1

  9
$DIMASO
 70
     1
  9
$DIMSHO
 70
     1
  9
$DIMPOST
  1

  9
$DIMAPOST
  1

  9
$DIMALT
 70
     0
  9
$DIMALTD
 70
     2
  9
$DIMALTF
 40
25.4
  9
$DIMLFAC
 40
1.0
  9
$DIMTOFL
 70
     0
  9
$DIMTVP
 40
0.0
  9
$DIMTIX
 70
     0
  9
$DIMSOXD
 70
     0
  9
$DIMSAH
 70
     0
  9
$DIMBLK1
  1

  9
$DIMBLK2
  1

  9
$DIMSTYLE
  2
Standard
  9
$DIMCLRD
 70
     0
  9
$DIMCLRE
 70
     0
  9
$DIMCLRT
 70
     0
  9
$DIMTFAC
 40
1.0
  9
$DIMGAP
 40
0.09
  9
$DIMJUST
 70
     0
  9
$DIMSD1
 70
     0
  9
$DIMSD2
 70
     0
  9
$DIMTOLJ
 70
     1
  9
$DIMTZIN
 70
     0
  9
$DIMALTZ
 70
     0
  9
$DIMALTTZ
 70
     0
  9
$DIMUPT
 70
     0
  9
$DIMDEC
 70
     4
  9
$DIMTDEC
 70
     4
  9
$DIMALTU
 70
     2
  9
$DIMALTTD
 70
     2
  9
$DIMTXSTY
  7
Standard
  9
$DIMAUNIT
 70
     0
  9
$DIMADEC
 70
     0
  9
$DIMALTRND
 40
0.0
  9
$DIMAZIN
 70
     0
  9
$DIMDSEP
 70
    46
  9
$DIMATFIT
 70
     3
  9
$DIMFRAC
 70
     0
  9
$DIMLDRBLK
  1

  9
$DIMLUNIT
 70
     2
  9
$DIMLWD
 70
    -2
  9
$DIMLWE
 70
    -2
  9
$DIMTMOVE
 70
     0
  9
$DIMFXL
 40
1.0
  9
$DIMFXLON
 70
     0
  9
$DIMJOGANG
 40
0.7853981633974483
  9
$DIMTFILL
 70
     0
  9
$DIMTFILLCLR
 70
     0
  9
$DIMARCSYM
 70
     0
  9
$DIMLTYPE
  6

  9
$DIMLTEX1
  6

  9
$DIMLTEX2
  6

  9
$DIMTXTDIRECTION
 70
     0
  9
$LUNITS
 70
     2
  9
$LUPREC
 70
     4
  9
$SKETCHINC
 40
0.1
  9
$FILLETRAD
 40
0.0
  9
$AUNITS
 70
     0
  9
$AUPREC
 70
     0
  9
$MENU
  1
.
  9
$ELEVATION
 40
0.0
  9
$PELEVATION
 40
0.0
  9
$THICKNESS
 40
0.0
  9
$LIMCHECK
 70
     0
  9
$CHAMFERA
 40
0.0
  9
$CHAMFERB
 40
0.0
  9
$CHAMFERC
 40
0.0
  9
$CHAMFERD
 40
0.0
  9
$SKPOLY
 70
     0
  9
$TDCREATE
 40
2459569.488657407
  9
$TDUCREATE
 40
2459569.113657408
  9
$TDUPDATE
 40
2459569.488657407
  9
$TDUUPDATE
 40
2459569.113657408
  9
$TDINDWG
 40
0.0000000000
  9
$TDUSRTIMER
 40
0.0000000000
  9
$USRTIMER
 70
     1
  9
$ANGBASE
 50
0.0
  9
$ANGDIR
 70
     0
  9
$PDMODE
 70
     0
  9
$PDSIZE
 40
0.0
  9
$PLINEWID
 40
0.0
  9
$SPLFRAME
 70
     0
  9
$SPLINETYPE
 70
     6
  9
$SPLINESEGS
 70
     8
  9
$HANDSEED
  5
174
  9
$SURFTAB1
 70
     6
  9
$SURFTAB2
 70
     6
  9
$SURFTYPE
 70
     6
  9
$SURFU
 70
     6
  9
$SURFV
 70
     6
  9
$UCSBASE
  2

  9
$UCSNAME
  2

  9
$UCSORG
 10
0.0
 20
0.0
 30
0.0
  9
$UCSXDIR
 10
1.0
 20
0.0
 30
0.0
  9
$UCSYDIR
 10
0.0
 20
1.0
 30
0.0
  9
$UCSORTHOREF
  2

  9
$UCSORTHOVIEW
 70
     0
  9
$UCSORGTOP
 10
0.0
 20
0.0
 30
0.0
  9
$UCSORGBOTTOM
 10
0.0
 20
0.0
 30
0.0
  9
$UCSORGLEFT
 10
0.0
 20
0.0
 30
0.0
  9
$UCSORGRIGHT
 10
0.0
 20
0.0
 30
0.0
  9
$UCSORGFRONT
 10
0.0
 20
0.0
 30
0.0
  9
$UCSORGBACK
 10
0.0
 20
0.0
 30
0.0
  9
$PUCSBASE
  2

  9
$PUCSNAME
  2

  9
$PUCSORG
 10
0.0
 20
0.0
 30
0.0
  9
$PUCSXDIR
 10
1.0
 20
0.0
 30
0.0
  9
$PUCSYDIR
 10
0.0
 20
1.0
 30
0.0
  9
$PUCSORTHOREF
  2

  9
$PUCSORTHOVIEW
 70
     0
  9
$PUCSORGTOP
 10
0.0
 20
0.0
 30
0.0
  9
$PUCSORGBOTTOM
 10
0.0
 20
0.0
 30
0.0
  9
$PUCSORGLEFT
 10
0.0
 20
0.0
 30
0.0
  9
$PUCSORGRIGHT
 10
0.0
 20
0.0
 30
0.0
  9
$PUCSORGFRONT
 10
0.0
 20
0.0
 30
0.0
  9
$PUCSORGBACK
 10
0.0
 20
0.0
 30
0.0
  9
$USERI1
 70
     0
  9
$USERI2
 70
     0
  9
$USERI3
 70
     0
  9
$USERI4
 70
     0
  9
$USERI5
 70
     0
  9
$USERR1
 40
0.0
  9
$USERR2
 40
0.0
  9
$USERR3
 40
0.0
  9
$USERR4
 40
0.0
  9
$USERR5
 40
0.0
  9
$WORLDVIEW
 70
     1
  9
$SHADEDGE
 70
     3
  9
$SHADEDIF
 70
    70
  9
$TILEMODE
 70
     1
  9
$MAXACTVP
 70
    64
  9
$PINSBASE
 10
0.0
 20
0.0
 30
0.0
  9
$PLIMCHECK
 70
     0
  9
$PEXTMIN
 10
1.000000000000000E+20
 20
1.000000000000000E+20
 30
1.000000000000000E+20
  9
$PEXTMAX
 10
-1.000000000000000E+20
 20
-1.000000000000000E+20
 30
-1.000000000000000E+20
  9
$PLIMMIN
 10
0.0
 20
0.0
  9
$PLIMMAX
 10
12.0
 20
9.0
  9
$UNITMODE
 70
     0
  9
$VISRETAIN
 70
     1
  9
$PLINEGEN
 70
     0
  9
$PSLTSCALE
 70
     1
  9
$TREEDEPTH
 70
  3020
  9
$CMLSTYLE
  2
Standard
  9
$CMLJUST
 70
     0
  9
$CMLSCALE
 40
1.0
  9
$PROXYGRAPHICS
 70
     1
  9
$MEASUREMENT
 70
     0
  9
$CELWEIGHT
370
    -1
  9
$ENDCAPS
280
     0
  9
$JOINSTYLE
280
     0
  9
$LWDISPLAY
290
     1
  9
$INSUNITS
 70
     4
  9
$HYPERLINKBASE
  1

  9
$STYLESHEET
  1

  9
$XEDIT
290
     1
  9
$CEPSNTYPE
380
     0
  9
$PSTYLEMODE
290
     1
  9
$FINGERPRINTGUID
  2
{93BBDECF-CADC-4E49-A258-D6E85785819A}
  9
$VERSIONGUID
  2
{D385FA54-969E-F440-91A7-A63333167529}
  9
$EXTNAMES
290
     1
  9
$PSVPSCALE
 40
0.0
  9
$OLESTARTUP
290
     0
  9
$SORTENTS
280
   127
  9
$INDEXCTL
280
     0
  9
$HIDETEXT
280
     1
  9
$XCLIPFRAME
280
     2
  9
$HALOGAP
280
     0
  9
$OBSCOLOR
 70
   257
  9
$OBSLTYPE
280
     0
  9
$INTERSECTIONDISPLAY
280
     0
  9
$INTERSECTIONCOLOR
 70
   257
  9
$DIMASSOC
280
     2
  9
$PROJECTNAME
  1

  9
$CAMERADISPLAY
290
     0
  9
$LENSLENGTH
 40
50.0
  9
$CAMERAHEIGHT
 40
0.0
  9
$STEPSPERSEC
 40
2.0
  9
$STEPSIZE
 40
6.0
  9
$3DDWFPREC
 40
2.0
  9
$PSOLWIDTH
 40
0.25
  9
$PSOLHEIGHT
 40
4.0
  9
$LOFTANG1
 40
1.570796326794896
  9
$LOFTANG2
 40
1.570796326794896
  9
$LOFTMAG1
 40
0.0
  9
$LOFTMAG2
 40
0.0
  9
$LOFTPARAM
 70
     7
  9
$LOFTNORMALS
280
     1
  9
$LATITUDE
 40
37.795
  9
$LONGITUDE
 40
-122.394
  9
$NORTHDIRECTION
 40
0.0
  9
$TIMEZONE
 70
 -8000
  9
$LIGHTGLYPHDISPLAY
280
     1
  9
$TILEMODELIGHTSYNCH
280
     1
  9
$CMATERIAL
347
11
  9
$SOLIDHIST
280
     0
  9
$SHOWHIST
280
     1
  9
$DWFFRAME
280
     2
  9
$DGNFRAME
280
     0
  9
$REALWORLDSCALE
290
     1
  9
$INTERFERECOLOR
 62
     1
  9
$INTERFEREOBJVS
345
33
  9
$INTERFEREVPVS
346
30
  9
$CSHADOW
280
     0
  9
$SHADOWPLANELOCATION
 40
0.0
  0
ENDSEC
  0
SECTION
  2
CLASSES
  0
CLASS
  1
ACDBDICTIONARYWDFLT
  2
AcDbDictionaryWithDefault
  3
ObjectDBX Classes
 90
        0
 91
        1
280
     0
281
     0
  0
CLASS
  1
MATERIAL
  2
AcDbMaterial
  3
ObjectDBX Classes
 90
     1153
 91
        3
280
     0
281
     0
  0
CLASS
  1
VISUALSTYLE
  2
AcDbVisualStyle
  3
ObjectDBX Classes
 90
     4095
 91
       24
280
     0
281
     0
  0
CLASS
  1
SCALE
  2
AcDbScale
  3
ObjectDBX Classes
 90
     1153
 91
       17
280
     0
281
     0
  0
CLASS
  1
TABLESTYLE
  2
AcDbTableStyle
  3
ObjectDBX Classes
 90
     4095
 91
        1
280
     0
281
     0
  0
CLASS
  1
MLEADERSTYLE
  2
AcDbMLeaderStyle
  3
ACDB_MLEADERSTYLE_CLASS
 90
     4095
 91
        1
280
     0
281
     0
  0
CLASS
  1
ACDBSECTIONVIEWSTYLE
  2
AcDbSectionViewStyle
  3
ObjectDBX Classes
 90
     1025
 91
        1
280
     0
281
     0
  0
CLASS
  1
ACDBDETAILVIEWSTYLE
  2
AcDbDetailViewStyle
  3
ObjectDBX Classes
 90
     1025
 91
        1
280
     0
281
     0
  0
CLASS
  1
DICTIONARYVAR
  2
AcDbDictionaryVar
  3
ObjectDBX Classes
 90
        0
 91
        5
280
     0
281
     0
  0
CLASS
  1
CELLSTYLEMAP
  2
AcDbCellStyleMap
  3
ObjectDBX Classes
 90
     1152
 91
        1
280
     0
281
     0
  0
ENDSEC
  0
SECTION
  2
TABLES
  0
TABLE
  2
VPORT
  5
8
330
0
100
AcDbSymbolTable
 70
     1
  0
VPORT
  5
57
330
8
100
AcDbSymbolTableRecord
100
AcDbViewportTableRecord
  2
*Active
 70
     0
 10
0.0
 20
0.0
 11
1.0
 21
1.0
 12
0.0
 22
0.0
 13
0.0
 23
0.0
 14
1.0
 24
1.0
 15
0.0
 25
0.0
 16
0.0
 26
0.0
 36
1.0
 17
104.9999999737534
 27
-148.4999999628701
 37
0.0
 40
302.939999924255
 41
0.7070707070707534
 42
50.0
 43
0.0
 44
0.0
 50
0.0
 51
0.0
 71
     0
 72
   100
 73
     1
 74
     0
 75
     1
 76
     0
 77
     0
 78
     0
281
     0
 65
     1
110
0.0
120
0.0
130
0.0
111
1.0
121
0.0
131
0.0
112
0.0
122
1.0
132
0.0
 79
     0
146
0.0
 60
     3
 61
     5
292
     1
282
     1
141
0.0
142
0.0
 63
   250
421
  3355443
  0
ENDTAB
  0
TABLE
  2
LTYPE
  5
5
330
0
100
AcDbSymbolTable
 70
     3
  0
LTYPE
  5
5B
330
5
100
AcDbSymbolTableRecord
100
AcDbLinetypeTableRecord
  2
ByBlock
 70
     0
  3

 72
    65
 73
     0
 40
0.0
  0
LTYPE
  5
5C
330
5
100
AcDbSymbolTableRecord
100
AcDbLinetypeTableRecord
  2
ByLayer
 70
     0
  3

 72
    65
 73
     0
 40
0.0
  0
LTYPE
  5
5D
330
5
100
AcDbSymbolTableRecord
100
AcDbLinetypeTableRecord
  2
Continuous
 70
     0
  3
Solid line
 72
    65
 73
     0
 40
0.0
  0
LTYPE
  5
EC
330
5
100
AcDbSymbolTableRecord
100
AcDbLinetypeTableRecord
  2
AI-Linetype-0
 70
     0
  3
Adobe Illustrator Linetype No. 0
 72
    65
 73
     2
 40
1.411111110758333
 49
0.7055555553791667
 74
     0
 49
-0.7055555553791667
 74
     0
  0
LTYPE
  5
EE
330
5
100
AcDbSymbolTableRecord
100
AcDbLinetypeTableRecord
  2
AI-Linetype-1
 70
     0
  3
Adobe Illustrator Linetype No. 1
 72
    65
 73
     2
 40
1.411111110758333
 49
0.7055555553791667
 74
     0
 49
-0.7055555553791667
 74
     0
  0
ENDTAB
  0
TABLE
  2
LAYER
  5
2
330
0
100
AcDbSymbolTable
 70
     2
  0
LAYER
  5
54
330
2
100
AcDbSymbolTableRecord
100
AcDbLayerTableRecord
  2
0
 70
     0
 62
     7
  6
Continuous
370
    -3
390
F
347
21
  0
LAYER
  5
78
330
2
100
AcDbSymbolTableRecord
100
AcDbLayerTableRecord
  2
レイヤー 1
 70
     0
 62
     7
  6
Continuous
370
     0
390
F
347
21
  0
ENDTAB
  0
TABLE
  2
STYLE
  5
3
330
0
100
AcDbSymbolTable
 70
     2
  0
STYLE
  5
55
330
3
100
AcDbSymbolTableRecord
100
AcDbTextStyleTableRecord
  2
Standard
 70
     0
 40
0.0
 41
1.0
 50
0.0
 71
     0
 42
0.2
  3
txt
  4

  0
STYLE
  5
5A
330
3
100
AcDbSymbolTableRecord
100
AcDbTextStyleTableRecord
  2
Annotative
 70
     0
 40
0.0
 41
1.0
 50
0.0
 71
     0
 42
0.2
  3
txt
  4

1001
AcadAnnotative
1000
AnnotativeData
1002
{
1070
     1
1070
     1
1002
}
  0
ENDTAB
  0
TABLE
  2
VIEW
  5
6
330
0
100
AcDbSymbolTable
 70
     0
  0
ENDTAB
  0
TABLE
  2
UCS
  5
7
330
0
100
AcDbSymbolTable
 70
     0
  0
ENDTAB
  0
TABLE
  2
APPID
  5
9
330
0
100
AcDbSymbolTable
 70
     2
  0
APPID
  5
56
330
9
100
AcDbSymbolTableRecord
100
AcDbRegAppTableRecord
  2
ACAD
 70
     0
  0
APPID
  5
5E
330
9
100
AcDbSymbolTableRecord
100
AcDbRegAppTableRecord
  2
AcadAnnotative
 70
     0
  0
ENDTAB
  0
TABLE
  2
DIMSTYLE
  5
A
330
0
100
AcDbSymbolTable
 70
     2
100
AcDbDimStyleTable
 71
     0
  0
DIMSTYLE
105
58
330
A
100
AcDbSymbolTableRecord
100
AcDbDimStyleTableRecord
  2
Standard
 70
     0
340
55
  0
DIMSTYLE
105
59
330
A
100
AcDbSymbolTableRecord
100
AcDbDimStyleTableRecord
  2
Annotative
 70
     0
340
55
1001
AcadAnnotative
1000
AnnotativeData
1002
{
1070
     1
1070
     1
1002
}
  0
ENDTAB
  0
TABLE
  2
BLOCK_RECORD
  5
1
330
0
100
AcDbSymbolTable
 70
    17
  0
BLOCK_RECORD
  5
70
330
1
100
AcDbSymbolTableRecord
100
AcDbBlockTableRecord
  2
*Model_Space
340
73
 70
     0
280
     1
281
     0
  0
BLOCK_RECORD
  5
6C
330
1
100
AcDbSymbolTableRecord
100
AcDbBlockTableRecord
  2
*Paper_Space
340
6F
 70
     0
280
     1
281
     0
  0
BLOCK_RECORD
  5
74
330
1
100
AcDbSymbolTableRecord
100
AcDbBlockTableRecord
  2
*Paper_Space0
340
77
 70
     0
280
     1
281
     0
  0
BLOCK_RECORD
  5
79
330
1
100
AcDbSymbolTableRecord
100
AcDbBlockTableRecord
  2
Block_0
340
0
102
{BLKREFS
331
7A
102
}
 70
     0
280
     1
281
     0
  0
BLOCK_RECORD
  5
91
330
1
100
AcDbSymbolTableRecord
100
AcDbBlockTableRecord
  2
Block_1
340
0
102
{BLKREFS
331
92
102
}
 70
     0
280
     1
281
     0
  0
BLOCK_RECORD
  5
95
330
1
100
AcDbSymbolTableRecord
100
AcDbBlockTableRecord
  2
Block_2
340
0
102
{BLKREFS
331
96
102
}
 70
     0
280
     1
281
     0
  0
BLOCK_RECORD
  5
A5
330
1
100
AcDbSymbolTableRecord
100
AcDbBlockTableRecord
  2
Block_3
340
0
102
{BLKREFS
331
A6
102
}
 70
     0
280
     1
281
     0
  0
BLOCK_RECORD
  5
A9
330
1
100
AcDbSymbolTableRecord
100
AcDbBlockTableRecord
  2
Block_4
340
0
102
{BLKREFS
331
AA
102
}
 70
     0
280
     1
281
     0
  0
BLOCK_RECORD
  5
B9
330
1
100
AcDbSymbolTableRecord
100
AcDbBlockTableRecord
  2
Block_5
340
0
102
{BLKREFS
331
BA
102
}
 70
     0
280
     1
281
     0
  0
BLOCK_RECORD
  5
BD
330
1
100
AcDbSymbolTableRecord
100
AcDbBlockTableRecord
  2
Block_6
340
0
102
{BLKREFS
331
BE
102
}
 70
     0
280
     1
281
     0
  0
BLOCK_RECORD
  5
CC
330
1
100
AcDbSymbolTableRecord
100
AcDbBlockTableRecord
  2
Block_7
340
0
102
{BLKREFS
331
CD
102
}
 70
     0
280
     1
281
     0
  0
BLOCK_RECORD
  5
D0
330
1
100
AcDbSymbolTableRecord
100
AcDbBlockTableRecord
  2
Block_8
340
0
102
{BLKREFS
331
D1
102
}
 70
     0
280
     1
281
     0
  0
BLOCK_RECORD
  5
DD
330
1
100
AcDbSymbolTableRecord
100
AcDbBlockTableRecord
  2
Block_9
340
0
102
{BLKREFS
331
DE
102
}
 70
     0
280
     1
281
     0
  0
BLOCK_RECORD
  5
E1
330
1
100
AcDbSymbolTableRecord
100
AcDbBlockTableRecord
  2
Block_10
340
0
102
{BLKREFS
331
E2
102
}
 70
     0
280
     1
281
     0
  0
BLOCK_RECORD
  5
F5
330
1
100
AcDbSymbolTableRecord
100
AcDbBlockTableRecord
  2
Block_11
340
0
102
{BLKREFS
331
F6
102
}
 70
     0
280
     1
281
     0
  0
BLOCK_RECORD
  5
F9
330
1
100
AcDbSymbolTableRecord
100
AcDbBlockTableRecord
  2
Block_12
340
0
102
{BLKREFS
331
FA
102
}
 70
     0
280
     1
281
     0
  0
BLOCK_RECORD
  5
10F
330
1
100
AcDbSymbolTableRecord
100
AcDbBlockTableRecord
  2
Block_13
340
0
102
{BLKREFS
331
110
102
}
 70
     0
280
     1
281
     0
  0
BLOCK_RECORD
  5
113
330
1
100
AcDbSymbolTableRecord
100
AcDbBlockTableRecord
  2
Block_14
340
0
102
{BLKREFS
331
114
102
}
 70
     0
280
     1
281
     0
  0
BLOCK_RECORD
  5
117
330
1
100
AcDbSymbolTableRecord
100
AcDbBlockTableRecord
  2
Block_15
340
0
102
{BLKREFS
331
118
102
}
 70
     0
280
     1
281
     0
  0
ENDTAB
  0
ENDSEC
  0
SECTION
  2
BLOCKS
  0
BLOCK
  5
71
330
70
100
AcDbEntity
  8
0
100
AcDbBlockBegin
  2
*Model_Space
 70
     0
 10
0.0
 20
0.0
 30
0.0
  3
*Model_Space
  1

  0
ENDBLK
  5
72
330
70
100
AcDbEntity
  8
0
100
AcDbBlockEnd
  0
BLOCK
  5
6D
330
6C
100
AcDbEntity
 67
     1
  8
0
100
AcDbBlockBegin
  2
*Paper_Space
 70
     0
 10
0.0
 20
0.0
 30
0.0
  3
*Paper_Space
  1

  0
ENDBLK
  5
6E
330
6C
100
AcDbEntity
 67
     1
  8
0
100
AcDbBlockEnd
  0
BLOCK
  5
75
330
74
100
AcDbEntity
 67
     1
  8
0
100
AcDbBlockBegin
  2
*Paper_Space0
 70
     0
 10
0.0
 20
0.0
 30
0.0
  3
*Paper_Space0
  1

  0
ENDBLK
  5
76
330
74
100
AcDbEntity
 67
     1
  8
0
100
AcDbBlockEnd
  0
BLOCK
  5
7B
330
79
100
AcDbEntity
  8
0
100
AcDbBlockBegin
  2
Block_0
 70
     0
 10
0.0
 20
0.0
 30
0.0
  3
Block_0
  1

  0
LINE
  5
7D
330
79
100
AcDbEntity
  8
レイヤー 1
 62
   250
420
  2299925
370
    25
100
AcDbLine
 10
103.8657883796104
 20
-162.3542323832288
 30
0.0
 11
121.8660976426068
 21
-162.3542323832288
 31
0.0
  0
LINE
  5
7E
330
79
100
AcDbEntity
  8
レイヤー 1
 62
   250
420
  2299925
370
    25
100
AcDbLine
 10
121.8660976426068
 20
-162.3542323832288
 30
0.0
 11
121.8660976426068
 21
-162.7538590497954
 31
0.0
  0
LINE
  5
7F
330
79
100
AcDbEntity
  8
レイヤー 1
 62
   250
420
  2299925
370
    25
100
AcDbLine
 10
94.86582777588525
 20
-135.3536443344232
 30
0.0
 11
94.4662011194139
 21
-135.3536443344232
 31
0.0
  0
LINE
  5
80
330
79
100
AcDbEntity
  8
レイヤー 1
 62
   250
420
  2299925
370
    25
100
AcDbLine
 10
94.86582777588525
 20
-153.3535659965903
 30
0.0
 11
94.86582777588525
 21
-135.3536443344232
 31
0.0
  0
LINE
  5
81
330
79
100
AcDbEntity
  8
レイヤー 1
 62
   250
420
  2299925
370
     9
100
AcDbLine
 10
96.29485996164982
 20
-161.2910659946059
 30
0.0
 11
96.79509883777654
 21
-160.4249965503774
 31
0.0
  0
LINE
  5
82
330
79
100
AcDbEntity
  8
レイヤー 1
 62
   250
420
  2299925
370
     9
100
AcDbLine
 10
95.92899413765051
 20
-160.9252001613635
 30
0.0
 11
96.79509883777654
 21
-160.4249965503774
 31
0.0
  0
LINE
  5
83
330
79
100
AcDbEntity
  8
レイヤー 1
 62
   250
420
  2299925
370
     9
100
AcDbLine
 10
89.86597901455313
 20
-167.3537637708682
 30
0.0
 11
96.79509883777654
 21
-160.4249965503774
 31
0.0
  0
LINE
  5
84
330
79
100
AcDbEntity
  8
レイヤー 1
 62
   250
420
  2299925
370
     9
100
AcDbLine
 10
84.70004437605643
 20
-167.3537637708682
 30
0.0
 11
89.86597901455313
 21
-167.3537637708682
 31
0.0
  0
LINE
  5
85
330
79
100
AcDbEntity
  8
レイヤー 1
 62
   250
420
  2299925
370
    25
100
AcDbLine
 10
121.8660976426068
 20
-162.7538590497954
 30
0.0
 11
104.2022325376937
 21
-163.3485012718692
 31
0.0
  0
LINE
  5
86
330
79
100
AcDbEntity
  8
レイヤー 1
 62
   250
420
  2299925
370
    25
100
AcDbLine
 10
94.4662011194139
 20
-135.3536443344232
 30
0.0
 11
93.87159419013915
 21
-153.0173334966748
 31
0.0
  0
SPLINE
  5
87
330
79
100
AcDbEntity
  8
レイヤー 1
 62
   250
420
  2299925
370
     9
100
AcDbSpline
210
0.0
220
0.0
230
1.0
 70
     9
 71
     3
 72
    17
 73
    13
 74
     0
 42
0.0000000001
 43
0.0000000001
 40
0.0
 40
0.0
 40
0.0
 40
0.0
 40
1.0
 40
1.0
 40
1.0
 40
2.0
 40
2.0
 40
2.0
 40
3.0
 40
3.0
 40
3.0
 40
4.0
 40
4.0
 40
4.0
 40
4.0
 10
125.9664336491097
 20
-162.3542323832288
 30
0.0
 10
125.9664336491097
 20
-162.298422938799
 30
0.0
 10
125.9216308724749
 20
-162.2536201610323
 30
0.0
 10
125.8665269849918
 20
-162.2536201610323
 30
0.0
 10
125.8113878197319
 20
-162.2536201610323
 30
0.0
 10
125.766620320874
 20
-162.298422938799
 30
0.0
 10
125.766620320874
 20
-162.3542323832288
 30
0.0
 10
125.766620320874
 20
-162.4093715498813
 30
0.0
 10
125.8113878197319
 20
-162.4541390498711
 30
0.0
 10
125.8665269849918
 20
-162.4541390498711
 30
0.0
 10
125.9216308724749
 20
-162.4541390498711
 30
0.0
 10
125.9664336491097
 20
-162.4093715498813
 30
0.0
 10
125.9664336491097
 20
-162.3542323832288
 30
0.0
  0
CIRCLE
  5
88
330
79
100
AcDbEntity
  8
レイヤー 1
 62
   250
420
  2299925
370
     9
100
AcDbCircle
 10
125.8665269849918
 20
-162.7538590497957
 30
0.0
 40
0.0999066653795761
  0
CIRCLE
  5
89
330
79
100
AcDbEntity
  8
レイヤー 1
 62
   250
420
  2299925
370
     9
100
AcDbCircle
 10
121.8660976426068
 20
-167.3537637708679
 30
0.0
 40
0.0999066653798969
  0
CIRCLE
  5
8A
330
79
100
AcDbEntity
  8
レイヤー 1
 62
   250
420
  2299925
370
     9
100
AcDbCircle
 10
93.86605557916926
 20
-167.3537637708679
 30
0.0
 40
0.0999066653798568
  0
SPLINE
  5
8B
330
79
100
AcDbEntity
  8
レイヤー 1
 62
   250
420
  2299925
370
     9
100
AcDbSpline
210
0.0
220
0.0
230
1.0
 70
     9
 71
     3
 72
    17
 73
    13
 74
     0
 42
0.0000000001
 43
0.0000000001
 40
0.0
 40
0.0
 40
0.0
 40
0.0
 40
1.0
 40
1.0
 40
1.0
 40
2.0
 40
2.0
 40
2.0
 40
3.0
 40
3.0
 40
3.0
 40
4.0
 40
4.0
 40
4.0
 40
4.0
 10
94.56610778353207
 20
-131.353885168757
 30
0.0
 10
94.56610778353207
 20
-131.2987812798814
 30
0.0
 10
94.52134028467385
 20
-131.2539785021151
 30
0.0
 10
94.4662011194139
 20
-131.2539785021151
 30
0.0
 10
94.41074445416205
 20
-131.2539785021151
 30
0.0
 10
94.3659416775273
 20
-131.2987812798814
 30
0.0
 10
94.3659416775273
 20
-131.353885168757
 30
0.0
 10
94.3659416775273
 20
-131.4090243354094
 30
0.0
 10
94.41074445416205
 20
-131.4537918353986
 30
0.0
 10
94.4662011194139
 20
-131.4537918353986
 30
0.0
 10
94.52134028467385
 20
-131.4537918353986
 30
0.0
 10
94.56610778353207
 20
-131.4090243354094
 30
0.0
 10
94.56610778353207
 20
-131.353885168757
 30
0.0
  0
CIRCLE
  5
8C
330
79
100
AcDbEntity
  8
レイヤー 1
 62
   250
420
  2299925
370
     9
100
AcDbCircle
 10
94.86582777588525
 20
-131.3538851687569
 30
0.0
 40
0.0999066653798568
  0
SPLINE
  5
8D
330
79
100
AcDbEntity
  8
レイヤー 1
 62
   250
420
  2299925
370
     9
100
AcDbSpline
210
0.0
220
0.0
230
1.0
 70
     9
 71
     3
 72
    17
 73
    13
 74
     0
 42
0.0000000001
 43
0.0000000001
 40
0.0
 40
0.0
 40
0.0
 40
0.0
 40
1.0
 40
1.0
 40
1.0
 40
2.0
 40
2.0
 40
2.0
 40
3.0
 40
3.0
 40
3.0
 40
4.0
 40
4.0
 40
4.0
 40
4.0
 10
89.96588567867098
 20
-135.3536443344232
 30
0.0
 10
89.96588567867098
 20
-135.2985051677708
 30
0.0
 10
89.92143567980498
 20
-135.2537376677816
 30
0.0
 10
89.86597901455313
 20
-135.2537376677816
 30
0.0
 10
89.8104870715244
 20
-135.2537376677816
 30
0.0
 10
89.76571957266651
 20
-135.2985051677708
 30
0.0
 10
89.76571957266651
 20
-135.3536443344232
 30
0.0
 10
89.76571957266651
 20
-135.4087482232988
 30
0.0
 10
89.8104870715244
 20
-135.4535510010649
 30
0.0
 10
89.86597901455313
 20
-135.4535510010649
 30
0.0
 10
89.92143567980498
 20
-135.4535510010649
 30
0.0
 10
89.96588567867098
 20
-135.4087482232988
 30
0.0
 10
89.96588567867098
 20
-135.3536443344232
 30
0.0
  0
SPLINE
  5
8E
330
79
100
AcDbEntity
  8
レイヤー 1
 62
   250
420
  2299925
370
     9
100
AcDbSpline
210
0.0
220
0.0
230
1.0
 70
     9
 71
     3
 72
    17
 73
    13
 74
     0
 42
0.0000000001
 43
0.0000000001
 40
0.0
 40
0.0
 40
0.0
 40
0.0
 40
1.0
 40
1.0
 40
1.0
 40
2.0
 40
2.0
 40
2.0
 40
3.0
 40
3.0
 40
3.0
 40
4.0
 40
4.0
 40
4.0
 40
4.0
 10
89.96588567867098
 20
-163.3540046052007
 30
0.0
 10
89.96588567867098
 20
-163.2988654385483
 30
0.0
 10
89.92143567980498
 20
-163.2540979385597
 30
0.0
 10
89.86597901455313
 20
-163.2540979385597
 30
0.0
 10
89.8104870715244
 20
-163.2540979385597
 30
0.0
 10
89.76571957266651
 20
-163.2988654385483
 30
0.0
 10
89.76571957266651
 20
-163.3540046052007
 30
0.0
 10
89.76571957266651
 20
-163.4091084940763
 30
0.0
 10
89.8104870715244
 20
-163.453911271843
 30
0.0
 10
89.86597901455313
 20
-163.453911271843
 30
0.0
 10
89.92143567980498
 20
-163.453911271843
 30
0.0
 10
89.96588567867098
 20
-163.4091084940763
 30
0.0
 10
89.96588567867098
 20
-163.3540046052007
 30
0.0
  0
SPLINE
  5
8F
330
79
100
AcDbEntity
  8
レイヤー 1
 62
   250
420
  2299925
370
    25
100
AcDbSpline
210
0.0
220
0.0
230
1.0
 70
     8
 71
     3
 72
    11
 73
     7
 74
     0
 42
0.0000000001
 43
0.0000000001
 40
0.0
 40
0.0
 40
0.0
 40
0.0
 40
1.0
 40
1.0
 40
1.0
 40
2.0
 40
2.0
 40
2.0
 40
2.0
 10
93.87159419013915
 20
-153.0173334966748
 30
0.0
 10
93.68589197265459
 20
-158.5370709952944
 30
0.0
 10
98.0098185290087
 20
-163.162446271916
 30
0.0
 10
103.5295582602379
 20
-163.3485012718692
 30
0.0
 10
103.7534992158085
 20
-163.3553804385336
 30
0.0
 10
103.9781128211892
 20
-163.3553804385336
 30
0.0
 10
104.2022325376937
 20
-163.3485012718692
 30
0.0
  0
SPLINE
  5
90
330
79
100
AcDbEntity
  8
レイヤー 1
 62
   250
420
  2299925
370
    25
100
AcDbSpline
210
0.0
220
0.0
230
1.0
 70
     8
 71
     3
 72
     8
 73
     4
 74
     0
 42
0.0000000001
 43
0.0000000001
 40
0.0
 40
0.0
 40
0.0
 40
0.0
 40
1.0
 40
1.0
 40
1.0
 40
1.0
 10
94.86582777588525
 20
-153.3535659965903
 30
0.0
 10
94.86582777588525
 20
-158.3241696064584
 30
0.0
 10
98.89522017308689
 20
-162.3542323832288
 30
0.0
 10
103.8657883796104
 20
-162.3542323832288
 30
0.0
  0
INSERT
  5
92
330
79
100
AcDbEntity
  8
レイヤー 1
100
AcDbBlockReference
  2
Block_1
 10
0.0
 20
0.0
 30
0.0
  0
LINE
  5
A1
330
79
100
AcDbEntity
  8
レイヤー 1
 62
   250
420
  2299925
370
     9
100
AcDbLine
 10
125.8665269849918
 20
-162.3542323832288
 30
0.0
 11
125.8665269849918
 21
-157.0963265512105
 31
0.0
  0
LINE
  5
A2
330
79
100
AcDbEntity
  8
レイヤー 1
 62
   250
420
  2299925
370
     9
100
AcDbLine
 10
125.8665269849918
 20
-162.3542323832288
 30
0.0
 11
125.8665269849918
 21
-163.7536312717685
 31
0.0
  0
LINE
  5
A3
330
79
100
AcDbEntity
  8
レイヤー 1
 62
   250
420
  2299925
370
     9
100
AcDbLine
 10
124.4064856333517
 20
-162.3542323832288
 30
0.0
 11
126.8662991817077
 21
-162.3542323832288
 31
0.0
  0
LINE
  5
A4
330
79
100
AcDbEntity
  8
レイヤー 1
 62
   250
420
  2299925
370
     9
100
AcDbLine
 10
124.4064856333517
 20
-162.7538590497954
 30
0.0
 11
126.8662991817077
 21
-162.7538590497954
 31
0.0
  0
INSERT
  5
A6
330
79
100
AcDbEntity
  8
レイヤー 1
100
AcDbBlockReference
  2
Block_3
 10
0.0
 20
0.0
 30
0.0
  0
LINE
  5
B5
330
79
100
AcDbEntity
  8
レイヤー 1
 62
   250
420
  2299925
370
     9
100
AcDbLine
 10
94.86582777588525
 20
-131.353885168757
 30
0.0
 11
101.1235056717941
 21
-131.353885168757
 31
0.0
  0
LINE
  5
B6
330
79
100
AcDbEntity
  8
レイヤー 1
 62
   250
420
  2299925
370
     9
100
AcDbLine
 10
94.86582777588525
 20
-131.353885168757
 30
0.0
 11
93.46575864493733
 21
-131.353885168757
 31
0.0
  0
LINE
  5
B7
330
79
100
AcDbEntity
  8
レイヤー 1
 62
   250
420
  2299925
370
     9
100
AcDbLine
 10
94.86582777588525
 20
-132.8139265572807
 30
0.0
 11
94.86582777588525
 21
-130.3534426690071
 31
0.0
  0
LINE
  5
B8
330
79
100
AcDbEntity
  8
レイヤー 1
 62
   250
420
  2299925
370
     9
100
AcDbLine
 10
94.4662011194139
 20
-132.8139265572807
 30
0.0
 11
94.4662011194139
 21
-130.3534426690071
 31
0.0
  0
INSERT
  5
BA
330
79
100
AcDbEntity
  8
レイヤー 1
100
AcDbBlockReference
  2
Block_5
 10
0.0
 20
0.0
 30
0.0
  0
LINE
  5
C9
330
79
100
AcDbEntity
  8
レイヤー 1
 62
   250
420
  2299925
370
     9
100
AcDbLine
 10
121.8660976426068
 20
-167.3537637708682
 30
0.0
 11
93.86605557916935
 21
-167.3537637708682
 31
0.0
  0
LINE
  5
CA
330
79
100
AcDbEntity
  8
レイヤー 1
 62
   250
420
  2299925
370
     9
100
AcDbLine
 10
121.8660976426068
 20
-165.2935768269379
 30
0.0
 11
121.8660976426068
 21
-168.3535359928401
 31
0.0
  0
LINE
  5
CB
330
79
100
AcDbEntity
  8
レイヤー 1
 62
   250
420
  2299925
370
     9
100
AcDbLine
 10
93.86605557916935
 20
-155.8939893292883
 30
0.0
 11
93.86605557916935
 21
-168.3535359928401
 31
0.0
  0
INSERT
  5
CD
330
79
100
AcDbEntity
  8
レイヤー 1
100
AcDbBlockReference
  2
Block_7
 10
0.0
 20
0.0
 30
0.0
  0
LINE
  5
DA
330
79
100
AcDbEntity
  8
レイヤー 1
 62
   250
420
  2299925
370
     9
100
AcDbLine
 10
89.86597901455313
 20
-135.3536443344232
 30
0.0
 11
89.86597901455313
 21
-163.3540046052007
 31
0.0
  0
LINE
  5
DB
330
79
100
AcDbEntity
  8
レイヤー 1
 62
   250
420
  2299925
370
     9
100
AcDbLine
 10
91.92577785089218
 20
-135.3536443344232
 30
0.0
 11
88.86585404006844
 21
-135.3536443344232
 31
0.0
  0
LINE
  5
DC
330
79
100
AcDbEntity
  8
レイヤー 1
 62
   250
420
  2299925
370
     9
100
AcDbLine
 10
101.3260706666263
 20
-163.3540046052007
 30
0.0
 11
88.86585404006844
 21
-163.3540046052007
 31
0.0
  0
INSERT
  5
DE
330
79
100
AcDbEntity
  8
レイヤー 1
100
AcDbBlockReference
  2
Block_9
 10
0.0
 20
0.0
 30
0.0
  0
ENDBLK
  5
7C
330
79
100
AcDbEntity
  8
0
100
AcDbBlockEnd
  0
BLOCK
  5
93
330
91
100
AcDbEntity
  8
0
100
AcDbBlockBegin
  2
Block_1
 70
     0
 10
0.0
 20
0.0
 30
0.0
  3
Block_1
  1

  0
INSERT
  5
96
330
91
100
AcDbEntity
  8
レイヤー 1
100
AcDbBlockReference
  2
Block_2
 10
0.0
 20
0.0
 30
0.0
  0
ENDBLK
  5
94
330
91
100
AcDbEntity
  8
0
100
AcDbBlockEnd
  0
BLOCK
  5
97
330
95
100
AcDbEntity
  8
0
100
AcDbBlockBegin
  2
Block_2
 70
     0
 10
0.0
 20
0.0
 30
0.0
  3
Block_2
  1

  0
SPLINE
  5
99
330
95
100
AcDbEntity
  8
レイヤー 1
100
AcDbSpline
210
0.0
220
0.0
230
1.0
 70
    11
 71
     3
 72
    26
 73
    22
 74
     0
 42
0.0000000001
 43
0.0000000001
 40
0.0
 40
0.0
 40
0.0
 40
0.0
 40
1.0
 40
1.0
 40
1.0
 40
2.0
 40
2.0
 40
2.0
 40
3.0
 40
3.0
 40
3.0
 40
4.0
 40
4.0
 40
4.0
 40
5.0
 40
5.0
 40
5.0
 40
6.0
 40
6.0
 40
6.0
 40
7.0
 40
7.0
 40
7.0
 40
7.0
 10
83.90788436487373
 20
-166.6406466597287
 30
0.0
 10
83.90788436487373
 20
-166.6406466597287
 30
0.0
 10
83.90788436487373
 20
-165.5364935567061
 30
0.0
 10
83.90788436487373
 20
-165.5364935567061
 30
0.0
 10
83.90788436487373
 20
-165.5364935567061
 30
0.0
 10
83.5778442173868
 20
-165.5364935567061
 30
0.0
 10
83.5778442173868
 20
-165.5364935567061
 30
0.0
 10
83.5778442173868
 20
-165.5364935567061
 30
0.0
 10
83.5778442173868
 20
-165.3883544508404
 30
0.0
 10
83.5778442173868
 20
-165.3883544508404
 30
0.0
 10
83.90995142216487
 20
-165.3735405402538
 30
0.0
 10
83.95646021121576
 20
-165.2105875238015
 30
0.0
 10
83.98608803238889
 20
-165.0962103536912
 30
0.0
 10
83.98608803238889
 20
-165.0962103536912
 30
0.0
 10
84.13216008096348
 20
-165.0962103536912
 30
0.0
 10
84.13216008096348
 20
-165.0962103536912
 30
0.0
 10
84.13216008096348
 20
-165.0962103536912
 30
0.0
 10
84.13216008096348
 20
-166.6406466597287
 30
0.0
 10
84.13216008096348
 20
-166.6406466597287
 30
0.0
 10
84.13216008096348
 20
-166.6406466597287
 30
0.0
 10
83.90788436487373
 20
-166.6406466597287
 30
0.0
 10
83.90788436487373
 20
-166.6406466597287
 30
0.0
  0
HATCH
  5
9A
330
95
100
AcDbEntity
  8
レイヤー 1
 62
   250
420
  2299925
440
 33554687
100
AcDbHatch
 10
0.0
 20
0.0
 30
0.0
210
0.0
220
0.0
230
1.0
  2
SOLID
 70
     1
 71
     1
 91
        1
 92
        1
 93
        1
 72
     4
 94
        3
 73
     0
 74
     0
 95
       26
 96
       22
 40
0.0
 40
0.0
 40
0.0
 40
0.0
 40
1.0
 40
1.0
 40
1.0
 40
2.0
 40
2.0
 40
2.0
 40
3.0
 40
3.0
 40
3.0
 40
4.0
 40
4.0
 40
4.0
 40
5.0
 40
5.0
 40
5.0
 40
6.0
 40
6.0
 40
6.0
 40
7.0
 40
7.0
 40
7.0
 40
7.0
 10
83.90788436487373
 20
-166.6406466597287
 10
83.90788436487373
 20
-166.6406466597287
 10
83.90788436487373
 20
-165.5364935567061
 10
83.90788436487373
 20
-165.5364935567061
 10
83.90788436487373
 20
-165.5364935567061
 10
83.5778442173868
 20
-165.5364935567061
 10
83.5778442173868
 20
-165.5364935567061
 10
83.5778442173868
 20
-165.5364935567061
 10
83.5778442173868
 20
-165.3883544508404
 10
83.5778442173868
 20
-165.3883544508404
 10
83.90995142216487
 20
-165.3735405402538
 10
83.95646021121576
 20
-165.2105875238015
 10
83.98608803238889
 20
-165.0962103536912
 10
83.98608803238889
 20
-165.0962103536912
 10
84.13216008096348
 20
-165.0962103536912
 10
84.13216008096348
 20
-165.0962103536912
 10
84.13216008096348
 20
-165.0962103536912
 10
84.13216008096348
 20
-166.6406466597287
 10
84.13216008096348
 20
-166.6406466597287
 10
84.13216008096348
 20
-166.6406466597287
 10
83.90788436487373
 20
-166.6406466597287
 10
83.90788436487373
 20
-166.6406466597287
 97
        0
 97
        1
330
99
 75
     2
 76
     1
 98
        1
 10
0.0
 20
0.0
450
        0
451
        0
460
0.0
461
0.0
452
        0
462
0.0
453
        0
470

  0
SPLINE
  5
9B
330
95
100
AcDbEntity
  8
レイヤー 1
100
AcDbSpline
210
0.0
220
0.0
230
1.0
 70
     9
 71
     3
 72
    17
 73
    13
 74
     0
 42
0.0000000001
 43
0.0000000001
 40
0.0
 40
0.0
 40
0.0
 40
0.0
 40
1.0
 40
1.0
 40
1.0
 40
2.0
 40
2.0
 40
2.0
 40
3.0
 40
3.0
 40
3.0
 40
4.0
 40
4.0
 40
4.0
 40
4.0
 10
85.13330482897709
 20
-165.2402153449747
 30
0.0
 10
84.88370766107074
 20
-165.2402153449747
 30
0.0
 10
84.83719887201987
 20
-165.5237467034107
 30
0.0
 10
84.83719887201987
 20
-165.8686007614842
 30
0.0
 10
84.83719887201987
 20
-166.1879611129669
 30
0.0
 10
84.87320011984072
 20
-166.4966416684453
 30
0.0
 10
85.13330482897709
 20
-166.4966416684453
 30
0.0
 10
85.38083493959229
 20
-166.4966416684453
 30
0.0
 10
85.42958304070857
 20
-166.2155218768489
 30
0.0
 10
85.42958304070857
 20
-165.8686007614842
 30
0.0
 10
85.42958304070857
 20
-165.548895900453
 30
0.0
 10
85.39151473559657
 20
-165.2402153449747
 30
0.0
 10
85.13330482897709
 20
-165.2402153449747
 30
0.0
  0
SPLINE
  5
9C
330
95
100
AcDbEntity
  8
レイヤー 1
100
AcDbSpline
210
0.0
220
0.0
230
1.0
 70
     9
 71
     3
 72
    29
 73
    25
 74
     0
 42
0.0000000001
 43
0.0000000001
 40
0.0
 40
0.0
 40
0.0
 40
0.0
 40
1.0
 40
1.0
 40
1.0
 40
2.0
 40
2.0
 40
2.0
 40
3.0
 40
3.0
 40
3.0
 40
4.0
 40
4.0
 40
4.0
 40
5.0
 40
5.0
 40
5.0
 40
6.0
 40
6.0
 40
6.0
 40
7.0
 40
7.0
 40
7.0
 40
8.0
 40
8.0
 40
8.0
 40
8.0
 10
85.53104110274919
 20
-166.4628797326898
 30
0.0
 10
85.42320961406087
 20
-166.672341538193
 30
0.0
 10
85.24974905637852
 20
-166.6912895633619
 30
0.0
 10
85.13330482897709
 20
-166.6912895633619
 30
0.0
 10
84.97259112459019
 20
-166.6912895633619
 30
0.0
 10
84.83082544537216
 20
-166.644780774311
 30
0.0
 10
84.735568555205
 20
-166.4628797326898
 30
0.0
 10
84.63204343587324
 20
-166.2682318377732
 30
0.0
 10
84.61292315593011
 20
-166.031209268388
 30
0.0
 10
84.61292315593011
 20
-165.8686007614842
 30
0.0
 10
84.61292315593011
 20
-165.7245957702008
 30
0.0
 10
84.62980412380783
 20
-165.472759290229
 30
0.0
 10
84.735568555205
 20
-165.2739772807301
 30
0.0
 10
84.84357229866757
 20
-165.0710611566489
 30
0.0
 10
85.00428600305449
 20
-165.0476345073492
 30
0.0
 10
85.13330482897709
 20
-165.0476345073492
 30
0.0
 10
85.29195147607286
 20
-165.0476345073492
 30
0.0
 10
85.43578421258203
 20
-165.0920762391089
 30
0.0
 10
85.53104110274919
 20
-165.2739772807301
 30
0.0
 10
85.63043210749865
 20
-165.4665581183556
 30
0.0
 10
85.65368650202408
 20
-165.6949679490276
 30
0.0
 10
85.65368650202408
 20
-165.8686007614842
 30
0.0
 10
85.65368650202408
 20
-166.0398220071011
 30
0.0
 10
85.63267141956407
 20
-166.2702988950643
 30
0.0
 10
85.53104110274919
 20
-166.4628797326898
 30
0.0
  0
HATCH
  5
9D
330
95
100
AcDbEntity
  8
レイヤー 1
 62
   250
420
  2299925
440
 33554687
100
AcDbHatch
 10
0.0
 20
0.0
 30
0.0
210
0.0
220
0.0
230
1.0
  2
SOLID
 70
     1
 71
     1
 91
        2
 92
        1
 93
        1
 72
     4
 94
        3
 73
     0
 74
     0
 95
       17
 96
       13
 40
0.0
 40
0.0
 40
0.0
 40
0.0
 40
1.0
 40
1.0
 40
1.0
 40
2.0
 40
2.0
 40
2.0
 40
3.0
 40
3.0
 40
3.0
 40
4.0
 40
4.0
 40
4.0
 40
4.0
 10
85.13330482897709
 20
-165.2402153449747
 10
84.88370766107074
 20
-165.2402153449747
 10
84.83719887201987
 20
-165.5237467034107
 10
84.83719887201987
 20
-165.8686007614842
 10
84.83719887201987
 20
-166.1879611129669
 10
84.87320011984072
 20
-166.4966416684453
 10
85.13330482897709
 20
-166.4966416684453
 10
85.38083493959229
 20
-166.4966416684453
 10
85.42958304070857
 20
-166.2155218768489
 10
85.42958304070857
 20
-165.8686007614842
 10
85.42958304070857
 20
-165.548895900453
 10
85.39151473559657
 20
-165.2402153449747
 10
85.13330482897709
 20
-165.2402153449747
 97
        0
 97
        1
330
9B
 92
        1
 93
        1
 72
     4
 94
        3
 73
     0
 74
     0
 95
       29
 96
       25
 40
0.0
 40
0.0
 40
0.0
 40
0.0
 40
1.0
 40
1.0
 40
1.0
 40
2.0
 40
2.0
 40
2.0
 40
3.0
 40
3.0
 40
3.0
 40
4.0
 40
4.0
 40
4.0
 40
5.0
 40
5.0
 40
5.0
 40
6.0
 40
6.0
 40
6.0
 40
7.0
 40
7.0
 40
7.0
 40
8.0
 40
8.0
 40
8.0
 40
8.0
 10
85.53104110274919
 20
-166.4628797326898
 10
85.42320961406087
 20
-166.672341538193
 10
85.24974905637852
 20
-166.6912895633619
 10
85.13330482897709
 20
-166.6912895633619
 10
84.97259112459019
 20
-166.6912895633619
 10
84.83082544537216
 20
-166.644780774311
 10
84.735568555205
 20
-166.4628797326898
 10
84.63204343587324
 20
-166.2682318377732
 10
84.61292315593011
 20
-166.031209268388
 10
84.61292315593011
 20
-165.8686007614842
 10
84.61292315593011
 20
-165.7245957702008
 10
84.62980412380783
 20
-165.472759290229
 10
84.735568555205
 20
-165.2739772807301
 10
84.84357229866757
 20
-165.0710611566489
 10
85.00428600305449
 20
-165.0476345073492
 10
85.13330482897709
 20
-165.0476345073492
 10
85.29195147607286
 20
-165.0476345073492
 10
85.43578421258203
 20
-165.0920762391089
 10
85.53104110274919
 20
-165.2739772807301
 10
85.63043210749865
 20
-165.4665581183556
 10
85.65368650202408
 20
-165.6949679490276
 10
85.65368650202408
 20
-165.8686007614842
 10
85.65368650202408
 20
-166.0398220071011
 10
85.63267141956407
 20
-166.2702988950643
 10
85.53104110274919
 20
-166.4628797326898
 97
        0
 97
        1
330
9C
 75
     2
 76
     1
 98
        1
 10
0.0
 20
0.0
450
        0
451
        0
460
0.0
461
0.0
452
        0
462
0.0
453
        0
470

  0
SPLINE
  5
9E
330
95
100
AcDbEntity
  8
レイヤー 1
100
AcDbSpline
210
0.0
220
0.0
230
1.0
 70
     9
 71
     3
 72
    20
 73
    16
 74
     0
 42
0.0000000001
 43
0.0000000001
 40
0.0
 40
0.0
 40
0.0
 40
0.0
 40
1.0
 40
1.0
 40
1.0
 40
2.0
 40
2.0
 40
2.0
 40
3.0
 40
3.0
 40
3.0
 40
4.0
 40
4.0
 40
4.0
 40
5.0
 40
5.0
 40
5.0
 40
5.0
 10
86.57249346794023
 20
-165.3077392164856
 30
0.0
 10
86.57249346794023
 20
-165.3077392164856
 30
0.0
 10
86.12824840511725
 20
-165.3077392164856
 30
0.0
 10
86.12824840511725
 20
-165.3077392164856
 30
0.0
 10
86.12824840511725
 20
-165.3077392164856
 30
0.0
 10
86.12824840511725
 20
-165.7879855271294
 30
0.0
 10
86.12824840511725
 20
-165.7879855271294
 30
0.0
 10
86.12824840511725
 20
-165.7879855271294
 30
0.0
 10
86.57042641064906
 20
-165.7879855271294
 30
0.0
 10
86.57042641064906
 20
-165.7879855271294
 30
0.0
 10
86.66981741539853
 20
-165.7879855271294
 30
0.0
 10
86.80520966796883
 20
-165.7118489169054
 30
0.0
 10
86.80520966796883
 20
-165.5406276712884
 30
0.0
 10
86.80520966796883
 20
-165.4624240037733
 30
0.0
 10
86.77127547743912
 20
-165.3077392164856
 30
0.0
 10
86.57249346794023
 20
-165.3077392164856
 30
0.0
  0
SPLINE
  5
9F
330
95
100
AcDbEntity
  8
レイヤー 1
100
AcDbSpline
210
0.0
220
0.0
230
1.0
 70
     9
 71
     3
 72
    44
 73
    40
 74
     0
 42
0.0000000001
 43
0.0000000001
 40
0.0
 40
0.0
 40
0.0
 40
0.0
 40
1.0
 40
1.0
 40
1.0
 40
2.0
 40
2.0
 40
2.0
 40
3.0
 40
3.0
 40
3.0
 40
4.0
 40
4.0
 40
4.0
 40
5.0
 40
5.0
 40
5.0
 40
6.0
 40
6.0
 40
6.0
 40
7.0
 40
7.0
 40
7.0
 40
8.0
 40
8.0
 40
8.0
 40
9.0
 40
9.0
 40
9.0
 40
10.0
 40
10.0
 40
10.0
 40
11.0
 40
11.0
 40
11.0
 40
12.0
 40
12.0
 40
12.0
 40
13.0
 40
13.0
 40
13.0
 40
13.0
 10
86.82432994791197
 20
-166.6406466597287
 30
0.0
 10
86.80090329861227
 20
-166.596204927969
 30
0.0
 10
86.77988821615226
 20
-166.5434949670447
 30
0.0
 10
86.77764890408685
 20
-166.3126735695329
 30
0.0
 10
86.77351478950454
 20
-166.0694498282743
 30
0.0
 10
86.71425914715824
 20
-165.9995143899237
 30
0.0
 10
86.53649222011935
 20
-165.9995143899237
 30
0.0
 10
86.53649222011935
 20
-165.9995143899237
 30
0.0
 10
86.12824840511725
 20
-165.9995143899237
 30
0.0
 10
86.12824840511725
 20
-165.9995143899237
 30
0.0
 10
86.12824840511725
 20
-165.9995143899237
 30
0.0
 10
86.12824840511725
 20
-166.6406466597287
 30
0.0
 10
86.12824840511725
 20
-166.6406466597287
 30
0.0
 10
86.12824840511725
 20
-166.6406466597287
 30
0.0
 10
85.89346514779746
 20
-166.6406466597287
 30
0.0
 10
85.89346514779746
 20
-166.6406466597287
 30
0.0
 10
85.89346514779746
 20
-166.6406466597287
 30
0.0
 10
85.89346514779746
 20
-165.0962103536912
 30
0.0
 10
85.89346514779746
 20
-165.0962103536912
 30
0.0
 10
85.89346514779746
 20
-165.0962103536912
 30
0.0
 10
86.56835935335791
 20
-165.0962103536912
 30
0.0
 10
86.56835935335791
 20
-165.0962103536912
 30
0.0
 10
86.87497285154515
 20
-165.0962103536912
 30
0.0
 10
87.04205998257977
 20
-165.2677761088567
 30
0.0
 10
87.04205998257977
 20
-165.5237467034107
 30
0.0
 10
87.04205998257977
 20
-165.5743896070439
 30
0.0
 10
87.0336194986409
 20
-165.6570718986899
 30
0.0
 10
86.98917776688118
 20
-165.7373426234962
 30
0.0
 10
86.93009437930916
 20
-165.8410399976022
 30
0.0
 10
86.86446531031513
 20
-165.8599880227711
 30
0.0
 10
86.80314261067769
 20
-165.8768689906488
 30
0.0
 10
86.94060192053916
 20
-165.9192436651174
 30
0.0
 10
87.00829804682433
 20
-165.9678195114594
 30
0.0
 10
87.01260441618087
 20
-166.2830457483598
 30
0.0
 10
87.01673853076318
 20
-166.5538302535004
 30
0.0
 10
87.05273977858404
 20
-166.5855251319647
 30
0.0
 10
87.12043590486919
 20
-166.6406466597287
 30
0.0
 10
87.12043590486919
 20
-166.6406466597287
 30
0.0
 10
86.82432994791197
 20
-166.6406466597287
 30
0.0
 10
86.82432994791197
 20
-166.6406466597287
 30
0.0
  0
HATCH
  5
A0
330
95
100
AcDbEntity
  8
レイヤー 1
 62
   250
420
  2299925
440
 33554687
100
AcDbHatch
 10
0.0
 20
0.0
 30
0.0
210
0.0
220
0.0
230
1.0
  2
SOLID
 70
     1
 71
     1
 91
        2
 92
        1
 93
        1
 72
     4
 94
        3
 73
     0
 74
     0
 95
       20
 96
       16
 40
0.0
 40
0.0
 40
0.0
 40
0.0
 40
1.0
 40
1.0
 40
1.0
 40
2.0
 40
2.0
 40
2.0
 40
3.0
 40
3.0
 40
3.0
 40
4.0
 40
4.0
 40
4.0
 40
5.0
 40
5.0
 40
5.0
 40
5.0
 10
86.57249346794023
 20
-165.3077392164856
 10
86.57249346794023
 20
-165.3077392164856
 10
86.12824840511725
 20
-165.3077392164856
 10
86.12824840511725
 20
-165.3077392164856
 10
86.12824840511725
 20
-165.3077392164856
 10
86.12824840511725
 20
-165.7879855271294
 10
86.12824840511725
 20
-165.7879855271294
 10
86.12824840511725
 20
-165.7879855271294
 10
86.57042641064906
 20
-165.7879855271294
 10
86.57042641064906
 20
-165.7879855271294
 10
86.66981741539853
 20
-165.7879855271294
 10
86.80520966796883
 20
-165.7118489169054
 10
86.80520966796883
 20
-165.5406276712884
 10
86.80520966796883
 20
-165.4624240037733
 10
86.77127547743912
 20
-165.3077392164856
 10
86.57249346794023
 20
-165.3077392164856
 97
        0
 97
        1
330
9E
 92
        1
 93
        1
 72
     4
 94
        3
 73
     0
 74
     0
 95
       44
 96
       40
 40
0.0
 40
0.0
 40
0.0
 40
0.0
 40
1.0
 40
1.0
 40
1.0
 40
2.0
 40
2.0
 40
2.0
 40
3.0
 40
3.0
 40
3.0
 40
4.0
 40
4.0
 40
4.0
 40
5.0
 40
5.0
 40
5.0
 40
6.0
 40
6.0
 40
6.0
 40
7.0
 40
7.0
 40
7.0
 40
8.0
 40
8.0
 40
8.0
 40
9.0
 40
9.0
 40
9.0
 40
10.0
 40
10.0
 40
10.0
 40
11.0
 40
11.0
 40
11.0
 40
12.0
 40
12.0
 40
12.0
 40
13.0
 40
13.0
 40
13.0
 40
13.0
 10
86.82432994791197
 20
-166.6406466597287
 10
86.80090329861227
 20
-166.596204927969
 10
86.77988821615226
 20
-166.5434949670447
 10
86.77764890408685
 20
-166.3126735695329
 10
86.77351478950454
 20
-166.0694498282743
 10
86.71425914715824
 20
-165.9995143899237
 10
86.53649222011935
 20
-165.9995143899237
 10
86.53649222011935
 20
-165.9995143899237
 10
86.12824840511725
 20
-165.9995143899237
 10
86.12824840511725
 20
-165.9995143899237
 10
86.12824840511725
 20
-165.9995143899237
 10
86.12824840511725
 20
-166.6406466597287
 10
86.12824840511725
 20
-166.6406466597287
 10
86.12824840511725
 20
-166.6406466597287
 10
85.89346514779746
 20
-166.6406466597287
 10
85.89346514779746
 20
-166.6406466597287
 10
85.89346514779746
 20
-166.6406466597287
 10
85.89346514779746
 20
-165.0962103536912
 10
85.89346514779746
 20
-165.0962103536912
 10
85.89346514779746
 20
-165.0962103536912
 10
86.56835935335791
 20
-165.0962103536912
 10
86.56835935335791
 20
-165.0962103536912
 10
86.87497285154515
 20
-165.0962103536912
 10
87.04205998257977
 20
-165.2677761088567
 10
87.04205998257977
 20
-165.5237467034107
 10
87.04205998257977
 20
-165.5743896070439
 10
87.0336194986409
 20
-165.6570718986899
 10
86.98917776688118
 20
-165.7373426234962
 10
86.93009437930916
 20
-165.8410399976022
 10
86.86446531031513
 20
-165.8599880227711
 10
86.80314261067769
 20
-165.8768689906488
 10
86.94060192053916
 20
-165.9192436651174
 10
87.00829804682433
 20
-165.9678195114594
 10
87.01260441618087
 20
-166.2830457483598
 10
87.01673853076318
 20
-166.5538302535004
 10
87.05273977858404
 20
-166.5855251319647
 10
87.12043590486919
 20
-166.6406466597287
 10
87.12043590486919
 20
-166.6406466597287
 10
86.82432994791197
 20
-166.6406466597287
 10
86.82432994791197
 20
-166.6406466597287
 97
        0
 97
        1
330
9F
 75
     2
 76
     1
 98
        1
 10
0.0
 20
0.0
450
        0
451
        0
460
0.0
461
0.0
452
        0
462
0.0
453
        0
470

  0
ENDBLK
  5
98
330
95
100
AcDbEntity
  8
0
100
AcDbBlockEnd
  0
BLOCK
  5
A7
330
A5
100
AcDbEntity
  8
0
100
AcDbBlockBegin
  2
Block_3
 70
     0
 10
0.0
 20
0.0
 30
0.0
  3
Block_3
  1

  0
INSERT
  5
AA
330
A5
100
AcDbEntity
  8
レイヤー 1
100
AcDbBlockReference
  2
Block_4
 10
0.0
 20
0.0
 30
0.0
  0
ENDBLK
  5
A8
330
A5
100
AcDbEntity
  8
0
100
AcDbBlockEnd
  0
BLOCK
  5
AB
330
A9
100
AcDbEntity
  8
0
100
AcDbBlockBegin
  2
Block_4
 70
     0
 10
0.0
 20
0.0
 30
0.0
  3
Block_4
  1

  0
SPLINE
  5
AD
330
A9
100
AcDbEntity
  8
レイヤー 1
100
AcDbSpline
210
0.0
220
0.0
230
1.0
 70
     9
 71
     3
 72
    17
 73
    13
 74
     0
 42
0.0000000001
 43
0.0000000001
 40
0.0
 40
0.0
 40
0.0
 40
0.0
 40
1.0
 40
1.0
 40
1.0
 40
2.0
 40
2.0
 40
2.0
 40
3.0
 40
3.0
 40
3.0
 40
4.0
 40
4.0
 40
4.0
 40
4.0
 10
123.7533419829505
 20
-160.1690347906869
 30
0.0
 10
123.7533419829505
 20
-160.4188042133675
 30
0.0
 10
124.0368733413866
 20
-160.4653130024184
 30
0.0
 10
124.3817273994601
 20
-160.4653130024184
 30
0.0
 10
124.7010877509428
 20
-160.4653130024184
 30
0.0
 10
125.0097683064212
 20
-160.4291394998232
 30
0.0
 10
125.0097683064212
 20
-160.1690347906869
 30
0.0
 10
125.0097683064212
 20
-159.9213324252974
 30
0.0
 10
124.7286485148248
 20
-159.8727565789554
 30
0.0
 10
124.3817273994601
 20
-159.8727565789554
 30
0.0
 10
124.0620225384289
 20
-159.8727565789554
 30
0.0
 10
123.7533419829505
 20
-159.9109971388417
 30
0.0
 10
123.7533419829505
 20
-160.1690347906869
 30
0.0
  0
SPLINE
  5
AE
330
A9
100
AcDbEntity
  8
レイヤー 1
100
AcDbSpline
210
0.0
220
0.0
230
1.0
 70
     9
 71
     3
 72
    29
 73
    25
 74
     0
 42
0.0000000001
 43
0.0000000001
 40
0.0
 40
0.0
 40
0.0
 40
0.0
 40
1.0
 40
1.0
 40
1.0
 40
2.0
 40
2.0
 40
2.0
 40
3.0
 40
3.0
 40
3.0
 40
4.0
 40
4.0
 40
4.0
 40
5.0
 40
5.0
 40
5.0
 40
6.0
 40
6.0
 40
6.0
 40
7.0
 40
7.0
 40
7.0
 40
8.0
 40
8.0
 40
8.0
 40
8.0
 10
124.9760063706657
 20
-159.7711262621406
 30
0.0
 10
125.1854681761689
 20
-159.8793022603774
 30
0.0
 10
125.2044162013378
 20
-160.0525905632854
 30
0.0
 10
125.2044162013378
 20
-160.1690347906869
 30
0.0
 10
125.2044162013378
 20
-160.329920749848
 30
0.0
 10
125.1579074122869
 20
-160.4715141742918
 30
0.0
 10
124.9760063706657
 20
-160.5665988096847
 30
0.0
 10
124.7813584757491
 20
-160.6702961837907
 30
0.0
 10
124.5443359063639
 20
-160.6895887185081
 30
0.0
 10
124.3817273994601
 20
-160.6895887185081
 30
0.0
 10
124.2377224081766
 20
-160.6895887185081
 30
0.0
 10
123.9858859282049
 20
-160.6723632410819
 30
0.0
 10
123.787103918706
 20
-160.5665988096847
 30
0.0
 10
123.5841877946248
 20
-160.4587673209964
 30
0.0
 10
123.5607611453251
 20
-160.2978813618352
 30
0.0
 10
123.5607611453251
 20
-160.1690347906869
 30
0.0
 10
123.5607611453251
 20
-160.0102158888169
 30
0.0
 10
123.6052028770848
 20
-159.866555407082
 30
0.0
 10
123.787103918706
 20
-159.7711262621406
 30
0.0
 10
123.9796847563314
 20
-159.6719075121654
 30
0.0
 10
124.2080945870035
 20
-159.6484808628656
 30
0.0
 10
124.3817273994601
 20
-159.6484808628656
 30
0.0
 10
124.552948645077
 20
-159.6484808628656
 30
0.0
 10
124.7834255330402
 20
-159.6698404548742
 30
0.0
 10
124.9760063706657
 20
-159.7711262621406
 30
0.0
  0
HATCH
  5
AF
330
A9
100
AcDbEntity
  8
レイヤー 1
 62
   250
420
  2299925
440
 33554687
100
AcDbHatch
 10
0.0
 20
0.0
 30
0.0
210
0.0
220
0.0
230
1.0
  2
SOLID
 70
     1
 71
     1
 91
        2
 92
        1
 93
        1
 72
     4
 94
        3
 73
     0
 74
     0
 95
       17
 96
       13
 40
0.0
 40
0.0
 40
0.0
 40
0.0
 40
1.0
 40
1.0
 40
1.0
 40
2.0
 40
2.0
 40
2.0
 40
3.0
 40
3.0
 40
3.0
 40
4.0
 40
4.0
 40
4.0
 40
4.0
 10
123.7533419829505
 20
-160.1690347906869
 10
123.7533419829505
 20
-160.4188042133675
 10
124.0368733413866
 20
-160.4653130024184
 10
124.3817273994601
 20
-160.4653130024184
 10
124.7010877509428
 20
-160.4653130024184
 10
125.0097683064212
 20
-160.4291394998232
 10
125.0097683064212
 20
-160.1690347906869
 10
125.0097683064212
 20
-159.9213324252974
 10
124.7286485148248
 20
-159.8727565789554
 10
124.3817273994601
 20
-159.8727565789554
 10
124.0620225384289
 20
-159.8727565789554
 10
123.7533419829505
 20
-159.9109971388417
 10
123.7533419829505
 20
-160.1690347906869
 97
        0
 97
        1
330
AD
 92
        1
 93
        1
 72
     4
 94
        3
 73
     0
 74
     0
 95
       29
 96
       25
 40
0.0
 40
0.0
 40
0.0
 40
0.0
 40
1.0
 40
1.0
 40
1.0
 40
2.0
 40
2.0
 40
2.0
 40
3.0
 40
3.0
 40
3.0
 40
4.0
 40
4.0
 40
4.0
 40
5.0
 40
5.0
 40
5.0
 40
6.0
 40
6.0
 40
6.0
 40
7.0
 40
7.0
 40
7.0
 40
8.0
 40
8.0
 40
8.0
 40
8.0
 10
124.9760063706657
 20
-159.7711262621406
 10
125.1854681761689
 20
-159.8793022603774
 10
125.2044162013378
 20
-160.0525905632854
 10
125.2044162013378
 20
-160.1690347906869
 10
125.2044162013378
 20
-160.329920749848
 10
125.1579074122869
 20
-160.4715141742918
 10
124.9760063706657
 20
-160.5665988096847
 10
124.7813584757491
 20
-160.6702961837907
 10
124.5443359063639
 20
-160.6895887185081
 10
124.3817273994601
 20
-160.6895887185081
 10
124.2377224081766
 20
-160.6895887185081
 10
123.9858859282049
 20
-160.6723632410819
 10
123.787103918706
 20
-160.5665988096847
 10
123.5841877946248
 20
-160.4587673209964
 10
123.5607611453251
 20
-160.2978813618352
 10
123.5607611453251
 20
-160.1690347906869
 10
123.5607611453251
 20
-160.0102158888169
 10
123.6052028770848
 20
-159.866555407082
 10
123.787103918706
 20
-159.7711262621406
 10
123.9796847563314
 20
-159.6719075121654
 10
124.2080945870035
 20
-159.6484808628656
 10
124.3817273994601
 20
-159.6484808628656
 10
124.552948645077
 20
-159.6484808628656
 10
124.7834255330402
 20
-159.6698404548742
 10
124.9760063706657
 20
-159.7711262621406
 97
        0
 97
        1
330
AE
 75
     2
 76
     1
 98
        1
 10
0.0
 20
0.0
450
        0
451
        0
460
0.0
461
0.0
452
        0
462
0.0
453
        0
470

  0
SPLINE
  5
B0
330
A9
100
AcDbEntity
  8
レイヤー 1
100
AcDbSpline
210
0.0
220
0.0
230
1.0
 70
    11
 71
     3
 72
    17
 73
    13
 74
     0
 42
0.0000000001
 43
0.0000000001
 40
0.0
 40
0.0
 40
0.0
 40
0.0
 40
1.0
 40
1.0
 40
1.0
 40
2.0
 40
2.0
 40
2.0
 40
3.0
 40
3.0
 40
3.0
 40
4.0
 40
4.0
 40
4.0
 40
4.0
 10
125.1537732977046
 20
-159.432128866392
 30
0.0
 10
125.1537732977046
 20
-159.432128866392
 30
0.0
 10
124.9019368177328
 20
-159.432128866392
 30
0.0
 10
124.9019368177328
 20
-159.432128866392
 30
0.0
 10
124.9019368177328
 20
-159.432128866392
 30
0.0
 10
124.9019368177328
 20
-159.1802923864202
 30
0.0
 10
124.9019368177328
 20
-159.1802923864202
 30
0.0
 10
124.9019368177328
 20
-159.1802923864202
 30
0.0
 10
125.1537732977046
 20
-159.1802923864202
 30
0.0
 10
125.1537732977046
 20
-159.1802923864202
 30
0.0
 10
125.1537732977046
 20
-159.1802923864202
 30
0.0
 10
125.1537732977046
 20
-159.432128866392
 30
0.0
 10
125.1537732977046
 20
-159.432128866392
 30
0.0
  0
HATCH
  5
B1
330
A9
100
AcDbEntity
  8
レイヤー 1
 62
   250
420
  2299925
440
 33554687
100
AcDbHatch
 10
0.0
 20
0.0
 30
0.0
210
0.0
220
0.0
230
1.0
  2
SOLID
 70
     1
 71
     1
 91
        1
 92
        1
 93
        1
 72
     4
 94
        3
 73
     0
 74
     0
 95
       17
 96
       13
 40
0.0
 40
0.0
 40
0.0
 40
0.0
 40
1.0
 40
1.0
 40
1.0
 40
2.0
 40
2.0
 40
2.0
 40
3.0
 40
3.0
 40
3.0
 40
4.0
 40
4.0
 40
4.0
 40
4.0
 10
125.1537732977046
 20
-159.432128866392
 10
125.1537732977046
 20
-159.432128866392
 10
124.9019368177328
 20
-159.432128866392
 10
124.9019368177328
 20
-159.432128866392
 10
124.9019368177328
 20
-159.432128866392
 10
124.9019368177328
 20
-159.1802923864202
 10
124.9019368177328
 20
-159.1802923864202
 10
124.9019368177328
 20
-159.1802923864202
 10
125.1537732977046
 20
-159.1802923864202
 10
125.1537732977046
 20
-159.1802923864202
 10
125.1537732977046
 20
-159.1802923864202
 10
125.1537732977046
 20
-159.432128866392
 10
125.1537732977046
 20
-159.432128866392
 97
        0
 97
        1
330
B0
 75
     2
 76
     1
 98
        1
 10
0.0
 20
0.0
450
        0
451
        0
460
0.0
461
0.0
452
        0
462
0.0
453
        0
470

  0
SPLINE
  5
B2
330
A9
100
AcDbEntity
  8
レイヤー 1
100
AcDbSpline
210
0.0
220
0.0
230
1.0
 70
    11
 71
     3
 72
    14
 73
    10
 74
     0
 42
0.0000000001
 43
0.0000000001
 40
0.0
 40
0.0
 40
0.0
 40
0.0
 40
1.0
 40
1.0
 40
1.0
 40
2.0
 40
2.0
 40
2.0
 40
3.0
 40
3.0
 40
3.0
 40
3.0
 10
123.9521239924495
 20
-158.329698311112
 30
0.0
 10
123.9521239924495
 20
-158.329698311112
 30
0.0
 10
124.608070172841
 20
-158.7868624820047
 30
0.0
 10
124.608070172841
 20
-158.7868624820047
 30
0.0
 10
124.608070172841
 20
-158.7868624820047
 30
0.0
 10
124.608070172841
 20
-158.329698311112
 30
0.0
 10
124.608070172841
 20
-158.329698311112
 30
0.0
 10
124.608070172841
 20
-158.329698311112
 30
0.0
 10
123.9521239924495
 20
-158.329698311112
 30
0.0
 10
123.9521239924495
 20
-158.329698311112
 30
0.0
  0
SPLINE
  5
B3
330
A9
100
AcDbEntity
  8
レイヤー 1
100
AcDbSpline
210
0.0
220
0.0
230
1.0
 70
    11
 71
     3
 72
    38
 73
    34
 74
     0
 42
0.0000000001
 43
0.0000000001
 40
0.0
 40
0.0
 40
0.0
 40
0.0
 40
1.0
 40
1.0
 40
1.0
 40
2.0
 40
2.0
 40
2.0
 40
3.0
 40
3.0
 40
3.0
 40
4.0
 40
4.0
 40
4.0
 40
5.0
 40
5.0
 40
5.0
 40
6.0
 40
6.0
 40
6.0
 40
7.0
 40
7.0
 40
7.0
 40
8.0
 40
8.0
 40
8.0
 40
9.0
 40
9.0
 40
9.0
 40
10.0
 40
10.0
 40
10.0
 40
11.0
 40
11.0
 40
11.0
 40
11.0
 10
124.80685218234
 20
-158.1119682764442
 30
0.0
 10
124.80685218234
 20
-158.1119682764442
 30
0.0
 10
125.1537732977046
 20
-158.1119682764442
 30
0.0
 10
125.1537732977046
 20
-158.1119682764442
 30
0.0
 10
125.1537732977046
 20
-158.1119682764442
 30
0.0
 10
125.1537732977046
 20
-158.329698311112
 30
0.0
 10
125.1537732977046
 20
-158.329698311112
 30
0.0
 10
125.1537732977046
 20
-158.329698311112
 30
0.0
 10
124.80685218234
 20
-158.329698311112
 30
0.0
 10
124.80685218234
 20
-158.329698311112
 30
0.0
 10
124.80685218234
 20
-158.329698311112
 30
0.0
 10
124.80685218234
 20
-158.9856444915036
 30
0.0
 10
124.80685218234
 20
-158.9856444915036
 30
0.0
 10
124.80685218234
 20
-158.9856444915036
 30
0.0
 10
124.5825764662502
 20
-158.9856444915036
 30
0.0
 10
124.5825764662502
 20
-158.9856444915036
 30
0.0
 10
124.5825764662502
 20
-158.9856444915036
 30
0.0
 10
123.6093369916671
 20
-158.3066161713608
 30
0.0
 10
123.6093369916671
 20
-158.3066161713608
 30
0.0
 10
123.6093369916671
 20
-158.3066161713608
 30
0.0
 10
123.6093369916671
 20
-158.1119682764442
 30
0.0
 10
123.6093369916671
 20
-158.1119682764442
 30
0.0
 10
123.6093369916671
 20
-158.1119682764442
 30
0.0
 10
124.608070172841
 20
-158.1119682764442
 30
0.0
 10
124.608070172841
 20
-158.1119682764442
 30
0.0
 10
124.608070172841
 20
-158.1119682764442
 30
0.0
 10
124.608070172841
 20
-157.9045735282322
 30
0.0
 10
124.608070172841
 20
-157.9045735282322
 30
0.0
 10
124.608070172841
 20
-157.9045735282322
 30
0.0
 10
124.80685218234
 20
-157.9045735282322
 30
0.0
 10
124.80685218234
 20
-157.9045735282322
 30
0.0
 10
124.80685218234
 20
-157.9045735282322
 30
0.0
 10
124.80685218234
 20
-158.1119682764442
 30
0.0
 10
124.80685218234
 20
-158.1119682764442
 30
0.0
  0
HATCH
  5
B4
330
A9
100
AcDbEntity
  8
レイヤー 1
 62
   250
420
  2299925
440
 33554687
100
AcDbHatch
 10
0.0
 20
0.0
 30
0.0
210
0.0
220
0.0
230
1.0
  2
SOLID
 70
     1
 71
     1
 91
        2
 92
        1
 93
        1
 72
     4
 94
        3
 73
     0
 74
     0
 95
       14
 96
       10
 40
0.0
 40
0.0
 40
0.0
 40
0.0
 40
1.0
 40
1.0
 40
1.0
 40
2.0
 40
2.0
 40
2.0
 40
3.0
 40
3.0
 40
3.0
 40
3.0
 10
123.9521239924495
 20
-158.329698311112
 10
123.9521239924495
 20
-158.329698311112
 10
124.608070172841
 20
-158.7868624820047
 10
124.608070172841
 20
-158.7868624820047
 10
124.608070172841
 20
-158.7868624820047
 10
124.608070172841
 20
-158.329698311112
 10
124.608070172841
 20
-158.329698311112
 10
124.608070172841
 20
-158.329698311112
 10
123.9521239924495
 20
-158.329698311112
 10
123.9521239924495
 20
-158.329698311112
 97
        0
 97
        1
330
B2
 92
        1
 93
        1
 72
     4
 94
        3
 73
     0
 74
     0
 95
       38
 96
       34
 40
0.0
 40
0.0
 40
0.0
 40
0.0
 40
1.0
 40
1.0
 40
1.0
 40
2.0
 40
2.0
 40
2.0
 40
3.0
 40
3.0
 40
3.0
 40
4.0
 40
4.0
 40
4.0
 40
5.0
 40
5.0
 40
5.0
 40
6.0
 40
6.0
 40
6.0
 40
7.0
 40
7.0
 40
7.0
 40
8.0
 40
8.0
 40
8.0
 40
9.0
 40
9.0
 40
9.0
 40
10.0
 40
10.0
 40
10.0
 40
11.0
 40
11.0
 40
11.0
 40
11.0
 10
124.80685218234
 20
-158.1119682764442
 10
124.80685218234
 20
-158.1119682764442
 10
125.1537732977046
 20
-158.1119682764442
 10
125.1537732977046
 20
-158.1119682764442
 10
125.1537732977046
 20
-158.1119682764442
 10
125.1537732977046
 20
-158.329698311112
 10
125.1537732977046
 20
-158.329698311112
 10
125.1537732977046
 20
-158.329698311112
 10
124.80685218234
 20
-158.329698311112
 10
124.80685218234
 20
-158.329698311112
 10
124.80685218234
 20
-158.329698311112
 10
124.80685218234
 20
-158.9856444915036
 10
124.80685218234
 20
-158.9856444915036
 10
124.80685218234
 20
-158.9856444915036
 10
124.5825764662502
 20
-158.9856444915036
 10
124.5825764662502
 20
-158.9856444915036
 10
124.5825764662502
 20
-158.9856444915036
 10
123.6093369916671
 20
-158.3066161713608
 10
123.6093369916671
 20
-158.3066161713608
 10
123.6093369916671
 20
-158.3066161713608
 10
123.6093369916671
 20
-158.1119682764442
 10
123.6093369916671
 20
-158.1119682764442
 10
123.6093369916671
 20
-158.1119682764442
 10
124.608070172841
 20
-158.1119682764442
 10
124.608070172841
 20
-158.1119682764442
 10
124.608070172841
 20
-158.1119682764442
 10
124.608070172841
 20
-157.9045735282322
 10
124.608070172841
 20
-157.9045735282322
 10
124.608070172841
 20
-157.9045735282322
 10
124.80685218234
 20
-157.9045735282322
 10
124.80685218234
 20
-157.9045735282322
 10
124.80685218234
 20
-157.9045735282322
 10
124.80685218234
 20
-158.1119682764442
 10
124.80685218234
 20
-158.1119682764442
 97
        0
 97
        1
330
B3
 75
     2
 76
     1
 98
        1
 10
0.0
 20
0.0
450
        0
451
        0
460
0.0
461
0.0
452
        0
462
0.0
453
        0
470

  0
ENDBLK
  5
AC
330
A9
100
AcDbEntity
  8
0
100
AcDbBlockEnd
  0
BLOCK
  5
BB
330
B9
100
AcDbEntity
  8
0
100
AcDbBlockBegin
  2
Block_5
 70
     0
 10
0.0
 20
0.0
 30
0.0
  3
Block_5
  1

  0
INSERT
  5
BE
330
B9
100
AcDbEntity
  8
レイヤー 1
100
AcDbBlockReference
  2
Block_6
 10
0.0
 20
0.0
 30
0.0
  0
ENDBLK
  5
BC
330
B9
100
AcDbEntity
  8
0
100
AcDbBlockEnd
  0
BLOCK
  5
BF
330
BD
100
AcDbEntity
  8
0
100
AcDbBlockBegin
  2
Block_6
 70
     0
 10
0.0
 20
0.0
 30
0.0
  3
Block_6
  1

  0
SPLINE
  5
C1
330
BD
100
AcDbEntity
  8
レイヤー 1
100
AcDbSpline
210
0.0
220
0.0
230
1.0
 70
     9
 71
     3
 72
    17
 73
    13
 74
     0
 42
0.0000000001
 43
0.0000000001
 40
0.0
 40
0.0
 40
0.0
 40
0.0
 40
1.0
 40
1.0
 40
1.0
 40
2.0
 40
2.0
 40
2.0
 40
3.0
 40
3.0
 40
3.0
 40
4.0
 40
4.0
 40
4.0
 40
4.0
 10
98.05189613434119
 20
-129.2401733075337
 30
0.0
 10
97.80229896643485
 20
-129.2401733075337
 30
0.0
 10
97.75579017738397
 20
-129.5235324111955
 30
0.0
 10
97.75579017738397
 20
-129.868386469269
 30
0.0
 10
97.75579017738397
 20
-130.1879190755259
 30
0.0
 10
97.79179142520483
 20
-130.4967718857786
 30
0.0
 10
98.05189613434119
 20
-130.4967718857786
 30
0.0
 10
98.2994262449564
 20
-130.4967718857786
 30
0.0
 10
98.34817434607268
 20
-130.2153075846337
 30
0.0
 10
98.34817434607268
 20
-129.868386469269
 30
0.0
 10
98.34817434607268
 20
-129.5490261177863
 30
0.0
 10
98.31010604096068
 20
-129.2401733075337
 30
0.0
 10
98.05189613434119
 20
-129.2401733075337
 30
0.0
  0
SPLINE
  5
C2
330
BD
100
AcDbEntity
  8
レイヤー 1
100
AcDbSpline
210
0.0
220
0.0
230
1.0
 70
     9
 71
     3
 72
    29
 73
    25
 74
     0
 42
0.0000000001
 43
0.0000000001
 40
0.0
 40
0.0
 40
0.0
 40
0.0
 40
1.0
 40
1.0
 40
1.0
 40
2.0
 40
2.0
 40
2.0
 40
3.0
 40
3.0
 40
3.0
 40
4.0
 40
4.0
 40
4.0
 40
5.0
 40
5.0
 40
5.0
 40
6.0
 40
6.0
 40
6.0
 40
7.0
 40
7.0
 40
7.0
 40
8.0
 40
8.0
 40
8.0
 40
8.0
 10
98.44963240811329
 20
-130.4628376952489
 30
0.0
 10
98.34180091942497
 20
-130.672299500752
 30
0.0
 10
98.16834036174263
 20
-130.6914197806952
 30
0.0
 10
98.05189613434119
 20
-130.6914197806952
 30
0.0
 10
97.8911824299543
 20
-130.6914197806952
 30
0.0
 10
97.74941675073627
 20
-130.6449109916443
 30
0.0
 10
97.65415986056911
 20
-130.4628376952489
 30
0.0
 10
97.55063474123735
 20
-130.2683620551065
 30
0.0
 10
97.53151446129422
 20
-130.0313394857213
 30
0.0
 10
97.53151446129422
 20
-129.868386469269
 30
0.0
 10
97.53151446129422
 20
-129.7245537327598
 30
0.0
 10
97.54839542917194
 20
-129.4728895075623
 30
0.0
 10
97.65415986056911
 20
-129.2739352432892
 30
0.0
 10
97.76216360403168
 20
-129.0708468644337
 30
0.0
 10
97.92287730841859
 20
-129.0475924699082
 30
0.0
 10
98.05189613434119
 20
-129.0475924699082
 30
0.0
 10
98.21054278143696
 20
-129.0475924699082
 30
0.0
 10
98.35437551794614
 20
-129.0920342016679
 30
0.0
 10
98.44963240811329
 20
-129.2739352432892
 30
0.0
 10
98.54902341286276
 20
-129.4665160809146
 30
0.0
 10
98.57227780738819
 20
-129.6949259115867
 30
0.0
 10
98.57227780738819
 20
-129.868386469269
 30
0.0
 10
98.57227780738819
 20
-130.0397799696602
 30
0.0
 10
98.55126272492817
 20
-130.2704291123976
 30
0.0
 10
98.44963240811329
 20
-130.4628376952489
 30
0.0
  0
HATCH
  5
C3
330
BD
100
AcDbEntity
  8
レイヤー 1
 62
   250
420
  2299925
440
 33554687
100
AcDbHatch
 10
0.0
 20
0.0
 30
0.0
210
0.0
220
0.0
230
1.0
  2
SOLID
 70
     1
 71
     1
 91
        2
 92
        1
 93
        1
 72
     4
 94
        3
 73
     0
 74
     0
 95
       17
 96
       13
 40
0.0
 40
0.0
 40
0.0
 40
0.0
 40
1.0
 40
1.0
 40
1.0
 40
2.0
 40
2.0
 40
2.0
 40
3.0
 40
3.0
 40
3.0
 40
4.0
 40
4.0
 40
4.0
 40
4.0
 10
98.05189613434119
 20
-129.2401733075337
 10
97.80229896643485
 20
-129.2401733075337
 10
97.75579017738397
 20
-129.5235324111955
 10
97.75579017738397
 20
-129.868386469269
 10
97.75579017738397
 20
-130.1879190755259
 10
97.79179142520483
 20
-130.4967718857786
 10
98.05189613434119
 20
-130.4967718857786
 10
98.2994262449564
 20
-130.4967718857786
 10
98.34817434607268
 20
-130.2153075846337
 10
98.34817434607268
 20
-129.868386469269
 10
98.34817434607268
 20
-129.5490261177863
 10
98.31010604096068
 20
-129.2401733075337
 10
98.05189613434119
 20
-129.2401733075337
 97
        0
 97
        1
330
C1
 92
        1
 93
        1
 72
     4
 94
        3
 73
     0
 74
     0
 95
       29
 96
       25
 40
0.0
 40
0.0
 40
0.0
 40
0.0
 40
1.0
 40
1.0
 40
1.0
 40
2.0
 40
2.0
 40
2.0
 40
3.0
 40
3.0
 40
3.0
 40
4.0
 40
4.0
 40
4.0
 40
5.0
 40
5.0
 40
5.0
 40
6.0
 40
6.0
 40
6.0
 40
7.0
 40
7.0
 40
7.0
 40
8.0
 40
8.0
 40
8.0
 40
8.0
 10
98.44963240811329
 20
-130.4628376952489
 10
98.34180091942497
 20
-130.672299500752
 10
98.16834036174263
 20
-130.6914197806952
 10
98.05189613434119
 20
-130.6914197806952
 10
97.8911824299543
 20
-130.6914197806952
 10
97.74941675073627
 20
-130.6449109916443
 10
97.65415986056911
 20
-130.4628376952489
 10
97.55063474123735
 20
-130.2683620551065
 10
97.53151446129422
 20
-130.0313394857213
 10
97.53151446129422
 20
-129.868386469269
 10
97.53151446129422
 20
-129.7245537327598
 10
97.54839542917194
 20
-129.4728895075623
 10
97.65415986056911
 20
-129.2739352432892
 10
97.76216360403168
 20
-129.0708468644337
 10
97.92287730841859
 20
-129.0475924699082
 10
98.05189613434119
 20
-129.0475924699082
 10
98.21054278143696
 20
-129.0475924699082
 10
98.35437551794614
 20
-129.0920342016679
 10
98.44963240811329
 20
-129.2739352432892
 10
98.54902341286276
 20
-129.4665160809146
 10
98.57227780738819
 20
-129.6949259115867
 10
98.57227780738819
 20
-129.868386469269
 10
98.57227780738819
 20
-130.0397799696602
 10
98.55126272492817
 20
-130.2704291123976
 10
98.44963240811329
 20
-130.4628376952489
 97
        0
 97
        1
330
C2
 75
     2
 76
     1
 98
        1
 10
0.0
 20
0.0
450
        0
451
        0
460
0.0
461
0.0
452
        0
462
0.0
453
        0
470

  0
SPLINE
  5
C4
330
BD
100
AcDbEntity
  8
レイヤー 1
100
AcDbSpline
210
0.0
220
0.0
230
1.0
 70
    11
 71
     3
 72
    17
 73
    13
 74
     0
 42
0.0000000001
 43
0.0000000001
 40
0.0
 40
0.0
 40
0.0
 40
0.0
 40
1.0
 40
1.0
 40
1.0
 40
2.0
 40
2.0
 40
2.0
 40
3.0
 40
3.0
 40
3.0
 40
4.0
 40
4.0
 40
4.0
 40
4.0
 10
98.78880205863614
 20
-130.6406046222878
 30
0.0
 10
98.78880205863614
 20
-130.6406046222878
 30
0.0
 10
98.78880205863614
 20
-130.3889403970902
 30
0.0
 10
98.78880205863614
 20
-130.3889403970902
 30
0.0
 10
98.78880205863614
 20
-130.3889403970902
 30
0.0
 10
99.04046628383364
 20
-130.3889403970902
 30
0.0
 10
99.04046628383364
 20
-130.3889403970902
 30
0.0
 10
99.04046628383364
 20
-130.3889403970902
 30
0.0
 10
99.04046628383364
 20
-130.6406046222878
 30
0.0
 10
99.04046628383364
 20
-130.6406046222878
 30
0.0
 10
99.04046628383364
 20
-130.6406046222878
 30
0.0
 10
98.78880205863614
 20
-130.6406046222878
 30
0.0
 10
98.78880205863614
 20
-130.6406046222878
 30
0.0
  0
HATCH
  5
C5
330
BD
100
AcDbEntity
  8
レイヤー 1
 62
   250
420
  2299925
440
 33554687
100
AcDbHatch
 10
0.0
 20
0.0
 30
0.0
210
0.0
220
0.0
230
1.0
  2
SOLID
 70
     1
 71
     1
 91
        1
 92
        1
 93
        1
 72
     4
 94
        3
 73
     0
 74
     0
 95
       17
 96
       13
 40
0.0
 40
0.0
 40
0.0
 40
0.0
 40
1.0
 40
1.0
 40
1.0
 40
2.0
 40
2.0
 40
2.0
 40
3.0
 40
3.0
 40
3.0
 40
4.0
 40
4.0
 40
4.0
 40
4.0
 10
98.78880205863614
 20
-130.6406046222878
 10
98.78880205863614
 20
-130.6406046222878
 10
98.78880205863614
 20
-130.3889403970902
 10
98.78880205863614
 20
-130.3889403970902
 10
98.78880205863614
 20
-130.3889403970902
 10
99.04046628383364
 20
-130.3889403970902
 10
99.04046628383364
 20
-130.3889403970902
 10
99.04046628383364
 20
-130.3889403970902
 10
99.04046628383364
 20
-130.6406046222878
 10
99.04046628383364
 20
-130.6406046222878
 10
99.04046628383364
 20
-130.6406046222878
 10
98.78880205863614
 20
-130.6406046222878
 10
98.78880205863614
 20
-130.6406046222878
 97
        0
 97
        1
330
C4
 75
     2
 76
     1
 98
        1
 10
0.0
 20
0.0
450
        0
451
        0
460
0.0
461
0.0
452
        0
462
0.0
453
        0
470

  0
SPLINE
  5
C6
330
BD
100
AcDbEntity
  8
レイヤー 1
100
AcDbSpline
210
0.0
220
0.0
230
1.0
 70
    11
 71
     3
 72
    14
 73
    10
 74
     0
 42
0.0000000001
 43
0.0000000001
 40
0.0
 40
0.0
 40
0.0
 40
0.0
 40
1.0
 40
1.0
 40
1.0
 40
2.0
 40
2.0
 40
2.0
 40
3.0
 40
3.0
 40
3.0
 40
3.0
 10
99.89123261391609
 20
-129.4389553170326
 30
0.0
 10
99.89123261391609
 20
-129.4389553170326
 30
0.0
 10
99.43441295257196
 20
-130.0947292426499
 30
0.0
 10
99.43441295257196
 20
-130.0947292426499
 30
0.0
 10
99.43441295257196
 20
-130.0947292426499
 30
0.0
 10
99.89123261391609
 20
-130.0947292426499
 30
0.0
 10
99.89123261391609
 20
-130.0947292426499
 30
0.0
 10
99.89123261391609
 20
-130.0947292426499
 30
0.0
 10
99.89123261391609
 20
-129.4389553170326
 30
0.0
 10
99.89123261391609
 20
-129.4389553170326
 30
0.0
  0
SPLINE
  5
C7
330
BD
100
AcDbEntity
  8
レイヤー 1
100
AcDbSpline
210
0.0
220
0.0
230
1.0
 70
    11
 71
     3
 72
    38
 73
    34
 74
     0
 42
0.0000000001
 43
0.0000000001
 40
0.0
 40
0.0
 40
0.0
 40
0.0
 40
1.0
 40
1.0
 40
1.0
 40
2.0
 40
2.0
 40
2.0
 40
3.0
 40
3.0
 40
3.0
 40
4.0
 40
4.0
 40
4.0
 40
5.0
 40
5.0
 40
5.0
 40
6.0
 40
6.0
 40
6.0
 40
7.0
 40
7.0
 40
7.0
 40
8.0
 40
8.0
 40
8.0
 40
9.0
 40
9.0
 40
9.0
 40
10.0
 40
10.0
 40
10.0
 40
11.0
 40
11.0
 40
11.0
 40
11.0
 10
100.1091349033581
 20
-130.2936835069231
 30
0.0
 10
100.1091349033581
 20
-130.2936835069231
 30
0.0
 10
100.1091349033581
 20
-130.6406046222878
 30
0.0
 10
100.1091349033581
 20
-130.6406046222878
 30
0.0
 10
100.1091349033581
 20
-130.6406046222878
 30
0.0
 10
99.89123261391609
 20
-130.6406046222878
 30
0.0
 10
99.89123261391609
 20
-130.6406046222878
 30
0.0
 10
99.89123261391609
 20
-130.6406046222878
 30
0.0
 10
99.89123261391609
 20
-130.2936835069231
 30
0.0
 10
99.89123261391609
 20
-130.2936835069231
 30
0.0
 10
99.89123261391609
 20
-130.2936835069231
 30
0.0
 10
99.23545868829878
 20
-130.2936835069231
 30
0.0
 10
99.23545868829878
 20
-130.2936835069231
 30
0.0
 10
99.23545868829878
 20
-130.2936835069231
 30
0.0
 10
99.23545868829878
 20
-130.0694077908333
 30
0.0
 10
99.23545868829878
 20
-130.0694077908333
 30
0.0
 10
99.23545868829878
 20
-130.0694077908333
 30
0.0
 10
99.91448700844152
 20
-129.0963405710245
 30
0.0
 10
99.91448700844152
 20
-129.0963405710245
 30
0.0
 10
99.91448700844152
 20
-129.0963405710245
 30
0.0
 10
100.1091349033581
 20
-129.0963405710245
 30
0.0
 10
100.1091349033581
 20
-129.0963405710245
 30
0.0
 10
100.1091349033581
 20
-129.0963405710245
 30
0.0
 10
100.1091349033581
 20
-130.0947292426499
 30
0.0
 10
100.1091349033581
 20
-130.0947292426499
 30
0.0
 10
100.1091349033581
 20
-130.0947292426499
 30
0.0
 10
100.3165296515702
 20
-130.0947292426499
 30
0.0
 10
100.3165296515702
 20
-130.0947292426499
 30
0.0
 10
100.3165296515702
 20
-130.0947292426499
 30
0.0
 10
100.3165296515702
 20
-130.2936835069231
 30
0.0
 10
100.3165296515702
 20
-130.2936835069231
 30
0.0
 10
100.3165296515702
 20
-130.2936835069231
 30
0.0
 10
100.1091349033581
 20
-130.2936835069231
 30
0.0
 10
100.1091349033581
 20
-130.2936835069231
 30
0.0
  0
HATCH
  5
C8
330
BD
100
AcDbEntity
  8
レイヤー 1
 62
   250
420
  2299925
440
 33554687
100
AcDbHatch
 10
0.0
 20
0.0
 30
0.0
210
0.0
220
0.0
230
1.0
  2
SOLID
 70
     1
 71
     1
 91
        2
 92
        1
 93
        1
 72
     4
 94
        3
 73
     0
 74
     0
 95
       14
 96
       10
 40
0.0
 40
0.0
 40
0.0
 40
0.0
 40
1.0
 40
1.0
 40
1.0
 40
2.0
 40
2.0
 40
2.0
 40
3.0
 40
3.0
 40
3.0
 40
3.0
 10
99.89123261391609
 20
-129.4389553170326
 10
99.89123261391609
 20
-129.4389553170326
 10
99.43441295257196
 20
-130.0947292426499
 10
99.43441295257196
 20
-130.0947292426499
 10
99.43441295257196
 20
-130.0947292426499
 10
99.89123261391609
 20
-130.0947292426499
 10
99.89123261391609
 20
-130.0947292426499
 10
99.89123261391609
 20
-130.0947292426499
 10
99.89123261391609
 20
-129.4389553170326
 10
99.89123261391609
 20
-129.4389553170326
 97
        0
 97
        1
330
C6
 92
        1
 93
        1
 72
     4
 94
        3
 73
     0
 74
     0
 95
       38
 96
       34
 40
0.0
 40
0.0
 40
0.0
 40
0.0
 40
1.0
 40
1.0
 40
1.0
 40
2.0
 40
2.0
 40
2.0
 40
3.0
 40
3.0
 40
3.0
 40
4.0
 40
4.0
 40
4.0
 40
5.0
 40
5.0
 40
5.0
 40
6.0
 40
6.0
 40
6.0
 40
7.0
 40
7.0
 40
7.0
 40
8.0
 40
8.0
 40
8.0
 40
9.0
 40
9.0
 40
9.0
 40
10.0
 40
10.0
 40
10.0
 40
11.0
 40
11.0
 40
11.0
 40
11.0
 10
100.1091349033581
 20
-130.2936835069231
 10
100.1091349033581
 20
-130.2936835069231
 10
100.1091349033581
 20
-130.6406046222878
 10
100.1091349033581
 20
-130.6406046222878
 10
100.1091349033581
 20
-130.6406046222878
 10
99.89123261391609
 20
-130.6406046222878
 10
99.89123261391609
 20
-130.6406046222878
 10
99.89123261391609
 20
-130.6406046222878
 10
99.89123261391609
 20
-130.2936835069231
 10
99.89123261391609
 20
-130.2936835069231
 10
99.89123261391609
 20
-130.2936835069231
 10
99.23545868829878
 20
-130.2936835069231
 10
99.23545868829878
 20
-130.2936835069231
 10
99.23545868829878
 20
-130.2936835069231
 10
99.23545868829878
 20
-130.0694077908333
 10
99.23545868829878
 20
-130.0694077908333
 10
99.23545868829878
 20
-130.0694077908333
 10
99.91448700844152
 20
-129.0963405710245
 10
99.91448700844152
 20
-129.0963405710245
 10
99.91448700844152
 20
-129.0963405710245
 10
100.1091349033581
 20
-129.0963405710245
 10
100.1091349033581
 20
-129.0963405710245
 10
100.1091349033581
 20
-129.0963405710245
 10
100.1091349033581
 20
-130.0947292426499
 10
100.1091349033581
 20
-130.0947292426499
 10
100.1091349033581
 20
-130.0947292426499
 10
100.3165296515702
 20
-130.0947292426499
 10
100.3165296515702
 20
-130.0947292426499
 10
100.3165296515702
 20
-130.0947292426499
 10
100.3165296515702
 20
-130.2936835069231
 10
100.3165296515702
 20
-130.2936835069231
 10
100.3165296515702
 20
-130.2936835069231
 10
100.1091349033581
 20
-130.2936835069231
 10
100.1091349033581
 20
-130.2936835069231
 97
        0
 97
        1
330
C7
 75
     2
 76
     1
 98
        1
 10
0.0
 20
0.0
450
        0
451
        0
460
0.0
461
0.0
452
        0
462
0.0
453
        0
470

  0
ENDBLK
  5
C0
330
BD
100
AcDbEntity
  8
0
100
AcDbBlockEnd
  0
BLOCK
  5
CE
330
CC
100
AcDbEntity
  8
0
100
AcDbBlockBegin
  2
Block_7
 70
     0
 10
0.0
 20
0.0
 30
0.0
  3
Block_7
  1

  0
INSERT
  5
D1
330
CC
100
AcDbEntity
  8
レイヤー 1
100
AcDbBlockReference
  2
Block_8
 10
0.0
 20
0.0
 30
0.0
  0
ENDBLK
  5
CF
330
CC
100
AcDbEntity
  8
0
100
AcDbBlockEnd
  0
BLOCK
  5
D2
330
D0
100
AcDbEntity
  8
0
100
AcDbBlockBegin
  2
Block_8
 70
     0
 10
0.0
 20
0.0
 30
0.0
  3
Block_8
  1

  0
SPLINE
  5
D4
330
D0
100
AcDbEntity
  8
レイヤー 1
100
AcDbSpline
210
0.0
220
0.0
230
1.0
 70
     9
 71
     3
 72
    44
 73
    40
 74
     0
 42
0.0000000001
 43
0.0000000001
 40
0.0
 40
0.0
 40
0.0
 40
0.0
 40
1.0
 40
1.0
 40
1.0
 40
2.0
 40
2.0
 40
2.0
 40
3.0
 40
3.0
 40
3.0
 40
4.0
 40
4.0
 40
4.0
 40
5.0
 40
5.0
 40
5.0
 40
6.0
 40
6.0
 40
6.0
 40
7.0
 40
7.0
 40
7.0
 40
8.0
 40
8.0
 40
8.0
 40
9.0
 40
9.0
 40
9.0
 40
10.0
 40
10.0
 40
10.0
 40
11.0
 40
11.0
 40
11.0
 40
12.0
 40
12.0
 40
12.0
 40
13.0
 40
13.0
 40
13.0
 40
13.0
 10
107.295431830815
 20
-166.05877003227
 30
0.0
 10
107.0777017961472
 20
-166.21758893414
 30
0.0
 10
106.9846842180455
 20
-166.2916584870729
 30
0.0
 10
106.9357638621549
 20
-166.4353189688078
 30
0.0
 10
106.9357638621549
 20
-166.4353189688078
 30
0.0
 10
107.7143554418214
 20
-166.4353189688078
 30
0.0
 10
107.7143554418214
 20
-166.4353189688078
 30
0.0
 10
107.7143554418214
 20
-166.4353189688078
 30
0.0
 10
107.7143554418214
 20
-166.6406466597287
 30
0.0
 10
107.7143554418214
 20
-166.6406466597287
 30
0.0
 10
107.7143554418214
 20
-166.6406466597287
 30
0.0
 10
106.6863389490228
 20
-166.6406466597287
 30
0.0
 10
106.6863389490228
 20
-166.6406466597287
 30
0.0
 10
106.7180338274871
 20
-166.2830457483598
 30
0.0
 10
106.7834906417069
 20
-166.2048420808446
 30
0.0
 10
107.1686523169578
 20
-165.906496811822
 30
0.0
 10
107.4246229115119
 20
-165.707714802323
 30
0.0
 10
107.4900797257316
 20
-165.6398464212636
 30
0.0
 10
107.4900797257316
 20
-165.5023871114022
 30
0.0
 10
107.4900797257316
 20
-165.3838758267096
 30
0.0
 10
107.4180772300899
 20
-165.2529621982701
 30
0.0
 10
107.2213622778821
 20
-165.2529621982701
 30
0.0
 10
106.9612575687458
 20
-165.2529621982701
 30
0.0
 10
106.9526448300327
 20
-165.4834390862333
 30
0.0
 10
106.9485107154504
 20
-165.5998833136347
 30
0.0
 10
106.9485107154504
 20
-165.5998833136347
 30
0.0
 10
106.7242349993606
 20
-165.5998833136347
 30
0.0
 10
106.7242349993606
 20
-165.5998833136347
 30
0.0
 10
106.7328477380737
 20
-165.472759290229
 30
0.0
 10
106.743527534078
 20
-165.3607936869584
 30
0.0
 10
106.8237982588843
 20
-165.2422824022658
 30
0.0
 10
106.9336968048638
 20
-165.0813964431046
 30
0.0
 10
107.1200764706158
 20
-165.0476345073492
 30
0.0
 10
107.2361761884687
 20
-165.0476345073492
 30
0.0
 10
107.5135063750313
 20
-165.0476345073492
 30
0.0
 10
107.7209011232434
 20
-165.2316026062615
 30
0.0
 10
107.7209011232434
 20
-165.5044541686933
 30
0.0
 10
107.7209011232434
 20
-165.7332085089139
 30
0.0
 10
107.6044568958419
 20
-165.8324272588891
 30
0.0
 10
107.295431830815
 20
-166.05877003227
 30
0.0
  0
HATCH
  5
D5
330
D0
100
AcDbEntity
  8
レイヤー 1
 62
   250
420
  2299925
440
 33554687
100
AcDbHatch
 10
0.0
 20
0.0
 30
0.0
210
0.0
220
0.0
230
1.0
  2
SOLID
 70
     1
 71
     1
 91
        1
 92
        1
 93
        1
 72
     4
 94
        3
 73
     0
 74
     0
 95
       44
 96
       40
 40
0.0
 40
0.0
 40
0.0
 40
0.0
 40
1.0
 40
1.0
 40
1.0
 40
2.0
 40
2.0
 40
2.0
 40
3.0
 40
3.0
 40
3.0
 40
4.0
 40
4.0
 40
4.0
 40
5.0
 40
5.0
 40
5.0
 40
6.0
 40
6.0
 40
6.0
 40
7.0
 40
7.0
 40
7.0
 40
8.0
 40
8.0
 40
8.0
 40
9.0
 40
9.0
 40
9.0
 40
10.0
 40
10.0
 40
10.0
 40
11.0
 40
11.0
 40
11.0
 40
12.0
 40
12.0
 40
12.0
 40
13.0
 40
13.0
 40
13.0
 40
13.0
 10
107.295431830815
 20
-166.05877003227
 10
107.0777017961472
 20
-166.21758893414
 10
106.9846842180455
 20
-166.2916584870729
 10
106.9357638621549
 20
-166.4353189688078
 10
106.9357638621549
 20
-166.4353189688078
 10
107.7143554418214
 20
-166.4353189688078
 10
107.7143554418214
 20
-166.4353189688078
 10
107.7143554418214
 20
-166.4353189688078
 10
107.7143554418214
 20
-166.6406466597287
 10
107.7143554418214
 20
-166.6406466597287
 10
107.7143554418214
 20
-166.6406466597287
 10
106.6863389490228
 20
-166.6406466597287
 10
106.6863389490228
 20
-166.6406466597287
 10
106.7180338274871
 20
-166.2830457483598
 10
106.7834906417069
 20
-166.2048420808446
 10
107.1686523169578
 20
-165.906496811822
 10
107.4246229115119
 20
-165.707714802323
 10
107.4900797257316
 20
-165.6398464212636
 10
107.4900797257316
 20
-165.5023871114022
 10
107.4900797257316
 20
-165.3838758267096
 10
107.4180772300899
 20
-165.2529621982701
 10
107.2213622778821
 20
-165.2529621982701
 10
106.9612575687458
 20
-165.2529621982701
 10
106.9526448300327
 20
-165.4834390862333
 10
106.9485107154504
 20
-165.5998833136347
 10
106.9485107154504
 20
-165.5998833136347
 10
106.7242349993606
 20
-165.5998833136347
 10
106.7242349993606
 20
-165.5998833136347
 10
106.7328477380737
 20
-165.472759290229
 10
106.743527534078
 20
-165.3607936869584
 10
106.8237982588843
 20
-165.2422824022658
 10
106.9336968048638
 20
-165.0813964431046
 10
107.1200764706158
 20
-165.0476345073492
 10
107.2361761884687
 20
-165.0476345073492
 10
107.5135063750313
 20
-165.0476345073492
 10
107.7209011232434
 20
-165.2316026062615
 10
107.7209011232434
 20
-165.5044541686933
 10
107.7209011232434
 20
-165.7332085089139
 10
107.6044568958419
 20
-165.8324272588891
 10
107.295431830815
 20
-166.05877003227
 97
        0
 97
        1
330
D4
 75
     2
 76
     1
 98
        1
 10
0.0
 20
0.0
450
        0
451
        0
460
0.0
461
0.0
452
        0
462
0.0
453
        0
470

  0
SPLINE
  5
D6
330
D0
100
AcDbEntity
  8
レイヤー 1
100
AcDbSpline
210
0.0
220
0.0
230
1.0
 70
     9
 71
     3
 72
    17
 73
    13
 74
     0
 42
0.0000000001
 43
0.0000000001
 40
0.0
 40
0.0
 40
0.0
 40
0.0
 40
1.0
 40
1.0
 40
1.0
 40
2.0
 40
2.0
 40
2.0
 40
3.0
 40
3.0
 40
3.0
 40
4.0
 40
4.0
 40
4.0
 40
4.0
 10
108.3792588704746
 20
-165.2402153449747
 30
0.0
 10
108.2142387967311
 20
-165.2402153449747
 30
0.0
 10
108.129489447794
 20
-165.3352999803676
 30
0.0
 10
108.129489447794
 20
-165.4706922329379
 30
0.0
 10
108.129489447794
 20
-165.5933376322128
 30
0.0
 10
108.2014919434357
 20
-165.7118489169054
 30
0.0
 10
108.3792588704746
 20
-165.7118489169054
 30
0.0
 10
108.5570257975135
 20
-165.7118489169054
 30
0.0
 10
108.6290282931552
 20
-165.5933376322128
 30
0.0
 10
108.6290282931552
 20
-165.4706922329379
 30
0.0
 10
108.6290282931552
 20
-165.3352999803676
 30
0.0
 10
108.5422118869269
 20
-165.2402153449747
 30
0.0
 10
108.3792588704746
 20
-165.2402153449747
 30
0.0
  0
SPLINE
  5
D7
330
D0
100
AcDbEntity
  8
レイヤー 1
100
AcDbSpline
210
0.0
220
0.0
230
1.0
 70
     9
 71
     3
 72
    17
 73
    13
 74
     0
 42
0.0000000001
 43
0.0000000001
 40
0.0
 40
0.0
 40
0.0
 40
0.0
 40
1.0
 40
1.0
 40
1.0
 40
2.0
 40
2.0
 40
2.0
 40
3.0
 40
3.0
 40
3.0
 40
4.0
 40
4.0
 40
4.0
 40
4.0
 10
108.3792588704746
 20
-165.9002956399485
 30
0.0
 10
108.2355983887397
 20
-165.9002956399485
 30
0.0
 10
108.0829806587431
 20
-165.9871120461768
 30
0.0
 10
108.0829806587431
 20
-166.190028170258
 30
0.0
 10
108.0829806587431
 20
-166.3953558611789
 30
0.0
 10
108.2101046821488
 20
-166.4966416684453
 30
0.0
 10
108.3792588704746
 20
-166.4966416684453
 30
0.0
 10
108.5652940266781
 20
-166.4966416684453
 30
0.0
 10
108.6755370822061
 20
-166.3739962691704
 30
0.0
 10
108.6755370822061
 20
-166.1962293421315
 30
0.0
 10
108.6755370822061
 20
-165.9743651928814
 30
0.0
 10
108.5125840657538
 20
-165.9002956399485
 30
0.0
 10
108.3792588704746
 20
-165.9002956399485
 30
0.0
  0
SPLINE
  5
D8
330
D0
100
AcDbEntity
  8
レイヤー 1
100
AcDbSpline
210
0.0
220
0.0
230
1.0
 70
     9
 71
     3
 72
    29
 73
    25
 74
     0
 42
0.0000000001
 43
0.0000000001
 40
0.0
 40
0.0
 40
0.0
 40
0.0
 40
1.0
 40
1.0
 40
1.0
 40
2.0
 40
2.0
 40
2.0
 40
3.0
 40
3.0
 40
3.0
 40
4.0
 40
4.0
 40
4.0
 40
5.0
 40
5.0
 40
5.0
 40
6.0
 40
6.0
 40
6.0
 40
7.0
 40
7.0
 40
7.0
 40
8.0
 40
8.0
 40
8.0
 40
8.0
 10
108.3792588704746
 20
-166.6912895633619
 30
0.0
 10
108.1126084799163
 20
-166.6912895633619
 30
0.0
 10
107.8587049426534
 20
-166.5538302535004
 30
0.0
 10
107.8587049426534
 20
-166.2048420808446
 30
0.0
 10
107.8587049426534
 20
-165.9488714862905
 30
0.0
 10
108.0006428766457
 20
-165.8537868508977
 30
0.0
 10
108.1064073080428
 20
-165.7924641512602
 30
0.0
 10
107.9816948514768
 20
-165.7332085089139
 30
0.0
 10
107.9055582412528
 20
-165.6188313388036
 30
0.0
 10
107.9055582412528
 20
-165.4579453796424
 30
0.0
 10
107.9055582412528
 20
-165.1830267599195
 30
0.0
 10
108.1043402507517
 20
-165.0476345073492
 30
0.0
 10
108.3792588704746
 20
-165.0476345073492
 30
0.0
 10
108.6627902289107
 20
-165.0476345073492
 30
0.0
 10
108.853304009245
 20
-165.1916394986326
 30
0.0
 10
108.853304009245
 20
-165.4579453796424
 30
0.0
 10
108.853304009245
 20
-165.6188313388036
 30
0.0
 10
108.7747558321813
 20
-165.7332085089139
 30
0.0
 10
108.6500433756153
 20
-165.7924641512602
 30
0.0
 10
108.7389268391347
 20
-165.8431070548934
 30
0.0
 10
108.8977457410047
 20
-165.9381916902863
 30
0.0
 10
108.8977457410047
 20
-166.2007079662623
 30
0.0
 10
108.8977457410047
 20
-166.575189845509
 30
0.0
 10
108.6183484971509
 20
-166.6912895633619
 30
0.0
 10
108.3792588704746
 20
-166.6912895633619
 30
0.0
  0
HATCH
  5
D9
330
D0
100
AcDbEntity
  8
レイヤー 1
 62
   250
420
  2299925
440
 33554687
100
AcDbHatch
 10
0.0
 20
0.0
 30
0.0
210
0.0
220
0.0
230
1.0
  2
SOLID
 70
     1
 71
     1
 91
        3
 92
        1
 93
        1
 72
     4
 94
        3
 73
     0
 74
     0
 95
       17
 96
       13
 40
0.0
 40
0.0
 40
0.0
 40
0.0
 40
1.0
 40
1.0
 40
1.0
 40
2.0
 40
2.0
 40
2.0
 40
3.0
 40
3.0
 40
3.0
 40
4.0
 40
4.0
 40
4.0
 40
4.0
 10
108.3792588704746
 20
-165.2402153449747
 10
108.2142387967311
 20
-165.2402153449747
 10
108.129489447794
 20
-165.3352999803676
 10
108.129489447794
 20
-165.4706922329379
 10
108.129489447794
 20
-165.5933376322128
 10
108.2014919434357
 20
-165.7118489169054
 10
108.3792588704746
 20
-165.7118489169054
 10
108.5570257975135
 20
-165.7118489169054
 10
108.6290282931552
 20
-165.5933376322128
 10
108.6290282931552
 20
-165.4706922329379
 10
108.6290282931552
 20
-165.3352999803676
 10
108.5422118869269
 20
-165.2402153449747
 10
108.3792588704746
 20
-165.2402153449747
 97
        0
 97
        1
330
D6
 92
        1
 93
        1
 72
     4
 94
        3
 73
     0
 74
     0
 95
       17
 96
       13
 40
0.0
 40
0.0
 40
0.0
 40
0.0
 40
1.0
 40
1.0
 40
1.0
 40
2.0
 40
2.0
 40
2.0
 40
3.0
 40
3.0
 40
3.0
 40
4.0
 40
4.0
 40
4.0
 40
4.0
 10
108.3792588704746
 20
-165.9002956399485
 10
108.2355983887397
 20
-165.9002956399485
 10
108.0829806587431
 20
-165.9871120461768
 10
108.0829806587431
 20
-166.190028170258
 10
108.0829806587431
 20
-166.3953558611789
 10
108.2101046821488
 20
-166.4966416684453
 10
108.3792588704746
 20
-166.4966416684453
 10
108.5652940266781
 20
-166.4966416684453
 10
108.6755370822061
 20
-166.3739962691704
 10
108.6755370822061
 20
-166.1962293421315
 10
108.6755370822061
 20
-165.9743651928814
 10
108.5125840657538
 20
-165.9002956399485
 10
108.3792588704746
 20
-165.9002956399485
 97
        0
 97
        1
330
D7
 92
        1
 93
        1
 72
     4
 94
        3
 73
     0
 74
     0
 95
       29
 96
       25
 40
0.0
 40
0.0
 40
0.0
 40
0.0
 40
1.0
 40
1.0
 40
1.0
 40
2.0
 40
2.0
 40
2.0
 40
3.0
 40
3.0
 40
3.0
 40
4.0
 40
4.0
 40
4.0
 40
5.0
 40
5.0
 40
5.0
 40
6.0
 40
6.0
 40
6.0
 40
7.0
 40
7.0
 40
7.0
 40
8.0
 40
8.0
 40
8.0
 40
8.0
 10
108.3792588704746
 20
-166.6912895633619
 10
108.1126084799163
 20
-166.6912895633619
 10
107.8587049426534
 20
-166.5538302535004
 10
107.8587049426534
 20
-166.2048420808446
 10
107.8587049426534
 20
-165.9488714862905
 10
108.0006428766457
 20
-165.8537868508977
 10
108.1064073080428
 20
-165.7924641512602
 10
107.9816948514768
 20
-165.7332085089139
 10
107.9055582412528
 20
-165.6188313388036
 10
107.9055582412528
 20
-165.4579453796424
 10
107.9055582412528
 20
-165.1830267599195
 10
108.1043402507517
 20
-165.0476345073492
 10
108.3792588704746
 20
-165.0476345073492
 10
108.6627902289107
 20
-165.0476345073492
 10
108.853304009245
 20
-165.1916394986326
 10
108.853304009245
 20
-165.4579453796424
 10
108.853304009245
 20
-165.6188313388036
 10
108.7747558321813
 20
-165.7332085089139
 10
108.6500433756153
 20
-165.7924641512602
 10
108.7389268391347
 20
-165.8431070548934
 10
108.8977457410047
 20
-165.9381916902863
 10
108.8977457410047
 20
-166.2007079662623
 10
108.8977457410047
 20
-166.575189845509
 10
108.6183484971509
 20
-166.6912895633619
 10
108.3792588704746
 20
-166.6912895633619
 97
        0
 97
        1
330
D8
 75
     2
 76
     1
 98
        1
 10
0.0
 20
0.0
450
        0
451
        0
460
0.0
461
0.0
452
        0
462
0.0
453
        0
470

  0
ENDBLK
  5
D3
330
D0
100
AcDbEntity
  8
0
100
AcDbBlockEnd
  0
BLOCK
  5
DF
330
DD
100
AcDbEntity
  8
0
100
AcDbBlockBegin
  2
Block_9
 70
     0
 10
0.0
 20
0.0
 30
0.0
  3
Block_9
  1

  0
INSERT
  5
E2
330
DD
100
AcDbEntity
  8
レイヤー 1
100
AcDbBlockReference
  2
Block_10
 10
0.0
 20
0.0
 30
0.0
  0
ENDBLK
  5
E0
330
DD
100
AcDbEntity
  8
0
100
AcDbBlockEnd
  0
BLOCK
  5
E3
330
E1
100
AcDbEntity
  8
0
100
AcDbBlockBegin
  2
Block_10
 70
     0
 10
0.0
 20
0.0
 30
0.0
  3
Block_10
  1

  0
SPLINE
  5
E5
330
E1
100
AcDbEntity
  8
レイヤー 1
100
AcDbSpline
210
0.0
220
0.0
230
1.0
 70
     9
 71
     3
 72
    44
 73
    40
 74
     0
 42
0.0000000001
 43
0.0000000001
 40
0.0
 40
0.0
 40
0.0
 40
0.0
 40
1.0
 40
1.0
 40
1.0
 40
2.0
 40
2.0
 40
2.0
 40
3.0
 40
3.0
 40
3.0
 40
4.0
 40
4.0
 40
4.0
 40
5.0
 40
5.0
 40
5.0
 40
6.0
 40
6.0
 40
6.0
 40
7.0
 40
7.0
 40
7.0
 40
8.0
 40
8.0
 40
8.0
 40
9.0
 40
9.0
 40
9.0
 40
10.0
 40
10.0
 40
10.0
 40
11.0
 40
11.0
 40
11.0
 40
12.0
 40
12.0
 40
12.0
 40
13.0
 40
13.0
 40
13.0
 40
13.0
 10
88.57185463280496
 20
-149.925387874845
 30
0.0
 10
88.73050127990071
 20
-150.1431179095128
 30
0.0
 10
88.80457083283358
 20
-150.2361354876146
 30
0.0
 10
88.94840356934276
 20
-150.2850558435051
 30
0.0
 10
88.94840356934276
 20
-150.2850558435051
 30
0.0
 10
88.94840356934276
 20
-149.5064642638386
 30
0.0
 10
88.94840356934276
 20
-149.5064642638386
 30
0.0
 10
88.94840356934276
 20
-149.5064642638386
 30
0.0
 10
89.1535590054894
 20
-149.5064642638386
 30
0.0
 10
89.1535590054894
 20
-149.5064642638386
 30
0.0
 10
89.1535590054894
 20
-149.5064642638386
 30
0.0
 10
89.1535590054894
 20
-150.5344807566372
 30
0.0
 10
89.1535590054894
 20
-150.5344807566372
 30
0.0
 10
88.79595809412046
 20
-150.5027858781729
 30
0.0
 10
88.71775442660528
 20
-150.4373290639532
 30
0.0
 10
88.41940915758264
 20
-150.0521673887022
 30
0.0
 10
88.22062714808373
 20
-149.7961967941482
 30
0.0
 10
88.15293102179857
 20
-149.7307399799284
 30
0.0
 10
88.0154717119371
 20
-149.7307399799284
 30
0.0
 10
87.8969604272445
 20
-149.7307399799284
 30
0.0
 10
87.76587454403076
 20
-149.8027424755701
 30
0.0
 10
87.76587454403076
 20
-149.9994574277779
 30
0.0
 10
87.76587454403076
 20
-150.2595621369142
 30
0.0
 10
87.99635143199397
 20
-150.2681748756274
 30
0.0
 10
88.11279565939541
 20
-150.2723089902097
 30
0.0
 10
88.11279565939541
 20
-150.2723089902097
 30
0.0
 10
88.11279565939541
 20
-150.4965847062995
 30
0.0
 10
88.11279565939541
 20
-150.4965847062995
 30
0.0
 10
87.98584389076395
 20
-150.4879719675863
 30
0.0
 10
87.87370603271908
 20
-150.477292171582
 30
0.0
 10
87.75519474802647
 20
-150.3970214467757
 30
0.0
 10
87.59448104363958
 20
-150.2871229007963
 30
0.0
 10
87.56054685310987
 20
-150.1007432350442
 30
0.0
 10
87.56054685310987
 20
-149.9846435171913
 30
0.0
 10
87.56054685310987
 20
-149.7073133306287
 30
0.0
 10
87.74468720679648
 20
-149.4999185824167
 30
0.0
 10
88.01753876922825
 20
-149.4999185824167
 30
0.0
 10
88.24594859990032
 20
-149.4999185824167
 30
0.0
 10
88.34551185942403
 20
-149.6163628098181
 30
0.0
 10
88.57185463280496
 20
-149.925387874845
 30
0.0
  0
HATCH
  5
E6
330
E1
100
AcDbEntity
  8
レイヤー 1
 62
   250
420
  2299925
440
 33554687
100
AcDbHatch
 10
0.0
 20
0.0
 30
0.0
210
0.0
220
0.0
230
1.0
  2
SOLID
 70
     1
 71
     1
 91
        1
 92
        1
 93
        1
 72
     4
 94
        3
 73
     0
 74
     0
 95
       44
 96
       40
 40
0.0
 40
0.0
 40
0.0
 40
0.0
 40
1.0
 40
1.0
 40
1.0
 40
2.0
 40
2.0
 40
2.0
 40
3.0
 40
3.0
 40
3.0
 40
4.0
 40
4.0
 40
4.0
 40
5.0
 40
5.0
 40
5.0
 40
6.0
 40
6.0
 40
6.0
 40
7.0
 40
7.0
 40
7.0
 40
8.0
 40
8.0
 40
8.0
 40
9.0
 40
9.0
 40
9.0
 40
10.0
 40
10.0
 40
10.0
 40
11.0
 40
11.0
 40
11.0
 40
12.0
 40
12.0
 40
12.0
 40
13.0
 40
13.0
 40
13.0
 40
13.0
 10
88.57185463280496
 20
-149.925387874845
 10
88.73050127990071
 20
-150.1431179095128
 10
88.80457083283358
 20
-150.2361354876146
 10
88.94840356934276
 20
-150.2850558435051
 10
88.94840356934276
 20
-150.2850558435051
 10
88.94840356934276
 20
-149.5064642638386
 10
88.94840356934276
 20
-149.5064642638386
 10
88.94840356934276
 20
-149.5064642638386
 10
89.1535590054894
 20
-149.5064642638386
 10
89.1535590054894
 20
-149.5064642638386
 10
89.1535590054894
 20
-149.5064642638386
 10
89.1535590054894
 20
-150.5344807566372
 10
89.1535590054894
 20
-150.5344807566372
 10
88.79595809412046
 20
-150.5027858781729
 10
88.71775442660528
 20
-150.4373290639532
 10
88.41940915758264
 20
-150.0521673887022
 10
88.22062714808373
 20
-149.7961967941482
 10
88.15293102179857
 20
-149.7307399799284
 10
88.0154717119371
 20
-149.7307399799284
 10
87.8969604272445
 20
-149.7307399799284
 10
87.76587454403076
 20
-149.8027424755701
 10
87.76587454403076
 20
-149.9994574277779
 10
87.76587454403076
 20
-150.2595621369142
 10
87.99635143199397
 20
-150.2681748756274
 10
88.11279565939541
 20
-150.2723089902097
 10
88.11279565939541
 20
-150.2723089902097
 10
88.11279565939541
 20
-150.4965847062995
 10
88.11279565939541
 20
-150.4965847062995
 10
87.98584389076395
 20
-150.4879719675863
 10
87.87370603271908
 20
-150.477292171582
 10
87.75519474802647
 20
-150.3970214467757
 10
87.59448104363958
 20
-150.2871229007963
 10
87.56054685310987
 20
-150.1007432350442
 10
87.56054685310987
 20
-149.9846435171913
 10
87.56054685310987
 20
-149.7073133306287
 10
87.74468720679648
 20
-149.4999185824167
 10
88.01753876922825
 20
-149.4999185824167
 10
88.24594859990032
 20
-149.4999185824167
 10
88.34551185942403
 20
-149.6163628098181
 10
88.57185463280496
 20
-149.925387874845
 97
        0
 97
        1
330
E5
 75
     2
 76
     1
 98
        1
 10
0.0
 20
0.0
450
        0
451
        0
460
0.0
461
0.0
452
        0
462
0.0
453
        0
470

  0
SPLINE
  5
E7
330
E1
100
AcDbEntity
  8
レイヤー 1
100
AcDbSpline
210
0.0
220
0.0
230
1.0
 70
     9
 71
     3
 72
    17
 73
    13
 74
     0
 42
0.0000000001
 43
0.0000000001
 40
0.0
 40
0.0
 40
0.0
 40
0.0
 40
1.0
 40
1.0
 40
1.0
 40
2.0
 40
2.0
 40
2.0
 40
3.0
 40
3.0
 40
3.0
 40
4.0
 40
4.0
 40
4.0
 40
4.0
 10
88.41320798570921
 20
-148.8415608351854
 30
0.0
 10
88.41320798570921
 20
-148.9852213169203
 30
0.0
 10
88.49985213716323
 20
-149.1378390469169
 30
0.0
 10
88.70294051601872
 20
-149.1378390469169
 30
0.0
 10
88.90809595216534
 20
-149.1378390469169
 30
0.0
 10
89.00972626898022
 20
-149.0107150235112
 30
0.0
 10
89.00972626898022
 20
-148.8415608351854
 30
0.0
 10
89.00972626898022
 20
-148.6555256789819
 30
0.0
 10
88.88708086970531
 20
-148.5452826234539
 30
0.0
 10
88.70931394266643
 20
-148.5452826234539
 30
0.0
 10
88.4871052838678
 20
-148.5452826234539
 30
0.0
 10
88.41320798570921
 20
-148.7082356399063
 30
0.0
 10
88.41320798570921
 20
-148.8415608351854
 30
0.0
  0
SPLINE
  5
E8
330
E1
100
AcDbEntity
  8
レイヤー 1
100
AcDbSpline
210
0.0
220
0.0
230
1.0
 70
     9
 71
     3
 72
    17
 73
    13
 74
     0
 42
0.0000000001
 43
0.0000000001
 40
0.0
 40
0.0
 40
0.0
 40
0.0
 40
1.0
 40
1.0
 40
1.0
 40
2.0
 40
2.0
 40
2.0
 40
3.0
 40
3.0
 40
3.0
 40
4.0
 40
4.0
 40
4.0
 40
4.0
 10
87.75312769073535
 20
-148.8415608351854
 30
0.0
 10
87.75312769073535
 20
-149.0065809089289
 30
0.0
 10
87.84821232612824
 20
-149.091330257866
 30
0.0
 10
87.98360457869854
 20
-149.091330257866
 30
0.0
 10
88.1064222327477
 20
-149.091330257866
 30
0.0
 10
88.22493351744029
 20
-149.0193277622243
 30
0.0
 10
88.22493351744029
 20
-148.8415608351854
 30
0.0
 10
88.22493351744029
 20
-148.6637939081465
 30
0.0
 10
88.1064222327477
 20
-148.5917914125048
 30
0.0
 10
87.98360457869854
 20
-148.5917914125048
 30
0.0
 10
87.84821232612824
 20
-148.5917914125048
 30
0.0
 10
87.75312769073535
 20
-148.6786078187331
 30
0.0
 10
87.75312769073535
 20
-148.8415608351854
 30
0.0
  0
SPLINE
  5
E9
330
E1
100
AcDbEntity
  8
レイヤー 1
100
AcDbSpline
210
0.0
220
0.0
230
1.0
 70
     9
 71
     3
 72
    29
 73
    25
 74
     0
 42
0.0000000001
 43
0.0000000001
 40
0.0
 40
0.0
 40
0.0
 40
0.0
 40
1.0
 40
1.0
 40
1.0
 40
2.0
 40
2.0
 40
2.0
 40
3.0
 40
3.0
 40
3.0
 40
4.0
 40
4.0
 40
4.0
 40
5.0
 40
5.0
 40
5.0
 40
6.0
 40
6.0
 40
6.0
 40
7.0
 40
7.0
 40
7.0
 40
8.0
 40
8.0
 40
8.0
 40
8.0
 10
89.20437416389683
 20
-148.8415608351854
 30
0.0
 10
89.20437416389683
 20
-149.1082112257438
 30
0.0
 10
89.06674259926109
 20
-149.3621147630067
 30
0.0
 10
88.71775442660528
 20
-149.3621147630067
 30
0.0
 10
88.46178383205122
 20
-149.3621147630067
 30
0.0
 10
88.36652694188407
 20
-149.2201768290144
 30
0.0
 10
88.30520424224662
 20
-149.1144123976172
 30
0.0
 10
88.24594859990032
 20
-149.2391248541832
 30
0.0
 10
88.13174368456428
 20
-149.3152614644073
 30
0.0
 10
87.9710299801774
 20
-149.3152614644073
 30
0.0
 10
87.69593910568017
 20
-149.3152614644073
 30
0.0
 10
87.56054685310987
 20
-149.1164794549083
 30
0.0
 10
87.56054685310987
 20
-148.8415608351854
 30
0.0
 10
87.56054685310987
 20
-148.5580294767494
 30
0.0
 10
87.70437958961904
 20
-148.367515696415
 30
0.0
 10
87.9710299801774
 20
-148.367515696415
 30
0.0
 10
88.13174368456428
 20
-148.367515696415
 30
0.0
 10
88.24594859990032
 20
-148.4460638734788
 30
0.0
 10
88.30520424224662
 20
-148.5707763300448
 30
0.0
 10
88.35601940065405
 20
-148.4818928665253
 30
0.0
 10
88.45127629082121
 20
-148.3230739646553
 30
0.0
 10
88.71362031202298
 20
-148.3230739646553
 30
0.0
 10
89.08792993649539
 20
-148.3230739646553
 30
0.0
 10
89.20437416389683
 20
-148.6024712085091
 30
0.0
 10
89.20437416389683
 20
-148.8415608351854
 30
0.0
  0
HATCH
  5
EA
330
E1
100
AcDbEntity
  8
レイヤー 1
 62
   250
420
  2299925
440
 33554687
100
AcDbHatch
 10
0.0
 20
0.0
 30
0.0
210
0.0
220
0.0
230
1.0
  2
SOLID
 70
     1
 71
     1
 91
        3
 92
        1
 93
        1
 72
     4
 94
        3
 73
     0
 74
     0
 95
       17
 96
       13
 40
0.0
 40
0.0
 40
0.0
 40
0.0
 40
1.0
 40
1.0
 40
1.0
 40
2.0
 40
2.0
 40
2.0
 40
3.0
 40
3.0
 40
3.0
 40
4.0
 40
4.0
 40
4.0
 40
4.0
 10
88.41320798570921
 20
-148.8415608351854
 10
88.41320798570921
 20
-148.9852213169203
 10
88.49985213716323
 20
-149.1378390469169
 10
88.70294051601872
 20
-149.1378390469169
 10
88.90809595216534
 20
-149.1378390469169
 10
89.00972626898022
 20
-149.0107150235112
 10
89.00972626898022
 20
-148.8415608351854
 10
89.00972626898022
 20
-148.6555256789819
 10
88.88708086970531
 20
-148.5452826234539
 10
88.70931394266643
 20
-148.5452826234539
 10
88.4871052838678
 20
-148.5452826234539
 10
88.41320798570921
 20
-148.7082356399063
 10
88.41320798570921
 20
-148.8415608351854
 97
        0
 97
        1
330
E7
 92
        1
 93
        1
 72
     4
 94
        3
 73
     0
 74
     0
 95
       17
 96
       13
 40
0.0
 40
0.0
 40
0.0
 40
0.0
 40
1.0
 40
1.0
 40
1.0
 40
2.0
 40
2.0
 40
2.0
 40
3.0
 40
3.0
 40
3.0
 40
4.0
 40
4.0
 40
4.0
 40
4.0
 10
87.75312769073535
 20
-148.8415608351854
 10
87.75312769073535
 20
-149.0065809089289
 10
87.84821232612824
 20
-149.091330257866
 10
87.98360457869854
 20
-149.091330257866
 10
88.1064222327477
 20
-149.091330257866
 10
88.22493351744029
 20
-149.0193277622243
 10
88.22493351744029
 20
-148.8415608351854
 10
88.22493351744029
 20
-148.6637939081465
 10
88.1064222327477
 20
-148.5917914125048
 10
87.98360457869854
 20
-148.5917914125048
 10
87.84821232612824
 20
-148.5917914125048
 10
87.75312769073535
 20
-148.6786078187331
 10
87.75312769073535
 20
-148.8415608351854
 97
        0
 97
        1
330
E8
 92
        1
 93
        1
 72
     4
 94
        3
 73
     0
 74
     0
 95
       29
 96
       25
 40
0.0
 40
0.0
 40
0.0
 40
0.0
 40
1.0
 40
1.0
 40
1.0
 40
2.0
 40
2.0
 40
2.0
 40
3.0
 40
3.0
 40
3.0
 40
4.0
 40
4.0
 40
4.0
 40
5.0
 40
5.0
 40
5.0
 40
6.0
 40
6.0
 40
6.0
 40
7.0
 40
7.0
 40
7.0
 40
8.0
 40
8.0
 40
8.0
 40
8.0
 10
89.20437416389683
 20
-148.8415608351854
 10
89.20437416389683
 20
-149.1082112257438
 10
89.06674259926109
 20
-149.3621147630067
 10
88.71775442660528
 20
-149.3621147630067
 10
88.46178383205122
 20
-149.3621147630067
 10
88.36652694188407
 20
-149.2201768290144
 10
88.30520424224662
 20
-149.1144123976172
 10
88.24594859990032
 20
-149.2391248541832
 10
88.13174368456428
 20
-149.3152614644073
 10
87.9710299801774
 20
-149.3152614644073
 10
87.69593910568017
 20
-149.3152614644073
 10
87.56054685310987
 20
-149.1164794549083
 10
87.56054685310987
 20
-148.8415608351854
 10
87.56054685310987
 20
-148.5580294767494
 10
87.70437958961904
 20
-148.367515696415
 10
87.9710299801774
 20
-148.367515696415
 10
88.13174368456428
 20
-148.367515696415
 10
88.24594859990032
 20
-148.4460638734788
 10
88.30520424224662
 20
-148.5707763300448
 10
88.35601940065405
 20
-148.4818928665253
 10
88.45127629082121
 20
-148.3230739646553
 10
88.71362031202298
 20
-148.3230739646553
 10
89.08792993649539
 20
-148.3230739646553
 10
89.20437416389683
 20
-148.6024712085091
 10
89.20437416389683
 20
-148.8415608351854
 97
        0
 97
        1
330
E9
 75
     2
 76
     1
 98
        1
 10
0.0
 20
0.0
450
        0
451
        0
460
0.0
461
0.0
452
        0
462
0.0
453
        0
470

  0
ENDBLK
  5
E4
330
E1
100
AcDbEntity
  8
0
100
AcDbBlockEnd
  0
BLOCK
  5
F7
330
F5
100
AcDbEntity
  8
0
100
AcDbBlockBegin
  2
Block_11
 70
     0
 10
0.0
 20
0.0
 30
0.0
  3
Block_11
  1

  0
INSERT
  5
FA
330
F5
100
AcDbEntity
  8
レイヤー 1
100
AcDbBlockReference
  2
Block_12
 10
0.0
 20
0.0
 30
0.0
  0
ENDBLK
  5
F8
330
F5
100
AcDbEntity
  8
0
100
AcDbBlockEnd
  0
BLOCK
  5
FB
330
F9
100
AcDbEntity
  8
0
100
AcDbBlockBegin
  2
Block_12
 70
     0
 10
0.0
 20
0.0
 30
0.0
  3
Block_12
  1

  0
SPLINE
  5
FD
330
F9
100
AcDbEntity
  8
レイヤー 1
100
AcDbSpline
210
0.0
220
0.0
230
1.0
 70
     9
 71
     3
 72
    17
 73
    13
 74
     0
 42
0.0000000001
 43
0.0000000001
 40
0.0
 40
0.0
 40
0.0
 40
0.0
 40
1.0
 40
1.0
 40
1.0
 40
2.0
 40
2.0
 40
2.0
 40
3.0
 40
3.0
 40
3.0
 40
4.0
 40
4.0
 40
4.0
 40
4.0
 10
101.0246690285633
 20
-153.4514431039982
 30
0.0
 10
101.0098551179767
 20
-153.4810709251714
 30
0.0
 10
100.965413386217
 20
-153.5740885032731
 30
0.0
 10
100.9564561379553
 20
-153.593036528442
 30
0.0
 10
101.1228542498929
 20
-153.6522921707883
 30
0.0
 10
101.1414577655132
 20
-153.6588378522103
 30
0.0
 10
101.2045030128933
 20
-153.6863986160923
 30
0.0
 10
101.2527343496868
 20
-153.599582209864
 30
0.0
 10
101.2730604130498
 20
-153.5255126569311
 30
0.0
 10
101.2858072663452
 20
-153.4514431039982
 30
0.0
 10
101.2858072663452
 20
-153.4514431039982
 30
0.0
 10
101.0246690285633
 20
-153.4514431039982
 30
0.0
 10
101.0246690285633
 20
-153.4514431039982
 30
0.0
  0
SPLINE
  5
FE
330
F9
100
AcDbEntity
  8
レイヤー 1
100
AcDbSpline
210
0.0
220
0.0
230
1.0
 70
    11
 71
     3
 72
    20
 73
    16
 74
     0
 42
0.0000000001
 43
0.0000000001
 40
0.0
 40
0.0
 40
0.0
 40
0.0
 40
1.0
 40
1.0
 40
1.0
 40
2.0
 40
2.0
 40
2.0
 40
3.0
 40
3.0
 40
3.0
 40
4.0
 40
4.0
 40
4.0
 40
5.0
 40
5.0
 40
5.0
 40
5.0
 10
100.9692029912507
 20
-152.6011935382386
 30
0.0
 10
100.9692029912507
 20
-152.6011935382386
 30
0.0
 10
100.9412977178202
 20
-152.6011935382386
 30
0.0
 10
100.9412977178202
 20
-152.6011935382386
 30
0.0
 10
100.9822943540947
 20
-152.7004122882138
 30
0.0
 10
101.0098551179767
 20
-152.7806830130201
 30
0.0
 10
101.0394829391498
 20
-152.9078070364258
 30
0.0
 10
101.0394829391498
 20
-152.9078070364258
 30
0.0
 10
101.2210394712225
 20
-152.9078070364258
 30
0.0
 10
101.2210394712225
 20
-152.9078070364258
 30
0.0
 10
101.248944744653
 20
-152.8147894583241
 30
0.0
 10
101.269270808016
 20
-152.7300401093869
 30
0.0
 10
101.289596871379
 20
-152.6011935382386
 30
0.0
 10
101.289596871379
 20
-152.6011935382386
 30
0.0
 10
100.9692029912507
 20
-152.6011935382386
 30
0.0
 10
100.9692029912507
 20
-152.6011935382386
 30
0.0
  0
SPLINE
  5
FF
330
F9
100
AcDbEntity
  8
レイヤー 1
100
AcDbSpline
210
0.0
220
0.0
230
1.0
 70
     9
 71
     3
 72
   242
 73
   238
 74
     0
 42
0.0000000001
 43
0.0000000001
 40
0.0
 40
0.0
 40
0.0
 40
0.0
 40
1.0
 40
1.0
 40
1.0
 40
2.0
 40
2.0
 40
2.0
 40
3.0
 40
3.0
 40
3.0
 40
4.0
 40
4.0
 40
4.0
 40
5.0
 40
5.0
 40
5.0
 40
6.0
 40
6.0
 40
6.0
 40
7.0
 40
7.0
 40
7.0
 40
8.0
 40
8.0
 40
8.0
 40
9.0
 40
9.0
 40
9.0
 40
10.0
 40
10.0
 40
10.0
 40
11.0
 40
11.0
 40
11.0
 40
12.0
 40
12.0
 40
12.0
 40
13.0
 40
13.0
 40
13.0
 40
14.0
 40
14.0
 40
14.0
 40
15.0
 40
15.0
 40
15.0
 40
16.0
 40
16.0
 40
16.0
 40
17.0
 40
17.0
 40
17.0
 40
18.0
 40
18.0
 40
18.0
 40
19.0
 40
19.0
 40
19.0
 40
20.0
 40
20.0
 40
20.0
 40
21.0
 40
21.0
 40
21.0
 40
22.0
 40
22.0
 40
22.0
 40
23.0
 40
23.0
 40
23.0
 40
24.0
 40
24.0
 40
24.0
 40
25.0
 40
25.0
 40
25.0
 40
26.0
 40
26.0
 40
26.0
 40
27.0
 40
27.0
 40
27.0
 40
28.0
 40
28.0
 40
28.0
 40
29.0
 40
29.0
 40
29.0
 40
30.0
 40
30.0
 40
30.0
 40
31.0
 40
31.0
 40
31.0
 40
32.0
 40
32.0
 40
32.0
 40
33.0
 40
33.0
 40
33.0
 40
34.0
 40
34.0
 40
34.0
 40
35.0
 40
35.0
 40
35.0
 40
36.0
 40
36.0
 40
36.0
 40
37.0
 40
37.0
 40
37.0
 40
38.0
 40
38.0
 40
38.0
 40
39.0
 40
39.0
 40
39.0
 40
40.0
 40
40.0
 40
40.0
 40
41.0
 40
41.0
 40
41.0
 40
42.0
 40
42.0
 40
42.0
 40
43.0
 40
43.0
 40
43.0
 40
44.0
 40
44.0
 40
44.0
 40
45.0
 40
45.0
 40
45.0
 40
46.0
 40
46.0
 40
46.0
 40
47.0
 40
47.0
 40
47.0
 40
48.0
 40
48.0
 40
48.0
 40
49.0
 40
49.0
 40
49.0
 40
50.0
 40
50.0
 40
50.0
 40
51.0
 40
51.0
 40
51.0
 40
52.0
 40
52.0
 40
52.0
 40
53.0
 40
53.0
 40
53.0
 40
54.0
 40
54.0
 40
54.0
 40
55.0
 40
55.0
 40
55.0
 40
56.0
 40
56.0
 40
56.0
 40
57.0
 40
57.0
 40
57.0
 40
58.0
 40
58.0
 40
58.0
 40
59.0
 40
59.0
 40
59.0
 40
60.0
 40
60.0
 40
60.0
 40
61.0
 40
61.0
 40
61.0
 40
62.0
 40
62.0
 40
62.0
 40
63.0
 40
63.0
 40
63.0
 40
64.0
 40
64.0
 40
64.0
 40
65.0
 40
65.0
 40
65.0
 40
66.0
 40
66.0
 40
66.0
 40
67.0
 40
67.0
 40
67.0
 40
68.0
 40
68.0
 40
68.0
 40
69.0
 40
69.0
 40
69.0
 40
70.0
 40
70.0
 40
70.0
 40
71.0
 40
71.0
 40
71.0
 40
72.0
 40
72.0
 40
72.0
 40
73.0
 40
73.0
 40
73.0
 40
74.0
 40
74.0
 40
74.0
 40
75.0
 40
75.0
 40
75.0
 40
76.0
 40
76.0
 40
76.0
 40
77.0
 40
77.0
 40
77.0
 40
78.0
 40
78.0
 40
78.0
 40
79.0
 40
79.0
 40
79.0
 40
79.0
 10
101.5193847402451
 20
-153.0662814287473
 30
0.0
 10
101.5193847402451
 20
-153.0662814287473
 30
0.0
 10
101.296831571898
 20
-153.0662814287473
 30
0.0
 10
101.296831571898
 20
-153.0662814287473
 30
0.0
 10
101.296831571898
 20
-153.0662814287473
 30
0.0
 10
101.0542968497364
 20
-153.0662814287473
 30
0.0
 10
101.0542968497364
 20
-153.0662814287473
 30
0.0
 10
101.0542968497364
 20
-153.0662814287473
 30
0.0
 10
101.16557343391
 20
-153.1086561032159
 30
0.0
 10
101.16557343391
 20
-153.1086561032159
 30
0.0
 10
101.1748751917201
 20
-153.1131347273467
 30
0.0
 10
101.1858994972729
 20
-153.1193358992202
 30
0.0
 10
101.1858994972729
 20
-153.1320827525156
 30
0.0
 10
101.1858994972729
 20
-153.1530978349756
 30
0.0
 10
101.1579942238424
 20
-153.1596435163976
 30
0.0
 10
101.1397352177706
 20
-153.1637776309799
 30
0.0
 10
101.1304334599604
 20
-153.186859770731
 30
0.0
 10
101.104595243821
 20
-153.2526610944993
 30
0.0
 10
101.0877142759433
 20
-153.2971028262591
 30
0.0
 10
101.0877142759433
 20
-153.2971028262591
 30
0.0
 10
101.3247368453285
 20
-153.2971028262591
 30
0.0
 10
101.3247368453285
 20
-153.2971028262591
 30
0.0
 10
101.4043185510378
 20
-153.2971028262591
 30
0.0
 10
101.5765733253003
 20
-153.2926242021282
 30
0.0
 10
101.7005967627693
 20
-153.2843559729636
 30
0.0
 10
101.7005967627693
 20
-153.2843559729636
 30
0.0
 10
101.7005967627693
 20
-153.4621229000025
 30
0.0
 10
101.7005967627693
 20
-153.4621229000025
 30
0.0
 10
101.6285942671276
 20
-153.4576442758717
 30
0.0
 10
101.6099907515072
 20
-153.4576442758717
 30
0.0
 10
101.4525498878313
 20
-153.4535101612894
 30
0.0
 10
101.4246446144008
 20
-153.6078504390286
 30
0.0
 10
101.3857150354174
 20
-153.6884656733834
 30
0.0
 10
101.3471299659826
 20
-153.7580566021855
 30
0.0
 10
101.4525498878313
 20
-153.8173122445318
 30
0.0
 10
101.5452229563845
 20
-153.8851806255912
 30
0.0
 10
101.6358289676466
 20
-153.9675184076887
 30
0.0
 10
101.6358289676466
 20
-153.9675184076887
 30
0.0
 10
101.5321315935405
 20
-154.1346055387233
 30
0.0
 10
101.5321315935405
 20
-154.1346055387233
 30
0.0
 10
101.5118055301776
 20
-154.1156575135544
 30
0.0
 10
101.5007812246248
 20
-154.1073892843898
 30
0.0
 10
101.4025960032952
 20
-154.0226399354527
 30
0.0
 10
101.3598768192781
 20
-153.9843993755664
 30
0.0
 10
101.3082003869993
 20
-153.9485703825198
 30
0.0
 10
101.2375759295517
 20
-153.9041286507601
 30
0.0
 10
101.0525743019938
 20
-154.0905083165121
 30
0.0
 10
100.8730848272123
 20
-154.1135904562632
 30
0.0
 10
100.6191812899493
 20
-154.1432182774364
 30
0.0
 10
100.6191812899493
 20
-154.1432182774364
 30
0.0
 10
100.5285752786873
 20
-153.9633842931064
 30
0.0
 10
100.5285752786873
 20
-153.9633842931064
 30
0.0
 10
100.8062499747984
 20
-153.9592501785241
 30
0.0
 10
100.9599012334406
 20
-153.9337564719332
 30
0.0
 10
101.0932264287197
 20
-153.8238579259538
 30
0.0
 10
100.9895290546137
 20
-153.7728705127721
 30
0.0
 10
100.9116698966471
 20
-153.7456542584386
 30
0.0
 10
100.8803195277313
 20
-153.7329074051432
 30
0.0
 10
100.8637830694021
 20
-153.7604681690251
 30
0.0
 10
100.8506917065581
 20
-153.779416194194
 30
0.0
 10
100.8265760381614
 20
-153.8131781299495
 30
0.0
 10
100.8265760381614
 20
-153.8131781299495
 30
0.0
 10
100.6543212638989
 20
-153.730840347852
 30
0.0
 10
100.6543212638989
 20
-153.730840347852
 30
0.0
 10
100.7266682690892
 20
-153.6502251134972
 30
0.0
 10
100.7804117586591
 20
-153.5551404781043
 30
0.0
 10
100.8303656431952
 20
-153.4535101612894
 30
0.0
 10
100.6636230217091
 20
-153.4576442758717
 30
0.0
 10
100.6450195060887
 20
-153.4576442758717
 30
0.0
 10
100.573017010447
 20
-153.4621229000025
 30
0.0
 10
100.573017010447
 20
-153.4621229000025
 30
0.0
 10
100.573017010447
 20
-153.2843559729636
 30
0.0
 10
100.573017010447
 20
-153.2843559729636
 30
0.0
 10
100.6953179001734
 20
-153.2905571448371
 30
0.0
 10
100.8785969799887
 20
-153.2950357689679
 30
0.0
 10
100.9006455910943
 20
-153.2950357689679
 30
0.0
 10
100.9154595016808
 20
-153.2609293236639
 30
0.0
 10
100.9636908384743
 20
-153.1403509816802
 30
0.0
 10
100.9802272968035
 20
-153.0662814287473
 30
0.0
 10
100.9636908384743
 20
-153.0662814287473
 30
0.0
 10
100.8083170320896
 20
-153.0728271101693
 30
0.0
 10
100.6377848055697
 20
-153.0855739634647
 30
0.0
 10
100.6377848055697
 20
-153.0855739634647
 30
0.0
 10
100.6377848055697
 20
-153.2188991587439
 30
0.0
 10
100.6377848055697
 20
-153.2188991587439
 30
0.0
 10
100.5950656215526
 20
-153.2440483557862
 30
0.0
 10
100.5433891892739
 20
-153.2757432342505
 30
0.0
 10
100.4266004523239
 20
-153.3415445580188
 30
0.0
 10
100.4266004523239
 20
-153.3415445580188
 30
0.0
 10
100.4266004523239
 20
-153.4872720970448
 30
0.0
 10
100.4266004523239
 20
-153.4872720970448
 30
0.0
 10
100.4266004523239
 20
-153.4872720970448
 30
0.0
 10
100.4266004523239
 20
-153.9551160639417
 30
0.0
 10
100.4266004523239
 20
-153.9551160639417
 30
0.0
 10
100.4266004523239
 20
-154.081895577799
 30
0.0
 10
100.3952500834081
 20
-154.1411512201453
 30
0.0
 10
100.1472032084701
 20
-154.1325384814321
 30
0.0
 10
100.1472032084701
 20
-154.1325384814321
 30
0.0
 10
100.0562526876595
 20
-153.9254882427686
 30
0.0
 10
100.0562526876595
 20
-153.9254882427686
 30
0.0
 10
100.1117187249721
 20
-153.9378905865155
 30
0.0
 10
100.1544379089891
 20
-153.9423692106463
 30
0.0
 10
100.1895778829387
 20
-153.9423692106463
 30
0.0
 10
100.2564127353525
 20
-153.9423692106463
 30
0.0
 10
100.2657144931627
 20
-153.9189425613466
 30
0.0
 10
100.2657144931627
 20
-153.8534857471269
 30
0.0
 10
100.2657144931627
 20
-153.8534857471269
 30
0.0
 10
100.2657144931627
 20
-153.4238823401162
 30
0.0
 10
100.2657144931627
 20
-153.4238823401162
 30
0.0
 10
100.1802761251285
 20
-153.4641899572937
 30
0.0
 10
100.1654622145419
 20
-153.4703911291671
 30
0.0
 10
100.124810087816
 20
-153.4896836638845
 30
0.0
 10
100.1210204827822
 20
-153.5106987463445
 30
0.0
 10
100.117575387297
 20
-153.5403265675177
 30
0.0
 10
100.1006944194192
 20
-153.5403265675177
 30
0.0
 10
100.0934597189002
 20
-153.5403265675177
 30
0.0
 10
100.08415796109
 20
-153.5361924529354
 30
0.0
 10
100.0786458083137
 20
-153.5127658036357
 30
0.0
 10
100.0786458083137
 20
-153.5127658036357
 30
0.0
 10
100.0321370192628
 20
-153.3201849660102
 30
0.0
 10
100.0321370192628
 20
-153.3201849660102
 30
0.0
 10
100.1599500617655
 20
-153.2736761769593
 30
0.0
 10
100.2174831563692
 20
-153.2505940372082
 30
0.0
 10
100.2657144931627
 20
-153.2292344451996
 30
0.0
 10
100.2657144931627
 20
-153.2292344451996
 30
0.0
 10
100.2657144931627
 20
-152.8168565156152
 30
0.0
 10
100.2657144931627
 20
-152.8168565156152
 30
0.0
 10
100.2657144931627
 20
-152.8168565156152
 30
0.0
 10
100.2192057041118
 20
-152.8168565156152
 30
0.0
 10
100.2192057041118
 20
-152.8168565156152
 30
0.0
 10
100.2192057041118
 20
-152.8168565156152
 30
0.0
 10
100.1506483039554
 20
-152.8168565156152
 30
0.0
 10
100.1506483039554
 20
-152.8168565156152
 30
0.0
 10
100.0913926616091
 20
-152.8168565156152
 30
0.0
 10
100.08415796109
 20
-152.8168565156152
 30
0.0
 10
100.0524630826258
 20
-152.8230576874887
 30
0.0
 10
100.0524630826258
 20
-152.8230576874887
 30
0.0
 10
100.0524630826258
 20
-152.628409792572
 30
0.0
 10
100.0524630826258
 20
-152.628409792572
 30
0.0
 10
100.0765787510225
 20
-152.634955473994
 30
0.0
 10
100.08415796109
 20
-152.634955473994
 30
0.0
 10
100.145136151179
 20
-152.634955473994
 30
0.0
 10
100.145136151179
 20
-152.634955473994
 30
0.0
 10
100.2619248881289
 20
-152.634955473994
 30
0.0
 10
100.2619248881289
 20
-152.634955473994
 30
0.0
 10
100.2619248881289
 20
-152.5650200356434
 30
0.0
 10
100.2619248881289
 20
-152.482682253546
 30
0.0
 10
100.2598578308378
 20
-152.4782036294152
 30
0.0
 10
100.2526231303188
 20
-152.2983696450851
 30
0.0
 10
100.2526231303188
 20
-152.2794216199162
 30
0.0
 10
100.2509005825761
 20
-152.2329128308654
 30
0.0
 10
100.2509005825761
 20
-152.2329128308654
 30
0.0
 10
100.4396918151678
 20
-152.2415255695785
 30
0.0
 10
100.4396918151678
 20
-152.2415255695785
 30
0.0
 10
100.448993572978
 20
-152.2415255695785
 30
0.0
 10
100.4672525790498
 20
-152.2435926268696
 30
0.0
 10
100.4672525790498
 20
-152.2604735947474
 30
0.0
 10
100.4672525790498
 20
-152.2794216199162
 30
0.0
 10
100.4545057257544
 20
-152.2901014159205
 30
0.0
 10
100.4321126051003
 20
-152.3090494410894
 30
0.0
 10
100.4321126051003
 20
-152.3596923447226
 30
0.0
 10
100.4266004523239
 20
-152.5884466849431
 30
0.0
 10
100.428667509615
 20
-152.634955473994
 30
0.0
 10
100.5416666415312
 20
-152.634955473994
 30
0.0
 10
100.552690947084
 20
-152.634955473994
 30
0.0
 10
100.6377848055697
 20
-152.6263427352809
 30
0.0
 10
100.6377848055697
 20
-152.6263427352809
 30
0.0
 10
100.6377848055697
 20
-152.8209906301975
 30
0.0
 10
100.6377848055697
 20
-152.8209906301975
 30
0.0
 10
100.6043673793628
 20
-152.8189235729064
 30
0.0
 10
100.5451117370165
 20
-152.8147894583241
 30
0.0
 10
100.4266004523239
 20
-152.8168565156152
 30
0.0
 10
100.4266004523239
 20
-152.8168565156152
 30
0.0
 10
100.4266004523239
 20
-153.1551648922668
 30
0.0
 10
100.4266004523239
 20
-153.1551648922668
 30
0.0
 10
100.4748317891174
 20
-153.1320827525156
 30
0.0
 10
100.5323648837211
 20
-153.1045219886336
 30
0.0
 10
100.5747395581896
 20
-153.0810953393339
 30
0.0
 10
100.5747395581896
 20
-153.0810953393339
 30
0.0
 10
100.5747395581896
 20
-152.9036729218435
 30
0.0
 10
100.5747395581896
 20
-152.9036729218435
 30
0.0
 10
100.6746473272619
 20
-152.9160752655904
 30
0.0
 10
100.7786892109164
 20
-152.9160752655904
 30
0.0
 10
100.8803195277313
 20
-152.9160752655904
 30
0.0
 10
100.8599934643683
 20
-152.8209906301975
 30
0.0
 10
100.8358777959716
 20
-152.7386528481
 30
0.0
 10
100.7804117586591
 20
-152.6053276528209
 30
0.0
 10
100.7414821796757
 20
-152.607394710112
 30
0.0
 10
100.6691351744855
 20
-152.6115288246943
 30
0.0
 10
100.6360622578271
 20
-152.6135958819855
 30
0.0
 10
100.6360622578271
 20
-152.6135958819855
 30
0.0
 10
100.6360622578271
 20
-152.4337618976554
 30
0.0
 10
100.6360622578271
 20
-152.4337618976554
 30
0.0
 10
100.7452717847095
 20
-152.4423746363686
 30
0.0
 10
100.897200495609
 20
-152.4465087509508
 30
0.0
 10
100.9692029912507
 20
-152.4465087509508
 30
0.0
 10
100.9692029912507
 20
-152.4465087509508
 30
0.0
 10
101.041549996441
 20
-152.4465087509508
 30
0.0
 10
101.041549996441
 20
-152.4465087509508
 30
0.0
 10
101.041549996441
 20
-152.2835557344985
 30
0.0
 10
101.041549996441
 20
-152.2732204480428
 30
0.0
 10
101.0394829391498
 20
-152.2180989202788
 30
0.0
 10
101.0394829391498
 20
-152.2180989202788
 30
0.0
 10
101.2358533818091
 20
-152.2435926268696
 30
0.0
 10
101.2358533818091
 20
-152.2435926268696
 30
0.0
 10
101.2396429868428
 20
-152.2435926268696
 30
0.0
 10
101.2582465024632
 20
-152.2456596841608
 30
0.0
 10
101.2582465024632
 20
-152.2625406520385
 30
0.0
 10
101.2582465024632
 20
-152.2773545626251
 30
0.0
 10
101.248944744653
 20
-152.2859673013382
 30
0.0
 10
101.2248290762563
 20
-152.3007812119248
 30
0.0
 10
101.2193169234799
 20
-152.3662380261446
 30
0.0
 10
101.2172498661887
 20
-152.3872531086046
 30
0.0
 10
101.2172498661887
 20
-152.4465087509508
 30
0.0
 10
101.2172498661887
 20
-152.4465087509508
 30
0.0
 10
101.3006211769318
 20
-152.4465087509508
 30
0.0
 10
101.3006211769318
 20
-152.4465087509508
 30
0.0
 10
101.372968182122
 20
-152.4465087509508
 30
0.0
 10
101.5248968930215
 20
-152.4423746363686
 30
0.0
 10
101.634106419904
 20
-152.4337618976554
 30
0.0
 10
101.634106419904
 20
-152.4337618976554
 30
0.0
 10
101.634106419904
 20
-152.6135958819855
 30
0.0
 10
101.634106419904
 20
-152.6135958819855
 30
0.0
 10
101.6082682037646
 20
-152.6115288246943
 30
0.0
 10
101.50422632011
 20
-152.607394710112
 30
0.0
 10
101.4690863461605
 20
-152.6053276528209
 30
0.0
 10
101.456339492865
 20
-152.655970556454
 30
0.0
 10
101.4267116716919
 20
-152.7682806692732
 30
0.0
 10
101.3691785770882
 20
-152.9078070364258
 30
0.0
 10
101.4063856083289
 20
-152.9078070364258
 30
0.0
 10
101.6489203304905
 20
-152.8888590112569
 30
0.0
 10
101.7026638200604
 20
-152.8864474444173
 30
0.0
 10
101.7026638200604
 20
-152.8864474444173
 30
0.0
 10
101.7026638200604
 20
-153.0707600528781
 30
0.0
 10
101.7026638200604
 20
-153.0707600528781
 30
0.0
 10
101.6764810943725
 20
-153.0707600528781
 30
0.0
 10
101.6616671837859
 20
-153.0662814287473
 30
0.0
 10
101.5193847402451
 20
-153.0662814287473
 30
0.0
  0
HATCH
  5
100
330
F9
100
AcDbEntity
  8
レイヤー 1
 62
   250
420
  2299925
440
 33554687
100
AcDbHatch
 10
0.0
 20
0.0
 30
0.0
210
0.0
220
0.0
230
1.0
  2
SOLID
 70
     1
 71
     1
 91
        3
 92
        1
 93
        1
 72
     4
 94
        3
 73
     0
 74
     0
 95
       17
 96
       13
 40
0.0
 40
0.0
 40
0.0
 40
0.0
 40
1.0
 40
1.0
 40
1.0
 40
2.0
 40
2.0
 40
2.0
 40
3.0
 40
3.0
 40
3.0
 40
4.0
 40
4.0
 40
4.0
 40
4.0
 10
101.0246690285633
 20
-153.4514431039982
 10
101.0098551179767
 20
-153.4810709251714
 10
100.965413386217
 20
-153.5740885032731
 10
100.9564561379553
 20
-153.593036528442
 10
101.1228542498929
 20
-153.6522921707883
 10
101.1414577655132
 20
-153.6588378522103
 10
101.2045030128933
 20
-153.6863986160923
 10
101.2527343496868
 20
-153.599582209864
 10
101.2730604130498
 20
-153.5255126569311
 10
101.2858072663452
 20
-153.4514431039982
 10
101.2858072663452
 20
-153.4514431039982
 10
101.0246690285633
 20
-153.4514431039982
 10
101.0246690285633
 20
-153.4514431039982
 97
        0
 97
        1
330
FD
 92
        1
 93
        1
 72
     4
 94
        3
 73
     0
 74
     0
 95
       20
 96
       16
 40
0.0
 40
0.0
 40
0.0
 40
0.0
 40
1.0
 40
1.0
 40
1.0
 40
2.0
 40
2.0
 40
2.0
 40
3.0
 40
3.0
 40
3.0
 40
4.0
 40
4.0
 40
4.0
 40
5.0
 40
5.0
 40
5.0
 40
5.0
 10
100.9692029912507
 20
-152.6011935382386
 10
100.9692029912507
 20
-152.6011935382386
 10
100.9412977178202
 20
-152.6011935382386
 10
100.9412977178202
 20
-152.6011935382386
 10
100.9822943540947
 20
-152.7004122882138
 10
101.0098551179767
 20
-152.7806830130201
 10
101.0394829391498
 20
-152.9078070364258
 10
101.0394829391498
 20
-152.9078070364258
 10
101.2210394712225
 20
-152.9078070364258
 10
101.2210394712225
 20
-152.9078070364258
 10
101.248944744653
 20
-152.8147894583241
 10
101.269270808016
 20
-152.7300401093869
 10
101.289596871379
 20
-152.6011935382386
 10
101.289596871379
 20
-152.6011935382386
 10
100.9692029912507
 20
-152.6011935382386
 10
100.9692029912507
 20
-152.6011935382386
 97
        0
 97
        1
330
FE
 92
        1
 93
        1
 72
     4
 94
        3
 73
     0
 74
     0
 95
      242
 96
      238
 40
0.0
 40
0.0
 40
0.0
 40
0.0
 40
1.0
 40
1.0
 40
1.0
 40
2.0
 40
2.0
 40
2.0
 40
3.0
 40
3.0
 40
3.0
 40
4.0
 40
4.0
 40
4.0
 40
5.0
 40
5.0
 40
5.0
 40
6.0
 40
6.0
 40
6.0
 40
7.0
 40
7.0
 40
7.0
 40
8.0
 40
8.0
 40
8.0
 40
9.0
 40
9.0
 40
9.0
 40
10.0
 40
10.0
 40
10.0
 40
11.0
 40
11.0
 40
11.0
 40
12.0
 40
12.0
 40
12.0
 40
13.0
 40
13.0
 40
13.0
 40
14.0
 40
14.0
 40
14.0
 40
15.0
 40
15.0
 40
15.0
 40
16.0
 40
16.0
 40
16.0
 40
17.0
 40
17.0
 40
17.0
 40
18.0
 40
18.0
 40
18.0
 40
19.0
 40
19.0
 40
19.0
 40
20.0
 40
20.0
 40
20.0
 40
21.0
 40
21.0
 40
21.0
 40
22.0
 40
22.0
 40
22.0
 40
23.0
 40
23.0
 40
23.0
 40
24.0
 40
24.0
 40
24.0
 40
25.0
 40
25.0
 40
25.0
 40
26.0
 40
26.0
 40
26.0
 40
27.0
 40
27.0
 40
27.0
 40
28.0
 40
28.0
 40
28.0
 40
29.0
 40
29.0
 40
29.0
 40
30.0
 40
30.0
 40
30.0
 40
31.0
 40
31.0
 40
31.0
 40
32.0
 40
32.0
 40
32.0
 40
33.0
 40
33.0
 40
33.0
 40
34.0
 40
34.0
 40
34.0
 40
35.0
 40
35.0
 40
35.0
 40
36.0
 40
36.0
 40
36.0
 40
37.0
 40
37.0
 40
37.0
 40
38.0
 40
38.0
 40
38.0
 40
39.0
 40
39.0
 40
39.0
 40
40.0
 40
40.0
 40
40.0
 40
41.0
 40
41.0
 40
41.0
 40
42.0
 40
42.0
 40
42.0
 40
43.0
 40
43.0
 40
43.0
 40
44.0
 40
44.0
 40
44.0
 40
45.0
 40
45.0
 40
45.0
 40
46.0
 40
46.0
 40
46.0
 40
47.0
 40
47.0
 40
47.0
 40
48.0
 40
48.0
 40
48.0
 40
49.0
 40
49.0
 40
49.0
 40
50.0
 40
50.0
 40
50.0
 40
51.0
 40
51.0
 40
51.0
 40
52.0
 40
52.0
 40
52.0
 40
53.0
 40
53.0
 40
53.0
 40
54.0
 40
54.0
 40
54.0
 40
55.0
 40
55.0
 40
55.0
 40
56.0
 40
56.0
 40
56.0
 40
57.0
 40
57.0
 40
57.0
 40
58.0
 40
58.0
 40
58.0
 40
59.0
 40
59.0
 40
59.0
 40
60.0
 40
60.0
 40
60.0
 40
61.0
 40
61.0
 40
61.0
 40
62.0
 40
62.0
 40
62.0
 40
63.0
 40
63.0
 40
63.0
 40
64.0
 40
64.0
 40
64.0
 40
65.0
 40
65.0
 40
65.0
 40
66.0
 40
66.0
 40
66.0
 40
67.0
 40
67.0
 40
67.0
 40
68.0
 40
68.0
 40
68.0
 40
69.0
 40
69.0
 40
69.0
 40
70.0
 40
70.0
 40
70.0
 40
71.0
 40
71.0
 40
71.0
 40
72.0
 40
72.0
 40
72.0
 40
73.0
 40
73.0
 40
73.0
 40
74.0
 40
74.0
 40
74.0
 40
75.0
 40
75.0
 40
75.0
 40
76.0
 40
76.0
 40
76.0
 40
77.0
 40
77.0
 40
77.0
 40
78.0
 40
78.0
 40
78.0
 40
79.0
 40
79.0
 40
79.0
 40
79.0
 10
101.5193847402451
 20
-153.0662814287473
 10
101.5193847402451
 20
-153.0662814287473
 10
101.296831571898
 20
-153.0662814287473
 10
101.296831571898
 20
-153.0662814287473
 10
101.296831571898
 20
-153.0662814287473
 10
101.0542968497364
 20
-153.0662814287473
 10
101.0542968497364
 20
-153.0662814287473
 10
101.0542968497364
 20
-153.0662814287473
 10
101.16557343391
 20
-153.1086561032159
 10
101.16557343391
 20
-153.1086561032159
 10
101.1748751917201
 20
-153.1131347273467
 10
101.1858994972729
 20
-153.1193358992202
 10
101.1858994972729
 20
-153.1320827525156
 10
101.1858994972729
 20
-153.1530978349756
 10
101.1579942238424
 20
-153.1596435163976
 10
101.1397352177706
 20
-153.1637776309799
 10
101.1304334599604
 20
-153.186859770731
 10
101.104595243821
 20
-153.2526610944993
 10
101.0877142759433
 20
-153.2971028262591
 10
101.0877142759433
 20
-153.2971028262591
 10
101.3247368453285
 20
-153.2971028262591
 10
101.3247368453285
 20
-153.2971028262591
 10
101.4043185510378
 20
-153.2971028262591
 10
101.5765733253003
 20
-153.2926242021282
 10
101.7005967627693
 20
-153.2843559729636
 10
101.7005967627693
 20
-153.2843559729636
 10
101.7005967627693
 20
-153.4621229000025
 10
101.7005967627693
 20
-153.4621229000025
 10
101.6285942671276
 20
-153.4576442758717
 10
101.6099907515072
 20
-153.4576442758717
 10
101.4525498878313
 20
-153.4535101612894
 10
101.4246446144008
 20
-153.6078504390286
 10
101.3857150354174
 20
-153.6884656733834
 10
101.3471299659826
 20
-153.7580566021855
 10
101.4525498878313
 20
-153.8173122445318
 10
101.5452229563845
 20
-153.8851806255912
 10
101.6358289676466
 20
-153.9675184076887
 10
101.6358289676466
 20
-153.9675184076887
 10
101.5321315935405
 20
-154.1346055387233
 10
101.5321315935405
 20
-154.1346055387233
 10
101.5118055301776
 20
-154.1156575135544
 10
101.5007812246248
 20
-154.1073892843898
 10
101.4025960032952
 20
-154.0226399354527
 10
101.3598768192781
 20
-153.9843993755664
 10
101.3082003869993
 20
-153.9485703825198
 10
101.2375759295517
 20
-153.9041286507601
 10
101.0525743019938
 20
-154.0905083165121
 10
100.8730848272123
 20
-154.1135904562632
 10
100.6191812899493
 20
-154.1432182774364
 10
100.6191812899493
 20
-154.1432182774364
 10
100.5285752786873
 20
-153.9633842931064
 10
100.5285752786873
 20
-153.9633842931064
 10
100.8062499747984
 20
-153.9592501785241
 10
100.9599012334406
 20
-153.9337564719332
 10
101.0932264287197
 20
-153.8238579259538
 10
100.9895290546137
 20
-153.7728705127721
 10
100.9116698966471
 20
-153.7456542584386
 10
100.8803195277313
 20
-153.7329074051432
 10
100.8637830694021
 20
-153.7604681690251
 10
100.8506917065581
 20
-153.779416194194
 10
100.8265760381614
 20
-153.8131781299495
 10
100.8265760381614
 20
-153.8131781299495
 10
100.6543212638989
 20
-153.730840347852
 10
100.6543212638989
 20
-153.730840347852
 10
100.7266682690892
 20
-153.6502251134972
 10
100.7804117586591
 20
-153.5551404781043
 10
100.8303656431952
 20
-153.4535101612894
 10
100.6636230217091
 20
-153.4576442758717
 10
100.6450195060887
 20
-153.4576442758717
 10
100.573017010447
 20
-153.4621229000025
 10
100.573017010447
 20
-153.4621229000025
 10
100.573017010447
 20
-153.2843559729636
 10
100.573017010447
 20
-153.2843559729636
 10
100.6953179001734
 20
-153.2905571448371
 10
100.8785969799887
 20
-153.2950357689679
 10
100.9006455910943
 20
-153.2950357689679
 10
100.9154595016808
 20
-153.2609293236639
 10
100.9636908384743
 20
-153.1403509816802
 10
100.9802272968035
 20
-153.0662814287473
 10
100.9636908384743
 20
-153.0662814287473
 10
100.8083170320896
 20
-153.0728271101693
 10
100.6377848055697
 20
-153.0855739634647
 10
100.6377848055697
 20
-153.0855739634647
 10
100.6377848055697
 20
-153.2188991587439
 10
100.6377848055697
 20
-153.2188991587439
 10
100.5950656215526
 20
-153.2440483557862
 10
100.5433891892739
 20
-153.2757432342505
 10
100.4266004523239
 20
-153.3415445580188
 10
100.4266004523239
 20
-153.3415445580188
 10
100.4266004523239
 20
-153.4872720970448
 10
100.4266004523239
 20
-153.4872720970448
 10
100.4266004523239
 20
-153.4872720970448
 10
100.4266004523239
 20
-153.9551160639417
 10
100.4266004523239
 20
-153.9551160639417
 10
100.4266004523239
 20
-154.081895577799
 10
100.3952500834081
 20
-154.1411512201453
 10
100.1472032084701
 20
-154.1325384814321
 10
100.1472032084701
 20
-154.1325384814321
 10
100.0562526876595
 20
-153.9254882427686
 10
100.0562526876595
 20
-153.9254882427686
 10
100.1117187249721
 20
-153.9378905865155
 10
100.1544379089891
 20
-153.9423692106463
 10
100.1895778829387
 20
-153.9423692106463
 10
100.2564127353525
 20
-153.9423692106463
 10
100.2657144931627
 20
-153.9189425613466
 10
100.2657144931627
 20
-153.8534857471269
 10
100.2657144931627
 20
-153.8534857471269
 10
100.2657144931627
 20
-153.4238823401162
 10
100.2657144931627
 20
-153.4238823401162
 10
100.1802761251285
 20
-153.4641899572937
 10
100.1654622145419
 20
-153.4703911291671
 10
100.124810087816
 20
-153.4896836638845
 10
100.1210204827822
 20
-153.5106987463445
 10
100.117575387297
 20
-153.5403265675177
 10
100.1006944194192
 20
-153.5403265675177
 10
100.0934597189002
 20
-153.5403265675177
 10
100.08415796109
 20
-153.5361924529354
 10
100.0786458083137
 20
-153.5127658036357
 10
100.0786458083137
 20
-153.5127658036357
 10
100.0321370192628
 20
-153.3201849660102
 10
100.0321370192628
 20
-153.3201849660102
 10
100.1599500617655
 20
-153.2736761769593
 10
100.2174831563692
 20
-153.2505940372082
 10
100.2657144931627
 20
-153.2292344451996
 10
100.2657144931627
 20
-153.2292344451996
 10
100.2657144931627
 20
-152.8168565156152
 10
100.2657144931627
 20
-152.8168565156152
 10
100.2657144931627
 20
-152.8168565156152
 10
100.2192057041118
 20
-152.8168565156152
 10
100.2192057041118
 20
-152.8168565156152
 10
100.2192057041118
 20
-152.8168565156152
 10
100.1506483039554
 20
-152.8168565156152
 10
100.1506483039554
 20
-152.8168565156152
 10
100.0913926616091
 20
-152.8168565156152
 10
100.08415796109
 20
-152.8168565156152
 10
100.0524630826258
 20
-152.8230576874887
 10
100.0524630826258
 20
-152.8230576874887
 10
100.0524630826258
 20
-152.628409792572
 10
100.0524630826258
 20
-152.628409792572
 10
100.0765787510225
 20
-152.634955473994
 10
100.08415796109
 20
-152.634955473994
 10
100.145136151179
 20
-152.634955473994
 10
100.145136151179
 20
-152.634955473994
 10
100.2619248881289
 20
-152.634955473994
 10
100.2619248881289
 20
-152.634955473994
 10
100.2619248881289
 20
-152.5650200356434
 10
100.2619248881289
 20
-152.482682253546
 10
100.2598578308378
 20
-152.4782036294152
 10
100.2526231303188
 20
-152.2983696450851
 10
100.2526231303188
 20
-152.2794216199162
 10
100.2509005825761
 20
-152.2329128308654
 10
100.2509005825761
 20
-152.2329128308654
 10
100.4396918151678
 20
-152.2415255695785
 10
100.4396918151678
 20
-152.2415255695785
 10
100.448993572978
 20
-152.2415255695785
 10
100.4672525790498
 20
-152.2435926268696
 10
100.4672525790498
 20
-152.2604735947474
 10
100.4672525790498
 20
-152.2794216199162
 10
100.4545057257544
 20
-152.2901014159205
 10
100.4321126051003
 20
-152.3090494410894
 10
100.4321126051003
 20
-152.3596923447226
 10
100.4266004523239
 20
-152.5884466849431
 10
100.428667509615
 20
-152.634955473994
 10
100.5416666415312
 20
-152.634955473994
 10
100.552690947084
 20
-152.634955473994
 10
100.6377848055697
 20
-152.6263427352809
 10
100.6377848055697
 20
-152.6263427352809
 10
100.6377848055697
 20
-152.8209906301975
 10
100.6377848055697
 20
-152.8209906301975
 10
100.6043673793628
 20
-152.8189235729064
 10
100.5451117370165
 20
-152.8147894583241
 10
100.4266004523239
 20
-152.8168565156152
 10
100.4266004523239
 20
-152.8168565156152
 10
100.4266004523239
 20
-153.1551648922668
 10
100.4266004523239
 20
-153.1551648922668
 10
100.4748317891174
 20
-153.1320827525156
 10
100.5323648837211
 20
-153.1045219886336
 10
100.5747395581896
 20
-153.0810953393339
 10
100.5747395581896
 20
-153.0810953393339
 10
100.5747395581896
 20
-152.9036729218435
 10
100.5747395581896
 20
-152.9036729218435
 10
100.6746473272619
 20
-152.9160752655904
 10
100.7786892109164
 20
-152.9160752655904
 10
100.8803195277313
 20
-152.9160752655904
 10
100.8599934643683
 20
-152.8209906301975
 10
100.8358777959716
 20
-152.7386528481
 10
100.7804117586591
 20
-152.6053276528209
 10
100.7414821796757
 20
-152.607394710112
 10
100.6691351744855
 20
-152.6115288246943
 10
100.6360622578271
 20
-152.6135958819855
 10
100.6360622578271
 20
-152.6135958819855
 10
100.6360622578271
 20
-152.4337618976554
 10
100.6360622578271
 20
-152.4337618976554
 10
100.7452717847095
 20
-152.4423746363686
 10
100.897200495609
 20
-152.4465087509508
 10
100.9692029912507
 20
-152.4465087509508
 10
100.9692029912507
 20
-152.4465087509508
 10
101.041549996441
 20
-152.4465087509508
 10
101.041549996441
 20
-152.4465087509508
 10
101.041549996441
 20
-152.2835557344985
 10
101.041549996441
 20
-152.2732204480428
 10
101.0394829391498
 20
-152.2180989202788
 10
101.0394829391498
 20
-152.2180989202788
 10
101.2358533818091
 20
-152.2435926268696
 10
101.2358533818091
 20
-152.2435926268696
 10
101.2396429868428
 20
-152.2435926268696
 10
101.2582465024632
 20
-152.2456596841608
 10
101.2582465024632
 20
-152.2625406520385
 10
101.2582465024632
 20
-152.2773545626251
 10
101.248944744653
 20
-152.2859673013382
 10
101.2248290762563
 20
-152.3007812119248
 10
101.2193169234799
 20
-152.3662380261446
 10
101.2172498661887
 20
-152.3872531086046
 10
101.2172498661887
 20
-152.4465087509508
 10
101.2172498661887
 20
-152.4465087509508
 10
101.3006211769318
 20
-152.4465087509508
 10
101.3006211769318
 20
-152.4465087509508
 10
101.372968182122
 20
-152.4465087509508
 10
101.5248968930215
 20
-152.4423746363686
 10
101.634106419904
 20
-152.4337618976554
 10
101.634106419904
 20
-152.4337618976554
 10
101.634106419904
 20
-152.6135958819855
 10
101.634106419904
 20
-152.6135958819855
 10
101.6082682037646
 20
-152.6115288246943
 10
101.50422632011
 20
-152.607394710112
 10
101.4690863461605
 20
-152.6053276528209
 10
101.456339492865
 20
-152.655970556454
 10
101.4267116716919
 20
-152.7682806692732
 10
101.3691785770882
 20
-152.9078070364258
 10
101.4063856083289
 20
-152.9078070364258
 10
101.6489203304905
 20
-152.8888590112569
 10
101.7026638200604
 20
-152.8864474444173
 10
101.7026638200604
 20
-152.8864474444173
 10
101.7026638200604
 20
-153.0707600528781
 10
101.7026638200604
 20
-153.0707600528781
 10
101.6764810943725
 20
-153.0707600528781
 10
101.6616671837859
 20
-153.0662814287473
 10
101.5193847402451
 20
-153.0662814287473
 97
        0
 97
        1
330
FF
 75
     2
 76
     1
 98
        1
 10
0.0
 20
0.0
450
        0
451
        0
460
0.0
461
0.0
452
        0
462
0.0
453
        0
470

  0
SPLINE
  5
101
330
F9
100
AcDbEntity
  8
レイヤー 1
100
AcDbSpline
210
0.0
220
0.0
230
1.0
 70
    11
 71
     3
 72
    17
 73
    13
 74
     0
 42
0.0000000001
 43
0.0000000001
 40
0.0
 40
0.0
 40
0.0
 40
0.0
 40
1.0
 40
1.0
 40
1.0
 40
2.0
 40
2.0
 40
2.0
 40
3.0
 40
3.0
 40
3.0
 40
4.0
 40
4.0
 40
4.0
 40
4.0
 10
103.1454698092831
 20
-153.8662326004223
 30
0.0
 10
103.1454698092831
 20
-153.8662326004223
 30
0.0
 10
102.5270751696807
 20
-153.8662326004223
 30
0.0
 10
102.5270751696807
 20
-153.8662326004223
 30
0.0
 10
102.5270751696807
 20
-153.8662326004223
 30
0.0
 10
102.5270751696807
 20
-153.9802652609841
 30
0.0
 10
102.5270751696807
 20
-153.9802652609841
 30
0.0
 10
102.5270751696807
 20
-153.9802652609841
 30
0.0
 10
103.1454698092831
 20
-153.9802652609841
 30
0.0
 10
103.1454698092831
 20
-153.9802652609841
 30
0.0
 10
103.1454698092831
 20
-153.9802652609841
 30
0.0
 10
103.1454698092831
 20
-153.8662326004223
 30
0.0
 10
103.1454698092831
 20
-153.8662326004223
 30
0.0
  0
SPLINE
  5
102
330
F9
100
AcDbEntity
  8
レイヤー 1
100
AcDbSpline
210
0.0
220
0.0
230
1.0
 70
    11
 71
     3
 72
    17
 73
    13
 74
     0
 42
0.0000000001
 43
0.0000000001
 40
0.0
 40
0.0
 40
0.0
 40
0.0
 40
1.0
 40
1.0
 40
1.0
 40
2.0
 40
2.0
 40
2.0
 40
3.0
 40
3.0
 40
3.0
 40
4.0
 40
4.0
 40
4.0
 40
4.0
 10
103.1454698092831
 20
-153.6226643496152
 30
0.0
 10
103.1454698092831
 20
-153.6226643496152
 30
0.0
 10
102.5270751696807
 20
-153.6226643496152
 30
0.0
 10
102.5270751696807
 20
-153.6226643496152
 30
0.0
 10
102.5270751696807
 20
-153.6226643496152
 30
0.0
 10
102.5270751696807
 20
-153.7370415197254
 30
0.0
 10
102.5270751696807
 20
-153.7370415197254
 30
0.0
 10
102.5270751696807
 20
-153.7370415197254
 30
0.0
 10
103.1454698092831
 20
-153.7370415197254
 30
0.0
 10
103.1454698092831
 20
-153.7370415197254
 30
0.0
 10
103.1454698092831
 20
-153.7370415197254
 30
0.0
 10
103.1454698092831
 20
-153.6226643496152
 30
0.0
 10
103.1454698092831
 20
-153.6226643496152
 30
0.0
  0
SPLINE
  5
103
330
F9
100
AcDbEntity
  8
レイヤー 1
100
AcDbSpline
210
0.0
220
0.0
230
1.0
 70
    11
 71
     3
 72
    17
 73
    13
 74
     0
 42
0.0000000001
 43
0.0000000001
 40
0.0
 40
0.0
 40
0.0
 40
0.0
 40
1.0
 40
1.0
 40
1.0
 40
2.0
 40
2.0
 40
2.0
 40
3.0
 40
3.0
 40
3.0
 40
4.0
 40
4.0
 40
4.0
 40
4.0
 10
103.1454698092831
 20
-153.3901204043608
 30
0.0
 10
103.1454698092831
 20
-153.3901204043608
 30
0.0
 10
102.5270751696807
 20
-153.3901204043608
 30
0.0
 10
102.5270751696807
 20
-153.3901204043608
 30
0.0
 10
102.5270751696807
 20
-153.3901204043608
 30
0.0
 10
102.5270751696807
 20
-153.4979518930491
 30
0.0
 10
102.5270751696807
 20
-153.4979518930491
 30
0.0
 10
102.5270751696807
 20
-153.4979518930491
 30
0.0
 10
103.1454698092831
 20
-153.4979518930491
 30
0.0
 10
103.1454698092831
 20
-153.4979518930491
 30
0.0
 10
103.1454698092831
 20
-153.4979518930491
 30
0.0
 10
103.1454698092831
 20
-153.3901204043608
 30
0.0
 10
103.1454698092831
 20
-153.3901204043608
 30
0.0
  0
SPLINE
  5
104
330
F9
100
AcDbEntity
  8
レイヤー 1
100
AcDbSpline
210
0.0
220
0.0
230
1.0
 70
     9
 71
     3
 72
   203
 73
   199
 74
     0
 42
0.0000000001
 43
0.0000000001
 40
0.0
 40
0.0
 40
0.0
 40
0.0
 40
1.0
 40
1.0
 40
1.0
 40
2.0
 40
2.0
 40
2.0
 40
3.0
 40
3.0
 40
3.0
 40
4.0
 40
4.0
 40
4.0
 40
5.0
 40
5.0
 40
5.0
 40
6.0
 40
6.0
 40
6.0
 40
7.0
 40
7.0
 40
7.0
 40
8.0
 40
8.0
 40
8.0
 40
9.0
 40
9.0
 40
9.0
 40
10.0
 40
10.0
 40
10.0
 40
11.0
 40
11.0
 40
11.0
 40
12.0
 40
12.0
 40
12.0
 40
13.0
 40
13.0
 40
13.0
 40
14.0
 40
14.0
 40
14.0
 40
15.0
 40
15.0
 40
15.0
 40
16.0
 40
16.0
 40
16.0
 40
17.0
 40
17.0
 40
17.0
 40
18.0
 40
18.0
 40
18.0
 40
19.0
 40
19.0
 40
19.0
 40
20.0
 40
20.0
 40
20.0
 40
21.0
 40
21.0
 40
21.0
 40
22.0
 40
22.0
 40
22.0
 40
23.0
 40
23.0
 40
23.0
 40
24.0
 40
24.0
 40
24.0
 40
25.0
 40
25.0
 40
25.0
 40
26.0
 40
26.0
 40
26.0
 40
27.0
 40
27.0
 40
27.0
 40
28.0
 40
28.0
 40
28.0
 40
29.0
 40
29.0
 40
29.0
 40
30.0
 40
30.0
 40
30.0
 40
31.0
 40
31.0
 40
31.0
 40
32.0
 40
32.0
 40
32.0
 40
33.0
 40
33.0
 40
33.0
 40
34.0
 40
34.0
 40
34.0
 40
35.0
 40
35.0
 40
35.0
 40
36.0
 40
36.0
 40
36.0
 40
37.0
 40
37.0
 40
37.0
 40
38.0
 40
38.0
 40
38.0
 40
39.0
 40
39.0
 40
39.0
 40
40.0
 40
40.0
 40
40.0
 40
41.0
 40
41.0
 40
41.0
 40
42.0
 40
42.0
 40
42.0
 40
43.0
 40
43.0
 40
43.0
 40
44.0
 40
44.0
 40
44.0
 40
45.0
 40
45.0
 40
45.0
 40
46.0
 40
46.0
 40
46.0
 40
47.0
 40
47.0
 40
47.0
 40
48.0
 40
48.0
 40
48.0
 40
49.0
 40
49.0
 40
49.0
 40
50.0
 40
50.0
 40
50.0
 40
51.0
 40
51.0
 40
51.0
 40
52.0
 40
52.0
 40
52.0
 40
53.0
 40
53.0
 40
53.0
 40
54.0
 40
54.0
 40
54.0
 40
55.0
 40
55.0
 40
55.0
 40
56.0
 40
56.0
 40
56.0
 40
57.0
 40
57.0
 40
57.0
 40
58.0
 40
58.0
 40
58.0
 40
59.0
 40
59.0
 40
59.0
 40
60.0
 40
60.0
 40
60.0
 40
61.0
 40
61.0
 40
61.0
 40
62.0
 40
62.0
 40
62.0
 40
63.0
 40
63.0
 40
63.0
 40
64.0
 40
64.0
 40
64.0
 40
65.0
 40
65.0
 40
65.0
 40
66.0
 40
66.0
 40
66.0
 40
66.0
 10
103.0011203084511
 20
-153.1341498098067
 30
0.0
 10
103.0011203084511
 20
-153.1341498098067
 30
0.0
 10
102.5122612590941
 20
-153.1341498098067
 30
0.0
 10
102.5122612590941
 20
-153.1341498098067
 30
0.0
 10
102.502959501284
 20
-153.1785915415665
 30
0.0
 10
102.4957248007649
 20
-153.2102864200308
 30
0.0
 10
102.4847004952121
 20
-153.248526979917
 30
0.0
 10
102.5067491063177
 20
-153.248526979917
 30
0.0
 10
102.5198404691617
 20
-153.2505940372082
 30
0.0
 10
102.5253526219381
 20
-153.2505940372082
 30
0.0
 10
102.5253526219381
 20
-153.2505940372082
 30
0.0
 10
102.690028186133
 20
-153.2505940372082
 30
0.0
 10
102.690028186133
 20
-153.2505940372082
 30
0.0
 10
102.690028186133
 20
-153.2505940372082
 30
0.0
 10
103.0180012763288
 20
-153.2505940372082
 30
0.0
 10
103.0180012763288
 20
-153.2505940372082
 30
0.0
 10
103.06209849854
 20
-153.2505940372082
 30
0.0
 10
103.3104898830265
 20
-153.2378471839128
 30
0.0
 10
103.3380506469085
 20
-153.2378471839128
 30
0.0
 10
103.3363280991659
 20
-153.2654079477947
 30
0.0
 10
103.3346055514233
 20
-153.2843559729636
 30
0.0
 10
103.3346055514233
 20
-153.3139837941368
 30
0.0
 10
103.3325384941321
 20
-153.3456786726011
 30
0.0
 10
103.3325384941321
 20
-153.4810709251714
 30
0.0
 10
103.3325384941321
 20
-153.5086316890534
 30
0.0
 10
103.3325384941321
 20
-153.5086316890534
 30
0.0
 10
103.3325384941321
 20
-153.7539224876032
 30
0.0
 10
103.3325384941321
 20
-153.7539224876032
 30
0.0
 10
103.3325384941321
 20
-153.7983642193629
 30
0.0
 10
103.3363280991659
 20
-153.9950791715707
 30
0.0
 10
103.3401177041997
 20
-154.1473523920187
 30
0.0
 10
103.3401177041997
 20
-154.1473523920187
 30
0.0
 10
103.1420247137978
 20
-154.1473523920187
 30
0.0
 10
103.1420247137978
 20
-154.1473523920187
 30
0.0
 10
103.1420247137978
 20
-154.1473523920187
 30
0.0
 10
103.1437472615404
 20
-154.1135904562632
 30
0.0
 10
103.1437472615404
 20
-154.1135904562632
 30
0.0
 10
103.1437472615404
 20
-154.1135904562632
 30
0.0
 10
102.5287977174233
 20
-154.1135904562632
 30
0.0
 10
102.5287977174233
 20
-154.1135904562632
 30
0.0
 10
102.5287977174233
 20
-154.1135904562632
 30
0.0
 10
102.5308647747145
 20
-154.1473523920187
 30
0.0
 10
102.5308647747145
 20
-154.1473523920187
 30
0.0
 10
102.5308647747145
 20
-154.1473523920187
 30
0.0
 10
102.3400064848317
 20
-154.1473523920187
 30
0.0
 10
102.3400064848317
 20
-154.1473523920187
 30
0.0
 10
102.3437960898654
 20
-154.0925753738032
 30
0.0
 10
102.3437960898654
 20
-154.0798285205078
 30
0.0
 10
102.3493082426418
 20
-153.9654513503975
 30
0.0
 10
102.3510307903845
 20
-153.9378905865155
 30
0.0
 10
102.3530978476756
 20
-153.8049099007849
 30
0.0
 10
102.3530978476756
 20
-153.7856173660675
 30
0.0
 10
102.3530978476756
 20
-153.7856173660675
 30
0.0
 10
102.3530978476756
 20
-153.5827012419863
 30
0.0
 10
102.3530978476756
 20
-153.5827012419863
 30
0.0
 10
102.2307969579492
 20
-153.8321261551184
 30
0.0
 10
102.0826578520835
 20
-153.9633842931064
 30
0.0
 10
101.9899847835303
 20
-154.0288411073261
 30
0.0
 10
101.9899847835303
 20
-154.0288411073261
 30
0.0
 10
101.8384005821793
 20
-153.8893147401735
 30
0.0
 10
101.8384005821793
 20
-153.8893147401735
 30
0.0
 10
101.9159152305974
 20
-153.8386718365403
 30
0.0
 10
102.0420057253575
 20
-153.751855430312
 30
0.0
 10
102.1622395577927
 20
-153.5572075353954
 30
0.0
 10
102.241821263502
 20
-153.4304280215382
 30
0.0
 10
102.2993543581057
 20
-153.2864230302548
 30
0.0
 10
102.3289821792788
 20
-153.1341498098067
 30
0.0
 10
102.1291666411344
 20
-153.1362168670979
 30
0.0
 10
101.9717257774584
 20
-153.1427625485198
 30
0.0
 10
101.8883544667154
 20
-153.144829605811
 30
0.0
 10
101.8883544667154
 20
-153.144829605811
 30
0.0
 10
101.8883544667154
 20
-152.9670626787721
 30
0.0
 10
101.8883544667154
 20
-152.9670626787721
 30
0.0
 10
102.0606092409779
 20
-152.9732638506455
 30
0.0
 10
102.3086561159159
 20
-152.9777424747764
 30
0.0
 10
102.4399142539039
 20
-152.9777424747764
 30
0.0
 10
102.4399142539039
 20
-152.9777424747764
 30
0.0
 10
102.626982938753
 20
-152.9777424747764
 30
0.0
 10
102.626982938753
 20
-152.9777424747764
 30
0.0
 10
102.626982938753
 20
-152.9777424747764
 30
0.0
 10
102.626982938753
 20
-152.8695664765395
 30
0.0
 10
102.626982938753
 20
-152.8695664765395
 30
0.0
 10
102.626982938753
 20
-152.8695664765395
 30
0.0
 10
102.4991698962502
 20
-152.8695664765395
 30
0.0
 10
102.4991698962502
 20
-152.8695664765395
 30
0.0
 10
102.3510307903845
 20
-152.8695664765395
 30
0.0
 10
102.2028916845187
 20
-152.8740451006703
 30
0.0
 10
102.0568196359441
 20
-152.8802462725438
 30
0.0
 10
102.0568196359441
 20
-152.8802462725438
 30
0.0
 10
102.0568196359441
 20
-152.7090250269269
 30
0.0
 10
102.0568196359441
 20
-152.7090250269269
 30
0.0
 10
102.1918673789659
 20
-152.7193603133827
 30
0.0
 10
102.3548203954182
 20
-152.7193603133827
 30
0.0
 10
102.4991698962502
 20
-152.7193603133827
 30
0.0
 10
102.4991698962502
 20
-152.7193603133827
 30
0.0
 10
102.626982938753
 20
-152.7193603133827
 30
0.0
 10
102.626982938753
 20
-152.7193603133827
 30
0.0
 10
102.626982938753
 20
-152.7193603133827
 30
0.0
 10
102.626982938753
 20
-152.6011935382386
 30
0.0
 10
102.626982938753
 20
-152.6011935382386
 30
0.0
 10
102.626982938753
 20
-152.6011935382386
 30
0.0
 10
102.5122612590941
 20
-152.6011935382386
 30
0.0
 10
102.5122612590941
 20
-152.6011935382386
 30
0.0
 10
102.4716091323682
 20
-152.6011935382386
 30
0.0
 10
102.2938422053293
 20
-152.6094617674032
 30
0.0
 10
102.2566351740886
 20
-152.6094617674032
 30
0.0
 10
102.0788682470497
 20
-152.6135958819855
 30
0.0
 10
102.0123779041844
 20
-152.6156629392766
 30
0.0
 10
101.9438205040279
 20
-152.6180745061163
 30
0.0
 10
101.9438205040279
 20
-152.6180745061163
 30
0.0
 10
101.9438205040279
 20
-152.4337618976554
 30
0.0
 10
101.9438205040279
 20
-152.4337618976554
 30
0.0
 10
102.0437282731002
 20
-152.4423746363686
 30
0.0
 10
102.0826578520835
 20
-152.4423746363686
 30
0.0
 10
102.4178656427983
 20
-152.4509873750817
 30
0.0
 10
102.3623996054858
 20
-152.3555582301403
 30
0.0
 10
102.338283937089
 20
-152.3279974662583
 30
0.0
 10
102.3069335681733
 20
-152.2921684732117
 30
0.0
 10
102.3069335681733
 20
-152.2921684732117
 30
0.0
 10
102.4605848268154
 20
-152.2094861815657
 30
0.0
 10
102.4605848268154
 20
-152.2094861815657
 30
0.0
 10
102.4957248007649
 20
-152.2456596841608
 30
0.0
 10
102.5346543797483
 20
-152.2880343586294
 30
0.0
 10
102.599422174871
 20
-152.3979329046088
 30
0.0
 10
102.599422174871
 20
-152.3979329046088
 30
0.0
 10
102.4991698962502
 20
-152.4530544323728
 30
0.0
 10
102.4991698962502
 20
-152.4530544323728
 30
0.0
 10
102.4991698962502
 20
-152.4530544323728
 30
0.0
 10
102.5084716540604
 20
-152.4530544323728
 30
0.0
 10
102.5084716540604
 20
-152.4530544323728
 30
0.0
 10
102.5084716540604
 20
-152.4530544323728
 30
0.0
 10
102.9659803345015
 20
-152.4530544323728
 30
0.0
 10
102.9659803345015
 20
-152.4530544323728
 30
0.0
 10
102.9659803345015
 20
-152.4530544323728
 30
0.0
 10
102.8826090237585
 20
-152.4086127006131
 30
0.0
 10
102.8826090237585
 20
-152.4086127006131
 30
0.0
 10
102.9067246921552
 20
-152.3703721407268
 30
0.0
 10
102.9566785766914
 20
-152.2901014159205
 30
0.0
 10
102.9697699395353
 20
-152.2160318629877
 30
0.0
 10
102.9697699395353
 20
-152.2160318629877
 30
0.0
 10
103.1568386243844
 20
-152.2794216199162
 30
0.0
 10
103.1568386243844
 20
-152.2794216199162
 30
0.0
 10
103.1640733249034
 20
-152.2814886772074
 30
0.0
 10
103.1826768405238
 20
-152.2921684732117
 30
0.0
 10
103.1826768405238
 20
-152.3131835556717
 30
0.0
 10
103.1826768405238
 20
-152.351424115558
 30
0.0
 10
103.1251437459201
 20
-152.351424115558
 30
0.0
 10
103.1086072875909
 20
-152.351424115558
 30
0.0
 10
103.0993055297807
 20
-152.3703721407268
 30
0.0
 10
103.0789794664177
 20
-152.4106797579043
 30
0.0
 10
103.0531412502784
 20
-152.4509873750817
 30
0.0
 10
103.4031629515798
 20
-152.4444416936597
 30
0.0
 10
103.4290011677191
 20
-152.4423746363686
 30
0.0
 10
103.4954915105845
 20
-152.4361734644951
 30
0.0
 10
103.4954915105845
 20
-152.4361734644951
 30
0.0
 10
103.4954915105845
 20
-152.6180745061163
 30
0.0
 10
103.4954915105845
 20
-152.6180745061163
 30
0.0
 10
103.4789550522553
 20
-152.6180745061163
 30
0.0
 10
103.4565619316011
 20
-152.6156629392766
 30
0.0
 10
103.2639810939756
 20
-152.607394710112
 30
0.0
 10
103.2195393622159
 20
-152.6053276528209
 30
0.0
 10
103.0269585245905
 20
-152.6011935382386
 30
0.0
 10
102.9883734551557
 20
-152.6011935382386
 30
0.0
 10
102.9883734551557
 20
-152.6011935382386
 30
0.0
 10
102.7992377130154
 20
-152.6011935382386
 30
0.0
 10
102.7992377130154
 20
-152.6011935382386
 30
0.0
 10
102.7992377130154
 20
-152.6011935382386
 30
0.0
 10
102.7992377130154
 20
-152.7193603133827
 30
0.0
 10
102.7992377130154
 20
-152.7193603133827
 30
0.0
 10
102.7992377130154
 20
-152.7193603133827
 30
0.0
 10
102.951166423915
 20
-152.7193603133827
 30
0.0
 10
102.951166423915
 20
-152.7193603133827
 30
0.0
 10
103.0937933770043
 20
-152.7193603133827
 30
0.0
 10
103.2605359984904
 20
-152.7193603133827
 30
0.0
 10
103.3973062892548
 20
-152.7090250269269
 30
0.0
 10
103.3973062892548
 20
-152.7090250269269
 30
0.0
 10
103.3973062892548
 20
-152.8802462725438
 30
0.0
 10
103.3973062892548
 20
-152.8802462725438
 30
0.0
 10
103.2140272094395
 20
-152.8719780433792
 30
0.0
 10
103.041772435177
 20
-152.8695664765395
 30
0.0
 10
102.951166423915
 20
-152.8695664765395
 30
0.0
 10
102.951166423915
 20
-152.8695664765395
 30
0.0
 10
102.7992377130154
 20
-152.8695664765395
 30
0.0
 10
102.7992377130154
 20
-152.8695664765395
 30
0.0
 10
102.7992377130154
 20
-152.8695664765395
 30
0.0
 10
102.7992377130154
 20
-152.9777424747764
 30
0.0
 10
102.7992377130154
 20
-152.9777424747764
 30
0.0
 10
102.7992377130154
 20
-152.9777424747764
 30
0.0
 10
103.0011203084511
 20
-152.9777424747764
 30
0.0
 10
103.0011203084511
 20
-152.9777424747764
 30
0.0
 10
103.1179090454011
 20
-152.9777424747764
 30
0.0
 10
103.3697455253728
 20
-152.9732638506455
 30
0.0
 10
103.5530246051881
 20
-152.9670626787721
 30
0.0
 10
103.5530246051881
 20
-152.9670626787721
 30
0.0
 10
103.5530246051881
 20
-153.144829605811
 30
0.0
 10
103.5530246051881
 20
-153.144829605811
 30
0.0
 10
103.3845594359594
 20
-153.138283924389
 30
0.0
 10
103.1103298353335
 20
-153.1341498098067
 30
0.0
 10
103.0011203084511
 20
-153.1341498098067
 30
0.0
  0
HATCH
  5
105
330
F9
100
AcDbEntity
  8
レイヤー 1
 62
   250
420
  2299925
440
 33554687
100
AcDbHatch
 10
0.0
 20
0.0
 30
0.0
210
0.0
220
0.0
230
1.0
  2
SOLID
 70
     1
 71
     1
 91
        4
 92
        1
 93
        1
 72
     4
 94
        3
 73
     0
 74
     0
 95
       17
 96
       13
 40
0.0
 40
0.0
 40
0.0
 40
0.0
 40
1.0
 40
1.0
 40
1.0
 40
2.0
 40
2.0
 40
2.0
 40
3.0
 40
3.0
 40
3.0
 40
4.0
 40
4.0
 40
4.0
 40
4.0
 10
103.1454698092831
 20
-153.8662326004223
 10
103.1454698092831
 20
-153.8662326004223
 10
102.5270751696807
 20
-153.8662326004223
 10
102.5270751696807
 20
-153.8662326004223
 10
102.5270751696807
 20
-153.8662326004223
 10
102.5270751696807
 20
-153.9802652609841
 10
102.5270751696807
 20
-153.9802652609841
 10
102.5270751696807
 20
-153.9802652609841
 10
103.1454698092831
 20
-153.9802652609841
 10
103.1454698092831
 20
-153.9802652609841
 10
103.1454698092831
 20
-153.9802652609841
 10
103.1454698092831
 20
-153.8662326004223
 10
103.1454698092831
 20
-153.8662326004223
 97
        0
 97
        1
330
101
 92
        1
 93
        1
 72
     4
 94
        3
 73
     0
 74
     0
 95
       17
 96
       13
 40
0.0
 40
0.0
 40
0.0
 40
0.0
 40
1.0
 40
1.0
 40
1.0
 40
2.0
 40
2.0
 40
2.0
 40
3.0
 40
3.0
 40
3.0
 40
4.0
 40
4.0
 40
4.0
 40
4.0
 10
103.1454698092831
 20
-153.6226643496152
 10
103.1454698092831
 20
-153.6226643496152
 10
102.5270751696807
 20
-153.6226643496152
 10
102.5270751696807
 20
-153.6226643496152
 10
102.5270751696807
 20
-153.6226643496152
 10
102.5270751696807
 20
-153.7370415197254
 10
102.5270751696807
 20
-153.7370415197254
 10
102.5270751696807
 20
-153.7370415197254
 10
103.1454698092831
 20
-153.7370415197254
 10
103.1454698092831
 20
-153.7370415197254
 10
103.1454698092831
 20
-153.7370415197254
 10
103.1454698092831
 20
-153.6226643496152
 10
103.1454698092831
 20
-153.6226643496152
 97
        0
 97
        1
330
102
 92
        1
 93
        1
 72
     4
 94
        3
 73
     0
 74
     0
 95
       17
 96
       13
 40
0.0
 40
0.0
 40
0.0
 40
0.0
 40
1.0
 40
1.0
 40
1.0
 40
2.0
 40
2.0
 40
2.0
 40
3.0
 40
3.0
 40
3.0
 40
4.0
 40
4.0
 40
4.0
 40
4.0
 10
103.1454698092831
 20
-153.3901204043608
 10
103.1454698092831
 20
-153.3901204043608
 10
102.5270751696807
 20
-153.3901204043608
 10
102.5270751696807
 20
-153.3901204043608
 10
102.5270751696807
 20
-153.3901204043608
 10
102.5270751696807
 20
-153.4979518930491
 10
102.5270751696807
 20
-153.4979518930491
 10
102.5270751696807
 20
-153.4979518930491
 10
103.1454698092831
 20
-153.4979518930491
 10
103.1454698092831
 20
-153.4979518930491
 10
103.1454698092831
 20
-153.4979518930491
 10
103.1454698092831
 20
-153.3901204043608
 10
103.1454698092831
 20
-153.3901204043608
 97
        0
 97
        1
330
103
 92
        1
 93
        1
 72
     4
 94
        3
 73
     0
 74
     0
 95
      203
 96
      199
 40
0.0
 40
0.0
 40
0.0
 40
0.0
 40
1.0
 40
1.0
 40
1.0
 40
2.0
 40
2.0
 40
2.0
 40
3.0
 40
3.0
 40
3.0
 40
4.0
 40
4.0
 40
4.0
 40
5.0
 40
5.0
 40
5.0
 40
6.0
 40
6.0
 40
6.0
 40
7.0
 40
7.0
 40
7.0
 40
8.0
 40
8.0
 40
8.0
 40
9.0
 40
9.0
 40
9.0
 40
10.0
 40
10.0
 40
10.0
 40
11.0
 40
11.0
 40
11.0
 40
12.0
 40
12.0
 40
12.0
 40
13.0
 40
13.0
 40
13.0
 40
14.0
 40
14.0
 40
14.0
 40
15.0
 40
15.0
 40
15.0
 40
16.0
 40
16.0
 40
16.0
 40
17.0
 40
17.0
 40
17.0
 40
18.0
 40
18.0
 40
18.0
 40
19.0
 40
19.0
 40
19.0
 40
20.0
 40
20.0
 40
20.0
 40
21.0
 40
21.0
 40
21.0
 40
22.0
 40
22.0
 40
22.0
 40
23.0
 40
23.0
 40
23.0
 40
24.0
 40
24.0
 40
24.0
 40
25.0
 40
25.0
 40
25.0
 40
26.0
 40
26.0
 40
26.0
 40
27.0
 40
27.0
 40
27.0
 40
28.0
 40
28.0
 40
28.0
 40
29.0
 40
29.0
 40
29.0
 40
30.0
 40
30.0
 40
30.0
 40
31.0
 40
31.0
 40
31.0
 40
32.0
 40
32.0
 40
32.0
 40
33.0
 40
33.0
 40
33.0
 40
34.0
 40
34.0
 40
34.0
 40
35.0
 40
35.0
 40
35.0
 40
36.0
 40
36.0
 40
36.0
 40
37.0
 40
37.0
 40
37.0
 40
38.0
 40
38.0
 40
38.0
 40
39.0
 40
39.0
 40
39.0
 40
40.0
 40
40.0
 40
40.0
 40
41.0
 40
41.0
 40
41.0
 40
42.0
 40
42.0
 40
42.0
 40
43.0
 40
43.0
 40
43.0
 40
44.0
 40
44.0
 40
44.0
 40
45.0
 40
45.0
 40
45.0
 40
46.0
 40
46.0
 40
46.0
 40
47.0
 40
47.0
 40
47.0
 40
48.0
 40
48.0
 40
48.0
 40
49.0
 40
49.0
 40
49.0
 40
50.0
 40
50.0
 40
50.0
 40
51.0
 40
51.0
 40
51.0
 40
52.0
 40
52.0
 40
52.0
 40
53.0
 40
53.0
 40
53.0
 40
54.0
 40
54.0
 40
54.0
 40
55.0
 40
55.0
 40
55.0
 40
56.0
 40
56.0
 40
56.0
 40
57.0
 40
57.0
 40
57.0
 40
58.0
 40
58.0
 40
58.0
 40
59.0
 40
59.0
 40
59.0
 40
60.0
 40
60.0
 40
60.0
 40
61.0
 40
61.0
 40
61.0
 40
62.0
 40
62.0
 40
62.0
 40
63.0
 40
63.0
 40
63.0
 40
64.0
 40
64.0
 40
64.0
 40
65.0
 40
65.0
 40
65.0
 40
66.0
 40
66.0
 40
66.0
 40
66.0
 10
103.0011203084511
 20
-153.1341498098067
 10
103.0011203084511
 20
-153.1341498098067
 10
102.5122612590941
 20
-153.1341498098067
 10
102.5122612590941
 20
-153.1341498098067
 10
102.502959501284
 20
-153.1785915415665
 10
102.4957248007649
 20
-153.2102864200308
 10
102.4847004952121
 20
-153.248526979917
 10
102.5067491063177
 20
-153.248526979917
 10
102.5198404691617
 20
-153.2505940372082
 10
102.5253526219381
 20
-153.2505940372082
 10
102.5253526219381
 20
-153.2505940372082
 10
102.690028186133
 20
-153.2505940372082
 10
102.690028186133
 20
-153.2505940372082
 10
102.690028186133
 20
-153.2505940372082
 10
103.0180012763288
 20
-153.2505940372082
 10
103.0180012763288
 20
-153.2505940372082
 10
103.06209849854
 20
-153.2505940372082
 10
103.3104898830265
 20
-153.2378471839128
 10
103.3380506469085
 20
-153.2378471839128
 10
103.3363280991659
 20
-153.2654079477947
 10
103.3346055514233
 20
-153.2843559729636
 10
103.3346055514233
 20
-153.3139837941368
 10
103.3325384941321
 20
-153.3456786726011
 10
103.3325384941321
 20
-153.4810709251714
 10
103.3325384941321
 20
-153.5086316890534
 10
103.3325384941321
 20
-153.5086316890534
 10
103.3325384941321
 20
-153.7539224876032
 10
103.3325384941321
 20
-153.7539224876032
 10
103.3325384941321
 20
-153.7983642193629
 10
103.3363280991659
 20
-153.9950791715707
 10
103.3401177041997
 20
-154.1473523920187
 10
103.3401177041997
 20
-154.1473523920187
 10
103.1420247137978
 20
-154.1473523920187
 10
103.1420247137978
 20
-154.1473523920187
 10
103.1420247137978
 20
-154.1473523920187
 10
103.1437472615404
 20
-154.1135904562632
 10
103.1437472615404
 20
-154.1135904562632
 10
103.1437472615404
 20
-154.1135904562632
 10
102.5287977174233
 20
-154.1135904562632
 10
102.5287977174233
 20
-154.1135904562632
 10
102.5287977174233
 20
-154.1135904562632
 10
102.5308647747145
 20
-154.1473523920187
 10
102.5308647747145
 20
-154.1473523920187
 10
102.5308647747145
 20
-154.1473523920187
 10
102.3400064848317
 20
-154.1473523920187
 10
102.3400064848317
 20
-154.1473523920187
 10
102.3437960898654
 20
-154.0925753738032
 10
102.3437960898654
 20
-154.0798285205078
 10
102.3493082426418
 20
-153.9654513503975
 10
102.3510307903845
 20
-153.9378905865155
 10
102.3530978476756
 20
-153.8049099007849
 10
102.3530978476756
 20
-153.7856173660675
 10
102.3530978476756
 20
-153.7856173660675
 10
102.3530978476756
 20
-153.5827012419863
 10
102.3530978476756
 20
-153.5827012419863
 10
102.2307969579492
 20
-153.8321261551184
 10
102.0826578520835
 20
-153.9633842931064
 10
101.9899847835303
 20
-154.0288411073261
 10
101.9899847835303
 20
-154.0288411073261
 10
101.8384005821793
 20
-153.8893147401735
 10
101.8384005821793
 20
-153.8893147401735
 10
101.9159152305974
 20
-153.8386718365403
 10
102.0420057253575
 20
-153.751855430312
 10
102.1622395577927
 20
-153.5572075353954
 10
102.241821263502
 20
-153.4304280215382
 10
102.2993543581057
 20
-153.2864230302548
 10
102.3289821792788
 20
-153.1341498098067
 10
102.1291666411344
 20
-153.1362168670979
 10
101.9717257774584
 20
-153.1427625485198
 10
101.8883544667154
 20
-153.144829605811
 10
101.8883544667154
 20
-153.144829605811
 10
101.8883544667154
 20
-152.9670626787721
 10
101.8883544667154
 20
-152.9670626787721
 10
102.0606092409779
 20
-152.9732638506455
 10
102.3086561159159
 20
-152.9777424747764
 10
102.4399142539039
 20
-152.9777424747764
 10
102.4399142539039
 20
-152.9777424747764
 10
102.626982938753
 20
-152.9777424747764
 10
102.626982938753
 20
-152.9777424747764
 10
102.626982938753
 20
-152.9777424747764
 10
102.626982938753
 20
-152.8695664765395
 10
102.626982938753
 20
-152.8695664765395
 10
102.626982938753
 20
-152.8695664765395
 10
102.4991698962502
 20
-152.8695664765395
 10
102.4991698962502
 20
-152.8695664765395
 10
102.3510307903845
 20
-152.8695664765395
 10
102.2028916845187
 20
-152.8740451006703
 10
102.0568196359441
 20
-152.8802462725438
 10
102.0568196359441
 20
-152.8802462725438
 10
102.0568196359441
 20
-152.7090250269269
 10
102.0568196359441
 20
-152.7090250269269
 10
102.1918673789659
 20
-152.7193603133827
 10
102.3548203954182
 20
-152.7193603133827
 10
102.4991698962502
 20
-152.7193603133827
 10
102.4991698962502
 20
-152.7193603133827
 10
102.626982938753
 20
-152.7193603133827
 10
102.626982938753
 20
-152.7193603133827
 10
102.626982938753
 20
-152.7193603133827
 10
102.626982938753
 20
-152.6011935382386
 10
102.626982938753
 20
-152.6011935382386
 10
102.626982938753
 20
-152.6011935382386
 10
102.5122612590941
 20
-152.6011935382386
 10
102.5122612590941
 20
-152.6011935382386
 10
102.4716091323682
 20
-152.6011935382386
 10
102.2938422053293
 20
-152.6094617674032
 10
102.2566351740886
 20
-152.6094617674032
 10
102.0788682470497
 20
-152.6135958819855
 10
102.0123779041844
 20
-152.6156629392766
 10
101.9438205040279
 20
-152.6180745061163
 10
101.9438205040279
 20
-152.6180745061163
 10
101.9438205040279
 20
-152.4337618976554
 10
101.9438205040279
 20
-152.4337618976554
 10
102.0437282731002
 20
-152.4423746363686
 10
102.0826578520835
 20
-152.4423746363686
 10
102.4178656427983
 20
-152.4509873750817
 10
102.3623996054858
 20
-152.3555582301403
 10
102.338283937089
 20
-152.3279974662583
 10
102.3069335681733
 20
-152.2921684732117
 10
102.3069335681733
 20
-152.2921684732117
 10
102.4605848268154
 20
-152.2094861815657
 10
102.4605848268154
 20
-152.2094861815657
 10
102.4957248007649
 20
-152.2456596841608
 10
102.5346543797483
 20
-152.2880343586294
 10
102.599422174871
 20
-152.3979329046088
 10
102.599422174871
 20
-152.3979329046088
 10
102.4991698962502
 20
-152.4530544323728
 10
102.4991698962502
 20
-152.4530544323728
 10
102.4991698962502
 20
-152.4530544323728
 10
102.5084716540604
 20
-152.4530544323728
 10
102.5084716540604
 20
-152.4530544323728
 10
102.5084716540604
 20
-152.4530544323728
 10
102.9659803345015
 20
-152.4530544323728
 10
102.9659803345015
 20
-152.4530544323728
 10
102.9659803345015
 20
-152.4530544323728
 10
102.8826090237585
 20
-152.4086127006131
 10
102.8826090237585
 20
-152.4086127006131
 10
102.9067246921552
 20
-152.3703721407268
 10
102.9566785766914
 20
-152.2901014159205
 10
102.9697699395353
 20
-152.2160318629877
 10
102.9697699395353
 20
-152.2160318629877
 10
103.1568386243844
 20
-152.2794216199162
 10
103.1568386243844
 20
-152.2794216199162
 10
103.1640733249034
 20
-152.2814886772074
 10
103.1826768405238
 20
-152.2921684732117
 10
103.1826768405238
 20
-152.3131835556717
 10
103.1826768405238
 20
-152.351424115558
 10
103.1251437459201
 20
-152.351424115558
 10
103.1086072875909
 20
-152.351424115558
 10
103.0993055297807
 20
-152.3703721407268
 10
103.0789794664177
 20
-152.4106797579043
 10
103.0531412502784
 20
-152.4509873750817
 10
103.4031629515798
 20
-152.4444416936597
 10
103.4290011677191
 20
-152.4423746363686
 10
103.4954915105845
 20
-152.4361734644951
 10
103.4954915105845
 20
-152.4361734644951
 10
103.4954915105845
 20
-152.6180745061163
 10
103.4954915105845
 20
-152.6180745061163
 10
103.4789550522553
 20
-152.6180745061163
 10
103.4565619316011
 20
-152.6156629392766
 10
103.2639810939756
 20
-152.607394710112
 10
103.2195393622159
 20
-152.6053276528209
 10
103.0269585245905
 20
-152.6011935382386
 10
102.9883734551557
 20
-152.6011935382386
 10
102.9883734551557
 20
-152.6011935382386
 10
102.7992377130154
 20
-152.6011935382386
 10
102.7992377130154
 20
-152.6011935382386
 10
102.7992377130154
 20
-152.6011935382386
 10
102.7992377130154
 20
-152.7193603133827
 10
102.7992377130154
 20
-152.7193603133827
 10
102.7992377130154
 20
-152.7193603133827
 10
102.951166423915
 20
-152.7193603133827
 10
102.951166423915
 20
-152.7193603133827
 10
103.0937933770043
 20
-152.7193603133827
 10
103.2605359984904
 20
-152.7193603133827
 10
103.3973062892548
 20
-152.7090250269269
 10
103.3973062892548
 20
-152.7090250269269
 10
103.3973062892548
 20
-152.8802462725438
 10
103.3973062892548
 20
-152.8802462725438
 10
103.2140272094395
 20
-152.8719780433792
 10
103.041772435177
 20
-152.8695664765395
 10
102.951166423915
 20
-152.8695664765395
 10
102.951166423915
 20
-152.8695664765395
 10
102.7992377130154
 20
-152.8695664765395
 10
102.7992377130154
 20
-152.8695664765395
 10
102.7992377130154
 20
-152.8695664765395
 10
102.7992377130154
 20
-152.9777424747764
 10
102.7992377130154
 20
-152.9777424747764
 10
102.7992377130154
 20
-152.9777424747764
 10
103.0011203084511
 20
-152.9777424747764
 10
103.0011203084511
 20
-152.9777424747764
 10
103.1179090454011
 20
-152.9777424747764
 10
103.3697455253728
 20
-152.9732638506455
 10
103.5530246051881
 20
-152.9670626787721
 10
103.5530246051881
 20
-152.9670626787721
 10
103.5530246051881
 20
-153.144829605811
 10
103.5530246051881
 20
-153.144829605811
 10
103.3845594359594
 20
-153.138283924389
 10
103.1103298353335
 20
-153.1341498098067
 10
103.0011203084511
 20
-153.1341498098067
 97
        0
 97
        1
330
104
 75
     2
 76
     1
 98
        1
 10
0.0
 20
0.0
450
        0
451
        0
460
0.0
461
0.0
452
        0
462
0.0
453
        0
470

  0
SPLINE
  5
106
330
F9
100
AcDbEntity
  8
レイヤー 1
100
AcDbSpline
210
0.0
220
0.0
230
1.0
 70
     9
 71
     3
 72
    29
 73
    25
 74
     0
 42
0.0000000001
 43
0.0000000001
 40
0.0
 40
0.0
 40
0.0
 40
0.0
 40
1.0
 40
1.0
 40
1.0
 40
2.0
 40
2.0
 40
2.0
 40
3.0
 40
3.0
 40
3.0
 40
4.0
 40
4.0
 40
4.0
 40
5.0
 40
5.0
 40
5.0
 40
6.0
 40
6.0
 40
6.0
 40
7.0
 40
7.0
 40
7.0
 40
8.0
 40
8.0
 40
8.0
 40
8.0
 10
104.6440863453667
 20
-152.5819010035212
 30
0.0
 10
104.6440863453667
 20
-152.5819010035212
 30
0.0
 10
104.3347167707913
 20
-152.5819010035212
 30
0.0
 10
104.3347167707913
 20
-152.5819010035212
 30
0.0
 10
104.2365315494617
 20
-152.5819010035212
 30
0.0
 10
104.1142306597353
 20
-152.5884466849431
 30
0.0
 10
104.0198350434395
 20
-152.6011935382386
 30
0.0
 10
104.0198350434395
 20
-152.6011935382386
 30
0.0
 10
104.0198350434395
 20
-152.3662380261446
 30
0.0
 10
104.0198350434395
 20
-152.3662380261446
 30
0.0
 10
104.1235324175455
 20
-152.3810519367311
 30
0.0
 10
104.2847628862552
 20
-152.3851860513134
 30
0.0
 10
104.3347167707913
 20
-152.3851860513134
 30
0.0
 10
104.3347167707913
 20
-152.3851860513134
 30
0.0
 10
104.6440863453667
 20
-152.3851860513134
 30
0.0
 10
104.6440863453667
 20
-152.3851860513134
 30
0.0
 10
104.6606228036959
 20
-152.3851860513134
 30
0.0
 10
104.8383897307348
 20
-152.3851860513134
 30
0.0
 10
104.9624131682038
 20
-152.3662380261446
 30
0.0
 10
104.9624131682038
 20
-152.3662380261446
 30
0.0
 10
104.9624131682038
 20
-152.6011935382386
 30
0.0
 10
104.9624131682038
 20
-152.6011935382386
 30
0.0
 10
104.8252983678909
 20
-152.5819010035212
 30
0.0
 10
104.6589002559533
 20
-152.5819010035212
 30
0.0
 10
104.6440863453667
 20
-152.5819010035212
 30
0.0
  0
SPLINE
  5
107
330
F9
100
AcDbEntity
  8
レイヤー 1
100
AcDbSpline
210
0.0
220
0.0
230
1.0
 70
     9
 71
     3
 72
    47
 73
    43
 74
     0
 42
0.0000000001
 43
0.0000000001
 40
0.0
 40
0.0
 40
0.0
 40
0.0
 40
1.0
 40
1.0
 40
1.0
 40
2.0
 40
2.0
 40
2.0
 40
3.0
 40
3.0
 40
3.0
 40
4.0
 40
4.0
 40
4.0
 40
5.0
 40
5.0
 40
5.0
 40
6.0
 40
6.0
 40
6.0
 40
7.0
 40
7.0
 40
7.0
 40
8.0
 40
8.0
 40
8.0
 40
9.0
 40
9.0
 40
9.0
 40
10.0
 40
10.0
 40
10.0
 40
11.0
 40
11.0
 40
11.0
 40
12.0
 40
12.0
 40
12.0
 40
13.0
 40
13.0
 40
13.0
 40
14.0
 40
14.0
 40
14.0
 40
14.0
 10
104.7329698088862
 20
-153.110723160507
 30
0.0
 10
104.7329698088862
 20
-153.110723160507
 30
0.0
 10
104.6440863453667
 20
-153.110723160507
 30
0.0
 10
104.6440863453667
 20
-153.110723160507
 30
0.0
 10
104.6440863453667
 20
-153.1975395667353
 30
0.0
 10
104.6254828297464
 20
-153.5868353565686
 30
0.0
 10
104.4532280554839
 20
-153.806976958076
 30
0.0
 10
104.3199028602047
 20
-153.9761311464018
 30
0.0
 10
104.1383463281321
 20
-154.0460665847523
 30
0.0
 10
104.0642767751992
 20
-154.0732828390858
 30
0.0
 10
104.0642767751992
 20
-154.0732828390858
 30
0.0
 10
103.8940890582279
 20
-153.9061957080512
 30
0.0
 10
103.8940890582279
 20
-153.9061957080512
 30
0.0
 10
103.9791829167135
 20
-153.8934488547558
 30
0.0
 10
104.1328341753557
 20
-153.8703667150046
 30
0.0
 10
104.2975097395506
 20
-153.6819199919615
 30
0.0
 10
104.3626220442218
 20
-153.6102620058682
 30
0.0
 10
104.4532280554839
 20
-153.4703911291671
 30
0.0
 10
104.4532280554839
 20
-153.110723160507
 30
0.0
 10
104.4532280554839
 20
-153.110723160507
 30
0.0
 10
104.2513454600483
 20
-153.110723160507
 30
0.0
 10
104.2513454600483
 20
-153.110723160507
 30
0.0
 10
104.0883924435959
 20
-153.110723160507
 30
0.0
 10
103.9254394271436
 20
-153.1152017846378
 30
0.0
 10
103.7624864106913
 20
-153.1300156952244
 30
0.0
 10
103.7624864106913
 20
-153.1300156952244
 30
0.0
 10
103.7624864106913
 20
-152.909874093717
 30
0.0
 10
103.7624864106913
 20
-152.909874093717
 30
0.0
 10
103.9275064844348
 20
-152.9246880043035
 30
0.0
 10
104.1772759071154
 20
-152.9288221188858
 30
0.0
 10
104.2513454600483
 20
-152.9288221188858
 30
0.0
 10
104.2513454600483
 20
-152.9288221188858
 30
0.0
 10
104.7329698088862
 20
-152.9288221188858
 30
0.0
 10
104.7329698088862
 20
-152.9288221188858
 30
0.0
 10
104.7495062672154
 20
-152.9288221188858
 30
0.0
 10
105.0271809633265
 20
-152.9288221188858
 30
0.0
 10
105.2273410110195
 20
-152.909874093717
 30
0.0
 10
105.2273410110195
 20
-152.909874093717
 30
0.0
 10
105.2273410110195
 20
-153.1300156952244
 30
0.0
 10
105.2273410110195
 20
-153.1300156952244
 30
0.0
 10
105.0623209372761
 20
-153.1152017846378
 30
0.0
 10
104.8976453730811
 20
-153.110723160507
 30
0.0
 10
104.7329698088862
 20
-153.110723160507
 30
0.0
  0
HATCH
  5
108
330
F9
100
AcDbEntity
  8
レイヤー 1
 62
   250
420
  2299925
440
 33554687
100
AcDbHatch
 10
0.0
 20
0.0
 30
0.0
210
0.0
220
0.0
230
1.0
  2
SOLID
 70
     1
 71
     1
 91
        2
 92
        1
 93
        1
 72
     4
 94
        3
 73
     0
 74
     0
 95
       29
 96
       25
 40
0.0
 40
0.0
 40
0.0
 40
0.0
 40
1.0
 40
1.0
 40
1.0
 40
2.0
 40
2.0
 40
2.0
 40
3.0
 40
3.0
 40
3.0
 40
4.0
 40
4.0
 40
4.0
 40
5.0
 40
5.0
 40
5.0
 40
6.0
 40
6.0
 40
6.0
 40
7.0
 40
7.0
 40
7.0
 40
8.0
 40
8.0
 40
8.0
 40
8.0
 10
104.6440863453667
 20
-152.5819010035212
 10
104.6440863453667
 20
-152.5819010035212
 10
104.3347167707913
 20
-152.5819010035212
 10
104.3347167707913
 20
-152.5819010035212
 10
104.2365315494617
 20
-152.5819010035212
 10
104.1142306597353
 20
-152.5884466849431
 10
104.0198350434395
 20
-152.6011935382386
 10
104.0198350434395
 20
-152.6011935382386
 10
104.0198350434395
 20
-152.3662380261446
 10
104.0198350434395
 20
-152.3662380261446
 10
104.1235324175455
 20
-152.3810519367311
 10
104.2847628862552
 20
-152.3851860513134
 10
104.3347167707913
 20
-152.3851860513134
 10
104.3347167707913
 20
-152.3851860513134
 10
104.6440863453667
 20
-152.3851860513134
 10
104.6440863453667
 20
-152.3851860513134
 10
104.6606228036959
 20
-152.3851860513134
 10
104.8383897307348
 20
-152.3851860513134
 10
104.9624131682038
 20
-152.3662380261446
 10
104.9624131682038
 20
-152.3662380261446
 10
104.9624131682038
 20
-152.6011935382386
 10
104.9624131682038
 20
-152.6011935382386
 10
104.8252983678909
 20
-152.5819010035212
 10
104.6589002559533
 20
-152.5819010035212
 10
104.6440863453667
 20
-152.5819010035212
 97
        0
 97
        1
330
106
 92
        1
 93
        1
 72
     4
 94
        3
 73
     0
 74
     0
 95
       47
 96
       43
 40
0.0
 40
0.0
 40
0.0
 40
0.0
 40
1.0
 40
1.0
 40
1.0
 40
2.0
 40
2.0
 40
2.0
 40
3.0
 40
3.0
 40
3.0
 40
4.0
 40
4.0
 40
4.0
 40
5.0
 40
5.0
 40
5.0
 40
6.0
 40
6.0
 40
6.0
 40
7.0
 40
7.0
 40
7.0
 40
8.0
 40
8.0
 40
8.0
 40
9.0
 40
9.0
 40
9.0
 40
10.0
 40
10.0
 40
10.0
 40
11.0
 40
11.0
 40
11.0
 40
12.0
 40
12.0
 40
12.0
 40
13.0
 40
13.0
 40
13.0
 40
14.0
 40
14.0
 40
14.0
 40
14.0
 10
104.7329698088862
 20
-153.110723160507
 10
104.7329698088862
 20
-153.110723160507
 10
104.6440863453667
 20
-153.110723160507
 10
104.6440863453667
 20
-153.110723160507
 10
104.6440863453667
 20
-153.1975395667353
 10
104.6254828297464
 20
-153.5868353565686
 10
104.4532280554839
 20
-153.806976958076
 10
104.3199028602047
 20
-153.9761311464018
 10
104.1383463281321
 20
-154.0460665847523
 10
104.0642767751992
 20
-154.0732828390858
 10
104.0642767751992
 20
-154.0732828390858
 10
103.8940890582279
 20
-153.9061957080512
 10
103.8940890582279
 20
-153.9061957080512
 10
103.9791829167135
 20
-153.8934488547558
 10
104.1328341753557
 20
-153.8703667150046
 10
104.2975097395506
 20
-153.6819199919615
 10
104.3626220442218
 20
-153.6102620058682
 10
104.4532280554839
 20
-153.4703911291671
 10
104.4532280554839
 20
-153.110723160507
 10
104.4532280554839
 20
-153.110723160507
 10
104.2513454600483
 20
-153.110723160507
 10
104.2513454600483
 20
-153.110723160507
 10
104.0883924435959
 20
-153.110723160507
 10
103.9254394271436
 20
-153.1152017846378
 10
103.7624864106913
 20
-153.1300156952244
 10
103.7624864106913
 20
-153.1300156952244
 10
103.7624864106913
 20
-152.909874093717
 10
103.7624864106913
 20
-152.909874093717
 10
103.9275064844348
 20
-152.9246880043035
 10
104.1772759071154
 20
-152.9288221188858
 10
104.2513454600483
 20
-152.9288221188858
 10
104.2513454600483
 20
-152.9288221188858
 10
104.7329698088862
 20
-152.9288221188858
 10
104.7329698088862
 20
-152.9288221188858
 10
104.7495062672154
 20
-152.9288221188858
 10
105.0271809633265
 20
-152.9288221188858
 10
105.2273410110195
 20
-152.909874093717
 10
105.2273410110195
 20
-152.909874093717
 10
105.2273410110195
 20
-153.1300156952244
 10
105.2273410110195
 20
-153.1300156952244
 10
105.0623209372761
 20
-153.1152017846378
 10
104.8976453730811
 20
-153.110723160507
 10
104.7329698088862
 20
-153.110723160507
 97
        0
 97
        1
330
107
 75
     2
 76
     1
 98
        1
 10
0.0
 20
0.0
450
        0
451
        0
460
0.0
461
0.0
452
        0
462
0.0
453
        0
470

  0
SPLINE
  5
109
330
F9
100
AcDbEntity
  8
レイヤー 1
100
AcDbSpline
210
0.0
220
0.0
230
1.0
 70
     9
 71
     3
 72
    29
 73
    25
 74
     0
 42
0.0000000001
 43
0.0000000001
 40
0.0
 40
0.0
 40
0.0
 40
0.0
 40
1.0
 40
1.0
 40
1.0
 40
2.0
 40
2.0
 40
2.0
 40
3.0
 40
3.0
 40
3.0
 40
4.0
 40
4.0
 40
4.0
 40
5.0
 40
5.0
 40
5.0
 40
6.0
 40
6.0
 40
6.0
 40
7.0
 40
7.0
 40
7.0
 40
8.0
 40
8.0
 40
8.0
 40
8.0
 10
106.3494086105654
 20
-153.2736761769593
 30
0.0
 10
106.3494086105654
 20
-153.2736761769593
 30
0.0
 10
105.9256618658797
 20
-153.2736761769593
 30
0.0
 10
105.9256618658797
 20
-153.2736761769593
 30
0.0
 10
105.9015461974829
 20
-153.2736761769593
 30
0.0
 10
105.6238715013718
 20
-153.2736761769593
 30
0.0
 10
105.4385253642653
 20
-153.2991698835502
 30
0.0
 10
105.4385253642653
 20
-153.2991698835502
 30
0.0
 10
105.4385253642653
 20
-153.068692995587
 30
0.0
 10
105.4385253642653
 20
-153.068692995587
 30
0.0
 10
105.5773627123209
 20
-153.0917751353381
 30
0.0
 10
105.744105333807
 20
-153.0938421926293
 30
0.0
 10
105.9256618658797
 20
-153.0938421926293
 30
0.0
 10
105.9256618658797
 20
-153.0938421926293
 30
0.0
 10
106.3494086105654
 20
-153.0938421926293
 30
0.0
 10
106.3494086105654
 20
-153.0938421926293
 30
0.0
 10
106.5127061365662
 20
-153.0938421926293
 30
0.0
 10
106.67531464347
 20
-153.0917751353381
 30
0.0
 10
106.8365451121797
 20
-153.068692995587
 30
0.0
 10
106.8365451121797
 20
-153.068692995587
 30
0.0
 10
106.8365451121797
 20
-153.2991698835502
 30
0.0
 10
106.8365451121797
 20
-153.2991698835502
 30
0.0
 10
106.67531464347
 20
-153.2757432342505
 30
0.0
 10
106.4589626469963
 20
-153.2736761769593
 30
0.0
 10
106.3494086105654
 20
-153.2736761769593
 30
0.0
  0
HATCH
  5
10A
330
F9
100
AcDbEntity
  8
レイヤー 1
 62
   250
420
  2299925
440
 33554687
100
AcDbHatch
 10
0.0
 20
0.0
 30
0.0
210
0.0
220
0.0
230
1.0
  2
SOLID
 70
     1
 71
     1
 91
        1
 92
        1
 93
        1
 72
     4
 94
        3
 73
     0
 74
     0
 95
       29
 96
       25
 40
0.0
 40
0.0
 40
0.0
 40
0.0
 40
1.0
 40
1.0
 40
1.0
 40
2.0
 40
2.0
 40
2.0
 40
3.0
 40
3.0
 40
3.0
 40
4.0
 40
4.0
 40
4.0
 40
5.0
 40
5.0
 40
5.0
 40
6.0
 40
6.0
 40
6.0
 40
7.0
 40
7.0
 40
7.0
 40
8.0
 40
8.0
 40
8.0
 40
8.0
 10
106.3494086105654
 20
-153.2736761769593
 10
106.3494086105654
 20
-153.2736761769593
 10
105.9256618658797
 20
-153.2736761769593
 10
105.9256618658797
 20
-153.2736761769593
 10
105.9015461974829
 20
-153.2736761769593
 10
105.6238715013718
 20
-153.2736761769593
 10
105.4385253642653
 20
-153.2991698835502
 10
105.4385253642653
 20
-153.2991698835502
 10
105.4385253642653
 20
-153.068692995587
 10
105.4385253642653
 20
-153.068692995587
 10
105.5773627123209
 20
-153.0917751353381
 10
105.744105333807
 20
-153.0938421926293
 10
105.9256618658797
 20
-153.0938421926293
 10
105.9256618658797
 20
-153.0938421926293
 10
106.3494086105654
 20
-153.0938421926293
 10
106.3494086105654
 20
-153.0938421926293
 10
106.5127061365662
 20
-153.0938421926293
 10
106.67531464347
 20
-153.0917751353381
 10
106.8365451121797
 20
-153.068692995587
 10
106.8365451121797
 20
-153.068692995587
 10
106.8365451121797
 20
-153.2991698835502
 10
106.8365451121797
 20
-153.2991698835502
 10
106.67531464347
 20
-153.2757432342505
 10
106.4589626469963
 20
-153.2736761769593
 10
106.3494086105654
 20
-153.2736761769593
 97
        0
 97
        1
330
109
 75
     2
 76
     1
 98
        1
 10
0.0
 20
0.0
450
        0
451
        0
460
0.0
461
0.0
452
        0
462
0.0
453
        0
470

  0
SPLINE
  5
10B
330
F9
100
AcDbEntity
  8
レイヤー 1
100
AcDbSpline
210
0.0
220
0.0
230
1.0
 70
     9
 71
     3
 72
    17
 73
    13
 74
     0
 42
0.0000000001
 43
0.0000000001
 40
0.0
 40
0.0
 40
0.0
 40
0.0
 40
1.0
 40
1.0
 40
1.0
 40
2.0
 40
2.0
 40
2.0
 40
3.0
 40
3.0
 40
3.0
 40
4.0
 40
4.0
 40
4.0
 40
4.0
 10
108.4681423339941
 20
-152.3069823837982
 30
0.0
 10
108.4199109972006
 20
-152.3069823837982
 30
0.0
 10
108.3809814182172
 20
-152.351424115558
 30
0.0
 10
108.3809814182172
 20
-152.406545643322
 30
0.0
 10
108.3809814182172
 20
-152.4633897188286
 30
0.0
 10
108.4199109972006
 20
-152.5123100747191
 30
0.0
 10
108.4719319390278
 20
-152.5123100747191
 30
0.0
 10
108.5236083713066
 20
-152.5123100747191
 30
0.0
 10
108.5587483452561
 20
-152.4613226615374
 30
0.0
 10
108.5587483452561
 20
-152.4086127006131
 30
0.0
 10
108.5587483452561
 20
-152.351424115558
 30
0.0
 10
108.5180962185302
 20
-152.3069823837982
 30
0.0
 10
108.4681423339941
 20
-152.3069823837982
 30
0.0
  0
SPLINE
  5
10C
330
F9
100
AcDbEntity
  8
レイヤー 1
100
AcDbSpline
210
0.0
220
0.0
230
1.0
 70
     9
 71
     3
 72
    17
 73
    13
 74
     0
 42
0.0000000001
 43
0.0000000001
 40
0.0
 40
0.0
 40
0.0
 40
0.0
 40
1.0
 40
1.0
 40
1.0
 40
2.0
 40
2.0
 40
2.0
 40
3.0
 40
3.0
 40
3.0
 40
4.0
 40
4.0
 40
4.0
 40
4.0
 10
108.4698648817367
 20
-152.6370225312852
 30
0.0
 10
108.3589328071116
 20
-152.6370225312852
 30
0.0
 10
108.2700493435922
 20
-152.5353922144703
 30
0.0
 10
108.2700493435922
 20
-152.4086127006131
 30
0.0
 10
108.2700493435922
 20
-152.2814886772074
 30
0.0
 10
108.3589328071116
 20
-152.1777913031014
 30
0.0
 10
108.4698648817367
 20
-152.1777913031014
 30
0.0
 10
108.5811414659103
 20
-152.1777913031014
 30
0.0
 10
108.6717474771723
 20
-152.2814886772074
 30
0.0
 10
108.6717474771723
 20
-152.4086127006131
 30
0.0
 10
108.6717474771723
 20
-152.5353922144703
 30
0.0
 10
108.5811414659103
 20
-152.6370225312852
 30
0.0
 10
108.4698648817367
 20
-152.6370225312852
 30
0.0
  0
SPLINE
  5
10D
330
F9
100
AcDbEntity
  8
レイヤー 1
100
AcDbSpline
210
0.0
220
0.0
230
1.0
 70
     9
 71
     3
 72
    44
 73
    40
 74
     0
 42
0.0000000001
 43
0.0000000001
 40
0.0
 40
0.0
 40
0.0
 40
0.0
 40
1.0
 40
1.0
 40
1.0
 40
2.0
 40
2.0
 40
2.0
 40
3.0
 40
3.0
 40
3.0
 40
4.0
 40
4.0
 40
4.0
 40
5.0
 40
5.0
 40
5.0
 40
6.0
 40
6.0
 40
6.0
 40
7.0
 40
7.0
 40
7.0
 40
8.0
 40
8.0
 40
8.0
 40
9.0
 40
9.0
 40
9.0
 40
10.0
 40
10.0
 40
10.0
 40
11.0
 40
11.0
 40
11.0
 40
12.0
 40
12.0
 40
12.0
 40
13.0
 40
13.0
 40
13.0
 40
13.0
 10
108.2865858019214
 20
-152.8358045407841
 30
0.0
 10
108.1884005805918
 20
-153.2040852481573
 30
0.0
 10
108.143958848832
 20
-153.3625596404788
 30
0.0
 10
107.9717040745695
 20
-153.6123290631594
 30
0.0
 10
107.8108181154084
 20
-153.8428059511226
 30
0.0
 10
107.6034233671963
 20
-154.0288411073261
 30
0.0
 10
107.3588215877436
 20
-154.1222031949764
 30
0.0
 10
107.3588215877436
 20
-154.1222031949764
 30
0.0
 10
107.1903564185149
 20
-153.9423692106463
 30
0.0
 10
107.1903564185149
 20
-153.9423692106463
 30
0.0
 10
107.7515624730621
 20
-153.7900959901983
 30
0.0
 10
108.040261474726
 20
-153.2337130693304
 30
0.0
 10
108.0960720215871
 20
-152.7934298663155
 30
0.0
 10
108.0960720215871
 20
-152.7934298663155
 30
0.0
 10
107.4256564401575
 20
-152.7934298663155
 30
0.0
 10
107.4256564401575
 20
-152.7934298663155
 30
0.0
 10
107.344007677157
 20
-152.7934298663155
 30
0.0
 10
107.1831217179959
 20
-152.7979084904463
 30
0.0
 10
107.0460069176829
 20
-152.8168565156152
 30
0.0
 10
107.0460069176829
 20
-152.8168565156152
 30
0.0
 10
107.0460069176829
 20
-152.5967149141077
 30
0.0
 10
107.0460069176829
 20
-152.5967149141077
 30
0.0
 10
107.1217990183584
 20
-152.6180745061163
 30
0.0
 10
107.3422851294144
 20
-152.6180745061163
 30
0.0
 10
107.4291015356427
 20
-152.6180745061163
 30
0.0
 10
107.4291015356427
 20
-152.6180745061163
 30
0.0
 10
107.8070285103746
 20
-152.6180745061163
 30
0.0
 10
107.8070285103746
 20
-152.6180745061163
 30
0.0
 10
107.8438910320668
 20
-152.6180745061163
 30
0.0
 10
108.0495632325362
 20
-152.6156629392766
 30
0.0
 10
108.0829806587431
 20
-152.6094617674032
 30
0.0
 10
108.1198431804353
 20
-152.6032605955297
 30
0.0
 10
108.1219102377264
 20
-152.6011935382386
 30
0.0
 10
108.1756537272963
 20
-152.5608859210612
 30
0.0
 10
108.1756537272963
 20
-152.5608859210612
 30
0.0
 10
108.3403292914913
 20
-152.7152261988003
 30
0.0
 10
108.3403292914913
 20
-152.7152261988003
 30
0.0
 10
108.3144910753519
 20
-152.7448540199735
 30
0.0
 10
108.301399712508
 20
-152.7765488984378
 30
0.0
 10
108.2865858019214
 20
-152.8358045407841
 30
0.0
  0
HATCH
  5
10E
330
F9
100
AcDbEntity
  8
レイヤー 1
 62
   250
420
  2299925
440
 33554687
100
AcDbHatch
 10
0.0
 20
0.0
 30
0.0
210
0.0
220
0.0
230
1.0
  2
SOLID
 70
     1
 71
     1
 91
        3
 92
        1
 93
        1
 72
     4
 94
        3
 73
     0
 74
     0
 95
       17
 96
       13
 40
0.0
 40
0.0
 40
0.0
 40
0.0
 40
1.0
 40
1.0
 40
1.0
 40
2.0
 40
2.0
 40
2.0
 40
3.0
 40
3.0
 40
3.0
 40
4.0
 40
4.0
 40
4.0
 40
4.0
 10
108.4681423339941
 20
-152.3069823837982
 10
108.4199109972006
 20
-152.3069823837982
 10
108.3809814182172
 20
-152.351424115558
 10
108.3809814182172
 20
-152.406545643322
 10
108.3809814182172
 20
-152.4633897188286
 10
108.4199109972006
 20
-152.5123100747191
 10
108.4719319390278
 20
-152.5123100747191
 10
108.5236083713066
 20
-152.5123100747191
 10
108.5587483452561
 20
-152.4613226615374
 10
108.5587483452561
 20
-152.4086127006131
 10
108.5587483452561
 20
-152.351424115558
 10
108.5180962185302
 20
-152.3069823837982
 10
108.4681423339941
 20
-152.3069823837982
 97
        0
 97
        1
330
10B
 92
        1
 93
        1
 72
     4
 94
        3
 73
     0
 74
     0
 95
       17
 96
       13
 40
0.0
 40
0.0
 40
0.0
 40
0.0
 40
1.0
 40
1.0
 40
1.0
 40
2.0
 40
2.0
 40
2.0
 40
3.0
 40
3.0
 40
3.0
 40
4.0
 40
4.0
 40
4.0
 40
4.0
 10
108.4698648817367
 20
-152.6370225312852
 10
108.3589328071116
 20
-152.6370225312852
 10
108.2700493435922
 20
-152.5353922144703
 10
108.2700493435922
 20
-152.4086127006131
 10
108.2700493435922
 20
-152.2814886772074
 10
108.3589328071116
 20
-152.1777913031014
 10
108.4698648817367
 20
-152.1777913031014
 10
108.5811414659103
 20
-152.1777913031014
 10
108.6717474771723
 20
-152.2814886772074
 10
108.6717474771723
 20
-152.4086127006131
 10
108.6717474771723
 20
-152.5353922144703
 10
108.5811414659103
 20
-152.6370225312852
 10
108.4698648817367
 20
-152.6370225312852
 97
        0
 97
        1
330
10C
 92
        1
 93
        1
 72
     4
 94
        3
 73
     0
 74
     0
 95
       44
 96
       40
 40
0.0
 40
0.0
 40
0.0
 40
0.0
 40
1.0
 40
1.0
 40
1.0
 40
2.0
 40
2.0
 40
2.0
 40
3.0
 40
3.0
 40
3.0
 40
4.0
 40
4.0
 40
4.0
 40
5.0
 40
5.0
 40
5.0
 40
6.0
 40
6.0
 40
6.0
 40
7.0
 40
7.0
 40
7.0
 40
8.0
 40
8.0
 40
8.0
 40
9.0
 40
9.0
 40
9.0
 40
10.0
 40
10.0
 40
10.0
 40
11.0
 40
11.0
 40
11.0
 40
12.0
 40
12.0
 40
12.0
 40
13.0
 40
13.0
 40
13.0
 40
13.0
 10
108.2865858019214
 20
-152.8358045407841
 10
108.1884005805918
 20
-153.2040852481573
 10
108.143958848832
 20
-153.3625596404788
 10
107.9717040745695
 20
-153.6123290631594
 10
107.8108181154084
 20
-153.8428059511226
 10
107.6034233671963
 20
-154.0288411073261
 10
107.3588215877436
 20
-154.1222031949764
 10
107.3588215877436
 20
-154.1222031949764
 10
107.1903564185149
 20
-153.9423692106463
 10
107.1903564185149
 20
-153.9423692106463
 10
107.7515624730621
 20
-153.7900959901983
 10
108.040261474726
 20
-153.2337130693304
 10
108.0960720215871
 20
-152.7934298663155
 10
108.0960720215871
 20
-152.7934298663155
 10
107.4256564401575
 20
-152.7934298663155
 10
107.4256564401575
 20
-152.7934298663155
 10
107.344007677157
 20
-152.7934298663155
 10
107.1831217179959
 20
-152.7979084904463
 10
107.0460069176829
 20
-152.8168565156152
 10
107.0460069176829
 20
-152.8168565156152
 10
107.0460069176829
 20
-152.5967149141077
 10
107.0460069176829
 20
-152.5967149141077
 10
107.1217990183584
 20
-152.6180745061163
 10
107.3422851294144
 20
-152.6180745061163
 10
107.4291015356427
 20
-152.6180745061163
 10
107.4291015356427
 20
-152.6180745061163
 10
107.8070285103746
 20
-152.6180745061163
 10
107.8070285103746
 20
-152.6180745061163
 10
107.8438910320668
 20
-152.6180745061163
 10
108.0495632325362
 20
-152.6156629392766
 10
108.0829806587431
 20
-152.6094617674032
 10
108.1198431804353
 20
-152.6032605955297
 10
108.1219102377264
 20
-152.6011935382386
 10
108.1756537272963
 20
-152.5608859210612
 10
108.1756537272963
 20
-152.5608859210612
 10
108.3403292914913
 20
-152.7152261988003
 10
108.3403292914913
 20
-152.7152261988003
 10
108.3144910753519
 20
-152.7448540199735
 10
108.301399712508
 20
-152.7765488984378
 10
108.2865858019214
 20
-152.8358045407841
 97
        0
 97
        1
330
10D
 75
     2
 76
     1
 98
        1
 10
0.0
 20
0.0
450
        0
451
        0
460
0.0
461
0.0
452
        0
462
0.0
453
        0
470

  0
ENDBLK
  5
FC
330
F9
100
AcDbEntity
  8
0
100
AcDbBlockEnd
  0
BLOCK
  5
111
330
10F
100
AcDbEntity
  8
0
100
AcDbBlockBegin
  2
Block_13
 70
     0
 10
0.0
 20
0.0
 30
0.0
  3
Block_13
  1

  0
INSERT
  5
114
330
10F
100
AcDbEntity
  8
レイヤー 1
100
AcDbBlockReference
  2
Block_14
 10
0.0
 20
0.0
 30
0.0
  0
LINE
  5
123
330
10F
100
AcDbEntity
  8
レイヤー 1
 62
   250
420
  2299925
370
     9
100
AcDbLine
 10
107.4941318116318
 20
-140.4419502257799
 30
0.0
 11
113.9941318100063
 21
-133.9419502274047
 31
0.0
  0
LINE
  5
124
330
10F
100
AcDbEntity
  8
レイヤー 1
 62
   250
420
  2299925
370
     9
100
AcDbLine
 10
116.864896402391
 20
-149.8128237044155
 30
0.0
 11
123.3649928067171
 21
-143.3127273000884
 31
0.0
  0
CIRCLE
  5
125
330
10F
100
AcDbEntity
  8
レイヤー 1
 62
   250
420
  2299925
370
     9
100
AcDbCircle
 10
116.9432008667862
 20
-148.6721395585759
 30
0.0
 40
0.4999999998746859
  0
CIRCLE
  5
126
330
10F
100
AcDbEntity
  8
レイヤー 1
 62
   250
420
  2299925
370
     9
100
AcDbCircle
 10
118.60796725724
 20
-147.0073731681222
 30
0.0
 40
0.4999999998748061
  0
CIRCLE
  5
127
330
10F
100
AcDbEntity
  8
レイヤー 1
 62
   250
420
  2299925
370
     9
100
AcDbCircle
 10
120.1208908328823
 20
-145.5508814298457
 30
0.0
 40
0.4999999998748061
  0
CIRCLE
  5
128
330
10F
100
AcDbEntity
  8
レイヤー 1
 62
   250
420
  2299925
370
     9
100
AcDbCircle
 10
121.6723928438796
 20
-143.9429475814825
 30
0.0
 40
0.4999999998748061
  0
CIRCLE
  5
129
330
10F
100
AcDbEntity
  8
レイヤー 1
 62
   250
420
  2299925
370
     9
100
AcDbCircle
 10
115.4121870232839
 20
-148.6370373985737
 30
0.0
 40
0.4999999998751671
  0
CIRCLE
  5
12A
330
10F
100
AcDbEntity
  8
レイヤー 1
 62
   250
420
  2299925
370
     9
100
AcDbCircle
 10
116.9256497677243
 20
-147.1235746541333
 30
0.0
 40
0.4999999998752874
  0
CIRCLE
  5
12B
330
10F
100
AcDbEntity
  8
レイヤー 1
 62
   250
420
  2299925
370
     9
100
AcDbCircle
 10
118.4983430900957
 20
-145.550881331762
 30
0.0
 40
0.4999999998752874
  0
CIRCLE
  5
12C
330
10F
100
AcDbEntity
  8
レイヤー 1
 62
   250
420
  2299925
370
     9
100
AcDbCircle
 10
120.1038371531246
 20
-143.945387268733
 30
0.0
 40
0.4999999998752874
  0
CIRCLE
  5
12D
330
10F
100
AcDbEntity
  8
レイヤー 1
 62
   250
420
  2299925
370
     9
100
AcDbCircle
 10
110.1108987171325
 20
-140.9419735204684
 30
0.0
 40
0.4999999998748061
  0
CIRCLE
  5
12E
330
10F
100
AcDbEntity
  8
レイヤー 1
 62
   250
420
  2299925
370
     9
100
AcDbCircle
 10
111.7475491889819
 20
-139.305323048619
 30
0.0
 40
0.4999999998748061
  0
CIRCLE
  5
12F
330
10F
100
AcDbEntity
  8
レイヤー 1
 62
   250
420
  2299925
370
     9
100
AcDbCircle
 10
113.2885886832287
 20
-137.8207153917381
 30
0.0
 40
0.4999999998748061
  0
CIRCLE
  5
130
330
10F
100
AcDbEntity
  8
レイヤー 1
 62
   250
420
  2299925
370
     9
100
AcDbCircle
 10
114.840090694226
 20
-136.212781543375
 30
0.0
 40
0.4999999998749265
  0
CIRCLE
  5
131
330
10F
100
AcDbEntity
  8
レイヤー 1
 62
   250
420
  2299925
370
     9
100
AcDbCircle
 10
108.5798848736303
 20
-140.9068713604662
 30
0.0
 40
0.4999999998752874
  0
CIRCLE
  5
132
330
10F
100
AcDbEntity
  8
レイヤー 1
 62
   250
420
  2299925
370
     9
100
AcDbCircle
 10
110.0933476180707
 20
-139.3934086160257
 30
0.0
 40
0.4999999998752874
  0
CIRCLE
  5
133
330
10F
100
AcDbEntity
  8
レイヤー 1
 62
   250
420
  2299925
370
     9
100
AcDbCircle
 10
111.6660409404421
 20
-137.8207152936544
 30
0.0
 40
0.4999999998752874
  0
CIRCLE
  5
134
330
10F
100
AcDbEntity
  8
レイヤー 1
 62
   250
420
  2299925
370
     9
100
AcDbCircle
 10
113.271535003471
 20
-136.2152212306254
 30
0.0
 40
0.4999999998752874
  0
ENDBLK
  5
112
330
10F
100
AcDbEntity
  8
0
100
AcDbBlockEnd
  0
BLOCK
  5
115
330
113
100
AcDbEntity
  8
0
100
AcDbBlockBegin
  2
Block_14
 70
     0
 10
0.0
 20
0.0
 30
0.0
  3
Block_14
  1

  0
INSERT
  5
118
330
113
100
AcDbEntity
  8
レイヤー 1
100
AcDbBlockReference
  2
Block_15
 10
0.0
 20
0.0
 30
0.0
  0
LINE
  5
121
330
113
100
AcDbEntity
  8
レイヤー 1
 62
   250
420
  2299925
370
     9
100
AcDbLine
 10
116.864896402391
 20
-149.6761514634573
 30
0.0
 11
116.864896402391
 21
-149.8128237834228
 31
0.0
  0
LINE
  5
122
330
113
100
AcDbEntity
  8
レイヤー 1
 62
   250
420
  2299925
370
     9
100
AcDbLine
 10
107.4941317914594
 20
-140.4419503507655
 30
0.0
 11
107.6308041079725
 21
-140.4419503507655
 31
0.0
  0
ENDBLK
  5
116
330
113
100
AcDbEntity
  8
0
100
AcDbBlockEnd
  0
BLOCK
  5
119
330
117
100
AcDbEntity
  8
0
100
AcDbBlockBegin
  2
Block_15
 70
     0
 10
0.0
 20
0.0
 30
0.0
  3
Block_15
  1

  0
LINE
  5
11B
330
117
100
AcDbEntity
  8
レイヤー 1
 62
   250
420
  2299925
370
     9
100
AcDbLine
 10
110.7087906344465
 20
-149.6761514634573
 30
0.0
 11
116.864896402391
 21
-149.6761514634573
 31
0.0
  0
LINE
  5
11C
330
117
100
AcDbEntity
  8
レイヤー 1
 62
   250
420
  2299925
370
     9
100
AcDbLine
 10
107.6308041079725
 20
-146.5979235592263
 30
0.0
 11
107.6308041079725
 21
-140.4419503507655
 31
0.0
  0
LINE
  5
11D
330
117
100
AcDbEntity
  8
レイヤー 1
 62
   250
420
  2299925
370
     9
100
AcDbLine
 10
116.864896402391
 20
-149.8128237834228
 30
0.0
 11
110.8238545365114
 21
-150.0161914233717
 31
0.0
  0
LINE
  5
11E
330
117
100
AcDbEntity
  8
レイヤー 1
 62
   250
420
  2299925
370
     9
100
AcDbLine
 10
107.4941317914594
 20
-140.4419503507655
 30
0.0
 11
107.2907762216473
 21
-146.4829320442551
 31
0.0
  0
SPLINE
  5
11F
330
117
100
AcDbEntity
  8
レイヤー 1
 62
   250
420
  2299925
370
     9
100
AcDbSpline
210
0.0
220
0.0
230
1.0
 70
     8
 71
     3
 72
    11
 73
     7
 74
     0
 42
0.0000000001
 43
0.0000000001
 40
0.0
 40
0.0
 40
0.0
 40
0.0
 40
1.0
 40
1.0
 40
1.0
 40
2.0
 40
2.0
 40
2.0
 40
2.0
 10
107.2907762216473
 20
-146.4829320442551
 30
0.0
 10
107.227266063267
 20
-148.3706822687828
 30
0.0
 10
108.706048945541
 20
-149.9525606133874
 30
0.0
 10
110.5937999336207
 20
-150.0161914233717
 30
0.0
 10
110.6703877404261
 20
-150.0185440983706
 30
0.0
 10
110.7472055934663
 20
-150.0185440983706
 30
0.0
 10
110.8238545365114
 20
-150.0161914233717
 30
0.0
  0
SPLINE
  5
120
330
117
100
AcDbEntity
  8
レイヤー 1
 62
   250
420
  2299925
370
     9
100
AcDbSpline
210
0.0
220
0.0
230
1.0
 70
     8
 71
     3
 72
     8
 73
     4
 74
     0
 42
0.0000000001
 43
0.0000000001
 40
0.0
 40
0.0
 40
0.0
 40
0.0
 40
1.0
 40
1.0
 40
1.0
 40
1.0
 10
107.6308041079725
 20
-146.5979235592263
 30
0.0
 10
107.6308041079725
 20
-148.297869993801
 30
0.0
 10
109.0088563078149
 20
-149.6761514634573
 30
0.0
 10
110.7087906344465
 20
-149.6761514634573
 30
0.0
  0
ENDBLK
  5
11A
330
117
100
AcDbEntity
  8
0
100
AcDbBlockEnd
  0
ENDSEC
  0
SECTION
  2
ENTITIES
  0
INSERT
  5
7A
330
70
100
AcDbEntity
  8
レイヤー 1
100
AcDbBlockReference
  2
Block_0
 10
0.0
 20
0.0
 30
0.0
  0
LINE
  5
EB
330
70
100
AcDbEntity
  8
レイヤー 1
  6
AI-Linetype-0
 62
   154
420
    23468
370
    25
100
AcDbLine
 10
95.39361859575352
 20
-135.327468223319
 30
0.0
 11
95.39361859575352
 21
-145.3272012763745
 31
0.0
  0
LINE
  5
ED
330
70
100
AcDbEntity
  8
レイヤー 1
  6
AI-Linetype-1
 62
   154
420
    23468
370
    25
100
AcDbLine
 10
111.977983728207
 20
-161.9246196055589
 30
0.0
 11
121.9777193667366
 21
-161.9246196055589
 31
0.0
  0
LINE
  5
EF
330
70
100
AcDbEntity
  8
レイヤー 1
 62
   250
420
  2299925
370
     9
100
AcDbLine
 10
96.7265389696135
 20
-144.8400912972467
 30
0.0
 11
101.1384988027018
 21
-150.5694071482703
 31
0.0
  0
LINE
  5
F0
330
70
100
AcDbEntity
  8
レイヤー 1
 62
   250
420
  2299925
370
     9
100
AcDbLine
 10
96.7265389696135
 20
-144.8400912972467
 30
0.0
 11
97.52119877661144
 21
-145.4473936876251
 31
0.0
  0
LINE
  5
F1
330
70
100
AcDbEntity
  8
レイヤー 1
 62
   250
420
  2299925
370
     9
100
AcDbLine
 10
96.7265389696135
 20
-144.8400912972467
 30
0.0
 11
97.11121782809053
 21
-145.7631067278867
 31
0.0
  0
LINE
  5
F2
330
70
100
AcDbEntity
  8
レイヤー 1
 62
   250
420
  2299925
370
     9
100
AcDbLine
 10
111.9779854217817
 20
-161.1173450756263
 30
0.0
 11
111.473183333279
 21
-160.2539359620451
 31
0.0
  0
LINE
  5
F3
330
70
100
AcDbEntity
  8
レイヤー 1
 62
   250
420
  2299925
370
     9
100
AcDbLine
 10
111.9779854217817
 20
-161.1173450756263
 30
0.0
 11
105.8463980875133
 21
-155.0552129413135
 31
0.0
  0
LINE
  5
F4
330
70
100
AcDbEntity
  8
レイヤー 1
 62
   250
420
  2299925
370
     9
100
AcDbLine
 10
111.9779854217817
 20
-161.1173450756263
 30
0.0
 11
111.1093778461903
 21
-160.6219096784661
 31
0.0
  0
INSERT
  5
F6
330
70
100
AcDbEntity
  8
レイヤー 1
100
AcDbBlockReference
  2
Block_11
 10
0.0
 20
0.0
 30
0.0
  0
INSERT
  5
110
330
70
100
AcDbEntity
  8
レイヤー 1
100
AcDbBlockReference
  2
Block_13
 10
0.0
 20
0.0
 30
0.0
  0
ENDSEC
  0
SECTION
  2
OBJECTS
  0
DICTIONARY
  5
C
330
0
100
AcDbDictionary
281
     1
  3
ACAD_COLOR
350
63
  3
ACAD_DETAILVIEWSTYLE
350
6A
  3
ACAD_GROUP
350
D
  3
ACAD_LAYOUT
350
62
  3
ACAD_MATERIAL
350
10
  3
ACAD_MLEADERSTYLE
350
66
  3
ACAD_MLINESTYLE
350
5F
  3
ACAD_PLOTSETTINGS
350
61
  3
ACAD_PLOTSTYLENAME
350
E
  3
ACAD_SCALELIST
350
42
  3
ACAD_SECTIONVIEWSTYLE
350
68
  3
ACAD_TABLESTYLE
350
64
  3
ACAD_VISUALSTYLE
350
29
  3
ACDB_RECOMPOSE_DATA
350
13D
  3
AcDbVariableDictionary
350
135
  0
DICTIONARY
  5
63
102
{ACAD_REACTORS
330
C
102
}
330
C
100
AcDbDictionary
281
     1
  0
DICTIONARY
  5
6A
102
{ACAD_REACTORS
330
C
102
}
330
C
100
AcDbDictionary
281
     1
  3
Imperial24
350
6B
  0
DICTIONARY
  5
D
102
{ACAD_REACTORS
330
C
102
}
330
C
100
AcDbDictionary
281
     1
  0
DICTIONARY
  5
62
102
{ACAD_REACTORS
330
C
102
}
330
C
100
AcDbDictionary
281
     1
  3
Layout1
350
6F
  3
Layout2
350
77
  3
Model
350
73
  0
DICTIONARY
  5
10
102
{ACAD_REACTORS
330
C
102
}
330
C
100
AcDbDictionary
281
     1
  3
ByBlock
350
19
  3
ByLayer
350
11
  3
Global
350
21
  0
DICTIONARY
  5
66
102
{ACAD_REACTORS
330
C
102
}
330
C
100
AcDbDictionary
281
     1
  3
Standard
350
67
  0
DICTIONARY
  5
5F
102
{ACAD_REACTORS
330
C
102
}
330
C
100
AcDbDictionary
281
     1
  3
Standard
350
60
  0
DICTIONARY
  5
61
102
{ACAD_REACTORS
330
C
102
}
330
C
100
AcDbDictionary
281
     1
  0
ACDBDICTIONARYWDFLT
  5
E
102
{ACAD_REACTORS
330
C
102
}
330
C
100
AcDbDictionary
281
     1
  3
Normal
350
F
100
AcDbDictionaryWithDefault
340
F
  0
DICTIONARY
  5
42
102
{ACAD_REACTORS
330
C
102
}
330
C
100
AcDbDictionary
281
     1
  3
A0
350
43
  3
A1
350
44
  3
A2
350
45
  3
A3
350
46
  3
A4
350
47
  3
A5
350
48
  3
A6
350
49
  3
A7
350
4A
  3
A8
350
4B
  3
A9
350
4C
  3
B0
350
4D
  3
B1
350
4E
  3
B2
350
4F
  3
B3
350
50
  3
B4
350
51
  3
B5
350
52
  3
B6
350
53
  0
DICTIONARY
  5
68
102
{ACAD_REACTORS
330
C
102
}
330
C
100
AcDbDictionary
281
     1
  3
Imperial24
350
69
  0
DICTIONARY
  5
64
102
{ACAD_REACTORS
330
C
102
}
330
C
100
AcDbDictionary
281
     1
  3
Standard
350
65
  0
DICTIONARY
  5
29
102
{ACAD_REACTORS
330
C
102
}
330
C
100
AcDbDictionary
281
     1
  3
2dWireframe
350
2F
  3
Basic
350
2E
  3
Brighten
350
35
  3
ColorChange
350
39
  3
Conceptual
350
32
  3
Dim
350
34
  3
EdgeColorOff
350
41
  3
Facepattern
350
38
  3
Flat
350
2A
  3
FlatWithEdges
350
2B
  3
Gouraud
350
2C
  3
GouraudWithEdges
350
2D
  3
Hidden
350
31
  3
JitterOff
350
3F
  3
Linepattern
350
37
  3
OverhangOff
350
40
  3
Realistic
350
33
  3
Shaded
350
3E
  3
Shaded with edges
350
3D
  3
Shades of Gray
350
3A
  3
Sketchy
350
3B
  3
Thicken
350
36
  3
Wireframe
350
30
  3
X-Ray
350
3C
  0
XRECORD
  5
13D
102
{ACAD_REACTORS
330
C
102
}
330
C
100
AcDbXrecord
280
     1
 90
        1
330
65
  0
DICTIONARY
  5
135
102
{ACAD_REACTORS
330
C
102
}
330
C
100
AcDbDictionary
281
     1
  3
CANNOSCALE
350
13A
  3
CMLEADERSTYLE
350
137
  3
CTABLESTYLE
350
136
  3
CVIEWDETAILSTYLE
350
138
  3
CVIEWSECTIONSTYLE
350
139
  0
ACDBDETAILVIEWSTYLE
  5
6B
102
{ACAD_XDICTIONARY
360
172
102
}
102
{ACAD_REACTORS
330
6A
102
}
330
6A
100
AcDbModelDocViewStyle
 70
     0
  3
Imperial24
290
     0
100
AcDbDetailViewStyle
 70
     0
 71
     0
 90
        3
 71
     1
340
55
 62
   256
 40
0.24
340
0
 62
   256
 40
0.24
300

 40
0.36
280
     3
 71
     2
340
5D
 90
       25
 62
   256
 71
     3
340
55
 62
   256
 40
0.24
 90
        1
 40
0.75
 90
        1
300
%<\AcVar ViewType \f "%tc1">% %<\AcVar ViewDetailId>%\PSCALE %<\AcVar ViewScale \f "%sn">%
 71
     4
340
5D
 90
       25
 62
   256
340
5D
 90
       25
 62
   256
280
     0
  0
LAYOUT
  5
6F
102
{ACAD_REACTORS
330
62
102
}
330
62
100
AcDbPlotSettings
  1

  2

  4

  6

 40
0.0
 41
0.0
 42
0.0
 43
0.0
 44
0.0
 45
0.0
 46
0.0
 47
0.0
 48
0.0
 49
0.0
140
0.0
141
0.0
142
1.0
143
1.0
 70
   688
 72
     0
 73
     0
 74
     5
  7

 75
    16
147
1.0
 76
     0
 77
     2
 78
   300
148
0.0
149
0.0
100
AcDbLayout
  1
Layout1
 70
     1
 71
     1
 10
0.0
 20
0.0
 11
12.0
 21
9.0
 12
0.0
 22
0.0
 32
0.0
 14
0.0
 24
0.0
 34
0.0
 15
0.0
 25
0.0
 35
0.0
146
0.0
 13
0.0
 23
0.0
 33
0.0
 16
1.0
 26
0.0
 36
0.0
 17
0.0
 27
1.0
 37
0.0
 76
     0
330
6C
  0
LAYOUT
  5
77
102
{ACAD_REACTORS
330
62
102
}
330
62
100
AcDbPlotSettings
  1

  2

  4

  6

 40
0.0
 41
0.0
 42
0.0
 43
0.0
 44
0.0
 45
0.0
 46
0.0
 47
0.0
 48
0.0
 49
0.0
140
0.0
141
0.0
142
1.0
143
1.0
 70
   688
 72
     0
 73
     0
 74
     5
  7

 75
    16
147
1.0
 76
     0
 77
     2
 78
   300
148
0.0
149
0.0
100
AcDbLayout
  1
Layout2
 70
     1
 71
     2
 10
0.0
 20
0.0
 11
12.0
 21
9.0
 12
0.0
 22
0.0
 32
0.0
 14
0.0
 24
0.0
 34
0.0
 15
0.0
 25
0.0
 35
0.0
146
0.0
 13
0.0
 23
0.0
 33
0.0
 16
1.0
 26
0.0
 36
0.0
 17
0.0
 27
1.0
 37
0.0
 76
     0
330
74
  0
LAYOUT
  5
73
102
{ACAD_REACTORS
330
62
102
}
330
62
100
AcDbPlotSettings
  1

  2

  4

  6

 40
0.0
 41
0.0
 42
0.0
 43
0.0
 44
0.0
 45
0.0
 46
0.0
 47
0.0
 48
0.0
 49
0.0
140
0.0
141
0.0
142
1.0
143
1.0
 70
  1712
 72
     0
 73
     0
 74
     0
  7

 75
     0
147
1.0
 76
     0
 77
     2
 78
   300
148
0.0
149
0.0
100
AcDbLayout
  1
Model
 70
     1
 71
     0
 10
0.0
 20
0.0
 11
12.0
 21
9.0
 12
0.0
 22
0.0
 32
0.0
 14
0.0
 24
0.0
 34
0.0
 15
0.0
 25
0.0
 35
0.0
146
0.0
 13
0.0
 23
0.0
 33
0.0
 16
1.0
 26
0.0
 36
0.0
 17
0.0
 27
1.0
 37
0.0
 76
     0
330
70
  0
MATERIAL
  5
19
102
{ACAD_XDICTIONARY
360
1A
102
}
102
{ACAD_REACTORS
330
10
102
}
330
10
100
AcDbMaterial
  1
ByBlock
 72
     0
 43
0.0208333333333333
 43
0.0
 43
0.0
 43
0.0
 43
0.0
 43
0.0208333333333333
 43
0.0
 43
0.0
 43
0.0
 43
0.0
 43
1.0
 43
0.0
 43
0.0
 43
0.0
 43
0.0
 43
1.0
 77
     0
 47
0.0208333333333333
 47
0.0
 47
0.0
 47
0.0
 47
0.0
 47
0.0208333333333333
 47
0.0
 47
0.0
 47
0.0
 47
0.0
 47
1.0
 47
0.0
 47
0.0
 47
0.0
 47
0.0
 47
1.0
171
     0
 49
0.0208333333333333
 49
0.0
 49
0.0
 49
0.0
 49
0.0
 49
0.0208333333333333
 49
0.0
 49
0.0
 49
0.0
 49
0.0
 49
1.0
 49
0.0
 49
0.0
 49
0.0
 49
0.0
 49
1.0
175
     0
142
0.0208333333333333
142
0.0
142
0.0
142
0.0
142
0.0
142
0.0208333333333333
142
0.0
142
0.0
142
0.0
142
0.0
142
1.0
142
0.0
142
0.0
142
0.0
142
0.0
142
1.0
179
     0
144
0.0208333333333333
144
0.0
144
0.0
144
0.0
144
0.0
144
0.0208333333333333
144
0.0
144
0.0
144
0.0
144
0.0
144
1.0
144
0.0
144
0.0
144
0.0
144
0.0
144
1.0
147
0.0208333333333333
147
0.0
147
0.0
147
0.0
147
0.0
147
0.0208333333333333
147
0.0
147
0.0
147
0.0
147
0.0
147
1.0
147
0.0
147
0.0
147
0.0
147
0.0
147
1.0
  0
MATERIAL
  5
11
102
{ACAD_XDICTIONARY
360
12
102
}
102
{ACAD_REACTORS
330
10
102
}
330
10
100
AcDbMaterial
  1
ByLayer
 72
     0
 43
0.0208333333333333
 43
0.0
 43
0.0
 43
0.0
 43
0.0
 43
0.0208333333333333
 43
0.0
 43
0.0
 43
0.0
 43
0.0
 43
1.0
 43
0.0
 43
0.0
 43
0.0
 43
0.0
 43
1.0
 77
     0
 47
0.0208333333333333
 47
0.0
 47
0.0
 47
0.0
 47
0.0
 47
0.0208333333333333
 47
0.0
 47
0.0
 47
0.0
 47
0.0
 47
1.0
 47
0.0
 47
0.0
 47
0.0
 47
0.0
 47
1.0
171
     0
 49
0.0208333333333333
 49
0.0
 49
0.0
 49
0.0
 49
0.0
 49
0.0208333333333333
 49
0.0
 49
0.0
 49
0.0
 49
0.0
 49
1.0
 49
0.0
 49
0.0
 49
0.0
 49
0.0
 49
1.0
175
     0
142
0.0208333333333333
142
0.0
142
0.0
142
0.0
142
0.0
142
0.0208333333333333
142
0.0
142
0.0
142
0.0
142
0.0
142
1.0
142
0.0
142
0.0
142
0.0
142
0.0
142
1.0
179
     0
144
0.0208333333333333
144
0.0
144
0.0
144
0.0
144
0.0
144
0.0208333333333333
144
0.0
144
0.0
144
0.0
144
0.0
144
1.0
144
0.0
144
0.0
144
0.0
144
0.0
144
1.0
147
0.0208333333333333
147
0.0
147
0.0
147
0.0
147
0.0
147
0.0208333333333333
147
0.0
147
0.0
147
0.0
147
0.0
147
1.0
147
0.0
147
0.0
147
0.0
147
0.0
147
1.0
  0
MATERIAL
  5
21
102
{ACAD_XDICTIONARY
360
22
102
}
102
{ACAD_REACTORS
330
10
102
}
330
10
100
AcDbMaterial
  1
Global
 72
     0
 43
0.0208333333333333
 43
0.0
 43
0.0
 43
0.0
 43
0.0
 43
0.0208333333333333
 43
0.0
 43
0.0
 43
0.0
 43
0.0
 43
1.0
 43
0.0
 43
0.0
 43
0.0
 43
0.0
 43
1.0
 77
     0
 47
0.0208333333333333
 47
0.0
 47
0.0
 47
0.0
 47
0.0
 47
0.0208333333333333
 47
0.0
 47
0.0
 47
0.0
 47
0.0
 47
1.0
 47
0.0
 47
0.0
 47
0.0
 47
0.0
 47
1.0
171
     0
 49
0.0208333333333333
 49
0.0
 49
0.0
 49
0.0
 49
0.0
 49
0.0208333333333333
 49
0.0
 49
0.0
 49
0.0
 49
0.0
 49
1.0
 49
0.0
 49
0.0
 49
0.0
 49
0.0
 49
1.0
175
     0
142
0.0208333333333333
142
0.0
142
0.0
142
0.0
142
0.0
142
0.0208333333333333
142
0.0
142
0.0
142
0.0
142
0.0
142
1.0
142
0.0
142
0.0
142
0.0
142
0.0
142
1.0
179
     0
144
0.0208333333333333
144
0.0
144
0.0
144
0.0
144
0.0
144
0.0208333333333333
144
0.0
144
0.0
144
0.0
144
0.0
144
1.0
144
0.0
144
0.0
144
0.0
144
0.0
144
1.0
147
0.0208333333333333
147
0.0
147
0.0
147
0.0
147
0.0
147
0.0208333333333333
147
0.0
147
0.0
147
0.0
147
0.0
147
1.0
147
0.0
147
0.0
147
0.0
147
0.0
147
1.0
  0
MLEADERSTYLE
  5
67
102
{ACAD_XDICTIONARY
360
16E
102
}
102
{ACAD_REACTORS
330
66
102
}
330
66
100
AcDbMLeaderStyle
179
     2
170
     2
171
     1
172
     0
 90
        2
 40
0.0
 41
0.0
173
     1
 91
-1056964608
340
5B
 92
       -2
290
     1
 42
0.09
291
     1
 43
0.36
  3
Standard
 44
0.18
300

342
55
174
     1
178
     6
175
     1
176
     0
 93
-1056964608
 45
0.18
292
     0
297
     0
 46
0.18
 94
-1056964608
 47
1.0
 49
1.0
140
1.0
293
     1
141
0.0
294
     1
177
     0
142
1.0
295
     0
296
     0
143
0.125
271
     0
272
     9
273
     9
  0
MLINESTYLE
  5
60
102
{ACAD_REACTORS
330
5F
102
}
330
5F
100
AcDbMlineStyle
  2
STANDARD
 70
     0
  3

 62
   256
 51
90.0
 52
90.0
 71
     2
 49
0.5
 62
   256
  6
BYLAYER
 49
-0.5
 62
   256
  6
BYLAYER
  0
ACDBPLACEHOLDER
  5
F
102
{ACAD_REACTORS
330
E
102
}
330
E
  0
SCALE
  5
43
102
{ACAD_REACTORS
330
42
102
}
330
42
100
AcDbScale
 70
     0
300
1:1
140
1.0
141
1.0
290
     1
  0
SCALE
  5
44
102
{ACAD_REACTORS
330
42
102
}
330
42
100
AcDbScale
 70
     0
300
1/128" = 1'-0"
140
0.0078125
141
12.0
290
     0
  0
SCALE
  5
45
102
{ACAD_REACTORS
330
42
102
}
330
42
100
AcDbScale
 70
     0
300
1/64" = 1'-0"
140
0.015625
141
12.0
290
     0
  0
SCALE
  5
46
102
{ACAD_REACTORS
330
42
102
}
330
42
100
AcDbScale
 70
     0
300
1/32" = 1'-0"
140
0.03125
141
12.0
290
     0
  0
SCALE
  5
47
102
{ACAD_REACTORS
330
42
102
}
330
42
100
AcDbScale
 70
     0
300
1/16" = 1'-0"
140
0.0625
141
12.0
290
     0
  0
SCALE
  5
48
102
{ACAD_REACTORS
330
42
102
}
330
42
100
AcDbScale
 70
     0
300
3/32" = 1'-0"
140
0.09375
141
12.0
290
     0
  0
SCALE
  5
49
102
{ACAD_REACTORS
330
42
102
}
330
42
100
AcDbScale
 70
     0
300
1/8" = 1'-0"
140
0.125
141
12.0
290
     0
  0
SCALE
  5
4A
102
{ACAD_REACTORS
330
42
102
}
330
42
100
AcDbScale
 70
     0
300
3/16" = 1'-0"
140
0.1875
141
12.0
290
     0
  0
SCALE
  5
4B
102
{ACAD_REACTORS
330
42
102
}
330
42
100
AcDbScale
 70
     0
300
1/4" = 1'-0"
140
0.25
141
12.0
290
     0
  0
SCALE
  5
4C
102
{ACAD_REACTORS
330
42
102
}
330
42
100
AcDbScale
 70
     0
300
3/8" = 1'-0"
140
0.375
141
12.0
290
     0
  0
SCALE
  5
4D
102
{ACAD_REACTORS
330
42
102
}
330
42
100
AcDbScale
 70
     0
300
1/2" = 1'-0"
140
0.5
141
12.0
290
     0
  0
SCALE
  5
4E
102
{ACAD_REACTORS
330
42
102
}
330
42
100
AcDbScale
 70
     0
300
3/4" = 1'-0"
140
0.75
141
12.0
290
     0
  0
SCALE
  5
4F
102
{ACAD_REACTORS
330
42
102
}
330
42
100
AcDbScale
 70
     0
300
1" = 1'-0"
140
1.0
141
12.0
290
     0
  0
SCALE
  5
50
102
{ACAD_REACTORS
330
42
102
}
330
42
100
AcDbScale
 70
     0
300
1-1/2" = 1'-0"
140
1.5
141
12.0
290
     0
  0
SCALE
  5
51
102
{ACAD_REACTORS
330
42
102
}
330
42
100
AcDbScale
 70
     0
300
3" = 1'-0"
140
3.0
141
12.0
290
     0
  0
SCALE
  5
52
102
{ACAD_REACTORS
330
42
102
}
330
42
100
AcDbScale
 70
     0
300
6" = 1'-0"
140
6.0
141
12.0
290
     0
  0
SCALE
  5
53
102
{ACAD_REACTORS
330
42
102
}
330
42
100
AcDbScale
 70
     0
300
1'-0" = 1'-0"
140
12.0
141
12.0
290
     0
  0
ACDBSECTIONVIEWSTYLE
  5
69
102
{ACAD_XDICTIONARY
360
170
102
}
102
{ACAD_REACTORS
330
68
102
}
330
68
100
AcDbModelDocViewStyle
 70
     0
  3
Imperial24
290
     0
100
AcDbSectionViewStyle
 70
     0
 71
     0
 90
       78
 71
     1
340
55
 62
   256
 40
0.24
340
0
340
0
 62
   256
 40
0.24
300
I, O, Q, S, X, Z
 40
0.48
 90
        3
 40
0.18
 90
        1
 71
     2
340
5D
 90
       25
 62
   256
340
5D
 90
       50
 62
   256
 40
0.24
 40
0.0
 40
0.24
 71
     3
340
55
 62
   256
 40
0.24
 90
        1
 40
0.75
 90
        1
300
%<\AcVar ViewType \f "%tc1">% %<\AcVar ViewSectionStartId>%-%<\AcVar ViewSectionEndId>%\PSCALE %<\AcVar ViewScale \f "%sn">%
 71
     4
 62
   256
 62
   257
300
ANSI31
 40
1.0
 90
        0
290
     0
290
     0
 90
        6
 40
0.0
 40
1.570796326794896
 40
0.2617993877991494
 40
1.308996938995747
 40
-0.2617993877991494
 40
1.832595714594046
  0
TABLESTYLE
  5
65
102
{ACAD_XDICTIONARY
360
13B
102
}
102
{ACAD_REACTORS
330
64
102
}
330
64
100
AcDbTableStyle
280
     0
  3
Standard
 70
     0
 71
     0
 40
0.06
 41
0.06
280
     0
281
     0
  7
Standard
140
0.18
170
     2
 62
     0
 63
     7
283
     0
 90
      512
 91
        0
  1

274
    -2
284
     1
 64
     0
275
    -2
285
     1
 65
     0
276
    -2
286
     1
 66
     0
277
    -2
287
     1
 67
     0
278
    -2
288
     1
 68
     0
279
    -2
289
     1
 69
     0
  7
Standard
140
0.25
170
     5
 62
     0
 63
     7
283
     0
 90
      512
 91
        0
  1

274
    -2
284
     1
 64
     0
275
    -2
285
     1
 65
     0
276
    -2
286
     1
 66
     0
277
    -2
287
     1
 67
     0
278
    -2
288
     1
 68
     0
279
    -2
289
     1
 69
     0
  7
Standard
140
0.18
170
     5
 62
     0
 63
     7
283
     0
 90
      512
 91
        0
  1

274
    -2
284
     1
 64
     0
275
    -2
285
     1
 65
     0
276
    -2
286
     1
 66
     0
277
    -2
287
     1
 67
     0
278
    -2
288
     1
 68
     0
279
    -2
289
     1
 69
     0
  0
VISUALSTYLE
  5
2F
102
{ACAD_XDICTIONARY
360
148
102
}
102
{ACAD_REACTORS
330
29
102
}
330
29
100
AcDbVisualStyle
  2
2dWireframe
 70
     4
177
     2
291
     0
 71
     0
176
     1
 72
     2
176
     1
 73
     0
176
     1
 90
        0
176
     1
 40
0.6
176
     1
 41
30.0
176
     1
 63
     7
421
 16777215
176
     1
 74
     1
176
     1
 91
        4
176
     1
 64
     7
176
     1
 65
   257
176
     1
 75
     1
176
     1
175
     1
176
     1
 42
1.0
176
     1
 92
        0
176
     1
 66
   257
176
     1
 43
1.0
176
     1
 76
     1
176
     1
 77
     6
176
     1
 78
     2
176
     1
 67
     7
176
     1
 79
     5
176
     1
170
     0
176
     1
171
     0
176
     1
290
     0
176
     1
 93
        1
176
     1
 44
0.0
176
     1
173
     0
176
     1
1001
ACAD
1000
AcDbSavedByObjectVersion
1070
     0
  0
VISUALSTYLE
  5
2E
102
{ACAD_XDICTIONARY
360
146
102
}
102
{ACAD_REACTORS
330
29
102
}
330
29
100
AcDbVisualStyle
  2
Basic
 70
     7
177
     2
291
     1
 71
     1
176
     1
 72
     0
176
     1
 73
     1
176
     1
 90
        0
176
     1
 40
0.6
176
     1
 41
30.0
176
     1
 63
     7
421
 16777215
176
     1
 74
     0
176
     1
 91
        4
176
     1
 64
     7
176
     1
 65
   257
176
     1
 75
     1
176
     1
175
     1
176
     1
 42
1.0
176
     1
 92
        8
176
     1
 66
     7
176
     1
 43
1.0
176
     1
 76
     1
176
     1
 77
     6
176
     1
 78
     2
176
     1
 67
     7
176
     1
 79
     5
176
     1
170
     0
176
     1
171
     0
176
     1
290
     0
176
     1
 93
        1
176
     1
 44
0.0
176
     1
173
     0
176
     1
1001
ACAD
1000
AcDbSavedByObjectVersion
1070
     0
  0
VISUALSTYLE
  5
35
102
{ACAD_XDICTIONARY
360
154
102
}
102
{ACAD_REACTORS
330
29
102
}
330
29
100
AcDbVisualStyle
  2
Brighten
 70
    12
177
     2
291
     1
 71
     2
176
     1
 72
     2
176
     1
 73
     0
176
     1
 90
        0
176
     1
 40
0.6
176
     1
 41
30.0
176
     1
 63
     7
421
 16777215
176
     1
 74
     1
176
     1
 91
        4
176
     1
 64
     7
176
     1
 65
   257
176
     1
 75
     1
176
     1
175
     1
176
     1
 42
1.0
176
     1
 92
        8
176
     1
 66
     7
176
     1
 43
1.0
176
     1
 76
     1
176
     1
 77
     6
176
     1
 78
     2
176
     1
 67
     7
176
     1
 79
     5
176
     1
170
     0
176
     1
171
     0
176
     1
290
     0
176
     1
 93
        1
176
     1
 44
50.0
176
     1
173
     0
176
     1
1001
ACAD
1000
AcDbSavedByObjectVersion
1070
     0
  0
VISUALSTYLE
  5
39
102
{ACAD_XDICTIONARY
360
15C
102
}
102
{ACAD_REACTORS
330
29
102
}
330
29
100
AcDbVisualStyle
  2
ColorChange
 70
    16
177
     2
291
     1
 71
     2
176
     1
 72
     2
176
     1
 73
     3
176
     1
 90
        0
176
     1
 40
0.6
176
     1
 41
30.0
176
     1
 63
     8
421
  8421504
176
     1
 74
     1
176
     1
 91
        4
176
     1
 64
     7
176
     1
 65
   257
176
     1
 75
     1
176
     1
175
     1
176
     1
 42
1.0
176
     1
 92
        8
176
     1
 66
     8
424
  8421504
176
     1
 43
1.0
176
     1
 76
     1
176
     1
 77
     6
176
     1
 78
     2
176
     1
 67
     7
176
     1
 79
     5
176
     1
170
     0
176
     1
171
     0
176
     1
290
     0
176
     1
 93
        1
176
     1
 44
0.0
176
     1
173
     0
176
     1
1001
ACAD
1000
AcDbSavedByObjectVersion
1070
     0
  0
VISUALSTYLE
  5
32
102
{ACAD_XDICTIONARY
360
14E
102
}
102
{ACAD_REACTORS
330
29
102
}
330
29
100
AcDbVisualStyle
  2
Conceptual
 70
     9
177
     2
291
     0
 71
     3
176
     1
 72
     2
176
     1
 73
     0
176
     1
 90
        0
176
     1
 40
0.6
176
     1
 41
30.0
176
     1
 63
     7
421
 16777215
176
     1
 74
     2
176
     1
 91
        2
176
     1
 64
     7
176
     1
 65
   257
176
     1
 75
     1
176
     1
175
     1
176
     1
 42
179.0
176
     1
 92
        8
176
     1
 66
     7
176
     1
 43
1.0
176
     1
 76
     1
176
     1
 77
     6
176
     1
 78
     2
176
     1
 67
     7
176
     1
 79
     3
176
     1
170
     0
176
     1
171
     0
176
     1
290
     0
176
     1
 93
        1
176
     1
 44
0.0
176
     1
173
     0
176
     1
1001
ACAD
1000
AcDbSavedByObjectVersion
1070
     0
  0
VISUALSTYLE
  5
34
102
{ACAD_XDICTIONARY
360
152
102
}
102
{ACAD_REACTORS
330
29
102
}
330
29
100
AcDbVisualStyle
  2
Dim
 70
    11
177
     2
291
     1
 71
     2
176
     1
 72
     2
176
     1
 73
     0
176
     1
 90
        0
176
     1
 40
0.6
176
     1
 41
30.0
176
     1
 63
     7
421
 16777215
176
     1
 74
     1
176
     1
 91
        4
176
     1
 64
     7
176
     1
 65
   257
176
     1
 75
     1
176
     1
175
     1
176
     1
 42
1.0
176
     1
 92
        8
176
     1
 66
     7
176
     1
 43
1.0
176
     1
 76
     1
176
     1
 77
     6
176
     1
 78
     2
176
     1
 67
     7
176
     1
 79
     5
176
     1
170
     0
176
     1
171
     0
176
     1
290
     0
176
     1
 93
        1
176
     1
 44
-50.0
176
     1
173
     0
176
     1
1001
ACAD
1000
AcDbSavedByObjectVersion
1070
     0
  0
VISUALSTYLE
  5
41
102
{ACAD_XDICTIONARY
360
16C
102
}
102
{ACAD_REACTORS
330
29
102
}
330
29
100
AcDbVisualStyle
  2
EdgeColorOff
 70
    22
177
     2
291
     1
 71
     2
176
     0
 72
     2
176
     0
 73
     0
176
     0
 90
        0
176
     0
 40
0.6
176
     0
 41
30.0
176
     0
 63
     7
421
 16777215
176
     0
 74
     1
176
     0
 91
        4
176
     0
 64
     7
176
     0
 65
   257
176
     0
 75
     1
176
     0
175
     1
176
     0
 42
1.0
176
     0
 92
        8
176
     2
 66
     7
176
     0
 43
1.0
176
     0
 76
     1
176
     0
 77
     6
176
     0
 78
     2
176
     0
 67
     7
176
     0
 79
     5
176
     0
170
     0
176
     0
171
     0
176
     0
290
     0
176
     0
 93
        1
176
     0
 44
0.0
176
     0
173
     0
176
     0
1001
ACAD
1000
AcDbSavedByObjectVersion
1070
     0
  0
VISUALSTYLE
  5
38
102
{ACAD_XDICTIONARY
360
15A
102
}
102
{ACAD_REACTORS
330
29
102
}
330
29
100
AcDbVisualStyle
  2
Facepattern
 70
    15
177
     2
291
     1
 71
     2
176
     1
 72
     2
176
     1
 73
     0
176
     1
 90
        0
176
     1
 40
0.6
176
     1
 41
30.0
176
     1
 63
     7
421
 16777215
176
     1
 74
     1
176
     1
 91
        4
176
     1
 64
     7
176
     1
 65
   257
176
     1
 75
     1
176
     1
175
     1
176
     1
 42
1.0
176
     1
 92
        8
176
     1
 66
     7
176
     1
 43
1.0
176
     1
 76
     1
176
     1
 77
     6
176
     1
 78
     2
176
     1
 67
     7
176
     1
 79
     5
176
     1
170
     0
176
     1
171
     0
176
     1
290
     0
176
     1
 93
        1
176
     1
 44
0.0
176
     1
173
     0
176
     1
1001
ACAD
1000
AcDbSavedByObjectVersion
1070
     0
  0
VISUALSTYLE
  5
2A
102
{ACAD_XDICTIONARY
360
13E
102
}
102
{ACAD_REACTORS
330
29
102
}
330
29
100
AcDbVisualStyle
  2
Flat
 70
     0
177
     2
291
     1
 71
     2
176
     1
 72
     1
176
     1
 73
     1
176
     1
 90
        2
176
     1
 40
0.6
176
     1
 41
30.0
176
     1
 63
     7
421
 16777215
176
     1
 74
     0
176
     1
 91
        0
176
     1
 64
     7
176
     1
 65
   257
176
     1
 75
     1
176
     1
175
     1
176
     1
 42
1.0
176
     1
 92
        8
176
     1
 66
     7
176
     1
 43
1.0
176
     1
 76
     1
176
     1
 77
     6
176
     1
 78
     2
176
     1
 67
     7
176
     1
 79
     5
176
     1
170
     0
176
     1
171
     0
176
     1
290
     0
176
     1
 93
       13
176
     1
 44
0.0
176
     1
173
     0
176
     1
1001
ACAD
1000
AcDbSavedByObjectVersion
1070
     0
  0
VISUALSTYLE
  5
2B
102
{ACAD_XDICTIONARY
360
140
102
}
102
{ACAD_REACTORS
330
29
102
}
330
29
100
AcDbVisualStyle
  2
FlatWithEdges
 70
     1
177
     2
291
     1
 71
     2
176
     1
 72
     1
176
     1
 73
     1
176
     1
 90
        2
176
     1
 40
0.6
176
     1
 41
30.0
176
     1
 63
     7
421
 16777215
176
     1
 74
     1
176
     1
 91
        0
176
     1
 64
     7
176
     1
 65
   257
176
     1
 75
     1
176
     1
175
     1
176
     1
 42
1.0
176
     1
 92
        0
176
     1
 66
   257
176
     1
 43
1.0
176
     1
 76
     1
176
     1
 77
     6
176
     1
 78
     2
176
     1
 67
     7
176
     1
 79
     5
176
     1
170
     0
176
     1
171
     0
176
     1
290
     0
176
     1
 93
       13
176
     1
 44
0.0
176
     1
173
     0
176
     1
1001
ACAD
1000
AcDbSavedByObjectVersion
1070
     0
  0
VISUALSTYLE
  5
2C
102
{ACAD_XDICTIONARY
360
142
102
}
102
{ACAD_REACTORS
330
29
102
}
330
29
100
AcDbVisualStyle
  2
Gouraud
 70
     2
177
     2
291
     1
 71
     2
176
     1
 72
     2
176
     1
 73
     1
176
     1
 90
        2
176
     1
 40
0.6
176
     1
 41
30.0
176
     1
 63
     7
421
 16777215
176
     1
 74
     0
176
     1
 91
        0
176
     1
 64
     7
176
     1
 65
   257
176
     1
 75
     1
176
     1
175
     1
176
     1
 42
1.0
176
     1
 92
        0
176
     1
 66
     7
176
     1
 43
1.0
176
     1
 76
     1
176
     1
 77
     6
176
     1
 78
     2
176
     1
 67
     7
176
     1
 79
     5
176
     1
170
     0
176
     1
171
     0
176
     1
290
     0
176
     1
 93
       13
176
     1
 44
0.0
176
     1
173
     0
176
     1
1001
ACAD
1000
AcDbSavedByObjectVersion
1070
     0
  0
VISUALSTYLE
  5
2D
102
{ACAD_XDICTIONARY
360
144
102
}
102
{ACAD_REACTORS
330
29
102
}
330
29
100
AcDbVisualStyle
  2
GouraudWithEdges
 70
     3
177
     2
291
     1
 71
     2
176
     1
 72
     2
176
     1
 73
     1
176
     1
 90
        2
176
     1
 40
0.6
176
     1
 41
30.0
176
     1
 63
     7
421
 16777215
176
     1
 74
     1
176
     1
 91
        0
176
     1
 64
     7
176
     1
 65
   257
176
     1
 75
     1
176
     1
175
     1
176
     1
 42
1.0
176
     1
 92
        0
176
     1
 66
   257
176
     1
 43
1.0
176
     1
 76
     1
176
     1
 77
     6
176
     1
 78
     2
176
     1
 67
     7
176
     1
 79
     5
176
     1
170
     0
176
     1
171
     0
176
     1
290
     0
176
     1
 93
       13
176
     1
 44
0.0
176
     1
173
     0
176
     1
1001
ACAD
1000
AcDbSavedByObjectVersion
1070
     0
  0
VISUALSTYLE
  5
31
102
{ACAD_XDICTIONARY
360
14C
102
}
102
{ACAD_REACTORS
330
29
102
}
330
29
100
AcDbVisualStyle
  2
Hidden
 70
     6
177
     2
291
     0
 71
     1
176
     1
 72
     2
176
     1
 73
     2
176
     1
 90
        0
176
     1
 40
0.6
176
     1
 41
30.0
176
     1
 63
     7
421
 16777215
176
     1
 74
     2
176
     1
 91
        2
176
     1
 64
     7
176
     1
 65
   257
176
     1
 75
     2
176
     1
175
     1
176
     1
 42
40.0
176
     1
 92
        0
176
     1
 66
   257
176
     1
 43
1.0
176
     1
 76
     1
176
     1
 77
     6
176
     1
 78
     2
176
     1
 67
     7
176
     1
 79
     3
176
     1
170
     0
176
     1
171
     0
176
     1
290
     0
176
     1
 93
        1
176
     1
 44
0.0
176
     1
173
     0
176
     1
1001
ACAD
1000
AcDbSavedByObjectVersion
1070
     0
  0
VISUALSTYLE
  5
3F
102
{ACAD_XDICTIONARY
360
168
102
}
102
{ACAD_REACTORS
330
29
102
}
330
29
100
AcDbVisualStyle
  2
JitterOff
 70
    20
177
     2
291
     1
 71
     2
176
     0
 72
     2
176
     0
 73
     0
176
     0
 90
        0
176
     0
 40
0.6
176
     0
 41
30.0
176
     0
 63
     7
421
 16777215
176
     0
 74
     1
176
     0
 91
        4
176
     0
 64
     7
176
     0
 65
   257
176
     0
 75
     1
176
     0
175
     1
176
     0
 42
1.0
176
     0
 92
       10
176
     2
 66
     7
176
     0
 43
1.0
176
     0
 76
     1
176
     0
 77
     6
176
     0
 78
     2
176
     0
 67
     7
176
     0
 79
     5
176
     0
170
     0
176
     0
171
     0
176
     0
290
     0
176
     0
 93
        1
176
     0
 44
0.0
176
     0
173
     0
176
     0
1001
ACAD
1000
AcDbSavedByObjectVersion
1070
     0
  0
VISUALSTYLE
  5
37
102
{ACAD_XDICTIONARY
360
158
102
}
102
{ACAD_REACTORS
330
29
102
}
330
29
100
AcDbVisualStyle
  2
Linepattern
 70
    14
177
     2
291
     1
 71
     2
176
     1
 72
     2
176
     1
 73
     0
176
     1
 90
        0
176
     1
 40
0.6
176
     1
 41
30.0
176
     1
 63
     7
421
 16777215
176
     1
 74
     1
176
     1
 91
        4
176
     1
 64
     7
176
     1
 65
   257
176
     1
 75
     7
176
     1
175
     7
176
     1
 42
1.0
176
     1
 92
        8
176
     1
 66
     7
176
     1
 43
1.0
176
     1
 76
     1
176
     1
 77
     6
176
     1
 78
     2
176
     1
 67
     7
176
     1
 79
     5
176
     1
170
     0
176
     1
171
     0
176
     1
290
     0
176
     1
 93
        1
176
     1
 44
0.0
176
     1
173
     0
176
     1
1001
ACAD
1000
AcDbSavedByObjectVersion
1070
     0
  0
VISUALSTYLE
  5
40
102
{ACAD_XDICTIONARY
360
16A
102
}
102
{ACAD_REACTORS
330
29
102
}
330
29
100
AcDbVisualStyle
  2
OverhangOff
 70
    21
177
     2
291
     1
 71
     2
176
     0
 72
     2
176
     0
 73
     0
176
     0
 90
        0
176
     0
 40
0.6
176
     0
 41
30.0
176
     0
 63
     7
421
 16777215
176
     0
 74
     1
176
     0
 91
        4
176
     0
 64
     7
176
     0
 65
   257
176
     0
 75
     1
176
     0
175
     1
176
     0
 42
1.0
176
     0
 92
        9
176
     2
 66
     7
176
     0
 43
1.0
176
     0
 76
     1
176
     0
 77
     6
176
     0
 78
     2
176
     0
 67
     7
176
     0
 79
     5
176
     0
170
     0
176
     0
171
     0
176
     0
290
     0
176
     0
 93
        1
176
     0
 44
0.0
176
     0
173
     0
176
     0
1001
ACAD
1000
AcDbSavedByObjectVersion
1070
     0
  0
VISUALSTYLE
  5
33
102
{ACAD_XDICTIONARY
360
150
102
}
102
{ACAD_REACTORS
330
29
102
}
330
29
100
AcDbVisualStyle
  2
Realistic
 70
     8
177
     2
291
     0
 71
     2
176
     1
 72
     3
176
     1
 73
     0
176
     1
 90
        2
176
     1
 40
0.6
176
     1
 41
30.0
176
     1
 63
     7
421
 16777215
176
     1
 74
     0
176
     1
 91
        0
176
     1
 64
     7
176
     1
 65
   257
176
     1
 75
     1
176
     1
175
     1
176
     1
 42
1.0
176
     1
 92
        8
176
     1
 66
   257
176
     1
 43
1.0
176
     1
 76
     1
176
     1
 77
     6
176
     1
 78
     2
176
     1
 67
     7
176
     1
 79
     3
176
     1
170
     0
176
     1
171
     0
176
     1
290
     0
176
     1
 93
       13
176
     1
 44
0.0
176
     1
173
     0
176
     1
1001
ACAD
1000
AcDbSavedByObjectVersion
1070
     0
  0
VISUALSTYLE
  5
3E
102
{ACAD_XDICTIONARY
360
166
102
}
102
{ACAD_REACTORS
330
29
102
}
330
29
100
AcDbVisualStyle
  2
Shaded
 70
    27
177
     2
291
     0
 71
     2
176
     1
 72
     2
176
     1
 73
     1
176
     1
 90
        2
176
     1
 40
0.6
176
     1
 41
30.0
176
     1
 63
     7
421
 16777215
176
     1
 74
     0
176
     1
 91
        4
176
     1
 64
     7
176
     1
 65
   257
176
     1
 75
     1
176
     1
175
     1
176
     1
 42
1.0
176
     1
 92
        8
176
     1
 66
   257
176
     1
 43
1.0
176
     1
 76
     1
176
     1
 77
     6
176
     1
 78
     2
176
     1
 67
     8
425
  7895160
176
     1
 79
     3
176
     1
170
     0
176
     1
171
     0
176
     1
290
     0
176
     1
 93
        5
176
     1
 44
0.0
176
     1
173
     0
176
     1
1001
ACAD
1000
AcDbSavedByObjectVersion
1070
     0
  0
VISUALSTYLE
  5
3D
102
{ACAD_XDICTIONARY
360
164
102
}
102
{ACAD_REACTORS
330
29
102
}
330
29
100
AcDbVisualStyle
  2
Shaded with edges
 70
    26
177
     2
291
     0
 71
     2
176
     1
 72
     2
176
     1
 73
     1
176
     1
 90
        2
176
     1
 40
0.6
176
     1
 41
30.0
176
     1
 63
     7
421
 16777215
176
     1
 74
     1
176
     1
 91
        2
176
     1
 64
     7
176
     1
 65
   257
176
     1
 75
     2
176
     1
175
     1
176
     1
 42
1.0
176
     1
 92
        8
176
     1
 66
   257
176
     1
 43
1.0
176
     1
 76
     1
176
     1
 77
     6
176
     1
 78
     2
176
     1
 67
     7
176
     1
 79
     3
176
     1
170
     0
176
     1
171
     0
176
     1
290
     0
176
     1
 93
        5
176
     1
 44
0.0
176
     1
173
     0
176
     1
1001
ACAD
1000
AcDbSavedByObjectVersion
1070
     0
  0
VISUALSTYLE
  5
3A
102
{ACAD_XDICTIONARY
360
15E
102
}
102
{ACAD_REACTORS
330
29
102
}
330
29
100
AcDbVisualStyle
  2
Shades of Gray
 70
    23
177
     2
291
     0
 71
     2
176
     1
 72
     2
176
     1
 73
     3
176
     1
 90
        0
176
     1
 40
0.6
176
     1
 41
30.0
176
     1
 63
     7
421
 16777215
176
     1
 74
     2
176
     1
 91
        2
176
     1
 64
     7
176
     1
 65
     7
176
     1
 75
     1
176
     1
175
     1
176
     1
 42
40.0
176
     1
 92
        8
176
     1
 66
     7
176
     1
 43
1.0
176
     1
 76
     1
176
     1
 77
     6
176
     1
 78
     2
176
     1
 67
     7
176
     1
 79
     3
176
     1
170
     0
176
     1
171
     0
176
     1
290
     0
176
     1
 93
        1
176
     1
 44
0.0
176
     1
173
     0
176
     1
1001
ACAD
1000
AcDbSavedByObjectVersion
1070
     0
  0
VISUALSTYLE
  5
3B
102
{ACAD_XDICTIONARY
360
160
102
}
102
{ACAD_REACTORS
330
29
102
}
330
29
100
AcDbVisualStyle
  2
Sketchy
 70
    24
177
     2
291
     0
 71
     1
176
     1
 72
     2
176
     1
 73
     2
176
     1
 90
        0
176
     1
 40
0.6
176
     1
 41
30.0
176
     1
 63
     7
421
 16777215
176
     1
 74
     2
176
     1
 91
        2
176
     1
 64
     7
176
     1
 65
     7
176
     1
 75
     1
176
     1
175
     1
176
     1
 42
40.0
176
     1
 92
       11
176
     1
 66
     7
176
     1
 43
1.0
176
     1
 76
     1
176
     1
 77
     6
176
     1
 78
     2
176
     1
 67
     7
176
     1
 79
     6
176
     1
170
     0
176
     1
171
     0
176
     1
290
     0
176
     1
 93
        1
176
     1
 44
0.0
176
     1
173
     0
176
     1
1001
ACAD
1000
AcDbSavedByObjectVersion
1070
     0
  0
VISUALSTYLE
  5
36
102
{ACAD_XDICTIONARY
360
156
102
}
102
{ACAD_REACTORS
330
29
102
}
330
29
100
AcDbVisualStyle
  2
Thicken
 70
    13
177
     2
291
     1
 71
     2
176
     1
 72
     2
176
     1
 73
     0
176
     1
 90
        0
176
     1
 40
0.6
176
     1
 41
30.0
176
     1
 63
     7
421
 16777215
176
     1
 74
     1
176
     1
 91
        4
176
     1
 64
     7
176
     1
 65
   257
176
     1
 75
     1
176
     1
175
     1
176
     1
 42
1.0
176
     1
 92
       12
176
     1
 66
     7
176
     1
 43
1.0
176
     1
 76
     1
176
     1
 77
     6
176
     1
 78
     2
176
     1
 67
     7
176
     1
 79
     5
176
     1
170
     0
176
     1
171
     0
176
     1
290
     0
176
     1
 93
        1
176
     1
 44
0.0
176
     1
173
     0
176
     1
1001
ACAD
1000
AcDbSavedByObjectVersion
1070
     0
  0
VISUALSTYLE
  5
30
102
{ACAD_XDICTIONARY
360
14A
102
}
102
{ACAD_REACTORS
330
29
102
}
330
29
100
AcDbVisualStyle
  2
Wireframe
 70
     5
177
     2
291
     0
 71
     0
176
     1
 72
     2
176
     1
 73
     0
176
     1
 90
        0
176
     1
 40
0.6
176
     1
 41
30.0
176
     1
 63
     7
421
 16777215
176
     1
 74
     1
176
     1
 91
        4
176
     1
 64
     7
176
     1
 65
   257
176
     1
 75
     1
176
     1
175
     1
176
     1
 42
1.0
176
     1
 92
        0
176
     1
 66
   257
176
     1
 43
1.0
176
     1
 76
     1
176
     1
 77
     6
176
     1
 78
     2
176
     1
 67
     7
176
     1
 79
     3
176
     1
170
     0
176
     1
171
     0
176
     1
290
     0
176
     1
 93
        1
176
     1
 44
0.0
176
     1
173
     0
176
     1
1001
ACAD
1000
AcDbSavedByObjectVersion
1070
     0
  0
VISUALSTYLE
  5
3C
102
{ACAD_XDICTIONARY
360
162
102
}
102
{ACAD_REACTORS
330
29
102
}
330
29
100
AcDbVisualStyle
  2
X-Ray
 70
    25
177
     2
291
     0
 71
     2
176
     1
 72
     2
176
     1
 73
     1
176
     1
 90
        1
176
     1
 40
0.5
176
     1
 41
30.0
176
     1
 63
     7
421
 16777215
176
     1
 74
     1
176
     1
 91
        0
176
     1
 64
     7
176
     1
 65
   257
176
     1
 75
     1
176
     1
175
     1
176
     1
 42
1.0
176
     1
 92
        8
176
     1
 66
     7
176
     1
 43
1.0
176
     1
 76
     1
176
     1
 77
     6
176
     1
 78
     2
176
     1
 67
     7
176
     1
 79
     3
176
     1
170
     0
176
     1
171
     0
176
     1
290
     0
176
     1
 93
       13
176
     1
 44
0.0
176
     1
173
     0
176
     1
1001
ACAD
1000
AcDbSavedByObjectVersion
1070
     0
  0
DICTIONARYVAR
  5
13A
102
{ACAD_REACTORS
330
135
102
}
330
135
100
DictionaryVariables
280
     0
  1
1:1
  0
DICTIONARYVAR
  5
137
102
{ACAD_REACTORS
330
135
102
}
330
135
100
DictionaryVariables
280
     0
  1
STANDARD
  0
DICTIONARYVAR
  5
136
102
{ACAD_REACTORS
330
135
102
}
330
135
100
DictionaryVariables
280
     0
  1
STANDARD
  0
DICTIONARYVAR
  5
138
102
{ACAD_REACTORS
330
135
102
}
330
135
100
DictionaryVariables
280
     0
  1
Imperial24
  0
DICTIONARYVAR
  5
139
102
{ACAD_REACTORS
330
135
102
}
330
135
100
DictionaryVariables
280
     0
  1
Imperial24
  0
DICTIONARY
  5
172
330
6B
100
AcDbDictionary
280
     1
281
     1
  3
ACAD_XREC_ROUNDTRIP
360
173
  0
DICTIONARY
  5
1A
330
19
100
AcDbDictionary
280
     1
281
     1
  3
BUMPTILE
360
1C
  3
DIFFUSETILE
360
1B
  3
OPACITYTILE
360
1F
  3
REFLECTIONTILE
360
1E
  3
REFRACTIONTILE
360
20
  3
SPECULARTILE
360
1D
  0
DICTIONARY
  5
12
330
11
100
AcDbDictionary
280
     1
281
     1
  3
BUMPTILE
360
14
  3
DIFFUSETILE
360
13
  3
OPACITYTILE
360
17
  3
REFLECTIONTILE
360
16
  3
REFRACTIONTILE
360
18
  3
SPECULARTILE
360
15
  0
DICTIONARY
  5
22
330
21
100
AcDbDictionary
280
     1
281
     1
  3
BUMPTILE
360
24
  3
DIFFUSETILE
360
23
  3
OPACITYTILE
360
27
  3
REFLECTIONTILE
360
26
  3
REFRACTIONTILE
360
28
  3
SPECULARTILE
360
25
  0
DICTIONARY
  5
16E
330
67
100
AcDbDictionary
280
     1
281
     1
  3
ACAD_XREC_ROUNDTRIP
360
16F
  0
DICTIONARY
  5
170
330
69
100
AcDbDictionary
280
     1
281
     1
  3
ACAD_XREC_ROUNDTRIP
360
171
  0
DICTIONARY
  5
13B
330
65
100
AcDbDictionary
280
     1
281
     1
  3
ACAD_ROUNDTRIP_2008_TABLESTYLE_CELLSTYLEMAP
360
13C
  0
DICTIONARY
  5
148
330
2F
100
AcDbDictionary
280
     1
281
     1
  3
ACAD_XREC_ROUNDTRIP
360
149
  0
DICTIONARY
  5
146
330
2E
100
AcDbDictionary
280
     1
281
     1
  3
ACAD_XREC_ROUNDTRIP
360
147
  0
DICTIONARY
  5
154
330
35
100
AcDbDictionary
280
     1
281
     1
  3
ACAD_XREC_ROUNDTRIP
360
155
  0
DICTIONARY
  5
15C
330
39
100
AcDbDictionary
280
     1
281
     1
  3
ACAD_XREC_ROUNDTRIP
360
15D
  0
DICTIONARY
  5
14E
330
32
100
AcDbDictionary
280
     1
281
     1
  3
ACAD_XREC_ROUNDTRIP
360
14F
  0
DICTIONARY
  5
152
330
34
100
AcDbDictionary
280
     1
281
     1
  3
ACAD_XREC_ROUNDTRIP
360
153
  0
DICTIONARY
  5
16C
330
41
100
AcDbDictionary
280
     1
281
     1
  3
ACAD_XREC_ROUNDTRIP
360
16D
  0
DICTIONARY
  5
15A
330
38
100
AcDbDictionary
280
     1
281
     1
  3
ACAD_XREC_ROUNDTRIP
360
15B
  0
DICTIONARY
  5
13E
330
2A
100
AcDbDictionary
280
     1
281
     1
  3
ACAD_XREC_ROUNDTRIP
360
13F
  0
DICTIONARY
  5
140
330
2B
100
AcDbDictionary
280
     1
281
     1
  3
ACAD_XREC_ROUNDTRIP
360
141
  0
DICTIONARY
  5
142
330
2C
100
AcDbDictionary
280
     1
281
     1
  3
ACAD_XREC_ROUNDTRIP
360
143
  0
DICTIONARY
  5
144
330
2D
100
AcDbDictionary
280
     1
281
     1
  3
ACAD_XREC_ROUNDTRIP
360
145
  0
DICTIONARY
  5
14C
330
31
100
AcDbDictionary
280
     1
281
     1
  3
ACAD_XREC_ROUNDTRIP
360
14D
  0
DICTIONARY
  5
168
330
3F
100
AcDbDictionary
280
     1
281
     1
  3
ACAD_XREC_ROUNDTRIP
360
169
  0
DICTIONARY
  5
158
330
37
100
AcDbDictionary
280
     1
281
     1
  3
ACAD_XREC_ROUNDTRIP
360
159
  0
DICTIONARY
  5
16A
330
40
100
AcDbDictionary
280
     1
281
     1
  3
ACAD_XREC_ROUNDTRIP
360
16B
  0
DICTIONARY
  5
150
330
33
100
AcDbDictionary
280
     1
281
     1
  3
ACAD_XREC_ROUNDTRIP
360
151
  0
DICTIONARY
  5
166
330
3E
100
AcDbDictionary
280
     1
281
     1
  3
ACAD_XREC_ROUNDTRIP
360
167
  0
DICTIONARY
  5
164
330
3D
100
AcDbDictionary
280
     1
281
     1
  3
ACAD_XREC_ROUNDTRIP
360
165
  0
DICTIONARY
  5
15E
330
3A
100
AcDbDictionary
280
     1
281
     1
  3
ACAD_XREC_ROUNDTRIP
360
15F
  0
DICTIONARY
  5
160
330
3B
100
AcDbDictionary
280
     1
281
     1
  3
ACAD_XREC_ROUNDTRIP
360
161
  0
DICTIONARY
  5
156
330
36
100
AcDbDictionary
280
     1
281
     1
  3
ACAD_XREC_ROUNDTRIP
360
157
  0
DICTIONARY
  5
14A
330
30
100
AcDbDictionary
280
     1
281
     1
  3
ACAD_XREC_ROUNDTRIP
360
14B
  0
DICTIONARY
  5
162
330
3C
100
AcDbDictionary
280
     1
281
     1
  3
ACAD_XREC_ROUNDTRIP
360
163
  0
XRECORD
  5
173
102
{ACAD_REACTORS
330
172
102
}
330
172
100
AcDbXrecord
280
     1
102
DISPLAYNAME
  1
Imperial24
102
FLAGS
 90
        0
  0
XRECORD
  5
1C
102
{ACAD_REACTORS
330
1A
102
}
330
1A
100
AcDbXrecord
280
     1
270
     1
271
     1
  0
XRECORD
  5
1B
102
{ACAD_REACTORS
330
1A
102
}
330
1A
100
AcDbXrecord
280
     1
270
     1
271
     1
  0
XRECORD
  5
1F
102
{ACAD_REACTORS
330
1A
102
}
330
1A
100
AcDbXrecord
280
     1
270
     1
271
     1
  0
XRECORD
  5
1E
102
{ACAD_REACTORS
330
1A
102
}
330
1A
100
AcDbXrecord
280
     1
270
     1
271
     1
  0
XRECORD
  5
20
102
{ACAD_REACTORS
330
1A
102
}
330
1A
100
AcDbXrecord
280
     1
270
     1
271
     1
  0
XRECORD
  5
1D
102
{ACAD_REACTORS
330
1A
102
}
330
1A
100
AcDbXrecord
280
     1
270
     1
271
     1
  0
XRECORD
  5
14
102
{ACAD_REACTORS
330
12
102
}
330
12
100
AcDbXrecord
280
     1
270
     1
271
     1
  0
XRECORD
  5
13
102
{ACAD_REACTORS
330
12
102
}
330
12
100
AcDbXrecord
280
     1
270
     1
271
     1
  0
XRECORD
  5
17
102
{ACAD_REACTORS
330
12
102
}
330
12
100
AcDbXrecord
280
     1
270
     1
271
     1
  0
XRECORD
  5
16
102
{ACAD_REACTORS
330
12
102
}
330
12
100
AcDbXrecord
280
     1
270
     1
271
     1
  0
XRECORD
  5
18
102
{ACAD_REACTORS
330
12
102
}
330
12
100
AcDbXrecord
280
     1
270
     1
271
     1
  0
XRECORD
  5
15
102
{ACAD_REACTORS
330
12
102
}
330
12
100
AcDbXrecord
280
     1
270
     1
271
     1
  0
XRECORD
  5
24
102
{ACAD_REACTORS
330
22
102
}
330
22
100
AcDbXrecord
280
     1
270
     1
271
     1
  0
XRECORD
  5
23
102
{ACAD_REACTORS
330
22
102
}
330
22
100
AcDbXrecord
280
     1
270
     1
271
     1
  0
XRECORD
  5
27
102
{ACAD_REACTORS
330
22
102
}
330
22
100
AcDbXrecord
280
     1
270
     1
271
     1
  0
XRECORD
  5
26
102
{ACAD_REACTORS
330
22
102
}
330
22
100
AcDbXrecord
280
     1
270
     1
271
     1
  0
XRECORD
  5
28
102
{ACAD_REACTORS
330
22
102
}
330
22
100
AcDbXrecord
280
     1
270
     1
271
     1
  0
XRECORD
  5
25
102
{ACAD_REACTORS
330
22
102
}
330
22
100
AcDbXrecord
280
     1
270
     1
271
     1
  0
XRECORD
  5
16F
102
{ACAD_REACTORS
330
16E
102
}
330
16E
100
AcDbXrecord
280
     1
102
ACAD_ROUNDTRIP_2012_MLEADER_STYLE
298
     1
  0
XRECORD
  5
171
102
{ACAD_REACTORS
330
170
102
}
330
170
100
AcDbXrecord
280
     1
102
DISPLAYNAME
  1
Imperial24
102
FLAGS
 90
        0
  0
CELLSTYLEMAP
  5
13C
102
{ACAD_REACTORS
330
13B
102
}
330
13B
100
AcDbCellStyleMap
 90
        3
300
CELLSTYLE
  1
TABLEFORMAT_BEGIN
 90
        5
170
     1
 91
        0
 92
    32768
 62
   257
 93
        1
300
CONTENTFORMAT
  1
CONTENTFORMAT_BEGIN
 90
        0
 91
        0
 92
      512
 93
        0
300

 40
0.0
140
1.0
 94
        5
 62
     0
340
55
144
0.25
309
CONTENTFORMAT_END
171
     0
 94
        0
309
TABLEFORMAT_END
  1
CELLSTYLE_BEGIN
 90
        1
 91
        1
300
_TITLE
309
CELLSTYLE_END
300
CELLSTYLE
  1
TABLEFORMAT_BEGIN
 90
        5
170
     1
 91
        0
 92
        0
 62
   257
 93
        1
300
CONTENTFORMAT
  1
CONTENTFORMAT_BEGIN
 90
        0
 91
        0
 92
      512
 93
        0
300

 40
0.0
140
1.0
 94
        5
 62
     0
340
55
144
0.18
309
CONTENTFORMAT_END
171
     0
 94
        0
309
TABLEFORMAT_END
  1
CELLSTYLE_BEGIN
 90
        2
 91
        1
300
_HEADER
309
CELLSTYLE_END
300
CELLSTYLE
  1
TABLEFORMAT_BEGIN
 90
        5
170
     1
 91
        0
 92
        0
 62
   257
 93
        1
300
CONTENTFORMAT
  1
CONTENTFORMAT_BEGIN
 90
        0
 91
        0
 92
      512
 93
        0
300

 40
0.0
140
1.0
 94
        2
 62
     0
340
55
144
0.18
309
CONTENTFORMAT_END
171
     0
 94
        0
309
TABLEFORMAT_END
  1
CELLSTYLE_BEGIN
 90
        3
 91
        2
300
_DATA
309
CELLSTYLE_END
  0
XRECORD
  5
149
102
{ACAD_REACTORS
330
148
102
}
330
148
100
AcDbXrecord
280
     1
102
RTVSPost2010Prop28
280
     1
102
RTVSPost2010PropOp28
 70
     1
102
RTVSPost2010Prop29
280
     1
102
RTVSPost2010PropOp29
 70
     1
102
RTVSPost2010Prop30
280
     0
102
RTVSPost2010PropOp30
 70
     1
102
RTVSPost2010Prop31
280
     0
102
RTVSPost2010PropOp31
 70
     1
102
RTVSPost2010Prop32
280
     0
102
RTVSPost2010PropOp32
 70
     1
102
RTVSPost2010Prop33
280
     0
102
RTVSPost2010PropOp33
 70
     1
102
RTVSPost2010Prop34
280
     0
102
RTVSPost2010PropOp34
 70
     1
102
RTVSPost2010Prop35
280
     0
102
RTVSPost2010PropOp35
 70
     1
102
RTVSPost2010Prop36
280
     0
102
RTVSPost2010PropOp36
 70
     1
102
RTVSPost2010Prop37
 90
       50
102
RTVSPost2010PropOp37
 70
     1
102
RTVSPost2010Prop38
140
0.0
102
RTVSPost2010PropOp38
 70
     1
102
RTVSPost2010Prop39
140
1.0
102
RTVSPost2010PropOp39
 70
     1
102
RTVSPost2010Prop40
 90
        0
102
RTVSPost2010PropOp40
 70
     1
102
RTVSPost2010Prop41ColorIndex
 90
       18
102
RTVSPost2010Prop41ColorRGB
 90
        0
102
RTVSPost2010PropOp41
 70
     1
102
RTVSPost2010Prop42
 90
       50
102
RTVSPost2010PropOp42
 70
     1
102
RTVSPost2010Prop43
 90
        3
102
RTVSPost2010PropOp43
 70
     1
102
RTVSPost2010Prop44ColorIndex
 90
        5
102
RTVSPost2010Prop44ColorRGB
 90
      255
102
RTVSPost2010PropOp44
 70
     1
102
RTVSPost2010Prop45
280
     0
102
RTVSPost2010PropOp45
 70
     1
102
RTVSPost2010Prop46
 90
       50
102
RTVSPost2010PropOp46
 70
     1
102
RTVSPost2010Prop47
 90
       50
102
RTVSPost2010PropOp47
 70
     1
102
RTVSPost2010Prop48
 90
       50
102
RTVSPost2010PropOp48
 70
     1
102
RTVSPost2010Prop49
280
     0
102
RTVSPost2010PropOp49
 70
     1
102
RTVSPost2010Prop50
 90
       50
102
RTVSPost2010PropOp50
 70
     1
102
RTVSPost2010Prop51ColorIndex
 90
      256
102
RTVSPost2010Prop51ColorRGB
 90
-16777216
102
RTVSPost2010PropOp51
 70
     0
102
RTVSPost2010Prop52
140
1.0
102
RTVSPost2010PropOp52
 70
     0
102
RTVSPost2010Prop53
 90
        2
102
RTVSPost2010PropOp53
 70
     1
102
RTVSPost2010Prop54
  1
strokes_ogs.tif
102
RTVSPost2010PropOp54
 70
     1
102
RTVSPost2010Prop55
280
     0
102
RTVSPost2010PropOp55
 70
     1
102
RTVSPost2010Prop56
140
1.0
102
RTVSPost2010PropOp56
 70
     1
102
RTVSPost2010Prop57
140
1.0
102
RTVSPost2010PropOp57
 70
     1
  0
XRECORD
  5
147
102
{ACAD_REACTORS
330
146
102
}
330
146
100
AcDbXrecord
280
     1
102
RTVSPost2010Prop28
280
     0
102
RTVSPost2010PropOp28
 70
     1
102
RTVSPost2010Prop29
280
     1
102
RTVSPost2010PropOp29
 70
     1
102
RTVSPost2010Prop30
280
     1
102
RTVSPost2010PropOp30
 70
     1
102
RTVSPost2010Prop31
280
     0
102
RTVSPost2010PropOp31
 70
     1
102
RTVSPost2010Prop32
280
     0
102
RTVSPost2010PropOp32
 70
     1
102
RTVSPost2010Prop33
280
     0
102
RTVSPost2010PropOp33
 70
     1
102
RTVSPost2010Prop34
280
     0
102
RTVSPost2010PropOp34
 70
     1
102
RTVSPost2010Prop35
280
     0
102
RTVSPost2010PropOp35
 70
     1
102
RTVSPost2010Prop36
280
     0
102
RTVSPost2010PropOp36
 70
     1
102
RTVSPost2010Prop37
 90
       50
102
RTVSPost2010PropOp37
 70
     1
102
RTVSPost2010Prop38
140
0.0
102
RTVSPost2010PropOp38
 70
     1
102
RTVSPost2010Prop39
140
1.0
102
RTVSPost2010PropOp39
 70
     1
102
RTVSPost2010Prop40
 90
        0
102
RTVSPost2010PropOp40
 70
     1
102
RTVSPost2010Prop41ColorIndex
 90
       18
102
RTVSPost2010Prop41ColorRGB
 90
        0
102
RTVSPost2010PropOp41
 70
     1
102
RTVSPost2010Prop42
 90
       50
102
RTVSPost2010PropOp42
 70
     1
102
RTVSPost2010Prop43
 90
        3
102
RTVSPost2010PropOp43
 70
     1
102
RTVSPost2010Prop44ColorIndex
 90
        5
102
RTVSPost2010Prop44ColorRGB
 90
      255
102
RTVSPost2010PropOp44
 70
     1
102
RTVSPost2010Prop45
280
     0
102
RTVSPost2010PropOp45
 70
     1
102
RTVSPost2010Prop46
 90
       50
102
RTVSPost2010PropOp46
 70
     1
102
RTVSPost2010Prop47
 90
       50
102
RTVSPost2010PropOp47
 70
     1
102
RTVSPost2010Prop48
 90
       50
102
RTVSPost2010PropOp48
 70
     1
102
RTVSPost2010Prop49
280
     0
102
RTVSPost2010PropOp49
 70
     1
102
RTVSPost2010Prop50
 90
       50
102
RTVSPost2010PropOp50
 70
     1
102
RTVSPost2010Prop51ColorIndex
 90
      256
102
RTVSPost2010Prop51ColorRGB
 90
-16777216
102
RTVSPost2010PropOp51
 70
     0
102
RTVSPost2010Prop52
140
1.0
102
RTVSPost2010PropOp52
 70
     0
102
RTVSPost2010Prop53
 90
        2
102
RTVSPost2010PropOp53
 70
     1
102
RTVSPost2010Prop54
  1
strokes_ogs.tif
102
RTVSPost2010PropOp54
 70
     1
102
RTVSPost2010Prop55
280
     0
102
RTVSPost2010PropOp55
 70
     1
102
RTVSPost2010Prop56
140
1.0
102
RTVSPost2010PropOp56
 70
     1
102
RTVSPost2010Prop57
140
1.0
102
RTVSPost2010PropOp57
 70
     1
  0
XRECORD
  5
155
102
{ACAD_REACTORS
330
154
102
}
330
154
100
AcDbXrecord
280
     1
102
RTVSPost2010Prop28
280
     0
102
RTVSPost2010PropOp28
 70
     1
102
RTVSPost2010Prop29
280
     1
102
RTVSPost2010PropOp29
 70
     1
102
RTVSPost2010Prop30
280
     1
102
RTVSPost2010PropOp30
 70
     1
102
RTVSPost2010Prop31
280
     0
102
RTVSPost2010PropOp31
 70
     1
102
RTVSPost2010Prop32
280
     0
102
RTVSPost2010PropOp32
 70
     1
102
RTVSPost2010Prop33
280
     0
102
RTVSPost2010PropOp33
 70
     1
102
RTVSPost2010Prop34
280
     0
102
RTVSPost2010PropOp34
 70
     1
102
RTVSPost2010Prop35
280
     0
102
RTVSPost2010PropOp35
 70
     1
102
RTVSPost2010Prop36
280
     0
102
RTVSPost2010PropOp36
 70
     1
102
RTVSPost2010Prop37
 90
       50
102
RTVSPost2010PropOp37
 70
     1
102
RTVSPost2010Prop38
140
0.0
102
RTVSPost2010PropOp38
 70
     1
102
RTVSPost2010Prop39
140
1.0
102
RTVSPost2010PropOp39
 70
     1
102
RTVSPost2010Prop40
 90
        0
102
RTVSPost2010PropOp40
 70
     1
102
RTVSPost2010Prop41ColorIndex
 90
       18
102
RTVSPost2010Prop41ColorRGB
 90
        0
102
RTVSPost2010PropOp41
 70
     1
102
RTVSPost2010Prop42
 90
       50
102
RTVSPost2010PropOp42
 70
     1
102
RTVSPost2010Prop43
 90
        3
102
RTVSPost2010PropOp43
 70
     1
102
RTVSPost2010Prop44ColorIndex
 90
        5
102
RTVSPost2010Prop44ColorRGB
 90
      255
102
RTVSPost2010PropOp44
 70
     1
102
RTVSPost2010Prop45
280
     0
102
RTVSPost2010PropOp45
 70
     1
102
RTVSPost2010Prop46
 90
       50
102
RTVSPost2010PropOp46
 70
     1
102
RTVSPost2010Prop47
 90
       50
102
RTVSPost2010PropOp47
 70
     1
102
RTVSPost2010Prop48
 90
       50
102
RTVSPost2010PropOp48
 70
     1
102
RTVSPost2010Prop49
280
     0
102
RTVSPost2010PropOp49
 70
     1
102
RTVSPost2010Prop50
 90
       50
102
RTVSPost2010PropOp50
 70
     1
102
RTVSPost2010Prop51ColorIndex
 90
      256
102
RTVSPost2010Prop51ColorRGB
 90
-16777216
102
RTVSPost2010PropOp51
 70
     0
102
RTVSPost2010Prop52
140
1.0
102
RTVSPost2010PropOp52
 70
     0
102
RTVSPost2010Prop53
 90
        2
102
RTVSPost2010PropOp53
 70
     1
102
RTVSPost2010Prop54
  1
strokes_ogs.tif
102
RTVSPost2010PropOp54
 70
     1
102
RTVSPost2010Prop55
280
     0
102
RTVSPost2010PropOp55
 70
     1
102
RTVSPost2010Prop56
140
1.0
102
RTVSPost2010PropOp56
 70
     1
102
RTVSPost2010Prop57
140
1.0
102
RTVSPost2010PropOp57
 70
     1
  0
XRECORD
  5
15D
102
{ACAD_REACTORS
330
15C
102
}
330
15C
100
AcDbXrecord
280
     1
102
RTVSPost2010Prop28
280
     0
102
RTVSPost2010PropOp28
 70
     1
102
RTVSPost2010Prop29
280
     1
102
RTVSPost2010PropOp29
 70
     1
102
RTVSPost2010Prop30
280
     1
102
RTVSPost2010PropOp30
 70
     1
102
RTVSPost2010Prop31
280
     0
102
RTVSPost2010PropOp31
 70
     1
102
RTVSPost2010Prop32
280
     0
102
RTVSPost2010PropOp32
 70
     1
102
RTVSPost2010Prop33
280
     0
102
RTVSPost2010PropOp33
 70
     1
102
RTVSPost2010Prop34
280
     0
102
RTVSPost2010PropOp34
 70
     1
102
RTVSPost2010Prop35
280
     0
102
RTVSPost2010PropOp35
 70
     1
102
RTVSPost2010Prop36
280
     0
102
RTVSPost2010PropOp36
 70
     1
102
RTVSPost2010Prop37
 90
       50
102
RTVSPost2010PropOp37
 70
     1
102
RTVSPost2010Prop38
140
0.0
102
RTVSPost2010PropOp38
 70
     1
102
RTVSPost2010Prop39
140
1.0
102
RTVSPost2010PropOp39
 70
     1
102
RTVSPost2010Prop40
 90
        0
102
RTVSPost2010PropOp40
 70
     1
102
RTVSPost2010Prop41ColorIndex
 90
       18
102
RTVSPost2010Prop41ColorRGB
 90
        0
102
RTVSPost2010PropOp41
 70
     1
102
RTVSPost2010Prop42
 90
       50
102
RTVSPost2010PropOp42
 70
     1
102
RTVSPost2010Prop43
 90
        3
102
RTVSPost2010PropOp43
 70
     1
102
RTVSPost2010Prop44ColorIndex
 90
        5
102
RTVSPost2010Prop44ColorRGB
 90
      255
102
RTVSPost2010PropOp44
 70
     1
102
RTVSPost2010Prop45
280
     0
102
RTVSPost2010PropOp45
 70
     1
102
RTVSPost2010Prop46
 90
       50
102
RTVSPost2010PropOp46
 70
     1
102
RTVSPost2010Prop47
 90
       50
102
RTVSPost2010PropOp47
 70
     1
102
RTVSPost2010Prop48
 90
       50
102
RTVSPost2010PropOp48
 70
     1
102
RTVSPost2010Prop49
280
     0
102
RTVSPost2010PropOp49
 70
     1
102
RTVSPost2010Prop50
 90
       50
102
RTVSPost2010PropOp50
 70
     1
102
RTVSPost2010Prop51ColorIndex
 90
      256
102
RTVSPost2010Prop51ColorRGB
 90
-16777216
102
RTVSPost2010PropOp51
 70
     0
102
RTVSPost2010Prop52
140
1.0
102
RTVSPost2010PropOp52
 70
     0
102
RTVSPost2010Prop53
 90
        2
102
RTVSPost2010PropOp53
 70
     1
102
RTVSPost2010Prop54
  1
strokes_ogs.tif
102
RTVSPost2010PropOp54
 70
     1
102
RTVSPost2010Prop55
280
     0
102
RTVSPost2010PropOp55
 70
     1
102
RTVSPost2010Prop56
140
1.0
102
RTVSPost2010PropOp56
 70
     1
102
RTVSPost2010Prop57
140
1.0
102
RTVSPost2010PropOp57
 70
     1
  0
XRECORD
  5
14F
102
{ACAD_REACTORS
330
14E
102
}
330
14E
100
AcDbXrecord
280
     1
102
RTVSPost2010Prop28
280
     0
102
RTVSPost2010PropOp28
 70
     1
102
RTVSPost2010Prop29
280
     1
102
RTVSPost2010PropOp29
 70
     1
102
RTVSPost2010Prop30
280
     1
102
RTVSPost2010PropOp30
 70
     1
102
RTVSPost2010Prop31
280
     0
102
RTVSPost2010PropOp31
 70
     1
102
RTVSPost2010Prop32
280
     0
102
RTVSPost2010PropOp32
 70
     1
102
RTVSPost2010Prop33
280
     0
102
RTVSPost2010PropOp33
 70
     1
102
RTVSPost2010Prop34
280
     0
102
RTVSPost2010PropOp34
 70
     1
102
RTVSPost2010Prop35
280
     0
102
RTVSPost2010PropOp35
 70
     1
102
RTVSPost2010Prop36
280
     0
102
RTVSPost2010PropOp36
 70
     1
102
RTVSPost2010Prop37
 90
       50
102
RTVSPost2010PropOp37
 70
     1
102
RTVSPost2010Prop38
140
0.0
102
RTVSPost2010PropOp38
 70
     1
102
RTVSPost2010Prop39
140
1.0
102
RTVSPost2010PropOp39
 70
     1
102
RTVSPost2010Prop40
 90
        0
102
RTVSPost2010PropOp40
 70
     1
102
RTVSPost2010Prop41ColorIndex
 90
       18
102
RTVSPost2010Prop41ColorRGB
 90
        0
102
RTVSPost2010PropOp41
 70
     1
102
RTVSPost2010Prop42
 90
       50
102
RTVSPost2010PropOp42
 70
     1
102
RTVSPost2010Prop43
 90
        3
102
RTVSPost2010PropOp43
 70
     1
102
RTVSPost2010Prop44ColorIndex
 90
        5
102
RTVSPost2010Prop44ColorRGB
 90
      255
102
RTVSPost2010PropOp44
 70
     1
102
RTVSPost2010Prop45
280
     0
102
RTVSPost2010PropOp45
 70
     1
102
RTVSPost2010Prop46
 90
       50
102
RTVSPost2010PropOp46
 70
     1
102
RTVSPost2010Prop47
 90
       50
102
RTVSPost2010PropOp47
 70
     1
102
RTVSPost2010Prop48
 90
       50
102
RTVSPost2010PropOp48
 70
     1
102
RTVSPost2010Prop49
280
     0
102
RTVSPost2010PropOp49
 70
     1
102
RTVSPost2010Prop50
 90
       50
102
RTVSPost2010PropOp50
 70
     1
102
RTVSPost2010Prop51ColorIndex
 90
      256
102
RTVSPost2010Prop51ColorRGB
 90
-16777216
102
RTVSPost2010PropOp51
 70
     0
102
RTVSPost2010Prop52
140
1.0
102
RTVSPost2010PropOp52
 70
     0
102
RTVSPost2010Prop53
 90
        2
102
RTVSPost2010PropOp53
 70
     1
102
RTVSPost2010Prop54
  1
strokes_ogs.tif
102
RTVSPost2010PropOp54
 70
     1
102
RTVSPost2010Prop55
280
     0
102
RTVSPost2010PropOp55
 70
     1
102
RTVSPost2010Prop56
140
1.0
102
RTVSPost2010PropOp56
 70
     1
102
RTVSPost2010Prop57
140
1.0
102
RTVSPost2010PropOp57
 70
     1
  0
XRECORD
  5
153
102
{ACAD_REACTORS
330
152
102
}
330
152
100
AcDbXrecord
280
     1
102
RTVSPost2010Prop28
280
     0
102
RTVSPost2010PropOp28
 70
     1
102
RTVSPost2010Prop29
280
     1
102
RTVSPost2010PropOp29
 70
     1
102
RTVSPost2010Prop30
280
     1
102
RTVSPost2010PropOp30
 70
     1
102
RTVSPost2010Prop31
280
     0
102
RTVSPost2010PropOp31
 70
     1
102
RTVSPost2010Prop32
280
     0
102
RTVSPost2010PropOp32
 70
     1
102
RTVSPost2010Prop33
280
     0
102
RTVSPost2010PropOp33
 70
     1
102
RTVSPost2010Prop34
280
     0
102
RTVSPost2010PropOp34
 70
     1
102
RTVSPost2010Prop35
280
     0
102
RTVSPost2010PropOp35
 70
     1
102
RTVSPost2010Prop36
280
     0
102
RTVSPost2010PropOp36
 70
     1
102
RTVSPost2010Prop37
 90
       50
102
RTVSPost2010PropOp37
 70
     1
102
RTVSPost2010Prop38
140
0.0
102
RTVSPost2010PropOp38
 70
     1
102
RTVSPost2010Prop39
140
1.0
102
RTVSPost2010PropOp39
 70
     1
102
RTVSPost2010Prop40
 90
        0
102
RTVSPost2010PropOp40
 70
     1
102
RTVSPost2010Prop41ColorIndex
 90
       18
102
RTVSPost2010Prop41ColorRGB
 90
        0
102
RTVSPost2010PropOp41
 70
     1
102
RTVSPost2010Prop42
 90
       50
102
RTVSPost2010PropOp42
 70
     1
102
RTVSPost2010Prop43
 90
        3
102
RTVSPost2010PropOp43
 70
     1
102
RTVSPost2010Prop44ColorIndex
 90
        5
102
RTVSPost2010Prop44ColorRGB
 90
      255
102
RTVSPost2010PropOp44
 70
     1
102
RTVSPost2010Prop45
280
     0
102
RTVSPost2010PropOp45
 70
     1
102
RTVSPost2010Prop46
 90
       50
102
RTVSPost2010PropOp46
 70
     1
102
RTVSPost2010Prop47
 90
       50
102
RTVSPost2010PropOp47
 70
     1
102
RTVSPost2010Prop48
 90
       50
102
RTVSPost2010PropOp48
 70
     1
102
RTVSPost2010Prop49
280
     0
102
RTVSPost2010PropOp49
 70
     1
102
RTVSPost2010Prop50
 90
       50
102
RTVSPost2010PropOp50
 70
     1
102
RTVSPost2010Prop51ColorIndex
 90
      256
102
RTVSPost2010Prop51ColorRGB
 90
-16777216
102
RTVSPost2010PropOp51
 70
     0
102
RTVSPost2010Prop52
140
1.0
102
RTVSPost2010PropOp52
 70
     0
102
RTVSPost2010Prop53
 90
        2
102
RTVSPost2010PropOp53
 70
     1
102
RTVSPost2010Prop54
  1
strokes_ogs.tif
102
RTVSPost2010PropOp54
 70
     1
102
RTVSPost2010Prop55
280
     0
102
RTVSPost2010PropOp55
 70
     1
102
RTVSPost2010Prop56
140
1.0
102
RTVSPost2010PropOp56
 70
     1
102
RTVSPost2010Prop57
140
1.0
102
RTVSPost2010PropOp57
 70
     1
  0
XRECORD
  5
16D
102
{ACAD_REACTORS
330
16C
102
}
330
16C
100
AcDbXrecord
280
     1
102
RTVSPost2010Prop28
280
     0
102
RTVSPost2010PropOp28
 70
     0
102
RTVSPost2010Prop29
280
     1
102
RTVSPost2010PropOp29
 70
     0
102
RTVSPost2010Prop30
280
     1
102
RTVSPost2010PropOp30
 70
     0
102
RTVSPost2010Prop31
280
     0
102
RTVSPost2010PropOp31
 70
     0
102
RTVSPost2010Prop32
280
     0
102
RTVSPost2010PropOp32
 70
     0
102
RTVSPost2010Prop33
280
     0
102
RTVSPost2010PropOp33
 70
     0
102
RTVSPost2010Prop34
280
     0
102
RTVSPost2010PropOp34
 70
     0
102
RTVSPost2010Prop35
280
     0
102
RTVSPost2010PropOp35
 70
     0
102
RTVSPost2010Prop36
280
     0
102
RTVSPost2010PropOp36
 70
     0
102
RTVSPost2010Prop37
 90
       50
102
RTVSPost2010PropOp37
 70
     0
102
RTVSPost2010Prop38
140
0.0
102
RTVSPost2010PropOp38
 70
     0
102
RTVSPost2010Prop39
140
1.0
102
RTVSPost2010PropOp39
 70
     0
102
RTVSPost2010Prop40
 90
        0
102
RTVSPost2010PropOp40
 70
     0
102
RTVSPost2010Prop41ColorIndex
 90
       18
102
RTVSPost2010Prop41ColorRGB
 90
        0
102
RTVSPost2010PropOp41
 70
     0
102
RTVSPost2010Prop42
 90
       50
102
RTVSPost2010PropOp42
 70
     0
102
RTVSPost2010Prop43
 90
        3
102
RTVSPost2010PropOp43
 70
     0
102
RTVSPost2010Prop44ColorIndex
 90
        5
102
RTVSPost2010Prop44ColorRGB
 90
      255
102
RTVSPost2010PropOp44
 70
     0
102
RTVSPost2010Prop45
280
     0
102
RTVSPost2010PropOp45
 70
     0
102
RTVSPost2010Prop46
 90
       50
102
RTVSPost2010PropOp46
 70
     0
102
RTVSPost2010Prop47
 90
       50
102
RTVSPost2010PropOp47
 70
     0
102
RTVSPost2010Prop48
 90
       50
102
RTVSPost2010PropOp48
 70
     0
102
RTVSPost2010Prop49
280
     0
102
RTVSPost2010PropOp49
 70
     0
102
RTVSPost2010Prop50
 90
       50
102
RTVSPost2010PropOp50
 70
     0
102
RTVSPost2010Prop51ColorIndex
 90
      256
102
RTVSPost2010Prop51ColorRGB
 90
-16777216
102
RTVSPost2010PropOp51
 70
     0
102
RTVSPost2010Prop52
140
1.0
102
RTVSPost2010PropOp52
 70
     0
102
RTVSPost2010Prop53
 90
        2
102
RTVSPost2010PropOp53
 70
     0
102
RTVSPost2010Prop54
  1
strokes_ogs.tif
102
RTVSPost2010PropOp54
 70
     0
102
RTVSPost2010Prop55
280
     0
102
RTVSPost2010PropOp55
 70
     0
102
RTVSPost2010Prop56
140
1.0
102
RTVSPost2010PropOp56
 70
     0
102
RTVSPost2010Prop57
140
1.0
102
RTVSPost2010PropOp57
 70
     0
  0
XRECORD
  5
15B
102
{ACAD_REACTORS
330
15A
102
}
330
15A
100
AcDbXrecord
280
     1
102
RTVSPost2010Prop28
280
     0
102
RTVSPost2010PropOp28
 70
     1
102
RTVSPost2010Prop29
280
     1
102
RTVSPost2010PropOp29
 70
     1
102
RTVSPost2010Prop30
280
     1
102
RTVSPost2010PropOp30
 70
     1
102
RTVSPost2010Prop31
280
     0
102
RTVSPost2010PropOp31
 70
     1
102
RTVSPost2010Prop32
280
     0
102
RTVSPost2010PropOp32
 70
     1
102
RTVSPost2010Prop33
280
     0
102
RTVSPost2010PropOp33
 70
     1
102
RTVSPost2010Prop34
280
     0
102
RTVSPost2010PropOp34
 70
     1
102
RTVSPost2010Prop35
280
     0
102
RTVSPost2010PropOp35
 70
     1
102
RTVSPost2010Prop36
280
     0
102
RTVSPost2010PropOp36
 70
     1
102
RTVSPost2010Prop37
 90
       50
102
RTVSPost2010PropOp37
 70
     1
102
RTVSPost2010Prop38
140
0.0
102
RTVSPost2010PropOp38
 70
     1
102
RTVSPost2010Prop39
140
1.0
102
RTVSPost2010PropOp39
 70
     1
102
RTVSPost2010Prop40
 90
        0
102
RTVSPost2010PropOp40
 70
     1
102
RTVSPost2010Prop41ColorIndex
 90
       18
102
RTVSPost2010Prop41ColorRGB
 90
        0
102
RTVSPost2010PropOp41
 70
     1
102
RTVSPost2010Prop42
 90
       50
102
RTVSPost2010PropOp42
 70
     1
102
RTVSPost2010Prop43
 90
        3
102
RTVSPost2010PropOp43
 70
     1
102
RTVSPost2010Prop44ColorIndex
 90
        5
102
RTVSPost2010Prop44ColorRGB
 90
      255
102
RTVSPost2010PropOp44
 70
     1
102
RTVSPost2010Prop45
280
     0
102
RTVSPost2010PropOp45
 70
     1
102
RTVSPost2010Prop46
 90
       50
102
RTVSPost2010PropOp46
 70
     1
102
RTVSPost2010Prop47
 90
       50
102
RTVSPost2010PropOp47
 70
     1
102
RTVSPost2010Prop48
 90
       50
102
RTVSPost2010PropOp48
 70
     1
102
RTVSPost2010Prop49
280
     0
102
RTVSPost2010PropOp49
 70
     1
102
RTVSPost2010Prop50
 90
       50
102
RTVSPost2010PropOp50
 70
     1
102
RTVSPost2010Prop51ColorIndex
 90
      256
102
RTVSPost2010Prop51ColorRGB
 90
-16777216
102
RTVSPost2010PropOp51
 70
     0
102
RTVSPost2010Prop52
140
1.0
102
RTVSPost2010PropOp52
 70
     0
102
RTVSPost2010Prop53
 90
        2
102
RTVSPost2010PropOp53
 70
     1
102
RTVSPost2010Prop54
  1
strokes_ogs.tif
102
RTVSPost2010PropOp54
 70
     1
102
RTVSPost2010Prop55
280
     0
102
RTVSPost2010PropOp55
 70
     1
102
RTVSPost2010Prop56
140
1.0
102
RTVSPost2010PropOp56
 70
     1
102
RTVSPost2010Prop57
140
1.0
102
RTVSPost2010PropOp57
 70
     1
  0
XRECORD
  5
13F
102
{ACAD_REACTORS
330
13E
102
}
330
13E
100
AcDbXrecord
280
     1
102
RTVSPost2010Prop28
280
     0
102
RTVSPost2010PropOp28
 70
     1
102
RTVSPost2010Prop29
280
     1
102
RTVSPost2010PropOp29
 70
     1
102
RTVSPost2010Prop30
280
     1
102
RTVSPost2010PropOp30
 70
     1
102
RTVSPost2010Prop31
280
     0
102
RTVSPost2010PropOp31
 70
     1
102
RTVSPost2010Prop32
280
     0
102
RTVSPost2010PropOp32
 70
     1
102
RTVSPost2010Prop33
280
     0
102
RTVSPost2010PropOp33
 70
     1
102
RTVSPost2010Prop34
280
     0
102
RTVSPost2010PropOp34
 70
     1
102
RTVSPost2010Prop35
280
     0
102
RTVSPost2010PropOp35
 70
     1
102
RTVSPost2010Prop36
280
     0
102
RTVSPost2010PropOp36
 70
     1
102
RTVSPost2010Prop37
 90
       50
102
RTVSPost2010PropOp37
 70
     1
102
RTVSPost2010Prop38
140
0.0
102
RTVSPost2010PropOp38
 70
     1
102
RTVSPost2010Prop39
140
1.0
102
RTVSPost2010PropOp39
 70
     1
102
RTVSPost2010Prop40
 90
        0
102
RTVSPost2010PropOp40
 70
     1
102
RTVSPost2010Prop41ColorIndex
 90
       18
102
RTVSPost2010Prop41ColorRGB
 90
        0
102
RTVSPost2010PropOp41
 70
     1
102
RTVSPost2010Prop42
 90
       50
102
RTVSPost2010PropOp42
 70
     1
102
RTVSPost2010Prop43
 90
        3
102
RTVSPost2010PropOp43
 70
     1
102
RTVSPost2010Prop44ColorIndex
 90
        5
102
RTVSPost2010Prop44ColorRGB
 90
      255
102
RTVSPost2010PropOp44
 70
     1
102
RTVSPost2010Prop45
280
     0
102
RTVSPost2010PropOp45
 70
     1
102
RTVSPost2010Prop46
 90
       50
102
RTVSPost2010PropOp46
 70
     1
102
RTVSPost2010Prop47
 90
       50
102
RTVSPost2010PropOp47
 70
     1
102
RTVSPost2010Prop48
 90
       50
102
RTVSPost2010PropOp48
 70
     1
102
RTVSPost2010Prop49
280
     0
102
RTVSPost2010PropOp49
 70
     1
102
RTVSPost2010Prop50
 90
       50
102
RTVSPost2010PropOp50
 70
     1
102
RTVSPost2010Prop51ColorIndex
 90
      256
102
RTVSPost2010Prop51ColorRGB
 90
-16777216
102
RTVSPost2010PropOp51
 70
     0
102
RTVSPost2010Prop52
140
1.0
102
RTVSPost2010PropOp52
 70
     0
102
RTVSPost2010Prop53
 90
        2
102
RTVSPost2010PropOp53
 70
     1
102
RTVSPost2010Prop54
  1
strokes_ogs.tif
102
RTVSPost2010PropOp54
 70
     1
102
RTVSPost2010Prop55
280
     0
102
RTVSPost2010PropOp55
 70
     1
102
RTVSPost2010Prop56
140
1.0
102
RTVSPost2010PropOp56
 70
     1
102
RTVSPost2010Prop57
140
1.0
102
RTVSPost2010PropOp57
 70
     1
  0
XRECORD
  5
141
102
{ACAD_REACTORS
330
140
102
}
330
140
100
AcDbXrecord
280
     1
102
RTVSPost2010Prop28
280
     0
102
RTVSPost2010PropOp28
 70
     1
102
RTVSPost2010Prop29
280
     1
102
RTVSPost2010PropOp29
 70
     1
102
RTVSPost2010Prop30
280
     1
102
RTVSPost2010PropOp30
 70
     1
102
RTVSPost2010Prop31
280
     0
102
RTVSPost2010PropOp31
 70
     1
102
RTVSPost2010Prop32
280
     0
102
RTVSPost2010PropOp32
 70
     1
102
RTVSPost2010Prop33
280
     0
102
RTVSPost2010PropOp33
 70
     1
102
RTVSPost2010Prop34
280
     0
102
RTVSPost2010PropOp34
 70
     1
102
RTVSPost2010Prop35
280
     0
102
RTVSPost2010PropOp35
 70
     1
102
RTVSPost2010Prop36
280
     0
102
RTVSPost2010PropOp36
 70
     1
102
RTVSPost2010Prop37
 90
       50
102
RTVSPost2010PropOp37
 70
     1
102
RTVSPost2010Prop38
140
0.0
102
RTVSPost2010PropOp38
 70
     1
102
RTVSPost2010Prop39
140
1.0
102
RTVSPost2010PropOp39
 70
     1
102
RTVSPost2010Prop40
 90
        0
102
RTVSPost2010PropOp40
 70
     1
102
RTVSPost2010Prop41ColorIndex
 90
       18
102
RTVSPost2010Prop41ColorRGB
 90
        0
102
RTVSPost2010PropOp41
 70
     1
102
RTVSPost2010Prop42
 90
       50
102
RTVSPost2010PropOp42
 70
     1
102
RTVSPost2010Prop43
 90
        3
102
RTVSPost2010PropOp43
 70
     1
102
RTVSPost2010Prop44ColorIndex
 90
        5
102
RTVSPost2010Prop44ColorRGB
 90
      255
102
RTVSPost2010PropOp44
 70
     1
102
RTVSPost2010Prop45
280
     0
102
RTVSPost2010PropOp45
 70
     1
102
RTVSPost2010Prop46
 90
       50
102
RTVSPost2010PropOp46
 70
     1
102
RTVSPost2010Prop47
 90
       50
102
RTVSPost2010PropOp47
 70
     1
102
RTVSPost2010Prop48
 90
       50
102
RTVSPost2010PropOp48
 70
     1
102
RTVSPost2010Prop49
280
     0
102
RTVSPost2010PropOp49
 70
     1
102
RTVSPost2010Prop50
 90
       50
102
RTVSPost2010PropOp50
 70
     1
102
RTVSPost2010Prop51ColorIndex
 90
      256
102
RTVSPost2010Prop51ColorRGB
 90
-16777216
102
RTVSPost2010PropOp51
 70
     0
102
RTVSPost2010Prop52
140
1.0
102
RTVSPost2010PropOp52
 70
     0
102
RTVSPost2010Prop53
 90
        2
102
RTVSPost2010PropOp53
 70
     1
102
RTVSPost2010Prop54
  1
strokes_ogs.tif
102
RTVSPost2010PropOp54
 70
     1
102
RTVSPost2010Prop55
280
     0
102
RTVSPost2010PropOp55
 70
     1
102
RTVSPost2010Prop56
140
1.0
102
RTVSPost2010PropOp56
 70
     1
102
RTVSPost2010Prop57
140
1.0
102
RTVSPost2010PropOp57
 70
     1
  0
XRECORD
  5
143
102
{ACAD_REACTORS
330
142
102
}
330
142
100
AcDbXrecord
280
     1
102
RTVSPost2010Prop28
280
     0
102
RTVSPost2010PropOp28
 70
     1
102
RTVSPost2010Prop29
280
     1
102
RTVSPost2010PropOp29
 70
     1
102
RTVSPost2010Prop30
280
     1
102
RTVSPost2010PropOp30
 70
     1
102
RTVSPost2010Prop31
280
     0
102
RTVSPost2010PropOp31
 70
     1
102
RTVSPost2010Prop32
280
     0
102
RTVSPost2010PropOp32
 70
     1
102
RTVSPost2010Prop33
280
     0
102
RTVSPost2010PropOp33
 70
     1
102
RTVSPost2010Prop34
280
     0
102
RTVSPost2010PropOp34
 70
     1
102
RTVSPost2010Prop35
280
     0
102
RTVSPost2010PropOp35
 70
     1
102
RTVSPost2010Prop36
280
     0
102
RTVSPost2010PropOp36
 70
     1
102
RTVSPost2010Prop37
 90
       50
102
RTVSPost2010PropOp37
 70
     1
102
RTVSPost2010Prop38
140
0.0
102
RTVSPost2010PropOp38
 70
     1
102
RTVSPost2010Prop39
140
1.0
102
RTVSPost2010PropOp39
 70
     1
102
RTVSPost2010Prop40
 90
        0
102
RTVSPost2010PropOp40
 70
     1
102
RTVSPost2010Prop41ColorIndex
 90
       18
102
RTVSPost2010Prop41ColorRGB
 90
        0
102
RTVSPost2010PropOp41
 70
     1
102
RTVSPost2010Prop42
 90
       50
102
RTVSPost2010PropOp42
 70
     1
102
RTVSPost2010Prop43
 90
        3
102
RTVSPost2010PropOp43
 70
     1
102
RTVSPost2010Prop44ColorIndex
 90
        5
102
RTVSPost2010Prop44ColorRGB
 90
      255
102
RTVSPost2010PropOp44
 70
     1
102
RTVSPost2010Prop45
280
     0
102
RTVSPost2010PropOp45
 70
     1
102
RTVSPost2010Prop46
 90
       50
102
RTVSPost2010PropOp46
 70
     1
102
RTVSPost2010Prop47
 90
       50
102
RTVSPost2010PropOp47
 70
     1
102
RTVSPost2010Prop48
 90
       50
102
RTVSPost2010PropOp48
 70
     1
102
RTVSPost2010Prop49
280
     0
102
RTVSPost2010PropOp49
 70
     1
102
RTVSPost2010Prop50
 90
       50
102
RTVSPost2010PropOp50
 70
     1
102
RTVSPost2010Prop51ColorIndex
 90
      256
102
RTVSPost2010Prop51ColorRGB
 90
-16777216
102
RTVSPost2010PropOp51
 70
     0
102
RTVSPost2010Prop52
140
1.0
102
RTVSPost2010PropOp52
 70
     0
102
RTVSPost2010Prop53
 90
        2
102
RTVSPost2010PropOp53
 70
     1
102
RTVSPost2010Prop54
  1
strokes_ogs.tif
102
RTVSPost2010PropOp54
 70
     1
102
RTVSPost2010Prop55
280
     0
102
RTVSPost2010PropOp55
 70
     1
102
RTVSPost2010Prop56
140
1.0
102
RTVSPost2010PropOp56
 70
     1
102
RTVSPost2010Prop57
140
1.0
102
RTVSPost2010PropOp57
 70
     1
  0
XRECORD
  5
145
102
{ACAD_REACTORS
330
144
102
}
330
144
100
AcDbXrecord
280
     1
102
RTVSPost2010Prop28
280
     0
102
RTVSPost2010PropOp28
 70
     1
102
RTVSPost2010Prop29
280
     1
102
RTVSPost2010PropOp29
 70
     1
102
RTVSPost2010Prop30
280
     1
102
RTVSPost2010PropOp30
 70
     1
102
RTVSPost2010Prop31
280
     0
102
RTVSPost2010PropOp31
 70
     1
102
RTVSPost2010Prop32
280
     0
102
RTVSPost2010PropOp32
 70
     1
102
RTVSPost2010Prop33
280
     0
102
RTVSPost2010PropOp33
 70
     1
102
RTVSPost2010Prop34
280
     0
102
RTVSPost2010PropOp34
 70
     1
102
RTVSPost2010Prop35
280
     0
102
RTVSPost2010PropOp35
 70
     1
102
RTVSPost2010Prop36
280
     0
102
RTVSPost2010PropOp36
 70
     1
102
RTVSPost2010Prop37
 90
       50
102
RTVSPost2010PropOp37
 70
     1
102
RTVSPost2010Prop38
140
0.0
102
RTVSPost2010PropOp38
 70
     1
102
RTVSPost2010Prop39
140
1.0
102
RTVSPost2010PropOp39
 70
     1
102
RTVSPost2010Prop40
 90
        0
102
RTVSPost2010PropOp40
 70
     1
102
RTVSPost2010Prop41ColorIndex
 90
       18
102
RTVSPost2010Prop41ColorRGB
 90
        0
102
RTVSPost2010PropOp41
 70
     1
102
RTVSPost2010Prop42
 90
       50
102
RTVSPost2010PropOp42
 70
     1
102
RTVSPost2010Prop43
 90
        3
102
RTVSPost2010PropOp43
 70
     1
102
RTVSPost2010Prop44ColorIndex
 90
        5
102
RTVSPost2010Prop44ColorRGB
 90
      255
102
RTVSPost2010PropOp44
 70
     1
102
RTVSPost2010Prop45
280
     0
102
RTVSPost2010PropOp45
 70
     1
102
RTVSPost2010Prop46
 90
       50
102
RTVSPost2010PropOp46
 70
     1
102
RTVSPost2010Prop47
 90
       50
102
RTVSPost2010PropOp47
 70
     1
102
RTVSPost2010Prop48
 90
       50
102
RTVSPost2010PropOp48
 70
     1
102
RTVSPost2010Prop49
280
     0
102
RTVSPost2010PropOp49
 70
     1
102
RTVSPost2010Prop50
 90
       50
102
RTVSPost2010PropOp50
 70
     1
102
RTVSPost2010Prop51ColorIndex
 90
      256
102
RTVSPost2010Prop51ColorRGB
 90
-16777216
102
RTVSPost2010PropOp51
 70
     0
102
RTVSPost2010Prop52
140
1.0
102
RTVSPost2010PropOp52
 70
     0
102
RTVSPost2010Prop53
 90
        2
102
RTVSPost2010PropOp53
 70
     1
102
RTVSPost2010Prop54
  1
strokes_ogs.tif
102
RTVSPost2010PropOp54
 70
     1
102
RTVSPost2010Prop55
280
     0
102
RTVSPost2010PropOp55
 70
     1
102
RTVSPost2010Prop56
140
1.0
102
RTVSPost2010PropOp56
 70
     1
102
RTVSPost2010Prop57
140
1.0
102
RTVSPost2010PropOp57
 70
     1
  0
XRECORD
  5
14D
102
{ACAD_REACTORS
330
14C
102
}
330
14C
100
AcDbXrecord
280
     1
102
RTVSPost2010Prop28
280
     0
102
RTVSPost2010PropOp28
 70
     1
102
RTVSPost2010Prop29
280
     1
102
RTVSPost2010PropOp29
 70
     1
102
RTVSPost2010Prop30
280
     1
102
RTVSPost2010PropOp30
 70
     1
102
RTVSPost2010Prop31
280
     0
102
RTVSPost2010PropOp31
 70
     1
102
RTVSPost2010Prop32
280
     0
102
RTVSPost2010PropOp32
 70
     1
102
RTVSPost2010Prop33
280
     0
102
RTVSPost2010PropOp33
 70
     1
102
RTVSPost2010Prop34
280
     0
102
RTVSPost2010PropOp34
 70
     1
102
RTVSPost2010Prop35
280
     0
102
RTVSPost2010PropOp35
 70
     1
102
RTVSPost2010Prop36
280
     0
102
RTVSPost2010PropOp36
 70
     1
102
RTVSPost2010Prop37
 90
       50
102
RTVSPost2010PropOp37
 70
     1
102
RTVSPost2010Prop38
140
0.0
102
RTVSPost2010PropOp38
 70
     1
102
RTVSPost2010Prop39
140
1.0
102
RTVSPost2010PropOp39
 70
     1
102
RTVSPost2010Prop40
 90
        0
102
RTVSPost2010PropOp40
 70
     1
102
RTVSPost2010Prop41ColorIndex
 90
       18
102
RTVSPost2010Prop41ColorRGB
 90
        0
102
RTVSPost2010PropOp41
 70
     1
102
RTVSPost2010Prop42
 90
       50
102
RTVSPost2010PropOp42
 70
     1
102
RTVSPost2010Prop43
 90
        3
102
RTVSPost2010PropOp43
 70
     1
102
RTVSPost2010Prop44ColorIndex
 90
        5
102
RTVSPost2010Prop44ColorRGB
 90
      255
102
RTVSPost2010PropOp44
 70
     1
102
RTVSPost2010Prop45
280
     0
102
RTVSPost2010PropOp45
 70
     1
102
RTVSPost2010Prop46
 90
       50
102
RTVSPost2010PropOp46
 70
     1
102
RTVSPost2010Prop47
 90
       50
102
RTVSPost2010PropOp47
 70
     1
102
RTVSPost2010Prop48
 90
       50
102
RTVSPost2010PropOp48
 70
     1
102
RTVSPost2010Prop49
280
     0
102
RTVSPost2010PropOp49
 70
     1
102
RTVSPost2010Prop50
 90
       50
102
RTVSPost2010PropOp50
 70
     1
102
RTVSPost2010Prop51ColorIndex
 90
      256
102
RTVSPost2010Prop51ColorRGB
 90
-16777216
102
RTVSPost2010PropOp51
 70
     0
102
RTVSPost2010Prop52
140
1.0
102
RTVSPost2010PropOp52
 70
     0
102
RTVSPost2010Prop53
 90
        2
102
RTVSPost2010PropOp53
 70
     1
102
RTVSPost2010Prop54
  1
strokes_ogs.tif
102
RTVSPost2010PropOp54
 70
     1
102
RTVSPost2010Prop55
280
     0
102
RTVSPost2010PropOp55
 70
     1
102
RTVSPost2010Prop56
140
1.0
102
RTVSPost2010PropOp56
 70
     1
102
RTVSPost2010Prop57
140
1.0
102
RTVSPost2010PropOp57
 70
     1
  0
XRECORD
  5
169
102
{ACAD_REACTORS
330
168
102
}
330
168
100
AcDbXrecord
280
     1
102
RTVSPost2010Prop28
280
     0
102
RTVSPost2010PropOp28
 70
     0
102
RTVSPost2010Prop29
280
     1
102
RTVSPost2010PropOp29
 70
     0
102
RTVSPost2010Prop30
280
     1
102
RTVSPost2010PropOp30
 70
     0
102
RTVSPost2010Prop31
280
     0
102
RTVSPost2010PropOp31
 70
     0
102
RTVSPost2010Prop32
280
     0
102
RTVSPost2010PropOp32
 70
     0
102
RTVSPost2010Prop33
280
     0
102
RTVSPost2010PropOp33
 70
     0
102
RTVSPost2010Prop34
280
     0
102
RTVSPost2010PropOp34
 70
     0
102
RTVSPost2010Prop35
280
     0
102
RTVSPost2010PropOp35
 70
     0
102
RTVSPost2010Prop36
280
     0
102
RTVSPost2010PropOp36
 70
     0
102
RTVSPost2010Prop37
 90
       50
102
RTVSPost2010PropOp37
 70
     0
102
RTVSPost2010Prop38
140
0.0
102
RTVSPost2010PropOp38
 70
     0
102
RTVSPost2010Prop39
140
1.0
102
RTVSPost2010PropOp39
 70
     0
102
RTVSPost2010Prop40
 90
        0
102
RTVSPost2010PropOp40
 70
     0
102
RTVSPost2010Prop41ColorIndex
 90
       18
102
RTVSPost2010Prop41ColorRGB
 90
        0
102
RTVSPost2010PropOp41
 70
     0
102
RTVSPost2010Prop42
 90
       50
102
RTVSPost2010PropOp42
 70
     0
102
RTVSPost2010Prop43
 90
        3
102
RTVSPost2010PropOp43
 70
     0
102
RTVSPost2010Prop44ColorIndex
 90
        5
102
RTVSPost2010Prop44ColorRGB
 90
      255
102
RTVSPost2010PropOp44
 70
     0
102
RTVSPost2010Prop45
280
     0
102
RTVSPost2010PropOp45
 70
     0
102
RTVSPost2010Prop46
 90
       50
102
RTVSPost2010PropOp46
 70
     0
102
RTVSPost2010Prop47
 90
       50
102
RTVSPost2010PropOp47
 70
     0
102
RTVSPost2010Prop48
 90
       50
102
RTVSPost2010PropOp48
 70
     0
102
RTVSPost2010Prop49
280
     0
102
RTVSPost2010PropOp49
 70
     0
102
RTVSPost2010Prop50
 90
       50
102
RTVSPost2010PropOp50
 70
     0
102
RTVSPost2010Prop51ColorIndex
 90
      256
102
RTVSPost2010Prop51ColorRGB
 90
-16777216
102
RTVSPost2010PropOp51
 70
     0
102
RTVSPost2010Prop52
140
1.0
102
RTVSPost2010PropOp52
 70
     0
102
RTVSPost2010Prop53
 90
        2
102
RTVSPost2010PropOp53
 70
     0
102
RTVSPost2010Prop54
  1
strokes_ogs.tif
102
RTVSPost2010PropOp54
 70
     0
102
RTVSPost2010Prop55
280
     0
102
RTVSPost2010PropOp55
 70
     0
102
RTVSPost2010Prop56
140
1.0
102
RTVSPost2010PropOp56
 70
     0
102
RTVSPost2010Prop57
140
1.0
102
RTVSPost2010PropOp57
 70
     0
  0
XRECORD
  5
159
102
{ACAD_REACTORS
330
158
102
}
330
158
100
AcDbXrecord
280
     1
102
RTVSPost2010Prop28
280
     0
102
RTVSPost2010PropOp28
 70
     1
102
RTVSPost2010Prop29
280
     1
102
RTVSPost2010PropOp29
 70
     1
102
RTVSPost2010Prop30
280
     1
102
RTVSPost2010PropOp30
 70
     1
102
RTVSPost2010Prop31
280
     0
102
RTVSPost2010PropOp31
 70
     1
102
RTVSPost2010Prop32
280
     0
102
RTVSPost2010PropOp32
 70
     1
102
RTVSPost2010Prop33
280
     0
102
RTVSPost2010PropOp33
 70
     1
102
RTVSPost2010Prop34
280
     0
102
RTVSPost2010PropOp34
 70
     1
102
RTVSPost2010Prop35
280
     0
102
RTVSPost2010PropOp35
 70
     1
102
RTVSPost2010Prop36
280
     0
102
RTVSPost2010PropOp36
 70
     1
102
RTVSPost2010Prop37
 90
       50
102
RTVSPost2010PropOp37
 70
     1
102
RTVSPost2010Prop38
140
0.0
102
RTVSPost2010PropOp38
 70
     1
102
RTVSPost2010Prop39
140
1.0
102
RTVSPost2010PropOp39
 70
     1
102
RTVSPost2010Prop40
 90
        0
102
RTVSPost2010PropOp40
 70
     1
102
RTVSPost2010Prop41ColorIndex
 90
       18
102
RTVSPost2010Prop41ColorRGB
 90
        0
102
RTVSPost2010PropOp41
 70
     1
102
RTVSPost2010Prop42
 90
       50
102
RTVSPost2010PropOp42
 70
     1
102
RTVSPost2010Prop43
 90
        3
102
RTVSPost2010PropOp43
 70
     1
102
RTVSPost2010Prop44ColorIndex
 90
        5
102
RTVSPost2010Prop44ColorRGB
 90
      255
102
RTVSPost2010PropOp44
 70
     1
102
RTVSPost2010Prop45
280
     0
102
RTVSPost2010PropOp45
 70
     1
102
RTVSPost2010Prop46
 90
       50
102
RTVSPost2010PropOp46
 70
     1
102
RTVSPost2010Prop47
 90
       50
102
RTVSPost2010PropOp47
 70
     1
102
RTVSPost2010Prop48
 90
       50
102
RTVSPost2010PropOp48
 70
     1
102
RTVSPost2010Prop49
280
     0
102
RTVSPost2010PropOp49
 70
     1
102
RTVSPost2010Prop50
 90
       50
102
RTVSPost2010PropOp50
 70
     1
102
RTVSPost2010Prop51ColorIndex
 90
      256
102
RTVSPost2010Prop51ColorRGB
 90
-16777216
102
RTVSPost2010PropOp51
 70
     0
102
RTVSPost2010Prop52
140
1.0
102
RTVSPost2010PropOp52
 70
     0
102
RTVSPost2010Prop53
 90
        2
102
RTVSPost2010PropOp53
 70
     1
102
RTVSPost2010Prop54
  1
strokes_ogs.tif
102
RTVSPost2010PropOp54
 70
     1
102
RTVSPost2010Prop55
280
     0
102
RTVSPost2010PropOp55
 70
     1
102
RTVSPost2010Prop56
140
1.0
102
RTVSPost2010PropOp56
 70
     1
102
RTVSPost2010Prop57
140
1.0
102
RTVSPost2010PropOp57
 70
     1
  0
XRECORD
  5
16B
102
{ACAD_REACTORS
330
16A
102
}
330
16A
100
AcDbXrecord
280
     1
102
RTVSPost2010Prop28
280
     0
102
RTVSPost2010PropOp28
 70
     0
102
RTVSPost2010Prop29
280
     1
102
RTVSPost2010PropOp29
 70
     0
102
RTVSPost2010Prop30
280
     1
102
RTVSPost2010PropOp30
 70
     0
102
RTVSPost2010Prop31
280
     0
102
RTVSPost2010PropOp31
 70
     0
102
RTVSPost2010Prop32
280
     0
102
RTVSPost2010PropOp32
 70
     0
102
RTVSPost2010Prop33
280
     0
102
RTVSPost2010PropOp33
 70
     0
102
RTVSPost2010Prop34
280
     0
102
RTVSPost2010PropOp34
 70
     0
102
RTVSPost2010Prop35
280
     0
102
RTVSPost2010PropOp35
 70
     0
102
RTVSPost2010Prop36
280
     0
102
RTVSPost2010PropOp36
 70
     0
102
RTVSPost2010Prop37
 90
       50
102
RTVSPost2010PropOp37
 70
     0
102
RTVSPost2010Prop38
140
0.0
102
RTVSPost2010PropOp38
 70
     0
102
RTVSPost2010Prop39
140
1.0
102
RTVSPost2010PropOp39
 70
     0
102
RTVSPost2010Prop40
 90
        0
102
RTVSPost2010PropOp40
 70
     0
102
RTVSPost2010Prop41ColorIndex
 90
       18
102
RTVSPost2010Prop41ColorRGB
 90
        0
102
RTVSPost2010PropOp41
 70
     0
102
RTVSPost2010Prop42
 90
       50
102
RTVSPost2010PropOp42
 70
     0
102
RTVSPost2010Prop43
 90
        3
102
RTVSPost2010PropOp43
 70
     0
102
RTVSPost2010Prop44ColorIndex
 90
        5
102
RTVSPost2010Prop44ColorRGB
 90
      255
102
RTVSPost2010PropOp44
 70
     0
102
RTVSPost2010Prop45
280
     0
102
RTVSPost2010PropOp45
 70
     0
102
RTVSPost2010Prop46
 90
       50
102
RTVSPost2010PropOp46
 70
     0
102
RTVSPost2010Prop47
 90
       50
102
RTVSPost2010PropOp47
 70
     0
102
RTVSPost2010Prop48
 90
       50
102
RTVSPost2010PropOp48
 70
     0
102
RTVSPost2010Prop49
280
     0
102
RTVSPost2010PropOp49
 70
     0
102
RTVSPost2010Prop50
 90
       50
102
RTVSPost2010PropOp50
 70
     0
102
RTVSPost2010Prop51ColorIndex
 90
      256
102
RTVSPost2010Prop51ColorRGB
 90
-16777216
102
RTVSPost2010PropOp51
 70
     0
102
RTVSPost2010Prop52
140
1.0
102
RTVSPost2010PropOp52
 70
     0
102
RTVSPost2010Prop53
 90
        2
102
RTVSPost2010PropOp53
 70
     0
102
RTVSPost2010Prop54
  1
strokes_ogs.tif
102
RTVSPost2010PropOp54
 70
     0
102
RTVSPost2010Prop55
280
     0
102
RTVSPost2010PropOp55
 70
     0
102
RTVSPost2010Prop56
140
1.0
102
RTVSPost2010PropOp56
 70
     0
102
RTVSPost2010Prop57
140
1.0
102
RTVSPost2010PropOp57
 70
     0
  0
XRECORD
  5
151
102
{ACAD_REACTORS
330
150
102
}
330
150
100
AcDbXrecord
280
     1
102
RTVSPost2010Prop28
280
     0
102
RTVSPost2010PropOp28
 70
     1
102
RTVSPost2010Prop29
280
     1
102
RTVSPost2010PropOp29
 70
     1
102
RTVSPost2010Prop30
280
     1
102
RTVSPost2010PropOp30
 70
     1
102
RTVSPost2010Prop31
280
     0
102
RTVSPost2010PropOp31
 70
     1
102
RTVSPost2010Prop32
280
     0
102
RTVSPost2010PropOp32
 70
     1
102
RTVSPost2010Prop33
280
     0
102
RTVSPost2010PropOp33
 70
     1
102
RTVSPost2010Prop34
280
     0
102
RTVSPost2010PropOp34
 70
     1
102
RTVSPost2010Prop35
280
     0
102
RTVSPost2010PropOp35
 70
     1
102
RTVSPost2010Prop36
280
     0
102
RTVSPost2010PropOp36
 70
     1
102
RTVSPost2010Prop37
 90
       50
102
RTVSPost2010PropOp37
 70
     1
102
RTVSPost2010Prop38
140
0.0
102
RTVSPost2010PropOp38
 70
     1
102
RTVSPost2010Prop39
140
1.0
102
RTVSPost2010PropOp39
 70
     1
102
RTVSPost2010Prop40
 90
        0
102
RTVSPost2010PropOp40
 70
     1
102
RTVSPost2010Prop41ColorIndex
 90
       18
102
RTVSPost2010Prop41ColorRGB
 90
        0
102
RTVSPost2010PropOp41
 70
     1
102
RTVSPost2010Prop42
 90
       50
102
RTVSPost2010PropOp42
 70
     1
102
RTVSPost2010Prop43
 90
        3
102
RTVSPost2010PropOp43
 70
     1
102
RTVSPost2010Prop44ColorIndex
 90
        5
102
RTVSPost2010Prop44ColorRGB
 90
      255
102
RTVSPost2010PropOp44
 70
     1
102
RTVSPost2010Prop45
280
     0
102
RTVSPost2010PropOp45
 70
     1
102
RTVSPost2010Prop46
 90
       50
102
RTVSPost2010PropOp46
 70
     1
102
RTVSPost2010Prop47
 90
       50
102
RTVSPost2010PropOp47
 70
     1
102
RTVSPost2010Prop48
 90
       50
102
RTVSPost2010PropOp48
 70
     1
102
RTVSPost2010Prop49
280
     0
102
RTVSPost2010PropOp49
 70
     1
102
RTVSPost2010Prop50
 90
       50
102
RTVSPost2010PropOp50
 70
     1
102
RTVSPost2010Prop51ColorIndex
 90
      256
102
RTVSPost2010Prop51ColorRGB
 90
-16777216
102
RTVSPost2010PropOp51
 70
     0
102
RTVSPost2010Prop52
140
1.0
102
RTVSPost2010PropOp52
 70
     0
102
RTVSPost2010Prop53
 90
        2
102
RTVSPost2010PropOp53
 70
     1
102
RTVSPost2010Prop54
  1
strokes_ogs.tif
102
RTVSPost2010PropOp54
 70
     1
102
RTVSPost2010Prop55
280
     0
102
RTVSPost2010PropOp55
 70
     1
102
RTVSPost2010Prop56
140
1.0
102
RTVSPost2010PropOp56
 70
     1
102
RTVSPost2010Prop57
140
1.0
102
RTVSPost2010PropOp57
 70
     1
  0
XRECORD
  5
167
102
{ACAD_REACTORS
330
166
102
}
330
166
100
AcDbXrecord
280
     1
102
RTVSPost2010Prop28
280
     0
102
RTVSPost2010PropOp28
 70
     1
102
RTVSPost2010Prop29
280
     1
102
RTVSPost2010PropOp29
 70
     1
102
RTVSPost2010Prop30
280
     1
102
RTVSPost2010PropOp30
 70
     1
102
RTVSPost2010Prop31
280
     0
102
RTVSPost2010PropOp31
 70
     1
102
RTVSPost2010Prop32
280
     0
102
RTVSPost2010PropOp32
 70
     1
102
RTVSPost2010Prop33
280
     0
102
RTVSPost2010PropOp33
 70
     1
102
RTVSPost2010Prop34
280
     0
102
RTVSPost2010PropOp34
 70
     1
102
RTVSPost2010Prop35
280
     0
102
RTVSPost2010PropOp35
 70
     1
102
RTVSPost2010Prop36
280
     0
102
RTVSPost2010PropOp36
 70
     1
102
RTVSPost2010Prop37
 90
       50
102
RTVSPost2010PropOp37
 70
     1
102
RTVSPost2010Prop38
140
0.0
102
RTVSPost2010PropOp38
 70
     1
102
RTVSPost2010Prop39
140
1.0
102
RTVSPost2010PropOp39
 70
     1
102
RTVSPost2010Prop40
 90
        0
102
RTVSPost2010PropOp40
 70
     1
102
RTVSPost2010Prop41ColorIndex
 90
       18
102
RTVSPost2010Prop41ColorRGB
 90
        0
102
RTVSPost2010PropOp41
 70
     1
102
RTVSPost2010Prop42
 90
       50
102
RTVSPost2010PropOp42
 70
     1
102
RTVSPost2010Prop43
 90
        3
102
RTVSPost2010PropOp43
 70
     1
102
RTVSPost2010Prop44ColorIndex
 90
        5
102
RTVSPost2010Prop44ColorRGB
 90
      255
102
RTVSPost2010PropOp44
 70
     1
102
RTVSPost2010Prop45
280
     0
102
RTVSPost2010PropOp45
 70
     1
102
RTVSPost2010Prop46
 90
       50
102
RTVSPost2010PropOp46
 70
     1
102
RTVSPost2010Prop47
 90
       50
102
RTVSPost2010PropOp47
 70
     1
102
RTVSPost2010Prop48
 90
       50
102
RTVSPost2010PropOp48
 70
     1
102
RTVSPost2010Prop49
280
     0
102
RTVSPost2010PropOp49
 70
     1
102
RTVSPost2010Prop50
 90
       50
102
RTVSPost2010PropOp50
 70
     1
102
RTVSPost2010Prop51ColorIndex
 90
      256
102
RTVSPost2010Prop51ColorRGB
 90
-16777216
102
RTVSPost2010PropOp51
 70
     0
102
RTVSPost2010Prop52
140
1.0
102
RTVSPost2010PropOp52
 70
     0
102
RTVSPost2010Prop53
 90
        2
102
RTVSPost2010PropOp53
 70
     1
102
RTVSPost2010Prop54
  1
strokes_ogs.tif
102
RTVSPost2010PropOp54
 70
     1
102
RTVSPost2010Prop55
280
     0
102
RTVSPost2010PropOp55
 70
     1
102
RTVSPost2010Prop56
140
1.0
102
RTVSPost2010PropOp56
 70
     1
102
RTVSPost2010Prop57
140
1.0
102
RTVSPost2010PropOp57
 70
     1
  0
XRECORD
  5
165
102
{ACAD_REACTORS
330
164
102
}
330
164
100
AcDbXrecord
280
     1
102
RTVSPost2010Prop28
280
     0
102
RTVSPost2010PropOp28
 70
     1
102
RTVSPost2010Prop29
280
     1
102
RTVSPost2010PropOp29
 70
     1
102
RTVSPost2010Prop30
280
     1
102
RTVSPost2010PropOp30
 70
     1
102
RTVSPost2010Prop31
280
     0
102
RTVSPost2010PropOp31
 70
     1
102
RTVSPost2010Prop32
280
     0
102
RTVSPost2010PropOp32
 70
     1
102
RTVSPost2010Prop33
280
     0
102
RTVSPost2010PropOp33
 70
     1
102
RTVSPost2010Prop34
280
     0
102
RTVSPost2010PropOp34
 70
     1
102
RTVSPost2010Prop35
280
     0
102
RTVSPost2010PropOp35
 70
     1
102
RTVSPost2010Prop36
280
     0
102
RTVSPost2010PropOp36
 70
     1
102
RTVSPost2010Prop37
 90
       50
102
RTVSPost2010PropOp37
 70
     1
102
RTVSPost2010Prop38
140
0.0
102
RTVSPost2010PropOp38
 70
     1
102
RTVSPost2010Prop39
140
1.0
102
RTVSPost2010PropOp39
 70
     1
102
RTVSPost2010Prop40
 90
        0
102
RTVSPost2010PropOp40
 70
     1
102
RTVSPost2010Prop41ColorIndex
 90
       18
102
RTVSPost2010Prop41ColorRGB
 90
        0
102
RTVSPost2010PropOp41
 70
     1
102
RTVSPost2010Prop42
 90
       50
102
RTVSPost2010PropOp42
 70
     1
102
RTVSPost2010Prop43
 90
        3
102
RTVSPost2010PropOp43
 70
     1
102
RTVSPost2010Prop44ColorIndex
 90
        5
102
RTVSPost2010Prop44ColorRGB
 90
      255
102
RTVSPost2010PropOp44
 70
     1
102
RTVSPost2010Prop45
280
     0
102
RTVSPost2010PropOp45
 70
     1
102
RTVSPost2010Prop46
 90
       50
102
RTVSPost2010PropOp46
 70
     1
102
RTVSPost2010Prop47
 90
       50
102
RTVSPost2010PropOp47
 70
     1
102
RTVSPost2010Prop48
 90
       50
102
RTVSPost2010PropOp48
 70
     1
102
RTVSPost2010Prop49
280
     0
102
RTVSPost2010PropOp49
 70
     1
102
RTVSPost2010Prop50
 90
       50
102
RTVSPost2010PropOp50
 70
     1
102
RTVSPost2010Prop51ColorIndex
 90
      256
102
RTVSPost2010Prop51ColorRGB
 90
-16777216
102
RTVSPost2010PropOp51
 70
     0
102
RTVSPost2010Prop52
140
1.0
102
RTVSPost2010PropOp52
 70
     0
102
RTVSPost2010Prop53
 90
        2
102
RTVSPost2010PropOp53
 70
     1
102
RTVSPost2010Prop54
  1
strokes_ogs.tif
102
RTVSPost2010PropOp54
 70
     1
102
RTVSPost2010Prop55
280
     0
102
RTVSPost2010PropOp55
 70
     1
102
RTVSPost2010Prop56
140
1.0
102
RTVSPost2010PropOp56
 70
     1
102
RTVSPost2010Prop57
140
1.0
102
RTVSPost2010PropOp57
 70
     1
  0
XRECORD
  5
15F
102
{ACAD_REACTORS
330
15E
102
}
330
15E
100
AcDbXrecord
280
     1
102
RTVSPost2010Prop28
280
     0
102
RTVSPost2010PropOp28
 70
     1
102
RTVSPost2010Prop29
280
     1
102
RTVSPost2010PropOp29
 70
     1
102
RTVSPost2010Prop30
280
     1
102
RTVSPost2010PropOp30
 70
     1
102
RTVSPost2010Prop31
280
     0
102
RTVSPost2010PropOp31
 70
     1
102
RTVSPost2010Prop32
280
     0
102
RTVSPost2010PropOp32
 70
     1
102
RTVSPost2010Prop33
280
     0
102
RTVSPost2010PropOp33
 70
     1
102
RTVSPost2010Prop34
280
     0
102
RTVSPost2010PropOp34
 70
     1
102
RTVSPost2010Prop35
280
     0
102
RTVSPost2010PropOp35
 70
     1
102
RTVSPost2010Prop36
280
     0
102
RTVSPost2010PropOp36
 70
     1
102
RTVSPost2010Prop37
 90
       50
102
RTVSPost2010PropOp37
 70
     1
102
RTVSPost2010Prop38
140
0.0
102
RTVSPost2010PropOp38
 70
     1
102
RTVSPost2010Prop39
140
1.0
102
RTVSPost2010PropOp39
 70
     1
102
RTVSPost2010Prop40
 90
        0
102
RTVSPost2010PropOp40
 70
     1
102
RTVSPost2010Prop41ColorIndex
 90
       18
102
RTVSPost2010Prop41ColorRGB
 90
        0
102
RTVSPost2010PropOp41
 70
     1
102
RTVSPost2010Prop42
 90
       50
102
RTVSPost2010PropOp42
 70
     1
102
RTVSPost2010Prop43
 90
        3
102
RTVSPost2010PropOp43
 70
     1
102
RTVSPost2010Prop44ColorIndex
 90
        5
102
RTVSPost2010Prop44ColorRGB
 90
      255
102
RTVSPost2010PropOp44
 70
     1
102
RTVSPost2010Prop45
280
     0
102
RTVSPost2010PropOp45
 70
     1
102
RTVSPost2010Prop46
 90
       50
102
RTVSPost2010PropOp46
 70
     1
102
RTVSPost2010Prop47
 90
       50
102
RTVSPost2010PropOp47
 70
     1
102
RTVSPost2010Prop48
 90
       50
102
RTVSPost2010PropOp48
 70
     1
102
RTVSPost2010Prop49
280
     0
102
RTVSPost2010PropOp49
 70
     1
102
RTVSPost2010Prop50
 90
       50
102
RTVSPost2010PropOp50
 70
     1
102
RTVSPost2010Prop51ColorIndex
 90
      256
102
RTVSPost2010Prop51ColorRGB
 90
-16777216
102
RTVSPost2010PropOp51
 70
     0
102
RTVSPost2010Prop52
140
1.0
102
RTVSPost2010PropOp52
 70
     0
102
RTVSPost2010Prop53
 90
        2
102
RTVSPost2010PropOp53
 70
     1
102
RTVSPost2010Prop54
  1
strokes_ogs.tif
102
RTVSPost2010PropOp54
 70
     1
102
RTVSPost2010Prop55
280
     0
102
RTVSPost2010PropOp55
 70
     1
102
RTVSPost2010Prop56
140
1.0
102
RTVSPost2010PropOp56
 70
     1
102
RTVSPost2010Prop57
140
1.0
102
RTVSPost2010PropOp57
 70
     1
  0
XRECORD
  5
161
102
{ACAD_REACTORS
330
160
102
}
330
160
100
AcDbXrecord
280
     1
102
RTVSPost2010Prop28
280
     0
102
RTVSPost2010PropOp28
 70
     1
102
RTVSPost2010Prop29
280
     1
102
RTVSPost2010PropOp29
 70
     1
102
RTVSPost2010Prop30
280
     1
102
RTVSPost2010PropOp30
 70
     1
102
RTVSPost2010Prop31
280
     0
102
RTVSPost2010PropOp31
 70
     1
102
RTVSPost2010Prop32
280
     0
102
RTVSPost2010PropOp32
 70
     1
102
RTVSPost2010Prop33
280
     0
102
RTVSPost2010PropOp33
 70
     1
102
RTVSPost2010Prop34
280
     0
102
RTVSPost2010PropOp34
 70
     1
102
RTVSPost2010Prop35
280
     0
102
RTVSPost2010PropOp35
 70
     1
102
RTVSPost2010Prop36
280
     0
102
RTVSPost2010PropOp36
 70
     1
102
RTVSPost2010Prop37
 90
       50
102
RTVSPost2010PropOp37
 70
     1
102
RTVSPost2010Prop38
140
0.0
102
RTVSPost2010PropOp38
 70
     1
102
RTVSPost2010Prop39
140
1.0
102
RTVSPost2010PropOp39
 70
     1
102
RTVSPost2010Prop40
 90
        0
102
RTVSPost2010PropOp40
 70
     1
102
RTVSPost2010Prop41ColorIndex
 90
       18
102
RTVSPost2010Prop41ColorRGB
 90
        0
102
RTVSPost2010PropOp41
 70
     1
102
RTVSPost2010Prop42
 90
       50
102
RTVSPost2010PropOp42
 70
     1
102
RTVSPost2010Prop43
 90
        3
102
RTVSPost2010PropOp43
 70
     1
102
RTVSPost2010Prop44ColorIndex
 90
        5
102
RTVSPost2010Prop44ColorRGB
 90
      255
102
RTVSPost2010PropOp44
 70
     1
102
RTVSPost2010Prop45
280
     0
102
RTVSPost2010PropOp45
 70
     1
102
RTVSPost2010Prop46
 90
       50
102
RTVSPost2010PropOp46
 70
     1
102
RTVSPost2010Prop47
 90
       50
102
RTVSPost2010PropOp47
 70
     1
102
RTVSPost2010Prop48
 90
       50
102
RTVSPost2010PropOp48
 70
     1
102
RTVSPost2010Prop49
280
     0
102
RTVSPost2010PropOp49
 70
     1
102
RTVSPost2010Prop50
 90
       50
102
RTVSPost2010PropOp50
 70
     1
102
RTVSPost2010Prop51ColorIndex
 90
      256
102
RTVSPost2010Prop51ColorRGB
 90
-16777216
102
RTVSPost2010PropOp51
 70
     0
102
RTVSPost2010Prop52
140
1.0
102
RTVSPost2010PropOp52
 70
     0
102
RTVSPost2010Prop53
 90
        2
102
RTVSPost2010PropOp53
 70
     1
102
RTVSPost2010Prop54
  1
strokes_ogs.tif
102
RTVSPost2010PropOp54
 70
     1
102
RTVSPost2010Prop55
280
     0
102
RTVSPost2010PropOp55
 70
     1
102
RTVSPost2010Prop56
140
1.0
102
RTVSPost2010PropOp56
 70
     1
102
RTVSPost2010Prop57
140
1.0
102
RTVSPost2010PropOp57
 70
     1
  0
XRECORD
  5
157
102
{ACAD_REACTORS
330
156
102
}
330
156
100
AcDbXrecord
280
     1
102
RTVSPost2010Prop28
280
     0
102
RTVSPost2010PropOp28
 70
     1
102
RTVSPost2010Prop29
280
     1
102
RTVSPost2010PropOp29
 70
     1
102
RTVSPost2010Prop30
280
     1
102
RTVSPost2010PropOp30
 70
     1
102
RTVSPost2010Prop31
280
     0
102
RTVSPost2010PropOp31
 70
     1
102
RTVSPost2010Prop32
280
     0
102
RTVSPost2010PropOp32
 70
     1
102
RTVSPost2010Prop33
280
     0
102
RTVSPost2010PropOp33
 70
     1
102
RTVSPost2010Prop34
280
     0
102
RTVSPost2010PropOp34
 70
     1
102
RTVSPost2010Prop35
280
     0
102
RTVSPost2010PropOp35
 70
     1
102
RTVSPost2010Prop36
280
     0
102
RTVSPost2010PropOp36
 70
     1
102
RTVSPost2010Prop37
 90
       50
102
RTVSPost2010PropOp37
 70
     1
102
RTVSPost2010Prop38
140
0.0
102
RTVSPost2010PropOp38
 70
     1
102
RTVSPost2010Prop39
140
1.0
102
RTVSPost2010PropOp39
 70
     1
102
RTVSPost2010Prop40
 90
        0
102
RTVSPost2010PropOp40
 70
     1
102
RTVSPost2010Prop41ColorIndex
 90
       18
102
RTVSPost2010Prop41ColorRGB
 90
        0
102
RTVSPost2010PropOp41
 70
     1
102
RTVSPost2010Prop42
 90
       50
102
RTVSPost2010PropOp42
 70
     1
102
RTVSPost2010Prop43
 90
        3
102
RTVSPost2010PropOp43
 70
     1
102
RTVSPost2010Prop44ColorIndex
 90
        5
102
RTVSPost2010Prop44ColorRGB
 90
      255
102
RTVSPost2010PropOp44
 70
     1
102
RTVSPost2010Prop45
280
     0
102
RTVSPost2010PropOp45
 70
     1
102
RTVSPost2010Prop46
 90
       50
102
RTVSPost2010PropOp46
 70
     1
102
RTVSPost2010Prop47
 90
       50
102
RTVSPost2010PropOp47
 70
     1
102
RTVSPost2010Prop48
 90
       50
102
RTVSPost2010PropOp48
 70
     1
102
RTVSPost2010Prop49
280
     0
102
RTVSPost2010PropOp49
 70
     1
102
RTVSPost2010Prop50
 90
       50
102
RTVSPost2010PropOp50
 70
     1
102
RTVSPost2010Prop51ColorIndex
 90
      256
102
RTVSPost2010Prop51ColorRGB
 90
-16777216
102
RTVSPost2010PropOp51
 70
     0
102
RTVSPost2010Prop52
140
1.0
102
RTVSPost2010PropOp52
 70
     0
102
RTVSPost2010Prop53
 90
        2
102
RTVSPost2010PropOp53
 70
     1
102
RTVSPost2010Prop54
  1
strokes_ogs.tif
102
RTVSPost2010PropOp54
 70
     1
102
RTVSPost2010Prop55
280
     0
102
RTVSPost2010PropOp55
 70
     1
102
RTVSPost2010Prop56
140
1.0
102
RTVSPost2010PropOp56
 70
     1
102
RTVSPost2010Prop57
140
1.0
102
RTVSPost2010PropOp57
 70
     1
  0
XRECORD
  5
14B
102
{ACAD_REACTORS
330
14A
102
}
330
14A
100
AcDbXrecord
280
     1
102
RTVSPost2010Prop28
280
     0
102
RTVSPost2010PropOp28
 70
     1
102
RTVSPost2010Prop29
280
     1
102
RTVSPost2010PropOp29
 70
     1
102
RTVSPost2010Prop30
280
     1
102
RTVSPost2010PropOp30
 70
     1
102
RTVSPost2010Prop31
280
     0
102
RTVSPost2010PropOp31
 70
     1
102
RTVSPost2010Prop32
280
     0
102
RTVSPost2010PropOp32
 70
     1
102
RTVSPost2010Prop33
280
     0
102
RTVSPost2010PropOp33
 70
     1
102
RTVSPost2010Prop34
280
     0
102
RTVSPost2010PropOp34
 70
     1
102
RTVSPost2010Prop35
280
     0
102
RTVSPost2010PropOp35
 70
     1
102
RTVSPost2010Prop36
280
     0
102
RTVSPost2010PropOp36
 70
     1
102
RTVSPost2010Prop37
 90
       50
102
RTVSPost2010PropOp37
 70
     1
102
RTVSPost2010Prop38
140
0.0
102
RTVSPost2010PropOp38
 70
     1
102
RTVSPost2010Prop39
140
1.0
102
RTVSPost2010PropOp39
 70
     1
102
RTVSPost2010Prop40
 90
        0
102
RTVSPost2010PropOp40
 70
     1
102
RTVSPost2010Prop41ColorIndex
 90
       18
102
RTVSPost2010Prop41ColorRGB
 90
        0
102
RTVSPost2010PropOp41
 70
     1
102
RTVSPost2010Prop42
 90
       50
102
RTVSPost2010PropOp42
 70
     1
102
RTVSPost2010Prop43
 90
        3
102
RTVSPost2010PropOp43
 70
     1
102
RTVSPost2010Prop44ColorIndex
 90
        5
102
RTVSPost2010Prop44ColorRGB
 90
      255
102
RTVSPost2010PropOp44
 70
     1
102
RTVSPost2010Prop45
280
     0
102
RTVSPost2010PropOp45
 70
     1
102
RTVSPost2010Prop46
 90
       50
102
RTVSPost2010PropOp46
 70
     1
102
RTVSPost2010Prop47
 90
       50
102
RTVSPost2010PropOp47
 70
     1
102
RTVSPost2010Prop48
 90
       50
102
RTVSPost2010PropOp48
 70
     1
102
RTVSPost2010Prop49
280
     0
102
RTVSPost2010PropOp49
 70
     1
102
RTVSPost2010Prop50
 90
       50
102
RTVSPost2010PropOp50
 70
     1
102
RTVSPost2010Prop51ColorIndex
 90
      256
102
RTVSPost2010Prop51ColorRGB
 90
-16777216
102
RTVSPost2010PropOp51
 70
     0
102
RTVSPost2010Prop52
140
1.0
102
RTVSPost2010PropOp52
 70
     0
102
RTVSPost2010Prop53
 90
        2
102
RTVSPost2010PropOp53
 70
     1
102
RTVSPost2010Prop54
  1
strokes_ogs.tif
102
RTVSPost2010PropOp54
 70
     1
102
RTVSPost2010Prop55
280
     0
102
RTVSPost2010PropOp55
 70
     1
102
RTVSPost2010Prop56
140
1.0
102
RTVSPost2010PropOp56
 70
     1
102
RTVSPost2010Prop57
140
1.0
102
RTVSPost2010PropOp57
 70
     1
  0
XRECORD
  5
163
102
{ACAD_REACTORS
330
162
102
}
330
162
100
AcDbXrecord
280
     1
102
RTVSPost2010Prop28
280
     0
102
RTVSPost2010PropOp28
 70
     1
102
RTVSPost2010Prop29
280
     1
102
RTVSPost2010PropOp29
 70
     1
102
RTVSPost2010Prop30
280
     1
102
RTVSPost2010PropOp30
 70
     1
102
RTVSPost2010Prop31
280
     0
102
RTVSPost2010PropOp31
 70
     1
102
RTVSPost2010Prop32
280
     0
102
RTVSPost2010PropOp32
 70
     1
102
RTVSPost2010Prop33
280
     0
102
RTVSPost2010PropOp33
 70
     1
102
RTVSPost2010Prop34
280
     0
102
RTVSPost2010PropOp34
 70
     1
102
RTVSPost2010Prop35
280
     0
102
RTVSPost2010PropOp35
 70
     1
102
RTVSPost2010Prop36
280
     0
102
RTVSPost2010PropOp36
 70
     1
102
RTVSPost2010Prop37
 90
       50
102
RTVSPost2010PropOp37
 70
     1
102
RTVSPost2010Prop38
140
0.0
102
RTVSPost2010PropOp38
 70
     1
102
RTVSPost2010Prop39
140
1.0
102
RTVSPost2010PropOp39
 70
     1
102
RTVSPost2010Prop40
 90
        0
102
RTVSPost2010PropOp40
 70
     1
102
RTVSPost2010Prop41ColorIndex
 90
       18
102
RTVSPost2010Prop41ColorRGB
 90
        0
102
RTVSPost2010PropOp41
 70
     1
102
RTVSPost2010Prop42
 90
       50
102
RTVSPost2010PropOp42
 70
     1
102
RTVSPost2010Prop43
 90
        3
102
RTVSPost2010PropOp43
 70
     1
102
RTVSPost2010Prop44ColorIndex
 90
        5
102
RTVSPost2010Prop44ColorRGB
 90
      255
102
RTVSPost2010PropOp44
 70
     1
102
RTVSPost2010Prop45
280
     0
102
RTVSPost2010PropOp45
 70
     1
102
RTVSPost2010Prop46
 90
       50
102
RTVSPost2010PropOp46
 70
     1
102
RTVSPost2010Prop47
 90
       50
102
RTVSPost2010PropOp47
 70
     1
102
RTVSPost2010Prop48
 90
       50
102
RTVSPost2010PropOp48
 70
     1
102
RTVSPost2010Prop49
280
     0
102
RTVSPost2010PropOp49
 70
     1
102
RTVSPost2010Prop50
 90
       50
102
RTVSPost2010PropOp50
 70
     1
102
RTVSPost2010Prop51ColorIndex
 90
      256
102
RTVSPost2010Prop51ColorRGB
 90
-16777216
102
RTVSPost2010PropOp51
 70
     0
102
RTVSPost2010Prop52
140
1.0
102
RTVSPost2010PropOp52
 70
     0
102
RTVSPost2010Prop53
 90
        2
102
RTVSPost2010PropOp53
 70
     1
102
RTVSPost2010Prop54
  1
strokes_ogs.tif
102
RTVSPost2010PropOp54
 70
     1
102
RTVSPost2010Prop55
280
     0
102
RTVSPost2010PropOp55
 70
     1
102
RTVSPost2010Prop56
140
1.0
102
RTVSPost2010PropOp56
 70
     1
102
RTVSPost2010Prop57
140
1.0
102
RTVSPost2010PropOp57
 70
     1
  0
ENDSEC
  0
EOF
