  0
SECTION
  2
HEADER
  9
$ACADVER
  1
AC1024
  9
$ACADMAINTVER
 70
     6
  9
$DWGCODEPAGE
  3
UNDEFINED
  9
$INSBASE
 10
0.0
 20
0.0
 30
0.0
  9
$EXTMIN
 10
1.000000000000000E+20
 20
1.000000000000000E+20
 30
1.000000000000000E+20
  9
$EXTMAX
 10
-1.000000000000000E+20
 20
-1.000000000000000E+20
 30
-1.000000000000000E+20
  9
$LIMMIN
 10
0.0
 20
0.0
  9
$LIMMAX
 10
12.0
 20
9.0
  9
$ORTHOMODE
 70
     0
  9
$REGENMODE
 70
     1
  9
$FILLMODE
 70
     1
  9
$QTEXTMODE
 70
     0
  9
$MIRRTEXT
 70
     1
  9
$LTSCALE
 40
1.0
  9
$ATTMODE
 70
     1
  9
$TEXTSIZE
 40
0.2
  9
$TRACEWID
 40
0.05
  9
$TEXTSTYLE
  7
Standard
  9
$CLAYER
  8
0
  9
$CELTYPE
  6
ByLayer
  9
$CECOLOR
 62
   256
  9
$CELTSCALE
 40
1.0
  9
$DISPSILH
 70
     0
  9
$DIMSCALE
 40
1.0
  9
$DIMASZ
 40
0.18
  9
$DIMEXO
 40
0.0625
  9
$DIMDLI
 40
0.38
  9
$DIMRND
 40
0.0
  9
$DIMDLE
 40
0.0
  9
$DIMEXE
 40
0.18
  9
$DIMTP
 40
0.0
  9
$DIMTM
 40
0.0
  9
$DIMTXT
 40
0.18
  9
$DIMCEN
 40
0.09
  9
$DIMTSZ
 40
0.0
  9
$DIMTOL
 70
     0
  9
$DIMLIM
 70
     0
  9
$DIMTIH
 70
     1
  9
$DIMTOH
 70
     1
  9
$DIMSE1
 70
     0
  9
$DIMSE2
 70
     0
  9
$DIMTAD
 70
     0
  9
$DIMZIN
 70
     0
  9
$DIMBLK
  1

  9
$DIMASO
 70
     1
  9
$DIMSHO
 70
     1
  9
$DIMPOST
  1

  9
$DIMAPOST
  1

  9
$DIMALT
 70
     0
  9
$DIMALTD
 70
     2
  9
$DIMALTF
 40
25.4
  9
$DIMLFAC
 40
1.0
  9
$DIMTOFL
 70
     0
  9
$DIMTVP
 40
0.0
  9
$DIMTIX
 70
     0
  9
$DIMSOXD
 70
     0
  9
$DIMSAH
 70
     0
  9
$DIMBLK1
  1

  9
$DIMBLK2
  1

  9
$DIMSTYLE
  2
Standard
  9
$DIMCLRD
 70
     0
  9
$DIMCLRE
 70
     0
  9
$DIMCLRT
 70
     0
  9
$DIMTFAC
 40
1.0
  9
$DIMGAP
 40
0.09
  9
$DIMJUST
 70
     0
  9
$DIMSD1
 70
     0
  9
$DIMSD2
 70
     0
  9
$DIMTOLJ
 70
     1
  9
$DIMTZIN
 70
     0
  9
$DIMALTZ
 70
     0
  9
$DIMALTTZ
 70
     0
  9
$DIMUPT
 70
     0
  9
$DIMDEC
 70
     4
  9
$DIMTDEC
 70
     4
  9
$DIMALTU
 70
     2
  9
$DIMALTTD
 70
     2
  9
$DIMTXSTY
  7
Standard
  9
$DIMAUNIT
 70
     0
  9
$DIMADEC
 70
     0
  9
$DIMALTRND
 40
0.0
  9
$DIMAZIN
 70
     0
  9
$DIMDSEP
 70
    46
  9
$DIMATFIT
 70
     3
  9
$DIMFRAC
 70
     0
  9
$DIMLDRBLK
  1

  9
$DIMLUNIT
 70
     2
  9
$DIMLWD
 70
    -2
  9
$DIMLWE
 70
    -2
  9
$DIMTMOVE
 70
     0
  9
$DIMFXL
 40
1.0
  9
$DIMFXLON
 70
     0
  9
$DIMJOGANG
 40
0.7853981633974483
  9
$DIMTFILL
 70
     0
  9
$DIMTFILLCLR
 70
     0
  9
$DIMARCSYM
 70
     0
  9
$DIMLTYPE
  6

  9
$DIMLTEX1
  6

  9
$DIMLTEX2
  6

  9
$DIMTXTDIRECTION
 70
     0
  9
$LUNITS
 70
     2
  9
$LUPREC
 70
     4
  9
$SKETCHINC
 40
0.1
  9
$FILLETRAD
 40
0.5
  9
$AUNITS
 70
     0
  9
$AUPREC
 70
     0
  9
$MENU
  1
.
  9
$ELEVATION
 40
0.0
  9
$PELEVATION
 40
0.0
  9
$THICKNESS
 40
0.0
  9
$LIMCHECK
 70
     0
  9
$CHAMFERA
 40
0.5
  9
$CHAMFERB
 40
0.5
  9
$CHAMFERC
 40
1.0
  9
$CHAMFERD
 40
0.0
  9
$SKPOLY
 70
     0
  9
$TDCREATE
 40
2457917.583958333
  9
$TDUCREATE
 40
2457917.208958333
  9
$TDUPDATE
 40
2457917.583958333
  9
$TDUUPDATE
 40
2457917.208958333
  9
$TDINDWG
 40
0.0000000116
  9
$TDUSRTIMER
 40
0.0000000116
  9
$USRTIMER
 70
     1
  9
$ANGBASE
 50
0.0
  9
$ANGDIR
 70
     0
  9
$PDMODE
 70
     0
  9
$PDSIZE
 40
0.0
  9
$PLINEWID
 40
0.0
  9
$SPLFRAME
 70
     0
  9
$SPLINETYPE
 70
     6
  9
$SPLINESEGS
 70
     8
  9
$HANDSEED
  5
119
  9
$SURFTAB1
 70
     6
  9
$SURFTAB2
 70
     6
  9
$SURFTYPE
 70
     6
  9
$SURFU
 70
     6
  9
$SURFV
 70
     6
  9
$UCSBASE
  2

  9
$UCSNAME
  2

  9
$UCSORG
 10
0.0
 20
0.0
 30
0.0
  9
$UCSXDIR
 10
1.0
 20
0.0
 30
0.0
  9
$UCSYDIR
 10
0.0
 20
1.0
 30
0.0
  9
$UCSORTHOREF
  2

  9
$UCSORTHOVIEW
 70
     0
  9
$UCSORGTOP
 10
0.0
 20
0.0
 30
0.0
  9
$UCSORGBOTTOM
 10
0.0
 20
0.0
 30
0.0
  9
$UCSORGLEFT
 10
0.0
 20
0.0
 30
0.0
  9
$UCSORGRIGHT
 10
0.0
 20
0.0
 30
0.0
  9
$UCSORGFRONT
 10
0.0
 20
0.0
 30
0.0
  9
$UCSORGBACK
 10
0.0
 20
0.0
 30
0.0
  9
$PUCSBASE
  2

  9
$PUCSNAME
  2

  9
$PUCSORG
 10
0.0
 20
0.0
 30
0.0
  9
$PUCSXDIR
 10
1.0
 20
0.0
 30
0.0
  9
$PUCSYDIR
 10
0.0
 20
1.0
 30
0.0
  9
$PUCSORTHOREF
  2

  9
$PUCSORTHOVIEW
 70
     0
  9
$PUCSORGTOP
 10
0.0
 20
0.0
 30
0.0
  9
$PUCSORGBOTTOM
 10
0.0
 20
0.0
 30
0.0
  9
$PUCSORGLEFT
 10
0.0
 20
0.0
 30
0.0
  9
$PUCSORGRIGHT
 10
0.0
 20
0.0
 30
0.0
  9
$PUCSORGFRONT
 10
0.0
 20
0.0
 30
0.0
  9
$PUCSORGBACK
 10
0.0
 20
0.0
 30
0.0
  9
$USERI1
 70
     0
  9
$USERI2
 70
     0
  9
$USERI3
 70
     0
  9
$USERI4
 70
     0
  9
$USERI5
 70
     0
  9
$USERR1
 40
0.0
  9
$USERR2
 40
0.0
  9
$USERR3
 40
0.0
  9
$USERR4
 40
0.0
  9
$USERR5
 40
0.0
  9
$WORLDVIEW
 70
     1
  9
$SHADEDGE
 70
     3
  9
$SHADEDIF
 70
    70
  9
$TILEMODE
 70
     1
  9
$MAXACTVP
 70
    64
  9
$PINSBASE
 10
0.0
 20
0.0
 30
0.0
  9
$PLIMCHECK
 70
     0
  9
$PEXTMIN
 10
1.000000000000000E+20
 20
1.000000000000000E+20
 30
1.000000000000000E+20
  9
$PEXTMAX
 10
-1.000000000000000E+20
 20
-1.000000000000000E+20
 30
-1.000000000000000E+20
  9
$PLIMMIN
 10
0.0
 20
0.0
  9
$PLIMMAX
 10
12.0
 20
9.0
  9
$UNITMODE
 70
     0
  9
$VISRETAIN
 70
     1
  9
$PLINEGEN
 70
     0
  9
$PSLTSCALE
 70
     1
  9
$TREEDEPTH
 70
  3020
  9
$CMLSTYLE
  2
Standard
  9
$CMLJUST
 70
     0
  9
$CMLSCALE
 40
1.0
  9
$PROXYGRAPHICS
 70
     1
  9
$MEASUREMENT
 70
     0
  9
$CELWEIGHT
370
    -1
  9
$ENDCAPS
280
     0
  9
$JOINSTYLE
280
     0
  9
$LWDISPLAY
290
     1
  9
$INSUNITS
 70
     1
  9
$HYPERLINKBASE
  1

  9
$STYLESHEET
  1

  9
$XEDIT
290
     1
  9
$CEPSNTYPE
380
     0
  9
$PSTYLEMODE
290
     1
  9
$FINGERPRINTGUID
  2
{AA05D316-9D00-C908-B7A0-E67E24F71D0C}
  9
$VERSIONGUID
  2
{FAEB1C32-E019-11D5-929B-00C0DF256EC4}
  9
$EXTNAMES
290
     1
  9
$PSVPSCALE
 40
0.0
  9
$OLESTARTUP
290
     0
  9
$SORTENTS
280
   127
  9
$INDEXCTL
280
     0
  9
$HIDETEXT
280
     1
  9
$XCLIPFRAME
280
     2
  9
$HALOGAP
280
     0
  9
$OBSCOLOR
 70
   257
  9
$OBSLTYPE
280
     0
  9
$INTERSECTIONDISPLAY
280
     0
  9
$INTERSECTIONCOLOR
 70
   257
  9
$DIMASSOC
280
     2
  9
$PROJECTNAME
  1

  9
$CAMERADISPLAY
290
     0
  9
$LENSLENGTH
 40
50.0
  9
$CAMERAHEIGHT
 40
0.0
  9
$STEPSPERSEC
 40
2.0
  9
$STEPSIZE
 40
6.0
  9
$3DDWFPREC
 40
2.0
  9
$PSOLWIDTH
 40
0.25
  9
$PSOLHEIGHT
 40
4.0
  9
$LOFTANG1
 40
1.570796326794897
  9
$LOFTANG2
 40
1.570796326794897
  9
$LOFTMAG1
 40
0.0
  9
$LOFTMAG2
 40
0.0
  9
$LOFTPARAM
 70
     7
  9
$LOFTNORMALS
280
     1
  9
$LATITUDE
 40
37.795
  9
$LONGITUDE
 40
-122.394
  9
$NORTHDIRECTION
 40
0.0
  9
$TIMEZONE
 70
 -8000
  9
$LIGHTGLYPHDISPLAY
280
     1
  9
$TILEMODELIGHTSYNCH
280
     1
  9
$CMATERIAL
347
3C
  9
$SOLIDHIST
280
     1
  9
$SHOWHIST
280
     1
  9
$DWFFRAME
280
     2
  9
$DGNFRAME
280
     2
  9
$REALWORLDSCALE
290
     1
  9
$INTERFERECOLOR
 62
   256
  9
$CSHADOW
280
     0
  9
$SHADOWPLANELOCATION
 40
0.0
  0
ENDSEC
  0
SECTION
  2
CLASSES
  0
CLASS
  1
ACDBDICTIONARYWDFLT
  2
AcDbDictionaryWithDefault
  3
ObjectDBX Classes
 90
        0
 91
        4
280
     0
281
     0
  0
CLASS
  1
VISUALSTYLE
  2
AcDbVisualStyle
  3
ObjectDBX Classes
 90
     4095
 91
        4
280
     0
281
     0
  0
CLASS
  1
MATERIAL
  2
AcDbMaterial
  3
ObjectDBX Classes
 90
     1153
 91
        4
280
     0
281
     0
  0
CLASS
  1
SUN
  2
AcDbSun
  3
SCENEOE
 90
     1024
 91
        4
280
     0
281
     0
  0
ENDSEC
  0
SECTION
  2
TABLES
  0
TABLE
  2
VPORT
  5
8
330
0
100
AcDbSymbolTable
 70
     1
  0
VPORT
  5
29
330
8
100
AcDbSymbolTableRecord
100
AcDbViewportTableRecord
  2
*Active
 70
     0
 10
0.0
 20
0.0
 11
1.0
 21
1.0
 12
0.0
 22
0.0
 13
0.0
 23
0.0
 14
0.5
 24
0.5
 15
0.5
 25
0.5
 16
0.0
 26
0.0
 36
1.0
 17
91.00082462281999
 27
-128.4993055234307
 37
0.0
 40
256.9986110468615
 41
0.7081814508812795
 42
50.0
 43
0.0
 44
0.0
 50
0.0
 51
0.0
 71
     0
 72
   100
 73
     1
 74
     3
 75
     0
 76
     0
 77
     0
 78
     0
281
     0
 65
     1
110
0.0
120
0.0
130
0.0
111
1.0
121
0.0
131
0.0
112
0.0
122
1.0
132
0.0
 79
     0
146
0.0
 60
     3
 61
     5
292
     1
282
     1
141
0.0
142
0.0
 63
   250
361
3F
  0
ENDTAB
  0
TABLE
  2
LTYPE
  5
5
330
0
100
AcDbSymbolTable
 70
     1
  0
LTYPE
  5
14
330
5
100
AcDbSymbolTableRecord
100
AcDbLinetypeTableRecord
  2
ByBlock
 70
     0
  3

 72
    65
 73
     0
 40
0.0
  0
LTYPE
  5
15
330
5
100
AcDbSymbolTableRecord
100
AcDbLinetypeTableRecord
  2
ByLayer
 70
     0
  3

 72
    65
 73
     0
 40
0.0
  0
LTYPE
  5
16
330
5
100
AcDbSymbolTableRecord
100
AcDbLinetypeTableRecord
  2
Continuous
 70
     0
  3
Solid line
 72
    65
 73
     0
 40
0.0
  0
ENDTAB
  0
TABLE
  2
LAYER
  5
2
330
0
100
AcDbSymbolTable
 70
     2
  0
LAYER
  5
10
330
2
100
AcDbSymbolTableRecord
100
AcDbLayerTableRecord
  2
0
 70
     0
 62
     7
  6
Continuous
370
    -3
390
F
347
3E
  0
LAYER
  5
40
330
2
100
AcDbSymbolTableRecord
100
AcDbLayerTableRecord
  2
_U+30EC_U+30A4_U+30E4_U+30FC 1
 70
     0
 62
     7
  6
Continuous
370
    -3
390
F
347
3E
  0
ENDTAB
  0
TABLE
  2
STYLE
  5
3
330
0
100
AcDbSymbolTable
 70
     1
  0
STYLE
  5
11
330
3
100
AcDbSymbolTableRecord
100
AcDbTextStyleTableRecord
  2
Standard
 70
     0
 40
0.0
 41
1.0
 50
0.0
 71
     0
 42
0.2
  3
txt
  4

  0
ENDTAB
  0
TABLE
  2
VIEW
  5
6
330
0
100
AcDbSymbolTable
 70
     0
  0
ENDTAB
  0
TABLE
  2
UCS
  5
7
330
0
100
AcDbSymbolTable
 70
     0
  0
ENDTAB
  0
TABLE
  2
APPID
  5
9
330
0
100
AcDbSymbolTable
 70
     1
  0
APPID
  5
12
330
9
100
AcDbSymbolTableRecord
100
AcDbRegAppTableRecord
  2
ACAD
 70
     0
  0
ENDTAB
  0
TABLE
  2
DIMSTYLE
  5
A
330
0
100
AcDbSymbolTable
 70
     1
100
AcDbDimStyleTable
  0
DIMSTYLE
105
27
330
A
100
AcDbSymbolTableRecord
100
AcDbDimStyleTableRecord
  2
Standard
 70
     0
178
     0
340
11
  0
ENDTAB
  0
TABLE
  2
BLOCK_RECORD
  5
1
330
0
100
AcDbSymbolTable
 70
     7
  0
BLOCK_RECORD
  5
1F
330
1
100
AcDbSymbolTableRecord
100
AcDbBlockTableRecord
  2
*Model_Space
340
22
 70
     0
280
     1
281
     0
  0
BLOCK_RECORD
  5
1B
330
1
100
AcDbSymbolTableRecord
100
AcDbBlockTableRecord
  2
*Paper_Space
340
1E
 70
     0
280
     1
281
     0
  0
BLOCK_RECORD
  5
23
330
1
100
AcDbSymbolTableRecord
100
AcDbBlockTableRecord
  2
*Paper_Space0
340
26
 70
     0
280
     1
281
     0
  0
BLOCK_RECORD
  5
41
330
1
100
AcDbSymbolTableRecord
100
AcDbBlockTableRecord
  2
block 2
340
0
102
{BLKREFS
331
42
102
}
 70
     0
280
     1
281
     0
  0
BLOCK_RECORD
  5
77
330
1
100
AcDbSymbolTableRecord
100
AcDbBlockTableRecord
  2
block 3
340
0
102
{BLKREFS
331
78
102
}
 70
     0
280
     1
281
     0
  0
BLOCK_RECORD
  5
93
330
1
100
AcDbSymbolTableRecord
100
AcDbBlockTableRecord
  2
block 4
340
0
102
{BLKREFS
331
94
102
}
 70
     0
280
     1
281
     0
  0
BLOCK_RECORD
  5
C7
330
1
100
AcDbSymbolTableRecord
100
AcDbBlockTableRecord
  2
block 5
340
0
102
{BLKREFS
331
C8
102
}
 70
     0
280
     1
281
     0
  0
BLOCK_RECORD
  5
F7
330
1
100
AcDbSymbolTableRecord
100
AcDbBlockTableRecord
  2
block 6
340
0
102
{BLKREFS
331
F8
102
}
 70
     0
280
     1
281
     0
  0
BLOCK_RECORD
  5
10D
330
1
100
AcDbSymbolTableRecord
100
AcDbBlockTableRecord
  2
block 7
340
0
102
{BLKREFS
331
10E
102
}
 70
     0
280
     1
281
     0
  0
ENDTAB
  0
ENDSEC
  0
SECTION
  2
BLOCKS
  0
BLOCK
  5
20
330
1F
100
AcDbEntity
  8
0
100
AcDbBlockBegin
  2
*Model_Space
 70
     0
 10
0.0
 20
0.0
 30
0.0
  3
*Model_Space
  1

  0
ENDBLK
  5
21
330
1F
100
AcDbEntity
  8
0
100
AcDbBlockEnd
  0
BLOCK
  5
1C
330
1B
100
AcDbEntity
 67
     1
  8
0
100
AcDbBlockBegin
  2
*Paper_Space
 70
     0
 10
0.0
 20
0.0
 30
0.0
  3
*Paper_Space
  1

  0
ENDBLK
  5
1D
330
1B
100
AcDbEntity
 67
     1
  8
0
100
AcDbBlockEnd
  0
BLOCK
  5
24
330
23
100
AcDbEntity
  8
0
100
AcDbBlockBegin
  2
*Paper_Space0
 70
     0
 10
0.0
 20
0.0
 30
0.0
  3
*Paper_Space0
  1

  0
ENDBLK
  5
25
330
23
100
AcDbEntity
  8
0
100
AcDbBlockEnd
  0
BLOCK
  5
43
330
41
100
AcDbEntity
  8
0
100
AcDbBlockBegin
  2
block 2
 70
     0
 10
0.0
 20
0.0
 30
0.0
  3
block 2
  1

  0
POLYLINE
  5
45
330
41
100
AcDbEntity
  8
_U+30EC_U+30A4_U+30E4_U+30FC 1
 62
   179
420
  2234388
370
    25
100
AcDb2dPolyline
 66
     1
 10
0.0
 20
0.0
 30
0.0
  0
VERTEX
  5
46
330
45
100
AcDbEntity
  8
_U+30EC_U+30A4_U+30E4_U+30FC 1
 62
   179
420
  2234388
370
    25
100
AcDbVertex
100
AcDb2dVertex
 10
89.94333798313205
 20
-142.4615796866071
 30
0.0
  0
VERTEX
  5
47
330
45
100
AcDbEntity
  8
_U+30EC_U+30A4_U+30E4_U+30FC 1
 62
   179
420
  2234388
370
    25
100
AcDbVertex
100
AcDb2dVertex
 10
107.9437883572356
 20
-142.4615796866071
 30
0.0
  0
SEQEND
  5
48
330
45
100
AcDbEntity
  8
_U+30EC_U+30A4_U+30E4_U+30FC 1
 62
   179
420
  2234388
370
    25
  0
POLYLINE
  5
49
330
41
100
AcDbEntity
  8
_U+30EC_U+30A4_U+30E4_U+30FC 1
 62
   179
420
  2234388
370
    25
100
AcDb2dPolyline
 66
     1
 10
0.0
 20
0.0
 30
0.0
  0
VERTEX
  5
4A
330
49
100
AcDbEntity
  8
_U+30EC_U+30A4_U+30E4_U+30FC 1
 62
   179
420
  2234388
370
    25
100
AcDbVertex
100
AcDb2dVertex
 10
107.9437883572356
 20
-142.4615796866071
 30
0.0
  0
VERTEX
  5
4B
330
49
100
AcDbEntity
  8
_U+30EC_U+30A4_U+30E4_U+30FC 1
 62
   179
420
  2234388
370
    25
100
AcDbVertex
100
AcDb2dVertex
 10
107.9437883572356
 20
-142.8612063531736
 30
0.0
  0
SEQEND
  5
4C
330
49
100
AcDbEntity
  8
_U+30EC_U+30A4_U+30E4_U+30FC 1
 62
   179
420
  2234388
370
    25
  0
POLYLINE
  5
4D
330
41
100
AcDbEntity
  8
_U+30EC_U+30A4_U+30E4_U+30FC 1
 62
   179
420
  2234388
370
    25
100
AcDb2dPolyline
 66
     1
 10
0.0
 20
0.0
 30
0.0
  0
VERTEX
  5
4E
330
4D
100
AcDbEntity
  8
_U+30EC_U+30A4_U+30E4_U+30FC 1
 62
   179
420
  2234388
370
    25
100
AcDbVertex
100
AcDb2dVertex
 10
80.94337737940685
 20
-115.4613444155792
 30
0.0
  0
VERTEX
  5
4F
330
4D
100
AcDbEntity
  8
_U+30EC_U+30A4_U+30E4_U+30FC 1
 62
   179
420
  2234388
370
    25
100
AcDbVertex
100
AcDb2dVertex
 10
80.54375275764188
 20
-115.4613444155792
 30
0.0
  0
SEQEND
  5
50
330
4D
100
AcDbEntity
  8
_U+30EC_U+30A4_U+30E4_U+30FC 1
 62
   179
420
  2234388
370
    25
  0
POLYLINE
  5
51
330
41
100
AcDbEntity
  8
_U+30EC_U+30A4_U+30E4_U+30FC 1
 62
   179
420
  2234388
370
    25
100
AcDb2dPolyline
 66
     1
 10
0.0
 20
0.0
 30
0.0
  0
VERTEX
  5
52
330
51
100
AcDbEntity
  8
_U+30EC_U+30A4_U+30E4_U+30FC 1
 62
   179
420
  2234388
370
    25
100
AcDbVertex
100
AcDb2dVertex
 10
80.94337737940685
 20
-133.4612660777456
 30
0.0
  0
VERTEX
  5
53
330
51
100
AcDbEntity
  8
_U+30EC_U+30A4_U+30E4_U+30FC 1
 62
   179
420
  2234388
370
    25
100
AcDbVertex
100
AcDb2dVertex
 10
80.94337737940685
 20
-115.4613444155792
 30
0.0
  0
SEQEND
  5
54
330
51
100
AcDbEntity
  8
_U+30EC_U+30A4_U+30E4_U+30FC 1
 62
   179
420
  2234388
370
    25
  0
POLYLINE
  5
55
330
41
100
AcDbEntity
  8
_U+30EC_U+30A4_U+30E4_U+30FC 1
 62
   179
420
  2234388
370
     9
100
AcDb2dPolyline
 66
     1
 10
0.0
 20
0.0
 30
0.0
  0
VERTEX
  5
56
330
55
100
AcDbEntity
  8
_U+30EC_U+30A4_U+30E4_U+30FC 1
 62
   179
420
  2234388
370
     9
100
AcDbVertex
100
AcDb2dVertex
 10
82.37240956517142
 20
-141.3984485757616
 30
0.0
  0
VERTEX
  5
57
330
55
100
AcDbEntity
  8
_U+30EC_U+30A4_U+30E4_U+30FC 1
 62
   179
420
  2234388
370
     9
100
AcDbVertex
100
AcDb2dVertex
 10
82.87264844129815
 20
-140.5323438537556
 30
0.0
  0
SEQEND
  5
58
330
55
100
AcDbEntity
  8
_U+30EC_U+30A4_U+30E4_U+30FC 1
 62
   179
420
  2234388
370
     9
  0
POLYLINE
  5
59
330
41
100
AcDbEntity
  8
_U+30EC_U+30A4_U+30E4_U+30FC 1
 62
   179
420
  2234388
370
     9
100
AcDb2dPolyline
 66
     1
 10
0.0
 20
0.0
 30
0.0
  0
VERTEX
  5
5A
330
59
100
AcDbEntity
  8
_U+30EC_U+30A4_U+30E4_U+30FC 1
 62
   179
420
  2234388
370
     9
100
AcDbVertex
100
AcDb2dVertex
 10
82.00654374117211
 20
-141.0325474647418
 30
0.0
  0
VERTEX
  5
5B
330
59
100
AcDbEntity
  8
_U+30EC_U+30A4_U+30E4_U+30FC 1
 62
   179
420
  2234388
370
     9
100
AcDbVertex
100
AcDb2dVertex
 10
82.87264844129815
 20
-140.5323438537556
 30
0.0
  0
SEQEND
  5
5C
330
59
100
AcDbEntity
  8
_U+30EC_U+30A4_U+30E4_U+30FC 1
 62
   179
420
  2234388
370
     9
  0
POLYLINE
  5
5D
330
41
100
AcDbEntity
  8
_U+30EC_U+30A4_U+30E4_U+30FC 1
 62
   179
420
  2234388
370
     9
100
AcDb2dPolyline
 66
     1
 10
0.0
 20
0.0
 30
0.0
  0
VERTEX
  5
5E
330
5D
100
AcDbEntity
  8
_U+30EC_U+30A4_U+30E4_U+30FC 1
 62
   179
420
  2234388
370
     9
100
AcDbVertex
100
AcDb2dVertex
 10
75.94349334029785
 20
-147.4614638520236
 30
0.0
  0
VERTEX
  5
5F
330
5D
100
AcDbEntity
  8
_U+30EC_U+30A4_U+30E4_U+30FC 1
 62
   179
420
  2234388
370
     9
100
AcDbVertex
100
AcDb2dVertex
 10
82.87264844129815
 20
-140.5323438537556
 30
0.0
  0
SEQEND
  5
60
330
5D
100
AcDbEntity
  8
_U+30EC_U+30A4_U+30E4_U+30FC 1
 62
   179
420
  2234388
370
     9
  0
POLYLINE
  5
61
330
41
100
AcDbEntity
  8
_U+30EC_U+30A4_U+30E4_U+30FC 1
 62
   179
420
  2234388
370
     9
100
AcDb2dPolyline
 66
     1
 10
0.0
 20
0.0
 30
0.0
  0
VERTEX
  5
62
330
61
100
AcDbEntity
  8
_U+30EC_U+30A4_U+30E4_U+30FC 1
 62
   179
420
  2234388
370
     9
100
AcDbVertex
100
AcDb2dVertex
 10
70.77759208320208
 20
-147.4614638520236
 30
0.0
  0
VERTEX
  5
63
330
61
100
AcDbEntity
  8
_U+30EC_U+30A4_U+30E4_U+30FC 1
 62
   179
420
  2234388
370
     9
100
AcDbVertex
100
AcDb2dVertex
 10
75.94349334029785
 20
-147.4614638520236
 30
0.0
  0
SEQEND
  5
64
330
61
100
AcDbEntity
  8
_U+30EC_U+30A4_U+30E4_U+30FC 1
 62
   179
420
  2234388
370
     9
  0
POLYLINE
  5
65
330
41
100
AcDbEntity
  8
_U+30EC_U+30A4_U+30E4_U+30FC 1
 62
   179
420
  2234388
370
    25
100
AcDb2dPolyline
 66
     1
 10
0.0
 20
0.0
 30
0.0
  0
VERTEX
  5
66
330
65
100
AcDbEntity
  8
_U+30EC_U+30A4_U+30E4_U+30FC 1
 62
   179
420
  2234388
370
    25
100
AcDbVertex
100
AcDb2dVertex
 10
107.9437883572356
 20
-142.8612063531736
 30
0.0
  0
VERTEX
  5
67
330
65
100
AcDbEntity
  8
_U+30EC_U+30A4_U+30E4_U+30FC 1
 62
   179
420
  2234388
370
    25
100
AcDbVertex
100
AcDb2dVertex
 10
90.27957047455405
 20
-143.4558485752474
 30
0.0
  0
SEQEND
  5
68
330
65
100
AcDbEntity
  8
_U+30EC_U+30A4_U+30E4_U+30FC 1
 62
   179
420
  2234388
370
    25
  0
POLYLINE
  5
69
330
41
100
AcDbEntity
  8
_U+30EC_U+30A4_U+30E4_U+30FC 1
 62
   179
420
  2234388
370
    25
100
AcDb2dPolyline
 66
     1
 10
0.0
 20
0.0
 30
0.0
  0
VERTEX
  5
6A
330
69
100
AcDbEntity
  8
_U+30EC_U+30A4_U+30E4_U+30FC 1
 62
   179
420
  2234388
370
    25
100
AcDbVertex
100
AcDb2dVertex
 10
80.54375275764188
 20
-115.4613444155792
 30
0.0
  0
VERTEX
  5
6B
330
69
100
AcDbEntity
  8
_U+30EC_U+30A4_U+30E4_U+30FC 1
 62
   179
420
  2234388
370
    25
100
AcDbVertex
100
AcDb2dVertex
 10
79.94910851588386
 20
-133.1250335778301
 30
0.0
  0
SEQEND
  5
6C
330
69
100
AcDbEntity
  8
_U+30EC_U+30A4_U+30E4_U+30FC 1
 62
   179
420
  2234388
370
    25
  0
SPLINE
  5
6D
330
41
100
AcDbEntity
  8
_U+30EC_U+30A4_U+30E4_U+30FC 1
 62
   179
420
  2234388
370
     9
100
AcDbSpline
210
0.0
220
0.0
230
1.0
 70
    11
 71
     3
 72
    17
 73
    13
 74
     0
 42
0.0000000001
 43
0.0000000001
 12
1.0
 22
0.0
 32
0.0
 13
1.0
 23
0.0
 33
0.0
 40
0.0
 40
0.0
 40
0.0
 40
0.0
 40
1.0
 40
1.0
 40
1.0
 40
2.0
 40
2.0
 40
2.0
 40
3.0
 40
3.0
 40
3.0
 40
4.0
 40
4.0
 40
4.0
 40
4.0
 10
112.0434540859778
 20
-142.4615796866071
 30
0.0
 10
112.0434540859778
 20
-142.4061230199537
 30
0.0
 10
111.9986865871199
 20
-142.3613202421876
 30
0.0
 10
111.94354742186
 20
-142.3613202421876
 30
0.0
 10
111.8884435343769
 20
-142.3613202421876
 30
0.0
 10
111.8436407577421
 20
-142.4061230199537
 30
0.0
 10
111.8436407577421
 20
-142.4615796866071
 30
0.0
 10
111.8436407577421
 20
-142.5167188532595
 30
0.0
 10
111.8884435343769
 20
-142.5614863532487
 30
0.0
 10
111.94354742186
 20
-142.5614863532487
 30
0.0
 10
111.9986865871199
 20
-142.5614863532487
 30
0.0
 10
112.0434540859778
 20
-142.5167188532595
 30
0.0
 10
112.0434540859778
 20
-142.4615796866071
 30
0.0
  0
SPLINE
  5
6E
330
41
100
AcDbEntity
  8
_U+30EC_U+30A4_U+30E4_U+30FC 1
 62
   179
420
  2234388
370
     9
100
AcDbSpline
210
0.0
220
0.0
230
1.0
 70
    11
 71
     3
 72
    17
 73
    13
 74
     0
 42
0.0000000001
 43
0.0000000001
 12
1.0
 22
0.0
 32
0.0
 13
1.0
 23
0.0
 33
0.0
 40
0.0
 40
0.0
 40
0.0
 40
0.0
 40
1.0
 40
1.0
 40
1.0
 40
2.0
 40
2.0
 40
2.0
 40
3.0
 40
3.0
 40
3.0
 40
4.0
 40
4.0
 40
4.0
 40
4.0
 10
112.0434540859778
 20
-142.8612063531736
 30
0.0
 10
112.0434540859778
 20
-142.8061024642987
 30
0.0
 10
111.9986865871199
 20
-142.761299686532
 30
0.0
 10
111.94354742186
 20
-142.761299686532
 30
0.0
 10
111.8884435343769
 20
-142.761299686532
 30
0.0
 10
111.8436407577421
 20
-142.8061024642987
 30
0.0
 10
111.8436407577421
 20
-142.8612063531736
 30
0.0
 10
111.8436407577421
 20
-142.9166982976045
 30
0.0
 10
111.8884435343769
 20
-142.961465797593
 30
0.0
 10
111.94354742186
 20
-142.961465797593
 30
0.0
 10
111.9986865871199
 20
-142.961465797593
 30
0.0
 10
112.0434540859778
 20
-142.9166982976045
 30
0.0
 10
112.0434540859778
 20
-142.8612063531736
 30
0.0
  0
SPLINE
  5
6F
330
41
100
AcDbEntity
  8
_U+30EC_U+30A4_U+30E4_U+30FC 1
 62
   179
420
  2234388
370
     9
100
AcDbSpline
210
0.0
220
0.0
230
1.0
 70
    11
 71
     3
 72
    17
 73
    13
 74
     0
 42
0.0000000001
 43
0.0000000001
 12
1.0
 22
0.0
 32
0.0
 13
1.0
 23
0.0
 33
0.0
 40
0.0
 40
0.0
 40
0.0
 40
0.0
 40
1.0
 40
1.0
 40
1.0
 40
2.0
 40
2.0
 40
2.0
 40
3.0
 40
3.0
 40
3.0
 40
4.0
 40
4.0
 40
4.0
 40
4.0
 10
108.0436950213535
 20
-147.4614638520236
 30
0.0
 10
108.0436950213535
 20
-147.4060071853709
 30
0.0
 10
107.9989275224956
 20
-147.3612044076042
 30
0.0
 10
107.9437883572356
 20
-147.3612044076042
 30
0.0
 10
107.8886844697526
 20
-147.3612044076042
 30
0.0
 10
107.8438816931178
 20
-147.4060071853709
 30
0.0
 10
107.8438816931178
 20
-147.4614638520236
 30
0.0
 10
107.8438816931178
 20
-147.5165677408985
 30
0.0
 10
107.8886844697526
 20
-147.5613705186652
 30
0.0
 10
107.9437883572356
 20
-147.5613705186652
 30
0.0
 10
107.9989275224956
 20
-147.5613705186652
 30
0.0
 10
108.0436950213535
 20
-147.5165677408985
 30
0.0
 10
108.0436950213535
 20
-147.4614638520236
 30
0.0
  0
SPLINE
  5
70
330
41
100
AcDbEntity
  8
_U+30EC_U+30A4_U+30E4_U+30FC 1
 62
   179
420
  2234388
370
     9
100
AcDbSpline
210
0.0
220
0.0
230
1.0
 70
    11
 71
     3
 72
    17
 73
    13
 74
     0
 42
0.0000000001
 43
0.0000000001
 12
1.0
 22
0.0
 32
0.0
 13
1.0
 23
0.0
 33
0.0
 40
0.0
 40
0.0
 40
0.0
 40
0.0
 40
1.0
 40
1.0
 40
1.0
 40
2.0
 40
2.0
 40
2.0
 40
3.0
 40
3.0
 40
3.0
 40
4.0
 40
4.0
 40
4.0
 40
4.0
 10
80.04351386887816
 20
-147.4614638520236
 30
0.0
 10
80.04351386887816
 20
-147.4060071853709
 30
0.0
 10
79.99874434795089
 20
-147.3612044076042
 30
0.0
 10
79.94360518269094
 20
-147.3612044076042
 30
0.0
 10
79.88850129520787
 20
-147.3612044076042
 30
0.0
 10
79.8436985185731
 20
-147.4060071853709
 30
0.0
 10
79.8436985185731
 20
-147.4614638520236
 30
0.0
 10
79.8436985185731
 20
-147.5165677408985
 30
0.0
 10
79.88850129520787
 20
-147.5613705186652
 30
0.0
 10
79.94360518269094
 20
-147.5613705186652
 30
0.0
 10
79.99874434795089
 20
-147.5613705186652
 30
0.0
 10
80.04351386887816
 20
-147.5165677408985
 30
0.0
 10
80.04351386887816
 20
-147.4614638520236
 30
0.0
  0
SPLINE
  5
71
330
41
100
AcDbEntity
  8
_U+30EC_U+30A4_U+30E4_U+30FC 1
 62
   179
420
  2234388
370
     9
100
AcDbSpline
210
0.0
220
0.0
230
1.0
 70
    11
 71
     3
 72
    17
 73
    13
 74
     0
 42
0.0000000001
 43
0.0000000001
 12
1.0
 22
0.0
 32
0.0
 13
1.0
 23
0.0
 33
0.0
 40
0.0
 40
0.0
 40
0.0
 40
0.0
 40
1.0
 40
1.0
 40
1.0
 40
2.0
 40
2.0
 40
2.0
 40
3.0
 40
3.0
 40
3.0
 40
4.0
 40
4.0
 40
4.0
 40
4.0
 10
80.64365738705334
 20
-111.4612324721346
 30
0.0
 10
80.64365738705334
 20
-111.4061285832597
 30
0.0
 10
80.59885461041858
 20
-111.361325805493
 30
0.0
 10
80.54375275764188
 20
-111.361325805493
 30
0.0
 10
80.48829405768366
 20
-111.361325805493
 30
0.0
 10
80.44349128104889
 20
-111.4061285832597
 30
0.0
 10
80.44349128104889
 20
-111.4612324721346
 30
0.0
 10
80.44349128104889
 20
-111.5163716387877
 30
0.0
 10
80.48829405768366
 20
-111.5611391387766
 30
0.0
 10
80.54375275764188
 20
-111.5611391387766
 30
0.0
 10
80.59885461041858
 20
-111.5611391387766
 30
0.0
 10
80.64365738705334
 20
-111.5163716387877
 30
0.0
 10
80.64365738705334
 20
-111.4612324721346
 30
0.0
  0
SPLINE
  5
72
330
41
100
AcDbEntity
  8
_U+30EC_U+30A4_U+30E4_U+30FC 1
 62
   179
420
  2234388
370
     9
100
AcDbSpline
210
0.0
220
0.0
230
1.0
 70
    11
 71
     3
 72
    17
 73
    13
 74
     0
 42
0.0000000001
 43
0.0000000001
 12
1.0
 22
0.0
 32
0.0
 13
1.0
 23
0.0
 33
0.0
 40
0.0
 40
0.0
 40
0.0
 40
0.0
 40
1.0
 40
1.0
 40
1.0
 40
2.0
 40
2.0
 40
2.0
 40
3.0
 40
3.0
 40
3.0
 40
4.0
 40
4.0
 40
4.0
 40
4.0
 10
81.04328609085039
 20
-111.4612324721346
 30
0.0
 10
81.04328609085039
 20
-111.4061285832597
 30
0.0
 10
80.9985165446668
 20
-111.361325805493
 30
0.0
 10
80.94337737940685
 20
-111.361325805493
 30
0.0
 10
80.88827349192377
 20
-111.361325805493
 30
0.0
 10
80.84347071528902
 20
-111.4061285832597
 30
0.0
 10
80.84347071528902
 20
-111.4612324721346
 30
0.0
 10
80.84347071528902
 20
-111.5163716387877
 30
0.0
 10
80.88827349192377
 20
-111.5611391387766
 30
0.0
 10
80.94337737940685
 20
-111.5611391387766
 30
0.0
 10
80.9985165446668
 20
-111.5611391387766
 30
0.0
 10
81.04328609085039
 20
-111.5163716387877
 30
0.0
 10
81.04328609085039
 20
-111.4612324721346
 30
0.0
  0
SPLINE
  5
73
330
41
100
AcDbEntity
  8
_U+30EC_U+30A4_U+30E4_U+30FC 1
 62
   179
420
  2234388
370
     9
100
AcDbSpline
210
0.0
220
0.0
230
1.0
 70
    11
 71
     3
 72
    17
 73
    13
 74
     0
 42
0.0000000001
 43
0.0000000001
 12
1.0
 22
0.0
 32
0.0
 13
1.0
 23
0.0
 33
0.0
 40
0.0
 40
0.0
 40
0.0
 40
0.0
 40
1.0
 40
1.0
 40
1.0
 40
2.0
 40
2.0
 40
2.0
 40
3.0
 40
3.0
 40
3.0
 40
4.0
 40
4.0
 40
4.0
 40
4.0
 10
76.04343528219256
 20
-115.4613444155792
 30
0.0
 10
76.04343528219256
 20
-115.4058877489262
 30
0.0
 10
75.99898528332658
 20
-115.3614377489373
 30
0.0
 10
75.94349334029785
 20
-115.3614377489373
 30
0.0
 10
75.888036675046
 20
-115.3614377489373
 30
0.0
 10
75.84326917618812
 20
-115.4058877489262
 30
0.0
 10
75.84326917618812
 20
-115.4613444155792
 30
0.0
 10
75.84326917618812
 20
-115.5168010822319
 30
0.0
 10
75.888036675046
 20
-115.5616038599986
 30
0.0
 10
75.94349334029785
 20
-115.5616038599986
 30
0.0
 10
75.99898528332658
 20
-115.5616038599986
 30
0.0
 10
76.04343528219256
 20
-115.5168010822319
 30
0.0
 10
76.04343528219256
 20
-115.4613444155792
 30
0.0
  0
SPLINE
  5
74
330
41
100
AcDbEntity
  8
_U+30EC_U+30A4_U+30E4_U+30FC 1
 62
   179
420
  2234388
370
     9
100
AcDbSpline
210
0.0
220
0.0
230
1.0
 70
    11
 71
     3
 72
    17
 73
    13
 74
     0
 42
0.0000000001
 43
0.0000000001
 12
1.0
 22
0.0
 32
0.0
 13
1.0
 23
0.0
 33
0.0
 40
0.0
 40
0.0
 40
0.0
 40
0.0
 40
1.0
 40
1.0
 40
1.0
 40
2.0
 40
2.0
 40
2.0
 40
3.0
 40
3.0
 40
3.0
 40
4.0
 40
4.0
 40
4.0
 40
4.0
 10
76.04343528219256
 20
-143.461351908579
 30
0.0
 10
76.04343528219256
 20
-143.406248019704
 30
0.0
 10
75.99898528332658
 20
-143.3614452419373
 30
0.0
 10
75.94349334029785
 20
-143.3614452419373
 30
0.0
 10
75.888036675046
 20
-143.3614452419373
 30
0.0
 10
75.84326917618812
 20
-143.406248019704
 30
0.0
 10
75.84326917618812
 20
-143.461351908579
 30
0.0
 10
75.84326917618812
 20
-143.516491075232
 30
0.0
 10
75.888036675046
 20
-143.5612585752206
 30
0.0
 10
75.94349334029785
 20
-143.5612585752206
 30
0.0
 10
75.99898528332658
 20
-143.5612585752206
 30
0.0
 10
76.04343528219256
 20
-143.516491075232
 30
0.0
 10
76.04343528219256
 20
-143.461351908579
 30
0.0
  0
SPLINE
  5
75
330
41
100
AcDbEntity
  8
_U+30EC_U+30A4_U+30E4_U+30FC 1
 62
   179
420
  2234388
370
    25
100
AcDbSpline
210
0.0
220
0.0
230
1.0
 70
     8
 71
     3
 72
    11
 73
     7
 74
     0
 42
0.0000000001
 43
0.0000000001
 12
1.0
 22
0.0
 32
0.0
 13
1.0
 23
0.0
 33
0.0
 40
0.0
 40
0.0
 40
0.0
 40
0.0
 40
1.0
 40
1.0
 40
1.0
 40
2.0
 40
2.0
 40
2.0
 40
2.0
 10
79.94910851588386
 20
-133.1250335778301
 30
0.0
 10
79.76344157617619
 20
-138.6447710764498
 30
0.0
 10
84.0873681325303
 20
-143.2697935752936
 30
0.0
 10
89.60710549171006
 20
-143.4558485752474
 30
0.0
 10
89.83104881933012
 20
-143.4630805196896
 30
0.0
 10
90.05566242471086
 20
-143.4630805196896
 30
0.0
 10
90.27957047455405
 20
-143.4558485752474
 30
0.0
  0
SPLINE
  5
76
330
41
100
AcDbEntity
  8
_U+30EC_U+30A4_U+30E4_U+30FC 1
 62
   179
420
  2234388
370
    25
100
AcDbSpline
210
0.0
220
0.0
230
1.0
 70
     8
 71
     3
 72
     8
 73
     4
 74
     0
 42
0.0000000001
 43
0.0000000001
 12
1.0
 22
0.0
 32
0.0
 13
1.0
 23
0.0
 33
0.0
 40
0.0
 40
0.0
 40
0.0
 40
0.0
 40
1.0
 40
1.0
 40
1.0
 40
1.0
 10
80.94337737940685
 20
-133.4612660777456
 30
0.0
 10
80.94337737940685
 20
-138.4318696876144
 30
0.0
 10
84.97276977660849
 20
-142.4615796866071
 30
0.0
 10
89.94333798313205
 20
-142.4615796866071
 30
0.0
  0
INSERT
  5
78
330
41
100
AcDbEntity
  8
_U+30EC_U+30A4_U+30E4_U+30FC 1
100
AcDbBlockReference
  2
block 3
 10
0.0
 20
0.0
 30
0.0
  0
POLYLINE
  5
83
330
41
100
AcDbEntity
  8
_U+30EC_U+30A4_U+30E4_U+30FC 1
 62
   179
420
  2234388
370
     9
100
AcDb2dPolyline
 66
     1
 10
0.0
 20
0.0
 30
0.0
  0
VERTEX
  5
84
330
83
100
AcDbEntity
  8
_U+30EC_U+30A4_U+30E4_U+30FC 1
 62
   179
420
  2234388
370
     9
100
AcDbVertex
100
AcDb2dVertex
 10
111.94354742186
 20
-142.4615796866071
 30
0.0
  0
VERTEX
  5
85
330
83
100
AcDbEntity
  8
_U+30EC_U+30A4_U+30E4_U+30FC 1
 62
   179
420
  2234388
370
     9
100
AcDbVertex
100
AcDb2dVertex
 10
111.94354742186
 20
-137.2036738545881
 30
0.0
  0
SEQEND
  5
86
330
83
100
AcDbEntity
  8
_U+30EC_U+30A4_U+30E4_U+30FC 1
 62
   179
420
  2234388
370
     9
  0
POLYLINE
  5
87
330
41
100
AcDbEntity
  8
_U+30EC_U+30A4_U+30E4_U+30FC 1
 62
   179
420
  2234388
370
     9
100
AcDb2dPolyline
 66
     1
 10
0.0
 20
0.0
 30
0.0
  0
VERTEX
  5
88
330
87
100
AcDbEntity
  8
_U+30EC_U+30A4_U+30E4_U+30FC 1
 62
   179
420
  2234388
370
     9
100
AcDbVertex
100
AcDb2dVertex
 10
111.94354742186
 20
-142.4615796866071
 30
0.0
  0
VERTEX
  5
89
330
87
100
AcDbEntity
  8
_U+30EC_U+30A4_U+30E4_U+30FC 1
 62
   179
420
  2234388
370
     9
100
AcDbVertex
100
AcDb2dVertex
 10
111.94354742186
 20
-143.8613313529233
 30
0.0
  0
SEQEND
  5
8A
330
87
100
AcDbEntity
  8
_U+30EC_U+30A4_U+30E4_U+30FC 1
 62
   179
420
  2234388
370
     9
  0
POLYLINE
  5
8B
330
41
100
AcDbEntity
  8
_U+30EC_U+30A4_U+30E4_U+30FC 1
 62
   179
420
  2234388
370
     9
100
AcDb2dPolyline
 66
     1
 10
0.0
 20
0.0
 30
0.0
  0
VERTEX
  5
8C
330
8B
100
AcDbEntity
  8
_U+30EC_U+30A4_U+30E4_U+30FC 1
 62
   179
420
  2234388
370
     9
100
AcDbVertex
100
AcDb2dVertex
 10
110.4838588479886
 20
-142.4615796866071
 30
0.0
  0
VERTEX
  5
8D
330
8B
100
AcDbEntity
  8
_U+30EC_U+30A4_U+30E4_U+30FC 1
 62
   179
420
  2234388
370
     9
100
AcDbVertex
100
AcDb2dVertex
 10
112.9433196185759
 20
-142.4615796866071
 30
0.0
  0
SEQEND
  5
8E
330
8B
100
AcDbEntity
  8
_U+30EC_U+30A4_U+30E4_U+30FC 1
 62
   179
420
  2234388
370
     9
  0
POLYLINE
  5
8F
330
41
100
AcDbEntity
  8
_U+30EC_U+30A4_U+30E4_U+30FC 1
 62
   179
420
  2234388
370
     9
100
AcDb2dPolyline
 66
     1
 10
0.0
 20
0.0
 30
0.0
  0
VERTEX
  5
90
330
8F
100
AcDbEntity
  8
_U+30EC_U+30A4_U+30E4_U+30FC 1
 62
   179
420
  2234388
370
     9
100
AcDbVertex
100
AcDb2dVertex
 10
110.4838588479886
 20
-142.8612063531736
 30
0.0
  0
VERTEX
  5
91
330
8F
100
AcDbEntity
  8
_U+30EC_U+30A4_U+30E4_U+30FC 1
 62
   179
420
  2234388
370
     9
100
AcDbVertex
100
AcDb2dVertex
 10
112.9433196185759
 20
-142.8612063531736
 30
0.0
  0
SEQEND
  5
92
330
8F
100
AcDbEntity
  8
_U+30EC_U+30A4_U+30E4_U+30FC 1
 62
   179
420
  2234388
370
     9
  0
INSERT
  5
94
330
41
100
AcDbEntity
  8
_U+30EC_U+30A4_U+30E4_U+30FC 1
100
AcDbBlockReference
  2
block 4
 10
0.0
 20
0.0
 30
0.0
  0
POLYLINE
  5
B7
330
41
100
AcDbEntity
  8
_U+30EC_U+30A4_U+30E4_U+30FC 1
 62
   179
420
  2234388
370
     9
100
AcDb2dPolyline
 66
     1
 10
0.0
 20
0.0
 30
0.0
  0
VERTEX
  5
B8
330
B7
100
AcDbEntity
  8
_U+30EC_U+30A4_U+30E4_U+30FC 1
 62
   179
420
  2234388
370
     9
100
AcDbVertex
100
AcDb2dVertex
 10
80.94337737940685
 20
-111.4612324721346
 30
0.0
  0
VERTEX
  5
B9
330
B7
100
AcDbEntity
  8
_U+30EC_U+30A4_U+30E4_U+30FC 1
 62
   179
420
  2234388
370
     9
100
AcDbVertex
100
AcDb2dVertex
 10
87.20105527531574
 20
-111.4612324721346
 30
0.0
  0
SEQEND
  5
BA
330
B7
100
AcDbEntity
  8
_U+30EC_U+30A4_U+30E4_U+30FC 1
 62
   179
420
  2234388
370
     9
  0
POLYLINE
  5
BB
330
41
100
AcDbEntity
  8
_U+30EC_U+30A4_U+30E4_U+30FC 1
 62
   179
420
  2234388
370
     9
100
AcDb2dPolyline
 66
     1
 10
0.0
 20
0.0
 30
0.0
  0
VERTEX
  5
BC
330
BB
100
AcDbEntity
  8
_U+30EC_U+30A4_U+30E4_U+30FC 1
 62
   179
420
  2234388
370
     9
100
AcDbVertex
100
AcDb2dVertex
 10
80.94337737940685
 20
-111.4612324721346
 30
0.0
  0
VERTEX
  5
BD
330
BB
100
AcDbEntity
  8
_U+30EC_U+30A4_U+30E4_U+30FC 1
 62
   179
420
  2234388
370
     9
100
AcDbVertex
100
AcDb2dVertex
 10
79.54330824845891
 20
-111.4612324721346
 30
0.0
  0
SEQEND
  5
BE
330
BB
100
AcDbEntity
  8
_U+30EC_U+30A4_U+30E4_U+30FC 1
 62
   179
420
  2234388
370
     9
  0
POLYLINE
  5
BF
330
41
100
AcDbEntity
  8
_U+30EC_U+30A4_U+30E4_U+30FC 1
 62
   179
420
  2234388
370
     9
100
AcDb2dPolyline
 66
     1
 10
0.0
 20
0.0
 30
0.0
  0
VERTEX
  5
C0
330
BF
100
AcDbEntity
  8
_U+30EC_U+30A4_U+30E4_U+30FC 1
 62
   179
420
  2234388
370
     9
100
AcDbVertex
100
AcDb2dVertex
 10
80.94337737940685
 20
-112.9212738606586
 30
0.0
  0
VERTEX
  5
C1
330
BF
100
AcDbEntity
  8
_U+30EC_U+30A4_U+30E4_U+30FC 1
 62
   179
420
  2234388
370
     9
100
AcDbVertex
100
AcDb2dVertex
 10
80.94337737940685
 20
-110.4614602501624
 30
0.0
  0
SEQEND
  5
C2
330
BF
100
AcDbEntity
  8
_U+30EC_U+30A4_U+30E4_U+30FC 1
 62
   179
420
  2234388
370
     9
  0
POLYLINE
  5
C3
330
41
100
AcDbEntity
  8
_U+30EC_U+30A4_U+30E4_U+30FC 1
 62
   179
420
  2234388
370
     9
100
AcDb2dPolyline
 66
     1
 10
0.0
 20
0.0
 30
0.0
  0
VERTEX
  5
C4
330
C3
100
AcDbEntity
  8
_U+30EC_U+30A4_U+30E4_U+30FC 1
 62
   179
420
  2234388
370
     9
100
AcDbVertex
100
AcDb2dVertex
 10
80.54375275764188
 20
-112.9212738606586
 30
0.0
  0
VERTEX
  5
C5
330
C3
100
AcDbEntity
  8
_U+30EC_U+30A4_U+30E4_U+30FC 1
 62
   179
420
  2234388
370
     9
100
AcDbVertex
100
AcDb2dVertex
 10
80.54375275764188
 20
-110.4614602501624
 30
0.0
  0
SEQEND
  5
C6
330
C3
100
AcDbEntity
  8
_U+30EC_U+30A4_U+30E4_U+30FC 1
 62
   179
420
  2234388
370
     9
  0
INSERT
  5
C8
330
41
100
AcDbEntity
  8
_U+30EC_U+30A4_U+30E4_U+30FC 1
100
AcDbBlockReference
  2
block 5
 10
0.0
 20
0.0
 30
0.0
  0
POLYLINE
  5
EB
330
41
100
AcDbEntity
  8
_U+30EC_U+30A4_U+30E4_U+30FC 1
 62
   179
420
  2234388
370
     9
100
AcDb2dPolyline
 66
     1
 10
0.0
 20
0.0
 30
0.0
  0
VERTEX
  5
EC
330
EB
100
AcDbEntity
  8
_U+30EC_U+30A4_U+30E4_U+30FC 1
 62
   179
420
  2234388
370
     9
100
AcDbVertex
100
AcDb2dVertex
 10
107.9437883572356
 20
-147.4614638520236
 30
0.0
  0
VERTEX
  5
ED
330
EB
100
AcDbEntity
  8
_U+30EC_U+30A4_U+30E4_U+30FC 1
 62
   179
420
  2234388
370
     9
100
AcDbVertex
100
AcDb2dVertex
 10
79.94360518269094
 20
-147.4614638520236
 30
0.0
  0
SEQEND
  5
EE
330
EB
100
AcDbEntity
  8
_U+30EC_U+30A4_U+30E4_U+30FC 1
 62
   179
420
  2234388
370
     9
  0
POLYLINE
  5
EF
330
41
100
AcDbEntity
  8
_U+30EC_U+30A4_U+30E4_U+30FC 1
 62
   179
420
  2234388
370
     9
100
AcDb2dPolyline
 66
     1
 10
0.0
 20
0.0
 30
0.0
  0
VERTEX
  5
F0
330
EF
100
AcDbEntity
  8
_U+30EC_U+30A4_U+30E4_U+30FC 1
 62
   179
420
  2234388
370
     9
100
AcDbVertex
100
AcDb2dVertex
 10
107.9437883572356
 20
-145.4012769080939
 30
0.0
  0
VERTEX
  5
F1
330
EF
100
AcDbEntity
  8
_U+30EC_U+30A4_U+30E4_U+30FC 1
 62
   179
420
  2234388
370
     9
100
AcDbVertex
100
AcDb2dVertex
 10
107.9437883572356
 20
-148.4612360739955
 30
0.0
  0
SEQEND
  5
F2
330
EF
100
AcDbEntity
  8
_U+30EC_U+30A4_U+30E4_U+30FC 1
 62
   179
420
  2234388
370
     9
  0
POLYLINE
  5
F3
330
41
100
AcDbEntity
  8
_U+30EC_U+30A4_U+30E4_U+30FC 1
 62
   179
420
  2234388
370
     9
100
AcDb2dPolyline
 66
     1
 10
0.0
 20
0.0
 30
0.0
  0
VERTEX
  5
F4
330
F3
100
AcDbEntity
  8
_U+30EC_U+30A4_U+30E4_U+30FC 1
 62
   179
420
  2234388
370
     9
100
AcDbVertex
100
AcDb2dVertex
 10
79.94360518269094
 20
-136.0013366326666
 30
0.0
  0
VERTEX
  5
F5
330
F3
100
AcDbEntity
  8
_U+30EC_U+30A4_U+30E4_U+30FC 1
 62
   179
420
  2234388
370
     9
100
AcDbVertex
100
AcDb2dVertex
 10
79.94360518269094
 20
-148.4612360739955
 30
0.0
  0
SEQEND
  5
F6
330
F3
100
AcDbEntity
  8
_U+30EC_U+30A4_U+30E4_U+30FC 1
 62
   179
420
  2234388
370
     9
  0
INSERT
  5
F8
330
41
100
AcDbEntity
  8
_U+30EC_U+30A4_U+30E4_U+30FC 1
100
AcDbBlockReference
  2
block 6
 10
0.0
 20
0.0
 30
0.0
  0
POLYLINE
  5
101
330
41
100
AcDbEntity
  8
_U+30EC_U+30A4_U+30E4_U+30FC 1
 62
   179
420
  2234388
370
     9
100
AcDb2dPolyline
 66
     1
 10
0.0
 20
0.0
 30
0.0
  0
VERTEX
  5
102
330
101
100
AcDbEntity
  8
_U+30EC_U+30A4_U+30E4_U+30FC 1
 62
   179
420
  2234388
370
     9
100
AcDbVertex
100
AcDb2dVertex
 10
75.94349334029785
 20
-115.4613444155792
 30
0.0
  0
VERTEX
  5
103
330
101
100
AcDbEntity
  8
_U+30EC_U+30A4_U+30E4_U+30FC 1
 62
   179
420
  2234388
370
     9
100
AcDbVertex
100
AcDb2dVertex
 10
75.94349334029785
 20
-143.461351908579
 30
0.0
  0
SEQEND
  5
104
330
101
100
AcDbEntity
  8
_U+30EC_U+30A4_U+30E4_U+30FC 1
 62
   179
420
  2234388
370
     9
  0
POLYLINE
  5
105
330
41
100
AcDbEntity
  8
_U+30EC_U+30A4_U+30E4_U+30FC 1
 62
   179
420
  2234388
370
     9
100
AcDb2dPolyline
 66
     1
 10
0.0
 20
0.0
 30
0.0
  0
VERTEX
  5
106
330
105
100
AcDbEntity
  8
_U+30EC_U+30A4_U+30E4_U+30FC 1
 62
   179
420
  2234388
370
     9
100
AcDbVertex
100
AcDb2dVertex
 10
78.00332745441376
 20
-115.4613444155792
 30
0.0
  0
VERTEX
  5
107
330
105
100
AcDbEntity
  8
_U+30EC_U+30A4_U+30E4_U+30FC 1
 62
   179
420
  2234388
370
     9
100
AcDbVertex
100
AcDb2dVertex
 10
74.94340553681974
 20
-115.4613444155792
 30
0.0
  0
SEQEND
  5
108
330
105
100
AcDbEntity
  8
_U+30EC_U+30A4_U+30E4_U+30FC 1
 62
   179
420
  2234388
370
     9
  0
POLYLINE
  5
109
330
41
100
AcDbEntity
  8
_U+30EC_U+30A4_U+30E4_U+30FC 1
 62
   179
420
  2234388
370
     9
100
AcDb2dPolyline
 66
     1
 10
0.0
 20
0.0
 30
0.0
  0
VERTEX
  5
10A
330
109
100
AcDbEntity
  8
_U+30EC_U+30A4_U+30E4_U+30FC 1
 62
   179
420
  2234388
370
     9
100
AcDbVertex
100
AcDb2dVertex
 10
87.40362027014788
 20
-143.461351908579
 30
0.0
  0
VERTEX
  5
10B
330
109
100
AcDbEntity
  8
_U+30EC_U+30A4_U+30E4_U+30FC 1
 62
   179
420
  2234388
370
     9
100
AcDbVertex
100
AcDb2dVertex
 10
74.94340553681974
 20
-143.461351908579
 30
0.0
  0
SEQEND
  5
10C
330
109
100
AcDbEntity
  8
_U+30EC_U+30A4_U+30E4_U+30FC 1
 62
   179
420
  2234388
370
     9
  0
INSERT
  5
10E
330
41
100
AcDbEntity
  8
_U+30EC_U+30A4_U+30E4_U+30FC 1
100
AcDbBlockReference
  2
block 7
 10
0.0
 20
0.0
 30
0.0
  0
ENDBLK
  5
44
330
41
100
AcDbEntity
  8
0
100
AcDbBlockEnd
  0
BLOCK
  5
79
330
77
100
AcDbEntity
  8
0
100
AcDbBlockBegin
  2
block 3
 70
     0
 10
0.0
 20
0.0
 30
0.0
  3
block 3
  1

  0
SPLINE
  5
7B
330
77
100
AcDbEntity
  8
_U+30EC_U+30A4_U+30E4_U+30FC 1
370
     0
100
AcDbSpline
210
0.0
220
0.0
230
1.0
 70
    11
 71
     3
 72
    26
 73
    22
 74
     0
 42
0.0000000001
 43
0.0000000001
 12
1.0
 22
0.0
 32
0.0
 13
1.0
 23
0.0
 33
0.0
 40
0.0
 40
0.0
 40
0.0
 40
0.0
 40
1.0
 40
1.0
 40
1.0
 40
2.0
 40
2.0
 40
2.0
 40
3.0
 40
3.0
 40
3.0
 40
4.0
 40
4.0
 40
4.0
 40
5.0
 40
5.0
 40
5.0
 40
6.0
 40
6.0
 40
6.0
 40
7.0
 40
7.0
 40
7.0
 40
7.0
 10
69.9836696873652
 20
-146.7483208183477
 30
0.0
 10
69.9836696873652
 20
-146.7483208183477
 30
0.0
 10
69.9836696873652
 20
-145.6441677153251
 30
0.0
 10
69.9836696873652
 20
-145.6441677153251
 30
0.0
 10
69.9836696873652
 20
-145.6441677153251
 30
0.0
 10
69.65362953987827
 20
-145.6441677153251
 30
0.0
 10
69.65362953987827
 20
-145.6441677153251
 30
0.0
 10
69.65362953987827
 20
-145.6441677153251
 30
0.0
 10
69.65362953987827
 20
-145.4960286094593
 30
0.0
 10
69.65362953987827
 20
-145.4960286094593
 30
0.0
 10
69.98573674465635
 20
-145.4812146988727
 30
0.0
 10
70.03224553370723
 20
-145.3182616824204
 30
0.0
 10
70.06187335488036
 20
-145.2038845123101
 30
0.0
 10
70.06187335488036
 20
-145.2038845123101
 30
0.0
 10
70.20794540345496
 20
-145.2038845123101
 30
0.0
 10
70.20794540345496
 20
-145.2038845123101
 30
0.0
 10
70.20794540345496
 20
-145.2038845123101
 30
0.0
 10
70.20794540345496
 20
-146.7483208183477
 30
0.0
 10
70.20794540345496
 20
-146.7483208183477
 30
0.0
 10
70.20794540345496
 20
-146.7483208183477
 30
0.0
 10
69.9836696873652
 20
-146.7483208183477
 30
0.0
 10
69.9836696873652
 20
-146.7483208183477
 30
0.0
  0
HATCH
  5
7C
330
77
100
AcDbEntity
  8
_U+30EC_U+30A4_U+30E4_U+30FC 1
 62
   179
420
  2234388
100
AcDbHatch
 10
0.0
 20
0.0
 30
0.0
210
0.0
220
0.0
230
1.0
  2
SOLID
 70
     1
 71
     0
 91
        1
 92
        1
 93
        1
 72
     4
 94
        3
 73
     0
 74
     1
 95
       26
 96
       22
 40
0.0
 40
0.0
 40
0.0
 40
0.0
 40
1.0
 40
1.0
 40
1.0
 40
2.0
 40
2.0
 40
2.0
 40
3.0
 40
3.0
 40
3.0
 40
4.0
 40
4.0
 40
4.0
 40
5.0
 40
5.0
 40
5.0
 40
6.0
 40
6.0
 40
6.0
 40
7.0
 40
7.0
 40
7.0
 40
7.0
 10
69.9836696873652
 20
-146.7483208183477
 10
69.9836696873652
 20
-146.7483208183477
 10
69.9836696873652
 20
-145.6441677153251
 10
69.9836696873652
 20
-145.6441677153251
 10
69.9836696873652
 20
-145.6441677153251
 10
69.65362953987827
 20
-145.6441677153251
 10
69.65362953987827
 20
-145.6441677153251
 10
69.65362953987827
 20
-145.6441677153251
 10
69.65362953987827
 20
-145.4960286094593
 10
69.65362953987827
 20
-145.4960286094593
 10
69.98573674465635
 20
-145.4812146988727
 10
70.03224553370723
 20
-145.3182616824204
 10
70.06187335488036
 20
-145.2038845123101
 10
70.06187335488036
 20
-145.2038845123101
 10
70.20794540345496
 20
-145.2038845123101
 10
70.20794540345496
 20
-145.2038845123101
 10
70.20794540345496
 20
-145.2038845123101
 10
70.20794540345496
 20
-146.7483208183477
 10
70.20794540345496
 20
-146.7483208183477
 10
70.20794540345496
 20
-146.7483208183477
 10
69.9836696873652
 20
-146.7483208183477
 10
69.9836696873652
 20
-146.7483208183477
 97
        0
 97
        0
 75
     2
 76
     1
 98
        0
  0
SPLINE
  5
7D
330
77
100
AcDbEntity
  8
_U+30EC_U+30A4_U+30E4_U+30FC 1
370
     0
100
AcDbSpline
210
0.0
220
0.0
230
1.0
 70
    11
 71
     3
 72
    29
 73
    25
 74
     0
 42
0.0000000001
 43
0.0000000001
 12
1.0
 22
0.0
 32
0.0
 13
1.0
 23
0.0
 33
0.0
 40
0.0
 40
0.0
 40
0.0
 40
0.0
 40
1.0
 40
1.0
 40
1.0
 40
2.0
 40
2.0
 40
2.0
 40
3.0
 40
3.0
 40
3.0
 40
4.0
 40
4.0
 40
4.0
 40
5.0
 40
5.0
 40
5.0
 40
6.0
 40
6.0
 40
6.0
 40
7.0
 40
7.0
 40
7.0
 40
8.0
 40
8.0
 40
8.0
 40
8.0
 10
71.60682642524065
 20
-146.5705538913087
 30
0.0
 10
71.49899493655234
 20
-146.7800156968119
 30
0.0
 10
71.32553437887
 20
-146.7989637219808
 30
0.0
 10
71.20909015146856
 20
-146.7989637219808
 30
0.0
 10
71.04837644708167
 20
-146.7989637219808
 30
0.0
 10
70.90661076786363
 20
-146.7524549329299
 30
0.0
 10
70.81135387769648
 20
-146.5705538913087
 30
0.0
 10
70.70782875836471
 20
-146.3759059963921
 30
0.0
 10
70.68870847842157
 20
-146.138883427007
 30
0.0
 10
70.68870847842157
 20
-145.9762749201032
 30
0.0
 10
70.68870847842157
 20
-145.8322699288197
 30
0.0
 10
70.7055894462993
 20
-145.5804334488479
 30
0.0
 10
70.81135387769648
 20
-145.381651439349
 30
0.0
 10
70.91935762115905
 20
-145.1787353152678
 30
0.0
 10
71.08007132554596
 20
-145.1553086659681
 30
0.0
 10
71.20909015146856
 20
-145.1553086659681
 30
0.0
 10
71.36773679856432
 20
-145.1553086659681
 30
0.0
 10
71.5115695350735
 20
-145.1997503977279
 30
0.0
 10
71.60682642524065
 20
-145.381651439349
 30
0.0
 10
71.70621742999012
 20
-145.5742322769745
 30
0.0
 10
71.72947182451556
 20
-145.8026421076466
 30
0.0
 10
71.72947182451556
 20
-145.9762749201032
 30
0.0
 10
71.72947182451556
 20
-146.1474961657201
 30
0.0
 10
71.70845674205553
 20
-146.3779730536833
 30
0.0
 10
71.60682642524065
 20
-146.5705538913087
 30
0.0
  0
SPLINE
  5
7E
330
77
100
AcDbEntity
  8
_U+30EC_U+30A4_U+30E4_U+30FC 1
370
     0
100
AcDbSpline
210
0.0
220
0.0
230
1.0
 70
    11
 71
     3
 72
    17
 73
    13
 74
     0
 42
0.0000000001
 43
0.0000000001
 12
1.0
 22
0.0
 32
0.0
 13
1.0
 23
0.0
 33
0.0
 40
0.0
 40
0.0
 40
0.0
 40
0.0
 40
1.0
 40
1.0
 40
1.0
 40
2.0
 40
2.0
 40
2.0
 40
3.0
 40
3.0
 40
3.0
 40
4.0
 40
4.0
 40
4.0
 40
4.0
 10
71.20909015146856
 20
-145.3478895035936
 30
0.0
 10
70.95949298356221
 20
-145.3478895035936
 30
0.0
 10
70.91298419451134
 20
-145.6314208620296
 30
0.0
 10
70.91298419451134
 20
-145.9762749201032
 30
0.0
 10
70.91298419451134
 20
-146.2956352715858
 30
0.0
 10
70.9489854423322
 20
-146.6043158270642
 30
0.0
 10
71.20909015146856
 20
-146.6043158270642
 30
0.0
 10
71.45662026208376
 20
-146.6043158270642
 30
0.0
 10
71.50536836320005
 20
-146.3231960354678
 30
0.0
 10
71.50536836320005
 20
-145.9762749201032
 30
0.0
 10
71.50536836320005
 20
-145.656570059072
 30
0.0
 10
71.46730005808804
 20
-145.3478895035936
 30
0.0
 10
71.20909015146856
 20
-145.3478895035936
 30
0.0
  0
HATCH
  5
7F
330
77
100
AcDbEntity
  8
_U+30EC_U+30A4_U+30E4_U+30FC 1
 62
   179
420
  2234388
100
AcDbHatch
 10
0.0
 20
0.0
 30
0.0
210
0.0
220
0.0
230
1.0
  2
SOLID
 70
     1
 71
     0
 91
        2
 92
        1
 93
        1
 72
     4
 94
        3
 73
     0
 74
     1
 95
       29
 96
       25
 40
0.0
 40
0.0
 40
0.0
 40
0.0
 40
1.0
 40
1.0
 40
1.0
 40
2.0
 40
2.0
 40
2.0
 40
3.0
 40
3.0
 40
3.0
 40
4.0
 40
4.0
 40
4.0
 40
5.0
 40
5.0
 40
5.0
 40
6.0
 40
6.0
 40
6.0
 40
7.0
 40
7.0
 40
7.0
 40
8.0
 40
8.0
 40
8.0
 40
8.0
 10
71.60682642524065
 20
-146.5705538913087
 10
71.49899493655234
 20
-146.7800156968119
 10
71.32553437887
 20
-146.7989637219808
 10
71.20909015146856
 20
-146.7989637219808
 10
71.04837644708167
 20
-146.7989637219808
 10
70.90661076786363
 20
-146.7524549329299
 10
70.81135387769648
 20
-146.5705538913087
 10
70.70782875836471
 20
-146.3759059963921
 10
70.68870847842157
 20
-146.138883427007
 10
70.68870847842157
 20
-145.9762749201032
 10
70.68870847842157
 20
-145.8322699288197
 10
70.7055894462993
 20
-145.5804334488479
 10
70.81135387769648
 20
-145.381651439349
 10
70.91935762115905
 20
-145.1787353152678
 10
71.08007132554596
 20
-145.1553086659681
 10
71.20909015146856
 20
-145.1553086659681
 10
71.36773679856432
 20
-145.1553086659681
 10
71.5115695350735
 20
-145.1997503977279
 10
71.60682642524065
 20
-145.381651439349
 10
71.70621742999012
 20
-145.5742322769745
 10
71.72947182451556
 20
-145.8026421076466
 10
71.72947182451556
 20
-145.9762749201032
 10
71.72947182451556
 20
-146.1474961657201
 10
71.70845674205553
 20
-146.3779730536833
 10
71.60682642524065
 20
-146.5705538913087
 97
        0
 97
        0
 92
        1
 93
        1
 72
     4
 94
        3
 73
     0
 74
     1
 95
       17
 96
       13
 40
0.0
 40
0.0
 40
0.0
 40
0.0
 40
1.0
 40
1.0
 40
1.0
 40
2.0
 40
2.0
 40
2.0
 40
3.0
 40
3.0
 40
3.0
 40
4.0
 40
4.0
 40
4.0
 40
4.0
 10
71.20909015146856
 20
-145.3478895035936
 10
70.95949298356221
 20
-145.3478895035936
 10
70.91298419451134
 20
-145.6314208620296
 10
70.91298419451134
 20
-145.9762749201032
 10
70.91298419451134
 20
-146.2956352715858
 10
70.9489854423322
 20
-146.6043158270642
 10
71.20909015146856
 20
-146.6043158270642
 10
71.45662026208376
 20
-146.6043158270642
 10
71.50536836320005
 20
-146.3231960354678
 10
71.50536836320005
 20
-145.9762749201032
 10
71.50536836320005
 20
-145.656570059072
 10
71.46730005808804
 20
-145.3478895035936
 10
71.20909015146856
 20
-145.3478895035936
 97
        0
 97
        0
 75
     2
 76
     1
 98
        0
  0
SPLINE
  5
80
330
77
100
AcDbEntity
  8
_U+30EC_U+30A4_U+30E4_U+30FC 1
370
     0
100
AcDbSpline
210
0.0
220
0.0
230
1.0
 70
    11
 71
     3
 72
    44
 73
    40
 74
     0
 42
0.0000000001
 43
0.0000000001
 12
1.0
 22
0.0
 32
0.0
 13
1.0
 23
0.0
 33
0.0
 40
0.0
 40
0.0
 40
0.0
 40
0.0
 40
1.0
 40
1.0
 40
1.0
 40
2.0
 40
2.0
 40
2.0
 40
3.0
 40
3.0
 40
3.0
 40
4.0
 40
4.0
 40
4.0
 40
5.0
 40
5.0
 40
5.0
 40
6.0
 40
6.0
 40
6.0
 40
7.0
 40
7.0
 40
7.0
 40
8.0
 40
8.0
 40
8.0
 40
9.0
 40
9.0
 40
9.0
 40
10.0
 40
10.0
 40
10.0
 40
11.0
 40
11.0
 40
11.0
 40
12.0
 40
12.0
 40
12.0
 40
13.0
 40
13.0
 40
13.0
 40
13.0
 10
72.90011527040345
 20
-146.7483208183477
 30
0.0
 10
72.87668862110375
 20
-146.7038790865879
 30
0.0
 10
72.85567353864373
 20
-146.6511691256636
 30
0.0
 10
72.85343422657832
 20
-146.4203477281519
 30
0.0
 10
72.84930011199602
 20
-146.1771239868932
 30
0.0
 10
72.79004446964971
 20
-146.1071885485427
 30
0.0
 10
72.61227754261083
 20
-146.1071885485427
 30
0.0
 10
72.61227754261083
 20
-146.1071885485427
 30
0.0
 10
72.20403372760872
 20
-146.1071885485427
 30
0.0
 10
72.20403372760872
 20
-146.1071885485427
 30
0.0
 10
72.20403372760872
 20
-146.1071885485427
 30
0.0
 10
72.20403372760872
 20
-146.7483208183477
 30
0.0
 10
72.20403372760872
 20
-146.7483208183477
 30
0.0
 10
72.20403372760872
 20
-146.7483208183477
 30
0.0
 10
71.96925047028894
 20
-146.7483208183477
 30
0.0
 10
71.96925047028894
 20
-146.7483208183477
 30
0.0
 10
71.96925047028894
 20
-146.7483208183477
 30
0.0
 10
71.96925047028894
 20
-145.2038845123101
 30
0.0
 10
71.96925047028894
 20
-145.2038845123101
 30
0.0
 10
71.96925047028894
 20
-145.2038845123101
 30
0.0
 10
72.64414467584939
 20
-145.2038845123101
 30
0.0
 10
72.64414467584939
 20
-145.2038845123101
 30
0.0
 10
72.95075817403662
 20
-145.2038845123101
 30
0.0
 10
73.11784530507124
 20
-145.3754502674756
 30
0.0
 10
73.11784530507124
 20
-145.6314208620296
 30
0.0
 10
73.11784530507124
 20
-145.6820637656628
 30
0.0
 10
73.10940482113237
 20
-145.7647460573088
 30
0.0
 10
73.06496308937265
 20
-145.8450167821152
 30
0.0
 10
73.00587970180062
 20
-145.9487141562212
 30
0.0
 10
72.94025063280661
 20
-145.96766218139
 30
0.0
 10
72.87892793316917
 20
-145.9845431492678
 30
0.0
 10
73.01638724303064
 20
-146.0269178237363
 30
0.0
 10
73.08408336931579
 20
-146.0754936700783
 30
0.0
 10
73.08838973867235
 20
-146.3907199069787
 30
0.0
 10
73.09252385325465
 20
-146.6615044121193
 30
0.0
 10
73.12852510107551
 20
-146.6931992905837
 30
0.0
 10
73.19622122736067
 20
-146.7483208183477
 30
0.0
 10
73.19622122736067
 20
-146.7483208183477
 30
0.0
 10
72.90011527040345
 20
-146.7483208183477
 30
0.0
 10
72.90011527040345
 20
-146.7483208183477
 30
0.0
  0
SPLINE
  5
81
330
77
100
AcDbEntity
  8
_U+30EC_U+30A4_U+30E4_U+30FC 1
370
     0
100
AcDbSpline
210
0.0
220
0.0
230
1.0
 70
    11
 71
     3
 72
    20
 73
    16
 74
     0
 42
0.0000000001
 43
0.0000000001
 12
1.0
 22
0.0
 32
0.0
 13
1.0
 23
0.0
 33
0.0
 40
0.0
 40
0.0
 40
0.0
 40
0.0
 40
1.0
 40
1.0
 40
1.0
 40
2.0
 40
2.0
 40
2.0
 40
3.0
 40
3.0
 40
3.0
 40
4.0
 40
4.0
 40
4.0
 40
5.0
 40
5.0
 40
5.0
 40
5.0
 10
72.64827879043169
 20
-145.4154133751045
 30
0.0
 10
72.64827879043169
 20
-145.4154133751045
 30
0.0
 10
72.20403372760872
 20
-145.4154133751045
 30
0.0
 10
72.20403372760872
 20
-145.4154133751045
 30
0.0
 10
72.20403372760872
 20
-145.4154133751045
 30
0.0
 10
72.20403372760872
 20
-145.8956596857483
 30
0.0
 10
72.20403372760872
 20
-145.8956596857483
 30
0.0
 10
72.20403372760872
 20
-145.8956596857483
 30
0.0
 10
72.64621173314053
 20
-145.8956596857483
 30
0.0
 10
72.64621173314053
 20
-145.8956596857483
 30
0.0
 10
72.74560273789
 20
-145.8956596857483
 30
0.0
 10
72.88099499046031
 20
-145.8195230755243
 30
0.0
 10
72.88099499046031
 20
-145.6483018299074
 30
0.0
 10
72.88099499046031
 20
-145.5700981623922
 30
0.0
 10
72.8470607999306
 20
-145.4154133751045
 30
0.0
 10
72.64827879043169
 20
-145.4154133751045
 30
0.0
  0
HATCH
  5
82
330
77
100
AcDbEntity
  8
_U+30EC_U+30A4_U+30E4_U+30FC 1
 62
   179
420
  2234388
100
AcDbHatch
 10
0.0
 20
0.0
 30
0.0
210
0.0
220
0.0
230
1.0
  2
SOLID
 70
     1
 71
     0
 91
        2
 92
        1
 93
        1
 72
     4
 94
        3
 73
     0
 74
     1
 95
       44
 96
       40
 40
0.0
 40
0.0
 40
0.0
 40
0.0
 40
1.0
 40
1.0
 40
1.0
 40
2.0
 40
2.0
 40
2.0
 40
3.0
 40
3.0
 40
3.0
 40
4.0
 40
4.0
 40
4.0
 40
5.0
 40
5.0
 40
5.0
 40
6.0
 40
6.0
 40
6.0
 40
7.0
 40
7.0
 40
7.0
 40
8.0
 40
8.0
 40
8.0
 40
9.0
 40
9.0
 40
9.0
 40
10.0
 40
10.0
 40
10.0
 40
11.0
 40
11.0
 40
11.0
 40
12.0
 40
12.0
 40
12.0
 40
13.0
 40
13.0
 40
13.0
 40
13.0
 10
72.90011527040345
 20
-146.7483208183477
 10
72.87668862110375
 20
-146.7038790865879
 10
72.85567353864373
 20
-146.6511691256636
 10
72.85343422657832
 20
-146.4203477281519
 10
72.84930011199602
 20
-146.1771239868932
 10
72.79004446964971
 20
-146.1071885485427
 10
72.61227754261083
 20
-146.1071885485427
 10
72.61227754261083
 20
-146.1071885485427
 10
72.20403372760872
 20
-146.1071885485427
 10
72.20403372760872
 20
-146.1071885485427
 10
72.20403372760872
 20
-146.1071885485427
 10
72.20403372760872
 20
-146.7483208183477
 10
72.20403372760872
 20
-146.7483208183477
 10
72.20403372760872
 20
-146.7483208183477
 10
71.96925047028894
 20
-146.7483208183477
 10
71.96925047028894
 20
-146.7483208183477
 10
71.96925047028894
 20
-146.7483208183477
 10
71.96925047028894
 20
-145.2038845123101
 10
71.96925047028894
 20
-145.2038845123101
 10
71.96925047028894
 20
-145.2038845123101
 10
72.64414467584939
 20
-145.2038845123101
 10
72.64414467584939
 20
-145.2038845123101
 10
72.95075817403662
 20
-145.2038845123101
 10
73.11784530507124
 20
-145.3754502674756
 10
73.11784530507124
 20
-145.6314208620296
 10
73.11784530507124
 20
-145.6820637656628
 10
73.10940482113237
 20
-145.7647460573088
 10
73.06496308937265
 20
-145.8450167821152
 10
73.00587970180062
 20
-145.9487141562212
 10
72.94025063280661
 20
-145.96766218139
 10
72.87892793316917
 20
-145.9845431492678
 10
73.01638724303064
 20
-146.0269178237363
 10
73.08408336931579
 20
-146.0754936700783
 10
73.08838973867235
 20
-146.3907199069787
 10
73.09252385325465
 20
-146.6615044121193
 10
73.12852510107551
 20
-146.6931992905837
 10
73.19622122736067
 20
-146.7483208183477
 10
73.19622122736067
 20
-146.7483208183477
 10
72.90011527040345
 20
-146.7483208183477
 10
72.90011527040345
 20
-146.7483208183477
 97
        0
 97
        0
 92
        1
 93
        1
 72
     4
 94
        3
 73
     0
 74
     1
 95
       20
 96
       16
 40
0.0
 40
0.0
 40
0.0
 40
0.0
 40
1.0
 40
1.0
 40
1.0
 40
2.0
 40
2.0
 40
2.0
 40
3.0
 40
3.0
 40
3.0
 40
4.0
 40
4.0
 40
4.0
 40
5.0
 40
5.0
 40
5.0
 40
5.0
 10
72.64827879043169
 20
-145.4154133751045
 10
72.64827879043169
 20
-145.4154133751045
 10
72.20403372760872
 20
-145.4154133751045
 10
72.20403372760872
 20
-145.4154133751045
 10
72.20403372760872
 20
-145.4154133751045
 10
72.20403372760872
 20
-145.8956596857483
 10
72.20403372760872
 20
-145.8956596857483
 10
72.20403372760872
 20
-145.8956596857483
 10
72.64621173314053
 20
-145.8956596857483
 10
72.64621173314053
 20
-145.8956596857483
 10
72.74560273789
 20
-145.8956596857483
 10
72.88099499046031
 20
-145.8195230755243
 10
72.88099499046031
 20
-145.6483018299074
 10
72.88099499046031
 20
-145.5700981623922
 10
72.8470607999306
 20
-145.4154133751045
 10
72.64827879043169
 20
-145.4154133751045
 97
        0
 97
        0
 75
     2
 76
     1
 98
        0
  0
ENDBLK
  5
7A
330
77
100
AcDbEntity
  8
0
100
AcDbBlockEnd
  0
BLOCK
  5
95
330
93
100
AcDbEntity
  8
0
100
AcDbBlockBegin
  2
block 4
 70
     0
 10
0.0
 20
0.0
 30
0.0
  3
block 4
  1

  0
SPLINE
  5
97
330
93
100
AcDbEntity
  8
_U+30EC_U+30A4_U+30E4_U+30FC 1
370
     0
100
AcDbSpline
210
0.0
220
0.0
230
1.0
 70
    11
 71
     3
 72
    29
 73
    25
 74
     0
 42
0.0000000001
 43
0.0000000001
 12
1.0
 22
0.0
 32
0.0
 13
1.0
 23
0.0
 33
0.0
 40
0.0
 40
0.0
 40
0.0
 40
0.0
 40
1.0
 40
1.0
 40
1.0
 40
2.0
 40
2.0
 40
2.0
 40
3.0
 40
3.0
 40
3.0
 40
4.0
 40
4.0
 40
4.0
 40
5.0
 40
5.0
 40
5.0
 40
6.0
 40
6.0
 40
6.0
 40
7.0
 40
7.0
 40
7.0
 40
8.0
 40
8.0
 40
8.0
 40
8.0
 10
111.0519639479315
 20
-139.8788004207595
 30
0.0
 10
111.2614257534347
 20
-139.9869764189963
 30
0.0
 10
111.2803737786035
 20
-140.1602647219044
 30
0.0
 10
111.2803737786035
 20
-140.2767089493058
 30
0.0
 10
111.2803737786035
 20
-140.437594908467
 30
0.0
 10
111.2338649895526
 20
-140.5791883329108
 30
0.0
 10
111.0519639479315
 20
-140.6742729683037
 30
0.0
 10
110.8573160530148
 20
-140.7779703424097
 30
0.0
 10
110.6202934836297
 20
-140.7972628771271
 30
0.0
 10
110.4576849767259
 20
-140.7972628771271
 30
0.0
 10
110.3136799854424
 20
-140.7972628771271
 30
0.0
 10
110.0618435054707
 20
-140.7800373997008
 30
0.0
 10
109.8630614959717
 20
-140.6742729683037
 30
0.0
 10
109.6601453718905
 20
-140.5664414796153
 30
0.0
 10
109.6367187225908
 20
-140.4055555204542
 30
0.0
 10
109.6367187225908
 20
-140.2767089493058
 30
0.0
 10
109.6367187225908
 20
-140.1178900474358
 30
0.0
 10
109.6811604543505
 20
-139.9742295657009
 30
0.0
 10
109.8630614959717
 20
-139.8788004207595
 30
0.0
 10
110.0556423335972
 20
-139.7795816707843
 30
0.0
 10
110.2840521642693
 20
-139.7561550214846
 30
0.0
 10
110.4576849767259
 20
-139.7561550214846
 30
0.0
 10
110.6289062223428
 20
-139.7561550214846
 30
0.0
 10
110.859383110306
 20
-139.7775146134931
 30
0.0
 10
111.0519639479315
 20
-139.8788004207595
 30
0.0
  0
SPLINE
  5
98
330
93
100
AcDbEntity
  8
_U+30EC_U+30A4_U+30E4_U+30FC 1
370
     0
100
AcDbSpline
210
0.0
220
0.0
230
1.0
 70
    11
 71
     3
 72
    17
 73
    13
 74
     0
 42
0.0000000001
 43
0.0000000001
 12
1.0
 22
0.0
 32
0.0
 13
1.0
 23
0.0
 33
0.0
 40
0.0
 40
0.0
 40
0.0
 40
0.0
 40
1.0
 40
1.0
 40
1.0
 40
2.0
 40
2.0
 40
2.0
 40
3.0
 40
3.0
 40
3.0
 40
4.0
 40
4.0
 40
4.0
 40
4.0
 10
109.8292995602163
 20
-140.2767089493058
 30
0.0
 10
109.8292995602163
 20
-140.5264783719864
 30
0.0
 10
110.1128309186523
 20
-140.5729871610373
 30
0.0
 10
110.4576849767259
 20
-140.5729871610373
 30
0.0
 10
110.7770453282085
 20
-140.5729871610373
 30
0.0
 10
111.0857258836869
 20
-140.5368136584422
 30
0.0
 10
111.0857258836869
 20
-140.2767089493058
 30
0.0
 10
111.0857258836869
 20
-140.0290065839164
 30
0.0
 10
110.8046060920905
 20
-139.9804307375744
 30
0.0
 10
110.4576849767259
 20
-139.9804307375744
 30
0.0
 10
110.1379801156947
 20
-139.9804307375744
 30
0.0
 10
109.8292995602163
 20
-140.0186712974606
 30
0.0
 10
109.8292995602163
 20
-140.2767089493058
 30
0.0
  0
HATCH
  5
99
330
93
100
AcDbEntity
  8
_U+30EC_U+30A4_U+30E4_U+30FC 1
 62
   179
420
  2234388
100
AcDbHatch
 10
0.0
 20
0.0
 30
0.0
210
0.0
220
0.0
230
1.0
  2
SOLID
 70
     1
 71
     0
 91
        2
 92
        1
 93
        1
 72
     4
 94
        3
 73
     0
 74
     1
 95
       29
 96
       25
 40
0.0
 40
0.0
 40
0.0
 40
0.0
 40
1.0
 40
1.0
 40
1.0
 40
2.0
 40
2.0
 40
2.0
 40
3.0
 40
3.0
 40
3.0
 40
4.0
 40
4.0
 40
4.0
 40
5.0
 40
5.0
 40
5.0
 40
6.0
 40
6.0
 40
6.0
 40
7.0
 40
7.0
 40
7.0
 40
8.0
 40
8.0
 40
8.0
 40
8.0
 10
111.0519639479315
 20
-139.8788004207595
 10
111.2614257534347
 20
-139.9869764189963
 10
111.2803737786035
 20
-140.1602647219044
 10
111.2803737786035
 20
-140.2767089493058
 10
111.2803737786035
 20
-140.437594908467
 10
111.2338649895526
 20
-140.5791883329108
 10
111.0519639479315
 20
-140.6742729683037
 10
110.8573160530148
 20
-140.7779703424097
 10
110.6202934836297
 20
-140.7972628771271
 10
110.4576849767259
 20
-140.7972628771271
 10
110.3136799854424
 20
-140.7972628771271
 10
110.0618435054707
 20
-140.7800373997008
 10
109.8630614959717
 20
-140.6742729683037
 10
109.6601453718905
 20
-140.5664414796153
 10
109.6367187225908
 20
-140.4055555204542
 10
109.6367187225908
 20
-140.2767089493058
 10
109.6367187225908
 20
-140.1178900474358
 10
109.6811604543505
 20
-139.9742295657009
 10
109.8630614959717
 20
-139.8788004207595
 10
110.0556423335972
 20
-139.7795816707843
 10
110.2840521642693
 20
-139.7561550214846
 10
110.4576849767259
 20
-139.7561550214846
 10
110.6289062223428
 20
-139.7561550214846
 10
110.859383110306
 20
-139.7775146134931
 10
111.0519639479315
 20
-139.8788004207595
 97
        0
 97
        0
 92
        1
 93
        1
 72
     4
 94
        3
 73
     0
 74
     1
 95
       17
 96
       13
 40
0.0
 40
0.0
 40
0.0
 40
0.0
 40
1.0
 40
1.0
 40
1.0
 40
2.0
 40
2.0
 40
2.0
 40
3.0
 40
3.0
 40
3.0
 40
4.0
 40
4.0
 40
4.0
 40
4.0
 10
109.8292995602163
 20
-140.2767089493058
 10
109.8292995602163
 20
-140.5264783719864
 10
110.1128309186523
 20
-140.5729871610373
 10
110.4576849767259
 20
-140.5729871610373
 10
110.7770453282085
 20
-140.5729871610373
 10
111.0857258836869
 20
-140.5368136584422
 10
111.0857258836869
 20
-140.2767089493058
 10
111.0857258836869
 20
-140.0290065839164
 10
110.8046060920905
 20
-139.9804307375744
 10
110.4576849767259
 20
-139.9804307375744
 10
110.1379801156947
 20
-139.9804307375744
 10
109.8292995602163
 20
-140.0186712974606
 10
109.8292995602163
 20
-140.2767089493058
 97
        0
 97
        0
 75
     2
 76
     1
 98
        0
  0
POLYLINE
  5
9A
330
93
100
AcDbEntity
  8
_U+30EC_U+30A4_U+30E4_U+30FC 1
370
     0
100
AcDb2dPolyline
 66
     1
 10
0.0
 20
0.0
 30
0.0
  0
VERTEX
  5
9B
330
9A
100
AcDbEntity
  8
_U+30EC_U+30A4_U+30E4_U+30FC 1
370
     0
100
AcDbVertex
100
AcDb2dVertex
 10
111.2297308749703
 20
-139.5398030250109
 30
0.0
  0
VERTEX
  5
9C
330
9A
100
AcDbEntity
  8
_U+30EC_U+30A4_U+30E4_U+30FC 1
370
     0
100
AcDbVertex
100
AcDb2dVertex
 10
110.9778943949986
 20
-139.5398030250109
 30
0.0
  0
VERTEX
  5
9D
330
9A
100
AcDbEntity
  8
_U+30EC_U+30A4_U+30E4_U+30FC 1
370
     0
100
AcDbVertex
100
AcDb2dVertex
 10
110.9778943949986
 20
-139.2879665450391
 30
0.0
  0
VERTEX
  5
9E
330
9A
100
AcDbEntity
  8
_U+30EC_U+30A4_U+30E4_U+30FC 1
370
     0
100
AcDbVertex
100
AcDb2dVertex
 10
111.2297308749703
 20
-139.2879665450391
 30
0.0
  0
VERTEX
  5
9F
330
9A
100
AcDbEntity
  8
_U+30EC_U+30A4_U+30E4_U+30FC 1
370
     0
100
AcDbVertex
100
AcDb2dVertex
 10
111.2297308749703
 20
-139.5398030250109
 30
0.0
  0
SEQEND
  5
A0
330
9A
100
AcDbEntity
  8
_U+30EC_U+30A4_U+30E4_U+30FC 1
370
     0
  0
HATCH
  5
A1
330
93
100
AcDbEntity
  8
_U+30EC_U+30A4_U+30E4_U+30FC 1
 62
   179
420
  2234388
100
AcDbHatch
 10
0.0
 20
0.0
 30
0.0
210
0.0
220
0.0
230
1.0
  2
SOLID
 70
     1
 71
     0
 91
        1
 92
        1
 93
        4
 72
     1
 10
111.2297308749703
 20
-139.5398030250109
 11
110.9778943949986
 21
-139.5398030250109
 72
     1
 10
110.9778943949986
 20
-139.5398030250109
 11
110.9778943949986
 21
-139.2879665450391
 72
     1
 10
110.9778943949986
 20
-139.2879665450391
 11
111.2297308749703
 21
-139.2879665450391
 72
     1
 10
111.2297308749703
 20
-139.2879665450391
 11
111.2297308749703
 21
-139.5398030250109
 97
        0
 75
     2
 76
     1
 98
        0
  0
POLYLINE
  5
A2
330
93
100
AcDbEntity
  8
_U+30EC_U+30A4_U+30E4_U+30FC 1
370
     0
100
AcDb2dPolyline
 66
     1
 10
0.0
 20
0.0
 30
0.0
  0
VERTEX
  5
A3
330
A2
100
AcDbEntity
  8
_U+30EC_U+30A4_U+30E4_U+30FC 1
370
     0
100
AcDbVertex
100
AcDb2dVertex
 10
110.8828097596057
 20
-138.2196424350632
 30
0.0
  0
VERTEX
  5
A4
330
A2
100
AcDbEntity
  8
_U+30EC_U+30A4_U+30E4_U+30FC 1
370
     0
100
AcDbVertex
100
AcDb2dVertex
 10
111.2297308749703
 20
-138.2196424350632
 30
0.0
  0
VERTEX
  5
A5
330
A2
100
AcDbEntity
  8
_U+30EC_U+30A4_U+30E4_U+30FC 1
370
     0
100
AcDbVertex
100
AcDb2dVertex
 10
111.2297308749703
 20
-138.4373724697309
 30
0.0
  0
VERTEX
  5
A6
330
A2
100
AcDbEntity
  8
_U+30EC_U+30A4_U+30E4_U+30FC 1
370
     0
100
AcDbVertex
100
AcDb2dVertex
 10
110.8828097596057
 20
-138.4373724697309
 30
0.0
  0
VERTEX
  5
A7
330
A2
100
AcDbEntity
  8
_U+30EC_U+30A4_U+30E4_U+30FC 1
370
     0
100
AcDbVertex
100
AcDb2dVertex
 10
110.8828097596057
 20
-139.0933186501225
 30
0.0
  0
VERTEX
  5
A8
330
A2
100
AcDbEntity
  8
_U+30EC_U+30A4_U+30E4_U+30FC 1
370
     0
100
AcDbVertex
100
AcDb2dVertex
 10
110.6585340435159
 20
-139.0933186501225
 30
0.0
  0
VERTEX
  5
A9
330
A2
100
AcDbEntity
  8
_U+30EC_U+30A4_U+30E4_U+30FC 1
370
     0
100
AcDbVertex
100
AcDb2dVertex
 10
109.6852945689328
 20
-138.4142903299798
 30
0.0
  0
VERTEX
  5
AA
330
A2
100
AcDbEntity
  8
_U+30EC_U+30A4_U+30E4_U+30FC 1
370
     0
100
AcDbVertex
100
AcDb2dVertex
 10
109.6852945689328
 20
-138.2196424350632
 30
0.0
  0
VERTEX
  5
AB
330
A2
100
AcDbEntity
  8
_U+30EC_U+30A4_U+30E4_U+30FC 1
370
     0
100
AcDbVertex
100
AcDb2dVertex
 10
110.6840277501068
 20
-138.2196424350632
 30
0.0
  0
VERTEX
  5
AC
330
A2
100
AcDbEntity
  8
_U+30EC_U+30A4_U+30E4_U+30FC 1
370
     0
100
AcDbVertex
100
AcDb2dVertex
 10
110.6840277501068
 20
-138.0122476868511
 30
0.0
  0
VERTEX
  5
AD
330
A2
100
AcDbEntity
  8
_U+30EC_U+30A4_U+30E4_U+30FC 1
370
     0
100
AcDbVertex
100
AcDb2dVertex
 10
110.8828097596057
 20
-138.0122476868511
 30
0.0
  0
VERTEX
  5
AE
330
A2
100
AcDbEntity
  8
_U+30EC_U+30A4_U+30E4_U+30FC 1
370
     0
100
AcDbVertex
100
AcDb2dVertex
 10
110.8828097596057
 20
-138.2196424350632
 30
0.0
  0
SEQEND
  5
AF
330
A2
100
AcDbEntity
  8
_U+30EC_U+30A4_U+30E4_U+30FC 1
370
     0
  0
POLYLINE
  5
B0
330
93
100
AcDbEntity
  8
_U+30EC_U+30A4_U+30E4_U+30FC 1
370
     0
100
AcDb2dPolyline
 66
     1
 10
0.0
 20
0.0
 30
0.0
  0
VERTEX
  5
B1
330
B0
100
AcDbEntity
  8
_U+30EC_U+30A4_U+30E4_U+30FC 1
370
     0
100
AcDbVertex
100
AcDb2dVertex
 10
110.0280815697152
 20
-138.4373724697309
 30
0.0
  0
VERTEX
  5
B2
330
B0
100
AcDbEntity
  8
_U+30EC_U+30A4_U+30E4_U+30FC 1
370
     0
100
AcDbVertex
100
AcDb2dVertex
 10
110.6840277501068
 20
-138.8945366406236
 30
0.0
  0
VERTEX
  5
B3
330
B0
100
AcDbEntity
  8
_U+30EC_U+30A4_U+30E4_U+30FC 1
370
     0
100
AcDbVertex
100
AcDb2dVertex
 10
110.6840277501068
 20
-138.4373724697309
 30
0.0
  0
VERTEX
  5
B4
330
B0
100
AcDbEntity
  8
_U+30EC_U+30A4_U+30E4_U+30FC 1
370
     0
100
AcDbVertex
100
AcDb2dVertex
 10
110.0280815697152
 20
-138.4373724697309
 30
0.0
  0
SEQEND
  5
B5
330
B0
100
AcDbEntity
  8
_U+30EC_U+30A4_U+30E4_U+30FC 1
370
     0
  0
HATCH
  5
B6
330
93
100
AcDbEntity
  8
_U+30EC_U+30A4_U+30E4_U+30FC 1
 62
   179
420
  2234388
100
AcDbHatch
 10
0.0
 20
0.0
 30
0.0
210
0.0
220
0.0
230
1.0
  2
SOLID
 70
     1
 71
     0
 91
        2
 92
        1
 93
       11
 72
     1
 10
110.8828097596057
 20
-138.2196424350632
 11
111.2297308749703
 21
-138.2196424350632
 72
     1
 10
111.2297308749703
 20
-138.2196424350632
 11
111.2297308749703
 21
-138.4373724697309
 72
     1
 10
111.2297308749703
 20
-138.4373724697309
 11
110.8828097596057
 21
-138.4373724697309
 72
     1
 10
110.8828097596057
 20
-138.4373724697309
 11
110.8828097596057
 21
-139.0933186501225
 72
     1
 10
110.8828097596057
 20
-139.0933186501225
 11
110.6585340435159
 21
-139.0933186501225
 72
     1
 10
110.6585340435159
 20
-139.0933186501225
 11
109.6852945689328
 21
-138.4142903299798
 72
     1
 10
109.6852945689328
 20
-138.4142903299798
 11
109.6852945689328
 21
-138.2196424350632
 72
     1
 10
109.6852945689328
 20
-138.2196424350632
 11
110.6840277501068
 21
-138.2196424350632
 72
     1
 10
110.6840277501068
 20
-138.2196424350632
 11
110.6840277501068
 21
-138.0122476868511
 72
     1
 10
110.6840277501068
 20
-138.0122476868511
 11
110.8828097596057
 21
-138.0122476868511
 72
     1
 10
110.8828097596057
 20
-138.0122476868511
 11
110.8828097596057
 21
-138.2196424350632
 97
        0
 92
        1
 93
        3
 72
     1
 10
110.0280815697152
 20
-138.4373724697309
 11
110.6840277501068
 21
-138.8945366406236
 72
     1
 10
110.6840277501068
 20
-138.8945366406236
 11
110.6840277501068
 21
-138.4373724697309
 72
     1
 10
110.6840277501068
 20
-138.4373724697309
 11
110.0280815697152
 21
-138.4373724697309
 97
        0
 75
     2
 76
     1
 98
        0
  0
ENDBLK
  5
96
330
93
100
AcDbEntity
  8
0
100
AcDbBlockEnd
  0
BLOCK
  5
C9
330
C7
100
AcDbEntity
  8
0
100
AcDbBlockBegin
  2
block 5
 70
     0
 10
0.0
 20
0.0
 30
0.0
  3
block 5
  1

  0
SPLINE
  5
CB
330
C7
100
AcDbEntity
  8
_U+30EC_U+30A4_U+30E4_U+30FC 1
370
     0
100
AcDbSpline
210
0.0
220
0.0
230
1.0
 70
    11
 71
     3
 72
    29
 73
    25
 74
     0
 42
0.0000000001
 43
0.0000000001
 12
1.0
 22
0.0
 32
0.0
 13
1.0
 23
0.0
 33
0.0
 40
0.0
 40
0.0
 40
0.0
 40
0.0
 40
1.0
 40
1.0
 40
1.0
 40
2.0
 40
2.0
 40
2.0
 40
3.0
 40
3.0
 40
3.0
 40
4.0
 40
4.0
 40
4.0
 40
5.0
 40
5.0
 40
5.0
 40
6.0
 40
6.0
 40
6.0
 40
7.0
 40
7.0
 40
7.0
 40
8.0
 40
8.0
 40
8.0
 40
8.0
 10
84.52541773060476
 20
-110.5705118538678
 30
0.0
 10
84.41758624191644
 20
-110.779973659371
 30
0.0
 10
84.2441256842341
 20
-110.7990939393141
 30
0.0
 10
84.12768145683266
 20
-110.7990939393141
 30
0.0
 10
83.96696775244577
 20
-110.7990939393141
 30
0.0
 10
83.82520207322773
 20
-110.7525851502632
 30
0.0
 10
83.72994518306058
 20
-110.5705118538678
 30
0.0
 10
83.62642006372882
 20
-110.3760362137254
 30
0.0
 10
83.60729978378568
 20
-110.1390136443403
 30
0.0
 10
83.60729978378568
 20
-109.9760606278879
 30
0.0
 10
83.60729978378568
 20
-109.8322278913787
 30
0.0
 10
83.6241807516634
 20
-109.5805636661812
 30
0.0
 10
83.72994518306058
 20
-109.3816094019081
 30
0.0
 10
83.83794892652315
 20
-109.1785210230526
 30
0.0
 10
83.99866263091006
 20
-109.1552666285272
 30
0.0
 10
84.12768145683266
 20
-109.1552666285272
 30
0.0
 10
84.28632810392843
 20
-109.1552666285272
 30
0.0
 10
84.43016084043761
 20
-109.1997083602869
 30
0.0
 10
84.52541773060476
 20
-109.3816094019081
 30
0.0
 10
84.62480873535422
 20
-109.5741902395335
 30
0.0
 10
84.64806312987966
 20
-109.8026000702056
 30
0.0
 10
84.64806312987966
 20
-109.9760606278879
 30
0.0
 10
84.64806312987966
 20
-110.1474541282791
 30
0.0
 10
84.62704804741963
 20
-110.3781032710166
 30
0.0
 10
84.52541773060476
 20
-110.5705118538678
 30
0.0
  0
SPLINE
  5
CC
330
C7
100
AcDbEntity
  8
_U+30EC_U+30A4_U+30E4_U+30FC 1
370
     0
100
AcDbSpline
210
0.0
220
0.0
230
1.0
 70
    11
 71
     3
 72
    17
 73
    13
 74
     0
 42
0.0000000001
 43
0.0000000001
 12
1.0
 22
0.0
 32
0.0
 13
1.0
 23
0.0
 33
0.0
 40
0.0
 40
0.0
 40
0.0
 40
0.0
 40
1.0
 40
1.0
 40
1.0
 40
2.0
 40
2.0
 40
2.0
 40
3.0
 40
3.0
 40
3.0
 40
4.0
 40
4.0
 40
4.0
 40
4.0
 10
84.12768145683266
 20
-109.3478474661526
 30
0.0
 10
83.87808428892632
 20
-109.3478474661526
 30
0.0
 10
83.83157549987544
 20
-109.6312065698144
 30
0.0
 10
83.83157549987544
 20
-109.9760606278879
 30
0.0
 10
83.83157549987544
 20
-110.2955932341449
 30
0.0
 10
83.8675767476963
 20
-110.6044460443975
 30
0.0
 10
84.12768145683266
 20
-110.6044460443975
 30
0.0
 10
84.37521156744786
 20
-110.6044460443975
 30
0.0
 10
84.42395966856415
 20
-110.3229817432526
 30
0.0
 10
84.42395966856415
 20
-109.9760606278879
 30
0.0
 10
84.42395966856415
 20
-109.6567002764053
 30
0.0
 10
84.38589136345215
 20
-109.3478474661526
 30
0.0
 10
84.12768145683266
 20
-109.3478474661526
 30
0.0
  0
HATCH
  5
CD
330
C7
100
AcDbEntity
  8
_U+30EC_U+30A4_U+30E4_U+30FC 1
 62
   179
420
  2234388
100
AcDbHatch
 10
0.0
 20
0.0
 30
0.0
210
0.0
220
0.0
230
1.0
  2
SOLID
 70
     1
 71
     0
 91
        2
 92
        1
 93
        1
 72
     4
 94
        3
 73
     0
 74
     1
 95
       29
 96
       25
 40
0.0
 40
0.0
 40
0.0
 40
0.0
 40
1.0
 40
1.0
 40
1.0
 40
2.0
 40
2.0
 40
2.0
 40
3.0
 40
3.0
 40
3.0
 40
4.0
 40
4.0
 40
4.0
 40
5.0
 40
5.0
 40
5.0
 40
6.0
 40
6.0
 40
6.0
 40
7.0
 40
7.0
 40
7.0
 40
8.0
 40
8.0
 40
8.0
 40
8.0
 10
84.52541773060476
 20
-110.5705118538678
 10
84.41758624191644
 20
-110.779973659371
 10
84.2441256842341
 20
-110.7990939393141
 10
84.12768145683266
 20
-110.7990939393141
 10
83.96696775244577
 20
-110.7990939393141
 10
83.82520207322773
 20
-110.7525851502632
 10
83.72994518306058
 20
-110.5705118538678
 10
83.62642006372882
 20
-110.3760362137254
 10
83.60729978378568
 20
-110.1390136443403
 10
83.60729978378568
 20
-109.9760606278879
 10
83.60729978378568
 20
-109.8322278913787
 10
83.6241807516634
 20
-109.5805636661812
 10
83.72994518306058
 20
-109.3816094019081
 10
83.83794892652315
 20
-109.1785210230526
 10
83.99866263091006
 20
-109.1552666285272
 10
84.12768145683266
 20
-109.1552666285272
 10
84.28632810392843
 20
-109.1552666285272
 10
84.43016084043761
 20
-109.1997083602869
 10
84.52541773060476
 20
-109.3816094019081
 10
84.62480873535422
 20
-109.5741902395335
 10
84.64806312987966
 20
-109.8026000702056
 10
84.64806312987966
 20
-109.9760606278879
 10
84.64806312987966
 20
-110.1474541282791
 10
84.62704804741963
 20
-110.3781032710166
 10
84.52541773060476
 20
-110.5705118538678
 97
        0
 97
        0
 92
        1
 93
        1
 72
     4
 94
        3
 73
     0
 74
     1
 95
       17
 96
       13
 40
0.0
 40
0.0
 40
0.0
 40
0.0
 40
1.0
 40
1.0
 40
1.0
 40
2.0
 40
2.0
 40
2.0
 40
3.0
 40
3.0
 40
3.0
 40
4.0
 40
4.0
 40
4.0
 40
4.0
 10
84.12768145683266
 20
-109.3478474661526
 10
83.87808428892632
 20
-109.3478474661526
 10
83.83157549987544
 20
-109.6312065698144
 10
83.83157549987544
 20
-109.9760606278879
 10
83.83157549987544
 20
-110.2955932341449
 10
83.8675767476963
 20
-110.6044460443975
 10
84.12768145683266
 20
-110.6044460443975
 10
84.37521156744786
 20
-110.6044460443975
 10
84.42395966856415
 20
-110.3229817432526
 10
84.42395966856415
 20
-109.9760606278879
 10
84.42395966856415
 20
-109.6567002764053
 10
84.38589136345215
 20
-109.3478474661526
 10
84.12768145683266
 20
-109.3478474661526
 97
        0
 97
        0
 75
     2
 76
     1
 98
        0
  0
POLYLINE
  5
CE
330
C7
100
AcDbEntity
  8
_U+30EC_U+30A4_U+30E4_U+30FC 1
370
     0
100
AcDb2dPolyline
 66
     1
 10
0.0
 20
0.0
 30
0.0
  0
VERTEX
  5
CF
330
CE
100
AcDbEntity
  8
_U+30EC_U+30A4_U+30E4_U+30FC 1
370
     0
100
AcDbVertex
100
AcDb2dVertex
 10
84.8645873811276
 20
-110.7482787809067
 30
0.0
  0
VERTEX
  5
D0
330
CE
100
AcDbEntity
  8
_U+30EC_U+30A4_U+30E4_U+30FC 1
370
     0
100
AcDbVertex
100
AcDb2dVertex
 10
84.8645873811276
 20
-110.4966145557092
 30
0.0
  0
VERTEX
  5
D1
330
CE
100
AcDbEntity
  8
_U+30EC_U+30A4_U+30E4_U+30FC 1
370
     0
100
AcDbVertex
100
AcDb2dVertex
 10
85.11625160632511
 20
-110.4966145557092
 30
0.0
  0
VERTEX
  5
D2
330
CE
100
AcDbEntity
  8
_U+30EC_U+30A4_U+30E4_U+30FC 1
370
     0
100
AcDbVertex
100
AcDb2dVertex
 10
85.11625160632511
 20
-110.7482787809067
 30
0.0
  0
VERTEX
  5
D3
330
CE
100
AcDbEntity
  8
_U+30EC_U+30A4_U+30E4_U+30FC 1
370
     0
100
AcDbVertex
100
AcDb2dVertex
 10
84.8645873811276
 20
-110.7482787809067
 30
0.0
  0
SEQEND
  5
D4
330
CE
100
AcDbEntity
  8
_U+30EC_U+30A4_U+30E4_U+30FC 1
370
     0
  0
HATCH
  5
D5
330
C7
100
AcDbEntity
  8
_U+30EC_U+30A4_U+30E4_U+30FC 1
 62
   179
420
  2234388
100
AcDbHatch
 10
0.0
 20
0.0
 30
0.0
210
0.0
220
0.0
230
1.0
  2
SOLID
 70
     1
 71
     0
 91
        1
 92
        1
 93
        4
 72
     1
 10
84.8645873811276
 20
-110.7482787809067
 11
84.8645873811276
 21
-110.4966145557092
 72
     1
 10
84.8645873811276
 20
-110.4966145557092
 11
85.11625160632511
 21
-110.4966145557092
 72
     1
 10
85.11625160632511
 20
-110.4966145557092
 11
85.11625160632511
 21
-110.7482787809067
 72
     1
 10
85.11625160632511
 20
-110.7482787809067
 11
84.8645873811276
 21
-110.7482787809067
 97
        0
 75
     2
 76
     1
 98
        0
  0
POLYLINE
  5
D6
330
C7
100
AcDbEntity
  8
_U+30EC_U+30A4_U+30E4_U+30FC 1
370
     0
100
AcDb2dPolyline
 66
     1
 10
0.0
 20
0.0
 30
0.0
  0
VERTEX
  5
D7
330
D6
100
AcDbEntity
  8
_U+30EC_U+30A4_U+30E4_U+30FC 1
370
     0
100
AcDbVertex
100
AcDb2dVertex
 10
86.18492022584961
 20
-110.401357665542
 30
0.0
  0
VERTEX
  5
D8
330
D6
100
AcDbEntity
  8
_U+30EC_U+30A4_U+30E4_U+30FC 1
370
     0
100
AcDbVertex
100
AcDb2dVertex
 10
86.18492022584961
 20
-110.7482787809067
 30
0.0
  0
VERTEX
  5
D9
330
D6
100
AcDbEntity
  8
_U+30EC_U+30A4_U+30E4_U+30FC 1
370
     0
100
AcDbVertex
100
AcDb2dVertex
 10
85.96701793640756
 20
-110.7482787809067
 30
0.0
  0
VERTEX
  5
DA
330
D6
100
AcDbEntity
  8
_U+30EC_U+30A4_U+30E4_U+30FC 1
370
     0
100
AcDbVertex
100
AcDb2dVertex
 10
85.96701793640756
 20
-110.401357665542
 30
0.0
  0
VERTEX
  5
DB
330
D6
100
AcDbEntity
  8
_U+30EC_U+30A4_U+30E4_U+30FC 1
370
     0
100
AcDbVertex
100
AcDb2dVertex
 10
85.31124401079025
 20
-110.401357665542
 30
0.0
  0
VERTEX
  5
DC
330
D6
100
AcDbEntity
  8
_U+30EC_U+30A4_U+30E4_U+30FC 1
370
     0
100
AcDbVertex
100
AcDb2dVertex
 10
85.31124401079025
 20
-110.1770819494523
 30
0.0
  0
VERTEX
  5
DD
330
D6
100
AcDbEntity
  8
_U+30EC_U+30A4_U+30E4_U+30FC 1
370
     0
100
AcDbVertex
100
AcDb2dVertex
 10
85.990272330933
 20
-109.2040147296434
 30
0.0
  0
VERTEX
  5
DE
330
D6
100
AcDbEntity
  8
_U+30EC_U+30A4_U+30E4_U+30FC 1
370
     0
100
AcDbVertex
100
AcDb2dVertex
 10
86.18492022584961
 20
-109.2040147296434
 30
0.0
  0
VERTEX
  5
DF
330
D6
100
AcDbEntity
  8
_U+30EC_U+30A4_U+30E4_U+30FC 1
370
     0
100
AcDbVertex
100
AcDb2dVertex
 10
86.18492022584961
 20
-110.2024034012689
 30
0.0
  0
VERTEX
  5
E0
330
D6
100
AcDbEntity
  8
_U+30EC_U+30A4_U+30E4_U+30FC 1
370
     0
100
AcDbVertex
100
AcDb2dVertex
 10
86.39231497406165
 20
-110.2024034012689
 30
0.0
  0
VERTEX
  5
E1
330
D6
100
AcDbEntity
  8
_U+30EC_U+30A4_U+30E4_U+30FC 1
370
     0
100
AcDbVertex
100
AcDb2dVertex
 10
86.39231497406165
 20
-110.401357665542
 30
0.0
  0
VERTEX
  5
E2
330
D6
100
AcDbEntity
  8
_U+30EC_U+30A4_U+30E4_U+30FC 1
370
     0
100
AcDbVertex
100
AcDb2dVertex
 10
86.18492022584961
 20
-110.401357665542
 30
0.0
  0
SEQEND
  5
E3
330
D6
100
AcDbEntity
  8
_U+30EC_U+30A4_U+30E4_U+30FC 1
370
     0
  0
POLYLINE
  5
E4
330
C7
100
AcDbEntity
  8
_U+30EC_U+30A4_U+30E4_U+30FC 1
370
     0
100
AcDb2dPolyline
 66
     1
 10
0.0
 20
0.0
 30
0.0
  0
VERTEX
  5
E5
330
E4
100
AcDbEntity
  8
_U+30EC_U+30A4_U+30E4_U+30FC 1
370
     0
100
AcDbVertex
100
AcDb2dVertex
 10
85.96701793640756
 20
-109.5466294756515
 30
0.0
  0
VERTEX
  5
E6
330
E4
100
AcDbEntity
  8
_U+30EC_U+30A4_U+30E4_U+30FC 1
370
     0
100
AcDbVertex
100
AcDb2dVertex
 10
85.51019827506343
 20
-110.2024034012689
 30
0.0
  0
VERTEX
  5
E7
330
E4
100
AcDbEntity
  8
_U+30EC_U+30A4_U+30E4_U+30FC 1
370
     0
100
AcDbVertex
100
AcDb2dVertex
 10
85.96701793640756
 20
-110.2024034012689
 30
0.0
  0
VERTEX
  5
E8
330
E4
100
AcDbEntity
  8
_U+30EC_U+30A4_U+30E4_U+30FC 1
370
     0
100
AcDbVertex
100
AcDb2dVertex
 10
85.96701793640756
 20
-109.5466294756515
 30
0.0
  0
SEQEND
  5
E9
330
E4
100
AcDbEntity
  8
_U+30EC_U+30A4_U+30E4_U+30FC 1
370
     0
  0
HATCH
  5
EA
330
C7
100
AcDbEntity
  8
_U+30EC_U+30A4_U+30E4_U+30FC 1
 62
   179
420
  2234388
100
AcDbHatch
 10
0.0
 20
0.0
 30
0.0
210
0.0
220
0.0
230
1.0
  2
SOLID
 70
     1
 71
     0
 91
        2
 92
        1
 93
       11
 72
     1
 10
86.18492022584961
 20
-110.401357665542
 11
86.18492022584961
 21
-110.7482787809067
 72
     1
 10
86.18492022584961
 20
-110.7482787809067
 11
85.96701793640756
 21
-110.7482787809067
 72
     1
 10
85.96701793640756
 20
-110.7482787809067
 11
85.96701793640756
 21
-110.401357665542
 72
     1
 10
85.96701793640756
 20
-110.401357665542
 11
85.31124401079025
 21
-110.401357665542
 72
     1
 10
85.31124401079025
 20
-110.401357665542
 11
85.31124401079025
 21
-110.1770819494523
 72
     1
 10
85.31124401079025
 20
-110.1770819494523
 11
85.990272330933
 21
-109.2040147296434
 72
     1
 10
85.990272330933
 20
-109.2040147296434
 11
86.18492022584961
 21
-109.2040147296434
 72
     1
 10
86.18492022584961
 20
-109.2040147296434
 11
86.18492022584961
 21
-110.2024034012689
 72
     1
 10
86.18492022584961
 20
-110.2024034012689
 11
86.39231497406165
 21
-110.2024034012689
 72
     1
 10
86.39231497406165
 20
-110.2024034012689
 11
86.39231497406165
 21
-110.401357665542
 72
     1
 10
86.39231497406165
 20
-110.401357665542
 11
86.18492022584961
 21
-110.401357665542
 97
        0
 92
        1
 93
        3
 72
     1
 10
85.96701793640756
 20
-109.5466294756515
 11
85.51019827506343
 21
-110.2024034012689
 72
     1
 10
85.51019827506343
 20
-110.2024034012689
 11
85.96701793640756
 21
-110.2024034012689
 72
     1
 10
85.96701793640756
 20
-110.2024034012689
 11
85.96701793640756
 21
-109.5466294756515
 97
        0
 75
     2
 76
     1
 98
        0
  0
ENDBLK
  5
CA
330
C7
100
AcDbEntity
  8
0
100
AcDbBlockEnd
  0
BLOCK
  5
F9
330
F7
100
AcDbEntity
  8
0
100
AcDbBlockBegin
  2
block 6
 70
     0
 10
0.0
 20
0.0
 30
0.0
  3
block 6
  1

  0
SPLINE
  5
FB
330
F7
100
AcDbEntity
  8
_U+30EC_U+30A4_U+30E4_U+30FC 1
370
     0
100
AcDbSpline
210
0.0
220
0.0
230
1.0
 70
    11
 71
     3
 72
    44
 73
    40
 74
     0
 42
0.0000000001
 43
0.0000000001
 12
1.0
 22
0.0
 32
0.0
 13
1.0
 23
0.0
 33
0.0
 40
0.0
 40
0.0
 40
0.0
 40
0.0
 40
1.0
 40
1.0
 40
1.0
 40
2.0
 40
2.0
 40
2.0
 40
3.0
 40
3.0
 40
3.0
 40
4.0
 40
4.0
 40
4.0
 40
5.0
 40
5.0
 40
5.0
 40
6.0
 40
6.0
 40
6.0
 40
7.0
 40
7.0
 40
7.0
 40
8.0
 40
8.0
 40
8.0
 40
9.0
 40
9.0
 40
9.0
 40
10.0
 40
10.0
 40
10.0
 40
11.0
 40
11.0
 40
11.0
 40
12.0
 40
12.0
 40
12.0
 40
13.0
 40
13.0
 40
13.0
 40
13.0
 10
93.37104489853225
 20
-146.1664441908889
 30
0.0
 10
93.15331486386445
 20
-146.325263092759
 30
0.0
 10
93.0602972857627
 20
-146.3993326456918
 30
0.0
 10
93.01137692987216
 20
-146.5429931274268
 30
0.0
 10
93.01137692987216
 20
-146.5429931274268
 30
0.0
 10
93.78996850953862
 20
-146.5429931274268
 30
0.0
 10
93.78996850953862
 20
-146.5429931274268
 30
0.0
 10
93.78996850953862
 20
-146.5429931274268
 30
0.0
 10
93.78996850953862
 20
-146.7483208183477
 30
0.0
 10
93.78996850953862
 20
-146.7483208183477
 30
0.0
 10
93.78996850953862
 20
-146.7483208183477
 30
0.0
 10
92.76195201674007
 20
-146.7483208183477
 30
0.0
 10
92.76195201674007
 20
-146.7483208183477
 30
0.0
 10
92.79364689520438
 20
-146.3907199069787
 30
0.0
 10
92.85910370942412
 20
-146.3125162394635
 30
0.0
 10
93.24426538467505
 20
-146.0141709704409
 30
0.0
 10
93.50023597922912
 20
-145.815388960942
 30
0.0
 10
93.56569279344886
 20
-145.7475205798826
 30
0.0
 10
93.56569279344886
 20
-145.6100612700211
 30
0.0
 10
93.56569279344886
 20
-145.4915499853285
 30
0.0
 10
93.49369029780713
 20
-145.360636356889
 30
0.0
 10
93.29697534559938
 20
-145.360636356889
 30
0.0
 10
93.03687063646301
 20
-145.360636356889
 30
0.0
 10
93.02825789774988
 20
-145.5911132448522
 30
0.0
 10
93.02412378316758
 20
-145.7075574722537
 30
0.0
 10
93.02412378316758
 20
-145.7075574722537
 30
0.0
 10
92.79984806707782
 20
-145.7075574722537
 30
0.0
 10
92.79984806707782
 20
-145.7075574722537
 30
0.0
 10
92.80846080579094
 20
-145.5804334488479
 30
0.0
 10
92.81914060179523
 20
-145.4684678455773
 30
0.0
 10
92.89941132660154
 20
-145.3499565608847
 30
0.0
 10
93.00930987258101
 20
-145.1890706017236
 30
0.0
 10
93.19568953833303
 20
-145.1553086659681
 30
0.0
 10
93.31178925618595
 20
-145.1553086659681
 30
0.0
 10
93.58911944274855
 20
-145.1553086659681
 30
0.0
 10
93.7965141909606
 20
-145.3392767648805
 30
0.0
 10
93.7965141909606
 20
-145.6121283273123
 30
0.0
 10
93.7965141909606
 20
-145.8408826675328
 30
0.0
 10
93.68006996355915
 20
-145.940101417508
 30
0.0
 10
93.37104489853225
 20
-146.1664441908889
 30
0.0
  0
HATCH
  5
FC
330
F7
100
AcDbEntity
  8
_U+30EC_U+30A4_U+30E4_U+30FC 1
 62
   179
420
  2234388
100
AcDbHatch
 10
0.0
 20
0.0
 30
0.0
210
0.0
220
0.0
230
1.0
  2
SOLID
 70
     1
 71
     0
 91
        1
 92
        1
 93
        1
 72
     4
 94
        3
 73
     0
 74
     1
 95
       44
 96
       40
 40
0.0
 40
0.0
 40
0.0
 40
0.0
 40
1.0
 40
1.0
 40
1.0
 40
2.0
 40
2.0
 40
2.0
 40
3.0
 40
3.0
 40
3.0
 40
4.0
 40
4.0
 40
4.0
 40
5.0
 40
5.0
 40
5.0
 40
6.0
 40
6.0
 40
6.0
 40
7.0
 40
7.0
 40
7.0
 40
8.0
 40
8.0
 40
8.0
 40
9.0
 40
9.0
 40
9.0
 40
10.0
 40
10.0
 40
10.0
 40
11.0
 40
11.0
 40
11.0
 40
12.0
 40
12.0
 40
12.0
 40
13.0
 40
13.0
 40
13.0
 40
13.0
 10
93.37104489853225
 20
-146.1664441908889
 10
93.15331486386445
 20
-146.325263092759
 10
93.0602972857627
 20
-146.3993326456918
 10
93.01137692987216
 20
-146.5429931274268
 10
93.01137692987216
 20
-146.5429931274268
 10
93.78996850953862
 20
-146.5429931274268
 10
93.78996850953862
 20
-146.5429931274268
 10
93.78996850953862
 20
-146.5429931274268
 10
93.78996850953862
 20
-146.7483208183477
 10
93.78996850953862
 20
-146.7483208183477
 10
93.78996850953862
 20
-146.7483208183477
 10
92.76195201674007
 20
-146.7483208183477
 10
92.76195201674007
 20
-146.7483208183477
 10
92.79364689520438
 20
-146.3907199069787
 10
92.85910370942412
 20
-146.3125162394635
 10
93.24426538467505
 20
-146.0141709704409
 10
93.50023597922912
 20
-145.815388960942
 10
93.56569279344886
 20
-145.7475205798826
 10
93.56569279344886
 20
-145.6100612700211
 10
93.56569279344886
 20
-145.4915499853285
 10
93.49369029780713
 20
-145.360636356889
 10
93.29697534559938
 20
-145.360636356889
 10
93.03687063646301
 20
-145.360636356889
 10
93.02825789774988
 20
-145.5911132448522
 10
93.02412378316758
 20
-145.7075574722537
 10
93.02412378316758
 20
-145.7075574722537
 10
92.79984806707782
 20
-145.7075574722537
 10
92.79984806707782
 20
-145.7075574722537
 10
92.80846080579094
 20
-145.5804334488479
 10
92.81914060179523
 20
-145.4684678455773
 10
92.89941132660154
 20
-145.3499565608847
 10
93.00930987258101
 20
-145.1890706017236
 10
93.19568953833303
 20
-145.1553086659681
 10
93.31178925618595
 20
-145.1553086659681
 10
93.58911944274855
 20
-145.1553086659681
 10
93.7965141909606
 20
-145.3392767648805
 10
93.7965141909606
 20
-145.6121283273123
 10
93.7965141909606
 20
-145.8408826675328
 10
93.68006996355915
 20
-145.940101417508
 10
93.37104489853225
 20
-146.1664441908889
 97
        0
 97
        0
 75
     2
 76
     1
 98
        0
  0
SPLINE
  5
FD
330
F7
100
AcDbEntity
  8
_U+30EC_U+30A4_U+30E4_U+30FC 1
370
     0
100
AcDbSpline
210
0.0
220
0.0
230
1.0
 70
    11
 71
     3
 72
    29
 73
    25
 74
     0
 42
0.0000000001
 43
0.0000000001
 12
1.0
 22
0.0
 32
0.0
 13
1.0
 23
0.0
 33
0.0
 40
0.0
 40
0.0
 40
0.0
 40
0.0
 40
1.0
 40
1.0
 40
1.0
 40
2.0
 40
2.0
 40
2.0
 40
3.0
 40
3.0
 40
3.0
 40
4.0
 40
4.0
 40
4.0
 40
5.0
 40
5.0
 40
5.0
 40
6.0
 40
6.0
 40
6.0
 40
7.0
 40
7.0
 40
7.0
 40
8.0
 40
8.0
 40
8.0
 40
8.0
 10
94.45487193819184
 20
-146.7989637219808
 30
0.0
 10
94.1882215476335
 20
-146.7989637219808
 30
0.0
 10
93.93431801037059
 20
-146.6615044121193
 30
0.0
 10
93.93431801037059
 20
-146.3125162394635
 30
0.0
 10
93.93431801037059
 20
-146.0565456449095
 30
0.0
 10
94.07625594436288
 20
-145.9614610095166
 30
0.0
 10
94.18202037576006
 20
-145.9001383098791
 30
0.0
 10
94.05730791919402
 20
-145.8408826675328
 30
0.0
 10
93.98117130896999
 20
-145.7265054974226
 30
0.0
 10
93.98117130896999
 20
-145.5656195382614
 30
0.0
 10
93.98117130896999
 20
-145.2907009185384
 30
0.0
 10
94.1799533184689
 20
-145.1553086659681
 30
0.0
 10
94.45487193819184
 20
-145.1553086659681
 30
0.0
 10
94.73840329662791
 20
-145.1553086659681
 30
0.0
 10
94.92891707696222
 20
-145.2993136572516
 30
0.0
 10
94.92891707696222
 20
-145.5656195382614
 30
0.0
 10
94.92891707696222
 20
-145.7265054974226
 30
0.0
 10
94.85036889989853
 20
-145.8408826675328
 30
0.0
 10
94.72565644333248
 20
-145.9001383098791
 30
0.0
 10
94.81453990685192
 20
-145.9507812135123
 30
0.0
 10
94.97335880872194
 20
-146.0458658489052
 30
0.0
 10
94.97335880872194
 20
-146.3083821248812
 30
0.0
 10
94.97335880872194
 20
-146.6828640041279
 30
0.0
 10
94.69396156486818
 20
-146.7989637219808
 30
0.0
 10
94.45487193819184
 20
-146.7989637219808
 30
0.0
  0
SPLINE
  5
FE
330
F7
100
AcDbEntity
  8
_U+30EC_U+30A4_U+30E4_U+30FC 1
370
     0
100
AcDbSpline
210
0.0
220
0.0
230
1.0
 70
    11
 71
     3
 72
    17
 73
    13
 74
     0
 42
0.0000000001
 43
0.0000000001
 12
1.0
 22
0.0
 32
0.0
 13
1.0
 23
0.0
 33
0.0
 40
0.0
 40
0.0
 40
0.0
 40
0.0
 40
1.0
 40
1.0
 40
1.0
 40
2.0
 40
2.0
 40
2.0
 40
3.0
 40
3.0
 40
3.0
 40
4.0
 40
4.0
 40
4.0
 40
4.0
 10
94.45487193819184
 20
-146.0079697985675
 30
0.0
 10
94.31121145645692
 20
-146.0079697985675
 30
0.0
 10
94.15859372646035
 20
-146.0947862047958
 30
0.0
 10
94.15859372646035
 20
-146.297702328877
 30
0.0
 10
94.15859372646035
 20
-146.5030300197978
 30
0.0
 10
94.28571774986608
 20
-146.6043158270642
 30
0.0
 10
94.45487193819184
 20
-146.6043158270642
 30
0.0
 10
94.64090709439533
 20
-146.6043158270642
 30
0.0
 10
94.75115014992333
 20
-146.4816704277893
 30
0.0
 10
94.75115014992333
 20
-146.3039035007504
 30
0.0
 10
94.75115014992333
 20
-146.0820393515003
 30
0.0
 10
94.58819713347101
 20
-146.0079697985675
 30
0.0
 10
94.45487193819184
 20
-146.0079697985675
 30
0.0
  0
SPLINE
  5
FF
330
F7
100
AcDbEntity
  8
_U+30EC_U+30A4_U+30E4_U+30FC 1
370
     0
100
AcDbSpline
210
0.0
220
0.0
230
1.0
 70
    11
 71
     3
 72
    17
 73
    13
 74
     0
 42
0.0000000001
 43
0.0000000001
 12
1.0
 22
0.0
 32
0.0
 13
1.0
 23
0.0
 33
0.0
 40
0.0
 40
0.0
 40
0.0
 40
0.0
 40
1.0
 40
1.0
 40
1.0
 40
2.0
 40
2.0
 40
2.0
 40
3.0
 40
3.0
 40
3.0
 40
4.0
 40
4.0
 40
4.0
 40
4.0
 10
94.45487193819184
 20
-145.3478895035936
 30
0.0
 10
94.28985186444838
 20
-145.3478895035936
 30
0.0
 10
94.20510251551123
 20
-145.4429741389865
 30
0.0
 10
94.20510251551123
 20
-145.5783663915568
 30
0.0
 10
94.20510251551123
 20
-145.7010117908317
 30
0.0
 10
94.27710501115295
 20
-145.8195230755243
 30
0.0
 10
94.45487193819184
 20
-145.8195230755243
 30
0.0
 10
94.63263886523073
 20
-145.8195230755243
 30
0.0
 10
94.70464136087246
 20
-145.7010117908317
 30
0.0
 10
94.70464136087246
 20
-145.5783663915568
 30
0.0
 10
94.70464136087246
 20
-145.4429741389865
 30
0.0
 10
94.61782495464416
 20
-145.3478895035936
 30
0.0
 10
94.45487193819184
 20
-145.3478895035936
 30
0.0
  0
HATCH
  5
100
330
F7
100
AcDbEntity
  8
_U+30EC_U+30A4_U+30E4_U+30FC 1
 62
   179
420
  2234388
100
AcDbHatch
 10
0.0
 20
0.0
 30
0.0
210
0.0
220
0.0
230
1.0
  2
SOLID
 70
     1
 71
     0
 91
        3
 92
        1
 93
        1
 72
     4
 94
        3
 73
     0
 74
     1
 95
       29
 96
       25
 40
0.0
 40
0.0
 40
0.0
 40
0.0
 40
1.0
 40
1.0
 40
1.0
 40
2.0
 40
2.0
 40
2.0
 40
3.0
 40
3.0
 40
3.0
 40
4.0
 40
4.0
 40
4.0
 40
5.0
 40
5.0
 40
5.0
 40
6.0
 40
6.0
 40
6.0
 40
7.0
 40
7.0
 40
7.0
 40
8.0
 40
8.0
 40
8.0
 40
8.0
 10
94.45487193819184
 20
-146.7989637219808
 10
94.1882215476335
 20
-146.7989637219808
 10
93.93431801037059
 20
-146.6615044121193
 10
93.93431801037059
 20
-146.3125162394635
 10
93.93431801037059
 20
-146.0565456449095
 10
94.07625594436288
 20
-145.9614610095166
 10
94.18202037576006
 20
-145.9001383098791
 10
94.05730791919402
 20
-145.8408826675328
 10
93.98117130896999
 20
-145.7265054974226
 10
93.98117130896999
 20
-145.5656195382614
 10
93.98117130896999
 20
-145.2907009185384
 10
94.1799533184689
 20
-145.1553086659681
 10
94.45487193819184
 20
-145.1553086659681
 10
94.73840329662791
 20
-145.1553086659681
 10
94.92891707696222
 20
-145.2993136572516
 10
94.92891707696222
 20
-145.5656195382614
 10
94.92891707696222
 20
-145.7265054974226
 10
94.85036889989853
 20
-145.8408826675328
 10
94.72565644333248
 20
-145.9001383098791
 10
94.81453990685192
 20
-145.9507812135123
 10
94.97335880872194
 20
-146.0458658489052
 10
94.97335880872194
 20
-146.3083821248812
 10
94.97335880872194
 20
-146.6828640041279
 10
94.69396156486818
 20
-146.7989637219808
 10
94.45487193819184
 20
-146.7989637219808
 97
        0
 97
        0
 92
        1
 93
        1
 72
     4
 94
        3
 73
     0
 74
     1
 95
       17
 96
       13
 40
0.0
 40
0.0
 40
0.0
 40
0.0
 40
1.0
 40
1.0
 40
1.0
 40
2.0
 40
2.0
 40
2.0
 40
3.0
 40
3.0
 40
3.0
 40
4.0
 40
4.0
 40
4.0
 40
4.0
 10
94.45487193819184
 20
-146.0079697985675
 10
94.31121145645692
 20
-146.0079697985675
 10
94.15859372646035
 20
-146.0947862047958
 10
94.15859372646035
 20
-146.297702328877
 10
94.15859372646035
 20
-146.5030300197978
 10
94.28571774986608
 20
-146.6043158270642
 10
94.45487193819184
 20
-146.6043158270642
 10
94.64090709439533
 20
-146.6043158270642
 10
94.75115014992333
 20
-146.4816704277893
 10
94.75115014992333
 20
-146.3039035007504
 10
94.75115014992333
 20
-146.0820393515003
 10
94.58819713347101
 20
-146.0079697985675
 10
94.45487193819184
 20
-146.0079697985675
 97
        0
 97
        0
 92
        1
 93
        1
 72
     4
 94
        3
 73
     0
 74
     1
 95
       17
 96
       13
 40
0.0
 40
0.0
 40
0.0
 40
0.0
 40
1.0
 40
1.0
 40
1.0
 40
2.0
 40
2.0
 40
2.0
 40
3.0
 40
3.0
 40
3.0
 40
4.0
 40
4.0
 40
4.0
 40
4.0
 10
94.45487193819184
 20
-145.3478895035936
 10
94.28985186444838
 20
-145.3478895035936
 10
94.20510251551123
 20
-145.4429741389865
 10
94.20510251551123
 20
-145.5783663915568
 10
94.20510251551123
 20
-145.7010117908317
 10
94.27710501115295
 20
-145.8195230755243
 10
94.45487193819184
 20
-145.8195230755243
 10
94.63263886523073
 20
-145.8195230755243
 10
94.70464136087246
 20
-145.7010117908317
 10
94.70464136087246
 20
-145.5783663915568
 10
94.70464136087246
 20
-145.4429741389865
 10
94.61782495464416
 20
-145.3478895035936
 10
94.45487193819184
 20
-145.3478895035936
 97
        0
 97
        0
 75
     2
 76
     1
 98
        0
  0
ENDBLK
  5
FA
330
F7
100
AcDbEntity
  8
0
100
AcDbBlockEnd
  0
BLOCK
  5
10F
330
10D
100
AcDbEntity
  8
0
100
AcDbBlockBegin
  2
block 7
 70
     0
 10
0.0
 20
0.0
 30
0.0
  3
block 7
  1

  0
SPLINE
  5
111
330
10D
100
AcDbEntity
  8
_U+30EC_U+30A4_U+30E4_U+30FC 1
370
     0
100
AcDbSpline
210
0.0
220
0.0
230
1.0
 70
    11
 71
     3
 72
    44
 73
    40
 74
     0
 42
0.0000000001
 43
0.0000000001
 12
1.0
 22
0.0
 32
0.0
 13
1.0
 23
0.0
 33
0.0
 40
0.0
 40
0.0
 40
0.0
 40
0.0
 40
1.0
 40
1.0
 40
1.0
 40
2.0
 40
2.0
 40
2.0
 40
3.0
 40
3.0
 40
3.0
 40
4.0
 40
4.0
 40
4.0
 40
5.0
 40
5.0
 40
5.0
 40
6.0
 40
6.0
 40
6.0
 40
7.0
 40
7.0
 40
7.0
 40
8.0
 40
8.0
 40
8.0
 40
9.0
 40
9.0
 40
9.0
 40
10.0
 40
10.0
 40
10.0
 40
11.0
 40
11.0
 40
11.0
 40
12.0
 40
12.0
 40
12.0
 40
13.0
 40
13.0
 40
13.0
 40
13.0
 10
74.64763995529643
 20
-130.0330620334639
 30
0.0
 10
74.80628660239218
 20
-130.2507920681317
 30
0.0
 10
74.88035615532506
 20
-130.3438096462335
 30
0.0
 10
75.02418889183423
 20
-130.392730002124
 30
0.0
 10
75.02418889183423
 20
-130.392730002124
 30
0.0
 10
75.02418889183423
 20
-129.6141384224576
 30
0.0
 10
75.02418889183423
 20
-129.6141384224576
 30
0.0
 10
75.02418889183423
 20
-129.6141384224576
 30
0.0
 10
75.22934432798087
 20
-129.6141384224576
 30
0.0
 10
75.22934432798087
 20
-129.6141384224576
 30
0.0
 10
75.22934432798087
 20
-129.6141384224576
 30
0.0
 10
75.22934432798087
 20
-130.6421549152561
 30
0.0
 10
75.22934432798087
 20
-130.6421549152561
 30
0.0
 10
74.87174341661193
 20
-130.6104600367918
 30
0.0
 10
74.79353974909675
 20
-130.5450032225721
 30
0.0
 10
74.49519448007412
 20
-130.1598415473212
 30
0.0
 10
74.2964124705752
 20
-129.9038709527671
 30
0.0
 10
74.22871634429005
 20
-129.8384141385473
 30
0.0
 10
74.09125703442858
 20
-129.8384141385473
 30
0.0
 10
73.97274574973598
 20
-129.8384141385473
 30
0.0
 10
73.84165986652222
 20
-129.9104166341891
 30
0.0
 10
73.84165986652222
 20
-130.1071315863968
 30
0.0
 10
73.84165986652222
 20
-130.3672362955332
 30
0.0
 10
74.07213675448544
 20
-130.3758490342463
 30
0.0
 10
74.18858098188689
 20
-130.3799831488286
 30
0.0
 10
74.18858098188689
 20
-130.3799831488286
 30
0.0
 10
74.18858098188689
 20
-130.6042588649184
 30
0.0
 10
74.18858098188689
 20
-130.6042588649184
 30
0.0
 10
74.06162921325543
 20
-130.5956461262053
 30
0.0
 10
73.94949135521054
 20
-130.584966330201
 30
0.0
 10
73.83098007051795
 20
-130.5046956053947
 30
0.0
 10
73.67026636613105
 20
-130.3947970594152
 30
0.0
 10
73.63633217560134
 20
-130.2084173936632
 30
0.0
 10
73.63633217560134
 20
-130.0923176758102
 30
0.0
 10
73.63633217560134
 20
-129.8149874892476
 30
0.0
 10
73.82047252928794
 20
-129.6075927410356
 30
0.0
 10
74.09332409171972
 20
-129.6075927410356
 30
0.0
 10
74.32173392239179
 20
-129.6075927410356
 30
0.0
 10
74.4212971819155
 20
-129.724036968437
 30
0.0
 10
74.64763995529643
 20
-130.0330620334639
 30
0.0
  0
HATCH
  5
112
330
10D
100
AcDbEntity
  8
_U+30EC_U+30A4_U+30E4_U+30FC 1
 62
   179
420
  2234388
100
AcDbHatch
 10
0.0
 20
0.0
 30
0.0
210
0.0
220
0.0
230
1.0
  2
SOLID
 70
     1
 71
     0
 91
        1
 92
        1
 93
        1
 72
     4
 94
        3
 73
     0
 74
     1
 95
       44
 96
       40
 40
0.0
 40
0.0
 40
0.0
 40
0.0
 40
1.0
 40
1.0
 40
1.0
 40
2.0
 40
2.0
 40
2.0
 40
3.0
 40
3.0
 40
3.0
 40
4.0
 40
4.0
 40
4.0
 40
5.0
 40
5.0
 40
5.0
 40
6.0
 40
6.0
 40
6.0
 40
7.0
 40
7.0
 40
7.0
 40
8.0
 40
8.0
 40
8.0
 40
9.0
 40
9.0
 40
9.0
 40
10.0
 40
10.0
 40
10.0
 40
11.0
 40
11.0
 40
11.0
 40
12.0
 40
12.0
 40
12.0
 40
13.0
 40
13.0
 40
13.0
 40
13.0
 10
74.64763995529643
 20
-130.0330620334639
 10
74.80628660239218
 20
-130.2507920681317
 10
74.88035615532506
 20
-130.3438096462335
 10
75.02418889183423
 20
-130.392730002124
 10
75.02418889183423
 20
-130.392730002124
 10
75.02418889183423
 20
-129.6141384224576
 10
75.02418889183423
 20
-129.6141384224576
 10
75.02418889183423
 20
-129.6141384224576
 10
75.22934432798087
 20
-129.6141384224576
 10
75.22934432798087
 20
-129.6141384224576
 10
75.22934432798087
 20
-129.6141384224576
 10
75.22934432798087
 20
-130.6421549152561
 10
75.22934432798087
 20
-130.6421549152561
 10
74.87174341661193
 20
-130.6104600367918
 10
74.79353974909675
 20
-130.5450032225721
 10
74.49519448007412
 20
-130.1598415473212
 10
74.2964124705752
 20
-129.9038709527671
 10
74.22871634429005
 20
-129.8384141385473
 10
74.09125703442858
 20
-129.8384141385473
 10
73.97274574973598
 20
-129.8384141385473
 10
73.84165986652222
 20
-129.9104166341891
 10
73.84165986652222
 20
-130.1071315863968
 10
73.84165986652222
 20
-130.3672362955332
 10
74.07213675448544
 20
-130.3758490342463
 10
74.18858098188689
 20
-130.3799831488286
 10
74.18858098188689
 20
-130.3799831488286
 10
74.18858098188689
 20
-130.6042588649184
 10
74.18858098188689
 20
-130.6042588649184
 10
74.06162921325543
 20
-130.5956461262053
 10
73.94949135521054
 20
-130.584966330201
 10
73.83098007051795
 20
-130.5046956053947
 10
73.67026636613105
 20
-130.3947970594152
 10
73.63633217560134
 20
-130.2084173936632
 10
73.63633217560134
 20
-130.0923176758102
 10
73.63633217560134
 20
-129.8149874892476
 10
73.82047252928794
 20
-129.6075927410356
 10
74.09332409171972
 20
-129.6075927410356
 10
74.32173392239179
 20
-129.6075927410356
 10
74.4212971819155
 20
-129.724036968437
 10
74.64763995529643
 20
-130.0330620334639
 97
        0
 97
        0
 75
     2
 76
     1
 98
        0
  0
SPLINE
  5
113
330
10D
100
AcDbEntity
  8
_U+30EC_U+30A4_U+30E4_U+30FC 1
370
     0
100
AcDbSpline
210
0.0
220
0.0
230
1.0
 70
    11
 71
     3
 72
    29
 73
    25
 74
     0
 42
0.0000000001
 43
0.0000000001
 12
1.0
 22
0.0
 32
0.0
 13
1.0
 23
0.0
 33
0.0
 40
0.0
 40
0.0
 40
0.0
 40
0.0
 40
1.0
 40
1.0
 40
1.0
 40
2.0
 40
2.0
 40
2.0
 40
3.0
 40
3.0
 40
3.0
 40
4.0
 40
4.0
 40
4.0
 40
5.0
 40
5.0
 40
5.0
 40
6.0
 40
6.0
 40
6.0
 40
7.0
 40
7.0
 40
7.0
 40
8.0
 40
8.0
 40
8.0
 40
8.0
 10
75.2801594863883
 20
-128.9492349938044
 30
0.0
 10
75.2801594863883
 20
-129.2158853843627
 30
0.0
 10
75.14252792175256
 20
-129.4697889216256
 30
0.0
 10
74.79353974909675
 20
-129.4697889216256
 30
0.0
 10
74.5375691545427
 20
-129.4697889216256
 30
0.0
 10
74.44231226437553
 20
-129.3278509876333
 30
0.0
 10
74.38098956473809
 20
-129.2220865562361
 30
0.0
 10
74.32173392239179
 20
-129.3467990128022
 30
0.0
 10
74.20752900705575
 20
-129.4229356230262
 30
0.0
 10
74.04681530266886
 20
-129.4229356230262
 30
0.0
 10
73.77172442817165
 20
-129.4229356230262
 30
0.0
 10
73.63633217560134
 20
-129.2241536135273
 30
0.0
 10
73.63633217560134
 20
-128.9492349938044
 30
0.0
 10
73.63633217560134
 20
-128.6657036353683
 30
0.0
 10
73.78016491211052
 20
-128.475189855034
 30
0.0
 10
74.04681530266886
 20
-128.475189855034
 30
0.0
 10
74.20752900705575
 20
-128.475189855034
 30
0.0
 10
74.32173392239179
 20
-128.5537380320977
 30
0.0
 10
74.38098956473809
 20
-128.6784504886637
 30
0.0
 10
74.43180472314552
 20
-128.5895670251443
 30
0.0
 10
74.52706161331268
 20
-128.4307481232743
 30
0.0
 10
74.78940563451445
 20
-128.4307481232743
 30
0.0
 10
75.16371525898685
 20
-128.4307481232743
 30
0.0
 10
75.2801594863883
 20
-128.710145367128
 30
0.0
 10
75.2801594863883
 20
-128.9492349938044
 30
0.0
  0
SPLINE
  5
114
330
10D
100
AcDbEntity
  8
_U+30EC_U+30A4_U+30E4_U+30FC 1
370
     0
100
AcDbSpline
210
0.0
220
0.0
230
1.0
 70
    11
 71
     3
 72
    17
 73
    13
 74
     0
 42
0.0000000001
 43
0.0000000001
 12
1.0
 22
0.0
 32
0.0
 13
1.0
 23
0.0
 33
0.0
 40
0.0
 40
0.0
 40
0.0
 40
0.0
 40
1.0
 40
1.0
 40
1.0
 40
2.0
 40
2.0
 40
2.0
 40
3.0
 40
3.0
 40
3.0
 40
4.0
 40
4.0
 40
4.0
 40
4.0
 10
73.82891301322681
 20
-128.9492349938044
 30
0.0
 10
73.82891301322681
 20
-129.1142550675478
 30
0.0
 10
73.9239976486197
 20
-129.199004416485
 30
0.0
 10
74.05938990119002
 20
-129.199004416485
 30
0.0
 10
74.18220755523917
 20
-129.199004416485
 30
0.0
 10
74.30071883993176
 20
-129.1270019208432
 30
0.0
 10
74.30071883993176
 20
-128.9492349938044
 30
0.0
 10
74.30071883993176
 20
-128.7714680667655
 30
0.0
 10
74.18220755523917
 20
-128.6994655711237
 30
0.0
 10
74.05938990119002
 20
-128.6994655711237
 30
0.0
 10
73.9239976486197
 20
-128.6994655711237
 30
0.0
 10
73.82891301322681
 20
-128.786281977352
 30
0.0
 10
73.82891301322681
 20
-128.9492349938044
 30
0.0
  0
SPLINE
  5
115
330
10D
100
AcDbEntity
  8
_U+30EC_U+30A4_U+30E4_U+30FC 1
370
     0
100
AcDbSpline
210
0.0
220
0.0
230
1.0
 70
    11
 71
     3
 72
    17
 73
    13
 74
     0
 42
0.0000000001
 43
0.0000000001
 12
1.0
 22
0.0
 32
0.0
 13
1.0
 23
0.0
 33
0.0
 40
0.0
 40
0.0
 40
0.0
 40
0.0
 40
1.0
 40
1.0
 40
1.0
 40
2.0
 40
2.0
 40
2.0
 40
3.0
 40
3.0
 40
3.0
 40
4.0
 40
4.0
 40
4.0
 40
4.0
 10
74.48899330820068
 20
-128.9492349938044
 30
0.0
 10
74.48899330820068
 20
-129.0928954755393
 30
0.0
 10
74.5756374596547
 20
-129.2455132055358
 30
0.0
 10
74.77872583851018
 20
-129.2455132055358
 30
0.0
 10
74.98388127465681
 20
-129.2455132055358
 30
0.0
 10
75.08551159147169
 20
-129.1183891821301
 30
0.0
 10
75.08551159147169
 20
-128.9492349938044
 30
0.0
 10
75.08551159147169
 20
-128.7631998376009
 30
0.0
 10
74.96286619219678
 20
-128.6529567820729
 30
0.0
 10
74.7850992651579
 20
-128.6529567820729
 30
0.0
 10
74.56289060635928
 20
-128.6529567820729
 30
0.0
 10
74.48899330820068
 20
-128.8159097985252
 30
0.0
 10
74.48899330820068
 20
-128.9492349938044
 30
0.0
  0
HATCH
  5
116
330
10D
100
AcDbEntity
  8
_U+30EC_U+30A4_U+30E4_U+30FC 1
 62
   179
420
  2234388
100
AcDbHatch
 10
0.0
 20
0.0
 30
0.0
210
0.0
220
0.0
230
1.0
  2
SOLID
 70
     1
 71
     0
 91
        3
 92
        1
 93
        1
 72
     4
 94
        3
 73
     0
 74
     1
 95
       29
 96
       25
 40
0.0
 40
0.0
 40
0.0
 40
0.0
 40
1.0
 40
1.0
 40
1.0
 40
2.0
 40
2.0
 40
2.0
 40
3.0
 40
3.0
 40
3.0
 40
4.0
 40
4.0
 40
4.0
 40
5.0
 40
5.0
 40
5.0
 40
6.0
 40
6.0
 40
6.0
 40
7.0
 40
7.0
 40
7.0
 40
8.0
 40
8.0
 40
8.0
 40
8.0
 10
75.2801594863883
 20
-128.9492349938044
 10
75.2801594863883
 20
-129.2158853843627
 10
75.14252792175256
 20
-129.4697889216256
 10
74.79353974909675
 20
-129.4697889216256
 10
74.5375691545427
 20
-129.4697889216256
 10
74.44231226437553
 20
-129.3278509876333
 10
74.38098956473809
 20
-129.2220865562361
 10
74.32173392239179
 20
-129.3467990128022
 10
74.20752900705575
 20
-129.4229356230262
 10
74.04681530266886
 20
-129.4229356230262
 10
73.77172442817165
 20
-129.4229356230262
 10
73.63633217560134
 20
-129.2241536135273
 10
73.63633217560134
 20
-128.9492349938044
 10
73.63633217560134
 20
-128.6657036353683
 10
73.78016491211052
 20
-128.475189855034
 10
74.04681530266886
 20
-128.475189855034
 10
74.20752900705575
 20
-128.475189855034
 10
74.32173392239179
 20
-128.5537380320977
 10
74.38098956473809
 20
-128.6784504886637
 10
74.43180472314552
 20
-128.5895670251443
 10
74.52706161331268
 20
-128.4307481232743
 10
74.78940563451445
 20
-128.4307481232743
 10
75.16371525898685
 20
-128.4307481232743
 10
75.2801594863883
 20
-128.710145367128
 10
75.2801594863883
 20
-128.9492349938044
 97
        0
 97
        0
 92
        1
 93
        1
 72
     4
 94
        3
 73
     0
 74
     1
 95
       17
 96
       13
 40
0.0
 40
0.0
 40
0.0
 40
0.0
 40
1.0
 40
1.0
 40
1.0
 40
2.0
 40
2.0
 40
2.0
 40
3.0
 40
3.0
 40
3.0
 40
4.0
 40
4.0
 40
4.0
 40
4.0
 10
73.82891301322681
 20
-128.9492349938044
 10
73.82891301322681
 20
-129.1142550675478
 10
73.9239976486197
 20
-129.199004416485
 10
74.05938990119002
 20
-129.199004416485
 10
74.18220755523917
 20
-129.199004416485
 10
74.30071883993176
 20
-129.1270019208432
 10
74.30071883993176
 20
-128.9492349938044
 10
74.30071883993176
 20
-128.7714680667655
 10
74.18220755523917
 20
-128.6994655711237
 10
74.05938990119002
 20
-128.6994655711237
 10
73.9239976486197
 20
-128.6994655711237
 10
73.82891301322681
 20
-128.786281977352
 10
73.82891301322681
 20
-128.9492349938044
 97
        0
 97
        0
 92
        1
 93
        1
 72
     4
 94
        3
 73
     0
 74
     1
 95
       17
 96
       13
 40
0.0
 40
0.0
 40
0.0
 40
0.0
 40
1.0
 40
1.0
 40
1.0
 40
2.0
 40
2.0
 40
2.0
 40
3.0
 40
3.0
 40
3.0
 40
4.0
 40
4.0
 40
4.0
 40
4.0
 10
74.48899330820068
 20
-128.9492349938044
 10
74.48899330820068
 20
-129.0928954755393
 10
74.5756374596547
 20
-129.2455132055358
 10
74.77872583851018
 20
-129.2455132055358
 10
74.98388127465681
 20
-129.2455132055358
 10
75.08551159147169
 20
-129.1183891821301
 10
75.08551159147169
 20
-128.9492349938044
 10
75.08551159147169
 20
-128.7631998376009
 10
74.96286619219678
 20
-128.6529567820729
 10
74.7850992651579
 20
-128.6529567820729
 10
74.56289060635928
 20
-128.6529567820729
 10
74.48899330820068
 20
-128.8159097985252
 10
74.48899330820068
 20
-128.9492349938044
 97
        0
 97
        0
 75
     2
 76
     1
 98
        0
  0
ENDBLK
  5
110
330
10D
100
AcDbEntity
  8
0
100
AcDbBlockEnd
  0
ENDSEC
  0
SECTION
  2
ENTITIES
  0
INSERT
  5
42
330
1F
100
AcDbEntity
  8
_U+30EC_U+30A4_U+30E4_U+30FC 1
100
AcDbBlockReference
  2
block 2
 10
0.0
 20
0.0
 30
0.0
  0
ENDSEC
  0
SECTION
  2
OBJECTS
  0
DICTIONARY
  5
C
330
0
100
AcDbDictionary
281
     1
  3
ACAD_GROUP
350
D
  3
ACAD_LAYOUT
350
1A
  3
ACAD_MATERIAL
350
3B
  3
ACAD_MLEADERSTYLE
350
118
  3
ACAD_MLINESTYLE
350
17
  3
ACAD_PLOTSETTINGS
350
19
  3
ACAD_PLOTSTYLENAME
350
E
  3
ACAD_TABLESTYLE
350
117
  3
ACAD_VISUALSTYLE
350
2A
  0
SUN
  5
3F
330
29
100
AcDbSun
 90
        1
290
     0
 63
     7
421
 16777215
 40
1.0
291
     1
 91
  2455826
 92
 54000000
292
     0
 70
     2
 71
   256
280
     1
  0
DICTIONARY
  5
D
102
{ACAD_REACTORS
330
C
102
}
330
C
100
AcDbDictionary
281
     1
  0
DICTIONARY
  5
1A
102
{ACAD_REACTORS
330
C
102
}
330
C
100
AcDbDictionary
281
     1
  3
Layout1
350
1E
  3
Layout2
350
26
  3
Model
350
22
  0
DICTIONARY
  5
3B
102
{ACAD_REACTORS
330
C
102
}
330
C
100
AcDbDictionary
281
     1
  3
ByBlock
350
3D
  3
ByLayer
350
3C
  3
Global
350
3E
  0
DICTIONARY
  5
118
102
{ACAD_REACTORS
330
C
102
}
330
C
100
AcDbDictionary
281
     1
  0
DICTIONARY
  5
17
102
{ACAD_REACTORS
330
C
102
}
330
C
100
AcDbDictionary
281
     1
  3
Standard
350
18
  0
DICTIONARY
  5
19
102
{ACAD_REACTORS
330
C
102
}
330
C
100
AcDbDictionary
281
     1
  0
ACDBDICTIONARYWDFLT
  5
E
102
{ACAD_REACTORS
330
C
102
}
330
C
100
AcDbDictionary
281
     1
  3
Normal
350
F
100
AcDbDictionaryWithDefault
340
F
  0
DICTIONARY
  5
117
102
{ACAD_REACTORS
330
C
102
}
330
C
100
AcDbDictionary
281
     1
  0
DICTIONARY
  5
2A
102
{ACAD_REACTORS
330
C
102
}
330
C
100
AcDbDictionary
281
     1
  3
2dWireframe
350
2F
  3
3D Hidden
350
31
  3
3dWireframe
350
30
  3
Basic
350
32
  3
Brighten
350
36
  3
ColorChange
350
3A
  3
Conceptual
350
34
  3
Dim
350
35
  3
Facepattern
350
39
  3
Flat
350
2B
  3
FlatWithEdges
350
2C
  3
Gouraud
350
2D
  3
GouraudWithEdges
350
2E
  3
Linepattern
350
38
  3
Realistic
350
33
  3
Thicken
350
37
  0
LAYOUT
  5
1E
102
{ACAD_REACTORS
330
1A
102
}
330
1A
100
AcDbPlotSettings
  1

  2
none_device
  4

  6

 40
0.0
 41
0.0
 42
0.0
 43
0.0
 44
0.0
 45
0.0
 46
0.0
 47
0.0
 48
0.0
 49
0.0
140
0.0
141
0.0
142
1.0
143
1.0
 70
   688
 72
     0
 73
     0
 74
     5
  7

 75
    16
 76
     0
 77
     2
 78
   300
147
1.0
148
0.0
149
0.0
100
AcDbLayout
  1
Layout1
 70
     1
 71
     1
 10
0.0
 20
0.0
 11
12.0
 21
9.0
 12
0.0
 22
0.0
 32
0.0
 14
1.000000000000000E+20
 24
1.000000000000000E+20
 34
1.000000000000000E+20
 15
-1.000000000000000E+20
 25
-1.000000000000000E+20
 35
-1.000000000000000E+20
146
0.0
 13
0.0
 23
0.0
 33
0.0
 16
1.0
 26
0.0
 36
0.0
 17
0.0
 27
1.0
 37
0.0
 76
     0
330
1B
  0
LAYOUT
  5
26
102
{ACAD_REACTORS
330
1A
102
}
330
1A
100
AcDbPlotSettings
  1

  2
none_device
  4

  6

 40
0.0
 41
0.0
 42
0.0
 43
0.0
 44
0.0
 45
0.0
 46
0.0
 47
0.0
 48
0.0
 49
0.0
140
0.0
141
0.0
142
1.0
143
1.0
 70
   688
 72
     0
 73
     0
 74
     5
  7

 75
    16
 76
     0
 77
     2
 78
   300
147
1.0
148
0.0
149
0.0
100
AcDbLayout
  1
Layout2
 70
     1
 71
     2
 10
0.0
 20
0.0
 11
0.0
 21
0.0
 12
0.0
 22
0.0
 32
0.0
 14
0.0
 24
0.0
 34
0.0
 15
0.0
 25
0.0
 35
0.0
146
0.0
 13
0.0
 23
0.0
 33
0.0
 16
1.0
 26
0.0
 36
0.0
 17
0.0
 27
1.0
 37
0.0
 76
     0
330
23
  0
LAYOUT
  5
22
102
{ACAD_REACTORS
330
1A
102
}
330
1A
100
AcDbPlotSettings
  1

  2
none_device
  4

  6

 40
0.0
 41
0.0
 42
0.0
 43
0.0
 44
0.0
 45
0.0
 46
0.0
 47
0.0
 48
0.0
 49
0.0
140
0.0
141
0.0
142
1.0
143
1.0
 70
  1712
 72
     0
 73
     0
 74
     0
  7

 75
     0
 76
     0
 77
     2
 78
   300
147
1.0
148
0.0
149
0.0
100
AcDbLayout
  1
Model
 70
     1
 71
     0
 10
0.0
 20
0.0
 11
12.0
 21
9.0
 12
0.0
 22
0.0
 32
0.0
 14
1.000000000000000E+20
 24
1.000000000000000E+20
 34
1.000000000000000E+20
 15
-1.000000000000000E+20
 25
-1.000000000000000E+20
 35
-1.000000000000000E+20
146
0.0
 13
0.0
 23
0.0
 33
0.0
 16
1.0
 26
0.0
 36
0.0
 17
0.0
 27
1.0
 37
0.0
 76
     0
330
1F
331
29
  0
MATERIAL
  5
3D
102
{ACAD_REACTORS
330
3B
102
}
330
3B
100
AcDbMaterial
  1
ByBlock
 72
     1
 94
      127
  0
MATERIAL
  5
3C
102
{ACAD_REACTORS
330
3B
102
}
330
3B
100
AcDbMaterial
  1
ByLayer
 72
     1
 94
      127
  0
MATERIAL
  5
3E
102
{ACAD_REACTORS
330
3B
102
}
330
3B
100
AcDbMaterial
  1
Global
 72
     1
 94
      127
  0
MLINESTYLE
  5
18
102
{ACAD_REACTORS
330
17
102
}
330
17
100
AcDbMlineStyle
  2
Standard
 70
     0
  3

 62
   256
 51
90.0
 52
90.0
 71
     2
 49
0.5
 62
   256
  6
BYLAYER
 49
-0.5
 62
   256
  6
BYLAYER
  0
ACDBPLACEHOLDER
  5
F
102
{ACAD_REACTORS
330
E
102
}
330
E
  0
VISUALSTYLE
  5
2F
102
{ACAD_REACTORS
330
2A
102
}
330
2A
100
AcDbVisualStyle
  2
2dWireframe
 70
     4
177
     2
291
     0
 71
     0
176
     1
 72
     2
176
     1
 73
     0
176
     1
 90
        0
176
     1
 40
-0.6
176
     1
 41
-30.0
176
     1
 62
     5
 63
     7
421
 16777215
176
     1
 74
     1
176
     1
 91
        4
176
     1
 64
     7
176
     1
 65
   257
176
     1
 75
     1
176
     1
175
     1
176
     1
 42
1.0
176
     1
 92
        0
176
     1
 66
   257
176
     1
 43
1.0
176
     1
 76
     1
176
     1
 77
     6
176
     1
 78
     2
176
     1
 67
     7
176
     1
 79
     5
176
     1
170
     0
176
     1
171
     0
176
     1
290
     0
176
     1
 93
        1
176
     1
 44
0.0
176
     1
173
     0
176
     1
  0
VISUALSTYLE
  5
31
102
{ACAD_REACTORS
330
2A
102
}
330
2A
100
AcDbVisualStyle
  2
3D Hidden
 70
     6
177
     2
291
     0
 71
     1
176
     1
 72
     2
176
     1
 73
     2
176
     1
 90
        0
176
     1
 40
-0.6
176
     1
 41
-30.0
176
     1
 62
     5
 63
     7
421
 16777215
176
     1
 74
     2
176
     1
 91
        2
176
     1
 64
     7
176
     1
 65
   257
176
     1
 75
     2
176
     1
175
     1
176
     1
 42
40.0
176
     1
 92
        0
176
     1
 66
   257
176
     1
 43
1.0
176
     1
 76
     1
176
     1
 77
     6
176
     1
 78
     2
176
     1
 67
     7
176
     1
 79
     3
176
     1
170
     0
176
     1
171
     0
176
     1
290
     0
176
     1
 93
        1
176
     1
 44
0.0
176
     1
173
     0
176
     1
  0
VISUALSTYLE
  5
30
102
{ACAD_REACTORS
330
2A
102
}
330
2A
100
AcDbVisualStyle
  2
3dWireframe
 70
     5
177
     2
291
     0
 71
     0
176
     1
 72
     2
176
     1
 73
     0
176
     1
 90
        0
176
     1
 40
-0.6
176
     1
 41
-30.0
176
     1
 62
     5
 63
     7
421
 16777215
176
     1
 74
     1
176
     1
 91
        4
176
     1
 64
     7
176
     1
 65
   257
176
     1
 75
     1
176
     1
175
     1
176
     1
 42
1.0
176
     1
 92
        0
176
     1
 66
   257
176
     1
 43
1.0
176
     1
 76
     1
176
     1
 77
     6
176
     1
 78
     2
176
     1
 67
     7
176
     1
 79
     5
176
     1
170
     0
176
     1
171
     0
176
     1
290
     0
176
     1
 93
        1
176
     1
 44
0.0
176
     1
173
     0
176
     1
  0
VISUALSTYLE
  5
32
102
{ACAD_REACTORS
330
2A
102
}
330
2A
100
AcDbVisualStyle
  2
Basic
 70
     7
177
     2
291
     1
 71
     1
176
     1
 72
     0
176
     1
 73
     1
176
     1
 90
        0
176
     1
 40
-0.6
176
     1
 41
-30.0
176
     1
 62
     5
 63
     7
421
 16777215
176
     1
 74
     0
176
     1
 91
        4
176
     1
 64
     7
176
     1
 65
   257
176
     1
 75
     1
176
     1
175
     1
176
     1
 42
1.0
176
     1
 92
        8
176
     1
 66
     7
176
     1
 43
1.0
176
     1
 76
     1
176
     1
 77
     6
176
     1
 78
     2
176
     1
 67
     7
176
     1
 79
     5
176
     1
170
     0
176
     1
171
     0
176
     1
290
     0
176
     1
 93
        1
176
     1
 44
0.0
176
     1
173
     0
176
     1
  0
VISUALSTYLE
  5
36
102
{ACAD_REACTORS
330
2A
102
}
330
2A
100
AcDbVisualStyle
  2
Brighten
 70
    12
177
     2
291
     1
 71
     2
176
     1
 72
     2
176
     1
 73
     0
176
     1
 90
        0
176
     1
 40
-0.6
176
     1
 41
-30.0
176
     1
 62
     5
 63
     7
421
 16777215
176
     1
 74
     1
176
     1
 91
        4
176
     1
 64
     7
176
     1
 65
   257
176
     1
 75
     1
176
     1
175
     1
176
     1
 42
1.0
176
     1
 92
        8
176
     1
 66
     7
176
     1
 43
1.0
176
     1
 76
     1
176
     1
 77
     6
176
     1
 78
     2
176
     1
 67
     7
176
     1
 79
     5
176
     1
170
     0
176
     1
171
     0
176
     1
290
     0
176
     1
 93
        1
176
     1
 44
50.0
176
     1
173
     0
176
     1
  0
VISUALSTYLE
  5
3A
102
{ACAD_REACTORS
330
2A
102
}
330
2A
100
AcDbVisualStyle
  2
ColorChange
 70
    16
177
     2
291
     1
 71
     2
176
     1
 72
     2
176
     1
 73
     3
176
     1
 90
        0
176
     1
 40
-0.6
176
     1
 41
-30.0
176
     1
 62
     5
 63
     8
421
  8421504
176
     1
 74
     1
176
     1
 91
        4
176
     1
 64
     7
176
     1
 65
   257
176
     1
 75
     1
176
     1
175
     1
176
     1
 42
1.0
176
     1
 92
        8
176
     1
 66
     8
424
  8421504
176
     1
 43
1.0
176
     1
 76
     1
176
     1
 77
     6
176
     1
 78
     2
176
     1
 67
     7
176
     1
 79
     5
176
     1
170
     0
176
     1
171
     0
176
     1
290
     0
176
     1
 93
        1
176
     1
 44
0.0
176
     1
173
     0
176
     1
  0
VISUALSTYLE
  5
34
102
{ACAD_REACTORS
330
2A
102
}
330
2A
100
AcDbVisualStyle
  2
Conceptual
 70
     9
177
     2
291
     0
 71
     3
176
     1
 72
     2
176
     1
 73
     0
176
     1
 90
        0
176
     1
 40
-0.6
176
     1
 41
-30.0
176
     1
 62
     5
 63
     7
421
 16777215
176
     1
 74
     2
176
     1
 91
        2
176
     1
 64
     7
176
     1
 65
   257
176
     1
 75
     1
176
     1
175
     1
176
     1
 42
40.0
176
     1
 92
        8
176
     1
 66
     7
176
     1
 43
1.0
176
     1
 76
     1
176
     1
 77
     6
176
     1
 78
     2
176
     1
 67
     7
176
     1
 79
     3
176
     1
170
     0
176
     1
171
     0
176
     1
290
     0
176
     1
 93
        1
176
     1
 44
0.0
176
     1
173
     0
176
     1
  0
VISUALSTYLE
  5
35
102
{ACAD_REACTORS
330
2A
102
}
330
2A
100
AcDbVisualStyle
  2
Dim
 70
    11
177
     2
291
     1
 71
     2
176
     1
 72
     2
176
     1
 73
     0
176
     1
 90
        0
176
     1
 40
-0.6
176
     1
 41
-30.0
176
     1
 62
     5
 63
     7
421
 16777215
176
     1
 74
     1
176
     1
 91
        4
176
     1
 64
     7
176
     1
 65
   257
176
     1
 75
     1
176
     1
175
     1
176
     1
 42
1.0
176
     1
 92
        8
176
     1
 66
     7
176
     1
 43
1.0
176
     1
 76
     1
176
     1
 77
     6
176
     1
 78
     2
176
     1
 67
     7
176
     1
 79
     5
176
     1
170
     0
176
     1
171
     0
176
     1
290
     0
176
     1
 93
        1
176
     1
 44
-50.0
176
     1
173
     0
176
     1
  0
VISUALSTYLE
  5
39
102
{ACAD_REACTORS
330
2A
102
}
330
2A
100
AcDbVisualStyle
  2
Facepattern
 70
    15
177
     2
291
     1
 71
     2
176
     1
 72
     2
176
     1
 73
     0
176
     1
 90
        0
176
     1
 40
-0.6
176
     1
 41
-30.0
176
     1
 62
     5
 63
     7
421
 16777215
176
     1
 74
     1
176
     1
 91
        4
176
     1
 64
     7
176
     1
 65
   257
176
     1
 75
     1
176
     1
175
     1
176
     1
 42
1.0
176
     1
 92
        8
176
     1
 66
     7
176
     1
 43
1.0
176
     1
 76
     1
176
     1
 77
     6
176
     1
 78
     2
176
     1
 67
     7
176
     1
 79
     5
176
     1
170
     0
176
     1
171
     0
176
     1
290
     0
176
     1
 93
        1
176
     1
 44
0.0
176
     1
173
     0
176
     1
  0
VISUALSTYLE
  5
2B
102
{ACAD_REACTORS
330
2A
102
}
330
2A
100
AcDbVisualStyle
  2
Flat
 70
     0
177
     2
291
     1
 71
     2
176
     1
 72
     1
176
     1
 73
     1
176
     1
 90
        2
176
     1
 40
-0.6
176
     1
 41
30.0
176
     1
 62
     5
 63
     7
421
 16777215
176
     1
 74
     0
176
     1
 91
        4
176
     1
 64
     7
176
     1
 65
   257
176
     1
 75
     1
176
     1
175
     1
176
     1
 42
1.0
176
     1
 92
        8
176
     1
 66
     7
176
     1
 43
1.0
176
     1
 76
     1
176
     1
 77
     6
176
     1
 78
     2
176
     1
 67
     7
176
     1
 79
     5
176
     1
170
     0
176
     1
171
     0
176
     1
290
     0
176
     1
 93
       13
176
     1
 44
0.0
176
     1
173
     0
176
     1
  0
VISUALSTYLE
  5
2C
102
{ACAD_REACTORS
330
2A
102
}
330
2A
100
AcDbVisualStyle
  2
FlatWithEdges
 70
     1
177
     2
291
     1
 71
     2
176
     1
 72
     1
176
     1
 73
     1
176
     1
 90
        2
176
     1
 40
-0.6
176
     1
 41
30.0
176
     1
 62
     5
 63
     7
421
 16777215
176
     1
 74
     1
176
     1
 91
        4
176
     1
 64
     7
176
     1
 65
   257
176
     1
 75
     1
176
     1
175
     1
176
     1
 42
1.0
176
     1
 92
        0
176
     1
 66
   257
176
     1
 43
1.0
176
     1
 76
     1
176
     1
 77
     6
176
     1
 78
     2
176
     1
 67
     7
176
     1
 79
     5
176
     1
170
     0
176
     1
171
     0
176
     1
290
     0
176
     1
 93
       13
176
     1
 44
0.0
176
     1
173
     0
176
     1
  0
VISUALSTYLE
  5
2D
102
{ACAD_REACTORS
330
2A
102
}
330
2A
100
AcDbVisualStyle
  2
Gouraud
 70
     2
177
     2
291
     1
 71
     2
176
     1
 72
     2
176
     1
 73
     1
176
     1
 90
        2
176
     1
 40
-0.6
176
     1
 41
30.0
176
     1
 62
     5
 63
     7
421
 16777215
176
     1
 74
     0
176
     1
 91
        4
176
     1
 64
     7
176
     1
 65
   257
176
     1
 75
     1
176
     1
175
     1
176
     1
 42
1.0
176
     1
 92
        0
176
     1
 66
     7
176
     1
 43
1.0
176
     1
 76
     1
176
     1
 77
     6
176
     1
 78
     2
176
     1
 67
     7
176
     1
 79
     5
176
     1
170
     0
176
     1
171
     0
176
     1
290
     0
176
     1
 93
       13
176
     1
 44
0.0
176
     1
173
     0
176
     1
  0
VISUALSTYLE
  5
2E
102
{ACAD_REACTORS
330
2A
102
}
330
2A
100
AcDbVisualStyle
  2
GouraudWithEdges
 70
     3
177
     2
291
     1
 71
     2
176
     1
 72
     2
176
     1
 73
     1
176
     1
 90
        2
176
     1
 40
-0.6
176
     1
 41
30.0
176
     1
 62
     5
 63
     7
421
 16777215
176
     1
 74
     1
176
     1
 91
        4
176
     1
 64
     7
176
     1
 65
   257
176
     1
 75
     1
176
     1
175
     1
176
     1
 42
1.0
176
     1
 92
        0
176
     1
 66
   257
176
     1
 43
1.0
176
     1
 76
     1
176
     1
 77
     6
176
     1
 78
     2
176
     1
 67
     7
176
     1
 79
     5
176
     1
170
     0
176
     1
171
     0
176
     1
290
     0
176
     1
 93
       13
176
     1
 44
0.0
176
     1
173
     0
176
     1
  0
VISUALSTYLE
  5
38
102
{ACAD_REACTORS
330
2A
102
}
330
2A
100
AcDbVisualStyle
  2
Linepattern
 70
    14
177
     2
291
     1
 71
     2
176
     1
 72
     2
176
     1
 73
     0
176
     1
 90
        0
176
     1
 40
-0.6
176
     1
 41
-30.0
176
     1
 62
     5
 63
     7
421
 16777215
176
     1
 74
     1
176
     1
 91
        4
176
     1
 64
     7
176
     1
 65
   257
176
     1
 75
     7
176
     1
175
     7
176
     1
 42
1.0
176
     1
 92
        8
176
     1
 66
     7
176
     1
 43
1.0
176
     1
 76
     1
176
     1
 77
     6
176
     1
 78
     2
176
     1
 67
     7
176
     1
 79
     5
176
     1
170
     0
176
     1
171
     0
176
     1
290
     0
176
     1
 93
        1
176
     1
 44
0.0
176
     1
173
     0
176
     1
  0
VISUALSTYLE
  5
33
102
{ACAD_REACTORS
330
2A
102
}
330
2A
100
AcDbVisualStyle
  2
Realistic
 70
     8
177
     2
291
     0
 71
     2
176
     1
 72
     2
176
     1
 73
     0
176
     1
 90
        0
176
     1
 40
-0.6
176
     1
 41
-30.0
176
     1
 62
     5
 63
     7
421
 16777215
176
     1
 74
     1
176
     1
 91
        0
176
     1
 64
     7
176
     1
 65
   257
176
     1
 75
     1
176
     1
175
     1
176
     1
 42
1.0
176
     1
 92
        8
176
     1
 66
     8
424
  7895160
176
     1
 43
1.0
176
     1
 76
     1
176
     1
 77
     6
176
     1
 78
     2
176
     1
 67
     7
176
     1
 79
     5
176
     1
170
     0
176
     1
171
     0
176
     1
290
     0
176
     1
 93
       13
176
     1
 44
0.0
176
     1
173
     0
176
     1
  0
VISUALSTYLE
  5
37
102
{ACAD_REACTORS
330
2A
102
}
330
2A
100
AcDbVisualStyle
  2
Thicken
 70
    13
177
     2
291
     1
 71
     2
176
     1
 72
     2
176
     1
 73
     0
176
     1
 90
        0
176
     1
 40
-0.6
176
     1
 41
-30.0
176
     1
 62
     5
 63
     7
421
 16777215
176
     1
 74
     1
176
     1
 91
        4
176
     1
 64
     7
176
     1
 65
   257
176
     1
 75
     1
176
     1
175
     1
176
     1
 42
1.0
176
     1
 92
       12
176
     1
 66
     7
176
     1
 43
1.0
176
     1
 76
     1
176
     1
 77
     6
176
     1
 78
     2
176
     1
 67
     7
176
     1
 79
     5
176
     1
170
     0
176
     1
171
     0
176
     1
290
     0
176
     1
 93
        1
176
     1
 44
0.0
176
     1
173
     0
176
     1
  0
ENDSEC
  0
EOF
