  0
SECTION
  2
HEADER
  9
$ACADVER
  1
AC1024
  9
$ACADMAINTVER
 70
     6
  9
$DWGCODEPAGE
  3
UNDEFINED
  9
$INSBASE
 10
0.0
 20
0.0
 30
0.0
  9
$EXTMIN
 10
1.000000000000000E+20
 20
1.000000000000000E+20
 30
1.000000000000000E+20
  9
$EXTMAX
 10
-1.000000000000000E+20
 20
-1.000000000000000E+20
 30
-1.000000000000000E+20
  9
$LIMMIN
 10
0.0
 20
0.0
  9
$LIMMAX
 10
12.0
 20
9.0
  9
$ORTHOMODE
 70
     0
  9
$REGENMODE
 70
     1
  9
$FILLMODE
 70
     1
  9
$QTEXTMODE
 70
     0
  9
$MIRRTEXT
 70
     1
  9
$LTSCALE
 40
1.0
  9
$ATTMODE
 70
     1
  9
$TEXTSIZE
 40
0.2
  9
$TRACEWID
 40
0.05
  9
$TEXTSTYLE
  7
Standard
  9
$CLAYER
  8
0
  9
$CELTYPE
  6
ByLayer
  9
$CECOLOR
 62
   256
  9
$CELTSCALE
 40
1.0
  9
$DISPSILH
 70
     0
  9
$DIMSCALE
 40
1.0
  9
$DIMASZ
 40
0.18
  9
$DIMEXO
 40
0.0625
  9
$DIMDLI
 40
0.38
  9
$DIMRND
 40
0.0
  9
$DIMDLE
 40
0.0
  9
$DIMEXE
 40
0.18
  9
$DIMTP
 40
0.0
  9
$DIMTM
 40
0.0
  9
$DIMTXT
 40
0.18
  9
$DIMCEN
 40
0.09
  9
$DIMTSZ
 40
0.0
  9
$DIMTOL
 70
     0
  9
$DIMLIM
 70
     0
  9
$DIMTIH
 70
     1
  9
$DIMTOH
 70
     1
  9
$DIMSE1
 70
     0
  9
$DIMSE2
 70
     0
  9
$DIMTAD
 70
     0
  9
$DIMZIN
 70
     0
  9
$DIMBLK
  1

  9
$DIMASO
 70
     1
  9
$DIMSHO
 70
     1
  9
$DIMPOST
  1

  9
$DIMAPOST
  1

  9
$DIMALT
 70
     0
  9
$DIMALTD
 70
     2
  9
$DIMALTF
 40
25.4
  9
$DIMLFAC
 40
1.0
  9
$DIMTOFL
 70
     0
  9
$DIMTVP
 40
0.0
  9
$DIMTIX
 70
     0
  9
$DIMSOXD
 70
     0
  9
$DIMSAH
 70
     0
  9
$DIMBLK1
  1

  9
$DIMBLK2
  1

  9
$DIMSTYLE
  2
Standard
  9
$DIMCLRD
 70
     0
  9
$DIMCLRE
 70
     0
  9
$DIMCLRT
 70
     0
  9
$DIMTFAC
 40
1.0
  9
$DIMGAP
 40
0.09
  9
$DIMJUST
 70
     0
  9
$DIMSD1
 70
     0
  9
$DIMSD2
 70
     0
  9
$DIMTOLJ
 70
     1
  9
$DIMTZIN
 70
     0
  9
$DIMALTZ
 70
     0
  9
$DIMALTTZ
 70
     0
  9
$DIMUPT
 70
     0
  9
$DIMDEC
 70
     4
  9
$DIMTDEC
 70
     4
  9
$DIMALTU
 70
     2
  9
$DIMALTTD
 70
     2
  9
$DIMTXSTY
  7
Standard
  9
$DIMAUNIT
 70
     0
  9
$DIMADEC
 70
     0
  9
$DIMALTRND
 40
0.0
  9
$DIMAZIN
 70
     0
  9
$DIMDSEP
 70
    46
  9
$DIMATFIT
 70
     3
  9
$DIMFRAC
 70
     0
  9
$DIMLDRBLK
  1

  9
$DIMLUNIT
 70
     2
  9
$DIMLWD
 70
    -2
  9
$DIMLWE
 70
    -2
  9
$DIMTMOVE
 70
     0
  9
$DIMFXL
 40
1.0
  9
$DIMFXLON
 70
     0
  9
$DIMJOGANG
 40
0.7853981633974483
  9
$DIMTFILL
 70
     0
  9
$DIMTFILLCLR
 70
     0
  9
$DIMARCSYM
 70
     0
  9
$DIMLTYPE
  6

  9
$DIMLTEX1
  6

  9
$DIMLTEX2
  6

  9
$DIMTXTDIRECTION
 70
     0
  9
$LUNITS
 70
     2
  9
$LUPREC
 70
     4
  9
$SKETCHINC
 40
0.1
  9
$FILLETRAD
 40
0.5
  9
$AUNITS
 70
     0
  9
$AUPREC
 70
     0
  9
$MENU
  1
.
  9
$ELEVATION
 40
0.0
  9
$PELEVATION
 40
0.0
  9
$THICKNESS
 40
0.0
  9
$LIMCHECK
 70
     0
  9
$CHAMFERA
 40
0.5
  9
$CHAMFERB
 40
0.5
  9
$CHAMFERC
 40
1.0
  9
$CHAMFERD
 40
0.0
  9
$SKPOLY
 70
     0
  9
$TDCREATE
 40
2458263.574236111
  9
$TDUCREATE
 40
2458263.199236111
  9
$TDUPDATE
 40
2458263.574236111
  9
$TDUUPDATE
 40
2458263.199236111
  9
$TDINDWG
 40
0.0000000116
  9
$TDUSRTIMER
 40
0.0000000116
  9
$USRTIMER
 70
     1
  9
$ANGBASE
 50
0.0
  9
$ANGDIR
 70
     0
  9
$PDMODE
 70
     0
  9
$PDSIZE
 40
0.0
  9
$PLINEWID
 40
0.0
  9
$SPLFRAME
 70
     0
  9
$SPLINETYPE
 70
     6
  9
$SPLINESEGS
 70
     8
  9
$HANDSEED
  5
81
  9
$SURFTAB1
 70
     6
  9
$SURFTAB2
 70
     6
  9
$SURFTYPE
 70
     6
  9
$SURFU
 70
     6
  9
$SURFV
 70
     6
  9
$UCSBASE
  2

  9
$UCSNAME
  2

  9
$UCSORG
 10
0.0
 20
0.0
 30
0.0
  9
$UCSXDIR
 10
1.0
 20
0.0
 30
0.0
  9
$UCSYDIR
 10
0.0
 20
1.0
 30
0.0
  9
$UCSORTHOREF
  2

  9
$UCSORTHOVIEW
 70
     0
  9
$UCSORGTOP
 10
0.0
 20
0.0
 30
0.0
  9
$UCSORGBOTTOM
 10
0.0
 20
0.0
 30
0.0
  9
$UCSORGLEFT
 10
0.0
 20
0.0
 30
0.0
  9
$UCSORGRIGHT
 10
0.0
 20
0.0
 30
0.0
  9
$UCSORGFRONT
 10
0.0
 20
0.0
 30
0.0
  9
$UCSORGBACK
 10
0.0
 20
0.0
 30
0.0
  9
$PUCSBASE
  2

  9
$PUCSNAME
  2

  9
$PUCSORG
 10
0.0
 20
0.0
 30
0.0
  9
$PUCSXDIR
 10
1.0
 20
0.0
 30
0.0
  9
$PUCSYDIR
 10
0.0
 20
1.0
 30
0.0
  9
$PUCSORTHOREF
  2

  9
$PUCSORTHOVIEW
 70
     0
  9
$PUCSORGTOP
 10
0.0
 20
0.0
 30
0.0
  9
$PUCSORGBOTTOM
 10
0.0
 20
0.0
 30
0.0
  9
$PUCSORGLEFT
 10
0.0
 20
0.0
 30
0.0
  9
$PUCSORGRIGHT
 10
0.0
 20
0.0
 30
0.0
  9
$PUCSORGFRONT
 10
0.0
 20
0.0
 30
0.0
  9
$PUCSORGBACK
 10
0.0
 20
0.0
 30
0.0
  9
$USERI1
 70
     0
  9
$USERI2
 70
     0
  9
$USERI3
 70
     0
  9
$USERI4
 70
     0
  9
$USERI5
 70
     0
  9
$USERR1
 40
0.0
  9
$USERR2
 40
0.0
  9
$USERR3
 40
0.0
  9
$USERR4
 40
0.0
  9
$USERR5
 40
0.0
  9
$WORLDVIEW
 70
     1
  9
$SHADEDGE
 70
     3
  9
$SHADEDIF
 70
    70
  9
$TILEMODE
 70
     1
  9
$MAXACTVP
 70
    64
  9
$PINSBASE
 10
0.0
 20
0.0
 30
0.0
  9
$PLIMCHECK
 70
     0
  9
$PEXTMIN
 10
1.000000000000000E+20
 20
1.000000000000000E+20
 30
1.000000000000000E+20
  9
$PEXTMAX
 10
-1.000000000000000E+20
 20
-1.000000000000000E+20
 30
-1.000000000000000E+20
  9
$PLIMMIN
 10
0.0
 20
0.0
  9
$PLIMMAX
 10
12.0
 20
9.0
  9
$UNITMODE
 70
     0
  9
$VISRETAIN
 70
     1
  9
$PLINEGEN
 70
     0
  9
$PSLTSCALE
 70
     1
  9
$TREEDEPTH
 70
  3020
  9
$CMLSTYLE
  2
Standard
  9
$CMLJUST
 70
     0
  9
$CMLSCALE
 40
1.0
  9
$PROXYGRAPHICS
 70
     1
  9
$MEASUREMENT
 70
     0
  9
$CELWEIGHT
370
    -1
  9
$ENDCAPS
280
     0
  9
$JOINSTYLE
280
     0
  9
$LWDISPLAY
290
     1
  9
$INSUNITS
 70
     1
  9
$HYPERLINKBASE
  1

  9
$STYLESHEET
  1

  9
$XEDIT
290
     1
  9
$CEPSNTYPE
380
     0
  9
$PSTYLEMODE
290
     1
  9
$FINGERPRINTGUID
  2
{6C233989-D376-072F-5830-98042FA309EB}
  9
$VERSIONGUID
  2
{FAEB1C32-E019-11D5-929B-00C0DF256EC4}
  9
$EXTNAMES
290
     1
  9
$PSVPSCALE
 40
0.0
  9
$OLESTARTUP
290
     0
  9
$SORTENTS
280
   127
  9
$INDEXCTL
280
     0
  9
$HIDETEXT
280
     1
  9
$XCLIPFRAME
280
     2
  9
$HALOGAP
280
     0
  9
$OBSCOLOR
 70
   257
  9
$OBSLTYPE
280
     0
  9
$INTERSECTIONDISPLAY
280
     0
  9
$INTERSECTIONCOLOR
 70
   257
  9
$DIMASSOC
280
     2
  9
$PROJECTNAME
  1

  9
$CAMERADISPLAY
290
     0
  9
$LENSLENGTH
 40
50.0
  9
$CAMERAHEIGHT
 40
0.0
  9
$STEPSPERSEC
 40
2.0
  9
$STEPSIZE
 40
6.0
  9
$3DDWFPREC
 40
2.0
  9
$PSOLWIDTH
 40
0.25
  9
$PSOLHEIGHT
 40
4.0
  9
$LOFTANG1
 40
1.570796326794897
  9
$LOFTANG2
 40
1.570796326794897
  9
$LOFTMAG1
 40
0.0
  9
$LOFTMAG2
 40
0.0
  9
$LOFTPARAM
 70
     7
  9
$LOFTNORMALS
280
     1
  9
$LATITUDE
 40
37.795
  9
$LONGITUDE
 40
-122.394
  9
$NORTHDIRECTION
 40
0.0
  9
$TIMEZONE
 70
 -8000
  9
$LIGHTGLYPHDISPLAY
280
     1
  9
$TILEMODELIGHTSYNCH
280
     1
  9
$CMATERIAL
347
3C
  9
$SOLIDHIST
280
     1
  9
$SHOWHIST
280
     1
  9
$DWFFRAME
280
     2
  9
$DGNFRAME
280
     2
  9
$REALWORLDSCALE
290
     1
  9
$INTERFERECOLOR
 62
   256
  9
$CSHADOW
280
     0
  9
$SHADOWPLANELOCATION
 40
0.0
  0
ENDSEC
  0
SECTION
  2
CLASSES
  0
CLASS
  1
ACDBDICTIONARYWDFLT
  2
AcDbDictionaryWithDefault
  3
ObjectDBX Classes
 90
        0
 91
        4
280
     0
281
     0
  0
CLASS
  1
VISUALSTYLE
  2
AcDbVisualStyle
  3
ObjectDBX Classes
 90
     4095
 91
        4
280
     0
281
     0
  0
CLASS
  1
MATERIAL
  2
AcDbMaterial
  3
ObjectDBX Classes
 90
     1153
 91
        4
280
     0
281
     0
  0
CLASS
  1
SUN
  2
AcDbSun
  3
SCENEOE
 90
     1024
 91
        4
280
     0
281
     0
  0
ENDSEC
  0
SECTION
  2
TABLES
  0
TABLE
  2
VPORT
  5
8
330
0
100
AcDbSymbolTable
 70
     1
  0
VPORT
  5
29
330
8
100
AcDbSymbolTableRecord
100
AcDbViewportTableRecord
  2
*Active
 70
     0
 10
0.0
 20
0.0
 11
1.0
 21
1.0
 12
0.0
 22
0.0
 13
0.0
 23
0.0
 14
0.5
 24
0.5
 15
0.5
 25
0.5
 16
0.0
 26
0.0
 36
1.0
 17
105.0007777515277
 27
-148.5000416295416
 37
0.0
 40
297.0000832590831
 41
0.7070757462376333
 42
50.0
 43
0.0
 44
0.0
 50
0.0
 51
0.0
 71
     0
 72
   100
 73
     1
 74
     3
 75
     0
 76
     0
 77
     0
 78
     0
281
     0
 65
     1
110
0.0
120
0.0
130
0.0
111
1.0
121
0.0
131
0.0
112
0.0
122
1.0
132
0.0
 79
     0
146
0.0
 60
     3
 61
     5
292
     1
282
     1
141
0.0
142
0.0
 63
   250
361
3F
  0
ENDTAB
  0
TABLE
  2
LTYPE
  5
5
330
0
100
AcDbSymbolTable
 70
     1
  0
LTYPE
  5
14
330
5
100
AcDbSymbolTableRecord
100
AcDbLinetypeTableRecord
  2
ByBlock
 70
     0
  3

 72
    65
 73
     0
 40
0.0
  0
LTYPE
  5
15
330
5
100
AcDbSymbolTableRecord
100
AcDbLinetypeTableRecord
  2
ByLayer
 70
     0
  3

 72
    65
 73
     0
 40
0.0
  0
LTYPE
  5
16
330
5
100
AcDbSymbolTableRecord
100
AcDbLinetypeTableRecord
  2
Continuous
 70
     0
  3
Solid line
 72
    65
 73
     0
 40
0.0
  0
ENDTAB
  0
TABLE
  2
LAYER
  5
2
330
0
100
AcDbSymbolTable
 70
     2
  0
LAYER
  5
10
330
2
100
AcDbSymbolTableRecord
100
AcDbLayerTableRecord
  2
0
 70
     0
 62
     7
  6
Continuous
370
    -3
390
F
347
3E
  0
LAYER
  5
40
330
2
100
AcDbSymbolTableRecord
100
AcDbLayerTableRecord
  2
_U+30EC_U+30A4_U+30E4_U+30FC 1
 70
     0
 62
     7
  6
Continuous
370
    -3
390
F
347
3E
  0
ENDTAB
  0
TABLE
  2
STYLE
  5
3
330
0
100
AcDbSymbolTable
 70
     1
  0
STYLE
  5
11
330
3
100
AcDbSymbolTableRecord
100
AcDbTextStyleTableRecord
  2
Standard
 70
     0
 40
0.0
 41
1.0
 50
0.0
 71
     0
 42
0.2
  3
txt
  4

  0
ENDTAB
  0
TABLE
  2
VIEW
  5
6
330
0
100
AcDbSymbolTable
 70
     0
  0
ENDTAB
  0
TABLE
  2
UCS
  5
7
330
0
100
AcDbSymbolTable
 70
     0
  0
ENDTAB
  0
TABLE
  2
APPID
  5
9
330
0
100
AcDbSymbolTable
 70
     1
  0
APPID
  5
12
330
9
100
AcDbSymbolTableRecord
100
AcDbRegAppTableRecord
  2
ACAD
 70
     0
  0
ENDTAB
  0
TABLE
  2
DIMSTYLE
  5
A
330
0
100
AcDbSymbolTable
 70
     1
100
AcDbDimStyleTable
  0
DIMSTYLE
105
27
330
A
100
AcDbSymbolTableRecord
100
AcDbDimStyleTableRecord
  2
Standard
 70
     0
178
     0
340
11
  0
ENDTAB
  0
TABLE
  2
BLOCK_RECORD
  5
1
330
0
100
AcDbSymbolTable
 70
     3
  0
BLOCK_RECORD
  5
1F
330
1
100
AcDbSymbolTableRecord
100
AcDbBlockTableRecord
  2
*Model_Space
340
22
 70
     0
280
     1
281
     0
  0
BLOCK_RECORD
  5
1B
330
1
100
AcDbSymbolTableRecord
100
AcDbBlockTableRecord
  2
*Paper_Space
340
1E
 70
     0
280
     1
281
     0
  0
BLOCK_RECORD
  5
23
330
1
100
AcDbSymbolTableRecord
100
AcDbBlockTableRecord
  2
*Paper_Space0
340
26
 70
     0
280
     1
281
     0
  0
BLOCK_RECORD
  5
5D
330
1
100
AcDbSymbolTableRecord
100
AcDbBlockTableRecord
  2
block 2
340
0
102
{BLKREFS
331
5E
102
}
 70
     0
280
     1
281
     0
  0
BLOCK_RECORD
  5
75
330
1
100
AcDbSymbolTableRecord
100
AcDbBlockTableRecord
  2
block 3
340
0
102
{BLKREFS
331
76
102
}
 70
     0
280
     1
281
     0
  0
ENDTAB
  0
ENDSEC
  0
SECTION
  2
BLOCKS
  0
BLOCK
  5
20
330
1F
100
AcDbEntity
  8
0
100
AcDbBlockBegin
  2
*Model_Space
 70
     0
 10
0.0
 20
0.0
 30
0.0
  3
*Model_Space
  1

  0
ENDBLK
  5
21
330
1F
100
AcDbEntity
  8
0
100
AcDbBlockEnd
  0
BLOCK
  5
1C
330
1B
100
AcDbEntity
 67
     1
  8
0
100
AcDbBlockBegin
  2
*Paper_Space
 70
     0
 10
0.0
 20
0.0
 30
0.0
  3
*Paper_Space
  1

  0
ENDBLK
  5
1D
330
1B
100
AcDbEntity
 67
     1
  8
0
100
AcDbBlockEnd
  0
BLOCK
  5
24
330
23
100
AcDbEntity
  8
0
100
AcDbBlockBegin
  2
*Paper_Space0
 70
     0
 10
0.0
 20
0.0
 30
0.0
  3
*Paper_Space0
  1

  0
ENDBLK
  5
25
330
23
100
AcDbEntity
  8
0
100
AcDbBlockEnd
  0
BLOCK
  5
5F
330
5D
100
AcDbEntity
  8
0
100
AcDbBlockBegin
  2
block 2
 70
     0
 10
0.0
 20
0.0
 30
0.0
  3
block 2
  1

  0
SPLINE
  5
61
330
5D
100
AcDbEntity
  8
_U+30EC_U+30A4_U+30E4_U+30FC 1
370
     0
100
AcDbSpline
210
0.0
220
0.0
230
1.0
 70
    11
 71
     3
 72
    44
 73
    40
 74
     0
 42
0.0000000001
 43
0.0000000001
 12
1.0
 22
0.0
 32
0.0
 13
1.0
 23
0.0
 33
0.0
 40
0.0
 40
0.0
 40
0.0
 40
0.0
 40
1.0
 40
1.0
 40
1.0
 40
2.0
 40
2.0
 40
2.0
 40
3.0
 40
3.0
 40
3.0
 40
4.0
 40
4.0
 40
4.0
 40
5.0
 40
5.0
 40
5.0
 40
6.0
 40
6.0
 40
6.0
 40
7.0
 40
7.0
 40
7.0
 40
8.0
 40
8.0
 40
8.0
 40
9.0
 40
9.0
 40
9.0
 40
10.0
 40
10.0
 40
10.0
 40
11.0
 40
11.0
 40
11.0
 40
12.0
 40
12.0
 40
12.0
 40
13.0
 40
13.0
 40
13.0
 40
13.0
 10
90.31145559808186
 20
-146.6608153930223
 30
0.0
 10
90.47010224517761
 20
-146.8515014281309
 30
0.0
 10
90.54417179811048
 20
-146.932977936357
 30
0.0
 10
90.68800453461967
 20
-146.9755248655999
 30
0.0
 10
90.68800453461967
 20
-146.9755248655999
 30
0.0
 10
90.68800453461967
 20
-146.2940849786175
 30
0.0
 10
90.68800453461967
 20
-146.2940849786175
 30
0.0
 10
90.68800453461967
 20
-146.2940849786175
 30
0.0
 10
90.89315997076629
 20
-146.2940849786175
 30
0.0
 10
90.89315997076629
 20
-146.2940849786175
 30
0.0
 10
90.89315997076629
 20
-146.2940849786175
 30
0.0
 10
90.89315997076629
 20
-147.194116174139
 30
0.0
 10
90.89315997076629
 20
-147.194116174139
 30
0.0
 10
90.53555905939736
 20
-147.1662109007084
 30
0.0
 10
90.45735539188219
 20
-147.108850060879
 30
0.0
 10
90.15901012285956
 20
-146.7717474676473
 30
0.0
 10
89.96022811336064
 20
-146.5478162611061
 30
0.0
 10
89.89253198707549
 20
-146.4902831665024
 30
0.0
 10
89.75507267721402
 20
-146.4902831665024
 30
0.0
 10
89.63656139252141
 20
-146.4902831665024
 30
0.0
 10
89.5053032545334
 20
-146.5533284138825
 30
0.0
 10
89.5053032545334
 20
-146.725583188145
 30
0.0
 10
89.5053032545334
 20
-146.95330399972
 30
0.0
 10
89.73595239727088
 20
-146.9607109550133
 30
0.0
 10
89.85239662467232
 20
-146.9643283052728
 30
0.0
 10
89.85239662467232
 20
-146.9643283052728
 30
0.0
 10
89.85239662467232
 20
-147.1606987479321
 30
0.0
 10
89.85239662467232
 20
-147.1606987479321
 30
0.0
 10
89.72544485604087
 20
-147.1532917926388
 30
0.0
 10
89.61330699799598
 20
-147.1439900348286
 30
0.0
 10
89.49479571330339
 20
-147.0737100869295
 30
0.0
 10
89.33408200891648
 20
-146.9774196681168
 30
0.0
 10
89.30014781838678
 20
-146.8144666516644
 30
0.0
 10
89.30014781838678
 20
-146.712491825301
 30
0.0
 10
89.30014781838678
 20
-146.4699571031394
 30
0.0
 10
89.48428817207338
 20
-146.288572825841
 30
0.0
 10
89.75713973450516
 20
-146.288572825841
 30
0.0
 10
89.98554956517722
 20
-146.288572825841
 30
0.0
 10
90.08511282470094
 20
-146.3903753974302
 30
0.0
 10
90.31145559808186
 20
-146.6608153930223
 30
0.0
  0
HATCH
  5
62
330
5D
100
AcDbEntity
  8
_U+30EC_U+30A4_U+30E4_U+30FC 1
 62
   179
420
  2234388
100
AcDbHatch
 10
0.0
 20
0.0
 30
0.0
210
0.0
220
0.0
230
1.0
  2
SOLID
 70
     1
 71
     0
 91
        1
 92
        1
 93
        1
 72
     4
 94
        3
 73
     0
 74
     1
 95
       44
 96
       40
 40
0.0
 40
0.0
 40
0.0
 40
0.0
 40
1.0
 40
1.0
 40
1.0
 40
2.0
 40
2.0
 40
2.0
 40
3.0
 40
3.0
 40
3.0
 40
4.0
 40
4.0
 40
4.0
 40
5.0
 40
5.0
 40
5.0
 40
6.0
 40
6.0
 40
6.0
 40
7.0
 40
7.0
 40
7.0
 40
8.0
 40
8.0
 40
8.0
 40
9.0
 40
9.0
 40
9.0
 40
10.0
 40
10.0
 40
10.0
 40
11.0
 40
11.0
 40
11.0
 40
12.0
 40
12.0
 40
12.0
 40
13.0
 40
13.0
 40
13.0
 40
13.0
 10
90.31145559808186
 20
-146.6608153930223
 10
90.47010224517761
 20
-146.8515014281309
 10
90.54417179811048
 20
-146.932977936357
 10
90.68800453461967
 20
-146.9755248655999
 10
90.68800453461967
 20
-146.9755248655999
 10
90.68800453461967
 20
-146.2940849786175
 10
90.68800453461967
 20
-146.2940849786175
 10
90.68800453461967
 20
-146.2940849786175
 10
90.89315997076629
 20
-146.2940849786175
 10
90.89315997076629
 20
-146.2940849786175
 10
90.89315997076629
 20
-146.2940849786175
 10
90.89315997076629
 20
-147.194116174139
 10
90.89315997076629
 20
-147.194116174139
 10
90.53555905939736
 20
-147.1662109007084
 10
90.45735539188219
 20
-147.108850060879
 10
90.15901012285956
 20
-146.7717474676473
 10
89.96022811336064
 20
-146.5478162611061
 10
89.89253198707549
 20
-146.4902831665024
 10
89.75507267721402
 20
-146.4902831665024
 10
89.63656139252141
 20
-146.4902831665024
 10
89.5053032545334
 20
-146.5533284138825
 10
89.5053032545334
 20
-146.725583188145
 10
89.5053032545334
 20
-146.95330399972
 10
89.73595239727088
 20
-146.9607109550133
 10
89.85239662467232
 20
-146.9643283052728
 10
89.85239662467232
 20
-146.9643283052728
 10
89.85239662467232
 20
-147.1606987479321
 10
89.85239662467232
 20
-147.1606987479321
 10
89.72544485604087
 20
-147.1532917926388
 10
89.61330699799598
 20
-147.1439900348286
 10
89.49479571330339
 20
-147.0737100869295
 10
89.33408200891648
 20
-146.9774196681168
 10
89.30014781838678
 20
-146.8144666516644
 10
89.30014781838678
 20
-146.712491825301
 10
89.30014781838678
 20
-146.4699571031394
 10
89.48428817207338
 20
-146.288572825841
 10
89.75713973450516
 20
-146.288572825841
 10
89.98554956517722
 20
-146.288572825841
 10
90.08511282470094
 20
-146.3903753974302
 10
90.31145559808186
 20
-146.6608153930223
 97
        0
 97
        0
 75
     2
 76
     1
 98
        0
  0
SPLINE
  5
63
330
5D
100
AcDbEntity
  8
_U+30EC_U+30A4_U+30E4_U+30FC 1
370
     0
100
AcDbSpline
210
0.0
220
0.0
230
1.0
 70
    11
 71
     3
 72
    32
 73
    28
 74
     0
 42
0.0000000001
 43
0.0000000001
 12
1.0
 22
0.0
 32
0.0
 13
1.0
 23
0.0
 33
0.0
 40
0.0
 40
0.0
 40
0.0
 40
0.0
 40
1.0
 40
1.0
 40
1.0
 40
2.0
 40
2.0
 40
2.0
 40
3.0
 40
3.0
 40
3.0
 40
4.0
 40
4.0
 40
4.0
 40
5.0
 40
5.0
 40
5.0
 40
6.0
 40
6.0
 40
6.0
 40
7.0
 40
7.0
 40
7.0
 40
8.0
 40
8.0
 40
8.0
 40
9.0
 40
9.0
 40
9.0
 40
9.0
 10
90.94397512917374
 20
-145.7077297270279
 30
0.0
 10
90.94397512917374
 20
-146.1595539999184
 30
0.0
 10
90.38965926559703
 20
-146.1669609552117
 30
0.0
 10
90.17606334551154
 20
-146.1669609552117
 30
0.0
 10
89.94541420277406
 20
-146.1669609552117
 30
0.0
 10
89.29808076109562
 20
-146.1502522421083
 30
0.0
 10
89.29808076109562
 20
-145.6744845555953
 30
0.0
 10
89.29808076109562
 20
-145.5225558446957
 30
0.0
 10
89.36784394467193
 20
-145.3077541411904
 30
0.0
 10
89.69995114945002
 20
-145.2745089697578
 30
0.0
 10
89.69995114945002
 20
-145.2745089697578
 30
0.0
 10
89.69995114945002
 20
-145.4614053998326
 30
0.0
 10
89.69995114945002
 20
-145.4614053998326
 30
0.0
 10
89.64293481916913
 20
-145.4707071576427
 30
0.0
 10
89.49479571330339
 20
-145.498440176299
 30
0.0
 10
89.49479571330339
 20
-145.6762071033379
 30
0.0
 10
89.49479571330339
 20
-145.9318331883434
 30
0.0
 10
89.82276880349917
 20
-145.966973162293
 30
0.0
 10
90.0279242396458
 20
-145.9779974678458
 30
0.0
 10
89.94972057213063
 20
-145.8966932143939
 30
0.0
 10
89.89046492978433
 20
-145.8374375720476
 30
0.0
 10
89.89046492978433
 20
-145.6781019058548
 30
0.0
 10
89.89046492978433
 20
-145.5206610421789
 30
0.0
 10
89.99829641847265
 20
-145.2559054541374
 30
0.0
 10
90.40447317618361
 20
-145.2559054541374
 30
0.0
 10
90.72383352766627
 20
-145.2559054541374
 30
0.0
 10
90.94397512917374
 20
-145.4298827761425
 30
0.0
 10
90.94397512917374
 20
-145.7077297270279
 30
0.0
  0
SPLINE
  5
64
330
5D
100
AcDbEntity
  8
_U+30EC_U+30A4_U+30E4_U+30FC 1
370
     0
100
AcDbSpline
210
0.0
220
0.0
230
1.0
 70
    11
 71
     3
 72
    17
 73
    13
 74
     0
 42
0.0000000001
 43
0.0000000001
 12
1.0
 22
0.0
 32
0.0
 13
1.0
 23
0.0
 33
0.0
 40
0.0
 40
0.0
 40
0.0
 40
0.0
 40
1.0
 40
1.0
 40
1.0
 40
2.0
 40
2.0
 40
2.0
 40
3.0
 40
3.0
 40
3.0
 40
4.0
 40
4.0
 40
4.0
 40
4.0
 10
90.08511282470094
 20
-145.6929158164414
 30
0.0
 10
90.08511282470094
 20
-145.9225314305333
 30
0.0
 10
90.29664168749528
 20
-145.9559488567402
 30
0.0
 10
90.41291366012247
 20
-145.9559488567402
 30
0.0
 10
90.58844127509595
 20
-145.9559488567402
 30
0.0
 10
90.75139429154827
 20
-145.8725775459971
 30
0.0
 10
90.75139429154827
 20
-145.7113470772875
 30
0.0
 10
90.75139429154827
 20
-145.6059271554388
 30
0.0
 10
90.69213864920196
 20
-145.4522758967967
 30
0.0
 10
90.40654023347476
 20
-145.4522758967967
 30
0.0
 10
90.182264517385
 20
-145.4522758967967
 30
0.0
 10
90.08511282470094
 20
-145.5744045317488
 30
0.0
 10
90.08511282470094
 20
-145.6929158164414
 30
0.0
  0
HATCH
  5
65
330
5D
100
AcDbEntity
  8
_U+30EC_U+30A4_U+30E4_U+30FC 1
 62
   179
420
  2234388
100
AcDbHatch
 10
0.0
 20
0.0
 30
0.0
210
0.0
220
0.0
230
1.0
  2
SOLID
 70
     1
 71
     0
 91
        2
 92
        1
 93
        1
 72
     4
 94
        3
 73
     0
 74
     1
 95
       32
 96
       28
 40
0.0
 40
0.0
 40
0.0
 40
0.0
 40
1.0
 40
1.0
 40
1.0
 40
2.0
 40
2.0
 40
2.0
 40
3.0
 40
3.0
 40
3.0
 40
4.0
 40
4.0
 40
4.0
 40
5.0
 40
5.0
 40
5.0
 40
6.0
 40
6.0
 40
6.0
 40
7.0
 40
7.0
 40
7.0
 40
8.0
 40
8.0
 40
8.0
 40
9.0
 40
9.0
 40
9.0
 40
9.0
 10
90.94397512917374
 20
-145.7077297270279
 10
90.94397512917374
 20
-146.1595539999184
 10
90.38965926559703
 20
-146.1669609552117
 10
90.17606334551154
 20
-146.1669609552117
 10
89.94541420277406
 20
-146.1669609552117
 10
89.29808076109562
 20
-146.1502522421083
 10
89.29808076109562
 20
-145.6744845555953
 10
89.29808076109562
 20
-145.5225558446957
 10
89.36784394467193
 20
-145.3077541411904
 10
89.69995114945002
 20
-145.2745089697578
 10
89.69995114945002
 20
-145.2745089697578
 10
89.69995114945002
 20
-145.4614053998326
 10
89.69995114945002
 20
-145.4614053998326
 10
89.64293481916913
 20
-145.4707071576427
 10
89.49479571330339
 20
-145.498440176299
 10
89.49479571330339
 20
-145.6762071033379
 10
89.49479571330339
 20
-145.9318331883434
 10
89.82276880349917
 20
-145.966973162293
 10
90.0279242396458
 20
-145.9779974678458
 10
89.94972057213063
 20
-145.8966932143939
 10
89.89046492978433
 20
-145.8374375720476
 10
89.89046492978433
 20
-145.6781019058548
 10
89.89046492978433
 20
-145.5206610421789
 10
89.99829641847265
 20
-145.2559054541374
 10
90.40447317618361
 20
-145.2559054541374
 10
90.72383352766627
 20
-145.2559054541374
 10
90.94397512917374
 20
-145.4298827761425
 10
90.94397512917374
 20
-145.7077297270279
 97
        0
 97
        0
 92
        1
 93
        1
 72
     4
 94
        3
 73
     0
 74
     1
 95
       17
 96
       13
 40
0.0
 40
0.0
 40
0.0
 40
0.0
 40
1.0
 40
1.0
 40
1.0
 40
2.0
 40
2.0
 40
2.0
 40
3.0
 40
3.0
 40
3.0
 40
4.0
 40
4.0
 40
4.0
 40
4.0
 10
90.08511282470094
 20
-145.6929158164414
 10
90.08511282470094
 20
-145.9225314305333
 10
90.29664168749528
 20
-145.9559488567402
 10
90.41291366012247
 20
-145.9559488567402
 10
90.58844127509595
 20
-145.9559488567402
 10
90.75139429154827
 20
-145.8725775459971
 10
90.75139429154827
 20
-145.7113470772875
 10
90.75139429154827
 20
-145.6059271554388
 10
90.69213864920196
 20
-145.4522758967967
 10
90.40654023347476
 20
-145.4522758967967
 10
90.182264517385
 20
-145.4522758967967
 10
90.08511282470094
 20
-145.5744045317488
 10
90.08511282470094
 20
-145.6929158164414
 97
        0
 97
        0
 75
     2
 76
     1
 98
        0
  0
ENDBLK
  5
60
330
5D
100
AcDbEntity
  8
0
100
AcDbBlockEnd
  0
BLOCK
  5
77
330
75
100
AcDbEntity
  8
0
100
AcDbBlockBegin
  2
block 3
 70
     0
 10
0.0
 20
0.0
 30
0.0
  3
block 3
  1

  0
SPLINE
  5
79
330
75
100
AcDbEntity
  8
_U+30EC_U+30A4_U+30E4_U+30FC 1
370
     0
100
AcDbSpline
210
0.0
220
0.0
230
1.0
 70
    11
 71
     3
 72
    44
 73
    40
 74
     0
 42
0.0000000001
 43
0.0000000001
 12
1.0
 22
0.0
 32
0.0
 13
1.0
 23
0.0
 33
0.0
 40
0.0
 40
0.0
 40
0.0
 40
0.0
 40
1.0
 40
1.0
 40
1.0
 40
2.0
 40
2.0
 40
2.0
 40
3.0
 40
3.0
 40
3.0
 40
4.0
 40
4.0
 40
4.0
 40
5.0
 40
5.0
 40
5.0
 40
6.0
 40
6.0
 40
6.0
 40
7.0
 40
7.0
 40
7.0
 40
8.0
 40
8.0
 40
8.0
 40
9.0
 40
9.0
 40
9.0
 40
10.0
 40
10.0
 40
10.0
 40
11.0
 40
11.0
 40
11.0
 40
12.0
 40
12.0
 40
12.0
 40
13.0
 40
13.0
 40
13.0
 40
13.0
 10
107.8325222169655
 20
-162.266408922107
 30
0.0
 10
107.6420084366312
 20
-162.4248833144285
 30
0.0
 10
107.5603596736307
 20
-162.4989528673614
 30
0.0
 10
107.5179849991622
 20
-162.6429578586448
 30
0.0
 10
107.5179849991622
 20
-162.6429578586448
 30
0.0
 10
108.1994248861446
 20
-162.6429578586448
 30
0.0
 10
108.1994248861446
 20
-162.6429578586448
 30
0.0
 10
108.1994248861446
 20
-162.6429578586448
 30
0.0
 10
108.1994248861446
 20
-162.8479410400172
 30
0.0
 10
108.1994248861446
 20
-162.8479410400172
 30
0.0
 10
108.1994248861446
 20
-162.8479410400172
 30
0.0
 10
107.2992214358488
 20
-162.8479410400172
 30
0.0
 10
107.2992214358488
 20
-162.8479410400172
 30
0.0
 10
107.3271267092793
 20
-162.4903401286483
 30
0.0
 10
107.3843152943345
 20
-162.4121364611331
 30
0.0
 10
107.7215901423404
 20
-162.1137911921105
 30
0.0
 10
107.9455213488817
 20
-161.9150091826115
 30
0.0
 10
108.0030544434854
 20
-161.8474853111006
 30
0.0
 10
108.0030544434854
 20
-161.7100260012392
 30
0.0
 10
108.0030544434854
 20
-161.5915147165466
 30
0.0
 10
107.9400091961053
 20
-161.4602565785586
 30
0.0
 10
107.7677544218428
 20
-161.4602565785586
 30
0.0
 10
107.5400336102678
 20
-161.4602565785586
 30
0.0
 10
107.5324544002002
 20
-161.6907334665218
 30
0.0
 10
107.529009304715
 20
-161.8071776939232
 30
0.0
 10
107.529009304715
 20
-161.8071776939232
 30
0.0
 10
107.3326388620557
 20
-161.8071776939232
 30
0.0
 10
107.3326388620557
 20
-161.8071776939232
 30
0.0
 10
107.3402180721233
 20
-161.680398180066
 30
0.0
 10
107.3491753203849
 20
-161.5680880672469
 30
0.0
 10
107.419455268284
 20
-161.4495767825543
 30
0.0
 10
107.515917941871
 20
-161.2890353329416
 30
0.0
 10
107.6788709583233
 20
-161.2549288876377
 30
0.0
 10
107.7808457846867
 20
-161.2549288876377
 30
0.0
 10
108.0233805068483
 20
-161.2549288876377
 30
0.0
 10
108.204937038921
 20
-161.4392414960985
 30
0.0
 10
108.204937038921
 20
-161.7120930585303
 30
0.0
 10
108.204937038921
 20
-161.9405028892024
 30
0.0
 10
108.1029622125576
 20
-162.0400661487261
 30
0.0
 10
107.8325222169655
 20
-162.266408922107
 30
0.0
  0
HATCH
  5
7A
330
75
100
AcDbEntity
  8
_U+30EC_U+30A4_U+30E4_U+30FC 1
 62
   179
420
  2234388
100
AcDbHatch
 10
0.0
 20
0.0
 30
0.0
210
0.0
220
0.0
230
1.0
  2
SOLID
 70
     1
 71
     0
 91
        1
 92
        1
 93
        1
 72
     4
 94
        3
 73
     0
 74
     1
 95
       44
 96
       40
 40
0.0
 40
0.0
 40
0.0
 40
0.0
 40
1.0
 40
1.0
 40
1.0
 40
2.0
 40
2.0
 40
2.0
 40
3.0
 40
3.0
 40
3.0
 40
4.0
 40
4.0
 40
4.0
 40
5.0
 40
5.0
 40
5.0
 40
6.0
 40
6.0
 40
6.0
 40
7.0
 40
7.0
 40
7.0
 40
8.0
 40
8.0
 40
8.0
 40
9.0
 40
9.0
 40
9.0
 40
10.0
 40
10.0
 40
10.0
 40
11.0
 40
11.0
 40
11.0
 40
12.0
 40
12.0
 40
12.0
 40
13.0
 40
13.0
 40
13.0
 40
13.0
 10
107.8325222169655
 20
-162.266408922107
 10
107.6420084366312
 20
-162.4248833144285
 10
107.5603596736307
 20
-162.4989528673614
 10
107.5179849991622
 20
-162.6429578586448
 10
107.5179849991622
 20
-162.6429578586448
 10
108.1994248861446
 20
-162.6429578586448
 10
108.1994248861446
 20
-162.6429578586448
 10
108.1994248861446
 20
-162.6429578586448
 10
108.1994248861446
 20
-162.8479410400172
 10
108.1994248861446
 20
-162.8479410400172
 10
108.1994248861446
 20
-162.8479410400172
 10
107.2992214358488
 20
-162.8479410400172
 10
107.2992214358488
 20
-162.8479410400172
 10
107.3271267092793
 20
-162.4903401286483
 10
107.3843152943345
 20
-162.4121364611331
 10
107.7215901423404
 20
-162.1137911921105
 10
107.9455213488817
 20
-161.9150091826115
 10
108.0030544434854
 20
-161.8474853111006
 10
108.0030544434854
 20
-161.7100260012392
 10
108.0030544434854
 20
-161.5915147165466
 10
107.9400091961053
 20
-161.4602565785586
 10
107.7677544218428
 20
-161.4602565785586
 10
107.5400336102678
 20
-161.4602565785586
 10
107.5324544002002
 20
-161.6907334665218
 10
107.529009304715
 20
-161.8071776939232
 10
107.529009304715
 20
-161.8071776939232
 10
107.3326388620557
 20
-161.8071776939232
 10
107.3326388620557
 20
-161.8071776939232
 10
107.3402180721233
 20
-161.680398180066
 10
107.3491753203849
 20
-161.5680880672469
 10
107.419455268284
 20
-161.4495767825543
 10
107.515917941871
 20
-161.2890353329416
 10
107.6788709583233
 20
-161.2549288876377
 10
107.7808457846867
 20
-161.2549288876377
 10
108.0233805068483
 20
-161.2549288876377
 10
108.204937038921
 20
-161.4392414960985
 10
108.204937038921
 20
-161.7120930585303
 10
108.204937038921
 20
-161.9405028892024
 10
108.1029622125576
 20
-162.0400661487261
 10
107.8325222169655
 20
-162.266408922107
 97
        0
 97
        0
 75
     2
 76
     1
 98
        0
  0
SPLINE
  5
7B
330
75
100
AcDbEntity
  8
_U+30EC_U+30A4_U+30E4_U+30FC 1
370
     0
100
AcDbSpline
210
0.0
220
0.0
230
1.0
 70
    11
 71
     3
 72
    32
 73
    28
 74
     0
 42
0.0000000001
 43
0.0000000001
 12
1.0
 22
0.0
 32
0.0
 13
1.0
 23
0.0
 33
0.0
 40
0.0
 40
0.0
 40
0.0
 40
0.0
 40
1.0
 40
1.0
 40
1.0
 40
2.0
 40
2.0
 40
2.0
 40
3.0
 40
3.0
 40
3.0
 40
4.0
 40
4.0
 40
4.0
 40
5.0
 40
5.0
 40
5.0
 40
6.0
 40
6.0
 40
6.0
 40
7.0
 40
7.0
 40
7.0
 40
8.0
 40
8.0
 40
8.0
 40
9.0
 40
9.0
 40
9.0
 40
9.0
 10
108.7857801377341
 20
-162.8989284531989
 30
0.0
 10
108.3337836100693
 20
-162.8989284531989
 30
0.0
 10
108.3262044000018
 20
-162.3446125896222
 30
0.0
 10
108.3262044000018
 20
-162.1310166695367
 30
0.0
 10
108.3262044000018
 20
-161.9001952720249
 30
0.0
 10
108.3430853678795
 20
-161.2528618303465
 30
0.0
 10
108.8188530543925
 20
-161.2528618303465
 30
0.0
 10
108.970781765292
 20
-161.2528618303465
 30
0.0
 10
109.1854112140231
 20
-161.3227972686971
 30
0.0
 10
109.21882864023
 20
-161.6549044734752
 30
0.0
 10
109.21882864023
 20
-161.6549044734752
 30
0.0
 10
109.0317599553809
 20
-161.6549044734752
 30
0.0
 10
109.0317599553809
 20
-161.6549044734752
 30
0.0
 10
109.0228027071193
 20
-161.59771588842
 30
0.0
 10
108.9948974336888
 20
-161.4495767825543
 30
0.0
 10
108.8171305066499
 20
-161.4495767825543
 30
0.0
 10
108.5615044216444
 20
-161.4495767825543
 30
0.0
 10
108.5263644476948
 20
-161.7775498727501
 30
0.0
 10
108.515340142142
 20
-161.982877563671
 30
0.0
 10
108.5966443955939
 20
-161.9046738961558
 30
0.0
 10
108.6559000379402
 20
-161.8454182538095
 30
0.0
 10
108.8154079589073
 20
-161.8454182538095
 30
0.0
 10
108.9725043130347
 20
-161.8454182538095
 30
0.0
 10
109.2374321558504
 20
-161.9532497424978
 30
0.0
 10
109.2374321558504
 20
-162.3594265002088
 30
0.0
 10
109.2374321558504
 20
-162.6787868516914
 30
0.0
 10
109.0634548338453
 20
-162.8989284531989
 30
0.0
 10
108.7857801377341
 20
-162.8989284531989
 30
0.0
  0
SPLINE
  5
7C
330
75
100
AcDbEntity
  8
_U+30EC_U+30A4_U+30E4_U+30FC 1
370
     0
100
AcDbSpline
210
0.0
220
0.0
230
1.0
 70
    11
 71
     3
 72
    17
 73
    13
 74
     0
 42
0.0000000001
 43
0.0000000001
 12
1.0
 22
0.0
 32
0.0
 13
1.0
 23
0.0
 33
0.0
 40
0.0
 40
0.0
 40
0.0
 40
0.0
 40
1.0
 40
1.0
 40
1.0
 40
2.0
 40
2.0
 40
2.0
 40
3.0
 40
3.0
 40
3.0
 40
4.0
 40
4.0
 40
4.0
 40
4.0
 10
108.8002495387722
 20
-162.0400661487261
 30
0.0
 10
108.5708061794545
 20
-162.0400661487261
 30
0.0
 10
108.5373887532476
 20
-162.2515950115204
 30
0.0
 10
108.5373887532476
 20
-162.3676947293734
 30
0.0
 10
108.5373887532476
 20
-162.5433945991211
 30
0.0
 10
108.6207600639906
 20
-162.7063476155734
 30
0.0
 10
108.7819905327003
 20
-162.7063476155734
 30
0.0
 10
108.887410454549
 20
-162.7063476155734
 30
0.0
 10
109.0410617131911
 20
-162.6470919732271
 30
0.0
 10
109.0410617131911
 20
-162.3614935574999
 30
0.0
 10
109.0410617131911
 20
-162.1372178414101
 30
0.0
 10
108.9187608234648
 20
-162.0400661487261
 30
0.0
 10
108.8002495387722
 20
-162.0400661487261
 30
0.0
  0
HATCH
  5
7D
330
75
100
AcDbEntity
  8
_U+30EC_U+30A4_U+30E4_U+30FC 1
 62
   179
420
  2234388
100
AcDbHatch
 10
0.0
 20
0.0
 30
0.0
210
0.0
220
0.0
230
1.0
  2
SOLID
 70
     1
 71
     0
 91
        2
 92
        1
 93
        1
 72
     4
 94
        3
 73
     0
 74
     1
 95
       32
 96
       28
 40
0.0
 40
0.0
 40
0.0
 40
0.0
 40
1.0
 40
1.0
 40
1.0
 40
2.0
 40
2.0
 40
2.0
 40
3.0
 40
3.0
 40
3.0
 40
4.0
 40
4.0
 40
4.0
 40
5.0
 40
5.0
 40
5.0
 40
6.0
 40
6.0
 40
6.0
 40
7.0
 40
7.0
 40
7.0
 40
8.0
 40
8.0
 40
8.0
 40
9.0
 40
9.0
 40
9.0
 40
9.0
 10
108.7857801377341
 20
-162.8989284531989
 10
108.3337836100693
 20
-162.8989284531989
 10
108.3262044000018
 20
-162.3446125896222
 10
108.3262044000018
 20
-162.1310166695367
 10
108.3262044000018
 20
-161.9001952720249
 10
108.3430853678795
 20
-161.2528618303465
 10
108.8188530543925
 20
-161.2528618303465
 10
108.970781765292
 20
-161.2528618303465
 10
109.1854112140231
 20
-161.3227972686971
 10
109.21882864023
 20
-161.6549044734752
 10
109.21882864023
 20
-161.6549044734752
 10
109.0317599553809
 20
-161.6549044734752
 10
109.0317599553809
 20
-161.6549044734752
 10
109.0228027071193
 20
-161.59771588842
 10
108.9948974336888
 20
-161.4495767825543
 10
108.8171305066499
 20
-161.4495767825543
 10
108.5615044216444
 20
-161.4495767825543
 10
108.5263644476948
 20
-161.7775498727501
 10
108.515340142142
 20
-161.982877563671
 10
108.5966443955939
 20
-161.9046738961558
 10
108.6559000379402
 20
-161.8454182538095
 10
108.8154079589073
 20
-161.8454182538095
 10
108.9725043130347
 20
-161.8454182538095
 10
109.2374321558504
 20
-161.9532497424978
 10
109.2374321558504
 20
-162.3594265002088
 10
109.2374321558504
 20
-162.6787868516914
 10
109.0634548338453
 20
-162.8989284531989
 10
108.7857801377341
 20
-162.8989284531989
 97
        0
 97
        0
 92
        1
 93
        1
 72
     4
 94
        3
 73
     0
 74
     1
 95
       17
 96
       13
 40
0.0
 40
0.0
 40
0.0
 40
0.0
 40
1.0
 40
1.0
 40
1.0
 40
2.0
 40
2.0
 40
2.0
 40
3.0
 40
3.0
 40
3.0
 40
4.0
 40
4.0
 40
4.0
 40
4.0
 10
108.8002495387722
 20
-162.0400661487261
 10
108.5708061794545
 20
-162.0400661487261
 10
108.5373887532476
 20
-162.2515950115204
 10
108.5373887532476
 20
-162.3676947293734
 10
108.5373887532476
 20
-162.5433945991211
 10
108.6207600639906
 20
-162.7063476155734
 10
108.7819905327003
 20
-162.7063476155734
 10
108.887410454549
 20
-162.7063476155734
 10
109.0410617131911
 20
-162.6470919732271
 10
109.0410617131911
 20
-162.3614935574999
 10
109.0410617131911
 20
-162.1372178414101
 10
108.9187608234648
 20
-162.0400661487261
 10
108.8002495387722
 20
-162.0400661487261
 97
        0
 97
        0
 75
     2
 76
     1
 98
        0
  0
ENDBLK
  5
78
330
75
100
AcDbEntity
  8
0
100
AcDbBlockEnd
  0
ENDSEC
  0
SECTION
  2
ENTITIES
  0
POLYLINE
  5
41
330
1F
100
AcDbEntity
  8
_U+30EC_U+30A4_U+30E4_U+30FC 1
 62
   179
420
  2234388
370
    25
100
AcDb2dPolyline
 66
     1
 10
0.0
 20
0.0
 30
0.0
  0
VERTEX
  5
42
330
41
100
AcDbEntity
  8
_U+30EC_U+30A4_U+30E4_U+30FC 1
 62
   179
420
  2234388
370
    25
100
AcDbVertex
100
AcDb2dVertex
 10
121.2672911022922
 20
-158.6263856279324
 30
0.0
  0
VERTEX
  5
43
330
41
100
AcDbEntity
  8
_U+30EC_U+30A4_U+30E4_U+30FC 1
 62
   179
420
  2234388
370
    25
100
AcDbVertex
100
AcDb2dVertex
 10
121.2672911022922
 20
-159.2264781977694
 30
0.0
  0
SEQEND
  5
44
330
41
100
AcDbEntity
  8
_U+30EC_U+30A4_U+30E4_U+30FC 1
 62
   179
420
  2234388
370
    25
  0
POLYLINE
  5
45
330
1F
100
AcDbEntity
  8
_U+30EC_U+30A4_U+30E4_U+30FC 1
 62
   179
420
  2234388
370
    25
100
AcDb2dPolyline
 66
     1
 10
0.0
 20
0.0
 30
0.0
  0
VERTEX
  5
46
330
45
100
AcDbEntity
  8
_U+30EC_U+30A4_U+30E4_U+30FC 1
 62
   179
420
  2234388
370
    25
100
AcDbVertex
100
AcDb2dVertex
 10
95.26717969843934
 20
-133.2263856342824
 30
0.0
  0
VERTEX
  5
47
330
45
100
AcDbEntity
  8
_U+30EC_U+30A4_U+30E4_U+30FC 1
 62
   179
420
  2234388
370
    25
100
AcDbVertex
100
AcDb2dVertex
 10
95.8669008439193
 20
-133.2263856342824
 30
0.0
  0
SEQEND
  5
48
330
45
100
AcDbEntity
  8
_U+30EC_U+30A4_U+30E4_U+30FC 1
 62
   179
420
  2234388
370
    25
  0
POLYLINE
  5
49
330
1F
100
AcDbEntity
  8
_U+30EC_U+30A4_U+30E4_U+30FC 1
 62
   179
420
  2234388
370
    25
100
AcDb2dPolyline
 66
     1
 10
0.0
 20
0.0
 30
0.0
  0
VERTEX
  5
4A
330
49
100
AcDbEntity
  8
_U+30EC_U+30A4_U+30E4_U+30FC 1
 62
   179
420
  2234388
370
    25
100
AcDbVertex
100
AcDb2dVertex
 10
121.2672911022922
 20
-159.2264997296161
 30
0.0
  0
VERTEX
  5
4B
330
49
100
AcDbEntity
  8
_U+30EC_U+30A4_U+30E4_U+30FC 1
 62
   179
420
  2234388
370
    25
100
AcDbVertex
100
AcDb2dVertex
 10
95.26721737917121
 20
-159.2264997296161
 30
0.0
  0
VERTEX
  5
4C
330
49
100
AcDbEntity
  8
_U+30EC_U+30A4_U+30E4_U+30FC 1
 62
   179
420
  2234388
370
    25
100
AcDbVertex
100
AcDb2dVertex
 10
95.26721737917121
 20
-133.226428697976
 30
0.0
  0
SEQEND
  5
4D
330
49
100
AcDbEntity
  8
_U+30EC_U+30A4_U+30E4_U+30FC 1
 62
   179
420
  2234388
370
    25
  0
SPLINE
  5
4E
330
1F
100
AcDbEntity
  8
_U+30EC_U+30A4_U+30E4_U+30FC 1
 62
   179
420
  2234388
370
    25
100
AcDbSpline
210
0.0
220
0.0
230
1.0
 70
     8
 71
     3
 72
   323
 73
   319
 74
     0
 42
0.0000000001
 43
0.0000000001
 12
1.0
 22
0.0
 32
0.0
 13
1.0
 23
0.0
 33
0.0
 40
0.0
 40
0.0
 40
0.0
 40
0.0
 40
1.0
 40
1.0
 40
1.0
 40
2.0
 40
2.0
 40
2.0
 40
3.0
 40
3.0
 40
3.0
 40
4.0
 40
4.0
 40
4.0
 40
5.0
 40
5.0
 40
5.0
 40
6.0
 40
6.0
 40
6.0
 40
7.0
 40
7.0
 40
7.0
 40
8.0
 40
8.0
 40
8.0
 40
9.0
 40
9.0
 40
9.0
 40
10.0
 40
10.0
 40
10.0
 40
11.0
 40
11.0
 40
11.0
 40
12.0
 40
12.0
 40
12.0
 40
13.0
 40
13.0
 40
13.0
 40
14.0
 40
14.0
 40
14.0
 40
15.0
 40
15.0
 40
15.0
 40
16.0
 40
16.0
 40
16.0
 40
17.0
 40
17.0
 40
17.0
 40
18.0
 40
18.0
 40
18.0
 40
19.0
 40
19.0
 40
19.0
 40
20.0
 40
20.0
 40
20.0
 40
21.0
 40
21.0
 40
21.0
 40
22.0
 40
22.0
 40
22.0
 40
23.0
 40
23.0
 40
23.0
 40
24.0
 40
24.0
 40
24.0
 40
25.0
 40
25.0
 40
25.0
 40
26.0
 40
26.0
 40
26.0
 40
27.0
 40
27.0
 40
27.0
 40
28.0
 40
28.0
 40
28.0
 40
29.0
 40
29.0
 40
29.0
 40
30.0
 40
30.0
 40
30.0
 40
31.0
 40
31.0
 40
31.0
 40
32.0
 40
32.0
 40
32.0
 40
33.0
 40
33.0
 40
33.0
 40
34.0
 40
34.0
 40
34.0
 40
35.0
 40
35.0
 40
35.0
 40
36.0
 40
36.0
 40
36.0
 40
37.0
 40
37.0
 40
37.0
 40
38.0
 40
38.0
 40
38.0
 40
39.0
 40
39.0
 40
39.0
 40
40.0
 40
40.0
 40
40.0
 40
41.0
 40
41.0
 40
41.0
 40
42.0
 40
42.0
 40
42.0
 40
43.0
 40
43.0
 40
43.0
 40
44.0
 40
44.0
 40
44.0
 40
45.0
 40
45.0
 40
45.0
 40
46.0
 40
46.0
 40
46.0
 40
47.0
 40
47.0
 40
47.0
 40
48.0
 40
48.0
 40
48.0
 40
49.0
 40
49.0
 40
49.0
 40
50.0
 40
50.0
 40
50.0
 40
51.0
 40
51.0
 40
51.0
 40
52.0
 40
52.0
 40
52.0
 40
53.0
 40
53.0
 40
53.0
 40
54.0
 40
54.0
 40
54.0
 40
55.0
 40
55.0
 40
55.0
 40
56.0
 40
56.0
 40
56.0
 40
57.0
 40
57.0
 40
57.0
 40
58.0
 40
58.0
 40
58.0
 40
59.0
 40
59.0
 40
59.0
 40
60.0
 40
60.0
 40
60.0
 40
61.0
 40
61.0
 40
61.0
 40
62.0
 40
62.0
 40
62.0
 40
63.0
 40
63.0
 40
63.0
 40
64.0
 40
64.0
 40
64.0
 40
65.0
 40
65.0
 40
65.0
 40
66.0
 40
66.0
 40
66.0
 40
67.0
 40
67.0
 40
67.0
 40
68.0
 40
68.0
 40
68.0
 40
69.0
 40
69.0
 40
69.0
 40
70.0
 40
70.0
 40
70.0
 40
71.0
 40
71.0
 40
71.0
 40
72.0
 40
72.0
 40
72.0
 40
73.0
 40
73.0
 40
73.0
 40
74.0
 40
74.0
 40
74.0
 40
75.0
 40
75.0
 40
75.0
 40
76.0
 40
76.0
 40
76.0
 40
77.0
 40
77.0
 40
77.0
 40
78.0
 40
78.0
 40
78.0
 40
79.0
 40
79.0
 40
79.0
 40
80.0
 40
80.0
 40
80.0
 40
81.0
 40
81.0
 40
81.0
 40
82.0
 40
82.0
 40
82.0
 40
83.0
 40
83.0
 40
83.0
 40
84.0
 40
84.0
 40
84.0
 40
85.0
 40
85.0
 40
85.0
 40
86.0
 40
86.0
 40
86.0
 40
87.0
 40
87.0
 40
87.0
 40
88.0
 40
88.0
 40
88.0
 40
89.0
 40
89.0
 40
89.0
 40
90.0
 40
90.0
 40
90.0
 40
91.0
 40
91.0
 40
91.0
 40
92.0
 40
92.0
 40
92.0
 40
93.0
 40
93.0
 40
93.0
 40
94.0
 40
94.0
 40
94.0
 40
95.0
 40
95.0
 40
95.0
 40
96.0
 40
96.0
 40
96.0
 40
97.0
 40
97.0
 40
97.0
 40
98.0
 40
98.0
 40
98.0
 40
99.0
 40
99.0
 40
99.0
 40
100.0
 40
100.0
 40
100.0
 40
101.0
 40
101.0
 40
101.0
 40
102.0
 40
102.0
 40
102.0
 40
103.0
 40
103.0
 40
103.0
 40
104.0
 40
104.0
 40
104.0
 40
105.0
 40
105.0
 40
105.0
 40
106.0
 40
106.0
 40
106.0
 40
106.0
 10
121.2672911022922
 20
-158.6263856279324
 30
0.0
 10
121.2672911022922
 20
-158.6263856279324
 30
0.0
 10
120.8661797115369
 20
-158.9241495370919
 30
0.0
 10
120.8661797115369
 20
-158.9241495370919
 30
0.0
 10
120.8661797115369
 20
-158.9241495370919
 30
0.0
 10
120.3694669210659
 20
-158.5202120914464
 30
0.0
 10
120.3694669210659
 20
-158.5202120914464
 30
0.0
 10
120.3694669210659
 20
-158.5202120914464
 30
0.0
 10
119.8657024507736
 20
-158.9153214799109
 30
0.0
 10
119.8657024507736
 20
-158.9153214799109
 30
0.0
 10
119.8657024507736
 20
-158.9153214799109
 30
0.0
 10
119.3689896603026
 20
-158.5113840342654
 30
0.0
 10
119.3689896603026
 20
-158.5113840342654
 30
0.0
 10
119.3689896603026
 20
-158.5113840342654
 30
0.0
 10
118.8652251900103
 20
-158.9072039736738
 30
0.0
 10
118.8652251900103
 20
-158.9072039736738
 30
0.0
 10
118.8652251900103
 20
-158.9072039736738
 30
0.0
 10
118.3681625070291
 20
-158.5025775089312
 30
0.0
 10
118.3681625070291
 20
-158.5025775089312
 30
0.0
 10
118.3681625070291
 20
-158.5025775089312
 30
0.0
 10
117.864392653775
 20
-158.8983974483396
 30
0.0
 10
117.864392653775
 20
-158.8983974483396
 30
0.0
 10
117.864392653775
 20
-158.8983974483396
 30
0.0
 10
117.3680351387759
 20
-158.4940939612988
 30
0.0
 10
117.3680351387759
 20
-158.4940939612988
 30
0.0
 10
117.3680351387759
 20
-158.4940939612988
 30
0.0
 10
116.8639153930117
 20
-158.8899139007072
 30
0.0
 10
116.8639153930117
 20
-158.8899139007072
 30
0.0
 10
116.8639153930117
 20
-158.8899139007072
 30
0.0
 10
116.3675578780126
 20
-158.4852874359646
 30
0.0
 10
116.3675578780126
 20
-158.4852874359646
 30
0.0
 10
116.3675578780126
 20
-158.4852874359646
 30
0.0
 10
115.8634381322483
 20
-158.881107375373
 30
0.0
 10
115.8634381322483
 20
-158.881107375373
 30
0.0
 10
115.8634381322483
 20
-158.881107375373
 30
0.0
 10
115.3670806172493
 20
-158.4771699297275
 30
0.0
 10
115.3670806172493
 20
-158.4771699297275
 30
0.0
 10
115.3670806172493
 20
-158.4771699297275
 30
0.0
 10
114.862960871485
 20
-158.8722793181921
 30
0.0
 10
114.862960871485
 20
-158.8722793181921
 30
0.0
 10
114.862960871485
 20
-158.8722793181921
 30
0.0
 10
114.366248081014
 20
-158.4683418725465
 30
0.0
 10
114.366248081014
 20
-158.4683418725465
 30
0.0
 10
114.366248081014
 20
-158.4683418725465
 30
0.0
 10
113.8628335032319
 20
-158.8634727928579
 30
0.0
 10
113.8628335032319
 20
-158.8634727928579
 30
0.0
 10
113.8628335032319
 20
-158.8634727928579
 30
0.0
 10
113.3661260957226
 20
-158.4595353472124
 30
0.0
 10
113.3661260957226
 20
-158.4595353472124
 30
0.0
 10
113.3661260957226
 20
-158.4595353472124
 30
0.0
 10
112.8623562424686
 20
-158.854644735677
 30
0.0
 10
112.8623562424686
 20
-158.854644735677
 30
0.0
 10
112.8623562424686
 20
-158.854644735677
 30
0.0
 10
112.3656488349593
 20
-158.4507072900314
 30
0.0
 10
112.3656488349593
 20
-158.4507072900314
 30
0.0
 10
112.3656488349593
 20
-158.4507072900314
 30
0.0
 10
111.8618789817052
 20
-158.8461827198913
 30
0.0
 10
111.8618789817052
 20
-158.8461827198913
 30
0.0
 10
111.8618789817052
 20
-158.8461827198913
 30
0.0
 10
111.364816298724
 20
-158.4422452742458
 30
0.0
 10
111.364816298724
 20
-158.4422452742458
 30
0.0
 10
111.364816298724
 20
-158.4422452742458
 30
0.0
 10
110.8610518284317
 20
-158.8380652136542
 30
0.0
 10
110.8610518284317
 20
-158.8380652136542
 30
0.0
 10
110.8610518284317
 20
-158.8380652136542
 30
0.0
 10
110.3643390379607
 20
-158.4334172170648
 30
0.0
 10
110.3643390379607
 20
-158.4334172170648
 30
0.0
 10
110.3643390379607
 20
-158.4334172170648
 30
0.0
 10
109.8605745676683
 20
-158.8296031978686
 30
0.0
 10
109.8605745676683
 20
-158.8296031978686
 30
0.0
 10
109.8605745676683
 20
-158.8296031978686
 30
0.0
 10
109.3638617771973
 20
-158.4246106917307
 30
0.0
 10
109.3638617771973
 20
-158.4246106917307
 30
0.0
 10
109.3638617771973
 20
-158.4246106917307
 30
0.0
 10
108.8604471994152
 20
-158.8204306311391
 30
0.0
 10
108.8604471994152
 20
-158.8204306311391
 30
0.0
 10
108.8604471994152
 20
-158.8204306311391
 30
0.0
 10
108.363384516434
 20
-158.4157826345497
 30
0.0
 10
108.363384516434
 20
-158.4157826345497
 30
0.0
 10
108.363384516434
 20
-158.4157826345497
 30
0.0
 10
107.85961466318
 20
-158.8119470835067
 30
0.0
 10
107.85961466318
 20
-158.8119470835067
 30
0.0
 10
107.85961466318
 20
-158.8119470835067
 30
0.0
 10
107.3625519801988
 20
-158.4076651283126
 30
0.0
 10
107.3625519801988
 20
-158.4076651283126
 30
0.0
 10
107.3625519801988
 20
-158.4076651283126
 30
0.0
 10
106.8591374024166
 20
-158.8031405581725
 30
0.0
 10
106.8591374024166
 20
-158.8031405581725
 30
0.0
 10
106.8591374024166
 20
-158.8031405581725
 30
0.0
 10
106.3620747194354
 20
-158.3992031125269
 30
0.0
 10
106.3620747194354
 20
-158.3992031125269
 30
0.0
 10
106.3620747194354
 20
-158.3992031125269
 30
0.0
 10
105.8586601416533
 20
-158.7943125009915
 30
0.0
 10
105.8586601416533
 20
-158.7943125009915
 30
0.0
 10
105.8586601416533
 20
-158.7943125009915
 30
0.0
 10
105.3615974586721
 20
-158.3903965871928
 30
0.0
 10
105.3615974586721
 20
-158.3903965871928
 30
0.0
 10
105.3615974586721
 20
-158.3903965871928
 30
0.0
 10
104.85818288089
 20
-158.7858504852059
 30
0.0
 10
104.85818288089
 20
-158.7858504852059
 30
0.0
 10
104.85818288089
 20
-158.7858504852059
 30
0.0
 10
104.3611201979087
 20
-158.3815685300118
 30
0.0
 10
104.3611201979087
 20
-158.3815685300118
 30
0.0
 10
104.3611201979087
 20
-158.3815685300118
 30
0.0
 10
103.8577056201266
 20
-158.7766779184764
 30
0.0
 10
103.8577056201266
 20
-158.7766779184764
 30
0.0
 10
103.8577056201266
 20
-158.7766779184764
 30
0.0
 10
103.3606429371454
 20
-158.3727404728309
 30
0.0
 10
103.3606429371454
 20
-158.3727404728309
 30
0.0
 10
103.3606429371454
 20
-158.3727404728309
 30
0.0
 10
102.8568730838914
 20
-158.7689264536346
 30
0.0
 10
102.8568730838914
 20
-158.7689264536346
 30
0.0
 10
102.8568730838914
 20
-158.7689264536346
 30
0.0
 10
102.3598104009102
 20
-158.3642784570452
 30
0.0
 10
102.3598104009102
 20
-158.3642784570452
 30
0.0
 10
102.3598104009102
 20
-158.3642784570452
 30
0.0
 10
101.856395823128
 20
-158.7600983964537
 30
0.0
 10
101.856395823128
 20
-158.7600983964537
 30
0.0
 10
101.856395823128
 20
-158.7600983964537
 30
0.0
 10
101.3593358316277
 20
-158.3554719317111
 30
0.0
 10
101.3593358316277
 20
-158.3554719317111
 30
0.0
 10
101.3593358316277
 20
-158.3554719317111
 30
0.0
 10
100.8559212538455
 20
-158.7512703392727
 30
0.0
 10
100.8559212538455
 20
-158.7512703392727
 30
0.0
 10
100.8559212538455
 20
-158.7512703392727
 30
0.0
 10
100.3592111548554
 20
-158.3469883840786
 30
0.0
 10
100.3592111548554
 20
-158.3469883840786
 30
0.0
 10
100.3592111548554
 20
-158.3469883840786
 30
0.0
 10
99.8554439930822
 20
-158.7428083234871
 30
0.0
 10
99.8554439930822
 20
-158.7428083234871
 30
0.0
 10
99.8554439930822
 20
-158.7428083234871
 30
0.0
 10
99.35837861862015
 20
-158.338526368293
 30
0.0
 10
99.35837861862015
 20
-158.338526368293
 30
0.0
 10
99.35837861862015
 20
-158.338526368293
 30
0.0
 10
98.85461145684695
 20
-158.7340017981529
 30
0.0
 10
98.85461145684695
 20
-158.7340017981529
 30
0.0
 10
98.85461145684695
 20
-158.7340017981529
 30
0.0
 10
98.35790135785682
 20
-158.3300643525073
 30
0.0
 10
98.35790135785682
 20
-158.3300643525073
 30
0.0
 10
98.35790135785682
 20
-158.3300643525073
 30
0.0
 10
97.85448947155554
 20
-158.7251737409719
 30
0.0
 10
97.85448947155554
 20
-158.7251737409719
 30
0.0
 10
97.85448947155554
 20
-158.7251737409719
 30
0.0
 10
97.35883443305775
 20
-158.3046567733036
 30
0.0
 10
97.35883443305775
 20
-158.3046567733036
 30
0.0
 10
97.35883443305775
 20
-158.3046567733036
 30
0.0
 10
96.85542254675647
 20
-158.6997661617682
 30
0.0
 10
96.85542254675647
 20
-158.6997661617682
 30
0.0
 10
96.85542254675647
 20
-158.6997661617682
 30
0.0
 10
96.85471737877434
 20
-158.6997661617682
 30
0.0
 10
96.85471737877434
 20
-158.6997661617682
 30
0.0
 10
96.85471737877434
 20
-158.6997661617682
 30
0.0
 10
96.47512706887845
 20
-158.6966009802911
 30
0.0
 10
96.47512706887845
 20
-158.6966009802911
 30
0.0
 10
96.4684252815673
 20
-158.697311531235
 30
0.0
 10
96.46136821878424
 20
-158.697311531235
 30
0.0
 10
96.45537159945522
 20
-158.6966009802911
 30
0.0
 10
96.12375962715315
 20
-158.6916701873779
 30
0.0
 10
95.85917629388597
 20
-158.4182587969297
 30
0.0
 10
95.86482032922423
 20
-158.0866468246276
 30
0.0
 10
95.86482032922423
 20
-158.0866468246276
 30
0.0
 10
95.86482032922423
 20
-158.0506671086536
 30
0.0
 10
95.86482032922423
 20
-158.0506671086536
 30
0.0
 10
95.86482032922423
 20
-158.0506671086536
 30
0.0
 10
95.8637625772507
 20
-158.0510116182021
 30
0.0
 10
95.8637625772507
 20
-158.0510116182021
 30
0.0
 10
95.8637625772507
 20
-158.0510116182021
 30
0.0
 10
95.85952887787703
 20
-157.7141028115915
 30
0.0
 10
95.85952887787703
 20
-157.7141028115915
 30
0.0
 10
95.85952887787703
 20
-157.7141028115915
 30
0.0
 10
96.2532306218582
 20
-157.2085781128246
 30
0.0
 10
96.2532306218582
 20
-157.2085781128246
 30
0.0
 10
96.2532306218582
 20
-157.2085781128246
 30
0.0
 10
95.84612530325472
 20
-156.7139915922234
 30
0.0
 10
95.84612530325472
 20
-156.7139915922234
 30
0.0
 10
95.84612530325472
 20
-156.7139915922234
 30
0.0
 10
95.82919050576005
 20
-156.7076396974225
 30
0.0
 10
95.82919050576005
 20
-156.7076396974225
 30
0.0
 10
95.82919050576005
 20
-156.7076396974225
 30
0.0
 10
96.22253966575015
 20
-156.2021149986556
 30
0.0
 10
96.22253966575015
 20
-156.2021149986556
 30
0.0
 10
96.22253966575015
 20
-156.2021149986556
 30
0.0
 10
95.81543165566583
 20
-155.7071624366592
 30
0.0
 10
95.81543165566583
 20
-155.7071624366592
 30
0.0
 10
95.81543165566583
 20
-155.7071624366592
 30
0.0
 10
96.20842823166485
 20
-155.2016377378923
 30
0.0
 10
96.20842823166485
 20
-155.2016377378923
 30
0.0
 10
96.20842823166485
 20
-155.2016377378923
 30
0.0
 10
95.80202808104353
 20
-154.7066851758958
 30
0.0
 10
95.80202808104353
 20
-154.7066851758958
 30
0.0
 10
95.80202808104353
 20
-154.7066851758958
 30
0.0
 10
96.19466938157063
 20
-154.2015049866775
 30
0.0
 10
96.19466938157063
 20
-154.2015049866775
 30
0.0
 10
96.19466938157063
 20
-154.2015049866775
 30
0.0
 10
95.78826923094931
 20
-153.7062079151325
 30
0.0
 10
95.78826923094931
 20
-153.7062079151325
 30
0.0
 10
95.78826923094931
 20
-153.7062079151325
 30
0.0
 10
96.18091053147643
 20
-153.2006832163656
 30
0.0
 10
96.18091053147643
 20
-153.2006832163656
 30
0.0
 10
96.18091053147643
 20
-153.2006832163656
 30
0.0
 10
95.77380521287296
 20
-152.7057306543691
 30
0.0
 10
95.77380521287296
 20
-152.7057306543691
 30
0.0
 10
95.77380521287296
 20
-152.7057306543691
 30
0.0
 10
96.16715168138221
 20
-152.2002059556023
 30
0.0
 10
96.16715168138221
 20
-152.2002059556023
 30
0.0
 10
96.16715168138221
 20
-152.2002059556023
 30
0.0
 10
95.76039894676981
 20
-151.7052533936058
 30
0.0
 10
95.76039894676981
 20
-151.7052533936058
 30
0.0
 10
95.76039894676981
 20
-151.7052533936058
 30
0.0
 10
96.15304024729693
 20
-151.2000732043875
 30
0.0
 10
96.15304024729693
 20
-151.2000732043875
 30
0.0
 10
96.15304024729693
 20
-151.2000732043875
 30
0.0
 10
95.74664009667559
 20
-150.7047761328425
 30
0.0
 10
95.74664009667559
 20
-150.7047761328425
 30
0.0
 10
95.74664009667559
 20
-150.7047761328425
 30
0.0
 10
96.13928408868355
 20
-150.1992299022288
 30
0.0
 10
96.13928408868355
 20
-150.1992299022288
 30
0.0
 10
96.13928408868355
 20
-150.1992299022288
 30
0.0
 10
95.73217607859924
 20
-149.7042988720791
 30
0.0
 10
95.73217607859924
 20
-149.7042988720791
 30
0.0
 10
95.73217607859924
 20
-149.7042988720791
 30
0.0
 10
96.12552523858933
 20
-149.1987526414655
 30
0.0
 10
96.12552523858933
 20
-149.1987526414655
 30
0.0
 10
96.12552523858933
 20
-149.1987526414655
 30
0.0
 10
95.71841991998588
 20
-148.7045106304128
 30
0.0
 10
95.71841991998588
 20
-148.7045106304128
 30
0.0
 10
95.71841991998588
 20
-148.7045106304128
 30
0.0
 10
96.11141380450405
 20
-148.1982753807022
 30
0.0
 10
96.11141380450405
 20
-148.1982753807022
 30
0.0
 10
96.11141380450405
 20
-148.1982753807022
 30
0.0
 10
95.70501365388273
 20
-147.7040333696498
 30
0.0
 10
95.70501365388273
 20
-147.7040333696498
 30
0.0
 10
95.70501365388273
 20
-147.7040333696498
 30
0.0
 10
96.09765495440983
 20
-147.1977981199389
 30
0.0
 10
96.09765495440983
 20
-147.1977981199389
 30
0.0
 10
96.09765495440983
 20
-147.1977981199389
 30
0.0
 10
95.69090221979744
 20
-146.7035561088862
 30
0.0
 10
95.69090221979744
 20
-146.7035561088862
 30
0.0
 10
95.69090221979744
 20
-146.7035561088862
 30
0.0
 10
96.08389610431561
 20
-146.1973208591758
 30
0.0
 10
96.08389610431561
 20
-146.1973208591758
 30
0.0
 10
96.08389610431561
 20
-146.1973208591758
 30
0.0
 10
95.67643820172108
 20
-145.7030788481229
 30
0.0
 10
95.67643820172108
 20
-145.7030788481229
 30
0.0
 10
95.67643820172108
 20
-145.7030788481229
 30
0.0
 10
96.07013725422141
 20
-145.1968435984122
 30
0.0
 10
96.07013725422141
 20
-145.1968435984122
 30
0.0
 10
96.07013725422141
 20
-145.1968435984122
 30
0.0
 10
95.66267935162719
 20
-144.7026015873595
 30
0.0
 10
95.66267935162719
 20
-144.7026015873595
 30
0.0
 10
95.66267935162719
 20
-144.7026015873595
 30
0.0
 10
96.05567323614505
 20
-144.1963663376488
 30
0.0
 10
96.05567323614505
 20
-144.1963663376488
 30
0.0
 10
96.05567323614505
 20
-144.1963663376488
 30
0.0
 10
95.64892050153266
 20
-143.7021243265965
 30
0.0
 10
95.64892050153266
 20
-143.7021243265965
 30
0.0
 10
95.64892050153266
 20
-143.7021243265965
 30
0.0
 10
96.04226966152275
 20
-143.1958890768855
 30
0.0
 10
96.04226966152275
 20
-143.1958890768855
 30
0.0
 10
96.04226966152275
 20
-143.1958890768855
 30
0.0
 10
95.63481175892822
 20
-142.7013025562843
 30
0.0
 10
95.63481175892822
 20
-142.7013025562843
 30
0.0
 10
95.63481175892822
 20
-142.7013025562843
 30
0.0
 10
96.02851081142853
 20
-142.1954118161225
 30
0.0
 10
96.02851081142853
 20
-142.1954118161225
 30
0.0
 10
96.02851081142853
 20
-142.1954118161225
 30
0.0
 10
95.621052908834
 20
-141.700825295521
 30
0.0
 10
95.621052908834
 20
-141.700825295521
 30
0.0
 10
95.621052908834
 20
-141.700825295521
 30
0.0
 10
96.01404679335218
 20
-141.1949345553588
 30
0.0
 10
96.01404679335218
 20
-141.1949345553588
 30
0.0
 10
96.01404679335218
 20
-141.1949345553588
 30
0.0
 10
95.60729405873978
 20
-140.7003480347576
 30
0.0
 10
95.60729405873978
 20
-140.7003480347576
 30
0.0
 10
95.60729405873978
 20
-140.7003480347576
 30
0.0
 10
95.9999353592669
 20
-140.1944572945955
 30
0.0
 10
95.9999353592669
 20
-140.1944572945955
 30
0.0
 10
95.9999353592669
 20
-140.1944572945955
 30
0.0
 10
95.59353520864556
 20
-139.7002152835431
 30
0.0
 10
95.59353520864556
 20
-139.7002152835431
 30
0.0
 10
95.59353520864556
 20
-139.7002152835431
 30
0.0
 10
95.98652909316374
 20
-139.1939800338322
 30
0.0
 10
95.98652909316374
 20
-139.1939800338322
 30
0.0
 10
95.98652909316374
 20
-139.1939800338322
 30
0.0
 10
95.57942377456028
 20
-138.6997380227795
 30
0.0
 10
95.57942377456028
 20
-138.6997380227795
 30
0.0
 10
95.57942377456028
 20
-138.6997380227795
 30
0.0
 10
95.97277293455038
 20
-138.1935027730691
 30
0.0
 10
95.97277293455038
 20
-138.1935027730691
 30
0.0
 10
95.97277293455038
 20
-138.1935027730691
 30
0.0
 10
95.56566492446606
 20
-137.6989162524676
 30
0.0
 10
95.56566492446606
 20
-137.6989162524676
 30
0.0
 10
95.56566492446606
 20
-137.6989162524676
 30
0.0
 10
95.95830891647402
 20
-137.1930255123055
 30
0.0
 10
95.95830891647402
 20
-137.1930255123055
 30
0.0
 10
95.95830891647402
 20
-137.1930255123055
 30
0.0
 10
95.5519087658527
 20
-136.6984389917043
 30
0.0
 10
95.5519087658527
 20
-136.6984389917043
 30
0.0
 10
95.5519087658527
 20
-136.6984389917043
 30
0.0
 10
95.94490265037088
 20
-136.1925482515421
 30
0.0
 10
95.94490265037088
 20
-136.1925482515421
 30
0.0
 10
95.94490265037088
 20
-136.1925482515421
 30
0.0
 10
95.53779733176741
 20
-135.6979617309413
 30
0.0
 10
95.53779733176741
 20
-135.6979617309413
 30
0.0
 10
95.53779733176741
 20
-135.6979617309413
 30
0.0
 10
95.93114380027666
 20
-135.1927815417226
 30
0.0
 10
95.93114380027666
 20
-135.1927815417226
 30
0.0
 10
95.93114380027666
 20
-135.1927815417226
 30
0.0
 10
95.52403848167319
 20
-134.6974844701776
 30
0.0
 10
95.52403848167319
 20
-134.6974844701776
 30
0.0
 10
95.52403848167319
 20
-134.6974844701776
 30
0.0
 10
95.9166797822003
 20
-134.1923042809593
 30
0.0
 10
95.9166797822003
 20
-134.1923042809593
 30
0.0
 10
95.9166797822003
 20
-134.1923042809593
 30
0.0
 10
95.51027963157898
 20
-133.6970072094143
 30
0.0
 10
95.51027963157898
 20
-133.6970072094143
 30
0.0
 10
95.51027963157898
 20
-133.6970072094143
 30
0.0
 10
95.88175512671859
 20
-133.2299168571548
 30
0.0
 10
95.88175512671859
 20
-133.2299168571548
 30
0.0
  0
SPLINE
  5
4F
330
1F
100
AcDbEntity
  8
_U+30EC_U+30A4_U+30E4_U+30FC 1
 62
   179
420
  2234388
370
     9
100
AcDbSpline
210
0.0
220
0.0
230
1.0
 70
    11
 71
     3
 72
    17
 73
    13
 74
     0
 42
0.0000000001
 43
0.0000000001
 12
1.0
 22
0.0
 32
0.0
 13
1.0
 23
0.0
 33
0.0
 40
0.0
 40
0.0
 40
0.0
 40
0.0
 40
1.0
 40
1.0
 40
1.0
 40
2.0
 40
2.0
 40
2.0
 40
3.0
 40
3.0
 40
3.0
 40
4.0
 40
4.0
 40
4.0
 40
4.0
 10
91.36595087946158
 20
-159.2266719843904
 30
0.0
 10
91.36595087946158
 20
-159.1709475649165
 30
0.0
 10
91.3211457977874
 20
-159.1261397917614
 30
0.0
 10
91.26611308889137
 20
-159.1261397917614
 30
0.0
 10
91.21072779600429
 20
-159.1261397917614
 30
0.0
 10
91.16592540581095
 20
-159.1709475649165
 30
0.0
 10
91.16592540581095
 20
-159.2266719843904
 30
0.0
 10
91.16592540581095
 20
-159.2817073847673
 30
0.0
 10
91.21072779600429
 20
-159.3265151579223
 30
0.0
 10
91.26611308889137
 20
-159.3265151579223
 30
0.0
 10
91.3211457977874
 20
-159.3265151579223
 30
0.0
 10
91.36595087946158
 20
-159.2817073847673
 30
0.0
 10
91.36595087946158
 20
-159.2266719843904
 30
0.0
  0
SPLINE
  5
50
330
1F
100
AcDbEntity
  8
_U+30EC_U+30A4_U+30E4_U+30FC 1
 62
   179
420
  2234388
370
     9
100
AcDbSpline
210
0.0
220
0.0
230
1.0
 70
    11
 71
     3
 72
    17
 73
    13
 74
     0
 42
0.0000000001
 43
0.0000000001
 12
1.0
 22
0.0
 32
0.0
 13
1.0
 23
0.0
 33
0.0
 40
0.0
 40
0.0
 40
0.0
 40
0.0
 40
1.0
 40
1.0
 40
1.0
 40
2.0
 40
2.0
 40
2.0
 40
3.0
 40
3.0
 40
3.0
 40
4.0
 40
4.0
 40
4.0
 40
4.0
 10
91.36595087946158
 20
-133.2263856342824
 30
0.0
 10
91.36595087946158
 20
-133.1713717657523
 30
0.0
 10
91.3211457977874
 20
-133.1265639925973
 30
0.0
 10
91.26611308889137
 20
-133.1265639925973
 30
0.0
 10
91.21072779600429
 20
-133.1265639925973
 30
0.0
 10
91.16592540581095
 20
-133.1713717657523
 30
0.0
 10
91.16592540581095
 20
-133.2263856342824
 30
0.0
 10
91.16592540581095
 20
-133.2814210346592
 30
0.0
 10
91.21072779600429
 20
-133.3262288078143
 30
0.0
 10
91.26611308889137
 20
-133.3262288078143
 30
0.0
 10
91.3211457977874
 20
-133.3262288078143
 30
0.0
 10
91.36595087946158
 20
-133.2814210346592
 30
0.0
 10
91.36595087946158
 20
-133.2263856342824
 30
0.0
  0
POLYLINE
  5
51
330
1F
100
AcDbEntity
  8
_U+30EC_U+30A4_U+30E4_U+30FC 1
 62
   179
420
  2234388
370
     9
100
AcDb2dPolyline
 66
     1
 10
0.0
 20
0.0
 30
0.0
  0
VERTEX
  5
52
330
51
100
AcDbEntity
  8
_U+30EC_U+30A4_U+30E4_U+30FC 1
 62
   179
420
  2234388
370
     9
100
AcDbVertex
100
AcDb2dVertex
 10
91.26601081261916
 20
-159.2266719843904
 30
0.0
  0
VERTEX
  5
53
330
51
100
AcDbEntity
  8
_U+30EC_U+30A4_U+30E4_U+30FC 1
 62
   179
420
  2234388
370
     9
100
AcDbVertex
100
AcDb2dVertex
 10
91.26601081261916
 20
-133.2262564432017
 30
0.0
  0
SEQEND
  5
54
330
51
100
AcDbEntity
  8
_U+30EC_U+30A4_U+30E4_U+30FC 1
 62
   179
420
  2234388
370
     9
  0
POLYLINE
  5
55
330
1F
100
AcDbEntity
  8
_U+30EC_U+30A4_U+30E4_U+30FC 1
 62
   179
420
  2234388
370
     9
100
AcDb2dPolyline
 66
     1
 10
0.0
 20
0.0
 30
0.0
  0
VERTEX
  5
56
330
55
100
AcDbEntity
  8
_U+30EC_U+30A4_U+30E4_U+30FC 1
 62
   179
420
  2234388
370
     9
100
AcDbVertex
100
AcDb2dVertex
 10
93.3272545051377
 20
-159.2266719843904
 30
0.0
  0
VERTEX
  5
57
330
55
100
AcDbEntity
  8
_U+30EC_U+30A4_U+30E4_U+30FC 1
 62
   179
420
  2234388
370
     9
100
AcDbVertex
100
AcDb2dVertex
 10
90.26549587112395
 20
-159.2266719843904
 30
0.0
  0
SEQEND
  5
58
330
55
100
AcDbEntity
  8
_U+30EC_U+30A4_U+30E4_U+30FC 1
 62
   179
420
  2234388
370
     9
  0
POLYLINE
  5
59
330
1F
100
AcDbEntity
  8
_U+30EC_U+30A4_U+30E4_U+30FC 1
 62
   179
420
  2234388
370
     9
100
AcDb2dPolyline
 66
     1
 10
0.0
 20
0.0
 30
0.0
  0
VERTEX
  5
5A
330
59
100
AcDbEntity
  8
_U+30EC_U+30A4_U+30E4_U+30FC 1
 62
   179
420
  2234388
370
     9
100
AcDbVertex
100
AcDb2dVertex
 10
93.12567873851872
 20
-133.2263856342824
 30
0.0
  0
VERTEX
  5
5B
330
59
100
AcDbEntity
  8
_U+30EC_U+30A4_U+30E4_U+30FC 1
 62
   179
420
  2234388
370
     9
100
AcDbVertex
100
AcDb2dVertex
 10
90.26570849811093
 20
-133.2263856342824
 30
0.0
  0
SEQEND
  5
5C
330
59
100
AcDbEntity
  8
_U+30EC_U+30A4_U+30E4_U+30FC 1
 62
   179
420
  2234388
370
     9
  0
INSERT
  5
5E
330
1F
100
AcDbEntity
  8
_U+30EC_U+30A4_U+30E4_U+30FC 1
100
AcDbBlockReference
  2
block 2
 10
0.0
 20
0.0
 30
0.0
  0
SPLINE
  5
66
330
1F
100
AcDbEntity
  8
_U+30EC_U+30A4_U+30E4_U+30FC 1
 62
   179
420
  2234388
370
     9
100
AcDbSpline
210
0.0
220
0.0
230
1.0
 70
    11
 71
     3
 72
    17
 73
    13
 74
     0
 42
0.0000000001
 43
0.0000000001
 12
1.0
 22
0.0
 32
0.0
 13
1.0
 23
0.0
 33
0.0
 40
0.0
 40
0.0
 40
0.0
 40
0.0
 40
1.0
 40
1.0
 40
1.0
 40
2.0
 40
2.0
 40
2.0
 40
3.0
 40
3.0
 40
3.0
 40
4.0
 40
4.0
 40
4.0
 40
4.0
 10
91.30118308433887
 20
-133.2263856342824
 30
0.0
 10
91.30118308433887
 20
-133.2458073600805
 30
0.0
 10
91.28530603881741
 20
-133.2616763311597
 30
0.0
 10
91.26590315338524
 20
-133.2616763311597
 30
0.0
 10
91.24650026795308
 20
-133.2616763311597
 30
0.0
 10
91.23062591391245
 20
-133.2458073600805
 30
0.0
 10
91.23062591391245
 20
-133.2263856342824
 30
0.0
 10
91.23062591391245
 20
-133.2069854403314
 30
0.0
 10
91.24650026795308
 20
-133.1911164692521
 30
0.0
 10
91.26590315338524
 20
-133.1911164692521
 30
0.0
 10
91.28530603881741
 20
-133.1911164692521
 30
0.0
 10
91.30118308433887
 20
-133.2069854403314
 30
0.0
 10
91.30118308433887
 20
-133.2263856342824
 30
0.0
  0
SPLINE
  5
67
330
1F
100
AcDbEntity
  8
_U+30EC_U+30A4_U+30E4_U+30FC 1
 62
   179
420
  2234388
370
     9
100
AcDbSpline
210
0.0
220
0.0
230
1.0
 70
    11
 71
     3
 72
    17
 73
    13
 74
     0
 42
0.0000000001
 43
0.0000000001
 12
1.0
 22
0.0
 32
0.0
 13
1.0
 23
0.0
 33
0.0
 40
0.0
 40
0.0
 40
0.0
 40
0.0
 40
1.0
 40
1.0
 40
1.0
 40
2.0
 40
2.0
 40
2.0
 40
3.0
 40
3.0
 40
3.0
 40
4.0
 40
4.0
 40
4.0
 40
4.0
 10
121.3670212336285
 20
-163.2209802855294
 30
0.0
 10
121.3670212336285
 20
-163.1659664169993
 30
0.0
 10
121.3222134604735
 20
-163.1211586438443
 30
0.0
 10
121.2671834430583
 20
-163.1211586438443
 30
0.0
 10
121.2121480426814
 20
-163.1211586438443
 30
0.0
 10
121.1673456524881
 20
-163.1659664169993
 30
0.0
 10
121.1673456524881
 20
-163.2209802855294
 30
0.0
 10
121.1673456524881
 20
-163.2760156859063
 30
0.0
 10
121.2121480426814
 20
-163.3208234590613
 30
0.0
 10
121.2671834430583
 20
-163.3208234590613
 30
0.0
 10
121.3222134604735
 20
-163.3208234590613
 30
0.0
 10
121.3670212336285
 20
-163.2760156859063
 30
0.0
 10
121.3670212336285
 20
-163.2209802855294
 30
0.0
  0
SPLINE
  5
68
330
1F
100
AcDbEntity
  8
_U+30EC_U+30A4_U+30E4_U+30FC 1
 62
   179
420
  2234388
370
     9
100
AcDbSpline
210
0.0
220
0.0
230
1.0
 70
    11
 71
     3
 72
    17
 73
    13
 74
     0
 42
0.0000000001
 43
0.0000000001
 12
1.0
 22
0.0
 32
0.0
 13
1.0
 23
0.0
 33
0.0
 40
0.0
 40
0.0
 40
0.0
 40
0.0
 40
1.0
 40
1.0
 40
1.0
 40
2.0
 40
2.0
 40
2.0
 40
3.0
 40
3.0
 40
3.0
 40
4.0
 40
4.0
 40
4.0
 40
4.0
 10
95.36705247826056
 20
-163.2209802855294
 30
0.0
 10
95.36705247826056
 20
-163.1659664169993
 30
0.0
 10
95.32224739658638
 20
-163.1211586438443
 30
0.0
 10
95.26721468769036
 20
-163.1211586438443
 30
0.0
 10
95.21218197879435
 20
-163.1211586438443
 30
0.0
 10
95.16737958860101
 20
-163.1659664169993
 30
0.0
 10
95.16737958860101
 20
-163.2209802855294
 30
0.0
 10
95.16737958860101
 20
-163.2760156859063
 30
0.0
 10
95.21218197879435
 20
-163.3208234590613
 30
0.0
 10
95.26721468769036
 20
-163.3208234590613
 30
0.0
 10
95.32224739658638
 20
-163.3208234590613
 30
0.0
 10
95.36705247826056
 20
-163.2760156859063
 30
0.0
 10
95.36705247826056
 20
-163.2209802855294
 30
0.0
  0
POLYLINE
  5
69
330
1F
100
AcDbEntity
  8
_U+30EC_U+30A4_U+30E4_U+30FC 1
 62
   179
420
  2234388
370
     9
100
AcDb2dPolyline
 66
     1
 10
0.0
 20
0.0
 30
0.0
  0
VERTEX
  5
6A
330
69
100
AcDbEntity
  8
_U+30EC_U+30A4_U+30E4_U+30FC 1
 62
   179
420
  2234388
370
     9
100
AcDbVertex
100
AcDb2dVertex
 10
95.26717969843934
 20
-163.2209802855294
 30
0.0
  0
VERTEX
  5
6B
330
69
100
AcDbEntity
  8
_U+30EC_U+30A4_U+30E4_U+30FC 1
 62
   179
420
  2234388
370
     9
100
AcDbVertex
100
AcDb2dVertex
 10
121.2672534215604
 20
-163.2209802855294
 30
0.0
  0
SEQEND
  5
6C
330
69
100
AcDbEntity
  8
_U+30EC_U+30A4_U+30E4_U+30FC 1
 62
   179
420
  2234388
370
     9
  0
POLYLINE
  5
6D
330
1F
100
AcDbEntity
  8
_U+30EC_U+30A4_U+30E4_U+30FC 1
 62
   179
420
  2234388
370
     9
100
AcDb2dPolyline
 66
     1
 10
0.0
 20
0.0
 30
0.0
  0
VERTEX
  5
6E
330
6D
100
AcDbEntity
  8
_U+30EC_U+30A4_U+30E4_U+30FC 1
 62
   179
420
  2234388
370
     9
100
AcDbVertex
100
AcDb2dVertex
 10
95.26717969843934
 20
-161.1662822744328
 30
0.0
  0
VERTEX
  5
6F
330
6D
100
AcDbEntity
  8
_U+30EC_U+30A4_U+30E4_U+30FC 1
 62
   179
420
  2234388
370
     9
100
AcDbVertex
100
AcDb2dVertex
 10
95.26717969843934
 20
-164.220639336115
 30
0.0
  0
SEQEND
  5
70
330
6D
100
AcDbEntity
  8
_U+30EC_U+30A4_U+30E4_U+30FC 1
 62
   179
420
  2234388
370
     9
  0
POLYLINE
  5
71
330
1F
100
AcDbEntity
  8
_U+30EC_U+30A4_U+30E4_U+30FC 1
 62
   179
420
  2234388
370
     9
100
AcDb2dPolyline
 66
     1
 10
0.0
 20
0.0
 30
0.0
  0
VERTEX
  5
72
330
71
100
AcDbEntity
  8
_U+30EC_U+30A4_U+30E4_U+30FC 1
 62
   179
420
  2234388
370
     9
100
AcDbVertex
100
AcDb2dVertex
 10
121.2671134645563
 20
-161.3612962107447
 30
0.0
  0
VERTEX
  5
73
330
71
100
AcDbEntity
  8
_U+30EC_U+30A4_U+30E4_U+30FC 1
 62
   179
420
  2234388
370
     9
100
AcDbVertex
100
AcDb2dVertex
 10
121.2671134645563
 20
-164.2205747405746
 30
0.0
  0
SEQEND
  5
74
330
71
100
AcDbEntity
  8
_U+30EC_U+30A4_U+30E4_U+30FC 1
 62
   179
420
  2234388
370
     9
  0
INSERT
  5
76
330
1F
100
AcDbEntity
  8
_U+30EC_U+30A4_U+30E4_U+30FC 1
100
AcDbBlockReference
  2
block 3
 10
0.0
 20
0.0
 30
0.0
  0
SPLINE
  5
7E
330
1F
100
AcDbEntity
  8
_U+30EC_U+30A4_U+30E4_U+30FC 1
 62
   179
420
  2234388
370
     9
100
AcDbSpline
210
0.0
220
0.0
230
1.0
 70
    11
 71
     3
 72
    17
 73
    13
 74
     0
 42
0.0000000001
 43
0.0000000001
 12
1.0
 22
0.0
 32
0.0
 13
1.0
 23
0.0
 33
0.0
 40
0.0
 40
0.0
 40
0.0
 40
0.0
 40
1.0
 40
1.0
 40
1.0
 40
2.0
 40
2.0
 40
2.0
 40
3.0
 40
3.0
 40
3.0
 40
4.0
 40
4.0
 40
4.0
 40
4.0
 10
121.302285736276
 20
-163.2209802855294
 30
0.0
 10
121.302285736276
 20
-163.2404020113275
 30
0.0
 10
121.2864059992737
 20
-163.2562709824064
 30
0.0
 10
121.2670058053224
 20
-163.2562709824064
 30
0.0
 10
121.2479555038813
 20
-163.2562709824064
 30
0.0
 10
121.2320811498406
 20
-163.2404020113275
 30
0.0
 10
121.2320811498406
 20
-163.2209802855294
 30
0.0
 10
121.2320811498406
 20
-163.2015800915781
 30
0.0
 10
121.2479555038813
 20
-163.1857111204991
 30
0.0
 10
121.2670058053224
 20
-163.1857111204991
 30
0.0
 10
121.2864059992737
 20
-163.1857111204991
 30
0.0
 10
121.302285736276
 20
-163.2015800915781
 30
0.0
 10
121.302285736276
 20
-163.2209802855294
 30
0.0
  0
ENDSEC
  0
SECTION
  2
OBJECTS
  0
DICTIONARY
  5
C
330
0
100
AcDbDictionary
281
     1
  3
ACAD_GROUP
350
D
  3
ACAD_LAYOUT
350
1A
  3
ACAD_MATERIAL
350
3B
  3
ACAD_MLEADERSTYLE
350
80
  3
ACAD_MLINESTYLE
350
17
  3
ACAD_PLOTSETTINGS
350
19
  3
ACAD_PLOTSTYLENAME
350
E
  3
ACAD_TABLESTYLE
350
7F
  3
ACAD_VISUALSTYLE
350
2A
  0
SUN
  5
3F
330
29
100
AcDbSun
 90
        1
290
     0
 63
     7
421
 16777215
 40
1.0
291
     1
 91
  2455826
 92
 54000000
292
     0
 70
     2
 71
   256
280
     1
  0
DICTIONARY
  5
D
102
{ACAD_REACTORS
330
C
102
}
330
C
100
AcDbDictionary
281
     1
  0
DICTIONARY
  5
1A
102
{ACAD_REACTORS
330
C
102
}
330
C
100
AcDbDictionary
281
     1
  3
Layout1
350
1E
  3
Layout2
350
26
  3
Model
350
22
  0
DICTIONARY
  5
3B
102
{ACAD_REACTORS
330
C
102
}
330
C
100
AcDbDictionary
281
     1
  3
ByBlock
350
3D
  3
ByLayer
350
3C
  3
Global
350
3E
  0
DICTIONARY
  5
80
102
{ACAD_REACTORS
330
C
102
}
330
C
100
AcDbDictionary
281
     1
  0
DICTIONARY
  5
17
102
{ACAD_REACTORS
330
C
102
}
330
C
100
AcDbDictionary
281
     1
  3
Standard
350
18
  0
DICTIONARY
  5
19
102
{ACAD_REACTORS
330
C
102
}
330
C
100
AcDbDictionary
281
     1
  0
ACDBDICTIONARYWDFLT
  5
E
102
{ACAD_REACTORS
330
C
102
}
330
C
100
AcDbDictionary
281
     1
  3
Normal
350
F
100
AcDbDictionaryWithDefault
340
F
  0
DICTIONARY
  5
7F
102
{ACAD_REACTORS
330
C
102
}
330
C
100
AcDbDictionary
281
     1
  0
DICTIONARY
  5
2A
102
{ACAD_REACTORS
330
C
102
}
330
C
100
AcDbDictionary
281
     1
  3
2dWireframe
350
2F
  3
3D Hidden
350
31
  3
3dWireframe
350
30
  3
Basic
350
32
  3
Brighten
350
36
  3
ColorChange
350
3A
  3
Conceptual
350
34
  3
Dim
350
35
  3
Facepattern
350
39
  3
Flat
350
2B
  3
FlatWithEdges
350
2C
  3
Gouraud
350
2D
  3
GouraudWithEdges
350
2E
  3
Linepattern
350
38
  3
Realistic
350
33
  3
Thicken
350
37
  0
LAYOUT
  5
1E
102
{ACAD_REACTORS
330
1A
102
}
330
1A
100
AcDbPlotSettings
  1

  2
none_device
  4

  6

 40
0.0
 41
0.0
 42
0.0
 43
0.0
 44
0.0
 45
0.0
 46
0.0
 47
0.0
 48
0.0
 49
0.0
140
0.0
141
0.0
142
1.0
143
1.0
 70
   688
 72
     0
 73
     0
 74
     5
  7

 75
    16
 76
     0
 77
     2
 78
   300
147
1.0
148
0.0
149
0.0
100
AcDbLayout
  1
Layout1
 70
     1
 71
     1
 10
0.0
 20
0.0
 11
12.0
 21
9.0
 12
0.0
 22
0.0
 32
0.0
 14
1.000000000000000E+20
 24
1.000000000000000E+20
 34
1.000000000000000E+20
 15
-1.000000000000000E+20
 25
-1.000000000000000E+20
 35
-1.000000000000000E+20
146
0.0
 13
0.0
 23
0.0
 33
0.0
 16
1.0
 26
0.0
 36
0.0
 17
0.0
 27
1.0
 37
0.0
 76
     0
330
1B
  0
LAYOUT
  5
26
102
{ACAD_REACTORS
330
1A
102
}
330
1A
100
AcDbPlotSettings
  1

  2
none_device
  4

  6

 40
0.0
 41
0.0
 42
0.0
 43
0.0
 44
0.0
 45
0.0
 46
0.0
 47
0.0
 48
0.0
 49
0.0
140
0.0
141
0.0
142
1.0
143
1.0
 70
   688
 72
     0
 73
     0
 74
     5
  7

 75
    16
 76
     0
 77
     2
 78
   300
147
1.0
148
0.0
149
0.0
100
AcDbLayout
  1
Layout2
 70
     1
 71
     2
 10
0.0
 20
0.0
 11
0.0
 21
0.0
 12
0.0
 22
0.0
 32
0.0
 14
0.0
 24
0.0
 34
0.0
 15
0.0
 25
0.0
 35
0.0
146
0.0
 13
0.0
 23
0.0
 33
0.0
 16
1.0
 26
0.0
 36
0.0
 17
0.0
 27
1.0
 37
0.0
 76
     0
330
23
  0
LAYOUT
  5
22
102
{ACAD_REACTORS
330
1A
102
}
330
1A
100
AcDbPlotSettings
  1

  2
none_device
  4

  6

 40
0.0
 41
0.0
 42
0.0
 43
0.0
 44
0.0
 45
0.0
 46
0.0
 47
0.0
 48
0.0
 49
0.0
140
0.0
141
0.0
142
1.0
143
1.0
 70
  1712
 72
     0
 73
     0
 74
     0
  7

 75
     0
 76
     0
 77
     2
 78
   300
147
1.0
148
0.0
149
0.0
100
AcDbLayout
  1
Model
 70
     1
 71
     0
 10
0.0
 20
0.0
 11
12.0
 21
9.0
 12
0.0
 22
0.0
 32
0.0
 14
1.000000000000000E+20
 24
1.000000000000000E+20
 34
1.000000000000000E+20
 15
-1.000000000000000E+20
 25
-1.000000000000000E+20
 35
-1.000000000000000E+20
146
0.0
 13
0.0
 23
0.0
 33
0.0
 16
1.0
 26
0.0
 36
0.0
 17
0.0
 27
1.0
 37
0.0
 76
     0
330
1F
331
29
  0
MATERIAL
  5
3D
102
{ACAD_REACTORS
330
3B
102
}
330
3B
100
AcDbMaterial
  1
ByBlock
 72
     1
 94
      127
  0
MATERIAL
  5
3C
102
{ACAD_REACTORS
330
3B
102
}
330
3B
100
AcDbMaterial
  1
ByLayer
 72
     1
 94
      127
  0
MATERIAL
  5
3E
102
{ACAD_REACTORS
330
3B
102
}
330
3B
100
AcDbMaterial
  1
Global
 72
     1
 94
      127
  0
MLINESTYLE
  5
18
102
{ACAD_REACTORS
330
17
102
}
330
17
100
AcDbMlineStyle
  2
Standard
 70
     0
  3

 62
   256
 51
90.0
 52
90.0
 71
     2
 49
0.5
 62
   256
  6
BYLAYER
 49
-0.5
 62
   256
  6
BYLAYER
  0
ACDBPLACEHOLDER
  5
F
102
{ACAD_REACTORS
330
E
102
}
330
E
  0
VISUALSTYLE
  5
2F
102
{ACAD_REACTORS
330
2A
102
}
330
2A
100
AcDbVisualStyle
  2
2dWireframe
 70
     4
177
     2
291
     0
 71
     0
176
     1
 72
     2
176
     1
 73
     0
176
     1
 90
        0
176
     1
 40
-0.6
176
     1
 41
-30.0
176
     1
 62
     5
 63
     7
421
 16777215
176
     1
 74
     1
176
     1
 91
        4
176
     1
 64
     7
176
     1
 65
   257
176
     1
 75
     1
176
     1
175
     1
176
     1
 42
1.0
176
     1
 92
        0
176
     1
 66
   257
176
     1
 43
1.0
176
     1
 76
     1
176
     1
 77
     6
176
     1
 78
     2
176
     1
 67
     7
176
     1
 79
     5
176
     1
170
     0
176
     1
171
     0
176
     1
290
     0
176
     1
 93
        1
176
     1
 44
0.0
176
     1
173
     0
176
     1
  0
VISUALSTYLE
  5
31
102
{ACAD_REACTORS
330
2A
102
}
330
2A
100
AcDbVisualStyle
  2
3D Hidden
 70
     6
177
     2
291
     0
 71
     1
176
     1
 72
     2
176
     1
 73
     2
176
     1
 90
        0
176
     1
 40
-0.6
176
     1
 41
-30.0
176
     1
 62
     5
 63
     7
421
 16777215
176
     1
 74
     2
176
     1
 91
        2
176
     1
 64
     7
176
     1
 65
   257
176
     1
 75
     2
176
     1
175
     1
176
     1
 42
40.0
176
     1
 92
        0
176
     1
 66
   257
176
     1
 43
1.0
176
     1
 76
     1
176
     1
 77
     6
176
     1
 78
     2
176
     1
 67
     7
176
     1
 79
     3
176
     1
170
     0
176
     1
171
     0
176
     1
290
     0
176
     1
 93
        1
176
     1
 44
0.0
176
     1
173
     0
176
     1
  0
VISUALSTYLE
  5
30
102
{ACAD_REACTORS
330
2A
102
}
330
2A
100
AcDbVisualStyle
  2
3dWireframe
 70
     5
177
     2
291
     0
 71
     0
176
     1
 72
     2
176
     1
 73
     0
176
     1
 90
        0
176
     1
 40
-0.6
176
     1
 41
-30.0
176
     1
 62
     5
 63
     7
421
 16777215
176
     1
 74
     1
176
     1
 91
        4
176
     1
 64
     7
176
     1
 65
   257
176
     1
 75
     1
176
     1
175
     1
176
     1
 42
1.0
176
     1
 92
        0
176
     1
 66
   257
176
     1
 43
1.0
176
     1
 76
     1
176
     1
 77
     6
176
     1
 78
     2
176
     1
 67
     7
176
     1
 79
     5
176
     1
170
     0
176
     1
171
     0
176
     1
290
     0
176
     1
 93
        1
176
     1
 44
0.0
176
     1
173
     0
176
     1
  0
VISUALSTYLE
  5
32
102
{ACAD_REACTORS
330
2A
102
}
330
2A
100
AcDbVisualStyle
  2
Basic
 70
     7
177
     2
291
     1
 71
     1
176
     1
 72
     0
176
     1
 73
     1
176
     1
 90
        0
176
     1
 40
-0.6
176
     1
 41
-30.0
176
     1
 62
     5
 63
     7
421
 16777215
176
     1
 74
     0
176
     1
 91
        4
176
     1
 64
     7
176
     1
 65
   257
176
     1
 75
     1
176
     1
175
     1
176
     1
 42
1.0
176
     1
 92
        8
176
     1
 66
     7
176
     1
 43
1.0
176
     1
 76
     1
176
     1
 77
     6
176
     1
 78
     2
176
     1
 67
     7
176
     1
 79
     5
176
     1
170
     0
176
     1
171
     0
176
     1
290
     0
176
     1
 93
        1
176
     1
 44
0.0
176
     1
173
     0
176
     1
  0
VISUALSTYLE
  5
36
102
{ACAD_REACTORS
330
2A
102
}
330
2A
100
AcDbVisualStyle
  2
Brighten
 70
    12
177
     2
291
     1
 71
     2
176
     1
 72
     2
176
     1
 73
     0
176
     1
 90
        0
176
     1
 40
-0.6
176
     1
 41
-30.0
176
     1
 62
     5
 63
     7
421
 16777215
176
     1
 74
     1
176
     1
 91
        4
176
     1
 64
     7
176
     1
 65
   257
176
     1
 75
     1
176
     1
175
     1
176
     1
 42
1.0
176
     1
 92
        8
176
     1
 66
     7
176
     1
 43
1.0
176
     1
 76
     1
176
     1
 77
     6
176
     1
 78
     2
176
     1
 67
     7
176
     1
 79
     5
176
     1
170
     0
176
     1
171
     0
176
     1
290
     0
176
     1
 93
        1
176
     1
 44
50.0
176
     1
173
     0
176
     1
  0
VISUALSTYLE
  5
3A
102
{ACAD_REACTORS
330
2A
102
}
330
2A
100
AcDbVisualStyle
  2
ColorChange
 70
    16
177
     2
291
     1
 71
     2
176
     1
 72
     2
176
     1
 73
     3
176
     1
 90
        0
176
     1
 40
-0.6
176
     1
 41
-30.0
176
     1
 62
     5
 63
     8
421
  8421504
176
     1
 74
     1
176
     1
 91
        4
176
     1
 64
     7
176
     1
 65
   257
176
     1
 75
     1
176
     1
175
     1
176
     1
 42
1.0
176
     1
 92
        8
176
     1
 66
     8
424
  8421504
176
     1
 43
1.0
176
     1
 76
     1
176
     1
 77
     6
176
     1
 78
     2
176
     1
 67
     7
176
     1
 79
     5
176
     1
170
     0
176
     1
171
     0
176
     1
290
     0
176
     1
 93
        1
176
     1
 44
0.0
176
     1
173
     0
176
     1
  0
VISUALSTYLE
  5
34
102
{ACAD_REACTORS
330
2A
102
}
330
2A
100
AcDbVisualStyle
  2
Conceptual
 70
     9
177
     2
291
     0
 71
     3
176
     1
 72
     2
176
     1
 73
     0
176
     1
 90
        0
176
     1
 40
-0.6
176
     1
 41
-30.0
176
     1
 62
     5
 63
     7
421
 16777215
176
     1
 74
     2
176
     1
 91
        2
176
     1
 64
     7
176
     1
 65
   257
176
     1
 75
     1
176
     1
175
     1
176
     1
 42
40.0
176
     1
 92
        8
176
     1
 66
     7
176
     1
 43
1.0
176
     1
 76
     1
176
     1
 77
     6
176
     1
 78
     2
176
     1
 67
     7
176
     1
 79
     3
176
     1
170
     0
176
     1
171
     0
176
     1
290
     0
176
     1
 93
        1
176
     1
 44
0.0
176
     1
173
     0
176
     1
  0
VISUALSTYLE
  5
35
102
{ACAD_REACTORS
330
2A
102
}
330
2A
100
AcDbVisualStyle
  2
Dim
 70
    11
177
     2
291
     1
 71
     2
176
     1
 72
     2
176
     1
 73
     0
176
     1
 90
        0
176
     1
 40
-0.6
176
     1
 41
-30.0
176
     1
 62
     5
 63
     7
421
 16777215
176
     1
 74
     1
176
     1
 91
        4
176
     1
 64
     7
176
     1
 65
   257
176
     1
 75
     1
176
     1
175
     1
176
     1
 42
1.0
176
     1
 92
        8
176
     1
 66
     7
176
     1
 43
1.0
176
     1
 76
     1
176
     1
 77
     6
176
     1
 78
     2
176
     1
 67
     7
176
     1
 79
     5
176
     1
170
     0
176
     1
171
     0
176
     1
290
     0
176
     1
 93
        1
176
     1
 44
-50.0
176
     1
173
     0
176
     1
  0
VISUALSTYLE
  5
39
102
{ACAD_REACTORS
330
2A
102
}
330
2A
100
AcDbVisualStyle
  2
Facepattern
 70
    15
177
     2
291
     1
 71
     2
176
     1
 72
     2
176
     1
 73
     0
176
     1
 90
        0
176
     1
 40
-0.6
176
     1
 41
-30.0
176
     1
 62
     5
 63
     7
421
 16777215
176
     1
 74
     1
176
     1
 91
        4
176
     1
 64
     7
176
     1
 65
   257
176
     1
 75
     1
176
     1
175
     1
176
     1
 42
1.0
176
     1
 92
        8
176
     1
 66
     7
176
     1
 43
1.0
176
     1
 76
     1
176
     1
 77
     6
176
     1
 78
     2
176
     1
 67
     7
176
     1
 79
     5
176
     1
170
     0
176
     1
171
     0
176
     1
290
     0
176
     1
 93
        1
176
     1
 44
0.0
176
     1
173
     0
176
     1
  0
VISUALSTYLE
  5
2B
102
{ACAD_REACTORS
330
2A
102
}
330
2A
100
AcDbVisualStyle
  2
Flat
 70
     0
177
     2
291
     1
 71
     2
176
     1
 72
     1
176
     1
 73
     1
176
     1
 90
        2
176
     1
 40
-0.6
176
     1
 41
30.0
176
     1
 62
     5
 63
     7
421
 16777215
176
     1
 74
     0
176
     1
 91
        4
176
     1
 64
     7
176
     1
 65
   257
176
     1
 75
     1
176
     1
175
     1
176
     1
 42
1.0
176
     1
 92
        8
176
     1
 66
     7
176
     1
 43
1.0
176
     1
 76
     1
176
     1
 77
     6
176
     1
 78
     2
176
     1
 67
     7
176
     1
 79
     5
176
     1
170
     0
176
     1
171
     0
176
     1
290
     0
176
     1
 93
       13
176
     1
 44
0.0
176
     1
173
     0
176
     1
  0
VISUALSTYLE
  5
2C
102
{ACAD_REACTORS
330
2A
102
}
330
2A
100
AcDbVisualStyle
  2
FlatWithEdges
 70
     1
177
     2
291
     1
 71
     2
176
     1
 72
     1
176
     1
 73
     1
176
     1
 90
        2
176
     1
 40
-0.6
176
     1
 41
30.0
176
     1
 62
     5
 63
     7
421
 16777215
176
     1
 74
     1
176
     1
 91
        4
176
     1
 64
     7
176
     1
 65
   257
176
     1
 75
     1
176
     1
175
     1
176
     1
 42
1.0
176
     1
 92
        0
176
     1
 66
   257
176
     1
 43
1.0
176
     1
 76
     1
176
     1
 77
     6
176
     1
 78
     2
176
     1
 67
     7
176
     1
 79
     5
176
     1
170
     0
176
     1
171
     0
176
     1
290
     0
176
     1
 93
       13
176
     1
 44
0.0
176
     1
173
     0
176
     1
  0
VISUALSTYLE
  5
2D
102
{ACAD_REACTORS
330
2A
102
}
330
2A
100
AcDbVisualStyle
  2
Gouraud
 70
     2
177
     2
291
     1
 71
     2
176
     1
 72
     2
176
     1
 73
     1
176
     1
 90
        2
176
     1
 40
-0.6
176
     1
 41
30.0
176
     1
 62
     5
 63
     7
421
 16777215
176
     1
 74
     0
176
     1
 91
        4
176
     1
 64
     7
176
     1
 65
   257
176
     1
 75
     1
176
     1
175
     1
176
     1
 42
1.0
176
     1
 92
        0
176
     1
 66
     7
176
     1
 43
1.0
176
     1
 76
     1
176
     1
 77
     6
176
     1
 78
     2
176
     1
 67
     7
176
     1
 79
     5
176
     1
170
     0
176
     1
171
     0
176
     1
290
     0
176
     1
 93
       13
176
     1
 44
0.0
176
     1
173
     0
176
     1
  0
VISUALSTYLE
  5
2E
102
{ACAD_REACTORS
330
2A
102
}
330
2A
100
AcDbVisualStyle
  2
GouraudWithEdges
 70
     3
177
     2
291
     1
 71
     2
176
     1
 72
     2
176
     1
 73
     1
176
     1
 90
        2
176
     1
 40
-0.6
176
     1
 41
30.0
176
     1
 62
     5
 63
     7
421
 16777215
176
     1
 74
     1
176
     1
 91
        4
176
     1
 64
     7
176
     1
 65
   257
176
     1
 75
     1
176
     1
175
     1
176
     1
 42
1.0
176
     1
 92
        0
176
     1
 66
   257
176
     1
 43
1.0
176
     1
 76
     1
176
     1
 77
     6
176
     1
 78
     2
176
     1
 67
     7
176
     1
 79
     5
176
     1
170
     0
176
     1
171
     0
176
     1
290
     0
176
     1
 93
       13
176
     1
 44
0.0
176
     1
173
     0
176
     1
  0
VISUALSTYLE
  5
38
102
{ACAD_REACTORS
330
2A
102
}
330
2A
100
AcDbVisualStyle
  2
Linepattern
 70
    14
177
     2
291
     1
 71
     2
176
     1
 72
     2
176
     1
 73
     0
176
     1
 90
        0
176
     1
 40
-0.6
176
     1
 41
-30.0
176
     1
 62
     5
 63
     7
421
 16777215
176
     1
 74
     1
176
     1
 91
        4
176
     1
 64
     7
176
     1
 65
   257
176
     1
 75
     7
176
     1
175
     7
176
     1
 42
1.0
176
     1
 92
        8
176
     1
 66
     7
176
     1
 43
1.0
176
     1
 76
     1
176
     1
 77
     6
176
     1
 78
     2
176
     1
 67
     7
176
     1
 79
     5
176
     1
170
     0
176
     1
171
     0
176
     1
290
     0
176
     1
 93
        1
176
     1
 44
0.0
176
     1
173
     0
176
     1
  0
VISUALSTYLE
  5
33
102
{ACAD_REACTORS
330
2A
102
}
330
2A
100
AcDbVisualStyle
  2
Realistic
 70
     8
177
     2
291
     0
 71
     2
176
     1
 72
     2
176
     1
 73
     0
176
     1
 90
        0
176
     1
 40
-0.6
176
     1
 41
-30.0
176
     1
 62
     5
 63
     7
421
 16777215
176
     1
 74
     1
176
     1
 91
        0
176
     1
 64
     7
176
     1
 65
   257
176
     1
 75
     1
176
     1
175
     1
176
     1
 42
1.0
176
     1
 92
        8
176
     1
 66
     8
424
  7895160
176
     1
 43
1.0
176
     1
 76
     1
176
     1
 77
     6
176
     1
 78
     2
176
     1
 67
     7
176
     1
 79
     5
176
     1
170
     0
176
     1
171
     0
176
     1
290
     0
176
     1
 93
       13
176
     1
 44
0.0
176
     1
173
     0
176
     1
  0
VISUALSTYLE
  5
37
102
{ACAD_REACTORS
330
2A
102
}
330
2A
100
AcDbVisualStyle
  2
Thicken
 70
    13
177
     2
291
     1
 71
     2
176
     1
 72
     2
176
     1
 73
     0
176
     1
 90
        0
176
     1
 40
-0.6
176
     1
 41
-30.0
176
     1
 62
     5
 63
     7
421
 16777215
176
     1
 74
     1
176
     1
 91
        4
176
     1
 64
     7
176
     1
 65
   257
176
     1
 75
     1
176
     1
175
     1
176
     1
 42
1.0
176
     1
 92
       12
176
     1
 66
     7
176
     1
 43
1.0
176
     1
 76
     1
176
     1
 77
     6
176
     1
 78
     2
176
     1
 67
     7
176
     1
 79
     5
176
     1
170
     0
176
     1
171
     0
176
     1
290
     0
176
     1
 93
        1
176
     1
 44
0.0
176
     1
173
     0
176
     1
  0
ENDSEC
  0
EOF
