  0
SECTION
  2
HEADER
  9
$ACADVER
  1
AC1024
  9
$ACADMAINTVER
 70
   226
  9
$DWGCODEPAGE
  3
ANSI_932
  9
$INSBASE
 10
0.0
 20
0.0
 30
0.0
  9
$EXTMIN
 10
1.000000000000000E+20
 20
1.000000000000000E+20
 30
1.000000000000000E+20
  9
$EXTMAX
 10
-1.000000000000000E+20
 20
-1.000000000000000E+20
 30
-1.000000000000000E+20
  9
$LIMMIN
 10
0.0
 20
0.0
  9
$LIMMAX
 10
12.0
 20
9.0
  9
$ORTHOMODE
 70
     0
  9
$REGENMODE
 70
     1
  9
$FILLMODE
 70
     1
  9
$QTEXTMODE
 70
     0
  9
$MIRRTEXT
 70
     0
  9
$LTSCALE
 40
1.0
  9
$ATTMODE
 70
     1
  9
$TEXTSIZE
 40
0.2
  9
$TRACEWID
 40
0.05
  9
$TEXTSTYLE
  7
Standard
  9
$CLAYER
  8
0
  9
$CELTYPE
  6
ByLayer
  9
$CECOLOR
 62
   256
  9
$CELTSCALE
 40
1.0
  9
$DISPSILH
 70
     0
  9
$DIMSCALE
 40
1.0
  9
$DIMASZ
 40
0.18
  9
$DIMEXO
 40
0.0625
  9
$DIMDLI
 40
0.38
  9
$DIMRND
 40
0.0
  9
$DIMDLE
 40
0.0
  9
$DIMEXE
 40
0.18
  9
$DIMTP
 40
0.0
  9
$DIMTM
 40
0.0
  9
$DIMTXT
 40
0.18
  9
$DIMCEN
 40
0.09
  9
$DIMTSZ
 40
0.0
  9
$DIMTOL
 70
     0
  9
$DIMLIM
 70
     0
  9
$DIMTIH
 70
     1
  9
$DIMTOH
 70
     1
  9
$DIMSE1
 70
     0
  9
$DIMSE2
 70
     0
  9
$DIMTAD
 70
     0
  9
$DIMZIN
 70
     0
  9
$DIMBLK
  1

  9
$DIMASO
 70
     1
  9
$DIMSHO
 70
     1
  9
$DIMPOST
  1

  9
$DIMAPOST
  1

  9
$DIMALT
 70
     0
  9
$DIMALTD
 70
     2
  9
$DIMALTF
 40
25.4
  9
$DIMLFAC
 40
1.0
  9
$DIMTOFL
 70
     0
  9
$DIMTVP
 40
0.0
  9
$DIMTIX
 70
     0
  9
$DIMSOXD
 70
     0
  9
$DIMSAH
 70
     0
  9
$DIMBLK1
  1

  9
$DIMBLK2
  1

  9
$DIMSTYLE
  2
Standard
  9
$DIMCLRD
 70
     0
  9
$DIMCLRE
 70
     0
  9
$DIMCLRT
 70
     0
  9
$DIMTFAC
 40
1.0
  9
$DIMGAP
 40
0.09
  9
$DIMJUST
 70
     0
  9
$DIMSD1
 70
     0
  9
$DIMSD2
 70
     0
  9
$DIMTOLJ
 70
     1
  9
$DIMTZIN
 70
     0
  9
$DIMALTZ
 70
     0
  9
$DIMALTTZ
 70
     0
  9
$DIMUPT
 70
     0
  9
$DIMDEC
 70
     4
  9
$DIMTDEC
 70
     4
  9
$DIMALTU
 70
     2
  9
$DIMALTTD
 70
     2
  9
$DIMTXSTY
  7
Standard
  9
$DIMAUNIT
 70
     0
  9
$DIMADEC
 70
     0
  9
$DIMALTRND
 40
0.0
  9
$DIMAZIN
 70
     0
  9
$DIMDSEP
 70
    46
  9
$DIMATFIT
 70
     3
  9
$DIMFRAC
 70
     0
  9
$DIMLDRBLK
  1

  9
$DIMLUNIT
 70
     2
  9
$DIMLWD
 70
    -2
  9
$DIMLWE
 70
    -2
  9
$DIMTMOVE
 70
     0
  9
$DIMFXL
 40
1.0
  9
$DIMFXLON
 70
     0
  9
$DIMJOGANG
 40
0.7853981633974483
  9
$DIMTFILL
 70
     0
  9
$DIMTFILLCLR
 70
     0
  9
$DIMARCSYM
 70
     0
  9
$DIMLTYPE
  6

  9
$DIMLTEX1
  6

  9
$DIMLTEX2
  6

  9
$DIMTXTDIRECTION
 70
     0
  9
$LUNITS
 70
     2
  9
$LUPREC
 70
     4
  9
$SKETCHINC
 40
0.1
  9
$FILLETRAD
 40
0.0
  9
$AUNITS
 70
     0
  9
$AUPREC
 70
     0
  9
$MENU
  1
.
  9
$ELEVATION
 40
0.0
  9
$PELEVATION
 40
0.0
  9
$THICKNESS
 40
0.0
  9
$LIMCHECK
 70
     0
  9
$CHAMFERA
 40
0.0
  9
$CHAMFERB
 40
0.0
  9
$CHAMFERC
 40
0.0
  9
$CHAMFERD
 40
0.0
  9
$SKPOLY
 70
     0
  9
$TDCREATE
 40
2459569.502546297
  9
$TDUCREATE
 40
2459569.127546297
  9
$TDUPDATE
 40
2459569.502546297
  9
$TDUUPDATE
 40
2459569.127546297
  9
$TDINDWG
 40
0.0000000000
  9
$TDUSRTIMER
 40
0.0000000000
  9
$USRTIMER
 70
     1
  9
$ANGBASE
 50
0.0
  9
$ANGDIR
 70
     0
  9
$PDMODE
 70
     0
  9
$PDSIZE
 40
0.0
  9
$PLINEWID
 40
0.0
  9
$SPLFRAME
 70
     0
  9
$SPLINETYPE
 70
     6
  9
$SPLINESEGS
 70
     8
  9
$HANDSEED
  5
202
  9
$SURFTAB1
 70
     6
  9
$SURFTAB2
 70
     6
  9
$SURFTYPE
 70
     6
  9
$SURFU
 70
     6
  9
$SURFV
 70
     6
  9
$UCSBASE
  2

  9
$UCSNAME
  2

  9
$UCSORG
 10
0.0
 20
0.0
 30
0.0
  9
$UCSXDIR
 10
1.0
 20
0.0
 30
0.0
  9
$UCSYDIR
 10
0.0
 20
1.0
 30
0.0
  9
$UCSORTHOREF
  2

  9
$UCSORTHOVIEW
 70
     0
  9
$UCSORGTOP
 10
0.0
 20
0.0
 30
0.0
  9
$UCSORGBOTTOM
 10
0.0
 20
0.0
 30
0.0
  9
$UCSORGLEFT
 10
0.0
 20
0.0
 30
0.0
  9
$UCSORGRIGHT
 10
0.0
 20
0.0
 30
0.0
  9
$UCSORGFRONT
 10
0.0
 20
0.0
 30
0.0
  9
$UCSORGBACK
 10
0.0
 20
0.0
 30
0.0
  9
$PUCSBASE
  2

  9
$PUCSNAME
  2

  9
$PUCSORG
 10
0.0
 20
0.0
 30
0.0
  9
$PUCSXDIR
 10
1.0
 20
0.0
 30
0.0
  9
$PUCSYDIR
 10
0.0
 20
1.0
 30
0.0
  9
$PUCSORTHOREF
  2

  9
$PUCSORTHOVIEW
 70
     0
  9
$PUCSORGTOP
 10
0.0
 20
0.0
 30
0.0
  9
$PUCSORGBOTTOM
 10
0.0
 20
0.0
 30
0.0
  9
$PUCSORGLEFT
 10
0.0
 20
0.0
 30
0.0
  9
$PUCSORGRIGHT
 10
0.0
 20
0.0
 30
0.0
  9
$PUCSORGFRONT
 10
0.0
 20
0.0
 30
0.0
  9
$PUCSORGBACK
 10
0.0
 20
0.0
 30
0.0
  9
$USERI1
 70
     0
  9
$USERI2
 70
     0
  9
$USERI3
 70
     0
  9
$USERI4
 70
     0
  9
$USERI5
 70
     0
  9
$USERR1
 40
0.0
  9
$USERR2
 40
0.0
  9
$USERR3
 40
0.0
  9
$USERR4
 40
0.0
  9
$USERR5
 40
0.0
  9
$WORLDVIEW
 70
     1
  9
$SHADEDGE
 70
     3
  9
$SHADEDIF
 70
    70
  9
$TILEMODE
 70
     1
  9
$MAXACTVP
 70
    64
  9
$PINSBASE
 10
0.0
 20
0.0
 30
0.0
  9
$PLIMCHECK
 70
     0
  9
$PEXTMIN
 10
1.000000000000000E+20
 20
1.000000000000000E+20
 30
1.000000000000000E+20
  9
$PEXTMAX
 10
-1.000000000000000E+20
 20
-1.000000000000000E+20
 30
-1.000000000000000E+20
  9
$PLIMMIN
 10
0.0
 20
0.0
  9
$PLIMMAX
 10
12.0
 20
9.0
  9
$UNITMODE
 70
     0
  9
$VISRETAIN
 70
     1
  9
$PLINEGEN
 70
     0
  9
$PSLTSCALE
 70
     1
  9
$TREEDEPTH
 70
  3020
  9
$CMLSTYLE
  2
Standard
  9
$CMLJUST
 70
     0
  9
$CMLSCALE
 40
1.0
  9
$PROXYGRAPHICS
 70
     1
  9
$MEASUREMENT
 70
     0
  9
$CELWEIGHT
370
    -1
  9
$ENDCAPS
280
     0
  9
$JOINSTYLE
280
     0
  9
$LWDISPLAY
290
     1
  9
$INSUNITS
 70
     4
  9
$HYPERLINKBASE
  1

  9
$STYLESHEET
  1

  9
$XEDIT
290
     1
  9
$CEPSNTYPE
380
     0
  9
$PSTYLEMODE
290
     1
  9
$FINGERPRINTGUID
  2
{226811BC-34E5-EA48-8DBB-A342680A4FBB}
  9
$VERSIONGUID
  2
{37C3CBC0-B46E-0B45-9CD6-3DD984833D91}
  9
$EXTNAMES
290
     1
  9
$PSVPSCALE
 40
0.0
  9
$OLESTARTUP
290
     0
  9
$SORTENTS
280
   127
  9
$INDEXCTL
280
     0
  9
$HIDETEXT
280
     1
  9
$XCLIPFRAME
280
     2
  9
$HALOGAP
280
     0
  9
$OBSCOLOR
 70
   257
  9
$OBSLTYPE
280
     0
  9
$INTERSECTIONDISPLAY
280
     0
  9
$INTERSECTIONCOLOR
 70
   257
  9
$DIMASSOC
280
     2
  9
$PROJECTNAME
  1

  9
$CAMERADISPLAY
290
     0
  9
$LENSLENGTH
 40
50.0
  9
$CAMERAHEIGHT
 40
0.0
  9
$STEPSPERSEC
 40
2.0
  9
$STEPSIZE
 40
6.0
  9
$3DDWFPREC
 40
2.0
  9
$PSOLWIDTH
 40
0.25
  9
$PSOLHEIGHT
 40
4.0
  9
$LOFTANG1
 40
1.570796326794896
  9
$LOFTANG2
 40
1.570796326794896
  9
$LOFTMAG1
 40
0.0
  9
$LOFTMAG2
 40
0.0
  9
$LOFTPARAM
 70
     7
  9
$LOFTNORMALS
280
     1
  9
$LATITUDE
 40
37.795
  9
$LONGITUDE
 40
-122.394
  9
$NORTHDIRECTION
 40
0.0
  9
$TIMEZONE
 70
 -8000
  9
$LIGHTGLYPHDISPLAY
280
     1
  9
$TILEMODELIGHTSYNCH
280
     1
  9
$CMATERIAL
347
11
  9
$SOLIDHIST
280
     0
  9
$SHOWHIST
280
     1
  9
$DWFFRAME
280
     2
  9
$DGNFRAME
280
     0
  9
$REALWORLDSCALE
290
     1
  9
$INTERFERECOLOR
 62
     1
  9
$INTERFEREOBJVS
345
33
  9
$INTERFEREVPVS
346
30
  9
$CSHADOW
280
     0
  9
$SHADOWPLANELOCATION
 40
0.0
  0
ENDSEC
  0
SECTION
  2
CLASSES
  0
CLASS
  1
ACDBDICTIONARYWDFLT
  2
AcDbDictionaryWithDefault
  3
ObjectDBX Classes
 90
        0
 91
        1
280
     0
281
     0
  0
CLASS
  1
MATERIAL
  2
AcDbMaterial
  3
ObjectDBX Classes
 90
     1153
 91
        3
280
     0
281
     0
  0
CLASS
  1
VISUALSTYLE
  2
AcDbVisualStyle
  3
ObjectDBX Classes
 90
     4095
 91
       24
280
     0
281
     0
  0
CLASS
  1
SCALE
  2
AcDbScale
  3
ObjectDBX Classes
 90
     1153
 91
       17
280
     0
281
     0
  0
CLASS
  1
TABLESTYLE
  2
AcDbTableStyle
  3
ObjectDBX Classes
 90
     4095
 91
        1
280
     0
281
     0
  0
CLASS
  1
MLEADERSTYLE
  2
AcDbMLeaderStyle
  3
ACDB_MLEADERSTYLE_CLASS
 90
     4095
 91
        1
280
     0
281
     0
  0
CLASS
  1
ACDBSECTIONVIEWSTYLE
  2
AcDbSectionViewStyle
  3
ObjectDBX Classes
 90
     1025
 91
        1
280
     0
281
     0
  0
CLASS
  1
ACDBDETAILVIEWSTYLE
  2
AcDbDetailViewStyle
  3
ObjectDBX Classes
 90
     1025
 91
        1
280
     0
281
     0
  0
CLASS
  1
DICTIONARYVAR
  2
AcDbDictionaryVar
  3
ObjectDBX Classes
 90
        0
 91
        5
280
     0
281
     0
  0
CLASS
  1
CELLSTYLEMAP
  2
AcDbCellStyleMap
  3
ObjectDBX Classes
 90
     1152
 91
        1
280
     0
281
     0
  0
ENDSEC
  0
SECTION
  2
TABLES
  0
TABLE
  2
VPORT
  5
8
330
0
100
AcDbSymbolTable
 70
     1
  0
VPORT
  5
57
330
8
100
AcDbSymbolTableRecord
100
AcDbViewportTableRecord
  2
*Active
 70
     0
 10
0.0
 20
0.0
 11
1.0
 21
1.0
 12
0.0
 22
0.0
 13
0.0
 23
0.0
 14
1.0
 24
1.0
 15
0.0
 25
0.0
 16
0.0
 26
0.0
 36
1.0
 17
104.9999999737534
 27
-148.4999999628701
 37
0.0
 40
302.939999924255
 41
0.7070707070707534
 42
50.0
 43
0.0
 44
0.0
 50
0.0
 51
0.0
 71
     0
 72
   100
 73
     1
 74
     0
 75
     1
 76
     0
 77
     0
 78
     0
281
     0
 65
     1
110
0.0
120
0.0
130
0.0
111
1.0
121
0.0
131
0.0
112
0.0
122
1.0
132
0.0
 79
     0
146
0.0
 60
     3
 61
     5
292
     1
282
     1
141
0.0
142
0.0
 63
   250
421
  3355443
  0
ENDTAB
  0
TABLE
  2
LTYPE
  5
5
330
0
100
AcDbSymbolTable
 70
    11
  0
LTYPE
  5
5B
330
5
100
AcDbSymbolTableRecord
100
AcDbLinetypeTableRecord
  2
ByBlock
 70
     0
  3

 72
    65
 73
     0
 40
0.0
  0
LTYPE
  5
5C
330
5
100
AcDbSymbolTableRecord
100
AcDbLinetypeTableRecord
  2
ByLayer
 70
     0
  3

 72
    65
 73
     0
 40
0.0
  0
LTYPE
  5
5D
330
5
100
AcDbSymbolTableRecord
100
AcDbLinetypeTableRecord
  2
Continuous
 70
     0
  3
Solid line
 72
    65
 73
     0
 40
0.0
  0
LTYPE
  5
82
330
5
100
AcDbSymbolTableRecord
100
AcDbLinetypeTableRecord
  2
AI-Linetype-0
 70
     0
  3
Adobe Illustrator Linetype No. 0
 72
    65
 73
     2
 40
1.411111110758333
 49
0.7055555553791667
 74
     0
 49
-0.7055555553791667
 74
     0
  0
LTYPE
  5
84
330
5
100
AcDbSymbolTableRecord
100
AcDbLinetypeTableRecord
  2
AI-Linetype-1
 70
     0
  3
Adobe Illustrator Linetype No. 1
 72
    65
 73
     2
 40
1.411111110758333
 49
0.7055555553791667
 74
     0
 49
-0.7055555553791667
 74
     0
  0
LTYPE
  5
86
330
5
100
AcDbSymbolTableRecord
100
AcDbLinetypeTableRecord
  2
AI-Linetype-2
 70
     0
  3
Adobe Illustrator Linetype No. 2
 72
    65
 73
     2
 40
1.411111110758333
 49
0.7055555553791667
 74
     0
 49
-0.7055555553791667
 74
     0
  0
LTYPE
  5
88
330
5
100
AcDbSymbolTableRecord
100
AcDbLinetypeTableRecord
  2
AI-Linetype-3
 70
     0
  3
Adobe Illustrator Linetype No. 3
 72
    65
 73
     2
 40
3.500014142644928
 49
2.000003083046955
 74
     0
 49
-1.500011059597972
 74
     0
  0
LTYPE
  5
8A
330
5
100
AcDbSymbolTableRecord
100
AcDbLinetypeTableRecord
  2
AI-Linetype-4
 70
     0
  3
Adobe Illustrator Linetype No. 4
 72
    65
 73
     2
 40
3.500014142644928
 49
2.000003083046955
 74
     0
 49
-1.500011059597972
 74
     0
  0
LTYPE
  5
8C
330
5
100
AcDbSymbolTableRecord
100
AcDbLinetypeTableRecord
  2
AI-Linetype-5
 70
     0
  3
Adobe Illustrator Linetype No. 5
 72
    65
 73
     2
 40
3.500014142644928
 49
2.000003083046955
 74
     0
 49
-1.500011059597972
 74
     0
  0
LTYPE
  5
8E
330
5
100
AcDbSymbolTableRecord
100
AcDbLinetypeTableRecord
  2
AI-Linetype-6
 70
     0
  3
Adobe Illustrator Linetype No. 6
 72
    65
 73
     2
 40
1.411111110758333
 49
0.7055555553791667
 74
     0
 49
-0.7055555553791667
 74
     0
  0
LTYPE
  5
90
330
5
100
AcDbSymbolTableRecord
100
AcDbLinetypeTableRecord
  2
AI-Linetype-7
 70
     0
  3
Adobe Illustrator Linetype No. 7
 72
    65
 73
     2
 40
3.500014142644928
 49
2.000003083046955
 74
     0
 49
-1.500011059597972
 74
     0
  0
LTYPE
  5
92
330
5
100
AcDbSymbolTableRecord
100
AcDbLinetypeTableRecord
  2
AI-Linetype-8
 70
     0
  3
Adobe Illustrator Linetype No. 8
 72
    65
 73
     2
 40
1.411111110758333
 49
0.7055555553791667
 74
     0
 49
-0.7055555553791667
 74
     0
  0
LTYPE
  5
94
330
5
100
AcDbSymbolTableRecord
100
AcDbLinetypeTableRecord
  2
AI-Linetype-9
 70
     0
  3
Adobe Illustrator Linetype No. 9
 72
    65
 73
     2
 40
1.411111110758333
 49
0.7055555553791667
 74
     0
 49
-0.7055555553791667
 74
     0
  0
ENDTAB
  0
TABLE
  2
LAYER
  5
2
330
0
100
AcDbSymbolTable
 70
     2
  0
LAYER
  5
54
330
2
100
AcDbSymbolTableRecord
100
AcDbLayerTableRecord
  2
0
 70
     0
 62
     7
  6
Continuous
370
    -3
390
F
347
21
  0
LAYER
  5
78
330
2
100
AcDbSymbolTableRecord
100
AcDbLayerTableRecord
  2
レイヤー 1
 70
     0
 62
     7
  6
Continuous
370
     0
390
F
347
21
  0
ENDTAB
  0
TABLE
  2
STYLE
  5
3
330
0
100
AcDbSymbolTable
 70
     2
  0
STYLE
  5
55
330
3
100
AcDbSymbolTableRecord
100
AcDbTextStyleTableRecord
  2
Standard
 70
     0
 40
0.0
 41
1.0
 50
0.0
 71
     0
 42
0.2
  3
txt
  4

  0
STYLE
  5
5A
330
3
100
AcDbSymbolTableRecord
100
AcDbTextStyleTableRecord
  2
Annotative
 70
     0
 40
0.0
 41
1.0
 50
0.0
 71
     0
 42
0.2
  3
txt
  4

1001
AcadAnnotative
1000
AnnotativeData
1002
{
1070
     1
1070
     1
1002
}
  0
ENDTAB
  0
TABLE
  2
VIEW
  5
6
330
0
100
AcDbSymbolTable
 70
     0
  0
ENDTAB
  0
TABLE
  2
UCS
  5
7
330
0
100
AcDbSymbolTable
 70
     0
  0
ENDTAB
  0
TABLE
  2
APPID
  5
9
330
0
100
AcDbSymbolTable
 70
     2
  0
APPID
  5
56
330
9
100
AcDbSymbolTableRecord
100
AcDbRegAppTableRecord
  2
ACAD
 70
     0
  0
APPID
  5
5E
330
9
100
AcDbSymbolTableRecord
100
AcDbRegAppTableRecord
  2
AcadAnnotative
 70
     0
  0
ENDTAB
  0
TABLE
  2
DIMSTYLE
  5
A
330
0
100
AcDbSymbolTable
 70
     2
100
AcDbDimStyleTable
 71
     0
  0
DIMSTYLE
105
58
330
A
100
AcDbSymbolTableRecord
100
AcDbDimStyleTableRecord
  2
Standard
 70
     0
340
55
  0
DIMSTYLE
105
59
330
A
100
AcDbSymbolTableRecord
100
AcDbDimStyleTableRecord
  2
Annotative
 70
     0
340
55
1001
AcadAnnotative
1000
AnnotativeData
1002
{
1070
     1
1070
     1
1002
}
  0
ENDTAB
  0
TABLE
  2
BLOCK_RECORD
  5
1
330
0
100
AcDbSymbolTable
 70
    42
  0
BLOCK_RECORD
  5
70
330
1
100
AcDbSymbolTableRecord
100
AcDbBlockTableRecord
  2
*Model_Space
340
73
 70
     0
280
     1
281
     0
  0
BLOCK_RECORD
  5
6C
330
1
100
AcDbSymbolTableRecord
100
AcDbBlockTableRecord
  2
*Paper_Space
340
6F
 70
     0
280
     1
281
     0
  0
BLOCK_RECORD
  5
74
330
1
100
AcDbSymbolTableRecord
100
AcDbBlockTableRecord
  2
*Paper_Space0
340
77
 70
     0
280
     1
281
     0
  0
BLOCK_RECORD
  5
A8
330
1
100
AcDbSymbolTableRecord
100
AcDbBlockTableRecord
  2
Block_0
340
0
102
{BLKREFS
331
A9
102
}
 70
     0
280
     1
281
     0
  0
BLOCK_RECORD
  5
AC
330
1
100
AcDbSymbolTableRecord
100
AcDbBlockTableRecord
  2
Block_1
340
0
102
{BLKREFS
331
AD
102
}
 70
     0
280
     1
281
     0
  0
BLOCK_RECORD
  5
C5
330
1
100
AcDbSymbolTableRecord
100
AcDbBlockTableRecord
  2
Block_2
340
0
102
{BLKREFS
331
C6
102
}
 70
     0
280
     1
281
     0
  0
BLOCK_RECORD
  5
C9
330
1
100
AcDbSymbolTableRecord
100
AcDbBlockTableRecord
  2
Block_3
340
0
102
{BLKREFS
331
CA
102
}
 70
     0
280
     1
281
     0
  0
BLOCK_RECORD
  5
D5
330
1
100
AcDbSymbolTableRecord
100
AcDbBlockTableRecord
  2
Block_4
340
0
102
{BLKREFS
331
D6
102
}
 70
     0
280
     1
281
     0
  0
BLOCK_RECORD
  5
D9
330
1
100
AcDbSymbolTableRecord
100
AcDbBlockTableRecord
  2
Block_5
340
0
102
{BLKREFS
331
DA
102
}
 70
     0
280
     1
281
     0
  0
BLOCK_RECORD
  5
E5
330
1
100
AcDbSymbolTableRecord
100
AcDbBlockTableRecord
  2
Block_6
340
0
102
{BLKREFS
331
E6
102
}
 70
     0
280
     1
281
     0
  0
BLOCK_RECORD
  5
F7
330
1
100
AcDbSymbolTableRecord
100
AcDbBlockTableRecord
  2
Block_7
340
0
102
{BLKREFS
331
F8
102
}
 70
     0
280
     1
281
     0
  0
BLOCK_RECORD
  5
FD
330
1
100
AcDbSymbolTableRecord
100
AcDbBlockTableRecord
  2
Block_8
340
0
102
{BLKREFS
331
FE
102
}
 70
     0
280
     1
281
     0
  0
BLOCK_RECORD
  5
103
330
1
100
AcDbSymbolTableRecord
100
AcDbBlockTableRecord
  2
Block_9
340
0
102
{BLKREFS
331
104
102
}
 70
     0
280
     1
281
     0
  0
BLOCK_RECORD
  5
109
330
1
100
AcDbSymbolTableRecord
100
AcDbBlockTableRecord
  2
Block_10
340
0
102
{BLKREFS
331
10A
102
}
 70
     0
280
     1
281
     0
  0
BLOCK_RECORD
  5
10F
330
1
100
AcDbSymbolTableRecord
100
AcDbBlockTableRecord
  2
Block_11
340
0
102
{BLKREFS
331
110
102
}
 70
     0
280
     1
281
     0
  0
BLOCK_RECORD
  5
115
330
1
100
AcDbSymbolTableRecord
100
AcDbBlockTableRecord
  2
Block_12
340
0
102
{BLKREFS
331
116
102
}
 70
     0
280
     1
281
     0
  0
BLOCK_RECORD
  5
11B
330
1
100
AcDbSymbolTableRecord
100
AcDbBlockTableRecord
  2
Block_13
340
0
102
{BLKREFS
331
11C
102
}
 70
     0
280
     1
281
     0
  0
BLOCK_RECORD
  5
121
330
1
100
AcDbSymbolTableRecord
100
AcDbBlockTableRecord
  2
Block_14
340
0
102
{BLKREFS
331
122
102
}
 70
     0
280
     1
281
     0
  0
BLOCK_RECORD
  5
127
330
1
100
AcDbSymbolTableRecord
100
AcDbBlockTableRecord
  2
Block_15
340
0
102
{BLKREFS
331
128
102
}
 70
     0
280
     1
281
     0
  0
BLOCK_RECORD
  5
12D
330
1
100
AcDbSymbolTableRecord
100
AcDbBlockTableRecord
  2
Block_16
340
0
102
{BLKREFS
331
12E
102
}
 70
     0
280
     1
281
     0
  0
BLOCK_RECORD
  5
133
330
1
100
AcDbSymbolTableRecord
100
AcDbBlockTableRecord
  2
Block_17
340
0
102
{BLKREFS
331
134
102
}
 70
     0
280
     1
281
     0
  0
BLOCK_RECORD
  5
139
330
1
100
AcDbSymbolTableRecord
100
AcDbBlockTableRecord
  2
Block_18
340
0
102
{BLKREFS
331
13A
102
}
 70
     0
280
     1
281
     0
  0
BLOCK_RECORD
  5
13F
330
1
100
AcDbSymbolTableRecord
100
AcDbBlockTableRecord
  2
Block_19
340
0
102
{BLKREFS
331
140
102
}
 70
     0
280
     1
281
     0
  0
BLOCK_RECORD
  5
145
330
1
100
AcDbSymbolTableRecord
100
AcDbBlockTableRecord
  2
Block_20
340
0
102
{BLKREFS
331
146
102
}
 70
     0
280
     1
281
     0
  0
BLOCK_RECORD
  5
14B
330
1
100
AcDbSymbolTableRecord
100
AcDbBlockTableRecord
  2
Block_21
340
0
102
{BLKREFS
331
14C
102
}
 70
     0
280
     1
281
     0
  0
BLOCK_RECORD
  5
151
330
1
100
AcDbSymbolTableRecord
100
AcDbBlockTableRecord
  2
Block_22
340
0
102
{BLKREFS
331
152
102
}
 70
     0
280
     1
281
     0
  0
BLOCK_RECORD
  5
157
330
1
100
AcDbSymbolTableRecord
100
AcDbBlockTableRecord
  2
Block_23
340
0
102
{BLKREFS
331
158
102
}
 70
     0
280
     1
281
     0
  0
BLOCK_RECORD
  5
15D
330
1
100
AcDbSymbolTableRecord
100
AcDbBlockTableRecord
  2
Block_24
340
0
102
{BLKREFS
331
15E
102
}
 70
     0
280
     1
281
     0
  0
BLOCK_RECORD
  5
163
330
1
100
AcDbSymbolTableRecord
100
AcDbBlockTableRecord
  2
Block_25
340
0
102
{BLKREFS
331
164
102
}
 70
     0
280
     1
281
     0
  0
BLOCK_RECORD
  5
169
330
1
100
AcDbSymbolTableRecord
100
AcDbBlockTableRecord
  2
Block_26
340
0
102
{BLKREFS
331
16A
102
}
 70
     0
280
     1
281
     0
  0
BLOCK_RECORD
  5
16F
330
1
100
AcDbSymbolTableRecord
100
AcDbBlockTableRecord
  2
Block_27
340
0
102
{BLKREFS
331
170
102
}
 70
     0
280
     1
281
     0
  0
BLOCK_RECORD
  5
175
330
1
100
AcDbSymbolTableRecord
100
AcDbBlockTableRecord
  2
Block_28
340
0
102
{BLKREFS
331
176
102
}
 70
     0
280
     1
281
     0
  0
BLOCK_RECORD
  5
17B
330
1
100
AcDbSymbolTableRecord
100
AcDbBlockTableRecord
  2
Block_29
340
0
102
{BLKREFS
331
17C
102
}
 70
     0
280
     1
281
     0
  0
BLOCK_RECORD
  5
181
330
1
100
AcDbSymbolTableRecord
100
AcDbBlockTableRecord
  2
Block_30
340
0
102
{BLKREFS
331
182
102
}
 70
     0
280
     1
281
     0
  0
BLOCK_RECORD
  5
187
330
1
100
AcDbSymbolTableRecord
100
AcDbBlockTableRecord
  2
Block_31
340
0
102
{BLKREFS
331
188
102
}
 70
     0
280
     1
281
     0
  0
BLOCK_RECORD
  5
18D
330
1
100
AcDbSymbolTableRecord
100
AcDbBlockTableRecord
  2
Block_32
340
0
102
{BLKREFS
331
18E
102
}
 70
     0
280
     1
281
     0
  0
BLOCK_RECORD
  5
193
330
1
100
AcDbSymbolTableRecord
100
AcDbBlockTableRecord
  2
Block_33
340
0
102
{BLKREFS
331
194
102
}
 70
     0
280
     1
281
     0
  0
BLOCK_RECORD
  5
199
330
1
100
AcDbSymbolTableRecord
100
AcDbBlockTableRecord
  2
Block_34
340
0
102
{BLKREFS
331
19A
102
}
 70
     0
280
     1
281
     0
  0
BLOCK_RECORD
  5
19F
330
1
100
AcDbSymbolTableRecord
100
AcDbBlockTableRecord
  2
Block_35
340
0
102
{BLKREFS
331
1A0
102
}
 70
     0
280
     1
281
     0
  0
BLOCK_RECORD
  5
1A5
330
1
100
AcDbSymbolTableRecord
100
AcDbBlockTableRecord
  2
Block_36
340
0
102
{BLKREFS
331
1A6
102
}
 70
     0
280
     1
281
     0
  0
BLOCK_RECORD
  5
1AB
330
1
100
AcDbSymbolTableRecord
100
AcDbBlockTableRecord
  2
Block_37
340
0
102
{BLKREFS
331
1AC
102
}
 70
     0
280
     1
281
     0
  0
BLOCK_RECORD
  5
1B1
330
1
100
AcDbSymbolTableRecord
100
AcDbBlockTableRecord
  2
Block_38
340
0
102
{BLKREFS
331
1B2
102
}
 70
     0
280
     1
281
     0
  0
BLOCK_RECORD
  5
1B7
330
1
100
AcDbSymbolTableRecord
100
AcDbBlockTableRecord
  2
Block_39
340
0
102
{BLKREFS
331
1B8
102
}
 70
     0
280
     1
281
     0
  0
BLOCK_RECORD
  5
1BD
330
1
100
AcDbSymbolTableRecord
100
AcDbBlockTableRecord
  2
Block_40
340
0
102
{BLKREFS
331
1BE
102
}
 70
     0
280
     1
281
     0
  0
ENDTAB
  0
ENDSEC
  0
SECTION
  2
BLOCKS
  0
BLOCK
  5
71
330
70
100
AcDbEntity
  8
0
100
AcDbBlockBegin
  2
*Model_Space
 70
     0
 10
0.0
 20
0.0
 30
0.0
  3
*Model_Space
  1

  0
ENDBLK
  5
72
330
70
100
AcDbEntity
  8
0
100
AcDbBlockEnd
  0
BLOCK
  5
6D
330
6C
100
AcDbEntity
 67
     1
  8
0
100
AcDbBlockBegin
  2
*Paper_Space
 70
     0
 10
0.0
 20
0.0
 30
0.0
  3
*Paper_Space
  1

  0
ENDBLK
  5
6E
330
6C
100
AcDbEntity
 67
     1
  8
0
100
AcDbBlockEnd
  0
BLOCK
  5
75
330
74
100
AcDbEntity
 67
     1
  8
0
100
AcDbBlockBegin
  2
*Paper_Space0
 70
     0
 10
0.0
 20
0.0
 30
0.0
  3
*Paper_Space0
  1

  0
ENDBLK
  5
76
330
74
100
AcDbEntity
 67
     1
  8
0
100
AcDbBlockEnd
  0
BLOCK
  5
AA
330
A8
100
AcDbEntity
  8
0
100
AcDbBlockBegin
  2
Block_0
 70
     0
 10
0.0
 20
0.0
 30
0.0
  3
Block_0
  1

  0
INSERT
  5
AD
330
A8
100
AcDbEntity
  8
レイヤー 1
100
AcDbBlockReference
  2
Block_1
 10
0.0
 20
0.0
 30
0.0
  0
ENDBLK
  5
AB
330
A8
100
AcDbEntity
  8
0
100
AcDbBlockEnd
  0
BLOCK
  5
AE
330
AC
100
AcDbEntity
  8
0
100
AcDbBlockBegin
  2
Block_1
 70
     0
 10
0.0
 20
0.0
 30
0.0
  3
Block_1
  1

  0
SPLINE
  5
B0
330
AC
100
AcDbEntity
  8
レイヤー 1
100
AcDbSpline
210
0.0
220
0.0
230
1.0
 70
     9
 71
     3
 72
    17
 73
    13
 74
     0
 42
0.0000000001
 43
0.0000000001
 40
0.0
 40
0.0
 40
0.0
 40
0.0
 40
1.0
 40
1.0
 40
1.0
 40
2.0
 40
2.0
 40
2.0
 40
3.0
 40
3.0
 40
3.0
 40
4.0
 40
4.0
 40
4.0
 40
4.0
 10
97.93975827629632
 20
-154.3847194709524
 30
0.0
 10
97.92287730841859
 20
-154.4143472921256
 30
0.0
 10
97.87223440478541
 20
-154.5073648702273
 30
0.0
 10
97.86155460878115
 20
-154.5266574049447
 30
0.0
 10
98.05206838911546
 20
-154.585913047291
 30
0.0
 10
98.07308347157549
 20
-154.5921142191645
 30
0.0
 10
98.1450859672172
 20
-154.6196749830464
 30
0.0
 10
98.20020749498119
 20
-154.5328585768181
 30
0.0
 10
98.22328963473239
 20
-154.4587890238853
 30
0.0
 10
98.23810354531895
 20
-154.3847194709524
 30
0.0
 10
98.23810354531895
 20
-154.3847194709524
 30
0.0
 10
97.93975827629632
 20
-154.3847194709524
 30
0.0
 10
97.93975827629632
 20
-154.3847194709524
 30
0.0
  0
SPLINE
  5
B1
330
AC
100
AcDbEntity
  8
レイヤー 1
100
AcDbSpline
210
0.0
220
0.0
230
1.0
 70
    11
 71
     3
 72
    20
 73
    16
 74
     0
 42
0.0000000001
 43
0.0000000001
 40
0.0
 40
0.0
 40
0.0
 40
0.0
 40
1.0
 40
1.0
 40
1.0
 40
2.0
 40
2.0
 40
2.0
 40
3.0
 40
3.0
 40
3.0
 40
4.0
 40
4.0
 40
4.0
 40
5.0
 40
5.0
 40
5.0
 40
5.0
 10
97.87636851936772
 20
-153.5344699051927
 30
0.0
 10
97.87636851936772
 20
-153.5344699051927
 30
0.0
 10
97.84467364090343
 20
-153.5344699051927
 30
0.0
 10
97.84467364090343
 20
-153.5344699051927
 30
0.0
 10
97.8911824299543
 20
-153.633688655168
 30
0.0
 10
97.92287730841859
 20
-153.7143038895228
 30
0.0
 10
97.95663924417404
 20
-153.84108340338
 30
0.0
 10
97.95663924417404
 20
-153.84108340338
 30
0.0
 10
98.16403399238609
 20
-153.84108340338
 30
0.0
 10
98.16403399238609
 20
-153.84108340338
 30
0.0
 10
98.19572887085037
 20
-153.7480658252782
 30
0.0
 10
98.21915552015008
 20
-153.6633164763411
 30
0.0
 10
98.24223765990126
 20
-153.5344699051927
 30
0.0
 10
98.24223765990126
 20
-153.5344699051927
 30
0.0
 10
97.87636851936772
 20
-153.5344699051927
 30
0.0
 10
97.87636851936772
 20
-153.5344699051927
 30
0.0
  0
SPLINE
  5
B2
330
AC
100
AcDbEntity
  8
レイヤー 1
100
AcDbSpline
210
0.0
220
0.0
230
1.0
 70
     9
 71
     3
 72
   242
 73
   238
 74
     0
 42
0.0000000001
 43
0.0000000001
 40
0.0
 40
0.0
 40
0.0
 40
0.0
 40
1.0
 40
1.0
 40
1.0
 40
2.0
 40
2.0
 40
2.0
 40
3.0
 40
3.0
 40
3.0
 40
4.0
 40
4.0
 40
4.0
 40
5.0
 40
5.0
 40
5.0
 40
6.0
 40
6.0
 40
6.0
 40
7.0
 40
7.0
 40
7.0
 40
8.0
 40
8.0
 40
8.0
 40
9.0
 40
9.0
 40
9.0
 40
10.0
 40
10.0
 40
10.0
 40
11.0
 40
11.0
 40
11.0
 40
12.0
 40
12.0
 40
12.0
 40
13.0
 40
13.0
 40
13.0
 40
14.0
 40
14.0
 40
14.0
 40
15.0
 40
15.0
 40
15.0
 40
16.0
 40
16.0
 40
16.0
 40
17.0
 40
17.0
 40
17.0
 40
18.0
 40
18.0
 40
18.0
 40
19.0
 40
19.0
 40
19.0
 40
20.0
 40
20.0
 40
20.0
 40
21.0
 40
21.0
 40
21.0
 40
22.0
 40
22.0
 40
22.0
 40
23.0
 40
23.0
 40
23.0
 40
24.0
 40
24.0
 40
24.0
 40
25.0
 40
25.0
 40
25.0
 40
26.0
 40
26.0
 40
26.0
 40
27.0
 40
27.0
 40
27.0
 40
28.0
 40
28.0
 40
28.0
 40
29.0
 40
29.0
 40
29.0
 40
30.0
 40
30.0
 40
30.0
 40
31.0
 40
31.0
 40
31.0
 40
32.0
 40
32.0
 40
32.0
 40
33.0
 40
33.0
 40
33.0
 40
34.0
 40
34.0
 40
34.0
 40
35.0
 40
35.0
 40
35.0
 40
36.0
 40
36.0
 40
36.0
 40
37.0
 40
37.0
 40
37.0
 40
38.0
 40
38.0
 40
38.0
 40
39.0
 40
39.0
 40
39.0
 40
40.0
 40
40.0
 40
40.0
 40
41.0
 40
41.0
 40
41.0
 40
42.0
 40
42.0
 40
42.0
 40
43.0
 40
43.0
 40
43.0
 40
44.0
 40
44.0
 40
44.0
 40
45.0
 40
45.0
 40
45.0
 40
46.0
 40
46.0
 40
46.0
 40
47.0
 40
47.0
 40
47.0
 40
48.0
 40
48.0
 40
48.0
 40
49.0
 40
49.0
 40
49.0
 40
50.0
 40
50.0
 40
50.0
 40
51.0
 40
51.0
 40
51.0
 40
52.0
 40
52.0
 40
52.0
 40
53.0
 40
53.0
 40
53.0
 40
54.0
 40
54.0
 40
54.0
 40
55.0
 40
55.0
 40
55.0
 40
56.0
 40
56.0
 40
56.0
 40
57.0
 40
57.0
 40
57.0
 40
58.0
 40
58.0
 40
58.0
 40
59.0
 40
59.0
 40
59.0
 40
60.0
 40
60.0
 40
60.0
 40
61.0
 40
61.0
 40
61.0
 40
62.0
 40
62.0
 40
62.0
 40
63.0
 40
63.0
 40
63.0
 40
64.0
 40
64.0
 40
64.0
 40
65.0
 40
65.0
 40
65.0
 40
66.0
 40
66.0
 40
66.0
 40
67.0
 40
67.0
 40
67.0
 40
68.0
 40
68.0
 40
68.0
 40
69.0
 40
69.0
 40
69.0
 40
70.0
 40
70.0
 40
70.0
 40
71.0
 40
71.0
 40
71.0
 40
72.0
 40
72.0
 40
72.0
 40
73.0
 40
73.0
 40
73.0
 40
74.0
 40
74.0
 40
74.0
 40
75.0
 40
75.0
 40
75.0
 40
76.0
 40
76.0
 40
76.0
 40
77.0
 40
77.0
 40
77.0
 40
78.0
 40
78.0
 40
78.0
 40
79.0
 40
79.0
 40
79.0
 40
79.0
 10
98.50475393587728
 20
-153.99990230525
 30
0.0
 10
98.50475393587728
 20
-153.99990230525
 30
0.0
 10
98.25085039861438
 20
-153.99990230525
 30
0.0
 10
98.25085039861438
 20
-153.99990230525
 30
0.0
 10
98.25085039861438
 20
-153.99990230525
 30
0.0
 10
97.97386472160029
 20
-153.99990230525
 30
0.0
 10
97.97386472160029
 20
-153.99990230525
 30
0.0
 10
97.97386472160029
 20
-153.99990230525
 30
0.0
 10
98.10064423545748
 20
-154.0422769797186
 30
0.0
 10
98.10064423545748
 20
-154.0422769797186
 30
0.0
 10
98.11132403146176
 20
-154.0464110943009
 30
0.0
 10
98.12407088475719
 20
-154.0526122661743
 30
0.0
 10
98.12407088475719
 20
-154.0653591194697
 30
0.0
 10
98.12407088475719
 20
-154.0863742019298
 30
0.0
 10
98.09203149674436
 20
-154.0929198833518
 30
0.0
 10
98.07101641428433
 20
-154.097053997934
 30
0.0
 10
98.06033661828006
 20
-154.1204806472337
 30
0.0
 10
98.03070879710691
 20
-154.1859374614535
 30
0.0
 10
98.01176077193805
 20
-154.2303791932132
 30
0.0
 10
98.01176077193805
 20
-154.2303791932132
 30
0.0
 10
98.28254527707867
 20
-154.2303791932132
 30
0.0
 10
98.28254527707867
 20
-154.2303791932132
 30
0.0
 10
98.37349579788927
 20
-154.2303791932132
 30
0.0
 10
98.57021075009704
 20
-154.2262450786309
 30
0.0
 10
98.71214868408934
 20
-154.2176323399178
 30
0.0
 10
98.71214868408934
 20
-154.2176323399178
 30
0.0
 10
98.71214868408934
 20
-154.3953992669567
 30
0.0
 10
98.71214868408934
 20
-154.3953992669567
 30
0.0
 10
98.62946639244334
 20
-154.3912651523744
 30
0.0
 10
98.60845130998331
 20
-154.3912651523744
 30
0.0
 10
98.42861732565326
 20
-154.3867865282436
 30
0.0
 10
98.39692244718897
 20
-154.5414713155313
 30
0.0
 10
98.35248071542926
 20
-154.6217420403376
 30
0.0
 10
98.30803898366951
 20
-154.6916774786882
 30
0.0
 10
98.42861732565326
 20
-154.7509331210345
 30
0.0
 10
98.53438175705043
 20
-154.8184569925453
 30
0.0
 10
98.63807913115646
 20
-154.9011392841914
 30
0.0
 10
98.63807913115646
 20
-154.9011392841914
 30
0.0
 10
98.51956784646386
 20
-155.068226415226
 30
0.0
 10
98.51956784646386
 20
-155.068226415226
 30
0.0
 10
98.49614119716417
 20
-155.0489338805086
 30
0.0
 10
98.48339434386874
 20
-155.040665651344
 30
0.0
 10
98.37142874059813
 20
-154.9559163024068
 30
0.0
 10
98.32285289425611
 20
-154.9180202520691
 30
0.0
 10
98.26359725190981
 20
-154.881846749474
 30
0.0
 10
98.18298201755496
 20
-154.8374050177143
 30
0.0
 10
97.97145315476061
 20
-155.0237846834663
 30
0.0
 10
97.76646997338826
 20
-155.0468668232174
 30
0.0
 10
97.47639293353021
 20
-155.0764946443906
 30
0.0
 10
97.47639293353021
 20
-155.0764946443906
 30
0.0
 10
97.37304006897272
 20
-154.8966606600606
 30
0.0
 10
97.37304006897272
 20
-154.8966606600606
 30
0.0
 10
97.69033336316423
 20
-154.8925265454782
 30
0.0
 10
97.86568872336346
 20
-154.8670328388874
 30
0.0
 10
98.01796194381148
 20
-154.7571342929079
 30
0.0
 10
97.89979516866742
 20
-154.7064913892747
 30
0.0
 10
97.81091170514798
 20
-154.6789306253927
 30
0.0
 10
97.77473820255286
 20
-154.6661837720973
 30
0.0
 10
97.75579017738397
 20
-154.6937445359793
 30
0.0
 10
97.7409762667974
 20
-154.7126925611482
 30
0.0
 10
97.71341550291539
 20
-154.7464544969036
 30
0.0
 10
97.71341550291539
 20
-154.7464544969036
 30
0.0
 10
97.51670055070764
 20
-154.6641167148062
 30
0.0
 10
97.51670055070764
 20
-154.6641167148062
 30
0.0
 10
97.59938284235364
 20
-154.5838459899998
 30
0.0
 10
97.66070554199108
 20
-154.4884168450584
 30
0.0
 10
97.7175496174977
 20
-154.3867865282436
 30
0.0
 10
97.52738034671191
 20
-154.3912651523744
 30
0.0
 10
97.50602075470336
 20
-154.3912651523744
 30
0.0
 10
97.4236829726059
 20
-154.3953992669567
 30
0.0
 10
97.4236829726059
 20
-154.3953992669567
 30
0.0
 10
97.4236829726059
 20
-154.2176323399178
 30
0.0
 10
97.4236829726059
 20
-154.2176323399178
 30
0.0
 10
97.5632093397585
 20
-154.2241780213398
 30
0.0
 10
97.7726711452617
 20
-154.2283121359221
 30
0.0
 10
97.79816485185255
 20
-154.2283121359221
 30
0.0
 10
97.81504581973027
 20
-154.1945502001666
 30
0.0
 10
97.87016734749428
 20
-154.0739718581829
 30
0.0
 10
97.88911537266315
 20
-153.99990230525
 30
0.0
 10
97.87016734749428
 20
-153.99990230525
 30
0.0
 10
97.69240042045538
 20
-154.0061034771234
 30
0.0
 10
97.49775252553876
 20
-154.0188503304189
 30
0.0
 10
97.49775252553876
 20
-154.0188503304189
 30
0.0
 10
97.49775252553876
 20
-154.1521755256981
 30
0.0
 10
97.49775252553876
 20
-154.1521755256981
 30
0.0
 10
97.44917667919674
 20
-154.1773247227404
 30
0.0
 10
97.38992103685044
 20
-154.2093641107532
 30
0.0
 10
97.25659584157128
 20
-154.2748209249729
 30
0.0
 10
97.25659584157128
 20
-154.2748209249729
 30
0.0
 10
97.25659584157128
 20
-154.4208929735475
 30
0.0
 10
97.25659584157128
 20
-154.4208929735475
 30
0.0
 10
97.25659584157128
 20
-154.4208929735475
 30
0.0
 10
97.25659584157128
 20
-154.888392430896
 30
0.0
 10
97.25659584157128
 20
-154.888392430896
 30
0.0
 10
97.25659584157128
 20
-155.0151719447531
 30
0.0
 10
97.22042233897616
 20
-155.0744275870994
 30
0.0
 10
96.93723549008861
 20
-155.0661593579348
 30
0.0
 10
96.93723549008861
 20
-155.0661593579348
 30
0.0
 10
96.83353811598259
 20
-154.8587646097228
 30
0.0
 10
96.83353811598259
 20
-154.8587646097228
 30
0.0
 10
96.8969278729112
 20
-154.8715114630182
 30
0.0
 10
96.94550371925322
 20
-154.8756455776005
 30
0.0
 10
96.98581133643063
 20
-154.8756455776005
 30
0.0
 10
97.06194794665465
 20
-154.8756455776005
 30
0.0
 10
97.07262774265894
 20
-154.8522189283008
 30
0.0
 10
97.07262774265894
 20
-154.7867621140811
 30
0.0
 10
97.07262774265894
 20
-154.7867621140811
 30
0.0
 10
97.07262774265894
 20
-154.3571587070704
 30
0.0
 10
97.07262774265894
 20
-154.3571587070704
 30
0.0
 10
96.97513154042637
 20
-154.3974663242478
 30
0.0
 10
96.95825057254864
 20
-154.4040120056698
 30
0.0
 10
96.91174178349776
 20
-154.4229600308387
 30
0.0
 10
96.90760766891546
 20
-154.4439751132987
 30
0.0
 10
96.90312904478464
 20
-154.4736029344718
 30
0.0
 10
96.88418101961577
 20
-154.4736029344718
 30
0.0
 10
96.87591279045117
 20
-154.4736029344718
 30
0.0
 10
96.86523299444688
 20
-154.4694688198896
 30
0.0
 10
96.85868731302491
 20
-154.4460421705899
 30
0.0
 10
96.85868731302491
 20
-154.4460421705899
 30
0.0
 10
96.8059773521006
 20
-154.2538058425129
 30
0.0
 10
96.8059773521006
 20
-154.2538058425129
 30
0.0
 10
96.95204940067519
 20
-154.2069525439135
 30
0.0
 10
97.01750621489495
 20
-154.1838704041623
 30
0.0
 10
97.07262774265894
 20
-154.1628553217023
 30
0.0
 10
97.07262774265894
 20
-154.1628553217023
 30
0.0
 10
97.07262774265894
 20
-153.7501328825694
 30
0.0
 10
97.07262774265894
 20
-153.7501328825694
 30
0.0
 10
97.07262774265894
 20
-153.7501328825694
 30
0.0
 10
97.01957327218607
 20
-153.7501328825694
 30
0.0
 10
97.01957327218607
 20
-153.7501328825694
 30
0.0
 10
97.01957327218607
 20
-153.7501328825694
 30
0.0
 10
96.94136960467091
 20
-153.7501328825694
 30
0.0
 10
96.94136960467091
 20
-153.7501328825694
 30
0.0
 10
96.87350122361149
 20
-153.7501328825694
 30
0.0
 10
96.86523299444688
 20
-153.7501328825694
 30
0.0
 10
96.82905949185176
 20
-153.7566785639914
 30
0.0
 10
96.82905949185176
 20
-153.7566785639914
 30
0.0
 10
96.82905949185176
 20
-153.5620306690747
 30
0.0
 10
96.82905949185176
 20
-153.5620306690747
 30
0.0
 10
96.85662025573376
 20
-153.5682318409482
 30
0.0
 10
96.86523299444688
 20
-153.5682318409482
 30
0.0
 10
96.93482392324895
 20
-153.5682318409482
 30
0.0
 10
96.93482392324895
 20
-153.5682318409482
 30
0.0
 10
97.06814911852811
 20
-153.5682318409482
 30
0.0
 10
97.06814911852811
 20
-153.5682318409482
 30
0.0
 10
97.06814911852811
 20
-153.4982964025976
 30
0.0
 10
97.06814911852811
 20
-153.4159586205002
 30
0.0
 10
97.06608206123696
 20
-153.4118245059179
 30
0.0
 10
97.05781383207236
 20
-153.2319905215878
 30
0.0
 10
97.05781383207236
 20
-153.2126979868704
 30
0.0
 10
97.05540226523268
 20
-153.1661891978195
 30
0.0
 10
97.05540226523268
 20
-153.1661891978195
 30
0.0
 10
97.27140975215785
 20
-153.1748019365327
 30
0.0
 10
97.27140975215785
 20
-153.1748019365327
 30
0.0
 10
97.28208954816212
 20
-153.1748019365327
 30
0.0
 10
97.30310463062215
 20
-153.1768689938238
 30
0.0
 10
97.30310463062215
 20
-153.1937499617015
 30
0.0
 10
97.30310463062215
 20
-153.2126979868704
 30
0.0
 10
97.28829072003557
 20
-153.2233777828747
 30
0.0
 10
97.26279701344473
 20
-153.2423258080436
 30
0.0
 10
97.26279701344473
 20
-153.2933132212253
 30
0.0
 10
97.25659584157128
 20
-153.5217230518973
 30
0.0
 10
97.25866289886242
 20
-153.5682318409482
 30
0.0
 10
97.38785397955929
 20
-153.5682318409482
 30
0.0
 10
97.4002563233062
 20
-153.5682318409482
 30
0.0
 10
97.49775252553876
 20
-153.5596191022351
 30
0.0
 10
97.49775252553876
 20
-153.5596191022351
 30
0.0
 10
97.49775252553876
 20
-153.7542669971517
 30
0.0
 10
97.49775252553876
 20
-153.7542669971517
 30
0.0
 10
97.45951196565249
 20
-153.7521999398605
 30
0.0
 10
97.3919880941416
 20
-153.7480658252782
 30
0.0
 10
97.25659584157128
 20
-153.7501328825694
 30
0.0
 10
97.25659584157128
 20
-153.7501328825694
 30
0.0
 10
97.25659584157128
 20
-154.0887857687694
 30
0.0
 10
97.25659584157128
 20
-154.0887857687694
 30
0.0
 10
97.31171736933527
 20
-154.0653591194697
 30
0.0
 10
97.37717418355501
 20
-154.0377983555877
 30
0.0
 10
97.42575002989704
 20
-154.0147162158366
 30
0.0
 10
97.42575002989704
 20
-154.0147162158366
 30
0.0
 10
97.42575002989704
 20
-153.8369492887977
 30
0.0
 10
97.42575002989704
 20
-153.8369492887977
 30
0.0
 10
97.54012720000734
 20
-153.8496961420931
 30
0.0
 10
97.65863848469994
 20
-153.8496961420931
 30
0.0
 10
97.77473820255286
 20
-153.8496961420931
 30
0.0
 10
97.75165606280168
 20
-153.7542669971517
 30
0.0
 10
97.72409529891968
 20
-153.6719292150542
 30
0.0
 10
97.66070554199108
 20
-153.5386040197751
 30
0.0
 10
97.61626381023136
 20
-153.5406710770662
 30
0.0
 10
97.53358151858536
 20
-153.5448051916485
 30
0.0
 10
97.49568546824761
 20
-153.5472167584882
 30
0.0
 10
97.49568546824761
 20
-153.5472167584882
 30
0.0
 10
97.49568546824761
 20
-153.3673827741581
 30
0.0
 10
97.49568546824761
 20
-153.3673827741581
 30
0.0
 10
97.62039792481367
 20
-153.3756510033227
 30
0.0
 10
97.79403073727024
 20
-153.379785117905
 30
0.0
 10
97.87636851936772
 20
-153.379785117905
 30
0.0
 10
97.87636851936772
 20
-153.379785117905
 30
0.0
 10
97.95905081101372
 20
-153.379785117905
 30
0.0
 10
97.95905081101372
 20
-153.379785117905
 30
0.0
 10
97.95905081101372
 20
-153.2171766110012
 30
0.0
 10
97.95905081101372
 20
-153.206496814997
 30
0.0
 10
97.95663924417404
 20
-153.151375287233
 30
0.0
 10
97.95663924417404
 20
-153.151375287233
 30
0.0
 10
98.18091496026381
 20
-153.1768689938238
 30
0.0
 10
98.18091496026381
 20
-153.1768689938238
 30
0.0
 10
98.18539358439464
 20
-153.1768689938238
 30
0.0
 10
98.20640866685465
 20
-153.178936051115
 30
0.0
 10
98.20640866685465
 20
-153.1958170189927
 30
0.0
 10
98.20640866685465
 20
-153.2106309295793
 30
0.0
 10
98.19572887085037
 20
-153.2192436682924
 30
0.0
 10
98.16816810696838
 20
-153.234057578879
 30
0.0
 10
98.16196693509493
 20
-153.2995143930987
 30
0.0
 10
98.15989987780378
 20
-153.3208739851073
 30
0.0
 10
98.15989987780378
 20
-153.379785117905
 30
0.0
 10
98.15989987780378
 20
-153.379785117905
 30
0.0
 10
98.25498451319667
 20
-153.379785117905
 30
0.0
 10
98.25498451319667
 20
-153.379785117905
 30
0.0
 10
98.33766680484266
 20
-153.379785117905
 30
0.0
 10
98.51095510775074
 20
-153.3756510033227
 30
0.0
 10
98.6360120738653
 20
-153.3673827741581
 30
0.0
 10
98.6360120738653
 20
-153.3673827741581
 30
0.0
 10
98.6360120738653
 20
-153.5472167584882
 30
0.0
 10
98.6360120738653
 20
-153.5472167584882
 30
0.0
 10
98.60638425269215
 20
-153.5448051916485
 30
0.0
 10
98.48787296799956
 20
-153.5406710770662
 30
0.0
 10
98.44756535082215
 20
-153.5386040197751
 30
0.0
 10
98.43275144023557
 20
-153.5892469234082
 30
0.0
 10
98.39898950448011
 20
-153.7015570362274
 30
0.0
 10
98.33318818071184
 20
-153.84108340338
 30
0.0
 10
98.37556285518042
 20
-153.84108340338
 30
0.0
 10
98.65289304174304
 20
-153.8221353782111
 30
0.0
 10
98.71421574138048
 20
-153.82006832092
 30
0.0
 10
98.71421574138048
 20
-153.82006832092
 30
0.0
 10
98.71421574138048
 20
-154.0040364198323
 30
0.0
 10
98.71421574138048
 20
-154.0040364198323
 30
0.0
 10
98.68458792020733
 20
-154.0040364198323
 30
0.0
 10
98.66770695232961
 20
-153.99990230525
 30
0.0
 10
98.50475393587728
 20
-153.99990230525
 30
0.0
  0
HATCH
  5
B3
330
AC
100
AcDbEntity
  8
レイヤー 1
 62
   250
420
  2299925
440
 33554687
100
AcDbHatch
 10
0.0
 20
0.0
 30
0.0
210
0.0
220
0.0
230
1.0
  2
SOLID
 70
     1
 71
     1
 91
        3
 92
        1
 93
        1
 72
     4
 94
        3
 73
     0
 74
     0
 95
       17
 96
       13
 40
0.0
 40
0.0
 40
0.0
 40
0.0
 40
1.0
 40
1.0
 40
1.0
 40
2.0
 40
2.0
 40
2.0
 40
3.0
 40
3.0
 40
3.0
 40
4.0
 40
4.0
 40
4.0
 40
4.0
 10
97.93975827629632
 20
-154.3847194709524
 10
97.92287730841859
 20
-154.4143472921256
 10
97.87223440478541
 20
-154.5073648702273
 10
97.86155460878115
 20
-154.5266574049447
 10
98.05206838911546
 20
-154.585913047291
 10
98.07308347157549
 20
-154.5921142191645
 10
98.1450859672172
 20
-154.6196749830464
 10
98.20020749498119
 20
-154.5328585768181
 10
98.22328963473239
 20
-154.4587890238853
 10
98.23810354531895
 20
-154.3847194709524
 10
98.23810354531895
 20
-154.3847194709524
 10
97.93975827629632
 20
-154.3847194709524
 10
97.93975827629632
 20
-154.3847194709524
 97
        0
 97
        1
330
B0
 92
        1
 93
        1
 72
     4
 94
        3
 73
     0
 74
     0
 95
       20
 96
       16
 40
0.0
 40
0.0
 40
0.0
 40
0.0
 40
1.0
 40
1.0
 40
1.0
 40
2.0
 40
2.0
 40
2.0
 40
3.0
 40
3.0
 40
3.0
 40
4.0
 40
4.0
 40
4.0
 40
5.0
 40
5.0
 40
5.0
 40
5.0
 10
97.87636851936772
 20
-153.5344699051927
 10
97.87636851936772
 20
-153.5344699051927
 10
97.84467364090343
 20
-153.5344699051927
 10
97.84467364090343
 20
-153.5344699051927
 10
97.8911824299543
 20
-153.633688655168
 10
97.92287730841859
 20
-153.7143038895228
 10
97.95663924417404
 20
-153.84108340338
 10
97.95663924417404
 20
-153.84108340338
 10
98.16403399238609
 20
-153.84108340338
 10
98.16403399238609
 20
-153.84108340338
 10
98.19572887085037
 20
-153.7480658252782
 10
98.21915552015008
 20
-153.6633164763411
 10
98.24223765990126
 20
-153.5344699051927
 10
98.24223765990126
 20
-153.5344699051927
 10
97.87636851936772
 20
-153.5344699051927
 10
97.87636851936772
 20
-153.5344699051927
 97
        0
 97
        1
330
B1
 92
        1
 93
        1
 72
     4
 94
        3
 73
     0
 74
     0
 95
      242
 96
      238
 40
0.0
 40
0.0
 40
0.0
 40
0.0
 40
1.0
 40
1.0
 40
1.0
 40
2.0
 40
2.0
 40
2.0
 40
3.0
 40
3.0
 40
3.0
 40
4.0
 40
4.0
 40
4.0
 40
5.0
 40
5.0
 40
5.0
 40
6.0
 40
6.0
 40
6.0
 40
7.0
 40
7.0
 40
7.0
 40
8.0
 40
8.0
 40
8.0
 40
9.0
 40
9.0
 40
9.0
 40
10.0
 40
10.0
 40
10.0
 40
11.0
 40
11.0
 40
11.0
 40
12.0
 40
12.0
 40
12.0
 40
13.0
 40
13.0
 40
13.0
 40
14.0
 40
14.0
 40
14.0
 40
15.0
 40
15.0
 40
15.0
 40
16.0
 40
16.0
 40
16.0
 40
17.0
 40
17.0
 40
17.0
 40
18.0
 40
18.0
 40
18.0
 40
19.0
 40
19.0
 40
19.0
 40
20.0
 40
20.0
 40
20.0
 40
21.0
 40
21.0
 40
21.0
 40
22.0
 40
22.0
 40
22.0
 40
23.0
 40
23.0
 40
23.0
 40
24.0
 40
24.0
 40
24.0
 40
25.0
 40
25.0
 40
25.0
 40
26.0
 40
26.0
 40
26.0
 40
27.0
 40
27.0
 40
27.0
 40
28.0
 40
28.0
 40
28.0
 40
29.0
 40
29.0
 40
29.0
 40
30.0
 40
30.0
 40
30.0
 40
31.0
 40
31.0
 40
31.0
 40
32.0
 40
32.0
 40
32.0
 40
33.0
 40
33.0
 40
33.0
 40
34.0
 40
34.0
 40
34.0
 40
35.0
 40
35.0
 40
35.0
 40
36.0
 40
36.0
 40
36.0
 40
37.0
 40
37.0
 40
37.0
 40
38.0
 40
38.0
 40
38.0
 40
39.0
 40
39.0
 40
39.0
 40
40.0
 40
40.0
 40
40.0
 40
41.0
 40
41.0
 40
41.0
 40
42.0
 40
42.0
 40
42.0
 40
43.0
 40
43.0
 40
43.0
 40
44.0
 40
44.0
 40
44.0
 40
45.0
 40
45.0
 40
45.0
 40
46.0
 40
46.0
 40
46.0
 40
47.0
 40
47.0
 40
47.0
 40
48.0
 40
48.0
 40
48.0
 40
49.0
 40
49.0
 40
49.0
 40
50.0
 40
50.0
 40
50.0
 40
51.0
 40
51.0
 40
51.0
 40
52.0
 40
52.0
 40
52.0
 40
53.0
 40
53.0
 40
53.0
 40
54.0
 40
54.0
 40
54.0
 40
55.0
 40
55.0
 40
55.0
 40
56.0
 40
56.0
 40
56.0
 40
57.0
 40
57.0
 40
57.0
 40
58.0
 40
58.0
 40
58.0
 40
59.0
 40
59.0
 40
59.0
 40
60.0
 40
60.0
 40
60.0
 40
61.0
 40
61.0
 40
61.0
 40
62.0
 40
62.0
 40
62.0
 40
63.0
 40
63.0
 40
63.0
 40
64.0
 40
64.0
 40
64.0
 40
65.0
 40
65.0
 40
65.0
 40
66.0
 40
66.0
 40
66.0
 40
67.0
 40
67.0
 40
67.0
 40
68.0
 40
68.0
 40
68.0
 40
69.0
 40
69.0
 40
69.0
 40
70.0
 40
70.0
 40
70.0
 40
71.0
 40
71.0
 40
71.0
 40
72.0
 40
72.0
 40
72.0
 40
73.0
 40
73.0
 40
73.0
 40
74.0
 40
74.0
 40
74.0
 40
75.0
 40
75.0
 40
75.0
 40
76.0
 40
76.0
 40
76.0
 40
77.0
 40
77.0
 40
77.0
 40
78.0
 40
78.0
 40
78.0
 40
79.0
 40
79.0
 40
79.0
 40
79.0
 10
98.50475393587728
 20
-153.99990230525
 10
98.50475393587728
 20
-153.99990230525
 10
98.25085039861438
 20
-153.99990230525
 10
98.25085039861438
 20
-153.99990230525
 10
98.25085039861438
 20
-153.99990230525
 10
97.97386472160029
 20
-153.99990230525
 10
97.97386472160029
 20
-153.99990230525
 10
97.97386472160029
 20
-153.99990230525
 10
98.10064423545748
 20
-154.0422769797186
 10
98.10064423545748
 20
-154.0422769797186
 10
98.11132403146176
 20
-154.0464110943009
 10
98.12407088475719
 20
-154.0526122661743
 10
98.12407088475719
 20
-154.0653591194697
 10
98.12407088475719
 20
-154.0863742019298
 10
98.09203149674436
 20
-154.0929198833518
 10
98.07101641428433
 20
-154.097053997934
 10
98.06033661828006
 20
-154.1204806472337
 10
98.03070879710691
 20
-154.1859374614535
 10
98.01176077193805
 20
-154.2303791932132
 10
98.01176077193805
 20
-154.2303791932132
 10
98.28254527707867
 20
-154.2303791932132
 10
98.28254527707867
 20
-154.2303791932132
 10
98.37349579788927
 20
-154.2303791932132
 10
98.57021075009704
 20
-154.2262450786309
 10
98.71214868408934
 20
-154.2176323399178
 10
98.71214868408934
 20
-154.2176323399178
 10
98.71214868408934
 20
-154.3953992669567
 10
98.71214868408934
 20
-154.3953992669567
 10
98.62946639244334
 20
-154.3912651523744
 10
98.60845130998331
 20
-154.3912651523744
 10
98.42861732565326
 20
-154.3867865282436
 10
98.39692244718897
 20
-154.5414713155313
 10
98.35248071542926
 20
-154.6217420403376
 10
98.30803898366951
 20
-154.6916774786882
 10
98.42861732565326
 20
-154.7509331210345
 10
98.53438175705043
 20
-154.8184569925453
 10
98.63807913115646
 20
-154.9011392841914
 10
98.63807913115646
 20
-154.9011392841914
 10
98.51956784646386
 20
-155.068226415226
 10
98.51956784646386
 20
-155.068226415226
 10
98.49614119716417
 20
-155.0489338805086
 10
98.48339434386874
 20
-155.040665651344
 10
98.37142874059813
 20
-154.9559163024068
 10
98.32285289425611
 20
-154.9180202520691
 10
98.26359725190981
 20
-154.881846749474
 10
98.18298201755496
 20
-154.8374050177143
 10
97.97145315476061
 20
-155.0237846834663
 10
97.76646997338826
 20
-155.0468668232174
 10
97.47639293353021
 20
-155.0764946443906
 10
97.47639293353021
 20
-155.0764946443906
 10
97.37304006897272
 20
-154.8966606600606
 10
97.37304006897272
 20
-154.8966606600606
 10
97.69033336316423
 20
-154.8925265454782
 10
97.86568872336346
 20
-154.8670328388874
 10
98.01796194381148
 20
-154.7571342929079
 10
97.89979516866742
 20
-154.7064913892747
 10
97.81091170514798
 20
-154.6789306253927
 10
97.77473820255286
 20
-154.6661837720973
 10
97.75579017738397
 20
-154.6937445359793
 10
97.7409762667974
 20
-154.7126925611482
 10
97.71341550291539
 20
-154.7464544969036
 10
97.71341550291539
 20
-154.7464544969036
 10
97.51670055070764
 20
-154.6641167148062
 10
97.51670055070764
 20
-154.6641167148062
 10
97.59938284235364
 20
-154.5838459899998
 10
97.66070554199108
 20
-154.4884168450584
 10
97.7175496174977
 20
-154.3867865282436
 10
97.52738034671191
 20
-154.3912651523744
 10
97.50602075470336
 20
-154.3912651523744
 10
97.4236829726059
 20
-154.3953992669567
 10
97.4236829726059
 20
-154.3953992669567
 10
97.4236829726059
 20
-154.2176323399178
 10
97.4236829726059
 20
-154.2176323399178
 10
97.5632093397585
 20
-154.2241780213398
 10
97.7726711452617
 20
-154.2283121359221
 10
97.79816485185255
 20
-154.2283121359221
 10
97.81504581973027
 20
-154.1945502001666
 10
97.87016734749428
 20
-154.0739718581829
 10
97.88911537266315
 20
-153.99990230525
 10
97.87016734749428
 20
-153.99990230525
 10
97.69240042045538
 20
-154.0061034771234
 10
97.49775252553876
 20
-154.0188503304189
 10
97.49775252553876
 20
-154.0188503304189
 10
97.49775252553876
 20
-154.1521755256981
 10
97.49775252553876
 20
-154.1521755256981
 10
97.44917667919674
 20
-154.1773247227404
 10
97.38992103685044
 20
-154.2093641107532
 10
97.25659584157128
 20
-154.2748209249729
 10
97.25659584157128
 20
-154.2748209249729
 10
97.25659584157128
 20
-154.4208929735475
 10
97.25659584157128
 20
-154.4208929735475
 10
97.25659584157128
 20
-154.4208929735475
 10
97.25659584157128
 20
-154.888392430896
 10
97.25659584157128
 20
-154.888392430896
 10
97.25659584157128
 20
-155.0151719447531
 10
97.22042233897616
 20
-155.0744275870994
 10
96.93723549008861
 20
-155.0661593579348
 10
96.93723549008861
 20
-155.0661593579348
 10
96.83353811598259
 20
-154.8587646097228
 10
96.83353811598259
 20
-154.8587646097228
 10
96.8969278729112
 20
-154.8715114630182
 10
96.94550371925322
 20
-154.8756455776005
 10
96.98581133643063
 20
-154.8756455776005
 10
97.06194794665465
 20
-154.8756455776005
 10
97.07262774265894
 20
-154.8522189283008
 10
97.07262774265894
 20
-154.7867621140811
 10
97.07262774265894
 20
-154.7867621140811
 10
97.07262774265894
 20
-154.3571587070704
 10
97.07262774265894
 20
-154.3571587070704
 10
96.97513154042637
 20
-154.3974663242478
 10
96.95825057254864
 20
-154.4040120056698
 10
96.91174178349776
 20
-154.4229600308387
 10
96.90760766891546
 20
-154.4439751132987
 10
96.90312904478464
 20
-154.4736029344718
 10
96.88418101961577
 20
-154.4736029344718
 10
96.87591279045117
 20
-154.4736029344718
 10
96.86523299444688
 20
-154.4694688198896
 10
96.85868731302491
 20
-154.4460421705899
 10
96.85868731302491
 20
-154.4460421705899
 10
96.8059773521006
 20
-154.2538058425129
 10
96.8059773521006
 20
-154.2538058425129
 10
96.95204940067519
 20
-154.2069525439135
 10
97.01750621489495
 20
-154.1838704041623
 10
97.07262774265894
 20
-154.1628553217023
 10
97.07262774265894
 20
-154.1628553217023
 10
97.07262774265894
 20
-153.7501328825694
 10
97.07262774265894
 20
-153.7501328825694
 10
97.07262774265894
 20
-153.7501328825694
 10
97.01957327218607
 20
-153.7501328825694
 10
97.01957327218607
 20
-153.7501328825694
 10
97.01957327218607
 20
-153.7501328825694
 10
96.94136960467091
 20
-153.7501328825694
 10
96.94136960467091
 20
-153.7501328825694
 10
96.87350122361149
 20
-153.7501328825694
 10
96.86523299444688
 20
-153.7501328825694
 10
96.82905949185176
 20
-153.7566785639914
 10
96.82905949185176
 20
-153.7566785639914
 10
96.82905949185176
 20
-153.5620306690747
 10
96.82905949185176
 20
-153.5620306690747
 10
96.85662025573376
 20
-153.5682318409482
 10
96.86523299444688
 20
-153.5682318409482
 10
96.93482392324895
 20
-153.5682318409482
 10
96.93482392324895
 20
-153.5682318409482
 10
97.06814911852811
 20
-153.5682318409482
 10
97.06814911852811
 20
-153.5682318409482
 10
97.06814911852811
 20
-153.4982964025976
 10
97.06814911852811
 20
-153.4159586205002
 10
97.06608206123696
 20
-153.4118245059179
 10
97.05781383207236
 20
-153.2319905215878
 10
97.05781383207236
 20
-153.2126979868704
 10
97.05540226523268
 20
-153.1661891978195
 10
97.05540226523268
 20
-153.1661891978195
 10
97.27140975215785
 20
-153.1748019365327
 10
97.27140975215785
 20
-153.1748019365327
 10
97.28208954816212
 20
-153.1748019365327
 10
97.30310463062215
 20
-153.1768689938238
 10
97.30310463062215
 20
-153.1937499617015
 10
97.30310463062215
 20
-153.2126979868704
 10
97.28829072003557
 20
-153.2233777828747
 10
97.26279701344473
 20
-153.2423258080436
 10
97.26279701344473
 20
-153.2933132212253
 10
97.25659584157128
 20
-153.5217230518973
 10
97.25866289886242
 20
-153.5682318409482
 10
97.38785397955929
 20
-153.5682318409482
 10
97.4002563233062
 20
-153.5682318409482
 10
97.49775252553876
 20
-153.5596191022351
 10
97.49775252553876
 20
-153.5596191022351
 10
97.49775252553876
 20
-153.7542669971517
 10
97.49775252553876
 20
-153.7542669971517
 10
97.45951196565249
 20
-153.7521999398605
 10
97.3919880941416
 20
-153.7480658252782
 10
97.25659584157128
 20
-153.7501328825694
 10
97.25659584157128
 20
-153.7501328825694
 10
97.25659584157128
 20
-154.0887857687694
 10
97.25659584157128
 20
-154.0887857687694
 10
97.31171736933527
 20
-154.0653591194697
 10
97.37717418355501
 20
-154.0377983555877
 10
97.42575002989704
 20
-154.0147162158366
 10
97.42575002989704
 20
-154.0147162158366
 10
97.42575002989704
 20
-153.8369492887977
 10
97.42575002989704
 20
-153.8369492887977
 10
97.54012720000734
 20
-153.8496961420931
 10
97.65863848469994
 20
-153.8496961420931
 10
97.77473820255286
 20
-153.8496961420931
 10
97.75165606280168
 20
-153.7542669971517
 10
97.72409529891968
 20
-153.6719292150542
 10
97.66070554199108
 20
-153.5386040197751
 10
97.61626381023136
 20
-153.5406710770662
 10
97.53358151858536
 20
-153.5448051916485
 10
97.49568546824761
 20
-153.5472167584882
 10
97.49568546824761
 20
-153.5472167584882
 10
97.49568546824761
 20
-153.3673827741581
 10
97.49568546824761
 20
-153.3673827741581
 10
97.62039792481367
 20
-153.3756510033227
 10
97.79403073727024
 20
-153.379785117905
 10
97.87636851936772
 20
-153.379785117905
 10
97.87636851936772
 20
-153.379785117905
 10
97.95905081101372
 20
-153.379785117905
 10
97.95905081101372
 20
-153.379785117905
 10
97.95905081101372
 20
-153.2171766110012
 10
97.95905081101372
 20
-153.206496814997
 10
97.95663924417404
 20
-153.151375287233
 10
97.95663924417404
 20
-153.151375287233
 10
98.18091496026381
 20
-153.1768689938238
 10
98.18091496026381
 20
-153.1768689938238
 10
98.18539358439464
 20
-153.1768689938238
 10
98.20640866685465
 20
-153.178936051115
 10
98.20640866685465
 20
-153.1958170189927
 10
98.20640866685465
 20
-153.2106309295793
 10
98.19572887085037
 20
-153.2192436682924
 10
98.16816810696838
 20
-153.234057578879
 10
98.16196693509493
 20
-153.2995143930987
 10
98.15989987780378
 20
-153.3208739851073
 10
98.15989987780378
 20
-153.379785117905
 10
98.15989987780378
 20
-153.379785117905
 10
98.25498451319667
 20
-153.379785117905
 10
98.25498451319667
 20
-153.379785117905
 10
98.33766680484266
 20
-153.379785117905
 10
98.51095510775074
 20
-153.3756510033227
 10
98.6360120738653
 20
-153.3673827741581
 10
98.6360120738653
 20
-153.3673827741581
 10
98.6360120738653
 20
-153.5472167584882
 10
98.6360120738653
 20
-153.5472167584882
 10
98.60638425269215
 20
-153.5448051916485
 10
98.48787296799956
 20
-153.5406710770662
 10
98.44756535082215
 20
-153.5386040197751
 10
98.43275144023557
 20
-153.5892469234082
 10
98.39898950448011
 20
-153.7015570362274
 10
98.33318818071184
 20
-153.84108340338
 10
98.37556285518042
 20
-153.84108340338
 10
98.65289304174304
 20
-153.8221353782111
 10
98.71421574138048
 20
-153.82006832092
 10
98.71421574138048
 20
-153.82006832092
 10
98.71421574138048
 20
-154.0040364198323
 10
98.71421574138048
 20
-154.0040364198323
 10
98.68458792020733
 20
-154.0040364198323
 10
98.66770695232961
 20
-153.99990230525
 10
98.50475393587728
 20
-153.99990230525
 97
        0
 97
        1
330
B2
 75
     2
 76
     1
 98
        1
 10
0.0
 20
0.0
450
        0
451
        0
460
0.0
461
0.0
452
        0
462
0.0
453
        0
470

  0
SPLINE
  5
B4
330
AC
100
AcDbEntity
  8
レイヤー 1
100
AcDbSpline
210
0.0
220
0.0
230
1.0
 70
    11
 71
     3
 72
    17
 73
    13
 74
     0
 42
0.0000000001
 43
0.0000000001
 40
0.0
 40
0.0
 40
0.0
 40
0.0
 40
1.0
 40
1.0
 40
1.0
 40
2.0
 40
2.0
 40
2.0
 40
3.0
 40
3.0
 40
3.0
 40
4.0
 40
4.0
 40
4.0
 40
4.0
 10
100.3613158928784
 20
-154.7995089673765
 30
0.0
 10
100.3613158928784
 20
-154.7995089673765
 30
0.0
 10
99.65472680885369
 20
-154.7995089673765
 30
0.0
 10
99.65472680885369
 20
-154.7995089673765
 30
0.0
 10
99.65472680885369
 20
-154.7995089673765
 30
0.0
 10
99.65472680885369
 20
-154.9135416279383
 30
0.0
 10
99.65472680885369
 20
-154.9135416279383
 30
0.0
 10
99.65472680885369
 20
-154.9135416279383
 30
0.0
 10
100.3613158928784
 20
-154.9135416279383
 30
0.0
 10
100.3613158928784
 20
-154.9135416279383
 30
0.0
 10
100.3613158928784
 20
-154.9135416279383
 30
0.0
 10
100.3613158928784
 20
-154.7995089673765
 30
0.0
 10
100.3613158928784
 20
-154.7995089673765
 30
0.0
  0
SPLINE
  5
B5
330
AC
100
AcDbEntity
  8
レイヤー 1
100
AcDbSpline
210
0.0
220
0.0
230
1.0
 70
    11
 71
     3
 72
    17
 73
    13
 74
     0
 42
0.0000000001
 43
0.0000000001
 40
0.0
 40
0.0
 40
0.0
 40
0.0
 40
1.0
 40
1.0
 40
1.0
 40
2.0
 40
2.0
 40
2.0
 40
3.0
 40
3.0
 40
3.0
 40
4.0
 40
4.0
 40
4.0
 40
4.0
 10
100.3613158928784
 20
-154.5562852261179
 30
0.0
 10
100.3613158928784
 20
-154.5562852261179
 30
0.0
 10
99.65472680885369
 20
-154.5562852261179
 30
0.0
 10
99.65472680885369
 20
-154.5562852261179
 30
0.0
 10
99.65472680885369
 20
-154.5562852261179
 30
0.0
 10
99.65472680885369
 20
-154.6703178866796
 30
0.0
 10
99.65472680885369
 20
-154.6703178866796
 30
0.0
 10
99.65472680885369
 20
-154.6703178866796
 30
0.0
 10
100.3613158928784
 20
-154.6703178866796
 30
0.0
 10
100.3613158928784
 20
-154.6703178866796
 30
0.0
 10
100.3613158928784
 20
-154.6703178866796
 30
0.0
 10
100.3613158928784
 20
-154.5562852261179
 30
0.0
 10
100.3613158928784
 20
-154.5562852261179
 30
0.0
  0
SPLINE
  5
B6
330
AC
100
AcDbEntity
  8
レイヤー 1
100
AcDbSpline
210
0.0
220
0.0
230
1.0
 70
    11
 71
     3
 72
    17
 73
    13
 74
     0
 42
0.0000000001
 43
0.0000000001
 40
0.0
 40
0.0
 40
0.0
 40
0.0
 40
1.0
 40
1.0
 40
1.0
 40
2.0
 40
2.0
 40
2.0
 40
3.0
 40
3.0
 40
3.0
 40
4.0
 40
4.0
 40
4.0
 40
4.0
 10
100.3613158928784
 20
-154.323396771315
 30
0.0
 10
100.3613158928784
 20
-154.323396771315
 30
0.0
 10
99.65472680885369
 20
-154.323396771315
 30
0.0
 10
99.65472680885369
 20
-154.323396771315
 30
0.0
 10
99.65472680885369
 20
-154.323396771315
 30
0.0
 10
99.65472680885369
 20
-154.4312282600033
 30
0.0
 10
99.65472680885369
 20
-154.4312282600033
 30
0.0
 10
99.65472680885369
 20
-154.4312282600033
 30
0.0
 10
100.3613158928784
 20
-154.4312282600033
 30
0.0
 10
100.3613158928784
 20
-154.4312282600033
 30
0.0
 10
100.3613158928784
 20
-154.4312282600033
 30
0.0
 10
100.3613158928784
 20
-154.323396771315
 30
0.0
 10
100.3613158928784
 20
-154.323396771315
 30
0.0
  0
SPLINE
  5
B7
330
AC
100
AcDbEntity
  8
レイヤー 1
100
AcDbSpline
210
0.0
220
0.0
230
1.0
 70
     9
 71
     3
 72
   203
 73
   199
 74
     0
 42
0.0000000001
 43
0.0000000001
 40
0.0
 40
0.0
 40
0.0
 40
0.0
 40
1.0
 40
1.0
 40
1.0
 40
2.0
 40
2.0
 40
2.0
 40
3.0
 40
3.0
 40
3.0
 40
4.0
 40
4.0
 40
4.0
 40
5.0
 40
5.0
 40
5.0
 40
6.0
 40
6.0
 40
6.0
 40
7.0
 40
7.0
 40
7.0
 40
8.0
 40
8.0
 40
8.0
 40
9.0
 40
9.0
 40
9.0
 40
10.0
 40
10.0
 40
10.0
 40
11.0
 40
11.0
 40
11.0
 40
12.0
 40
12.0
 40
12.0
 40
13.0
 40
13.0
 40
13.0
 40
14.0
 40
14.0
 40
14.0
 40
15.0
 40
15.0
 40
15.0
 40
16.0
 40
16.0
 40
16.0
 40
17.0
 40
17.0
 40
17.0
 40
18.0
 40
18.0
 40
18.0
 40
19.0
 40
19.0
 40
19.0
 40
20.0
 40
20.0
 40
20.0
 40
21.0
 40
21.0
 40
21.0
 40
22.0
 40
22.0
 40
22.0
 40
23.0
 40
23.0
 40
23.0
 40
24.0
 40
24.0
 40
24.0
 40
25.0
 40
25.0
 40
25.0
 40
26.0
 40
26.0
 40
26.0
 40
27.0
 40
27.0
 40
27.0
 40
28.0
 40
28.0
 40
28.0
 40
29.0
 40
29.0
 40
29.0
 40
30.0
 40
30.0
 40
30.0
 40
31.0
 40
31.0
 40
31.0
 40
32.0
 40
32.0
 40
32.0
 40
33.0
 40
33.0
 40
33.0
 40
34.0
 40
34.0
 40
34.0
 40
35.0
 40
35.0
 40
35.0
 40
36.0
 40
36.0
 40
36.0
 40
37.0
 40
37.0
 40
37.0
 40
38.0
 40
38.0
 40
38.0
 40
39.0
 40
39.0
 40
39.0
 40
40.0
 40
40.0
 40
40.0
 40
41.0
 40
41.0
 40
41.0
 40
42.0
 40
42.0
 40
42.0
 40
43.0
 40
43.0
 40
43.0
 40
44.0
 40
44.0
 40
44.0
 40
45.0
 40
45.0
 40
45.0
 40
46.0
 40
46.0
 40
46.0
 40
47.0
 40
47.0
 40
47.0
 40
48.0
 40
48.0
 40
48.0
 40
49.0
 40
49.0
 40
49.0
 40
50.0
 40
50.0
 40
50.0
 40
51.0
 40
51.0
 40
51.0
 40
52.0
 40
52.0
 40
52.0
 40
53.0
 40
53.0
 40
53.0
 40
54.0
 40
54.0
 40
54.0
 40
55.0
 40
55.0
 40
55.0
 40
56.0
 40
56.0
 40
56.0
 40
57.0
 40
57.0
 40
57.0
 40
58.0
 40
58.0
 40
58.0
 40
59.0
 40
59.0
 40
59.0
 40
60.0
 40
60.0
 40
60.0
 40
61.0
 40
61.0
 40
61.0
 40
62.0
 40
62.0
 40
62.0
 40
63.0
 40
63.0
 40
63.0
 40
64.0
 40
64.0
 40
64.0
 40
65.0
 40
65.0
 40
65.0
 40
66.0
 40
66.0
 40
66.0
 40
66.0
 10
100.1962958191349
 20
-154.0674261767609
 30
0.0
 10
100.1962958191349
 20
-154.0674261767609
 30
0.0
 10
99.63750133142744
 20
-154.0674261767609
 30
0.0
 10
99.63750133142744
 20
-154.0674261767609
 30
0.0
 10
99.62716604497169
 20
-154.1118679085206
 30
0.0
 10
99.61855330625857
 20
-154.1435627869849
 30
0.0
 10
99.60580645296314
 20
-154.1818033468712
 30
0.0
 10
99.631300159554
 20
-154.1818033468712
 30
0.0
 10
99.64611407014055
 20
-154.1838704041623
 30
0.0
 10
99.65231524201401
 20
-154.1838704041623
 30
0.0
 10
99.65231524201401
 20
-154.1838704041623
 30
0.0
 10
99.84076196505718
 20
-154.1838704041623
 30
0.0
 10
99.84076196505718
 20
-154.1838704041623
 30
0.0
 10
99.84076196505718
 20
-154.1838704041623
 30
0.0
 10
100.2152438443038
 20
-154.1838704041623
 30
0.0
 10
100.2152438443038
 20
-154.1838704041623
 30
0.0
 10
100.265886747937
 20
-154.1838704041623
 30
0.0
 10
100.5494181063731
 20
-154.1711235508669
 30
0.0
 10
100.5811129848373
 20
-154.1711235508669
 30
0.0
 10
100.5790459275462
 20
-154.1986843147489
 30
0.0
 10
100.576978870255
 20
-154.2176323399178
 30
0.0
 10
100.576978870255
 20
-154.2472601610909
 30
0.0
 10
100.5749118129639
 20
-154.2789550395552
 30
0.0
 10
100.5749118129639
 20
-154.4143472921256
 30
0.0
 10
100.5749118129639
 20
-154.4419080560075
 30
0.0
 10
100.5749118129639
 20
-154.4419080560075
 30
0.0
 10
100.5749118129639
 20
-154.6871988545573
 30
0.0
 10
100.5749118129639
 20
-154.6871988545573
 30
0.0
 10
100.5749118129639
 20
-154.7316405863171
 30
0.0
 10
100.5790459275462
 20
-154.9283555385248
 30
0.0
 10
100.5831800421285
 20
-155.0809732685214
 30
0.0
 10
100.5831800421285
 20
-155.0809732685214
 30
0.0
 10
100.3568372687476
 20
-155.0809732685214
 30
0.0
 10
100.3568372687476
 20
-155.0809732685214
 30
0.0
 10
100.3568372687476
 20
-155.0809732685214
 30
0.0
 10
100.3589043260387
 20
-155.0468668232174
 30
0.0
 10
100.3589043260387
 20
-155.0468668232174
 30
0.0
 10
100.3589043260387
 20
-155.0468668232174
 30
0.0
 10
99.65679386614484
 20
-155.0468668232174
 30
0.0
 10
99.65679386614484
 20
-155.0468668232174
 30
0.0
 10
99.65679386614484
 20
-155.0468668232174
 30
0.0
 10
99.65886092343598
 20
-155.0809732685214
 30
0.0
 10
99.65886092343598
 20
-155.0809732685214
 30
0.0
 10
99.65886092343598
 20
-155.0809732685214
 30
0.0
 10
99.44078637921968
 20
-155.0809732685214
 30
0.0
 10
99.44078637921968
 20
-155.0809732685214
 30
0.0
 10
99.44526500335051
 20
-155.0258517407574
 30
0.0
 10
99.44526500335051
 20
-155.013104887462
 30
0.0
 10
99.45146617522395
 20
-154.8987277173517
 30
0.0
 10
99.45353323251509
 20
-154.8715114630182
 30
0.0
 10
99.45560028980624
 20
-154.738186267739
 30
0.0
 10
99.45560028980624
 20
-154.7188937330217
 30
0.0
 10
99.45560028980624
 20
-154.7188937330217
 30
0.0
 10
99.45560028980624
 20
-154.5159776089404
 30
0.0
 10
99.45560028980624
 20
-154.5159776089404
 30
0.0
 10
99.31607392265362
 20
-154.765747031621
 30
0.0
 10
99.14691973432786
 20
-154.8966606600606
 30
0.0
 10
99.04115530293069
 20
-154.9624619838288
 30
0.0
 10
99.04115530293069
 20
-154.9624619838288
 30
0.0
 10
98.86752249047411
 20
-154.8225911071277
 30
0.0
 10
98.86752249047411
 20
-154.8225911071277
 30
0.0
 10
98.95640595399354
 20
-154.7719482034945
 30
0.0
 10
99.10041094527699
 20
-154.6851317972662
 30
0.0
 10
99.23787025513846
 20
-154.4904839023496
 30
0.0
 10
99.32882077594905
 20
-154.3637043884924
 30
0.0
 10
99.39427759016879
 20
-154.219699397209
 30
0.0
 10
99.42838403547277
 20
-154.0674261767609
 30
0.0
 10
99.19962969525219
 20
-154.0694932340521
 30
0.0
 10
99.01979571092214
 20
-154.076038915474
 30
0.0
 10
98.92471107552925
 20
-154.0781059727652
 30
0.0
 10
98.92471107552925
 20
-154.0781059727652
 30
0.0
 10
98.92471107552925
 20
-153.9003390457263
 30
0.0
 10
98.92471107552925
 20
-153.9003390457263
 30
0.0
 10
99.12142602773702
 20
-153.9065402175998
 30
0.0
 10
99.40495738617308
 20
-153.9110188417306
 30
0.0
 10
99.55516354932996
 20
-153.9110188417306
 30
0.0
 10
99.55516354932996
 20
-153.9110188417306
 30
0.0
 10
99.76875946941547
 20
-153.9110188417306
 30
0.0
 10
99.76875946941547
 20
-153.9110188417306
 30
0.0
 10
99.76875946941547
 20
-153.9110188417306
 30
0.0
 10
99.76875946941547
 20
-153.8031873530422
 30
0.0
 10
99.76875946941547
 20
-153.8031873530422
 30
0.0
 10
99.76875946941547
 20
-153.8031873530422
 30
0.0
 10
99.62268742084086
 20
-153.8031873530422
 30
0.0
 10
99.62268742084086
 20
-153.8031873530422
 30
0.0
 10
99.45353323251509
 20
-153.8031873530422
 30
0.0
 10
99.28437904418933
 20
-153.8073214676245
 30
0.0
 10
99.11729191315473
 20
-153.813522639498
 30
0.0
 10
99.11729191315473
 20
-153.813522639498
 30
0.0
 10
99.11729191315473
 20
-153.6423013938811
 30
0.0
 10
99.11729191315473
 20
-153.6423013938811
 30
0.0
 10
99.2716321908939
 20
-153.6529811898853
 30
0.0
 10
99.4576673470974
 20
-153.6529811898853
 30
0.0
 10
99.62268742084086
 20
-153.6529811898853
 30
0.0
 10
99.62268742084086
 20
-153.6529811898853
 30
0.0
 10
99.76875946941547
 20
-153.6529811898853
 30
0.0
 10
99.76875946941547
 20
-153.6529811898853
 30
0.0
 10
99.76875946941547
 20
-153.6529811898853
 30
0.0
 10
99.76875946941547
 20
-153.5344699051927
 30
0.0
 10
99.76875946941547
 20
-153.5344699051927
 30
0.0
 10
99.76875946941547
 20
-153.5344699051927
 30
0.0
 10
99.63750133142744
 20
-153.5344699051927
 30
0.0
 10
99.63750133142744
 20
-153.5344699051927
 30
0.0
 10
99.59099254237656
 20
-153.5344699051927
 30
0.0
 10
99.38807641829534
 20
-153.5427381343573
 30
0.0
 10
99.34570174382677
 20
-153.5427381343573
 30
0.0
 10
99.14278561974555
 20
-153.5472167584882
 30
0.0
 10
99.06630449997301
 20
-153.5492838157793
 30
0.0
 10
98.98810083245784
 20
-153.5513508730705
 30
0.0
 10
98.98810083245784
 20
-153.5513508730705
 30
0.0
 10
98.98810083245784
 20
-153.3673827741581
 30
0.0
 10
98.98810083245784
 20
-153.3673827741581
 30
0.0
 10
99.10247800256813
 20
-153.3756510033227
 30
0.0
 10
99.14691973432786
 20
-153.3756510033227
 30
0.0
 10
99.52966984273912
 20
-153.3842637420359
 30
0.0
 10
99.46628008581052
 20
-153.2888345970945
 30
0.0
 10
99.43871932192852
 20
-153.261618342761
 30
0.0
 10
99.40289032888193
 20
-153.2254448401658
 30
0.0
 10
99.40289032888193
 20
-153.2254448401658
 30
0.0
 10
99.57824568908115
 20
-153.1431070580684
 30
0.0
 10
99.57824568908115
 20
-153.1431070580684
 30
0.0
 10
99.61855330625857
 20
-153.178936051115
 30
0.0
 10
99.66299503801828
 20
-153.2213107255835
 30
0.0
 10
99.73706459095115
 20
-153.331209271563
 30
0.0
 10
99.73706459095115
 20
-153.331209271563
 30
0.0
 10
99.62268742084086
 20
-153.386330799327
 30
0.0
 10
99.62268742084086
 20
-153.386330799327
 30
0.0
 10
99.62268742084086
 20
-153.386330799327
 30
0.0
 10
99.63336721684513
 20
-153.386330799327
 30
0.0
 10
99.63336721684513
 20
-153.386330799327
 30
0.0
 10
99.63336721684513
 20
-153.386330799327
 30
0.0
 10
100.1559882019575
 20
-153.386330799327
 30
0.0
 10
100.1559882019575
 20
-153.386330799327
 30
0.0
 10
100.1559882019575
 20
-153.386330799327
 30
0.0
 10
100.0609035665646
 20
-153.3418890675673
 30
0.0
 10
100.0609035665646
 20
-153.3418890675673
 30
0.0
 10
100.0881198208981
 20
-153.303648507681
 30
0.0
 10
100.1453084059532
 20
-153.2233777828747
 30
0.0
 10
100.1601223165398
 20
-153.1493082299418
 30
0.0
 10
100.1601223165398
 20
-153.1493082299418
 30
0.0
 10
100.3737182366253
 20
-153.2126979868704
 30
0.0
 10
100.3737182366253
 20
-153.2126979868704
 30
0.0
 10
100.3823309753384
 20
-153.2151095537101
 30
0.0
 10
100.4033460577985
 20
-153.2254448401658
 30
0.0
 10
100.4033460577985
 20
-153.2468044321744
 30
0.0
 10
100.4033460577985
 20
-153.2847004825121
 30
0.0
 10
100.3378892435787
 20
-153.2847004825121
 30
0.0
 10
100.3189412184098
 20
-153.2847004825121
 30
0.0
 10
100.3082614224056
 20
-153.303648507681
 30
0.0
 10
100.2848347731059
 20
-153.3439561248584
 30
0.0
 10
100.2552069519327
 20
-153.3842637420359
 30
0.0
 10
100.6551825377702
 20
-153.3777180606139
 30
0.0
 10
100.6848103589434
 20
-153.3756510033227
 30
0.0
 10
100.7609469691674
 20
-153.3694498314493
 30
0.0
 10
100.7609469691674
 20
-153.3694498314493
 30
0.0
 10
100.7609469691674
 20
-153.5513508730705
 30
0.0
 10
100.7609469691674
 20
-153.5513508730705
 30
0.0
 10
100.7419989439985
 20
-153.5513508730705
 30
0.0
 10
100.7165052374077
 20
-153.5492838157793
 30
0.0
 10
100.4967081454487
 20
-153.5406710770662
 30
0.0
 10
100.445720732267
 20
-153.5386040197751
 30
0.0
 10
100.2259236403081
 20
-153.5344699051927
 30
0.0
 10
100.1814819085484
 20
-153.5344699051927
 30
0.0
 10
100.1814819085484
 20
-153.5344699051927
 30
0.0
 10
99.96547442162322
 20
-153.5344699051927
 30
0.0
 10
99.96547442162322
 20
-153.5344699051927
 30
0.0
 10
99.96547442162322
 20
-153.5344699051927
 30
0.0
 10
99.96547442162322
 20
-153.6529811898853
 30
0.0
 10
99.96547442162322
 20
-153.6529811898853
 30
0.0
 10
99.96547442162322
 20
-153.6529811898853
 30
0.0
 10
100.1391072340798
 20
-153.6529811898853
 30
0.0
 10
100.1391072340798
 20
-153.6529811898853
 30
0.0
 10
100.3020602505321
 20
-153.6529811898853
 30
0.0
 10
100.4922295213179
 20
-153.6529811898853
 30
0.0
 10
100.6489813658968
 20
-153.6423013938811
 30
0.0
 10
100.6489813658968
 20
-153.6423013938811
 30
0.0
 10
100.6489813658968
 20
-153.813522639498
 30
0.0
 10
100.6489813658968
 20
-153.813522639498
 30
0.0
 10
100.4395195603936
 20
-153.8052544103334
 30
0.0
 10
100.2428046081858
 20
-153.8031873530422
 30
0.0
 10
100.1391072340798
 20
-153.8031873530422
 30
0.0
 10
100.1391072340798
 20
-153.8031873530422
 30
0.0
 10
99.96547442162322
 20
-153.8031873530422
 30
0.0
 10
99.96547442162322
 20
-153.8031873530422
 30
0.0
 10
99.96547442162322
 20
-153.8031873530422
 30
0.0
 10
99.96547442162322
 20
-153.9110188417306
 30
0.0
 10
99.96547442162322
 20
-153.9110188417306
 30
0.0
 10
99.96547442162322
 20
-153.9110188417306
 30
0.0
 10
100.1962958191349
 20
-153.9110188417306
 30
0.0
 10
100.1962958191349
 20
-153.9110188417306
 30
0.0
 10
100.3292765048656
 20
-153.9110188417306
 30
0.0
 10
100.6172864874325
 20
-153.9065402175998
 30
0.0
 10
100.8264037833871
 20
-153.9003390457263
 30
0.0
 10
100.8264037833871
 20
-153.9003390457263
 30
0.0
 10
100.8264037833871
 20
-154.0781059727652
 30
0.0
 10
100.8264037833871
 20
-154.0781059727652
 30
0.0
 10
100.6341674553102
 20
-154.0715602913432
 30
0.0
 10
100.321008275701
 20
-154.0674261767609
 30
0.0
 10
100.1962958191349
 20
-154.0674261767609
 30
0.0
  0
HATCH
  5
B8
330
AC
100
AcDbEntity
  8
レイヤー 1
 62
   250
420
  2299925
440
 33554687
100
AcDbHatch
 10
0.0
 20
0.0
 30
0.0
210
0.0
220
0.0
230
1.0
  2
SOLID
 70
     1
 71
     1
 91
        4
 92
        1
 93
        1
 72
     4
 94
        3
 73
     0
 74
     0
 95
       17
 96
       13
 40
0.0
 40
0.0
 40
0.0
 40
0.0
 40
1.0
 40
1.0
 40
1.0
 40
2.0
 40
2.0
 40
2.0
 40
3.0
 40
3.0
 40
3.0
 40
4.0
 40
4.0
 40
4.0
 40
4.0
 10
100.3613158928784
 20
-154.7995089673765
 10
100.3613158928784
 20
-154.7995089673765
 10
99.65472680885369
 20
-154.7995089673765
 10
99.65472680885369
 20
-154.7995089673765
 10
99.65472680885369
 20
-154.7995089673765
 10
99.65472680885369
 20
-154.9135416279383
 10
99.65472680885369
 20
-154.9135416279383
 10
99.65472680885369
 20
-154.9135416279383
 10
100.3613158928784
 20
-154.9135416279383
 10
100.3613158928784
 20
-154.9135416279383
 10
100.3613158928784
 20
-154.9135416279383
 10
100.3613158928784
 20
-154.7995089673765
 10
100.3613158928784
 20
-154.7995089673765
 97
        0
 97
        1
330
B4
 92
        1
 93
        1
 72
     4
 94
        3
 73
     0
 74
     0
 95
       17
 96
       13
 40
0.0
 40
0.0
 40
0.0
 40
0.0
 40
1.0
 40
1.0
 40
1.0
 40
2.0
 40
2.0
 40
2.0
 40
3.0
 40
3.0
 40
3.0
 40
4.0
 40
4.0
 40
4.0
 40
4.0
 10
100.3613158928784
 20
-154.5562852261179
 10
100.3613158928784
 20
-154.5562852261179
 10
99.65472680885369
 20
-154.5562852261179
 10
99.65472680885369
 20
-154.5562852261179
 10
99.65472680885369
 20
-154.5562852261179
 10
99.65472680885369
 20
-154.6703178866796
 10
99.65472680885369
 20
-154.6703178866796
 10
99.65472680885369
 20
-154.6703178866796
 10
100.3613158928784
 20
-154.6703178866796
 10
100.3613158928784
 20
-154.6703178866796
 10
100.3613158928784
 20
-154.6703178866796
 10
100.3613158928784
 20
-154.5562852261179
 10
100.3613158928784
 20
-154.5562852261179
 97
        0
 97
        1
330
B5
 92
        1
 93
        1
 72
     4
 94
        3
 73
     0
 74
     0
 95
       17
 96
       13
 40
0.0
 40
0.0
 40
0.0
 40
0.0
 40
1.0
 40
1.0
 40
1.0
 40
2.0
 40
2.0
 40
2.0
 40
3.0
 40
3.0
 40
3.0
 40
4.0
 40
4.0
 40
4.0
 40
4.0
 10
100.3613158928784
 20
-154.323396771315
 10
100.3613158928784
 20
-154.323396771315
 10
99.65472680885369
 20
-154.323396771315
 10
99.65472680885369
 20
-154.323396771315
 10
99.65472680885369
 20
-154.323396771315
 10
99.65472680885369
 20
-154.4312282600033
 10
99.65472680885369
 20
-154.4312282600033
 10
99.65472680885369
 20
-154.4312282600033
 10
100.3613158928784
 20
-154.4312282600033
 10
100.3613158928784
 20
-154.4312282600033
 10
100.3613158928784
 20
-154.4312282600033
 10
100.3613158928784
 20
-154.323396771315
 10
100.3613158928784
 20
-154.323396771315
 97
        0
 97
        1
330
B6
 92
        1
 93
        1
 72
     4
 94
        3
 73
     0
 74
     0
 95
      203
 96
      199
 40
0.0
 40
0.0
 40
0.0
 40
0.0
 40
1.0
 40
1.0
 40
1.0
 40
2.0
 40
2.0
 40
2.0
 40
3.0
 40
3.0
 40
3.0
 40
4.0
 40
4.0
 40
4.0
 40
5.0
 40
5.0
 40
5.0
 40
6.0
 40
6.0
 40
6.0
 40
7.0
 40
7.0
 40
7.0
 40
8.0
 40
8.0
 40
8.0
 40
9.0
 40
9.0
 40
9.0
 40
10.0
 40
10.0
 40
10.0
 40
11.0
 40
11.0
 40
11.0
 40
12.0
 40
12.0
 40
12.0
 40
13.0
 40
13.0
 40
13.0
 40
14.0
 40
14.0
 40
14.0
 40
15.0
 40
15.0
 40
15.0
 40
16.0
 40
16.0
 40
16.0
 40
17.0
 40
17.0
 40
17.0
 40
18.0
 40
18.0
 40
18.0
 40
19.0
 40
19.0
 40
19.0
 40
20.0
 40
20.0
 40
20.0
 40
21.0
 40
21.0
 40
21.0
 40
22.0
 40
22.0
 40
22.0
 40
23.0
 40
23.0
 40
23.0
 40
24.0
 40
24.0
 40
24.0
 40
25.0
 40
25.0
 40
25.0
 40
26.0
 40
26.0
 40
26.0
 40
27.0
 40
27.0
 40
27.0
 40
28.0
 40
28.0
 40
28.0
 40
29.0
 40
29.0
 40
29.0
 40
30.0
 40
30.0
 40
30.0
 40
31.0
 40
31.0
 40
31.0
 40
32.0
 40
32.0
 40
32.0
 40
33.0
 40
33.0
 40
33.0
 40
34.0
 40
34.0
 40
34.0
 40
35.0
 40
35.0
 40
35.0
 40
36.0
 40
36.0
 40
36.0
 40
37.0
 40
37.0
 40
37.0
 40
38.0
 40
38.0
 40
38.0
 40
39.0
 40
39.0
 40
39.0
 40
40.0
 40
40.0
 40
40.0
 40
41.0
 40
41.0
 40
41.0
 40
42.0
 40
42.0
 40
42.0
 40
43.0
 40
43.0
 40
43.0
 40
44.0
 40
44.0
 40
44.0
 40
45.0
 40
45.0
 40
45.0
 40
46.0
 40
46.0
 40
46.0
 40
47.0
 40
47.0
 40
47.0
 40
48.0
 40
48.0
 40
48.0
 40
49.0
 40
49.0
 40
49.0
 40
50.0
 40
50.0
 40
50.0
 40
51.0
 40
51.0
 40
51.0
 40
52.0
 40
52.0
 40
52.0
 40
53.0
 40
53.0
 40
53.0
 40
54.0
 40
54.0
 40
54.0
 40
55.0
 40
55.0
 40
55.0
 40
56.0
 40
56.0
 40
56.0
 40
57.0
 40
57.0
 40
57.0
 40
58.0
 40
58.0
 40
58.0
 40
59.0
 40
59.0
 40
59.0
 40
60.0
 40
60.0
 40
60.0
 40
61.0
 40
61.0
 40
61.0
 40
62.0
 40
62.0
 40
62.0
 40
63.0
 40
63.0
 40
63.0
 40
64.0
 40
64.0
 40
64.0
 40
65.0
 40
65.0
 40
65.0
 40
66.0
 40
66.0
 40
66.0
 40
66.0
 10
100.1962958191349
 20
-154.0674261767609
 10
100.1962958191349
 20
-154.0674261767609
 10
99.63750133142744
 20
-154.0674261767609
 10
99.63750133142744
 20
-154.0674261767609
 10
99.62716604497169
 20
-154.1118679085206
 10
99.61855330625857
 20
-154.1435627869849
 10
99.60580645296314
 20
-154.1818033468712
 10
99.631300159554
 20
-154.1818033468712
 10
99.64611407014055
 20
-154.1838704041623
 10
99.65231524201401
 20
-154.1838704041623
 10
99.65231524201401
 20
-154.1838704041623
 10
99.84076196505718
 20
-154.1838704041623
 10
99.84076196505718
 20
-154.1838704041623
 10
99.84076196505718
 20
-154.1838704041623
 10
100.2152438443038
 20
-154.1838704041623
 10
100.2152438443038
 20
-154.1838704041623
 10
100.265886747937
 20
-154.1838704041623
 10
100.5494181063731
 20
-154.1711235508669
 10
100.5811129848373
 20
-154.1711235508669
 10
100.5790459275462
 20
-154.1986843147489
 10
100.576978870255
 20
-154.2176323399178
 10
100.576978870255
 20
-154.2472601610909
 10
100.5749118129639
 20
-154.2789550395552
 10
100.5749118129639
 20
-154.4143472921256
 10
100.5749118129639
 20
-154.4419080560075
 10
100.5749118129639
 20
-154.4419080560075
 10
100.5749118129639
 20
-154.6871988545573
 10
100.5749118129639
 20
-154.6871988545573
 10
100.5749118129639
 20
-154.7316405863171
 10
100.5790459275462
 20
-154.9283555385248
 10
100.5831800421285
 20
-155.0809732685214
 10
100.5831800421285
 20
-155.0809732685214
 10
100.3568372687476
 20
-155.0809732685214
 10
100.3568372687476
 20
-155.0809732685214
 10
100.3568372687476
 20
-155.0809732685214
 10
100.3589043260387
 20
-155.0468668232174
 10
100.3589043260387
 20
-155.0468668232174
 10
100.3589043260387
 20
-155.0468668232174
 10
99.65679386614484
 20
-155.0468668232174
 10
99.65679386614484
 20
-155.0468668232174
 10
99.65679386614484
 20
-155.0468668232174
 10
99.65886092343598
 20
-155.0809732685214
 10
99.65886092343598
 20
-155.0809732685214
 10
99.65886092343598
 20
-155.0809732685214
 10
99.44078637921968
 20
-155.0809732685214
 10
99.44078637921968
 20
-155.0809732685214
 10
99.44526500335051
 20
-155.0258517407574
 10
99.44526500335051
 20
-155.013104887462
 10
99.45146617522395
 20
-154.8987277173517
 10
99.45353323251509
 20
-154.8715114630182
 10
99.45560028980624
 20
-154.738186267739
 10
99.45560028980624
 20
-154.7188937330217
 10
99.45560028980624
 20
-154.7188937330217
 10
99.45560028980624
 20
-154.5159776089404
 10
99.45560028980624
 20
-154.5159776089404
 10
99.31607392265362
 20
-154.765747031621
 10
99.14691973432786
 20
-154.8966606600606
 10
99.04115530293069
 20
-154.9624619838288
 10
99.04115530293069
 20
-154.9624619838288
 10
98.86752249047411
 20
-154.8225911071277
 10
98.86752249047411
 20
-154.8225911071277
 10
98.95640595399354
 20
-154.7719482034945
 10
99.10041094527699
 20
-154.6851317972662
 10
99.23787025513846
 20
-154.4904839023496
 10
99.32882077594905
 20
-154.3637043884924
 10
99.39427759016879
 20
-154.219699397209
 10
99.42838403547277
 20
-154.0674261767609
 10
99.19962969525219
 20
-154.0694932340521
 10
99.01979571092214
 20
-154.076038915474
 10
98.92471107552925
 20
-154.0781059727652
 10
98.92471107552925
 20
-154.0781059727652
 10
98.92471107552925
 20
-153.9003390457263
 10
98.92471107552925
 20
-153.9003390457263
 10
99.12142602773702
 20
-153.9065402175998
 10
99.40495738617308
 20
-153.9110188417306
 10
99.55516354932996
 20
-153.9110188417306
 10
99.55516354932996
 20
-153.9110188417306
 10
99.76875946941547
 20
-153.9110188417306
 10
99.76875946941547
 20
-153.9110188417306
 10
99.76875946941547
 20
-153.9110188417306
 10
99.76875946941547
 20
-153.8031873530422
 10
99.76875946941547
 20
-153.8031873530422
 10
99.76875946941547
 20
-153.8031873530422
 10
99.62268742084086
 20
-153.8031873530422
 10
99.62268742084086
 20
-153.8031873530422
 10
99.45353323251509
 20
-153.8031873530422
 10
99.28437904418933
 20
-153.8073214676245
 10
99.11729191315473
 20
-153.813522639498
 10
99.11729191315473
 20
-153.813522639498
 10
99.11729191315473
 20
-153.6423013938811
 10
99.11729191315473
 20
-153.6423013938811
 10
99.2716321908939
 20
-153.6529811898853
 10
99.4576673470974
 20
-153.6529811898853
 10
99.62268742084086
 20
-153.6529811898853
 10
99.62268742084086
 20
-153.6529811898853
 10
99.76875946941547
 20
-153.6529811898853
 10
99.76875946941547
 20
-153.6529811898853
 10
99.76875946941547
 20
-153.6529811898853
 10
99.76875946941547
 20
-153.5344699051927
 10
99.76875946941547
 20
-153.5344699051927
 10
99.76875946941547
 20
-153.5344699051927
 10
99.63750133142744
 20
-153.5344699051927
 10
99.63750133142744
 20
-153.5344699051927
 10
99.59099254237656
 20
-153.5344699051927
 10
99.38807641829534
 20
-153.5427381343573
 10
99.34570174382677
 20
-153.5427381343573
 10
99.14278561974555
 20
-153.5472167584882
 10
99.06630449997301
 20
-153.5492838157793
 10
98.98810083245784
 20
-153.5513508730705
 10
98.98810083245784
 20
-153.5513508730705
 10
98.98810083245784
 20
-153.3673827741581
 10
98.98810083245784
 20
-153.3673827741581
 10
99.10247800256813
 20
-153.3756510033227
 10
99.14691973432786
 20
-153.3756510033227
 10
99.52966984273912
 20
-153.3842637420359
 10
99.46628008581052
 20
-153.2888345970945
 10
99.43871932192852
 20
-153.261618342761
 10
99.40289032888193
 20
-153.2254448401658
 10
99.40289032888193
 20
-153.2254448401658
 10
99.57824568908115
 20
-153.1431070580684
 10
99.57824568908115
 20
-153.1431070580684
 10
99.61855330625857
 20
-153.178936051115
 10
99.66299503801828
 20
-153.2213107255835
 10
99.73706459095115
 20
-153.331209271563
 10
99.73706459095115
 20
-153.331209271563
 10
99.62268742084086
 20
-153.386330799327
 10
99.62268742084086
 20
-153.386330799327
 10
99.62268742084086
 20
-153.386330799327
 10
99.63336721684513
 20
-153.386330799327
 10
99.63336721684513
 20
-153.386330799327
 10
99.63336721684513
 20
-153.386330799327
 10
100.1559882019575
 20
-153.386330799327
 10
100.1559882019575
 20
-153.386330799327
 10
100.1559882019575
 20
-153.386330799327
 10
100.0609035665646
 20
-153.3418890675673
 10
100.0609035665646
 20
-153.3418890675673
 10
100.0881198208981
 20
-153.303648507681
 10
100.1453084059532
 20
-153.2233777828747
 10
100.1601223165398
 20
-153.1493082299418
 10
100.1601223165398
 20
-153.1493082299418
 10
100.3737182366253
 20
-153.2126979868704
 10
100.3737182366253
 20
-153.2126979868704
 10
100.3823309753384
 20
-153.2151095537101
 10
100.4033460577985
 20
-153.2254448401658
 10
100.4033460577985
 20
-153.2468044321744
 10
100.4033460577985
 20
-153.2847004825121
 10
100.3378892435787
 20
-153.2847004825121
 10
100.3189412184098
 20
-153.2847004825121
 10
100.3082614224056
 20
-153.303648507681
 10
100.2848347731059
 20
-153.3439561248584
 10
100.2552069519327
 20
-153.3842637420359
 10
100.6551825377702
 20
-153.3777180606139
 10
100.6848103589434
 20
-153.3756510033227
 10
100.7609469691674
 20
-153.3694498314493
 10
100.7609469691674
 20
-153.3694498314493
 10
100.7609469691674
 20
-153.5513508730705
 10
100.7609469691674
 20
-153.5513508730705
 10
100.7419989439985
 20
-153.5513508730705
 10
100.7165052374077
 20
-153.5492838157793
 10
100.4967081454487
 20
-153.5406710770662
 10
100.445720732267
 20
-153.5386040197751
 10
100.2259236403081
 20
-153.5344699051927
 10
100.1814819085484
 20
-153.5344699051927
 10
100.1814819085484
 20
-153.5344699051927
 10
99.96547442162322
 20
-153.5344699051927
 10
99.96547442162322
 20
-153.5344699051927
 10
99.96547442162322
 20
-153.5344699051927
 10
99.96547442162322
 20
-153.6529811898853
 10
99.96547442162322
 20
-153.6529811898853
 10
99.96547442162322
 20
-153.6529811898853
 10
100.1391072340798
 20
-153.6529811898853
 10
100.1391072340798
 20
-153.6529811898853
 10
100.3020602505321
 20
-153.6529811898853
 10
100.4922295213179
 20
-153.6529811898853
 10
100.6489813658968
 20
-153.6423013938811
 10
100.6489813658968
 20
-153.6423013938811
 10
100.6489813658968
 20
-153.813522639498
 10
100.6489813658968
 20
-153.813522639498
 10
100.4395195603936
 20
-153.8052544103334
 10
100.2428046081858
 20
-153.8031873530422
 10
100.1391072340798
 20
-153.8031873530422
 10
100.1391072340798
 20
-153.8031873530422
 10
99.96547442162322
 20
-153.8031873530422
 10
99.96547442162322
 20
-153.8031873530422
 10
99.96547442162322
 20
-153.8031873530422
 10
99.96547442162322
 20
-153.9110188417306
 10
99.96547442162322
 20
-153.9110188417306
 10
99.96547442162322
 20
-153.9110188417306
 10
100.1962958191349
 20
-153.9110188417306
 10
100.1962958191349
 20
-153.9110188417306
 10
100.3292765048656
 20
-153.9110188417306
 10
100.6172864874325
 20
-153.9065402175998
 10
100.8264037833871
 20
-153.9003390457263
 10
100.8264037833871
 20
-153.9003390457263
 10
100.8264037833871
 20
-154.0781059727652
 10
100.8264037833871
 20
-154.0781059727652
 10
100.6341674553102
 20
-154.0715602913432
 10
100.321008275701
 20
-154.0674261767609
 10
100.1962958191349
 20
-154.0674261767609
 97
        0
 97
        1
330
B7
 75
     2
 76
     1
 98
        1
 10
0.0
 20
0.0
450
        0
451
        0
460
0.0
461
0.0
452
        0
462
0.0
453
        0
470

  0
SPLINE
  5
B9
330
AC
100
AcDbEntity
  8
レイヤー 1
100
AcDbSpline
210
0.0
220
0.0
230
1.0
 70
     9
 71
     3
 72
    29
 73
    25
 74
     0
 42
0.0000000001
 43
0.0000000001
 40
0.0
 40
0.0
 40
0.0
 40
0.0
 40
1.0
 40
1.0
 40
1.0
 40
2.0
 40
2.0
 40
2.0
 40
3.0
 40
3.0
 40
3.0
 40
4.0
 40
4.0
 40
4.0
 40
5.0
 40
5.0
 40
5.0
 40
6.0
 40
6.0
 40
6.0
 40
7.0
 40
7.0
 40
7.0
 40
8.0
 40
8.0
 40
8.0
 40
8.0
 10
102.0714612917564
 20
-153.5151773704754
 30
0.0
 10
102.0714612917564
 20
-153.5151773704754
 30
0.0
 10
101.7179944949698
 20
-153.5151773704754
 30
0.0
 10
101.7179944949698
 20
-153.5151773704754
 30
0.0
 10
101.6060288916992
 20
-153.5151773704754
 30
0.0
 10
101.4665025245465
 20
-153.5217230518973
 30
0.0
 10
101.3586710358582
 20
-153.5344699051927
 30
0.0
 10
101.3586710358582
 20
-153.5344699051927
 30
0.0
 10
101.3586710358582
 20
-153.2995143930987
 30
0.0
 10
101.3586710358582
 20
-153.2995143930987
 30
0.0
 10
101.4768378110023
 20
-153.3143283036853
 30
0.0
 10
101.6611504194631
 20
-153.3184624182676
 30
0.0
 10
101.7179944949698
 20
-153.3184624182676
 30
0.0
 10
101.7179944949698
 20
-153.3184624182676
 30
0.0
 10
102.0714612917564
 20
-153.3184624182676
 30
0.0
 10
102.0714612917564
 20
-153.3184624182676
 30
0.0
 10
102.0904093169253
 20
-153.3184624182676
 30
0.0
 10
102.293669950555
 20
-153.3184624182676
 30
0.0
 10
102.4352633749988
 20
-153.2995143930987
 30
0.0
 10
102.4352633749988
 20
-153.2995143930987
 30
0.0
 10
102.4352633749988
 20
-153.5344699051927
 30
0.0
 10
102.4352633749988
 20
-153.5344699051927
 30
0.0
 10
102.2788560399685
 20
-153.5151773704754
 30
0.0
 10
102.0883422596341
 20
-153.5151773704754
 30
0.0
 10
102.0714612917564
 20
-153.5151773704754
 30
0.0
  0
SPLINE
  5
BA
330
AC
100
AcDbEntity
  8
レイヤー 1
100
AcDbSpline
210
0.0
220
0.0
230
1.0
 70
     9
 71
     3
 72
    47
 73
    43
 74
     0
 42
0.0000000001
 43
0.0000000001
 40
0.0
 40
0.0
 40
0.0
 40
0.0
 40
1.0
 40
1.0
 40
1.0
 40
2.0
 40
2.0
 40
2.0
 40
3.0
 40
3.0
 40
3.0
 40
4.0
 40
4.0
 40
4.0
 40
5.0
 40
5.0
 40
5.0
 40
6.0
 40
6.0
 40
6.0
 40
7.0
 40
7.0
 40
7.0
 40
8.0
 40
8.0
 40
8.0
 40
9.0
 40
9.0
 40
9.0
 40
10.0
 40
10.0
 40
10.0
 40
11.0
 40
11.0
 40
11.0
 40
12.0
 40
12.0
 40
12.0
 40
13.0
 40
13.0
 40
13.0
 40
14.0
 40
14.0
 40
14.0
 40
14.0
 10
102.1730916085713
 20
-154.0443440370097
 30
0.0
 10
102.1730916085713
 20
-154.0443440370097
 30
0.0
 10
102.0714612917564
 20
-154.0443440370097
 30
0.0
 10
102.0714612917564
 20
-154.0443440370097
 30
0.0
 10
102.0714612917564
 20
-154.1308159336895
 30
0.0
 10
102.0504462092964
 20
-154.5201117235227
 30
0.0
 10
101.8537312570886
 20
-154.7402533250302
 30
0.0
 10
101.7011135270921
 20
-154.909407513356
 30
0.0
 10
101.4940632884286
 20
-154.9793429517065
 30
0.0
 10
101.4093139394914
 20
-155.0069037155885
 30
0.0
 10
101.4093139394914
 20
-155.0069037155885
 30
0.0
 10
101.2146660445748
 20
-154.8398165845539
 30
0.0
 10
101.2146660445748
 20
-154.8398165845539
 30
0.0
 10
101.3121622468073
 20
-154.8270697312585
 30
0.0
 10
101.4875176070066
 20
-154.8036430819588
 30
0.0
 10
101.6759643300497
 20
-154.6155408684641
 30
0.0
 10
101.7500338829826
 20
-154.5435383728224
 30
0.0
 10
101.8537312570886
 20
-154.4040120056698
 30
0.0
 10
101.8537312570886
 20
-154.0443440370097
 30
0.0
 10
101.8537312570886
 20
-154.0443440370097
 30
0.0
 10
101.6229098595769
 20
-154.0443440370097
 30
0.0
 10
101.6229098595769
 20
-154.0443440370097
 30
0.0
 10
101.4368747033734
 20
-154.0443440370097
 30
0.0
 10
101.2504950376214
 20
-154.048478151592
 30
0.0
 10
101.0644598814179
 20
-154.0632920621786
 30
0.0
 10
101.0644598814179
 20
-154.0632920621786
 30
0.0
 10
101.0644598814179
 20
-153.8431504606711
 30
0.0
 10
101.0644598814179
 20
-153.8431504606711
 30
0.0
 10
101.2529066044611
 20
-153.8579643712577
 30
0.0
 10
101.5385050201883
 20
-153.8624429953885
 30
0.0
 10
101.6229098595769
 20
-153.8624429953885
 30
0.0
 10
101.6229098595769
 20
-153.8624429953885
 30
0.0
 10
102.1730916085713
 20
-153.8624429953885
 30
0.0
 10
102.1730916085713
 20
-153.8624429953885
 30
0.0
 10
102.1920396337402
 20
-153.8624429953885
 30
0.0
 10
102.5093329279317
 20
-153.8624429953885
 30
0.0
 10
102.7377427586037
 20
-153.8431504606711
 30
0.0
 10
102.7377427586037
 20
-153.8431504606711
 30
0.0
 10
102.7377427586037
 20
-154.0632920621786
 30
0.0
 10
102.7377427586037
 20
-154.0632920621786
 30
0.0
 10
102.5496405451091
 20
-154.048478151592
 30
0.0
 10
102.3611938220659
 20
-154.0443440370097
 30
0.0
 10
102.1730916085713
 20
-154.0443440370097
 30
0.0
  0
HATCH
  5
BB
330
AC
100
AcDbEntity
  8
レイヤー 1
 62
   250
420
  2299925
440
 33554687
100
AcDbHatch
 10
0.0
 20
0.0
 30
0.0
210
0.0
220
0.0
230
1.0
  2
SOLID
 70
     1
 71
     1
 91
        2
 92
        1
 93
        1
 72
     4
 94
        3
 73
     0
 74
     0
 95
       29
 96
       25
 40
0.0
 40
0.0
 40
0.0
 40
0.0
 40
1.0
 40
1.0
 40
1.0
 40
2.0
 40
2.0
 40
2.0
 40
3.0
 40
3.0
 40
3.0
 40
4.0
 40
4.0
 40
4.0
 40
5.0
 40
5.0
 40
5.0
 40
6.0
 40
6.0
 40
6.0
 40
7.0
 40
7.0
 40
7.0
 40
8.0
 40
8.0
 40
8.0
 40
8.0
 10
102.0714612917564
 20
-153.5151773704754
 10
102.0714612917564
 20
-153.5151773704754
 10
101.7179944949698
 20
-153.5151773704754
 10
101.7179944949698
 20
-153.5151773704754
 10
101.6060288916992
 20
-153.5151773704754
 10
101.4665025245465
 20
-153.5217230518973
 10
101.3586710358582
 20
-153.5344699051927
 10
101.3586710358582
 20
-153.5344699051927
 10
101.3586710358582
 20
-153.2995143930987
 10
101.3586710358582
 20
-153.2995143930987
 10
101.4768378110023
 20
-153.3143283036853
 10
101.6611504194631
 20
-153.3184624182676
 10
101.7179944949698
 20
-153.3184624182676
 10
101.7179944949698
 20
-153.3184624182676
 10
102.0714612917564
 20
-153.3184624182676
 10
102.0714612917564
 20
-153.3184624182676
 10
102.0904093169253
 20
-153.3184624182676
 10
102.293669950555
 20
-153.3184624182676
 10
102.4352633749988
 20
-153.2995143930987
 10
102.4352633749988
 20
-153.2995143930987
 10
102.4352633749988
 20
-153.5344699051927
 10
102.4352633749988
 20
-153.5344699051927
 10
102.2788560399685
 20
-153.5151773704754
 10
102.0883422596341
 20
-153.5151773704754
 10
102.0714612917564
 20
-153.5151773704754
 97
        0
 97
        1
330
B9
 92
        1
 93
        1
 72
     4
 94
        3
 73
     0
 74
     0
 95
       47
 96
       43
 40
0.0
 40
0.0
 40
0.0
 40
0.0
 40
1.0
 40
1.0
 40
1.0
 40
2.0
 40
2.0
 40
2.0
 40
3.0
 40
3.0
 40
3.0
 40
4.0
 40
4.0
 40
4.0
 40
5.0
 40
5.0
 40
5.0
 40
6.0
 40
6.0
 40
6.0
 40
7.0
 40
7.0
 40
7.0
 40
8.0
 40
8.0
 40
8.0
 40
9.0
 40
9.0
 40
9.0
 40
10.0
 40
10.0
 40
10.0
 40
11.0
 40
11.0
 40
11.0
 40
12.0
 40
12.0
 40
12.0
 40
13.0
 40
13.0
 40
13.0
 40
14.0
 40
14.0
 40
14.0
 40
14.0
 10
102.1730916085713
 20
-154.0443440370097
 10
102.1730916085713
 20
-154.0443440370097
 10
102.0714612917564
 20
-154.0443440370097
 10
102.0714612917564
 20
-154.0443440370097
 10
102.0714612917564
 20
-154.1308159336895
 10
102.0504462092964
 20
-154.5201117235227
 10
101.8537312570886
 20
-154.7402533250302
 10
101.7011135270921
 20
-154.909407513356
 10
101.4940632884286
 20
-154.9793429517065
 10
101.4093139394914
 20
-155.0069037155885
 10
101.4093139394914
 20
-155.0069037155885
 10
101.2146660445748
 20
-154.8398165845539
 10
101.2146660445748
 20
-154.8398165845539
 10
101.3121622468073
 20
-154.8270697312585
 10
101.4875176070066
 20
-154.8036430819588
 10
101.6759643300497
 20
-154.6155408684641
 10
101.7500338829826
 20
-154.5435383728224
 10
101.8537312570886
 20
-154.4040120056698
 10
101.8537312570886
 20
-154.0443440370097
 10
101.8537312570886
 20
-154.0443440370097
 10
101.6229098595769
 20
-154.0443440370097
 10
101.6229098595769
 20
-154.0443440370097
 10
101.4368747033734
 20
-154.0443440370097
 10
101.2504950376214
 20
-154.048478151592
 10
101.0644598814179
 20
-154.0632920621786
 10
101.0644598814179
 20
-154.0632920621786
 10
101.0644598814179
 20
-153.8431504606711
 10
101.0644598814179
 20
-153.8431504606711
 10
101.2529066044611
 20
-153.8579643712577
 10
101.5385050201883
 20
-153.8624429953885
 10
101.6229098595769
 20
-153.8624429953885
 10
101.6229098595769
 20
-153.8624429953885
 10
102.1730916085713
 20
-153.8624429953885
 10
102.1730916085713
 20
-153.8624429953885
 10
102.1920396337402
 20
-153.8624429953885
 10
102.5093329279317
 20
-153.8624429953885
 10
102.7377427586037
 20
-153.8431504606711
 10
102.7377427586037
 20
-153.8431504606711
 10
102.7377427586037
 20
-154.0632920621786
 10
102.7377427586037
 20
-154.0632920621786
 10
102.5496405451091
 20
-154.048478151592
 10
102.3611938220659
 20
-154.0443440370097
 10
102.1730916085713
 20
-154.0443440370097
 97
        0
 97
        1
330
BA
 75
     2
 76
     1
 98
        1
 10
0.0
 20
0.0
450
        0
451
        0
460
0.0
461
0.0
452
        0
462
0.0
453
        0
470

  0
SPLINE
  5
BC
330
AC
100
AcDbEntity
  8
レイヤー 1
100
AcDbSpline
210
0.0
220
0.0
230
1.0
 70
     9
 71
     3
 72
    29
 73
    25
 74
     0
 42
0.0000000001
 43
0.0000000001
 40
0.0
 40
0.0
 40
0.0
 40
0.0
 40
1.0
 40
1.0
 40
1.0
 40
2.0
 40
2.0
 40
2.0
 40
3.0
 40
3.0
 40
3.0
 40
4.0
 40
4.0
 40
4.0
 40
5.0
 40
5.0
 40
5.0
 40
6.0
 40
6.0
 40
6.0
 40
7.0
 40
7.0
 40
7.0
 40
8.0
 40
8.0
 40
8.0
 40
8.0
 10
104.0189737695681
 20
-154.2069525439135
 30
0.0
 10
104.0189737695681
 20
-154.2069525439135
 30
0.0
 10
103.534593344342
 20
-154.2069525439135
 30
0.0
 10
103.534593344342
 20
-154.2069525439135
 30
0.0
 10
103.50703258046
 20
-154.2069525439135
 30
0.0
 10
103.1897392862685
 20
-154.2069525439135
 30
0.0
 10
102.9782104234742
 20
-154.2324462505044
 30
0.0
 10
102.9782104234742
 20
-154.2324462505044
 30
0.0
 10
102.9782104234742
 20
-154.0019693625412
 30
0.0
 10
102.9782104234742
 20
-154.0019693625412
 30
0.0
 10
103.1366848157957
 20
-154.0250515022923
 30
0.0
 10
103.32719859613
 20
-154.027463069132
 30
0.0
 10
103.534593344342
 20
-154.027463069132
 30
0.0
 10
103.534593344342
 20
-154.027463069132
 30
0.0
 10
104.0189737695681
 20
-154.027463069132
 30
0.0
 10
104.0189737695681
 20
-154.027463069132
 30
0.0
 10
104.2050089257716
 20
-154.027463069132
 30
0.0
 10
104.3913885915237
 20
-154.0250515022923
 30
0.0
 10
104.575356690436
 20
-154.0019693625412
 30
0.0
 10
104.575356690436
 20
-154.0019693625412
 30
0.0
 10
104.575356690436
 20
-154.2324462505044
 30
0.0
 10
104.575356690436
 20
-154.2324462505044
 30
0.0
 10
104.3913885915237
 20
-154.2093641107532
 30
0.0
 10
104.1436862261342
 20
-154.2069525439135
 30
0.0
 10
104.0189737695681
 20
-154.2069525439135
 30
0.0
  0
HATCH
  5
BD
330
AC
100
AcDbEntity
  8
レイヤー 1
 62
   250
420
  2299925
440
 33554687
100
AcDbHatch
 10
0.0
 20
0.0
 30
0.0
210
0.0
220
0.0
230
1.0
  2
SOLID
 70
     1
 71
     1
 91
        1
 92
        1
 93
        1
 72
     4
 94
        3
 73
     0
 74
     0
 95
       29
 96
       25
 40
0.0
 40
0.0
 40
0.0
 40
0.0
 40
1.0
 40
1.0
 40
1.0
 40
2.0
 40
2.0
 40
2.0
 40
3.0
 40
3.0
 40
3.0
 40
4.0
 40
4.0
 40
4.0
 40
5.0
 40
5.0
 40
5.0
 40
6.0
 40
6.0
 40
6.0
 40
7.0
 40
7.0
 40
7.0
 40
8.0
 40
8.0
 40
8.0
 40
8.0
 10
104.0189737695681
 20
-154.2069525439135
 10
104.0189737695681
 20
-154.2069525439135
 10
103.534593344342
 20
-154.2069525439135
 10
103.534593344342
 20
-154.2069525439135
 10
103.50703258046
 20
-154.2069525439135
 10
103.1897392862685
 20
-154.2069525439135
 10
102.9782104234742
 20
-154.2324462505044
 10
102.9782104234742
 20
-154.2324462505044
 10
102.9782104234742
 20
-154.0019693625412
 10
102.9782104234742
 20
-154.0019693625412
 10
103.1366848157957
 20
-154.0250515022923
 10
103.32719859613
 20
-154.027463069132
 10
103.534593344342
 20
-154.027463069132
 10
103.534593344342
 20
-154.027463069132
 10
104.0189737695681
 20
-154.027463069132
 10
104.0189737695681
 20
-154.027463069132
 10
104.2050089257716
 20
-154.027463069132
 10
104.3913885915237
 20
-154.0250515022923
 10
104.575356690436
 20
-154.0019693625412
 10
104.575356690436
 20
-154.0019693625412
 10
104.575356690436
 20
-154.2324462505044
 10
104.575356690436
 20
-154.2324462505044
 10
104.3913885915237
 20
-154.2093641107532
 10
104.1436862261342
 20
-154.2069525439135
 10
104.0189737695681
 20
-154.2069525439135
 97
        0
 97
        1
330
BC
 75
     2
 76
     1
 98
        1
 10
0.0
 20
0.0
450
        0
451
        0
460
0.0
461
0.0
452
        0
462
0.0
453
        0
470

  0
SPLINE
  5
BE
330
AC
100
AcDbEntity
  8
レイヤー 1
100
AcDbSpline
210
0.0
220
0.0
230
1.0
 70
     9
 71
     3
 72
    17
 73
    13
 74
     0
 42
0.0000000001
 43
0.0000000001
 40
0.0
 40
0.0
 40
0.0
 40
0.0
 40
1.0
 40
1.0
 40
1.0
 40
2.0
 40
2.0
 40
2.0
 40
3.0
 40
3.0
 40
3.0
 40
4.0
 40
4.0
 40
4.0
 40
4.0
 10
106.4376030549878
 20
-153.2402587507524
 30
0.0
 10
106.3828260367723
 20
-153.2402587507524
 30
0.0
 10
106.3383843050126
 20
-153.2847004825121
 30
0.0
 10
106.3383843050126
 20
-153.3398220102761
 30
0.0
 10
106.3383843050126
 20
-153.3970105953313
 30
0.0
 10
106.3828260367723
 20
-153.4455864416733
 30
0.0
 10
106.4417371695701
 20
-153.4455864416733
 30
0.0
 10
106.5009928119164
 20
-153.4455864416733
 30
0.0
 10
106.5413004290938
 20
-153.3945990284916
 30
0.0
 10
106.5413004290938
 20
-153.3418890675673
 30
0.0
 10
106.5413004290938
 20
-153.2847004825121
 30
0.0
 10
106.494791640043
 20
-153.2402587507524
 30
0.0
 10
106.4376030549878
 20
-153.2402587507524
 30
0.0
  0
SPLINE
  5
BF
330
AC
100
AcDbEntity
  8
レイヤー 1
100
AcDbSpline
210
0.0
220
0.0
230
1.0
 70
     9
 71
     3
 72
    17
 73
    13
 74
     0
 42
0.0000000001
 43
0.0000000001
 40
0.0
 40
0.0
 40
0.0
 40
0.0
 40
1.0
 40
1.0
 40
1.0
 40
2.0
 40
2.0
 40
2.0
 40
3.0
 40
3.0
 40
3.0
 40
4.0
 40
4.0
 40
4.0
 40
4.0
 10
106.4396701122789
 20
-153.5702988982393
 30
0.0
 10
106.3128905984218
 20
-153.5702988982393
 30
0.0
 10
106.2112602816069
 20
-153.4686685814245
 30
0.0
 10
106.2112602816069
 20
-153.3418890675673
 30
0.0
 10
106.2112602816069
 20
-153.2151095537101
 30
0.0
 10
106.3128905984218
 20
-153.1114121796041
 30
0.0
 10
106.4396701122789
 20
-153.1114121796041
 30
0.0
 10
106.5667941356847
 20
-153.1114121796041
 30
0.0
 10
106.6704915097907
 20
-153.2151095537101
 30
0.0
 10
106.6704915097907
 20
-153.3418890675673
 30
0.0
 10
106.6704915097907
 20
-153.4686685814245
 30
0.0
 10
106.5667941356847
 20
-153.5702988982393
 30
0.0
 10
106.4396701122789
 20
-153.5702988982393
 30
0.0
  0
SPLINE
  5
C0
330
AC
100
AcDbEntity
  8
レイヤー 1
100
AcDbSpline
210
0.0
220
0.0
230
1.0
 70
     9
 71
     3
 72
    44
 73
    40
 74
     0
 42
0.0000000001
 43
0.0000000001
 40
0.0
 40
0.0
 40
0.0
 40
0.0
 40
1.0
 40
1.0
 40
1.0
 40
2.0
 40
2.0
 40
2.0
 40
3.0
 40
3.0
 40
3.0
 40
4.0
 40
4.0
 40
4.0
 40
5.0
 40
5.0
 40
5.0
 40
6.0
 40
6.0
 40
6.0
 40
7.0
 40
7.0
 40
7.0
 40
8.0
 40
8.0
 40
8.0
 40
9.0
 40
9.0
 40
9.0
 40
10.0
 40
10.0
 40
10.0
 40
11.0
 40
11.0
 40
11.0
 40
12.0
 40
12.0
 40
12.0
 40
13.0
 40
13.0
 40
13.0
 40
13.0
 10
106.2302083067758
 20
-153.7690809077383
 30
0.0
 10
106.1182427035051
 20
-154.1373616151115
 30
0.0
 10
106.067599799872
 20
-154.295836007433
 30
0.0
 10
105.8708848476642
 20
-154.5456054301136
 30
0.0
 10
105.6865722392033
 20
-154.7760823180768
 30
0.0
 10
105.4500664341409
 20
-154.9624619838288
 30
0.0
 10
105.1706691902872
 20
-155.0554795619305
 30
0.0
 10
105.1706691902872
 20
-155.0554795619305
 30
0.0
 10
104.9780883526617
 20
-154.8756455776005
 30
0.0
 10
104.9780883526617
 20
-154.8756455776005
 30
0.0
 10
105.6190483676924
 20
-154.7233723571525
 30
0.0
 10
105.9490885151794
 20
-154.1669894362846
 30
0.0
 10
106.012478272108
 20
-153.7270507428182
 30
0.0
 10
106.012478272108
 20
-153.7270507428182
 30
0.0
 10
105.2468058005112
 20
-153.7270507428182
 30
0.0
 10
105.2468058005112
 20
-153.7270507428182
 30
0.0
 10
105.1537882224095
 20
-153.7270507428182
 30
0.0
 10
104.9698201234971
 20
-153.7311848574005
 30
0.0
 10
104.8130682789182
 20
-153.7501328825694
 30
0.0
 10
104.8130682789182
 20
-153.7501328825694
 30
0.0
 10
104.8130682789182
 20
-153.5299912810619
 30
0.0
 10
104.8130682789182
 20
-153.5299912810619
 30
0.0
 10
104.8998846851465
 20
-153.5513508730705
 30
0.0
 10
105.1517211651183
 20
-153.5513508730705
 30
0.0
 10
105.2509399150935
 20
-153.5513508730705
 30
0.0
 10
105.2509399150935
 20
-153.5513508730705
 30
0.0
 10
105.682438124621
 20
-153.5513508730705
 30
0.0
 10
105.682438124621
 20
-153.5513508730705
 30
0.0
 10
105.7248127990896
 20
-153.5513508730705
 30
0.0
 10
105.9594238016351
 20
-153.5492838157793
 30
0.0
 10
105.9976643615214
 20
-153.5427381343573
 30
0.0
 10
106.04003903599
 20
-153.5365369624839
 30
0.0
 10
106.0421060932811
 20
-153.5344699051927
 30
0.0
 10
106.1034287929186
 20
-153.4941622880153
 30
0.0
 10
106.1034287929186
 20
-153.4941622880153
 30
0.0
 10
106.2915310064132
 20
-153.6485025657545
 30
0.0
 10
106.2915310064132
 20
-153.6485025657545
 30
0.0
 10
106.2622476947886
 20
-153.6781303869277
 30
0.0
 10
106.247433784202
 20
-153.709825265392
 30
0.0
 10
106.2302083067758
 20
-153.7690809077383
 30
0.0
  0
HATCH
  5
C1
330
AC
100
AcDbEntity
  8
レイヤー 1
 62
   250
420
  2299925
440
 33554687
100
AcDbHatch
 10
0.0
 20
0.0
 30
0.0
210
0.0
220
0.0
230
1.0
  2
SOLID
 70
     1
 71
     1
 91
        3
 92
        1
 93
        1
 72
     4
 94
        3
 73
     0
 74
     0
 95
       17
 96
       13
 40
0.0
 40
0.0
 40
0.0
 40
0.0
 40
1.0
 40
1.0
 40
1.0
 40
2.0
 40
2.0
 40
2.0
 40
3.0
 40
3.0
 40
3.0
 40
4.0
 40
4.0
 40
4.0
 40
4.0
 10
106.4376030549878
 20
-153.2402587507524
 10
106.3828260367723
 20
-153.2402587507524
 10
106.3383843050126
 20
-153.2847004825121
 10
106.3383843050126
 20
-153.3398220102761
 10
106.3383843050126
 20
-153.3970105953313
 10
106.3828260367723
 20
-153.4455864416733
 10
106.4417371695701
 20
-153.4455864416733
 10
106.5009928119164
 20
-153.4455864416733
 10
106.5413004290938
 20
-153.3945990284916
 10
106.5413004290938
 20
-153.3418890675673
 10
106.5413004290938
 20
-153.2847004825121
 10
106.494791640043
 20
-153.2402587507524
 10
106.4376030549878
 20
-153.2402587507524
 97
        0
 97
        1
330
BE
 92
        1
 93
        1
 72
     4
 94
        3
 73
     0
 74
     0
 95
       17
 96
       13
 40
0.0
 40
0.0
 40
0.0
 40
0.0
 40
1.0
 40
1.0
 40
1.0
 40
2.0
 40
2.0
 40
2.0
 40
3.0
 40
3.0
 40
3.0
 40
4.0
 40
4.0
 40
4.0
 40
4.0
 10
106.4396701122789
 20
-153.5702988982393
 10
106.3128905984218
 20
-153.5702988982393
 10
106.2112602816069
 20
-153.4686685814245
 10
106.2112602816069
 20
-153.3418890675673
 10
106.2112602816069
 20
-153.2151095537101
 10
106.3128905984218
 20
-153.1114121796041
 10
106.4396701122789
 20
-153.1114121796041
 10
106.5667941356847
 20
-153.1114121796041
 10
106.6704915097907
 20
-153.2151095537101
 10
106.6704915097907
 20
-153.3418890675673
 10
106.6704915097907
 20
-153.4686685814245
 10
106.5667941356847
 20
-153.5702988982393
 10
106.4396701122789
 20
-153.5702988982393
 97
        0
 97
        1
330
BF
 92
        1
 93
        1
 72
     4
 94
        3
 73
     0
 74
     0
 95
       44
 96
       40
 40
0.0
 40
0.0
 40
0.0
 40
0.0
 40
1.0
 40
1.0
 40
1.0
 40
2.0
 40
2.0
 40
2.0
 40
3.0
 40
3.0
 40
3.0
 40
4.0
 40
4.0
 40
4.0
 40
5.0
 40
5.0
 40
5.0
 40
6.0
 40
6.0
 40
6.0
 40
7.0
 40
7.0
 40
7.0
 40
8.0
 40
8.0
 40
8.0
 40
9.0
 40
9.0
 40
9.0
 40
10.0
 40
10.0
 40
10.0
 40
11.0
 40
11.0
 40
11.0
 40
12.0
 40
12.0
 40
12.0
 40
13.0
 40
13.0
 40
13.0
 40
13.0
 10
106.2302083067758
 20
-153.7690809077383
 10
106.1182427035051
 20
-154.1373616151115
 10
106.067599799872
 20
-154.295836007433
 10
105.8708848476642
 20
-154.5456054301136
 10
105.6865722392033
 20
-154.7760823180768
 10
105.4500664341409
 20
-154.9624619838288
 10
105.1706691902872
 20
-155.0554795619305
 10
105.1706691902872
 20
-155.0554795619305
 10
104.9780883526617
 20
-154.8756455776005
 10
104.9780883526617
 20
-154.8756455776005
 10
105.6190483676924
 20
-154.7233723571525
 10
105.9490885151794
 20
-154.1669894362846
 10
106.012478272108
 20
-153.7270507428182
 10
106.012478272108
 20
-153.7270507428182
 10
105.2468058005112
 20
-153.7270507428182
 10
105.2468058005112
 20
-153.7270507428182
 10
105.1537882224095
 20
-153.7270507428182
 10
104.9698201234971
 20
-153.7311848574005
 10
104.8130682789182
 20
-153.7501328825694
 10
104.8130682789182
 20
-153.7501328825694
 10
104.8130682789182
 20
-153.5299912810619
 10
104.8130682789182
 20
-153.5299912810619
 10
104.8998846851465
 20
-153.5513508730705
 10
105.1517211651183
 20
-153.5513508730705
 10
105.2509399150935
 20
-153.5513508730705
 10
105.2509399150935
 20
-153.5513508730705
 10
105.682438124621
 20
-153.5513508730705
 10
105.682438124621
 20
-153.5513508730705
 10
105.7248127990896
 20
-153.5513508730705
 10
105.9594238016351
 20
-153.5492838157793
 10
105.9976643615214
 20
-153.5427381343573
 10
106.04003903599
 20
-153.5365369624839
 10
106.0421060932811
 20
-153.5344699051927
 10
106.1034287929186
 20
-153.4941622880153
 10
106.1034287929186
 20
-153.4941622880153
 10
106.2915310064132
 20
-153.6485025657545
 10
106.2915310064132
 20
-153.6485025657545
 10
106.2622476947886
 20
-153.6781303869277
 10
106.247433784202
 20
-153.709825265392
 10
106.2302083067758
 20
-153.7690809077383
 97
        0
 97
        1
330
C0
 75
     2
 76
     1
 98
        1
 10
0.0
 20
0.0
450
        0
451
        0
460
0.0
461
0.0
452
        0
462
0.0
453
        0
470

  0
ENDBLK
  5
AF
330
AC
100
AcDbEntity
  8
0
100
AcDbBlockEnd
  0
BLOCK
  5
C7
330
C5
100
AcDbEntity
  8
0
100
AcDbBlockBegin
  2
Block_2
 70
     0
 10
0.0
 20
0.0
 30
0.0
  3
Block_2
  1

  0
INSERT
  5
CA
330
C5
100
AcDbEntity
  8
レイヤー 1
100
AcDbBlockReference
  2
Block_3
 10
0.0
 20
0.0
 30
0.0
  0
ENDBLK
  5
C8
330
C5
100
AcDbEntity
  8
0
100
AcDbBlockEnd
  0
BLOCK
  5
CB
330
C9
100
AcDbEntity
  8
0
100
AcDbBlockBegin
  2
Block_3
 70
     0
 10
0.0
 20
0.0
 30
0.0
  3
Block_3
  1

  0
SPLINE
  5
CD
330
C9
100
AcDbEntity
  8
レイヤー 1
100
AcDbSpline
210
0.0
220
0.0
230
1.0
 70
     9
 71
     3
 72
    53
 73
    49
 74
     0
 42
0.0000000001
 43
0.0000000001
 40
0.0
 40
0.0
 40
0.0
 40
0.0
 40
1.0
 40
1.0
 40
1.0
 40
2.0
 40
2.0
 40
2.0
 40
3.0
 40
3.0
 40
3.0
 40
4.0
 40
4.0
 40
4.0
 40
5.0
 40
5.0
 40
5.0
 40
6.0
 40
6.0
 40
6.0
 40
7.0
 40
7.0
 40
7.0
 40
8.0
 40
8.0
 40
8.0
 40
9.0
 40
9.0
 40
9.0
 40
10.0
 40
10.0
 40
10.0
 40
11.0
 40
11.0
 40
11.0
 40
12.0
 40
12.0
 40
12.0
 40
13.0
 40
13.0
 40
13.0
 40
14.0
 40
14.0
 40
14.0
 40
15.0
 40
15.0
 40
15.0
 40
16.0
 40
16.0
 40
16.0
 40
16.0
 10
87.33558211792304
 20
-160.4219047993042
 30
0.0
 10
87.25720619563361
 20
-160.4219047993042
 30
0.0
 10
87.15574813359301
 20
-160.4050238314265
 30
0.0
 10
87.05411781677815
 20
-160.3416340744979
 30
0.0
 10
86.88065725909581
 20
-160.2317355285185
 30
0.0
 10
86.85946992186153
 20
-160.1004773905304
 30
0.0
 10
86.84052189669264
 20
-159.9926459018421
 30
0.0
 10
86.84052189669264
 20
-159.9926459018421
 30
0.0
 10
87.062558300717
 20
-159.9926459018421
 30
0.0
 10
87.062558300717
 20
-159.9926459018421
 30
0.0
 10
87.11767982848099
 20
-160.191427911341
 30
0.0
 10
87.24463159711246
 20
-160.2210557325142
 30
0.0
 10
87.33764917521419
 20
-160.2210557325142
 30
0.0
 10
87.47734779714107
 20
-160.2210557325142
 30
0.0
 10
87.62962101758914
 20
-160.1214924729904
 30
0.0
 10
87.62962101758914
 20
-159.8889485277361
 30
0.0
 10
87.62962101758914
 20
-159.632977933182
 30
0.0
 10
87.44978703325909
 20
-159.5630424948315
 30
0.0
 10
87.32920869127534
 20
-159.5630424948315
 30
0.0
 10
87.29751381281104
 20
-159.5630424948315
 30
0.0
 10
87.15574813359301
 20
-159.5630424948315
 30
0.0
 10
87.06686467007356
 20
-159.6922335755283
 30
0.0
 10
87.06686467007356
 20
-159.6922335755283
 30
0.0
 10
86.89133705510007
 20
-159.6732855503594
 30
0.0
 10
86.89133705510007
 20
-159.6732855503594
 30
0.0
 10
86.89133705510007
 20
-159.6732855503594
 30
0.0
 10
87.01191539708382
 20
-158.8268255896336
 30
0.0
 10
87.01191539708382
 20
-158.8268255896336
 30
0.0
 10
87.01191539708382
 20
-158.8268255896336
 30
0.0
 10
87.79033472197603
 20
-158.8268255896336
 30
0.0
 10
87.79033472197603
 20
-158.8268255896336
 30
0.0
 10
87.79033472197603
 20
-158.8268255896336
 30
0.0
 10
87.79033472197603
 20
-159.0214734845502
 30
0.0
 10
87.79033472197603
 20
-159.0214734845502
 30
0.0
 10
87.79033472197603
 20
-159.0214734845502
 30
0.0
 10
87.17469615876188
 20
-159.0214734845502
 30
0.0
 10
87.17469615876188
 20
-159.0214734845502
 30
0.0
 10
87.17469615876188
 20
-159.0214734845502
 30
0.0
 10
87.10923934454212
 20
-159.4445312101389
 30
0.0
 10
87.10923934454212
 20
-159.4445312101389
 30
0.0
 10
87.17056204417959
 20
-159.4107692743834
 30
0.0
 10
87.25307208105132
 20
-159.370461657206
 30
0.0
 10
87.37141111096965
 20
-159.370461657206
 30
0.0
 10
87.62531464823256
 20
-159.370461657206
 30
0.0
 10
87.86233721761774
 20
-159.556841322958
 30
0.0
 10
87.86233721761774
 20
-159.8700005025672
 30
0.0
 10
87.86233721761774
 20
-160.1872937967587
 30
0.0
 10
87.63806150152799
 20
-160.4219047993042
 30
0.0
 10
87.33558211792304
 20
-160.4219047993042
 30
0.0
  0
HATCH
  5
CE
330
C9
100
AcDbEntity
  8
レイヤー 1
 62
   250
420
  2299925
440
 33554687
100
AcDbHatch
 10
0.0
 20
0.0
 30
0.0
210
0.0
220
0.0
230
1.0
  2
SOLID
 70
     1
 71
     1
 91
        1
 92
        1
 93
        1
 72
     4
 94
        3
 73
     0
 74
     0
 95
       53
 96
       49
 40
0.0
 40
0.0
 40
0.0
 40
0.0
 40
1.0
 40
1.0
 40
1.0
 40
2.0
 40
2.0
 40
2.0
 40
3.0
 40
3.0
 40
3.0
 40
4.0
 40
4.0
 40
4.0
 40
5.0
 40
5.0
 40
5.0
 40
6.0
 40
6.0
 40
6.0
 40
7.0
 40
7.0
 40
7.0
 40
8.0
 40
8.0
 40
8.0
 40
9.0
 40
9.0
 40
9.0
 40
10.0
 40
10.0
 40
10.0
 40
11.0
 40
11.0
 40
11.0
 40
12.0
 40
12.0
 40
12.0
 40
13.0
 40
13.0
 40
13.0
 40
14.0
 40
14.0
 40
14.0
 40
15.0
 40
15.0
 40
15.0
 40
16.0
 40
16.0
 40
16.0
 40
16.0
 10
87.33558211792304
 20
-160.4219047993042
 10
87.25720619563361
 20
-160.4219047993042
 10
87.15574813359301
 20
-160.4050238314265
 10
87.05411781677815
 20
-160.3416340744979
 10
86.88065725909581
 20
-160.2317355285185
 10
86.85946992186153
 20
-160.1004773905304
 10
86.84052189669264
 20
-159.9926459018421
 10
86.84052189669264
 20
-159.9926459018421
 10
87.062558300717
 20
-159.9926459018421
 10
87.062558300717
 20
-159.9926459018421
 10
87.11767982848099
 20
-160.191427911341
 10
87.24463159711246
 20
-160.2210557325142
 10
87.33764917521419
 20
-160.2210557325142
 10
87.47734779714107
 20
-160.2210557325142
 10
87.62962101758914
 20
-160.1214924729904
 10
87.62962101758914
 20
-159.8889485277361
 10
87.62962101758914
 20
-159.632977933182
 10
87.44978703325909
 20
-159.5630424948315
 10
87.32920869127534
 20
-159.5630424948315
 10
87.29751381281104
 20
-159.5630424948315
 10
87.15574813359301
 20
-159.5630424948315
 10
87.06686467007356
 20
-159.6922335755283
 10
87.06686467007356
 20
-159.6922335755283
 10
86.89133705510007
 20
-159.6732855503594
 10
86.89133705510007
 20
-159.6732855503594
 10
86.89133705510007
 20
-159.6732855503594
 10
87.01191539708382
 20
-158.8268255896336
 10
87.01191539708382
 20
-158.8268255896336
 10
87.01191539708382
 20
-158.8268255896336
 10
87.79033472197603
 20
-158.8268255896336
 10
87.79033472197603
 20
-158.8268255896336
 10
87.79033472197603
 20
-158.8268255896336
 10
87.79033472197603
 20
-159.0214734845502
 10
87.79033472197603
 20
-159.0214734845502
 10
87.79033472197603
 20
-159.0214734845502
 10
87.17469615876188
 20
-159.0214734845502
 10
87.17469615876188
 20
-159.0214734845502
 10
87.17469615876188
 20
-159.0214734845502
 10
87.10923934454212
 20
-159.4445312101389
 10
87.10923934454212
 20
-159.4445312101389
 10
87.17056204417959
 20
-159.4107692743834
 10
87.25307208105132
 20
-159.370461657206
 10
87.37141111096965
 20
-159.370461657206
 10
87.62531464823256
 20
-159.370461657206
 10
87.86233721761774
 20
-159.556841322958
 10
87.86233721761774
 20
-159.8700005025672
 10
87.86233721761774
 20
-160.1872937967587
 10
87.63806150152799
 20
-160.4219047993042
 10
87.33558211792304
 20
-160.4219047993042
 97
        0
 97
        1
330
CD
 75
     2
 76
     1
 98
        1
 10
0.0
 20
0.0
450
        0
451
        0
460
0.0
461
0.0
452
        0
462
0.0
453
        0
470

  0
SPLINE
  5
CF
330
C9
100
AcDbEntity
  8
レイヤー 1
100
AcDbSpline
210
0.0
220
0.0
230
1.0
 70
     9
 71
     3
 72
    62
 73
    58
 74
     0
 42
0.0000000001
 43
0.0000000001
 40
0.0
 40
0.0
 40
0.0
 40
0.0
 40
1.0
 40
1.0
 40
1.0
 40
2.0
 40
2.0
 40
2.0
 40
3.0
 40
3.0
 40
3.0
 40
4.0
 40
4.0
 40
4.0
 40
5.0
 40
5.0
 40
5.0
 40
6.0
 40
6.0
 40
6.0
 40
7.0
 40
7.0
 40
7.0
 40
8.0
 40
8.0
 40
8.0
 40
9.0
 40
9.0
 40
9.0
 40
10.0
 40
10.0
 40
10.0
 40
11.0
 40
11.0
 40
11.0
 40
12.0
 40
12.0
 40
12.0
 40
13.0
 40
13.0
 40
13.0
 40
14.0
 40
14.0
 40
14.0
 40
15.0
 40
15.0
 40
15.0
 40
16.0
 40
16.0
 40
16.0
 40
17.0
 40
17.0
 40
17.0
 40
18.0
 40
18.0
 40
18.0
 40
19.0
 40
19.0
 40
19.0
 40
19.0
 10
88.5229342769144
 20
-160.4219047993042
 30
0.0
 10
88.42767738674725
 20
-160.4219047993042
 30
0.0
 10
88.2097750973052
 20
-160.4008897168442
 30
0.0
 10
88.08506264073916
 20
-160.2148545606407
 30
0.0
 10
88.01099308780628
 20
-160.1025444478216
 30
0.0
 10
88.00668671844972
 20
-160.0033256978464
 30
0.0
 10
88.00255260386741
 20
-159.9185763489092
 30
0.0
 10
88.00255260386741
 20
-159.9185763489092
 30
0.0
 10
88.22252195060062
 20
-159.9185763489092
 30
0.0
 10
88.22252195060062
 20
-159.9185763489092
 30
0.0
 10
88.22458900789177
 20
-159.9926459018421
 30
0.0
 10
88.23526880389605
 20
-160.2272569043876
 30
0.0
 10
88.51880016233211
 20
-160.2272569043876
 30
0.0
 10
88.65625947219358
 20
-160.2272569043876
 30
0.0
 10
88.80853269264163
 20
-160.1576659755856
 30
0.0
 10
88.80853269264163
 20
-159.9292561449135
 30
0.0
 10
88.80853269264163
 20
-159.8128119175121
 30
0.0
 10
88.77046438752961
 20
-159.76423607117
 30
0.0
 10
88.73876950906531
 20
-159.7325411927057
 30
0.0
 10
88.66469995613243
 20
-159.6584716397729
 30
0.0
 10
88.548255728731
 20
-159.6457247864774
 30
0.0
 10
88.49330645574125
 20
-159.6457247864774
 30
0.0
 10
88.47435843057239
 20
-159.6457247864774
 30
0.0
 10
88.43835718275153
 20
-159.6477918437686
 30
0.0
 10
88.41079641886953
 20
-159.6519259583509
 30
0.0
 10
88.41079641886953
 20
-159.6519259583509
 30
0.0
 10
88.41079641886953
 20
-159.4572780634343
 30
0.0
 10
88.41079641886953
 20
-159.4572780634343
 30
0.0
 10
88.44886472398155
 20
-159.4638237448562
 30
0.0
 10
88.49123939845011
 20
-159.4658908021474
 30
0.0
 10
88.49761282509781
 20
-159.4658908021474
 30
0.0
 10
88.56306963931757
 20
-159.4658908021474
 30
0.0
 10
88.76202390359074
 20
-159.4445312101389
 30
0.0
 10
88.76202390359074
 20
-159.2078531503022
 30
0.0
 10
88.76202390359074
 20
-159.0300862232633
 30
0.0
 10
88.63076576560272
 20
-158.9749646954993
 30
0.0
 10
88.52086721962326
 20
-158.9749646954993
 30
0.0
 10
88.25645614113033
 20
-158.9749646954993
 30
0.0
 10
88.24801565719146
 20
-159.2078531503022
 30
0.0
 10
88.24370928783491
 20
-159.2795111363954
 30
0.0
 10
88.24370928783491
 20
-159.2795111363954
 30
0.0
 10
88.04062090897943
 20
-159.2795111363954
 30
0.0
 10
88.04062090897943
 20
-159.2795111363954
 30
0.0
 10
88.04906139291828
 20
-159.1547986798293
 30
0.0
 10
88.0766221568003
 20
-158.7782497432915
 30
0.0
 10
88.53344181814442
 20
-158.7782497432915
 30
0.0
 10
88.75771753423419
 20
-158.7782497432915
 30
0.0
 10
88.99887421820167
 20
-158.9053737666972
 30
0.0
 10
88.99887421820167
 20
-159.2013074688802
 30
0.0
 10
88.99887421820167
 20
-159.3876871346322
 30
0.0
 10
88.90378958280878
 20
-159.4700249167297
 30
0.0
 10
88.80422632328507
 20
-159.5313476163671
 30
0.0
 10
88.86572127769676
 20
-159.5589083802491
 30
0.0
 10
89.04762231931796
 20
-159.6391791050555
 30
0.0
 10
89.04762231931796
 20
-159.9165092916181
 30
0.0
 10
89.04762231931796
 20
-160.2548176682696
 30
0.0
 10
88.80009220870276
 20
-160.4219047993042
 30
0.0
 10
88.5229342769144
 20
-160.4219047993042
 30
0.0
  0
HATCH
  5
D0
330
C9
100
AcDbEntity
  8
レイヤー 1
 62
   250
420
  2299925
440
 33554687
100
AcDbHatch
 10
0.0
 20
0.0
 30
0.0
210
0.0
220
0.0
230
1.0
  2
SOLID
 70
     1
 71
     1
 91
        1
 92
        1
 93
        1
 72
     4
 94
        3
 73
     0
 74
     0
 95
       62
 96
       58
 40
0.0
 40
0.0
 40
0.0
 40
0.0
 40
1.0
 40
1.0
 40
1.0
 40
2.0
 40
2.0
 40
2.0
 40
3.0
 40
3.0
 40
3.0
 40
4.0
 40
4.0
 40
4.0
 40
5.0
 40
5.0
 40
5.0
 40
6.0
 40
6.0
 40
6.0
 40
7.0
 40
7.0
 40
7.0
 40
8.0
 40
8.0
 40
8.0
 40
9.0
 40
9.0
 40
9.0
 40
10.0
 40
10.0
 40
10.0
 40
11.0
 40
11.0
 40
11.0
 40
12.0
 40
12.0
 40
12.0
 40
13.0
 40
13.0
 40
13.0
 40
14.0
 40
14.0
 40
14.0
 40
15.0
 40
15.0
 40
15.0
 40
16.0
 40
16.0
 40
16.0
 40
17.0
 40
17.0
 40
17.0
 40
18.0
 40
18.0
 40
18.0
 40
19.0
 40
19.0
 40
19.0
 40
19.0
 10
88.5229342769144
 20
-160.4219047993042
 10
88.42767738674725
 20
-160.4219047993042
 10
88.2097750973052
 20
-160.4008897168442
 10
88.08506264073916
 20
-160.2148545606407
 10
88.01099308780628
 20
-160.1025444478216
 10
88.00668671844972
 20
-160.0033256978464
 10
88.00255260386741
 20
-159.9185763489092
 10
88.00255260386741
 20
-159.9185763489092
 10
88.22252195060062
 20
-159.9185763489092
 10
88.22252195060062
 20
-159.9185763489092
 10
88.22458900789177
 20
-159.9926459018421
 10
88.23526880389605
 20
-160.2272569043876
 10
88.51880016233211
 20
-160.2272569043876
 10
88.65625947219358
 20
-160.2272569043876
 10
88.80853269264163
 20
-160.1576659755856
 10
88.80853269264163
 20
-159.9292561449135
 10
88.80853269264163
 20
-159.8128119175121
 10
88.77046438752961
 20
-159.76423607117
 10
88.73876950906531
 20
-159.7325411927057
 10
88.66469995613243
 20
-159.6584716397729
 10
88.548255728731
 20
-159.6457247864774
 10
88.49330645574125
 20
-159.6457247864774
 10
88.47435843057239
 20
-159.6457247864774
 10
88.43835718275153
 20
-159.6477918437686
 10
88.41079641886953
 20
-159.6519259583509
 10
88.41079641886953
 20
-159.6519259583509
 10
88.41079641886953
 20
-159.4572780634343
 10
88.41079641886953
 20
-159.4572780634343
 10
88.44886472398155
 20
-159.4638237448562
 10
88.49123939845011
 20
-159.4658908021474
 10
88.49761282509781
 20
-159.4658908021474
 10
88.56306963931757
 20
-159.4658908021474
 10
88.76202390359074
 20
-159.4445312101389
 10
88.76202390359074
 20
-159.2078531503022
 10
88.76202390359074
 20
-159.0300862232633
 10
88.63076576560272
 20
-158.9749646954993
 10
88.52086721962326
 20
-158.9749646954993
 10
88.25645614113033
 20
-158.9749646954993
 10
88.24801565719146
 20
-159.2078531503022
 10
88.24370928783491
 20
-159.2795111363954
 10
88.24370928783491
 20
-159.2795111363954
 10
88.04062090897943
 20
-159.2795111363954
 10
88.04062090897943
 20
-159.2795111363954
 10
88.04906139291828
 20
-159.1547986798293
 10
88.0766221568003
 20
-158.7782497432915
 10
88.53344181814442
 20
-158.7782497432915
 10
88.75771753423419
 20
-158.7782497432915
 10
88.99887421820167
 20
-158.9053737666972
 10
88.99887421820167
 20
-159.2013074688802
 10
88.99887421820167
 20
-159.3876871346322
 10
88.90378958280878
 20
-159.4700249167297
 10
88.80422632328507
 20
-159.5313476163671
 10
88.86572127769676
 20
-159.5589083802491
 10
89.04762231931796
 20
-159.6391791050555
 10
89.04762231931796
 20
-159.9165092916181
 10
89.04762231931796
 20
-160.2548176682696
 10
88.80009220870276
 20
-160.4219047993042
 10
88.5229342769144
 20
-160.4219047993042
 97
        0
 97
        1
330
CF
 75
     2
 76
     1
 98
        1
 10
0.0
 20
0.0
450
        0
451
        0
460
0.0
461
0.0
452
        0
462
0.0
453
        0
470

  0
ENDBLK
  5
CC
330
C9
100
AcDbEntity
  8
0
100
AcDbBlockEnd
  0
BLOCK
  5
D7
330
D5
100
AcDbEntity
  8
0
100
AcDbBlockBegin
  2
Block_4
 70
     0
 10
0.0
 20
0.0
 30
0.0
  3
Block_4
  1

  0
INSERT
  5
DA
330
D5
100
AcDbEntity
  8
レイヤー 1
100
AcDbBlockReference
  2
Block_5
 10
0.0
 20
0.0
 30
0.0
  0
ENDBLK
  5
D8
330
D5
100
AcDbEntity
  8
0
100
AcDbBlockEnd
  0
BLOCK
  5
DB
330
D9
100
AcDbEntity
  8
0
100
AcDbBlockBegin
  2
Block_5
 70
     0
 10
0.0
 20
0.0
 30
0.0
  3
Block_5
  1

  0
SPLINE
  5
DD
330
D9
100
AcDbEntity
  8
レイヤー 1
100
AcDbSpline
210
0.0
220
0.0
230
1.0
 70
     9
 71
     3
 72
    17
 73
    13
 74
     0
 42
0.0000000001
 43
0.0000000001
 40
0.0
 40
0.0
 40
0.0
 40
0.0
 40
1.0
 40
1.0
 40
1.0
 40
2.0
 40
2.0
 40
2.0
 40
3.0
 40
3.0
 40
3.0
 40
4.0
 40
4.0
 40
4.0
 40
4.0
 10
119.3201931125311
 20
-148.7170206333936
 30
0.0
 10
119.3201931125311
 20
-148.9666178013
 30
0.0
 10
119.6037244709671
 20
-149.0131265903509
 30
0.0
 10
119.9485785290406
 20
-149.0131265903509
 30
0.0
 10
120.2679388805233
 20
-149.0131265903509
 30
0.0
 10
120.5766194360017
 20
-148.9769530877557
 30
0.0
 10
120.5766194360017
 20
-148.7170206333936
 30
0.0
 10
120.5766194360017
 20
-148.4694905227784
 30
0.0
 10
120.2954996444053
 20
-148.4207424216621
 30
0.0
 10
119.9485785290406
 20
-148.4207424216621
 30
0.0
 10
119.6288736680094
 20
-148.4207424216621
 30
0.0
 10
119.3201931125311
 20
-148.4588107267742
 30
0.0
 10
119.3201931125311
 20
-148.7170206333936
 30
0.0
  0
SPLINE
  5
DE
330
D9
100
AcDbEntity
  8
レイヤー 1
100
AcDbSpline
210
0.0
220
0.0
230
1.0
 70
     9
 71
     3
 72
    29
 73
    25
 74
     0
 42
0.0000000001
 43
0.0000000001
 40
0.0
 40
0.0
 40
0.0
 40
0.0
 40
1.0
 40
1.0
 40
1.0
 40
2.0
 40
2.0
 40
2.0
 40
3.0
 40
3.0
 40
3.0
 40
4.0
 40
4.0
 40
4.0
 40
5.0
 40
5.0
 40
5.0
 40
6.0
 40
6.0
 40
6.0
 40
7.0
 40
7.0
 40
7.0
 40
8.0
 40
8.0
 40
8.0
 40
8.0
 10
120.5428575002462
 20
-148.3192843596216
 30
0.0
 10
120.7523193057494
 20
-148.4271158483099
 30
0.0
 10
120.7712673309183
 20
-148.6005764059922
 30
0.0
 10
120.7712673309183
 20
-148.7170206333936
 30
0.0
 10
120.7712673309183
 20
-148.8777343377805
 30
0.0
 10
120.7247585418674
 20
-149.0193277622243
 30
0.0
 10
120.5428575002462
 20
-149.1147569071658
 30
0.0
 10
120.3482096053296
 20
-149.2181097717232
 30
0.0
 10
120.1111870359444
 20
-149.2374023064406
 30
0.0
 10
119.9485785290406
 20
-149.2374023064406
 30
0.0
 10
119.8045735377572
 20
-149.2374023064406
 30
0.0
 10
119.5527370577854
 20
-149.2205213385629
 30
0.0
 10
119.3539550482865
 20
-149.1147569071658
 30
0.0
 10
119.1510389242053
 20
-149.0065809089289
 30
0.0
 10
119.1276122749056
 20
-148.8460394593162
 30
0.0
 10
119.1276122749056
 20
-148.7170206333936
 30
0.0
 10
119.1276122749056
 20
-148.5583739862979
 30
0.0
 10
119.1720540066653
 20
-148.4145412497887
 30
0.0
 10
119.3539550482865
 20
-148.3192843596216
 30
0.0
 10
119.5465358859119
 20
-148.2198933548721
 30
0.0
 10
119.774945716584
 20
-148.1966389603467
 30
0.0
 10
119.9485785290406
 20
-148.1966389603467
 30
0.0
 10
120.1197997746575
 20
-148.1966389603467
 30
0.0
 10
120.3502766626207
 20
-148.2176540428067
 30
0.0
 10
120.5428575002462
 20
-148.3192843596216
 30
0.0
  0
HATCH
  5
DF
330
D9
100
AcDbEntity
  8
レイヤー 1
 62
   250
420
  2299925
440
 33554687
100
AcDbHatch
 10
0.0
 20
0.0
 30
0.0
210
0.0
220
0.0
230
1.0
  2
SOLID
 70
     1
 71
     1
 91
        2
 92
        1
 93
        1
 72
     4
 94
        3
 73
     0
 74
     0
 95
       17
 96
       13
 40
0.0
 40
0.0
 40
0.0
 40
0.0
 40
1.0
 40
1.0
 40
1.0
 40
2.0
 40
2.0
 40
2.0
 40
3.0
 40
3.0
 40
3.0
 40
4.0
 40
4.0
 40
4.0
 40
4.0
 10
119.3201931125311
 20
-148.7170206333936
 10
119.3201931125311
 20
-148.9666178013
 10
119.6037244709671
 20
-149.0131265903509
 10
119.9485785290406
 20
-149.0131265903509
 10
120.2679388805233
 20
-149.0131265903509
 10
120.5766194360017
 20
-148.9769530877557
 10
120.5766194360017
 20
-148.7170206333936
 10
120.5766194360017
 20
-148.4694905227784
 10
120.2954996444053
 20
-148.4207424216621
 10
119.9485785290406
 20
-148.4207424216621
 10
119.6288736680094
 20
-148.4207424216621
 10
119.3201931125311
 20
-148.4588107267742
 10
119.3201931125311
 20
-148.7170206333936
 97
        0
 97
        1
330
DD
 92
        1
 93
        1
 72
     4
 94
        3
 73
     0
 74
     0
 95
       29
 96
       25
 40
0.0
 40
0.0
 40
0.0
 40
0.0
 40
1.0
 40
1.0
 40
1.0
 40
2.0
 40
2.0
 40
2.0
 40
3.0
 40
3.0
 40
3.0
 40
4.0
 40
4.0
 40
4.0
 40
5.0
 40
5.0
 40
5.0
 40
6.0
 40
6.0
 40
6.0
 40
7.0
 40
7.0
 40
7.0
 40
8.0
 40
8.0
 40
8.0
 40
8.0
 10
120.5428575002462
 20
-148.3192843596216
 10
120.7523193057494
 20
-148.4271158483099
 10
120.7712673309183
 20
-148.6005764059922
 10
120.7712673309183
 20
-148.7170206333936
 10
120.7712673309183
 20
-148.8777343377805
 10
120.7247585418674
 20
-149.0193277622243
 10
120.5428575002462
 20
-149.1147569071658
 10
120.3482096053296
 20
-149.2181097717232
 10
120.1111870359444
 20
-149.2374023064406
 10
119.9485785290406
 20
-149.2374023064406
 10
119.8045735377572
 20
-149.2374023064406
 10
119.5527370577854
 20
-149.2205213385629
 10
119.3539550482865
 20
-149.1147569071658
 10
119.1510389242053
 20
-149.0065809089289
 10
119.1276122749056
 20
-148.8460394593162
 10
119.1276122749056
 20
-148.7170206333936
 10
119.1276122749056
 20
-148.5583739862979
 10
119.1720540066653
 20
-148.4145412497887
 10
119.3539550482865
 20
-148.3192843596216
 10
119.5465358859119
 20
-148.2198933548721
 10
119.774945716584
 20
-148.1966389603467
 10
119.9485785290406
 20
-148.1966389603467
 10
120.1197997746575
 20
-148.1966389603467
 10
120.3502766626207
 20
-148.2176540428067
 10
120.5428575002462
 20
-148.3192843596216
 97
        0
 97
        1
330
DE
 75
     2
 76
     1
 98
        1
 10
0.0
 20
0.0
450
        0
451
        0
460
0.0
461
0.0
452
        0
462
0.0
453
        0
470

  0
SPLINE
  5
E0
330
D9
100
AcDbEntity
  8
レイヤー 1
100
AcDbSpline
210
0.0
220
0.0
230
1.0
 70
    11
 71
     3
 72
    17
 73
    13
 74
     0
 42
0.0000000001
 43
0.0000000001
 40
0.0
 40
0.0
 40
0.0
 40
0.0
 40
1.0
 40
1.0
 40
1.0
 40
2.0
 40
2.0
 40
2.0
 40
3.0
 40
3.0
 40
3.0
 40
4.0
 40
4.0
 40
4.0
 40
4.0
 10
120.7206244272851
 20
-147.9801147090987
 30
0.0
 10
120.7206244272851
 20
-147.9801147090987
 30
0.0
 10
120.4687879473133
 20
-147.9801147090987
 30
0.0
 10
120.4687879473133
 20
-147.9801147090987
 30
0.0
 10
120.4687879473133
 20
-147.9801147090987
 30
0.0
 10
120.4687879473133
 20
-147.7284504839012
 30
0.0
 10
120.4687879473133
 20
-147.7284504839012
 30
0.0
 10
120.4687879473133
 20
-147.7284504839012
 30
0.0
 10
120.7206244272851
 20
-147.7284504839012
 30
0.0
 10
120.7206244272851
 20
-147.7284504839012
 30
0.0
 10
120.7206244272851
 20
-147.7284504839012
 30
0.0
 10
120.7206244272851
 20
-147.9801147090987
 30
0.0
 10
120.7206244272851
 20
-147.9801147090987
 30
0.0
  0
HATCH
  5
E1
330
D9
100
AcDbEntity
  8
レイヤー 1
 62
   250
420
  2299925
440
 33554687
100
AcDbHatch
 10
0.0
 20
0.0
 30
0.0
210
0.0
220
0.0
230
1.0
  2
SOLID
 70
     1
 71
     1
 91
        1
 92
        1
 93
        1
 72
     4
 94
        3
 73
     0
 74
     0
 95
       17
 96
       13
 40
0.0
 40
0.0
 40
0.0
 40
0.0
 40
1.0
 40
1.0
 40
1.0
 40
2.0
 40
2.0
 40
2.0
 40
3.0
 40
3.0
 40
3.0
 40
4.0
 40
4.0
 40
4.0
 40
4.0
 10
120.7206244272851
 20
-147.9801147090987
 10
120.7206244272851
 20
-147.9801147090987
 10
120.4687879473133
 20
-147.9801147090987
 10
120.4687879473133
 20
-147.9801147090987
 10
120.4687879473133
 20
-147.9801147090987
 10
120.4687879473133
 20
-147.7284504839012
 10
120.4687879473133
 20
-147.7284504839012
 10
120.4687879473133
 20
-147.7284504839012
 10
120.7206244272851
 20
-147.7284504839012
 10
120.7206244272851
 20
-147.7284504839012
 10
120.7206244272851
 20
-147.7284504839012
 10
120.7206244272851
 20
-147.9801147090987
 10
120.7206244272851
 20
-147.9801147090987
 97
        0
 97
        1
330
E0
 75
     2
 76
     1
 98
        1
 10
0.0
 20
0.0
450
        0
451
        0
460
0.0
461
0.0
452
        0
462
0.0
453
        0
470

  0
SPLINE
  5
E2
330
D9
100
AcDbEntity
  8
レイヤー 1
100
AcDbSpline
210
0.0
220
0.0
230
1.0
 70
     9
 71
     3
 72
    17
 73
    13
 74
     0
 42
0.0000000001
 43
0.0000000001
 40
0.0
 40
0.0
 40
0.0
 40
0.0
 40
1.0
 40
1.0
 40
1.0
 40
2.0
 40
2.0
 40
2.0
 40
3.0
 40
3.0
 40
3.0
 40
4.0
 40
4.0
 40
4.0
 40
4.0
 10
119.9124050264455
 20
-146.9707017319205
 30
0.0
 10
119.9124050264455
 20
-147.2330457531223
 30
0.0
 10
120.1239338892398
 20
-147.2711140582343
 30
0.0
 10
120.2403781166413
 20
-147.2711140582343
 30
0.0
 10
120.416077986389
 20
-147.2711140582343
 30
0.0
 10
120.5790310028413
 20
-147.1758571680671
 30
0.0
 10
120.5790310028413
 20
-146.9918890691548
 30
0.0
 10
120.5790310028413
 20
-146.871310727171
 30
0.0
 10
120.519775360495
 20
-146.6956108574233
 30
0.0
 10
120.2341769447678
 20
-146.6956108574233
 30
0.0
 10
120.0099012286781
 20
-146.6956108574233
 30
0.0
 10
119.9124050264455
 20
-146.8353094793502
 30
0.0
 10
119.9124050264455
 20
-146.9707017319205
 30
0.0
  0
SPLINE
  5
E3
330
D9
100
AcDbEntity
  8
レイヤー 1
100
AcDbSpline
210
0.0
220
0.0
230
1.0
 70
     9
 71
     3
 72
    32
 73
    28
 74
     0
 42
0.0000000001
 43
0.0000000001
 40
0.0
 40
0.0
 40
0.0
 40
0.0
 40
1.0
 40
1.0
 40
1.0
 40
2.0
 40
2.0
 40
2.0
 40
3.0
 40
3.0
 40
3.0
 40
4.0
 40
4.0
 40
4.0
 40
5.0
 40
5.0
 40
5.0
 40
6.0
 40
6.0
 40
6.0
 40
7.0
 40
7.0
 40
7.0
 40
8.0
 40
8.0
 40
8.0
 40
9.0
 40
9.0
 40
9.0
 40
9.0
 10
120.7712673309183
 20
-146.9875826997982
 30
0.0
 10
120.7712673309183
 20
-147.5038302582629
 30
0.0
 10
120.2172959768901
 20
-147.5122707422018
 30
0.0
 10
120.0033555472561
 20
-147.5122707422018
 30
0.0
 10
119.7728786592929
 20
-147.5122707422018
 30
0.0
 10
119.1255452176144
 20
-147.4931504622586
 30
0.0
 10
119.1255452176144
 20
-146.9495143946862
 30
0.0
 10
119.1255452176144
 20
-146.7760538370039
 30
0.0
 10
119.195480655965
 20
-146.5305907836798
 30
0.0
 10
119.5275878607431
 20
-146.4925224785678
 30
0.0
 10
119.5275878607431
 20
-146.4925224785678
 30
0.0
 10
119.5275878607431
 20
-146.7062906534276
 30
0.0
 10
119.5275878607431
 20
-146.7062906534276
 30
0.0
 10
119.4703992756879
 20
-146.7167981946576
 30
0.0
 10
119.3222601698222
 20
-146.7484930731219
 30
0.0
 10
119.3222601698222
 20
-146.9515814519773
 30
0.0
 10
119.3222601698222
 20
-147.2435532943523
 30
0.0
 10
119.650233260018
 20
-147.2838609115297
 30
0.0
 10
119.8552164413903
 20
-147.2964355100509
 30
0.0
 10
119.7770127738752
 20
-147.2034179319491
 30
0.0
 10
119.7177571315289
 20
-147.135721805664
 30
0.0
 10
119.7177571315289
 20
-146.9538207640428
 30
0.0
 10
119.7177571315289
 20
-146.7739867797128
 30
0.0
 10
119.8259331297657
 20
-146.4715073961078
 30
0.0
 10
120.2321098874767
 20
-146.4715073961078
 30
0.0
 10
120.5514702389593
 20
-146.4715073961078
 30
0.0
 10
120.7712673309183
 20
-146.6702894056067
 30
0.0
 10
120.7712673309183
 20
-146.9875826997982
 30
0.0
  0
HATCH
  5
E4
330
D9
100
AcDbEntity
  8
レイヤー 1
 62
   250
420
  2299925
440
 33554687
100
AcDbHatch
 10
0.0
 20
0.0
 30
0.0
210
0.0
220
0.0
230
1.0
  2
SOLID
 70
     1
 71
     1
 91
        2
 92
        1
 93
        1
 72
     4
 94
        3
 73
     0
 74
     0
 95
       17
 96
       13
 40
0.0
 40
0.0
 40
0.0
 40
0.0
 40
1.0
 40
1.0
 40
1.0
 40
2.0
 40
2.0
 40
2.0
 40
3.0
 40
3.0
 40
3.0
 40
4.0
 40
4.0
 40
4.0
 40
4.0
 10
119.9124050264455
 20
-146.9707017319205
 10
119.9124050264455
 20
-147.2330457531223
 10
120.1239338892398
 20
-147.2711140582343
 10
120.2403781166413
 20
-147.2711140582343
 10
120.416077986389
 20
-147.2711140582343
 10
120.5790310028413
 20
-147.1758571680671
 10
120.5790310028413
 20
-146.9918890691548
 10
120.5790310028413
 20
-146.871310727171
 10
120.519775360495
 20
-146.6956108574233
 10
120.2341769447678
 20
-146.6956108574233
 10
120.0099012286781
 20
-146.6956108574233
 10
119.9124050264455
 20
-146.8353094793502
 10
119.9124050264455
 20
-146.9707017319205
 97
        0
 97
        1
330
E2
 92
        1
 93
        1
 72
     4
 94
        3
 73
     0
 74
     0
 95
       32
 96
       28
 40
0.0
 40
0.0
 40
0.0
 40
0.0
 40
1.0
 40
1.0
 40
1.0
 40
2.0
 40
2.0
 40
2.0
 40
3.0
 40
3.0
 40
3.0
 40
4.0
 40
4.0
 40
4.0
 40
5.0
 40
5.0
 40
5.0
 40
6.0
 40
6.0
 40
6.0
 40
7.0
 40
7.0
 40
7.0
 40
8.0
 40
8.0
 40
8.0
 40
9.0
 40
9.0
 40
9.0
 40
9.0
 10
120.7712673309183
 20
-146.9875826997982
 10
120.7712673309183
 20
-147.5038302582629
 10
120.2172959768901
 20
-147.5122707422018
 10
120.0033555472561
 20
-147.5122707422018
 10
119.7728786592929
 20
-147.5122707422018
 10
119.1255452176144
 20
-147.4931504622586
 10
119.1255452176144
 20
-146.9495143946862
 10
119.1255452176144
 20
-146.7760538370039
 10
119.195480655965
 20
-146.5305907836798
 10
119.5275878607431
 20
-146.4925224785678
 10
119.5275878607431
 20
-146.4925224785678
 10
119.5275878607431
 20
-146.7062906534276
 10
119.5275878607431
 20
-146.7062906534276
 10
119.4703992756879
 20
-146.7167981946576
 10
119.3222601698222
 20
-146.7484930731219
 10
119.3222601698222
 20
-146.9515814519773
 10
119.3222601698222
 20
-147.2435532943523
 10
119.650233260018
 20
-147.2838609115297
 10
119.8552164413903
 20
-147.2964355100509
 10
119.7770127738752
 20
-147.2034179319491
 10
119.7177571315289
 20
-147.135721805664
 10
119.7177571315289
 20
-146.9538207640428
 10
119.7177571315289
 20
-146.7739867797128
 10
119.8259331297657
 20
-146.4715073961078
 10
120.2321098874767
 20
-146.4715073961078
 10
120.5514702389593
 20
-146.4715073961078
 10
120.7712673309183
 20
-146.6702894056067
 10
120.7712673309183
 20
-146.9875826997982
 97
        0
 97
        1
330
E3
 75
     2
 76
     1
 98
        1
 10
0.0
 20
0.0
450
        0
451
        0
460
0.0
461
0.0
452
        0
462
0.0
453
        0
470

  0
ENDBLK
  5
DC
330
D9
100
AcDbEntity
  8
0
100
AcDbBlockEnd
  0
BLOCK
  5
E7
330
E5
100
AcDbEntity
  8
0
100
AcDbBlockBegin
  2
Block_6
 70
     0
 10
0.0
 20
0.0
 30
0.0
  3
Block_6
  1

  0
SPLINE
  5
E9
330
E5
100
AcDbEntity
  8
レイヤー 1
 62
   153
420
  9020372
370
     9
100
AcDbSpline
210
0.0
220
0.0
230
1.0
 70
    11
 71
     3
 72
    44
 73
    40
 74
     0
 42
0.0000000001
 43
0.0000000001
 40
0.0
 40
0.0
 40
0.0
 40
0.0
 40
1.0
 40
1.0
 40
1.0
 40
2.0
 40
2.0
 40
2.0
 40
3.0
 40
3.0
 40
3.0
 40
4.0
 40
4.0
 40
4.0
 40
5.0
 40
5.0
 40
5.0
 40
6.0
 40
6.0
 40
6.0
 40
7.0
 40
7.0
 40
7.0
 40
8.0
 40
8.0
 40
8.0
 40
9.0
 40
9.0
 40
9.0
 40
10.0
 40
10.0
 40
10.0
 40
11.0
 40
11.0
 40
11.0
 40
12.0
 40
12.0
 40
12.0
 40
13.0
 40
13.0
 40
13.0
 40
13.0
 10
127.759427108603
 20
-143.1505877587221
 30
0.0
 10
127.759427108603
 20
-143.1505877587221
 30
0.0
 10
129.22151247218
 20
-143.9701610711463
 30
0.0
 10
129.22151247218
 20
-143.9701610711463
 30
0.0
 10
129.22151247218
 20
-143.9701610711463
 30
0.0
 10
129.609109406736
 20
-143.3727671974982
 30
0.0
 10
130.0959074498723
 20
-143.6490980237818
 30
0.0
 10
130.0959074498723
 20
-143.6490980237818
 30
0.0
 10
130.5389257719033
 20
-144.1586149552274
 30
0.0
 10
129.7414010700276
 20
-144.2578160638077
 30
0.0
 10
129.7414010700276
 20
-144.2578160638077
 30
0.0
 10
130.3546346654939
 20
-144.5716824446891
 30
0.0
 10
130.3546346654939
 20
-144.5716824446891
 30
0.0
 10
130.3546346654939
 20
-144.5716824446891
 30
0.0
 10
142.8523868466497
 20
-136.827434308928
 30
0.0
 10
142.8523868466497
 20
-136.827434308928
 30
0.0
 10
142.8523868466497
 20
-136.827434308928
 30
0.0
 10
142.8086424033212
 20
-136.4839698732461
 30
0.0
 10
142.5319965493543
 20
-136.4505618185428
 30
0.0
 10
142.5319965493543
 20
-136.4505618185428
 30
0.0
 10
142.1216782541805
 20
-136.8722370855628
 30
0.0
 10
141.7565179857187
 20
-136.6183429253735
 30
0.0
 10
141.7565179857187
 20
-136.6183429253735
 30
0.0
 10
141.4023643836428
 20
-136.2293701575193
 30
0.0
 10
141.9887187717121
 20
-136.097078494228
 30
0.0
 10
141.9887187717121
 20
-136.097078494228
 30
0.0
 10
142.3325335265789
 20
-136.1191271047762
 30
0.0
 10
142.3325335265789
 20
-136.1528879372482
 30
0.0
 10
142.3325335265789
 20
-136.1528879372482
 30
0.0
 10
141.9663149248108
 20
-135.6867596561494
 30
0.0
 10
141.6900193763048
 20
-135.6757560049764
 30
0.0
 10
141.6900193763048
 20
-135.6757560049764
 30
0.0
 10
141.0592174479528
 20
-135.6540601721966
 30
0.0
 10
141.0592174479528
 20
-135.4983440650582
 30
0.0
 10
141.0592174479528
 20
-135.4983440650582
 30
0.0
 10
140.4060141312841
 20
-135.4101496228637
 30
0.0
 10
140.1955493277164
 20
-135.5321048975302
 30
0.0
 10
140.1955493277164
 20
-135.5321048975302
 30
0.0
 10
127.759427108603
 20
-143.1505877587221
 30
0.0
 10
127.759427108603
 20
-143.1505877587221
 30
0.0
  0
HATCH
  5
EA
330
E5
100
AcDbEntity
  8
レイヤー 1
 62
   153
420
  9020372
440
 33554687
100
AcDbHatch
 10
0.0
 20
0.0
 30
0.0
210
0.0
220
0.0
230
1.0
  2
SOLID
 70
     1
 71
     1
 91
        1
 92
        1
 93
        1
 72
     4
 94
        3
 73
     0
 74
     0
 95
       44
 96
       40
 40
0.0
 40
0.0
 40
0.0
 40
0.0
 40
1.0
 40
1.0
 40
1.0
 40
2.0
 40
2.0
 40
2.0
 40
3.0
 40
3.0
 40
3.0
 40
4.0
 40
4.0
 40
4.0
 40
5.0
 40
5.0
 40
5.0
 40
6.0
 40
6.0
 40
6.0
 40
7.0
 40
7.0
 40
7.0
 40
8.0
 40
8.0
 40
8.0
 40
9.0
 40
9.0
 40
9.0
 40
10.0
 40
10.0
 40
10.0
 40
11.0
 40
11.0
 40
11.0
 40
12.0
 40
12.0
 40
12.0
 40
13.0
 40
13.0
 40
13.0
 40
13.0
 10
127.759427108603
 20
-143.1505877587221
 10
127.759427108603
 20
-143.1505877587221
 10
129.22151247218
 20
-143.9701610711463
 10
129.22151247218
 20
-143.9701610711463
 10
129.22151247218
 20
-143.9701610711463
 10
129.609109406736
 20
-143.3727671974982
 10
130.0959074498723
 20
-143.6490980237818
 10
130.0959074498723
 20
-143.6490980237818
 10
130.5389257719033
 20
-144.1586149552274
 10
129.7414010700276
 20
-144.2578160638077
 10
129.7414010700276
 20
-144.2578160638077
 10
130.3546346654939
 20
-144.5716824446891
 10
130.3546346654939
 20
-144.5716824446891
 10
130.3546346654939
 20
-144.5716824446891
 10
142.8523868466497
 20
-136.827434308928
 10
142.8523868466497
 20
-136.827434308928
 10
142.8523868466497
 20
-136.827434308928
 10
142.8086424033212
 20
-136.4839698732461
 10
142.5319965493543
 20
-136.4505618185428
 10
142.5319965493543
 20
-136.4505618185428
 10
142.1216782541805
 20
-136.8722370855628
 10
141.7565179857187
 20
-136.6183429253735
 10
141.7565179857187
 20
-136.6183429253735
 10
141.4023643836428
 20
-136.2293701575193
 10
141.9887187717121
 20
-136.097078494228
 10
141.9887187717121
 20
-136.097078494228
 10
142.3325335265789
 20
-136.1191271047762
 10
142.3325335265789
 20
-136.1528879372482
 10
142.3325335265789
 20
-136.1528879372482
 10
141.9663149248108
 20
-135.6867596561494
 10
141.6900193763048
 20
-135.6757560049764
 10
141.6900193763048
 20
-135.6757560049764
 10
141.0592174479528
 20
-135.6540601721966
 10
141.0592174479528
 20
-135.4983440650582
 10
141.0592174479528
 20
-135.4983440650582
 10
140.4060141312841
 20
-135.4101496228637
 10
140.1955493277164
 20
-135.5321048975302
 10
140.1955493277164
 20
-135.5321048975302
 10
127.759427108603
 20
-143.1505877587221
 10
127.759427108603
 20
-143.1505877587221
 97
        0
 97
        1
330
E9
 75
     2
 76
     1
 98
        1
 10
0.0
 20
0.0
450
        0
451
        0
460
0.0
461
0.0
452
        0
462
0.0
453
        0
470

  0
SPLINE
  5
EB
330
E5
100
AcDbEntity
  8
レイヤー 1
 62
   153
420
  9020372
370
     9
100
AcDbSpline
210
0.0
220
0.0
230
1.0
 70
    11
 71
     3
 72
    44
 73
    40
 74
     0
 42
0.0000000001
 43
0.0000000001
 40
0.0
 40
0.0
 40
0.0
 40
0.0
 40
1.0
 40
1.0
 40
1.0
 40
2.0
 40
2.0
 40
2.0
 40
3.0
 40
3.0
 40
3.0
 40
4.0
 40
4.0
 40
4.0
 40
5.0
 40
5.0
 40
5.0
 40
6.0
 40
6.0
 40
6.0
 40
7.0
 40
7.0
 40
7.0
 40
8.0
 40
8.0
 40
8.0
 40
9.0
 40
9.0
 40
9.0
 40
10.0
 40
10.0
 40
10.0
 40
11.0
 40
11.0
 40
11.0
 40
12.0
 40
12.0
 40
12.0
 40
13.0
 40
13.0
 40
13.0
 40
13.0
 10
133.5430401397064
 20
-146.2552763201738
 30
0.0
 10
133.5430401397064
 20
-146.2552763201738
 30
0.0
 10
135.0943826623246
 20
-147.0969362691534
 30
0.0
 10
135.0943826623246
 20
-147.0969362691534
 30
0.0
 10
135.0943826623246
 20
-147.0969362691534
 30
0.0
 10
135.5667145325226
 20
-146.5953215597285
 30
0.0
 10
135.9501486894071
 20
-146.8754271081379
 30
0.0
 10
135.9501486894071
 20
-146.8754271081379
 30
0.0
 10
136.526517008036
 20
-147.2447148764947
 30
0.0
 10
135.6549089747171
 20
-147.4362732049407
 30
0.0
 10
135.6549089747171
 20
-147.4362732049407
 30
0.0
 10
136.1427300733828
 20
-147.7025851425909
 30
0.0
 10
136.1427300733828
 20
-147.7025851425909
 30
0.0
 10
136.1427300733828
 20
-147.7025851425909
 30
0.0
 10
146.9055564654669
 20
-141.0135658687976
 30
0.0
 10
146.9055564654669
 20
-141.0135658687976
 30
0.0
 10
146.9055564654669
 20
-141.0135658687976
 30
0.0
 10
145.7872862162186
 20
-141.0135658687976
 30
0.0
 10
145.7872862162186
 20
-140.9801578140943
 30
0.0
 10
145.7872862162186
 20
-140.9801578140943
 30
0.0
 10
146.2196153718556
 20
-141.3457061381017
 30
0.0
 10
145.4768770574711
 20
-141.4456128022196
 30
0.0
 10
145.4768770574711
 20
-141.4456128022196
 30
0.0
 10
144.9449587377081
 20
-141.5348302999435
 30
0.0
 10
145.034176235432
 20
-141.0580158676635
 30
0.0
 10
145.034176235432
 20
-141.0580158676635
 30
0.0
 10
145.3659284491905
 20
-140.8041217074743
 30
0.0
 10
145.5547351110404
 20
-140.9357078152283
 30
0.0
 10
145.5547351110404
 20
-140.9357078152283
 30
0.0
 10
144.835033184957
 20
-140.4492596549588
 30
0.0
 10
144.835033184957
 20
-140.4492596549588
 30
0.0
 10
144.7685698533193
 20
-140.4492596549588
 30
0.0
 10
144.3475648640601
 20
-140.4375503279374
 30
0.0
 10
144.4695201387265
 20
-140.0169333942238
 30
0.0
 10
144.4695201387265
 20
-140.0169333942238
 30
0.0
 10
144.2586648663281
 20
-139.6069350713504
 30
0.0
 10
144.2586648663281
 20
-139.6069350713504
 30
0.0
 10
144.2586648663281
 20
-139.6069350713504
 30
0.0
 10
133.5430401397064
 20
-146.2552763201738
 30
0.0
 10
133.5430401397064
 20
-146.2552763201738
 30
0.0
  0
HATCH
  5
EC
330
E5
100
AcDbEntity
  8
レイヤー 1
 62
   153
420
  9020372
440
 33554687
100
AcDbHatch
 10
0.0
 20
0.0
 30
0.0
210
0.0
220
0.0
230
1.0
  2
SOLID
 70
     1
 71
     1
 91
        1
 92
        1
 93
        1
 72
     4
 94
        3
 73
     0
 74
     0
 95
       44
 96
       40
 40
0.0
 40
0.0
 40
0.0
 40
0.0
 40
1.0
 40
1.0
 40
1.0
 40
2.0
 40
2.0
 40
2.0
 40
3.0
 40
3.0
 40
3.0
 40
4.0
 40
4.0
 40
4.0
 40
5.0
 40
5.0
 40
5.0
 40
6.0
 40
6.0
 40
6.0
 40
7.0
 40
7.0
 40
7.0
 40
8.0
 40
8.0
 40
8.0
 40
9.0
 40
9.0
 40
9.0
 40
10.0
 40
10.0
 40
10.0
 40
11.0
 40
11.0
 40
11.0
 40
12.0
 40
12.0
 40
12.0
 40
13.0
 40
13.0
 40
13.0
 40
13.0
 10
133.5430401397064
 20
-146.2552763201738
 10
133.5430401397064
 20
-146.2552763201738
 10
135.0943826623246
 20
-147.0969362691534
 10
135.0943826623246
 20
-147.0969362691534
 10
135.0943826623246
 20
-147.0969362691534
 10
135.5667145325226
 20
-146.5953215597285
 10
135.9501486894071
 20
-146.8754271081379
 10
135.9501486894071
 20
-146.8754271081379
 10
136.526517008036
 20
-147.2447148764947
 10
135.6549089747171
 20
-147.4362732049407
 10
135.6549089747171
 20
-147.4362732049407
 10
136.1427300733828
 20
-147.7025851425909
 10
136.1427300733828
 20
-147.7025851425909
 10
136.1427300733828
 20
-147.7025851425909
 10
146.9055564654669
 20
-141.0135658687976
 10
146.9055564654669
 20
-141.0135658687976
 10
146.9055564654669
 20
-141.0135658687976
 10
145.7872862162186
 20
-141.0135658687976
 10
145.7872862162186
 20
-140.9801578140943
 10
145.7872862162186
 20
-140.9801578140943
 10
146.2196153718556
 20
-141.3457061381017
 10
145.4768770574711
 20
-141.4456128022196
 10
145.4768770574711
 20
-141.4456128022196
 10
144.9449587377081
 20
-141.5348302999435
 10
145.034176235432
 20
-141.0580158676635
 10
145.034176235432
 20
-141.0580158676635
 10
145.3659284491905
 20
-140.8041217074743
 10
145.5547351110404
 20
-140.9357078152283
 10
145.5547351110404
 20
-140.9357078152283
 10
144.835033184957
 20
-140.4492596549588
 10
144.835033184957
 20
-140.4492596549588
 10
144.7685698533193
 20
-140.4492596549588
 10
144.3475648640601
 20
-140.4375503279374
 10
144.4695201387265
 20
-140.0169333942238
 10
144.4695201387265
 20
-140.0169333942238
 10
144.2586648663281
 20
-139.6069350713504
 10
144.2586648663281
 20
-139.6069350713504
 10
144.2586648663281
 20
-139.6069350713504
 10
133.5430401397064
 20
-146.2552763201738
 10
133.5430401397064
 20
-146.2552763201738
 97
        0
 97
        1
330
EB
 75
     2
 76
     1
 98
        1
 10
0.0
 20
0.0
450
        0
451
        0
460
0.0
461
0.0
452
        0
462
0.0
453
        0
470

  0
SPLINE
  5
ED
330
E5
100
AcDbEntity
  8
レイヤー 1
 62
   250
420
  2299925
370
     9
100
AcDbSpline
210
0.0
220
0.0
230
1.0
 70
     8
 71
     3
 72
    83
 73
    79
 74
     0
 42
0.0000000001
 43
0.0000000001
 40
0.0
 40
0.0
 40
0.0
 40
0.0
 40
1.0
 40
1.0
 40
1.0
 40
2.0
 40
2.0
 40
2.0
 40
3.0
 40
3.0
 40
3.0
 40
4.0
 40
4.0
 40
4.0
 40
5.0
 40
5.0
 40
5.0
 40
6.0
 40
6.0
 40
6.0
 40
7.0
 40
7.0
 40
7.0
 40
8.0
 40
8.0
 40
8.0
 40
9.0
 40
9.0
 40
9.0
 40
10.0
 40
10.0
 40
10.0
 40
11.0
 40
11.0
 40
11.0
 40
12.0
 40
12.0
 40
12.0
 40
13.0
 40
13.0
 40
13.0
 40
14.0
 40
14.0
 40
14.0
 40
15.0
 40
15.0
 40
15.0
 40
16.0
 40
16.0
 40
16.0
 40
17.0
 40
17.0
 40
17.0
 40
18.0
 40
18.0
 40
18.0
 40
19.0
 40
19.0
 40
19.0
 40
20.0
 40
20.0
 40
20.0
 40
21.0
 40
21.0
 40
21.0
 40
22.0
 40
22.0
 40
22.0
 40
23.0
 40
23.0
 40
23.0
 40
24.0
 40
24.0
 40
24.0
 40
25.0
 40
25.0
 40
25.0
 40
26.0
 40
26.0
 40
26.0
 40
26.0
 10
143.4949009969244
 20
-138.068715211109
 30
0.0
 10
143.4949009969244
 20
-138.068715211109
 30
0.0
 10
131.7426409964965
 20
-145.3251099254676
 30
0.0
 10
131.7426409964965
 20
-145.3251099254676
 30
0.0
 10
131.7426409964965
 20
-145.3251099254676
 30
0.0
 10
129.7197052372478
 20
-144.2619788414792
 30
0.0
 10
129.7197052372478
 20
-144.2619788414792
 30
0.0
 10
130.5313410498746
 20
-144.1875427322671
 30
0.0
 10
130.1179560604209
 20
-143.6707938565616
 30
0.0
 10
130.1179560604209
 20
-143.6707938565616
 30
0.0
 10
129.4682099658862
 20
-143.4351383070181
 30
0.0
 10
129.2180905278229
 20
-143.9667038490123
 30
0.0
 10
129.2180905278229
 20
-143.9667038490123
 30
0.0
 10
129.2180905278229
 20
-143.9667038490123
 30
0.0
 10
127.2540355779301
 20
-142.8594755439267
 30
0.0
 10
127.2540355779301
 20
-142.8594755439267
 30
0.0
 10
127.2540355779301
 20
-142.8594755439267
 30
0.0
 10
138.0027155814862
 20
-136.1852729364221
 30
0.0
 10
138.0027155814862
 20
-136.1852729364221
 30
0.0
 10
139.4200355453274
 20
-135.1520926850029
 30
0.0
 10
141.0592174479528
 20
-135.4911121207982
 30
0.0
 10
141.0592174479528
 20
-135.4911121207982
 30
0.0
 10
141.0733638364808
 20
-135.6540601721966
 30
0.0
 10
141.6342099332835
 20
-135.6688768384853
 30
0.0
 10
141.6342099332835
 20
-135.6688768384853
 30
0.0
 10
141.9294521050603
 20
-135.6688768384853
 30
0.0
 10
142.3876374140619
 20
-136.1852729364221
 30
0.0
 10
142.3876374140619
 20
-136.1852729364221
 30
0.0
 10
141.9739021050493
 20
-136.0082137742725
 30
0.0
 10
141.7527104384384
 20
-136.2152590467682
 30
0.0
 10
141.7527104384384
 20
-136.2152590467682
 30
0.0
 10
141.5463682688579
 20
-136.480509655951
 30
0.0
 10
141.7678798828783
 20
-136.6431402114657
 30
0.0
 10
141.7678798828783
 20
-136.6431402114657
 30
0.0
 10
142.3721504700126
 20
-136.8057384761482
 30
0.0
 10
142.5199290773536
 20
-136.4215957670767
 30
0.0
 10
142.5199290773536
 20
-136.4215957670767
 30
0.0
 10
142.8007049035237
 20
-136.3768312648683
 30
0.0
 10
143.4215232210187
 20
-137.8544409493936
 30
0.0
 10
143.4215232210187
 20
-137.8544409493936
 30
0.0
 10
143.5248871072705
 20
-138.237875106278
 30
0.0
 10
144.4695201387265
 20
-139.9948818772945
 30
0.0
 10
144.4695201387265
 20
-139.9948818772945
 30
0.0
 10
144.3069248650969
 20
-140.452366994226
 30
0.0
 10
144.8381376293223
 20
-140.4375503279374
 30
0.0
 10
144.8381376293223
 20
-140.4375503279374
 30
0.0
 10
144.8381376293223
 20
-140.4375503279374
 30
0.0
 10
145.5478206667723
 20
-140.9253714266032
 30
0.0
 10
145.5478206667723
 20
-140.9253714266032
 30
0.0
 10
145.00041540296
 20
-140.8664928169942
 30
0.0
 10
144.9855987366713
 20
-141.1910130864928
 30
0.0
 10
144.9855987366713
 20
-141.1910130864928
 30
0.0
 10
144.9855987366713
 20
-141.5740944656084
 30
0.0
 10
145.6952817741214
 20
-141.412875025277
 30
0.0
 10
145.6952817741214
 20
-141.412875025277
 30
0.0
 10
146.1524464846803
 20
-141.2792075286872
 30
0.0
 10
145.7541956615072
 20
-140.9846380917578
 30
0.0
 10
145.7541956615072
 20
-140.9846380917578
 30
0.0
 10
146.1379825961611
 20
-141.1165769772807
 30
0.0
 10
148.1674778221615
 20
-140.8592255949573
 30
0.0
 10
148.1674778221615
 20
-140.8592255949573
 30
0.0
 10
148.1674778221615
 20
-140.8592255949573
 30
0.0
 10
136.5406281187871
 20
-147.9234240258457
 30
0.0
 10
136.5406281187871
 20
-147.9234240258457
 30
0.0
 10
136.5406281187871
 20
-147.9234240258457
 30
0.0
 10
135.6404450861978
 20
-147.4507370934606
 30
0.0
 10
135.6404450861978
 20
-147.4507370934606
 30
0.0
 10
135.8619542472127
 20
-147.4803704260379
 30
0.0
 10
136.1268903515647
 20
-147.2147640439252
 30
0.0
 10
136.1268903515647
 20
-147.2147640439252
 30
0.0
 10
136.2457411818659
 20
-147.0969362691534
 30
0.0
 10
135.9056986905411
 20
-146.8602576640805
 30
0.0
 10
135.9056986905411
 20
-146.8602576640805
 30
0.0
 10
135.3603395377877
 20
-146.7124437789626
 30
0.0
 10
135.1081739886654
 20
-147.1110473799045
 30
0.0
 10
135.1081739886654
 20
-147.1110473799045
 30
0.0
 10
135.1081739886654
 20
-147.1110473799045
 30
0.0
 10
132.0526951777283
 20
-145.4870349213368
 30
0.0
 10
132.0526951777283
 20
-145.4870349213368
 30
0.0
  0
LINE
  5
EE
330
E5
100
AcDbEntity
  8
レイヤー 1
 62
   250
420
  2299925
370
     9
100
AcDbLine
 10
132.0671965519703
 20
-145.4870349213368
 30
0.0
 11
143.6499493268525
 21
-138.444920378774
 31
0.0
  0
SPLINE
  5
EF
330
E5
100
AcDbEntity
  8
レイヤー 1
 62
   250
420
  2299925
370
     9
100
AcDbSpline
210
0.0
220
0.0
230
1.0
 70
     8
 71
     3
 72
    11
 73
     7
 74
     0
 42
0.0000000001
 43
0.0000000001
 40
0.0
 40
0.0
 40
0.0
 40
0.0
 40
1.0
 40
1.0
 40
1.0
 40
2.0
 40
2.0
 40
2.0
 40
2.0
 10
143.5830954391188
 20
-138.2895540999428
 30
0.0
 10
143.5830954391188
 20
-138.2895540999428
 30
0.0
 10
131.8452993298033
 20
-145.4870349213368
 30
0.0
 10
131.8452993298033
 20
-145.4870349213368
 30
0.0
 10
131.8452993298033
 20
-145.4870349213368
 30
0.0
 10
131.6837271076219
 20
-145.4729238105854
 30
0.0
 10
131.7426409964965
 20
-145.3395738139875
 30
0.0
  0
SPLINE
  5
F0
330
E5
100
AcDbEntity
  8
レイヤー 1
 62
   250
420
  2299925
370
     9
100
AcDbSpline
210
0.0
220
0.0
230
1.0
 70
     8
 71
     3
 72
    20
 73
    16
 74
     0
 42
0.0000000001
 43
0.0000000001
 40
0.0
 40
0.0
 40
0.0
 40
0.0
 40
1.0
 40
1.0
 40
1.0
 40
2.0
 40
2.0
 40
2.0
 40
3.0
 40
3.0
 40
3.0
 40
4.0
 40
4.0
 40
4.0
 40
5.0
 40
5.0
 40
5.0
 40
5.0
 10
129.7052060709511
 20
-144.276760229991
 30
0.0
 10
129.7052060709511
 20
-144.276760229991
 30
0.0
 10
129.764119958337
 20
-144.4249268928776
 30
0.0
 10
129.764119958337
 20
-144.4249268928776
 30
0.0
 10
129.764119958337
 20
-144.4249268928776
 30
0.0
 10
131.7271518527003
 20
-145.4870349213368
 30
0.0
 10
131.7271518527003
 20
-145.4870349213368
 30
0.0
 10
131.7271518527003
 20
-145.4870349213368
 30
0.0
 10
135.0943826623246
 20
-147.3332620964576
 30
0.0
 10
135.0943826623246
 20
-147.3332620964576
 30
0.0
 10
135.0943826623246
 20
-147.3332620964576
 30
0.0
 10
135.3296854400434
 20
-146.9932196051328
 30
0.0
 10
135.5367284221765
 20
-147.0083890491902
 30
0.0
 10
135.5367284221765
 20
-147.0083890491902
 30
0.0
 10
136.0982800745168
 20
-146.9047076629465
 30
0.0
 10
136.0834634082282
 20
-147.2588612650224
 30
0.0
  0
LWPOLYLINE
  5
F1
330
E5
100
AcDbEntity
  8
レイヤー 1
 62
   250
420
  2299925
370
     9
100
AcDbPolyline
 90
        4
 70
     0
 43
0.0
 10
129.2180905278229
 20
-143.9522399604924
 10
129.2770044152087
 20
-144.1138121785926
 10
127.2540355779301
 20
-143.0210477620269
 10
127.2540355779301
 20
-142.8443060998693
  0
SPLINE
  5
F2
330
E5
100
AcDbEntity
  8
レイヤー 1
 62
   250
420
  2299925
370
     9
100
AcDbSpline
210
0.0
220
0.0
230
1.0
 70
     8
 71
     3
 72
     8
 73
     4
 74
     0
 42
0.0000000001
 43
0.0000000001
 40
0.0
 40
0.0
 40
0.0
 40
0.0
 40
1.0
 40
1.0
 40
1.0
 40
1.0
 10
129.2770044152087
 20
-144.1138121785926
 30
0.0
 10
129.2770044152087
 20
-144.1138121785926
 30
0.0
 10
129.5874135739562
 20
-143.4792355281153
 30
0.0
 10
130.2212846688959
 20
-143.9667038490123
 30
0.0
  0
LWPOLYLINE
  5
F3
330
E5
100
AcDbEntity
  8
レイヤー 1
 62
   250
420
  2299925
370
     9
100
AcDbPolyline
 90
        4
 70
     0
 43
0.0
 10
135.5963478651
 20
-147.465906537518
 10
135.5963478651
 20
-147.5988684785703
 10
136.4961781199212
 20
-148.1004831879953
 10
136.5113475639786
 20
-147.9086073595571
  0
LWPOLYLINE
  5
F4
330
E5
100
AcDbEntity
  8
レイヤー 1
 62
   250
420
  2299925
370
     9
100
AcDbPolyline
 90
        3
 70
     0
 43
0.0
 10
136.4961781199212
 20
-148.1004831879953
 10
148.2343292093448
 20
-140.9481255926893
 10
148.1902319882477
 20
-140.8592255949573
  0
SPLINE
  5
F5
330
E5
100
AcDbEntity
  8
レイヤー 1
 62
   250
420
  2299925
370
     9
100
AcDbSpline
210
0.0
220
0.0
230
1.0
 70
     8
 71
     3
 72
    11
 73
     7
 74
     0
 42
0.0000000001
 43
0.0000000001
 40
0.0
 40
0.0
 40
0.0
 40
0.0
 40
1.0
 40
1.0
 40
1.0
 40
2.0
 40
2.0
 40
2.0
 40
2.0
 10
145.5623198330691
 20
-140.9253714266032
 30
0.0
 10
145.5623198330691
 20
-140.9253714266032
 30
0.0
 10
145.5623198330691
 20
-141.0580158676635
 30
0.0
 10
145.5623198330691
 20
-141.0580158676635
 30
0.0
 10
145.5623198330691
 20
-141.0580158676635
 30
0.0
 10
145.0307215487292
 20
-141.0580158676635
 30
0.0
 10
145.0307215487292
 20
-141.1910130864928
 30
0.0
  0
SPLINE
  5
F6
330
E5
100
AcDbEntity
  8
レイヤー 1
 62
   250
420
  2299925
370
     9
100
AcDbSpline
210
0.0
220
0.0
230
1.0
 70
     8
 71
     3
 72
    11
 73
     7
 74
     0
 42
0.0000000001
 43
0.0000000001
 40
0.0
 40
0.0
 40
0.0
 40
0.0
 40
1.0
 40
1.0
 40
1.0
 40
2.0
 40
2.0
 40
2.0
 40
2.0
 10
142.4021365803587
 20
-136.1852729364221
 30
0.0
 10
142.4021365803587
 20
-136.1852729364221
 30
0.0
 10
142.3731735255421
 20
-136.3034534889626
 30
0.0
 10
142.3731735255421
 20
-136.3034534889626
 30
0.0
 10
142.3731735255421
 20
-136.3034534889626
 30
0.0
 10
141.7968076606496
 20
-136.2000896027107
 30
0.0
 10
141.6937965495638
 20
-136.4071318781914
 30
0.0
  0
INSERT
  5
F8
330
E5
100
AcDbEntity
  8
レイヤー 1
100
AcDbBlockReference
  2
Block_7
 10
0.0
 20
0.0
 30
0.0
  0
INSERT
  5
FE
330
E5
100
AcDbEntity
  8
レイヤー 1
100
AcDbBlockReference
  2
Block_8
 10
0.0
 20
0.0
 30
0.0
  0
INSERT
  5
104
330
E5
100
AcDbEntity
  8
レイヤー 1
100
AcDbBlockReference
  2
Block_9
 10
0.0
 20
0.0
 30
0.0
  0
INSERT
  5
10A
330
E5
100
AcDbEntity
  8
レイヤー 1
100
AcDbBlockReference
  2
Block_10
 10
0.0
 20
0.0
 30
0.0
  0
INSERT
  5
110
330
E5
100
AcDbEntity
  8
レイヤー 1
100
AcDbBlockReference
  2
Block_11
 10
0.0
 20
0.0
 30
0.0
  0
INSERT
  5
116
330
E5
100
AcDbEntity
  8
レイヤー 1
100
AcDbBlockReference
  2
Block_12
 10
0.0
 20
0.0
 30
0.0
  0
INSERT
  5
11C
330
E5
100
AcDbEntity
  8
レイヤー 1
100
AcDbBlockReference
  2
Block_13
 10
0.0
 20
0.0
 30
0.0
  0
INSERT
  5
122
330
E5
100
AcDbEntity
  8
レイヤー 1
100
AcDbBlockReference
  2
Block_14
 10
0.0
 20
0.0
 30
0.0
  0
INSERT
  5
128
330
E5
100
AcDbEntity
  8
レイヤー 1
100
AcDbBlockReference
  2
Block_15
 10
0.0
 20
0.0
 30
0.0
  0
INSERT
  5
12E
330
E5
100
AcDbEntity
  8
レイヤー 1
100
AcDbBlockReference
  2
Block_16
 10
0.0
 20
0.0
 30
0.0
  0
INSERT
  5
134
330
E5
100
AcDbEntity
  8
レイヤー 1
100
AcDbBlockReference
  2
Block_17
 10
0.0
 20
0.0
 30
0.0
  0
INSERT
  5
13A
330
E5
100
AcDbEntity
  8
レイヤー 1
100
AcDbBlockReference
  2
Block_18
 10
0.0
 20
0.0
 30
0.0
  0
INSERT
  5
140
330
E5
100
AcDbEntity
  8
レイヤー 1
100
AcDbBlockReference
  2
Block_19
 10
0.0
 20
0.0
 30
0.0
  0
INSERT
  5
146
330
E5
100
AcDbEntity
  8
レイヤー 1
100
AcDbBlockReference
  2
Block_20
 10
0.0
 20
0.0
 30
0.0
  0
INSERT
  5
14C
330
E5
100
AcDbEntity
  8
レイヤー 1
100
AcDbBlockReference
  2
Block_21
 10
0.0
 20
0.0
 30
0.0
  0
INSERT
  5
152
330
E5
100
AcDbEntity
  8
レイヤー 1
100
AcDbBlockReference
  2
Block_22
 10
0.0
 20
0.0
 30
0.0
  0
INSERT
  5
158
330
E5
100
AcDbEntity
  8
レイヤー 1
100
AcDbBlockReference
  2
Block_23
 10
0.0
 20
0.0
 30
0.0
  0
INSERT
  5
15E
330
E5
100
AcDbEntity
  8
レイヤー 1
100
AcDbBlockReference
  2
Block_24
 10
0.0
 20
0.0
 30
0.0
  0
INSERT
  5
164
330
E5
100
AcDbEntity
  8
レイヤー 1
100
AcDbBlockReference
  2
Block_25
 10
0.0
 20
0.0
 30
0.0
  0
INSERT
  5
16A
330
E5
100
AcDbEntity
  8
レイヤー 1
100
AcDbBlockReference
  2
Block_26
 10
0.0
 20
0.0
 30
0.0
  0
INSERT
  5
170
330
E5
100
AcDbEntity
  8
レイヤー 1
100
AcDbBlockReference
  2
Block_27
 10
0.0
 20
0.0
 30
0.0
  0
INSERT
  5
176
330
E5
100
AcDbEntity
  8
レイヤー 1
100
AcDbBlockReference
  2
Block_28
 10
0.0
 20
0.0
 30
0.0
  0
INSERT
  5
17C
330
E5
100
AcDbEntity
  8
レイヤー 1
100
AcDbBlockReference
  2
Block_29
 10
0.0
 20
0.0
 30
0.0
  0
INSERT
  5
182
330
E5
100
AcDbEntity
  8
レイヤー 1
100
AcDbBlockReference
  2
Block_30
 10
0.0
 20
0.0
 30
0.0
  0
INSERT
  5
188
330
E5
100
AcDbEntity
  8
レイヤー 1
100
AcDbBlockReference
  2
Block_31
 10
0.0
 20
0.0
 30
0.0
  0
INSERT
  5
18E
330
E5
100
AcDbEntity
  8
レイヤー 1
100
AcDbBlockReference
  2
Block_32
 10
0.0
 20
0.0
 30
0.0
  0
INSERT
  5
194
330
E5
100
AcDbEntity
  8
レイヤー 1
100
AcDbBlockReference
  2
Block_33
 10
0.0
 20
0.0
 30
0.0
  0
INSERT
  5
19A
330
E5
100
AcDbEntity
  8
レイヤー 1
100
AcDbBlockReference
  2
Block_34
 10
0.0
 20
0.0
 30
0.0
  0
INSERT
  5
1A0
330
E5
100
AcDbEntity
  8
レイヤー 1
100
AcDbBlockReference
  2
Block_35
 10
0.0
 20
0.0
 30
0.0
  0
INSERT
  5
1A6
330
E5
100
AcDbEntity
  8
レイヤー 1
100
AcDbBlockReference
  2
Block_36
 10
0.0
 20
0.0
 30
0.0
  0
INSERT
  5
1AC
330
E5
100
AcDbEntity
  8
レイヤー 1
100
AcDbBlockReference
  2
Block_37
 10
0.0
 20
0.0
 30
0.0
  0
INSERT
  5
1B2
330
E5
100
AcDbEntity
  8
レイヤー 1
100
AcDbBlockReference
  2
Block_38
 10
0.0
 20
0.0
 30
0.0
  0
INSERT
  5
1B8
330
E5
100
AcDbEntity
  8
レイヤー 1
100
AcDbBlockReference
  2
Block_39
 10
0.0
 20
0.0
 30
0.0
  0
INSERT
  5
1BE
330
E5
100
AcDbEntity
  8
レイヤー 1
100
AcDbBlockReference
  2
Block_40
 10
0.0
 20
0.0
 30
0.0
  0
ENDBLK
  5
E8
330
E5
100
AcDbEntity
  8
0
100
AcDbBlockEnd
  0
BLOCK
  5
F9
330
F7
100
AcDbEntity
  8
0
100
AcDbBlockBegin
  2
Block_7
 70
     0
 10
0.0
 20
0.0
 30
0.0
  3
Block_7
  1

  0
SPLINE
  5
FB
330
F7
100
AcDbEntity
  8
レイヤー 1
 62
   250
420
  2299925
370
     9
100
AcDbSpline
210
0.0
220
0.0
230
1.0
 70
     9
 71
     3
 72
    17
 73
    13
 74
     0
 42
0.0000000001
 43
0.0000000001
 40
0.0
 40
0.0
 40
0.0
 40
0.0
 40
1.0
 40
1.0
 40
1.0
 40
2.0
 40
2.0
 40
2.0
 40
3.0
 40
3.0
 40
3.0
 40
4.0
 40
4.0
 40
4.0
 40
4.0
 10
132.8206218248035
 20
-142.4605191652161
 30
0.0
 10
132.8206218248035
 20
-142.6482674937595
 30
0.0
 10
132.5691265534419
 20
-142.7998561010033
 30
0.0
 10
132.259422950232
 20
-142.7998561010033
 30
0.0
 10
131.9493687742223
 20
-142.7998561010033
 30
0.0
 10
131.6978712978917
 20
-142.6482674937595
 30
0.0
 10
131.6978712978917
 20
-142.4605191652161
 30
0.0
 10
131.6978712978917
 20
-142.2734411144333
 30
0.0
 10
131.9493687742223
 20
-142.1208294516601
 30
0.0
 10
132.259422950232
 20
-142.1208294516601
 30
0.0
 10
132.5691265534419
 20
-142.1208294516601
 30
0.0
 10
132.8206218248035
 20
-142.2734411144333
 30
0.0
 10
132.8206218248035
 20
-142.4605191652161
 30
0.0
  0
SPLINE
  5
FC
330
F7
100
AcDbEntity
  8
レイヤー 1
 62
   250
420
  2299925
370
     9
100
AcDbSpline
210
0.0
220
0.0
230
1.0
 70
     8
 71
     3
 72
    11
 73
     7
 74
     0
 42
0.0000000001
 43
0.0000000001
 40
0.0
 40
0.0
 40
0.0
 40
0.0
 40
1.0
 40
1.0
 40
1.0
 40
2.0
 40
2.0
 40
2.0
 40
2.0
 10
131.7426409964965
 20
-142.5779941622193
 30
0.0
 10
131.7426409964965
 20
-142.5779941622193
 30
0.0
 10
131.7864185178549
 20
-142.313058057867
 30
0.0
 10
132.2146201735972
 20
-142.2538266704892
 30
0.0
 10
132.2146201735972
 20
-142.2538266704892
 30
0.0
 10
132.7172579385523
 20
-142.2093766716232
 30
0.0
 10
132.7758190481688
 20
-142.5935163840452
 30
0.0
  0
ENDBLK
  5
FA
330
F7
100
AcDbEntity
  8
0
100
AcDbBlockEnd
  0
BLOCK
  5
FF
330
FD
100
AcDbEntity
  8
0
100
AcDbBlockBegin
  2
Block_8
 70
     0
 10
0.0
 20
0.0
 30
0.0
  3
Block_8
  1

  0
SPLINE
  5
101
330
FD
100
AcDbEntity
  8
レイヤー 1
 62
   250
420
  2299925
370
     9
100
AcDbSpline
210
0.0
220
0.0
230
1.0
 70
     9
 71
     3
 72
    17
 73
    13
 74
     0
 42
0.0000000001
 43
0.0000000001
 40
0.0
 40
0.0
 40
0.0
 40
0.0
 40
1.0
 40
1.0
 40
1.0
 40
2.0
 40
2.0
 40
2.0
 40
3.0
 40
3.0
 40
3.0
 40
4.0
 40
4.0
 40
4.0
 40
4.0
 10
132.2887035050406
 20
-141.4266333582597
 30
0.0
 10
132.2887035050406
 20
-141.6144169645797
 30
0.0
 10
132.0385840669772
 20
-141.7666758495841
 30
0.0
 10
131.7271518527003
 20
-141.7666758495841
 30
0.0
 10
131.4177657494822
 20
-141.7666758495841
 30
0.0
 10
131.1666232558894
 20
-141.6144169645797
 30
0.0
 10
131.1666232558894
 20
-141.4266333582597
 30
0.0
 10
131.1666232558894
 20
-141.2395905852534
 30
0.0
 10
131.4177657494822
 20
-141.0876492002409
 30
0.0
 10
131.7271518527003
 20
-141.0876492002409
 30
0.0
 10
132.0385840669772
 20
-141.0876492002409
 30
0.0
 10
132.2887035050406
 20
-141.2395905852534
 30
0.0
 10
132.2887035050406
 20
-141.4266333582597
 30
0.0
  0
SPLINE
  5
102
330
FD
100
AcDbEntity
  8
レイヤー 1
 62
   250
420
  2299925
370
     9
100
AcDbSpline
210
0.0
220
0.0
230
1.0
 70
     8
 71
     3
 72
    11
 73
     7
 74
     0
 42
0.0000000001
 43
0.0000000001
 40
0.0
 40
0.0
 40
0.0
 40
0.0
 40
1.0
 40
1.0
 40
1.0
 40
2.0
 40
2.0
 40
2.0
 40
2.0
 10
131.2110732547554
 20
-141.5451666885687
 30
0.0
 10
131.2110732547554
 20
-141.5451666885687
 30
0.0
 10
131.2555232536214
 20
-141.2792075286872
 30
0.0
 10
131.6837271076219
 20
-141.2202936413013
 30
0.0
 10
131.6837271076219
 20
-141.2202936413013
 30
0.0
 10
132.1856923965581
 20
-141.1758436424353
 30
0.0
 10
132.2449590617121
 20
-141.5599833548573
 30
0.0
  0
ENDBLK
  5
100
330
FD
100
AcDbEntity
  8
0
100
AcDbBlockEnd
  0
BLOCK
  5
105
330
103
100
AcDbEntity
  8
0
100
AcDbBlockBegin
  2
Block_9
 70
     0
 10
0.0
 20
0.0
 30
0.0
  3
Block_9
  1

  0
SPLINE
  5
107
330
103
100
AcDbEntity
  8
レイヤー 1
 62
   250
420
  2299925
370
     9
100
AcDbSpline
210
0.0
220
0.0
230
1.0
 70
     9
 71
     3
 72
    17
 73
    13
 74
     0
 42
0.0000000001
 43
0.0000000001
 40
0.0
 40
0.0
 40
0.0
 40
0.0
 40
1.0
 40
1.0
 40
1.0
 40
2.0
 40
2.0
 40
2.0
 40
3.0
 40
3.0
 40
3.0
 40
4.0
 40
4.0
 40
4.0
 40
4.0
 10
134.0012631835717
 20
-141.7367250170149
 30
0.0
 10
134.0012631835717
 20
-141.9248261233272
 30
0.0
 10
133.7504381899708
 20
-142.0767322305628
 30
0.0
 10
133.4407345867609
 20
-142.0767322305628
 30
0.0
 10
133.131030983551
 20
-142.0767322305628
 30
0.0
 10
132.8798884899582
 20
-141.9248261233272
 30
0.0
 10
132.8798884899582
 20
-141.7367250170149
 30
0.0
 10
132.8798884899582
 20
-141.5496469662321
 30
0.0
 10
133.131030983551
 20
-141.3977055812196
 30
0.0
 10
133.4407345867609
 20
-141.3977055812196
 30
0.0
 10
133.7504381899708
 20
-141.3977055812196
 30
0.0
 10
134.0012631835717
 20
-141.5496469662321
 30
0.0
 10
134.0012631835717
 20
-141.7367250170149
 30
0.0
  0
SPLINE
  5
108
330
103
100
AcDbEntity
  8
レイヤー 1
 62
   250
420
  2299925
370
     9
100
AcDbSpline
210
0.0
220
0.0
230
1.0
 70
     8
 71
     3
 72
    11
 73
     7
 74
     0
 42
0.0000000001
 43
0.0000000001
 40
0.0
 40
0.0
 40
0.0
 40
0.0
 40
1.0
 40
1.0
 40
1.0
 40
2.0
 40
2.0
 40
2.0
 40
2.0
 10
132.9236329332866
 20
-141.8555758473161
 30
0.0
 10
132.9236329332866
 20
-141.8555758473161
 30
0.0
 10
132.9684004321445
 20
-141.5896166874347
 30
0.0
 10
133.3956143101342
 20
-141.53035002228
 30
0.0
 10
133.3956143101342
 20
-141.53035002228
 30
0.0
 10
133.8982520750893
 20
-141.4866055789516
 30
0.0
 10
133.9571659624745
 20
-141.8707100135967
 30
0.0
  0
ENDBLK
  5
106
330
103
100
AcDbEntity
  8
0
100
AcDbBlockEnd
  0
BLOCK
  5
10B
330
109
100
AcDbEntity
  8
0
100
AcDbBlockBegin
  2
Block_10
 70
     0
 10
0.0
 20
0.0
 30
0.0
  3
Block_10
  1

  0
SPLINE
  5
10D
330
109
100
AcDbEntity
  8
レイヤー 1
 62
   250
420
  2299925
370
     9
100
AcDbSpline
210
0.0
220
0.0
230
1.0
 70
     9
 71
     3
 72
    17
 73
    13
 74
     0
 42
0.0000000001
 43
0.0000000001
 40
0.0
 40
0.0
 40
0.0
 40
0.0
 40
1.0
 40
1.0
 40
1.0
 40
2.0
 40
2.0
 40
2.0
 40
3.0
 40
3.0
 40
3.0
 40
4.0
 40
4.0
 40
4.0
 40
4.0
 10
133.4703679193382
 20
-140.7038622655877
 30
0.0
 10
133.4703679193382
 20
-140.8912902104034
 30
0.0
 10
133.2188726479766
 20
-141.0435519791437
 30
0.0
 10
132.9088162669979
 20
-141.0435519791437
 30
0.0
 10
132.5994301637799
 20
-141.0435519791437
 30
0.0
 10
132.3479701701952
 20
-140.8912902104034
 30
0.0
 10
132.3479701701952
 20
-140.7038622655877
 30
0.0
 10
132.3479701701952
 20
-140.516466714813
 30
0.0
 10
132.5994301637799
 20
-140.3641725520317
 30
0.0
 10
132.9088162669979
 20
-140.3641725520317
 30
0.0
 10
133.2188726479766
 20
-140.3641725520317
 30
0.0
 10
133.4703679193382
 20
-140.516466714813
 30
0.0
 10
133.4703679193382
 20
-140.7038622655877
 30
0.0
  0
SPLINE
  5
10E
330
109
100
AcDbEntity
  8
レイヤー 1
 62
   250
420
  2299925
370
     9
100
AcDbSpline
210
0.0
220
0.0
230
1.0
 70
     8
 71
     3
 72
    11
 73
     7
 74
     0
 42
0.0000000001
 43
0.0000000001
 40
0.0
 40
0.0
 40
0.0
 40
0.0
 40
1.0
 40
1.0
 40
1.0
 40
2.0
 40
2.0
 40
2.0
 40
2.0
 10
132.3923848912843
 20
-140.8216900403594
 30
0.0
 10
132.3923848912843
 20
-140.8216900403594
 30
0.0
 10
132.4358118346208
 20
-140.5560836582467
 30
0.0
 10
132.864366268132
 20
-140.4975225486296
 30
0.0
 10
132.864366268132
 20
-140.4975225486296
 30
0.0
 10
133.3670040330864
 20
-140.452366994226
 30
0.0
 10
133.4259179204722
 20
-140.8361539288793
 30
0.0
  0
ENDBLK
  5
10C
330
109
100
AcDbEntity
  8
0
100
AcDbBlockEnd
  0
BLOCK
  5
111
330
10F
100
AcDbEntity
  8
0
100
AcDbBlockBegin
  2
Block_11
 70
     0
 10
0.0
 20
0.0
 30
0.0
  3
Block_11
  1

  0
SPLINE
  5
113
330
10F
100
AcDbEntity
  8
レイヤー 1
 62
   250
420
  2299925
370
     9
100
AcDbSpline
210
0.0
220
0.0
230
1.0
 70
     9
 71
     3
 72
    17
 73
    13
 74
     0
 42
0.0000000001
 43
0.0000000001
 40
0.0
 40
0.0
 40
0.0
 40
0.0
 40
1.0
 40
1.0
 40
1.0
 40
2.0
 40
2.0
 40
2.0
 40
3.0
 40
3.0
 40
3.0
 40
4.0
 40
4.0
 40
4.0
 40
4.0
 10
135.2566604400622
 20
-140.9694686477004
 30
0.0
 10
135.2566604400622
 20
-141.1565466984832
 30
0.0
 10
135.0055156579511
 20
-141.3095111390255
 30
0.0
 10
134.6954239991956
 20
-141.3095111390255
 30
0.0
 10
134.3857203959856
 20
-141.3095111390255
 30
0.0
 10
134.134225124624
 20
-141.1565466984832
 30
0.0
 10
134.134225124624
 20
-140.9694686477004
 30
0.0
 10
134.134225124624
 20
-140.7817203191569
 30
0.0
 10
134.3857203959856
 20
-140.6294614341525
 30
0.0
 10
134.6954239991956
 20
-140.6294614341525
 30
0.0
 10
135.0055156579511
 20
-140.6294614341525
 30
0.0
 10
135.2566604400622
 20
-140.7817203191569
 30
0.0
 10
135.2566604400622
 20
-140.9694686477004
 30
0.0
  0
SPLINE
  5
114
330
10F
100
AcDbEntity
  8
レイヤー 1
 62
   250
420
  2299925
370
     9
100
AcDbSpline
210
0.0
220
0.0
230
1.0
 70
     8
 71
     3
 72
    11
 73
     7
 74
     0
 42
0.0000000001
 43
0.0000000001
 40
0.0
 40
0.0
 40
0.0
 40
0.0
 40
1.0
 40
1.0
 40
1.0
 40
2.0
 40
2.0
 40
2.0
 40
2.0
 10
134.17867512349
 20
-141.0876492002409
 30
0.0
 10
134.17867512349
 20
-141.0876492002409
 30
0.0
 10
134.2224195668185
 20
-140.8216900403594
 30
0.0
 10
134.6506565003377
 20
-140.7634817085111
 30
0.0
 10
134.6506565003377
 20
-140.7634817085111
 30
0.0
 10
135.1529437734209
 20
-140.7183261541076
 30
0.0
 10
135.2118576622955
 20
-141.1021130887608
 30
0.0
  0
ENDBLK
  5
112
330
10F
100
AcDbEntity
  8
0
100
AcDbBlockEnd
  0
BLOCK
  5
117
330
115
100
AcDbEntity
  8
0
100
AcDbBlockBegin
  2
Block_12
 70
     0
 10
0.0
 20
0.0
 30
0.0
  3
Block_12
  1

  0
SPLINE
  5
119
330
115
100
AcDbEntity
  8
レイヤー 1
 62
   250
420
  2299925
370
     9
100
AcDbSpline
210
0.0
220
0.0
230
1.0
 70
     9
 71
     3
 72
    17
 73
    13
 74
     0
 42
0.0000000001
 43
0.0000000001
 40
0.0
 40
0.0
 40
0.0
 40
0.0
 40
1.0
 40
1.0
 40
1.0
 40
2.0
 40
2.0
 40
2.0
 40
3.0
 40
3.0
 40
3.0
 40
4.0
 40
4.0
 40
4.0
 40
4.0
 10
134.7257628873104
 20
-139.9359679884199
 30
0.0
 10
134.7257628873104
 20
-140.1237192248328
 30
0.0
 10
134.4739148381801
 20
-140.2756606098454
 30
0.0
 10
134.1645640127389
 20
-140.2756606098454
 30
0.0
 10
133.8545076317602
 20
-140.2756606098454
 30
0.0
 10
133.6030123603986
 20
-140.1237192248328
 30
0.0
 10
133.6030123603986
 20
-139.9359679884199
 30
0.0
 10
133.6030123603986
 20
-139.748187289969
 30
0.0
 10
133.8545076317602
 20
-139.5969485440604
 30
0.0
 10
134.1645640127389
 20
-139.5969485440604
 30
0.0
 10
134.4739148381801
 20
-139.5969485440604
 30
0.0
 10
134.7257628873104
 20
-139.748187289969
 30
0.0
 10
134.7257628873104
 20
-139.9359679884199
 30
0.0
  0
SPLINE
  5
11A
330
115
100
AcDbEntity
  8
レイヤー 1
 62
   250
420
  2299925
370
     9
100
AcDbSpline
210
0.0
220
0.0
230
1.0
 70
     8
 71
     3
 72
    11
 73
     7
 74
     0
 42
0.0000000001
 43
0.0000000001
 40
0.0
 40
0.0
 40
0.0
 40
0.0
 40
1.0
 40
1.0
 40
1.0
 40
2.0
 40
2.0
 40
2.0
 40
2.0
 10
133.6471095814959
 20
-140.0537633932842
 30
0.0
 10
133.6471095814959
 20
-140.0537633932842
 30
0.0
 10
133.6915243025849
 20
-139.7885068773457
 30
0.0
 10
134.1190909583435
 20
-139.729240210694
 30
0.0
 10
134.1190909583435
 20
-139.729240210694
 30
0.0
 10
134.6217287232979
 20
-139.6851429884828
 30
0.0
 10
134.6799370551462
 20
-140.0685800595729
 30
0.0
  0
ENDBLK
  5
118
330
115
100
AcDbEntity
  8
0
100
AcDbBlockEnd
  0
BLOCK
  5
11D
330
11B
100
AcDbEntity
  8
0
100
AcDbBlockBegin
  2
Block_13
 70
     0
 10
0.0
 20
0.0
 30
0.0
  3
Block_13
  1

  0
SPLINE
  5
11F
330
11B
100
AcDbEntity
  8
レイヤー 1
 62
   250
420
  2299925
370
     9
100
AcDbSpline
210
0.0
220
0.0
230
1.0
 70
     9
 71
     3
 72
    17
 73
    13
 74
     0
 42
0.0000000001
 43
0.0000000001
 40
0.0
 40
0.0
 40
0.0
 40
0.0
 40
1.0
 40
1.0
 40
1.0
 40
2.0
 40
2.0
 40
2.0
 40
3.0
 40
3.0
 40
3.0
 40
4.0
 40
4.0
 40
4.0
 40
4.0
 10
136.4676031206502
 20
-140.2308578332106
 30
0.0
 10
136.4676031206502
 20
-140.4182533839853
 30
0.0
 10
136.215402293751
 20
-140.5709003245354
 30
0.0
 10
135.9060514683099
 20
-140.5709003245354
 30
0.0
 10
135.5963478651
 20
-140.5709003245354
 30
0.0
 10
135.3451700937303
 20
-140.4182533839853
 30
0.0
 10
135.3451700937303
 20
-140.2308578332106
 30
0.0
 10
135.3451700937303
 20
-140.0437797824281
 30
0.0
 10
135.5963478651
 20
-139.8911652106538
 30
0.0
 10
135.9060514683099
 20
-139.8911652106538
 30
0.0
 10
136.215402293751
 20
-139.8911652106538
 30
0.0
 10
136.4676031206502
 20
-140.0437797824281
 30
0.0
 10
136.4676031206502
 20
-140.2308578332106
 30
0.0
  0
SPLINE
  5
120
330
11B
100
AcDbEntity
  8
レイヤー 1
 62
   250
420
  2299925
370
     9
100
AcDbSpline
210
0.0
220
0.0
230
1.0
 70
     8
 71
     3
 72
    11
 73
     7
 74
     0
 42
0.0000000001
 43
0.0000000001
 40
0.0
 40
0.0
 40
0.0
 40
0.0
 40
1.0
 40
1.0
 40
1.0
 40
2.0
 40
2.0
 40
2.0
 40
2.0
 10
135.3889521066958
 20
-140.3490383857511
 30
0.0
 10
135.3889521066958
 20
-140.3490383857511
 30
0.0
 10
135.4337173136935
 20
-140.0833967258615
 30
0.0
 10
135.8619542472127
 20
-140.0241624328423
 30
0.0
 10
135.8619542472127
 20
-140.0241624328423
 30
0.0
 10
136.3635689566376
 20
-139.980065210631
 30
0.0
 10
136.4224828440235
 20
-140.3641725520317
 30
0.0
  0
ENDBLK
  5
11E
330
11B
100
AcDbEntity
  8
0
100
AcDbBlockEnd
  0
BLOCK
  5
123
330
121
100
AcDbEntity
  8
0
100
AcDbBlockBegin
  2
Block_14
 70
     0
 10
0.0
 20
0.0
 30
0.0
  3
Block_14
  1

  0
SPLINE
  5
125
330
121
100
AcDbEntity
  8
レイヤー 1
 62
   250
420
  2299925
370
     9
100
AcDbSpline
210
0.0
220
0.0
230
1.0
 70
     9
 71
     3
 72
    17
 73
    13
 74
     0
 42
0.0000000001
 43
0.0000000001
 40
0.0
 40
0.0
 40
0.0
 40
0.0
 40
1.0
 40
1.0
 40
1.0
 40
2.0
 40
2.0
 40
2.0
 40
3.0
 40
3.0
 40
3.0
 40
4.0
 40
4.0
 40
4.0
 40
4.0
 10
135.9356848008872
 20
-139.1973248040226
 30
0.0
 10
135.9356848008872
 20
-139.3857786881037
 30
0.0
 10
135.6845423072944
 20
-139.5377200731162
 30
0.0
 10
135.3744882178101
 20
-139.5377200731162
 30
0.0
 10
135.0647493289985
 20
-139.5377200731162
 30
0.0
 10
134.8136045517361
 20
-139.3857786881037
 30
0.0
 10
134.8136045517361
 20
-139.1973248040226
 30
0.0
 10
134.8136045517361
 20
-139.0105995310086
 30
0.0
 10
135.0647493289985
 20
-138.8586581459961
 30
0.0
 10
135.3744882178101
 20
-138.8586581459961
 30
0.0
 10
135.6845423072944
 20
-138.8586581459961
 30
0.0
 10
135.9356848008872
 20
-139.0105995310086
 30
0.0
 10
135.9356848008872
 20
-139.1973248040226
 30
0.0
  0
SPLINE
  5
126
330
121
100
AcDbEntity
  8
レイヤー 1
 62
   250
420
  2299925
370
     9
100
AcDbSpline
210
0.0
220
0.0
230
1.0
 70
     8
 71
     3
 72
    11
 73
     7
 74
     0
 42
0.0000000001
 43
0.0000000001
 40
0.0
 40
0.0
 40
0.0
 40
0.0
 40
1.0
 40
1.0
 40
1.0
 40
2.0
 40
2.0
 40
2.0
 40
2.0
 10
134.8577017728333
 20
-139.3161756343238
 30
0.0
 10
134.8577017728333
 20
-139.3161756343238
 30
0.0
 10
134.9017989939305
 20
-139.0498636966736
 30
0.0
 10
135.3296854400434
 20
-138.9913025870568
 30
0.0
 10
135.3296854400434
 20
-138.9913025870568
 30
0.0
 10
135.8326736924041
 20
-138.9465350881986
 30
0.0
 10
135.89158757979
 20
-139.3306395228437
 30
0.0
  0
ENDBLK
  5
124
330
121
100
AcDbEntity
  8
0
100
AcDbBlockEnd
  0
BLOCK
  5
129
330
127
100
AcDbEntity
  8
0
100
AcDbBlockBegin
  2
Block_15
 70
     0
 10
0.0
 20
0.0
 30
0.0
  3
Block_15
  1

  0
SPLINE
  5
12B
330
127
100
AcDbEntity
  8
レイヤー 1
 62
   250
420
  2299925
370
     9
100
AcDbSpline
210
0.0
220
0.0
230
1.0
 70
     9
 71
     3
 72
    17
 73
    13
 74
     0
 42
0.0000000001
 43
0.0000000001
 40
0.0
 40
0.0
 40
0.0
 40
0.0
 40
1.0
 40
1.0
 40
1.0
 40
2.0
 40
2.0
 40
2.0
 40
3.0
 40
3.0
 40
3.0
 40
4.0
 40
4.0
 40
4.0
 40
4.0
 10
137.7219750330929
 20
-139.4488200753843
 30
0.0
 10
137.7219750330929
 20
-139.6365684039277
 30
0.0
 10
137.4707972617239
 20
-139.7878013217908
 30
0.0
 10
137.1610936585133
 20
-139.7878013217908
 30
0.0
 10
136.8513900553034
 20
-139.7878013217908
 30
0.0
 10
136.6002475617106
 20
-139.6365684039277
 30
0.0
 10
136.6002475617106
 20
-139.4488200753843
 30
0.0
 10
136.6002475617106
 20
-139.2617420246014
 30
0.0
 10
136.8513900553034
 20
-139.1091303618282
 30
0.0
 10
137.1610936585133
 20
-139.1091303618282
 30
0.0
 10
137.4707972617239
 20
-139.1091303618282
 30
0.0
 10
137.7219750330929
 20
-139.2617420246014
 30
0.0
 10
137.7219750330929
 20
-139.4488200753843
 30
0.0
  0
SPLINE
  5
12C
330
127
100
AcDbEntity
  8
レイヤー 1
 62
   250
420
  2299925
370
     9
100
AcDbSpline
210
0.0
220
0.0
230
1.0
 70
     8
 71
     3
 72
    11
 73
     7
 74
     0
 42
0.0000000001
 43
0.0000000001
 40
0.0
 40
0.0
 40
0.0
 40
0.0
 40
1.0
 40
1.0
 40
1.0
 40
2.0
 40
2.0
 40
2.0
 40
2.0
 10
136.643992005039
 20
-139.5662950723872
 30
0.0
 10
136.643992005039
 20
-139.5662950723872
 30
0.0
 10
136.6880892261362
 20
-139.3010414680433
 30
0.0
 10
137.1166436596473
 20
-139.2421275806574
 30
0.0
 10
137.1166436596473
 20
-139.2421275806574
 30
0.0
 10
137.6192814246018
 20
-139.1973248040226
 30
0.0
 10
137.6778778119957
 20
-139.5814645164449
 30
0.0
  0
ENDBLK
  5
12A
330
127
100
AcDbEntity
  8
0
100
AcDbBlockEnd
  0
BLOCK
  5
12F
330
12D
100
AcDbEntity
  8
0
100
AcDbBlockBegin
  2
Block_16
 70
     0
 10
0.0
 20
0.0
 30
0.0
  3
Block_16
  1

  0
SPLINE
  5
131
330
12D
100
AcDbEntity
  8
レイヤー 1
 62
   250
420
  2299925
370
     9
100
AcDbSpline
210
0.0
220
0.0
230
1.0
 70
     9
 71
     3
 72
    17
 73
    13
 74
     0
 42
0.0000000001
 43
0.0000000001
 40
0.0
 40
0.0
 40
0.0
 40
0.0
 40
1.0
 40
1.0
 40
1.0
 40
2.0
 40
2.0
 40
2.0
 40
3.0
 40
3.0
 40
3.0
 40
4.0
 40
4.0
 40
4.0
 40
4.0
 10
137.1913972688513
 20
-138.4149342684275
 30
0.0
 10
137.1913972688513
 20
-138.6020123192103
 30
0.0
 10
136.9395844974978
 20
-138.7549767597523
 30
0.0
 10
136.6305511720486
 20
-138.7549767597523
 30
0.0
 10
136.3194717355404
 20
-138.7549767597523
 30
0.0
 10
136.0689995197083
 20
-138.6020123192103
 30
0.0
 10
136.0689995197083
 20
-138.4149342684275
 30
0.0
 10
136.0689995197083
 20
-138.2271859398841
 30
0.0
 10
136.3194717355404
 20
-138.0752445548715
 30
0.0
 10
136.6305511720486
 20
-138.0752445548715
 30
0.0
 10
136.9395844974978
 20
-138.0752445548715
 30
0.0
 10
137.1913972688513
 20
-138.2271859398841
 30
0.0
 10
137.1913972688513
 20
-138.4149342684275
 30
0.0
  0
SPLINE
  5
132
330
12D
100
AcDbEntity
  8
レイヤー 1
 62
   250
420
  2299925
370
     9
100
AcDbSpline
210
0.0
220
0.0
230
1.0
 70
     8
 71
     3
 72
    11
 73
     7
 74
     0
 42
0.0000000001
 43
0.0000000001
 40
0.0
 40
0.0
 40
0.0
 40
0.0
 40
1.0
 40
1.0
 40
1.0
 40
2.0
 40
2.0
 40
2.0
 40
2.0
 10
136.1127439630367
 20
-138.5331148209681
 30
0.0
 10
136.1127439630367
 20
-138.5331148209681
 30
0.0
 10
136.1571939619027
 20
-138.2671556610866
 30
0.0
 10
136.5847253398844
 20
-138.2082417737007
 30
0.0
 10
136.5847253398844
 20
-138.2082417737007
 30
0.0
 10
137.0877158826075
 20
-138.1641445526035
 30
0.0
 10
137.1466297699934
 20
-138.5482842650255
 30
0.0
  0
ENDBLK
  5
130
330
12D
100
AcDbEntity
  8
0
100
AcDbBlockEnd
  0
BLOCK
  5
135
330
133
100
AcDbEntity
  8
0
100
AcDbBlockBegin
  2
Block_17
 70
     0
 10
0.0
 20
0.0
 30
0.0
  3
Block_17
  1

  0
SPLINE
  5
137
330
133
100
AcDbEntity
  8
レイヤー 1
 62
   250
420
  2299925
370
     9
100
AcDbSpline
210
0.0
220
0.0
230
1.0
 70
     9
 71
     3
 72
    17
 73
    13
 74
     0
 42
0.0000000001
 43
0.0000000001
 40
0.0
 40
0.0
 40
0.0
 40
0.0
 40
1.0
 40
1.0
 40
1.0
 40
2.0
 40
2.0
 40
2.0
 40
3.0
 40
3.0
 40
3.0
 40
4.0
 40
4.0
 40
4.0
 40
4.0
 10
138.9177505581417
 20
-138.7105267608863
 30
0.0
 10
138.9177505581417
 20
-138.8976048116691
 30
0.0
 10
138.6669632169872
 20
-139.0498636966736
 30
0.0
 10
138.3572243281762
 20
-139.0498636966736
 30
0.0
 10
138.0471655803522
 20
-139.0498636966736
 30
0.0
 10
137.7960230867594
 20
-138.8976048116691
 30
0.0
 10
137.7960230867594
 20
-138.7105267608863
 30
0.0
 10
137.7960230867594
 20
-138.5234839878804
 30
0.0
 10
138.0471655803522
 20
-138.3708370473303
 30
0.0
 10
138.3572243281762
 20
-138.3708370473303
 30
0.0
 10
138.6669632169872
 20
-138.3708370473303
 30
0.0
 10
138.9177505581417
 20
-138.5234839878804
 30
0.0
 10
138.9177505581417
 20
-138.7105267608863
 30
0.0
  0
SPLINE
  5
138
330
133
100
AcDbEntity
  8
レイヤー 1
 62
   250
420
  2299925
370
     9
100
AcDbSpline
210
0.0
220
0.0
230
1.0
 70
     8
 71
     3
 72
    11
 73
     7
 74
     0
 42
0.0000000001
 43
0.0000000001
 40
0.0
 40
0.0
 40
0.0
 40
0.0
 40
1.0
 40
1.0
 40
1.0
 40
2.0
 40
2.0
 40
2.0
 40
2.0
 10
137.8408258633941
 20
-138.8283545356581
 30
0.0
 10
137.8408258633941
 20
-138.8283545356581
 30
0.0
 10
137.8842175289538
 20
-138.5623953757766
 30
0.0
 10
138.3128072402418
 20
-138.5034814883907
 30
0.0
 10
138.3128072402418
 20
-138.5034814883907
 30
0.0
 10
138.8147394496586
 20
-138.4590314895247
 30
0.0
 10
138.8736533370445
 20
-138.8435239797155
 30
0.0
  0
ENDBLK
  5
136
330
133
100
AcDbEntity
  8
0
100
AcDbBlockEnd
  0
BLOCK
  5
13B
330
139
100
AcDbEntity
  8
0
100
AcDbBlockBegin
  2
Block_18
 70
     0
 10
0.0
 20
0.0
 30
0.0
  3
Block_18
  1

  0
SPLINE
  5
13D
330
139
100
AcDbEntity
  8
レイヤー 1
 62
   250
420
  2299925
370
     9
100
AcDbSpline
210
0.0
220
0.0
230
1.0
 70
     9
 71
     3
 72
    17
 73
    13
 74
     0
 42
0.0000000001
 43
0.0000000001
 40
0.0
 40
0.0
 40
0.0
 40
0.0
 40
1.0
 40
1.0
 40
1.0
 40
2.0
 40
2.0
 40
2.0
 40
3.0
 40
3.0
 40
3.0
 40
4.0
 40
4.0
 40
4.0
 40
4.0
 10
138.3872104392795
 20
-137.6766762317065
 30
0.0
 10
138.3872104392795
 20
-137.8637190047124
 30
0.0
 10
138.1357128003154
 20
-138.0160131674938
 30
0.0
 10
137.8260091971055
 20
-138.0160131674938
 30
0.0
 10
137.515600038358
 20
-138.0160131674938
 30
0.0
 10
137.2648103225339
 20
-137.8637190047124
 30
0.0
 10
137.2648103225339
 20
-137.6766762317065
 30
0.0
 10
137.2648103225339
 20
-137.4892454031549
 30
0.0
 10
137.515600038358
 20
-137.3369865181505
 30
0.0
 10
137.8260091971055
 20
-137.3369865181505
 30
0.0
 10
138.1357128003154
 20
-137.3369865181505
 30
0.0
 10
138.3872104392795
 20
-137.4892454031549
 30
0.0
 10
138.3872104392795
 20
-137.6766762317065
 30
0.0
  0
SPLINE
  5
13E
330
139
100
AcDbEntity
  8
レイヤー 1
 62
   250
420
  2299925
370
     9
100
AcDbSpline
210
0.0
220
0.0
230
1.0
 70
     8
 71
     3
 72
    11
 73
     7
 74
     0
 42
0.0000000001
 43
0.0000000001
 40
0.0
 40
0.0
 40
0.0
 40
0.0
 40
1.0
 40
1.0
 40
1.0
 40
2.0
 40
2.0
 40
2.0
 40
2.0
 10
137.3089075436311
 20
-137.7948215064701
 30
0.0
 10
137.3089075436311
 20
-137.7948215064701
 30
0.0
 10
137.3530047647284
 20
-137.5288623465886
 30
0.0
 10
137.7808536427019
 20
-137.4699484592028
 30
0.0
 10
137.7808536427019
 20
-137.4699484592028
 30
0.0
 10
138.2834937726381
 20
-137.4262040158744
 30
0.0
 10
138.3420877950503
 20
-137.8096381727588
 30
0.0
  0
ENDBLK
  5
13C
330
139
100
AcDbEntity
  8
0
100
AcDbBlockEnd
  0
BLOCK
  5
141
330
13F
100
AcDbEntity
  8
0
100
AcDbBlockBegin
  2
Block_19
 70
     0
 10
0.0
 20
0.0
 30
0.0
  3
Block_19
  1

  0
SPLINE
  5
143
330
13F
100
AcDbEntity
  8
レイヤー 1
 62
   250
420
  2299925
370
     9
100
AcDbSpline
210
0.0
220
0.0
230
1.0
 70
     9
 71
     3
 72
    17
 73
    13
 74
     0
 42
0.0000000001
 43
0.0000000001
 40
0.0
 40
0.0
 40
0.0
 40
0.0
 40
1.0
 40
1.0
 40
1.0
 40
2.0
 40
2.0
 40
2.0
 40
3.0
 40
3.0
 40
3.0
 40
4.0
 40
4.0
 40
4.0
 40
4.0
 10
140.158681637594
 20
-137.9278187252993
 30
0.0
 10
140.158681637594
 20
-138.1152142760743
 30
0.0
 10
139.9075391440012
 20
-138.2671556610866
 30
0.0
 10
139.5974827630225
 20
-138.2671556610866
 30
0.0
 10
139.287073604275
 20
-138.2671556610866
 30
0.0
 10
139.0362486106741
 20
-138.1152142760743
 30
0.0
 10
139.0362486106741
 20
-137.9278187252993
 30
0.0
 10
139.0362486106741
 20
-137.7397176189874
 30
0.0
 10
139.287073604275
 20
-137.5877762339745
 30
0.0
 10
139.5974827630225
 20
-137.5877762339745
 30
0.0
 10
139.9075391440012
 20
-137.5877762339745
 30
0.0
 10
140.158681637594
 20
-137.7397176189874
 30
0.0
 10
140.158681637594
 20
-137.9278187252993
 30
0.0
  0
SPLINE
  5
144
330
13F
100
AcDbEntity
  8
レイヤー 1
 62
   250
420
  2299925
370
     9
100
AcDbSpline
210
0.0
220
0.0
230
1.0
 70
     8
 71
     3
 72
    11
 73
     7
 74
     0
 42
0.0000000001
 43
0.0000000001
 40
0.0
 40
0.0
 40
0.0
 40
0.0
 40
1.0
 40
1.0
 40
1.0
 40
2.0
 40
2.0
 40
2.0
 40
2.0
 10
139.0803458317713
 20
-138.045964000063
 30
0.0
 10
139.0803458317713
 20
-138.045964000063
 30
0.0
 10
139.1247958306373
 20
-137.7803576179503
 30
0.0
 10
139.5526799863878
 20
-137.7210909527956
 30
0.0
 10
139.5526799863878
 20
-137.7210909527956
 30
0.0
 10
140.0549649735734
 20
-137.6766762317065
 30
0.0
 10
140.1138788609593
 20
-138.0607806663516
 30
0.0
  0
ENDBLK
  5
142
330
13F
100
AcDbEntity
  8
0
100
AcDbBlockEnd
  0
BLOCK
  5
147
330
145
100
AcDbEntity
  8
0
100
AcDbBlockBegin
  2
Block_20
 70
     0
 10
0.0
 20
0.0
 30
0.0
  3
Block_20
  1

  0
SPLINE
  5
149
330
145
100
AcDbEntity
  8
レイヤー 1
 62
   250
420
  2299925
370
     9
100
AcDbSpline
210
0.0
220
0.0
230
1.0
 70
     9
 71
     3
 72
    17
 73
    13
 74
     0
 42
0.0000000001
 43
0.0000000001
 40
0.0
 40
0.0
 40
0.0
 40
0.0
 40
1.0
 40
1.0
 40
1.0
 40
2.0
 40
2.0
 40
2.0
 40
3.0
 40
3.0
 40
3.0
 40
4.0
 40
4.0
 40
4.0
 40
4.0
 10
139.6267633178311
 20
-136.8939329183426
 30
0.0
 10
139.6267633178311
 20
-137.0816812468861
 30
0.0
 10
139.3759383242301
 20
-137.2343281874362
 30
0.0
 10
139.0655291654827
 20
-137.2343281874362
 30
0.0
 10
138.7561783400415
 20
-137.2343281874362
 30
0.0
 10
138.5050382170274
 20
-137.0816812468861
 30
0.0
 10
138.5050382170274
 20
-136.8939329183426
 30
0.0
 10
138.5050382170274
 20
-136.7068548675598
 30
0.0
 10
138.7561783400415
 20
-136.5538874337103
 30
0.0
 10
139.0655291654827
 20
-136.5538874337103
 30
0.0
 10
139.3759383242301
 20
-136.5538874337103
 30
0.0
 10
139.6267633178311
 20
-136.7068548675598
 30
0.0
 10
139.6267633178311
 20
-136.8939329183426
 30
0.0
  0
SPLINE
  5
14A
330
145
100
AcDbEntity
  8
レイヤー 1
 62
   250
420
  2299925
370
     9
100
AcDbSpline
210
0.0
220
0.0
230
1.0
 70
     8
 71
     3
 72
    11
 73
     7
 74
     0
 42
0.0000000001
 43
0.0000000001
 40
0.0
 40
0.0
 40
0.0
 40
0.0
 40
1.0
 40
1.0
 40
1.0
 40
2.0
 40
2.0
 40
2.0
 40
2.0
 10
138.5487826614609
 20
-137.0124662486519
 30
0.0
 10
138.5487826614609
 20
-137.0124662486519
 30
0.0
 10
138.5928798836721
 20
-136.7464718109935
 30
0.0
 10
139.0214319443854
 20
-136.6875902114546
 30
0.0
 10
139.0214319443854
 20
-136.6875902114546
 30
0.0
 10
139.523752209348
 20
-136.6431402114657
 30
0.0
 10
139.5826660967339
 20
-137.0272476371637
 30
0.0
  0
ENDBLK
  5
148
330
145
100
AcDbEntity
  8
0
100
AcDbBlockEnd
  0
BLOCK
  5
14D
330
14B
100
AcDbEntity
  8
0
100
AcDbBlockBegin
  2
Block_21
 70
     0
 10
0.0
 20
0.0
 30
0.0
  3
Block_21
  1

  0
SPLINE
  5
14F
330
14B
100
AcDbEntity
  8
レイヤー 1
 62
   250
420
  2299925
370
     9
100
AcDbSpline
210
0.0
220
0.0
230
1.0
 70
     9
 71
     3
 72
    17
 73
    13
 74
     0
 42
0.0000000001
 43
0.0000000001
 40
0.0
 40
0.0
 40
0.0
 40
0.0
 40
1.0
 40
1.0
 40
1.0
 40
2.0
 40
2.0
 40
2.0
 40
3.0
 40
3.0
 40
3.0
 40
4.0
 40
4.0
 40
4.0
 40
4.0
 10
141.3399932741229
 20
-137.1888551330408
 30
0.0
 10
141.3399932741229
 20
-137.376956239353
 30
0.0
 10
141.0884980027613
 20
-137.5285095688199
 30
0.0
 10
140.7787943995514
 20
-137.5285095688199
 30
0.0
 10
140.4690907963415
 20
-137.5285095688199
 30
0.0
 10
140.2168899694423
 20
-137.376956239353
 30
0.0
 10
140.2168899694423
 20
-137.1888551330408
 30
0.0
 10
140.2168899694423
 20
-137.001777082258
 30
0.0
 10
140.4690907963415
 20
-136.8494829194766
 30
0.0
 10
140.7787943995514
 20
-136.8494829194766
 30
0.0
 10
141.0884980027613
 20
-136.8494829194766
 30
0.0
 10
141.3399932741229
 20
-137.001777082258
 30
0.0
 10
141.3399932741229
 20
-137.1888551330408
 30
0.0
  0
SPLINE
  5
150
330
14B
100
AcDbEntity
  8
レイヤー 1
 62
   250
420
  2299925
370
     9
100
AcDbSpline
210
0.0
220
0.0
230
1.0
 70
     8
 71
     3
 72
    11
 73
     7
 74
     0
 42
0.0000000001
 43
0.0000000001
 40
0.0
 40
0.0
 40
0.0
 40
0.0
 40
1.0
 40
1.0
 40
1.0
 40
2.0
 40
2.0
 40
2.0
 40
2.0
 10
140.2616927460771
 20
-137.3073531855732
 30
0.0
 10
140.2616927460771
 20
-137.3073531855732
 30
0.0
 10
140.3054371894055
 20
-137.0424170812212
 30
0.0
 10
140.7343444006854
 20
-136.9828329160746
 30
0.0
 10
140.7343444006854
 20
-136.9828329160746
 30
0.0
 10
141.2359591101104
 20
-136.9383829172086
 30
0.0
 10
141.295225775265
 20
-137.3228401296225
 30
0.0
  0
ENDBLK
  5
14E
330
14B
100
AcDbEntity
  8
0
100
AcDbBlockEnd
  0
BLOCK
  5
153
330
151
100
AcDbEntity
  8
0
100
AcDbBlockBegin
  2
Block_22
 70
     0
 10
0.0
 20
0.0
 30
0.0
  3
Block_22
  1

  0
SPLINE
  5
155
330
151
100
AcDbEntity
  8
レイヤー 1
 62
   250
420
  2299925
370
     9
100
AcDbSpline
210
0.0
220
0.0
230
1.0
 70
     9
 71
     3
 72
    17
 73
    13
 74
     0
 42
0.0000000001
 43
0.0000000001
 40
0.0
 40
0.0
 40
0.0
 40
0.0
 40
1.0
 40
1.0
 40
1.0
 40
2.0
 40
2.0
 40
2.0
 40
3.0
 40
3.0
 40
3.0
 40
4.0
 40
4.0
 40
4.0
 40
4.0
 10
140.8087805098975
 20
-136.1556396038447
 30
0.0
 10
140.8087805098975
 20
-136.3430704323963
 30
0.0
 10
140.5569324607671
 20
-136.4960318781693
 30
0.0
 10
140.2472288575572
 20
-136.4960318781693
 30
0.0
 10
139.9368196988097
 20
-136.4960318781693
 30
0.0
 10
139.6859947052088
 20
-136.3430704323963
 30
0.0
 10
139.6859947052088
 20
-136.1556396038447
 30
0.0
 10
139.6859947052088
 20
-135.9689143308307
 30
0.0
 10
139.9368196988097
 20
-135.8156323902968
 30
0.0
 10
140.2472288575572
 20
-135.8156323902968
 30
0.0
 10
140.5569324607671
 20
-135.8156323902968
 30
0.0
 10
140.8087805098975
 20
-135.9689143308307
 30
0.0
 10
140.8087805098975
 20
-136.1556396038447
 30
0.0
  0
SPLINE
  5
156
330
151
100
AcDbEntity
  8
レイヤー 1
 62
   250
420
  2299925
370
     9
100
AcDbSpline
210
0.0
220
0.0
230
1.0
 70
     8
 71
     3
 72
    11
 73
     7
 74
     0
 42
0.0000000001
 43
0.0000000001
 40
0.0
 40
0.0
 40
0.0
 40
0.0
 40
1.0
 40
1.0
 40
1.0
 40
2.0
 40
2.0
 40
2.0
 40
2.0
 10
139.7307974818436
 20
-136.274172934154
 30
0.0
 10
139.7307974818436
 20
-136.274172934154
 30
0.0
 10
139.7741891474039
 20
-136.0078609965038
 30
0.0
 10
140.2020733031537
 20
-135.9492998868867
 30
0.0
 10
140.2020733031537
 20
-135.9492998868867
 30
0.0
 10
140.7047110681081
 20
-135.9044971102519
 30
0.0
 10
140.7629546777333
 20
-136.2886368226739
 30
0.0
  0
ENDBLK
  5
154
330
151
100
AcDbEntity
  8
0
100
AcDbBlockEnd
  0
BLOCK
  5
159
330
157
100
AcDbEntity
  8
0
100
AcDbBlockBegin
  2
Block_23
 70
     0
 10
0.0
 20
0.0
 30
0.0
  3
Block_23
  1

  0
SPLINE
  5
15B
330
157
100
AcDbEntity
  8
レイヤー 1
 62
   250
420
  2299925
370
     9
100
AcDbSpline
210
0.0
220
0.0
230
1.0
 70
     9
 71
     3
 72
    17
 73
    13
 74
     0
 42
0.0000000001
 43
0.0000000001
 40
0.0
 40
0.0
 40
0.0
 40
0.0
 40
1.0
 40
1.0
 40
1.0
 40
2.0
 40
2.0
 40
2.0
 40
3.0
 40
3.0
 40
3.0
 40
4.0
 40
4.0
 40
4.0
 40
4.0
 10
144.7795765197052
 20
-141.9289536232219
 30
0.0
 10
144.7795765197052
 20
-142.1167019517653
 30
0.0
 10
144.5284340261124
 20
-142.2686433367779
 30
0.0
 10
144.2187304229024
 20
-142.2686433367779
 30
0.0
 10
143.9086740419238
 20
-142.2686433367779
 30
0.0
 10
143.6578490483228
 20
-142.1167019517653
 30
0.0
 10
143.6578490483228
 20
-141.9289536232219
 30
0.0
 10
143.6578490483228
 20
-141.7415227946706
 30
0.0
 10
143.9086740419238
 20
-141.5896166874347
 30
0.0
 10
144.2187304229024
 20
-141.5896166874347
 30
0.0
 10
144.5284340261124
 20
-141.5896166874347
 30
0.0
 10
144.7795765197052
 20
-141.7415227946706
 30
0.0
 10
144.7795765197052
 20
-141.9289536232219
 30
0.0
  0
SPLINE
  5
15C
330
157
100
AcDbEntity
  8
レイヤー 1
 62
   250
420
  2299925
370
     9
100
AcDbSpline
210
0.0
220
0.0
230
1.0
 70
     8
 71
     3
 72
    11
 73
     7
 74
     0
 42
0.0000000001
 43
0.0000000001
 40
0.0
 40
0.0
 40
0.0
 40
0.0
 40
1.0
 40
1.0
 40
1.0
 40
2.0
 40
2.0
 40
2.0
 40
2.0
 10
143.70194626942
 20
-142.0478044535231
 30
0.0
 10
143.70194626942
 20
-142.0478044535231
 30
0.0
 10
143.7460434905172
 20
-141.7818452936416
 30
0.0
 10
144.1742804240365
 20
-141.7229314062557
 30
0.0
 10
144.1742804240365
 20
-141.7229314062557
 30
0.0
 10
144.6758951334614
 20
-141.6784814073897
 30
0.0
 10
144.7358320763767
 20
-142.0619155642742
 30
0.0
  0
ENDBLK
  5
15A
330
157
100
AcDbEntity
  8
0
100
AcDbBlockEnd
  0
BLOCK
  5
15F
330
15D
100
AcDbEntity
  8
0
100
AcDbBlockBegin
  2
Block_24
 70
     0
 10
0.0
 20
0.0
 30
0.0
  3
Block_24
  1

  0
SPLINE
  5
161
330
15D
100
AcDbEntity
  8
レイヤー 1
 62
   250
420
  2299925
370
     9
100
AcDbSpline
210
0.0
220
0.0
230
1.0
 70
     9
 71
     3
 72
    17
 73
    13
 74
     0
 42
0.0000000001
 43
0.0000000001
 40
0.0
 40
0.0
 40
0.0
 40
0.0
 40
1.0
 40
1.0
 40
1.0
 40
2.0
 40
2.0
 40
2.0
 40
3.0
 40
3.0
 40
3.0
 40
4.0
 40
4.0
 40
4.0
 40
4.0
 10
144.2476581999422
 20
-140.8957733718027
 30
0.0
 10
144.2476581999422
 20
-141.0828161448087
 30
0.0
 10
143.9975387618789
 20
-141.23511030759
 30
0.0
 10
143.6868121031395
 20
-141.23511030759
 30
0.0
 10
143.3774259999215
 20
-141.23511030759
 30
0.0
 10
143.1259307285599
 20
-141.0828161448087
 30
0.0
 10
143.1259307285599
 20
-140.8957733718027
 30
0.0
 10
143.1259307285599
 20
-140.7079897654823
 30
0.0
 10
143.3774259999215
 20
-140.5560836582467
 30
0.0
 10
143.6868121031395
 20
-140.5560836582467
 30
0.0
 10
143.9975387618789
 20
-140.5560836582467
 30
0.0
 10
144.2476581999422
 20
-140.7079897654823
 30
0.0
 10
144.2476581999422
 20
-140.8957733718027
 30
0.0
  0
SPLINE
  5
162
330
15D
100
AcDbEntity
  8
レイヤー 1
 62
   250
420
  2299925
370
     9
100
AcDbSpline
210
0.0
220
0.0
230
1.0
 70
     8
 71
     3
 72
    11
 73
     7
 74
     0
 42
0.0000000001
 43
0.0000000001
 40
0.0
 40
0.0
 40
0.0
 40
0.0
 40
1.0
 40
1.0
 40
1.0
 40
2.0
 40
2.0
 40
2.0
 40
2.0
 10
143.170027949657
 20
-141.0135658687976
 30
0.0
 10
143.170027949657
 20
-141.0135658687976
 30
0.0
 10
143.214477948523
 20
-140.7479594866849
 30
0.0
 10
143.6427148820423
 20
-140.6886928215302
 30
0.0
 10
143.6427148820423
 20
-140.6886928215302
 30
0.0
 10
144.1446470914591
 20
-140.6449483782018
 30
0.0
 10
144.203560978845
 20
-141.0280650350943
 30
0.0
  0
ENDBLK
  5
160
330
15D
100
AcDbEntity
  8
0
100
AcDbBlockEnd
  0
BLOCK
  5
165
330
163
100
AcDbEntity
  8
0
100
AcDbBlockBegin
  2
Block_25
 70
     0
 10
0.0
 20
0.0
 30
0.0
  3
Block_25
  1

  0
SPLINE
  5
167
330
163
100
AcDbEntity
  8
レイヤー 1
 62
   250
420
  2299925
370
     9
100
AcDbSpline
210
0.0
220
0.0
230
1.0
 70
     9
 71
     3
 72
    17
 73
    13
 74
     0
 42
0.0000000001
 43
0.0000000001
 40
0.0
 40
0.0
 40
0.0
 40
0.0
 40
1.0
 40
1.0
 40
1.0
 40
2.0
 40
2.0
 40
2.0
 40
3.0
 40
3.0
 40
3.0
 40
4.0
 40
4.0
 40
4.0
 40
4.0
 10
143.5834482168876
 20
-142.6820283262316
 30
0.0
 10
143.5834482168876
 20
-142.8691063770144
 30
0.0
 10
143.3326232232867
 20
-143.0210477620269
 30
0.0
 10
143.0232723978456
 20
-143.0210477620269
 30
0.0
 10
142.7125104613293
 20
-143.0210477620269
 30
0.0
 10
142.4617207455053
 20
-142.8691063770144
 30
0.0
 10
142.4617207455053
 20
-142.6820283262316
 30
0.0
 10
142.4617207455053
 20
-142.4946327754569
 30
0.0
 10
142.7125104613293
 20
-142.3423386126756
 30
0.0
 10
143.0232723978456
 20
-142.3423386126756
 30
0.0
 10
143.3326232232867
 20
-142.3423386126756
 30
0.0
 10
143.5834482168876
 20
-142.4946327754569
 30
0.0
 10
143.5834482168876
 20
-142.6820283262316
 30
0.0
  0
SPLINE
  5
168
330
163
100
AcDbEntity
  8
レイヤー 1
 62
   250
420
  2299925
370
     9
100
AcDbSpline
210
0.0
220
0.0
230
1.0
 70
     8
 71
     3
 72
    11
 73
     7
 74
     0
 42
0.0000000001
 43
0.0000000001
 40
0.0
 40
0.0
 40
0.0
 40
0.0
 40
1.0
 40
1.0
 40
1.0
 40
2.0
 40
2.0
 40
2.0
 40
2.0
 10
142.5058179666025
 20
-142.7998561010033
 30
0.0
 10
142.5058179666025
 20
-142.7998561010033
 30
0.0
 10
142.5502679654685
 20
-142.5338969411218
 30
0.0
 10
142.9784696212108
 20
-142.474983053736
 30
0.0
 10
142.9784696212108
 20
-142.474983053736
 30
0.0
 10
143.4800843306357
 20
-142.4312386104075
 30
0.0
 10
143.5389982180216
 20
-142.814672767292
 30
0.0
  0
ENDBLK
  5
166
330
163
100
AcDbEntity
  8
0
100
AcDbBlockEnd
  0
BLOCK
  5
16B
330
169
100
AcDbEntity
  8
0
100
AcDbBlockBegin
  2
Block_26
 70
     0
 10
0.0
 20
0.0
 30
0.0
  3
Block_26
  1

  0
SPLINE
  5
16D
330
169
100
AcDbEntity
  8
レイヤー 1
 62
   250
420
  2299925
370
     9
100
AcDbSpline
210
0.0
220
0.0
230
1.0
 70
     9
 71
     3
 72
    17
 73
    13
 74
     0
 42
0.0000000001
 43
0.0000000001
 40
0.0
 40
0.0
 40
0.0
 40
0.0
 40
1.0
 40
1.0
 40
1.0
 40
2.0
 40
2.0
 40
2.0
 40
3.0
 40
3.0
 40
3.0
 40
4.0
 40
4.0
 40
4.0
 40
4.0
 10
143.0529057304229
 20
-141.6481777970517
 30
0.0
 10
143.0529057304229
 20
-141.836278903364
 30
0.0
 10
142.8014104590613
 20
-141.9878675106077
 30
0.0
 10
142.4910013003138
 20
-141.9878675106077
 30
0.0
 10
142.1816504748727
 20
-141.9878675106077
 30
0.0
 10
141.9301576606159
 20
-141.836278903364
 30
0.0
 10
141.9301576606159
 20
-141.6481777970517
 30
0.0
 10
141.9301576606159
 20
-141.4610997462689
 30
0.0
 10
142.1816504748727
 20
-141.3095111390255
 30
0.0
 10
142.4910013003138
 20
-141.3095111390255
 30
0.0
 10
142.8014104590613
 20
-141.3095111390255
 30
0.0
 10
143.0529057304229
 20
-141.4610997462689
 30
0.0
 10
143.0529057304229
 20
-141.6481777970517
 30
0.0
  0
SPLINE
  5
16E
330
169
100
AcDbEntity
  8
レイヤー 1
 62
   250
420
  2299925
370
     9
100
AcDbSpline
210
0.0
220
0.0
230
1.0
 70
     8
 71
     3
 72
    11
 73
     7
 74
     0
 42
0.0000000001
 43
0.0000000001
 40
0.0
 40
0.0
 40
0.0
 40
0.0
 40
1.0
 40
1.0
 40
1.0
 40
2.0
 40
2.0
 40
2.0
 40
2.0
 10
141.9739021050493
 20
-141.7666758495841
 30
0.0
 10
141.9739021050493
 20
-141.7666758495841
 30
0.0
 10
142.0186671456974
 20
-141.5014222452402
 30
0.0
 10
142.4465513014478
 20
-141.4425083578543
 30
0.0
 10
142.4465513014478
 20
-141.4425083578543
 30
0.0
 10
142.9488715664103
 20
-141.3977055812196
 30
0.0
 10
143.0081029537881
 20
-141.7818452936416
 30
0.0
  0
ENDBLK
  5
16C
330
169
100
AcDbEntity
  8
0
100
AcDbBlockEnd
  0
BLOCK
  5
171
330
16F
100
AcDbEntity
  8
0
100
AcDbBlockBegin
  2
Block_27
 70
     0
 10
0.0
 20
0.0
 30
0.0
  3
Block_27
  1

  0
SPLINE
  5
173
330
16F
100
AcDbEntity
  8
レイヤー 1
 62
   250
420
  2299925
370
     9
100
AcDbSpline
210
0.0
220
0.0
230
1.0
 70
     9
 71
     3
 72
    17
 73
    13
 74
     0
 42
0.0000000001
 43
0.0000000001
 40
0.0
 40
0.0
 40
0.0
 40
0.0
 40
1.0
 40
1.0
 40
1.0
 40
2.0
 40
2.0
 40
2.0
 40
3.0
 40
3.0
 40
3.0
 40
4.0
 40
4.0
 40
4.0
 40
4.0
 10
142.3290763044449
 20
-143.4347855292493
 30
0.0
 10
142.3290763044449
 20
-143.6222163578009
 30
0.0
 10
142.0772659939122
 20
-143.7744752428057
 30
0.0
 10
141.7678798828783
 20
-143.7744752428057
 30
0.0
 10
141.4581738266634
 20
-143.7744752428057
 30
0.0
 10
141.2077016108313
 20
-143.6222163578009
 30
0.0
 10
141.2077016108313
 20
-143.4347855292493
 30
0.0
 10
141.2077016108313
 20
-143.2470372007059
 30
0.0
 10
141.4581738266634
 20
-143.0954457654078
 30
0.0
 10
141.7678798828783
 20
-143.0954457654078
 30
0.0
 10
142.0772659939122
 20
-143.0954457654078
 30
0.0
 10
142.3290763044449
 20
-143.2470372007059
 30
0.0
 10
142.3290763044449
 20
-143.4347855292493
 30
0.0
  0
SPLINE
  5
174
330
16F
100
AcDbEntity
  8
レイヤー 1
 62
   250
420
  2299925
370
     9
100
AcDbSpline
210
0.0
220
0.0
230
1.0
 70
     8
 71
     3
 72
    11
 73
     7
 74
     0
 42
0.0000000001
 43
0.0000000001
 40
0.0
 40
0.0
 40
0.0
 40
0.0
 40
1.0
 40
1.0
 40
1.0
 40
2.0
 40
2.0
 40
2.0
 40
2.0
 10
141.2511285541678
 20
-143.5529660817899
 30
0.0
 10
141.2511285541678
 20
-143.5529660817899
 30
0.0
 10
141.295225775265
 20
-143.2876771996691
 30
0.0
 10
141.7237826606671
 20
-143.2284429875969
 30
0.0
 10
141.7237826606671
 20
-143.2284429875969
 30
0.0
 10
142.2257476959699
 20
-143.183992987608
 30
0.0
 10
142.2849790833477
 20
-143.5681355258473
 30
0.0
  0
ENDBLK
  5
172
330
16F
100
AcDbEntity
  8
0
100
AcDbBlockEnd
  0
BLOCK
  5
177
330
175
100
AcDbEntity
  8
0
100
AcDbBlockBegin
  2
Block_28
 70
     0
 10
0.0
 20
0.0
 30
0.0
  3
Block_28
  1

  0
SPLINE
  5
179
330
175
100
AcDbEntity
  8
レイヤー 1
 62
   250
420
  2299925
370
     9
100
AcDbSpline
210
0.0
220
0.0
230
1.0
 70
     9
 71
     3
 72
    17
 73
    13
 74
     0
 42
0.0000000001
 43
0.0000000001
 40
0.0
 40
0.0
 40
0.0
 40
0.0
 40
1.0
 40
1.0
 40
1.0
 40
2.0
 40
2.0
 40
2.0
 40
3.0
 40
3.0
 40
3.0
 40
4.0
 40
4.0
 40
4.0
 40
4.0
 10
141.7975132162045
 20
-142.401958055599
 30
0.0
 10
141.7975132162045
 20
-142.588683328613
 30
0.0
 10
141.5463682688579
 20
-142.7409422136174
 30
0.0
 10
141.2359591101104
 20
-142.7409422136174
 30
0.0
 10
140.9265730068924
 20
-142.7409422136174
 30
0.0
 10
140.6747602355389
 20
-142.588683328613
 30
0.0
 10
140.6747602355389
 20
-142.401958055599
 30
0.0
 10
140.6747602355389
 20
-142.2145272270474
 30
0.0
 10
140.9265730068924
 20
-142.0619155642742
 30
0.0
 10
141.2359591101104
 20
-142.0619155642742
 30
0.0
 10
141.5463682688579
 20
-142.0619155642742
 30
0.0
 10
141.7975132162045
 20
-142.2145272270474
 30
0.0
 10
141.7975132162045
 20
-142.401958055599
 30
0.0
  0
SPLINE
  5
17A
330
175
100
AcDbEntity
  8
レイヤー 1
 62
   250
420
  2299925
370
     9
100
AcDbSpline
210
0.0
220
0.0
230
1.0
 70
     8
 71
     3
 72
    11
 73
     7
 74
     0
 42
0.0000000001
 43
0.0000000001
 40
0.0
 40
0.0
 40
0.0
 40
0.0
 40
1.0
 40
1.0
 40
1.0
 40
2.0
 40
2.0
 40
2.0
 40
2.0
 10
140.7198805121655
 20
-142.5204561081314
 30
0.0
 10
140.7198805121655
 20
-142.5204561081314
 30
0.0
 10
140.7629546777333
 20
-142.2538266704892
 30
0.0
 10
141.1918618890132
 20
-142.1952655608722
 30
0.0
 10
141.1918618890132
 20
-142.1952655608722
 30
0.0
 10
141.6937965495638
 20
-142.1514858397668
 30
0.0
 10
141.7530632162155
 20
-142.5342497188906
 30
0.0
  0
ENDBLK
  5
178
330
175
100
AcDbEntity
  8
0
100
AcDbBlockEnd
  0
BLOCK
  5
17D
330
17B
100
AcDbEntity
  8
0
100
AcDbBlockBegin
  2
Block_29
 70
     0
 10
0.0
 20
0.0
 30
0.0
  3
Block_29
  1

  0
SPLINE
  5
17F
330
17B
100
AcDbEntity
  8
レイヤー 1
 62
   250
420
  2299925
370
     9
100
AcDbSpline
210
0.0
220
0.0
230
1.0
 70
     9
 71
     3
 72
    17
 73
    13
 74
     0
 42
0.0000000001
 43
0.0000000001
 40
0.0
 40
0.0
 40
0.0
 40
0.0
 40
1.0
 40
1.0
 40
1.0
 40
2.0
 40
2.0
 40
2.0
 40
3.0
 40
3.0
 40
3.0
 40
4.0
 40
4.0
 40
4.0
 40
4.0
 10
141.0743868920102
 20
-144.1727260659785
 30
0.0
 10
141.0743868920102
 20
-144.3605068762031
 30
0.0
 10
140.8225388428798
 20
-144.5124157795345
 30
0.0
 10
140.5128352396699
 20
-144.5124157795345
 30
0.0
 10
140.2024260809225
 20
-144.5124157795345
 30
0.0
 10
139.9519538650903
 20
-144.3605068762031
 30
0.0
 10
139.9519538650903
 20
-144.1727260659785
 30
0.0
 10
139.9519538650903
 20
-143.9853305152038
 30
0.0
 10
140.2024260809225
 20
-143.8333891301912
 30
0.0
 10
140.5128352396699
 20
-143.8333891301912
 30
0.0
 10
140.8225388428798
 20
-143.8333891301912
 30
0.0
 10
141.0743868920102
 20
-143.9853305152038
 30
0.0
 10
141.0743868920102
 20
-144.1727260659785
 30
0.0
  0
SPLINE
  5
180
330
17B
100
AcDbEntity
  8
レイヤー 1
 62
   250
420
  2299925
370
     9
100
AcDbSpline
210
0.0
220
0.0
230
1.0
 70
     8
 71
     3
 72
    11
 73
     7
 74
     0
 42
0.0000000001
 43
0.0000000001
 40
0.0
 40
0.0
 40
0.0
 40
0.0
 40
1.0
 40
1.0
 40
1.0
 40
2.0
 40
2.0
 40
2.0
 40
2.0
 10
139.9964038639563
 20
-144.290906618519
 30
0.0
 10
139.9964038639563
 20
-144.290906618519
 30
0.0
 10
140.0405010850535
 20
-144.0256177363982
 30
0.0
 10
140.4687380185727
 20
-143.9663863490204
 30
0.0
 10
140.4687380185727
 20
-143.9663863490204
 30
0.0
 10
140.9706702279902
 20
-143.9219363501544
 30
0.0
 10
141.0299368931442
 20
-144.3060760625764
 30
0.0
  0
ENDBLK
  5
17E
330
17B
100
AcDbEntity
  8
0
100
AcDbBlockEnd
  0
BLOCK
  5
183
330
181
100
AcDbEntity
  8
0
100
AcDbBlockBegin
  2
Block_30
 70
     0
 10
0.0
 20
0.0
 30
0.0
  3
Block_30
  1

  0
SPLINE
  5
185
330
181
100
AcDbEntity
  8
レイヤー 1
 62
   250
420
  2299925
370
     9
100
AcDbSpline
210
0.0
220
0.0
230
1.0
 70
     9
 71
     3
 72
    17
 73
    13
 74
     0
 42
0.0000000001
 43
0.0000000001
 40
0.0
 40
0.0
 40
0.0
 40
0.0
 40
1.0
 40
1.0
 40
1.0
 40
2.0
 40
2.0
 40
2.0
 40
3.0
 40
3.0
 40
3.0
 40
4.0
 40
4.0
 40
4.0
 40
4.0
 10
140.5424685722472
 20
-143.1402485431745
 30
0.0
 10
140.5424685722472
 20
-143.3269766431112
 30
0.0
 10
140.2916435786463
 20
-143.4792355281153
 30
0.0
 10
139.9815871976676
 20
-143.4792355281153
 30
0.0
 10
139.6718835944577
 20
-143.4792355281153
 30
0.0
 10
139.4200355453274
 20
-143.3269766431112
 30
0.0
 10
139.4200355453274
 20
-143.1402485431745
 30
0.0
 10
139.4200355453274
 20
-142.9524677637765
 30
0.0
 10
139.6718835944577
 20
-142.7998561010033
 30
0.0
 10
139.9815871976676
 20
-142.7998561010033
 30
0.0
 10
140.2916435786463
 20
-142.7998561010033
 30
0.0
 10
140.5424685722472
 20
-142.9524677637765
 30
0.0
 10
140.5424685722472
 20
-143.1402485431745
 30
0.0
  0
SPLINE
  5
186
330
181
100
AcDbEntity
  8
レイヤー 1
 62
   250
420
  2299925
370
     9
100
AcDbSpline
210
0.0
220
0.0
230
1.0
 70
     8
 71
     3
 72
    11
 73
     7
 74
     0
 42
0.0000000001
 43
0.0000000001
 40
0.0
 40
0.0
 40
0.0
 40
0.0
 40
1.0
 40
1.0
 40
1.0
 40
2.0
 40
2.0
 40
2.0
 40
2.0
 10
139.4644855441933
 20
-143.2583966448605
 30
0.0
 10
139.4644855441933
 20
-143.2583966448605
 30
0.0
 10
139.5082299875218
 20
-142.9920818765452
 30
0.0
 10
139.9368196988097
 20
-142.9332060976012
 30
0.0
 10
139.9368196988097
 20
-142.9332060976012
 30
0.0
 10
140.439810241533
 20
-142.8894235432375
 30
0.0
 10
140.4980185733812
 20
-143.2721874320304
 30
0.0
  0
ENDBLK
  5
184
330
181
100
AcDbEntity
  8
0
100
AcDbBlockEnd
  0
BLOCK
  5
189
330
187
100
AcDbEntity
  8
0
100
AcDbBlockBegin
  2
Block_31
 70
     0
 10
0.0
 20
0.0
 30
0.0
  3
Block_31
  1

  0
SPLINE
  5
18B
330
187
100
AcDbEntity
  8
レイヤー 1
 62
   250
420
  2299925
370
     9
100
AcDbSpline
210
0.0
220
0.0
230
1.0
 70
     9
 71
     3
 72
    17
 73
    13
 74
     0
 42
0.0000000001
 43
0.0000000001
 40
0.0
 40
0.0
 40
0.0
 40
0.0
 40
1.0
 40
1.0
 40
1.0
 40
2.0
 40
2.0
 40
2.0
 40
3.0
 40
3.0
 40
3.0
 40
4.0
 40
4.0
 40
4.0
 40
4.0
 10
139.863441922904
 20
-144.9406527130537
 30
0.0
 10
139.863441922904
 20
-145.1284010415972
 30
0.0
 10
139.6122641515343
 20
-145.2799896488409
 30
0.0
 10
139.3018902705637
 20
-145.2799896488409
 30
0.0
 10
138.9925041673457
 20
-145.2799896488409
 30
0.0
 10
138.7410088959841
 20
-145.1284010415972
 30
0.0
 10
138.7410088959841
 20
-144.9406527130537
 30
0.0
 10
138.7410088959841
 20
-144.7532218845021
 30
0.0
 10
138.9925041673457
 20
-144.6016332772583
 30
0.0
 10
139.3018902705637
 20
-144.6016332772583
 30
0.0
 10
139.6122641515343
 20
-144.6016332772583
 30
0.0
 10
139.863441922904
 20
-144.7532218845021
 30
0.0
 10
139.863441922904
 20
-144.9406527130537
 30
0.0
  0
SPLINE
  5
18C
330
187
100
AcDbEntity
  8
レイヤー 1
 62
   250
420
  2299925
370
     9
100
AcDbSpline
210
0.0
220
0.0
230
1.0
 70
     8
 71
     3
 72
    11
 73
     7
 74
     0
 42
0.0000000001
 43
0.0000000001
 40
0.0
 40
0.0
 40
0.0
 40
0.0
 40
1.0
 40
1.0
 40
1.0
 40
2.0
 40
2.0
 40
2.0
 40
2.0
 10
138.7858116726188
 20
-145.0591507655861
 30
0.0
 10
138.7858116726188
 20
-145.0591507655861
 30
0.0
 10
138.8295561159473
 20
-144.7931916057046
 30
0.0
 10
139.2577930494665
 20
-144.7342777183188
 30
0.0
 10
139.2577930494665
 20
-144.7342777183188
 30
0.0
 10
139.7593724811146
 20
-144.6905332749903
 30
0.0
 10
139.818991924038
 20
-145.073614654106
 30
0.0
  0
ENDBLK
  5
18A
330
187
100
AcDbEntity
  8
0
100
AcDbBlockEnd
  0
BLOCK
  5
18F
330
18D
100
AcDbEntity
  8
0
100
AcDbBlockBegin
  2
Block_32
 70
     0
 10
0.0
 20
0.0
 30
0.0
  3
Block_32
  1

  0
SPLINE
  5
191
330
18D
100
AcDbEntity
  8
レイヤー 1
 62
   250
420
  2299925
370
     9
100
AcDbSpline
210
0.0
220
0.0
230
1.0
 70
     9
 71
     3
 72
    17
 73
    13
 74
     0
 42
0.0000000001
 43
0.0000000001
 40
0.0
 40
0.0
 40
0.0
 40
0.0
 40
1.0
 40
1.0
 40
1.0
 40
2.0
 40
2.0
 40
2.0
 40
3.0
 40
3.0
 40
3.0
 40
4.0
 40
4.0
 40
4.0
 40
4.0
 10
139.3318411031329
 20
-143.9077899616265
 30
0.0
 10
139.3318411031329
 20
-144.0945124318251
 30
0.0
 10
139.0803458317713
 20
-144.2471621751906
 30
0.0
 10
138.7702894507926
 20
-144.2471621751906
 30
0.0
 10
138.4609409948162
 20
-144.2471621751906
 30
0.0
 10
138.2090905762211
 20
-144.0945124318251
 30
0.0
 10
138.2090905762211
 20
-143.9077899616265
 30
0.0
 10
138.2090905762211
 20
-143.720041633083
 30
0.0
 10
138.4609409948162
 20
-143.5681355258473
 30
0.0
 10
138.7702894507926
 20
-143.5681355258473
 30
0.0
 10
139.0803458317713
 20
-143.5681355258473
 30
0.0
 10
139.3318411031329
 20
-143.720041633083
 30
0.0
 10
139.3318411031329
 20
-143.9077899616265
 30
0.0
  0
SPLINE
  5
192
330
18D
100
AcDbEntity
  8
レイヤー 1
 62
   250
420
  2299925
370
     9
100
AcDbSpline
210
0.0
220
0.0
230
1.0
 70
     8
 71
     3
 72
    11
 73
     7
 74
     0
 42
0.0000000001
 43
0.0000000001
 40
0.0
 40
0.0
 40
0.0
 40
0.0
 40
1.0
 40
1.0
 40
1.0
 40
2.0
 40
2.0
 40
2.0
 40
2.0
 10
138.2545659948681
 20
-144.0256177363982
 30
0.0
 10
138.2545659948681
 20
-144.0256177363982
 30
0.0
 10
138.2979905739531
 20
-143.759658576517
 30
0.0
 10
138.7265450074642
 20
-143.7007446891308
 30
0.0
 10
138.7265450074642
 20
-143.7007446891308
 30
0.0
 10
139.2274541613516
 20
-143.6566474680336
 30
0.0
 10
139.287073604275
 20
-144.0407871804556
 30
0.0
  0
ENDBLK
  5
190
330
18D
100
AcDbEntity
  8
0
100
AcDbBlockEnd
  0
BLOCK
  5
195
330
193
100
AcDbEntity
  8
0
100
AcDbBlockBegin
  2
Block_33
 70
     0
 10
0.0
 20
0.0
 30
0.0
  3
Block_33
  1

  0
SPLINE
  5
197
330
193
100
AcDbEntity
  8
レイヤー 1
 62
   250
420
  2299925
370
     9
100
AcDbSpline
210
0.0
220
0.0
230
1.0
 70
     9
 71
     3
 72
    17
 73
    13
 74
     0
 42
0.0000000001
 43
0.0000000001
 40
0.0
 40
0.0
 40
0.0
 40
0.0
 40
1.0
 40
1.0
 40
1.0
 40
2.0
 40
2.0
 40
2.0
 40
3.0
 40
3.0
 40
3.0
 40
4.0
 40
4.0
 40
4.0
 40
4.0
 10
138.6376826614388
 20
-145.6937274160634
 30
0.0
 10
138.6376826614388
 20
-145.8815110223837
 30
0.0
 10
138.3872104392795
 20
-146.0334171296197
 30
0.0
 10
138.0767989129295
 20
-146.0334171296197
 30
0.0
 10
137.7670953097196
 20
-146.0334171296197
 30
0.0
 10
137.515600038358
 20
-145.8815110223837
 30
0.0
 10
137.515600038358
 20
-145.6937274160634
 30
0.0
 10
137.515600038358
 20
-145.5063290981387
 30
0.0
 10
137.7670953097196
 20
-145.3540729802842
 30
0.0
 10
138.0767989129295
 20
-145.3540729802842
 30
0.0
 10
138.3872104392795
 20
-145.3540729802842
 30
0.0
 10
138.6376826614388
 20
-145.5063290981387
 30
0.0
 10
138.6376826614388
 20
-145.6937274160634
 30
0.0
  0
SPLINE
  5
198
330
193
100
AcDbEntity
  8
レイヤー 1
 62
   250
420
  2299925
370
     9
100
AcDbSpline
210
0.0
220
0.0
230
1.0
 70
     8
 71
     3
 72
    11
 73
     7
 74
     0
 42
0.0000000001
 43
0.0000000001
 40
0.0
 40
0.0
 40
0.0
 40
0.0
 40
1.0
 40
1.0
 40
1.0
 40
2.0
 40
2.0
 40
2.0
 40
2.0
 10
137.560050037224
 20
-145.8122607463727
 30
0.0
 10
137.560050037224
 20
-145.8122607463727
 30
0.0
 10
137.6041472583212
 20
-145.5459488087224
 30
0.0
 10
138.0316786363029
 20
-145.4870349213368
 30
0.0
 10
138.0316786363029
 20
-145.4870349213368
 30
0.0
 10
138.5349866790179
 20
-145.4429377002393
 30
0.0
 10
138.5928798836721
 20
-145.8263718571238
 30
0.0
  0
ENDBLK
  5
196
330
193
100
AcDbEntity
  8
0
100
AcDbBlockEnd
  0
BLOCK
  5
19B
330
199
100
AcDbEntity
  8
0
100
AcDbBlockBegin
  2
Block_34
 70
     0
 10
0.0
 20
0.0
 30
0.0
  3
Block_34
  1

  0
SPLINE
  5
19D
330
199
100
AcDbEntity
  8
レイヤー 1
 62
   250
420
  2299925
370
     9
100
AcDbSpline
210
0.0
220
0.0
230
1.0
 70
     9
 71
     3
 72
    17
 73
    13
 74
     0
 42
0.0000000001
 43
0.0000000001
 40
0.0
 40
0.0
 40
0.0
 40
0.0
 40
1.0
 40
1.0
 40
1.0
 40
2.0
 40
2.0
 40
2.0
 40
3.0
 40
3.0
 40
3.0
 40
4.0
 40
4.0
 40
4.0
 40
4.0
 10
138.1067850232756
 20
-144.6598768868835
 30
0.0
 10
138.1067850232756
 20
-144.8479779931958
 30
0.0
 10
137.855289751914
 20
-144.9999193782083
 30
0.0
 10
137.5455861487041
 20
-144.9999193782083
 30
0.0
 10
137.2351769899566
 20
-144.9999193782083
 30
0.0
 10
136.9840344963638
 20
-144.8479779931958
 30
0.0
 10
136.9840344963638
 20
-144.6598768868835
 30
0.0
 10
136.9840344963638
 20
-144.4731516138695
 30
0.0
 10
137.2351769899566
 20
-144.321210228857
 30
0.0
 10
137.5455861487041
 20
-144.321210228857
 30
0.0
 10
137.855289751914
 20
-144.321210228857
 30
0.0
 10
138.1067850232756
 20
-144.4731516138695
 30
0.0
 10
138.1067850232756
 20
-144.6598768868835
 30
0.0
  0
SPLINE
  5
19E
330
199
100
AcDbEntity
  8
レイヤー 1
 62
   250
420
  2299925
370
     9
100
AcDbSpline
210
0.0
220
0.0
230
1.0
 70
     8
 71
     3
 72
    11
 73
     7
 74
     0
 42
0.0000000001
 43
0.0000000001
 40
0.0
 40
0.0
 40
0.0
 40
0.0
 40
1.0
 40
1.0
 40
1.0
 40
2.0
 40
2.0
 40
2.0
 40
2.0
 10
137.0288019952217
 20
-144.778374939416
 30
0.0
 10
137.0288019952217
 20
-144.778374939416
 30
0.0
 10
137.0725464385501
 20
-144.5124157795345
 30
0.0
 10
137.5004305943006
 20
-144.4538546699174
 30
0.0
 10
137.5004305943006
 20
-144.4538546699174
 30
0.0
 10
138.003068359255
 20
-144.4097574488202
 30
0.0
 10
138.0616294688727
 20
-144.7931916057046
 30
0.0
  0
ENDBLK
  5
19C
330
199
100
AcDbEntity
  8
0
100
AcDbBlockEnd
  0
BLOCK
  5
1A1
330
19F
100
AcDbEntity
  8
0
100
AcDbBlockBegin
  2
Block_35
 70
     0
 10
0.0
 20
0.0
 30
0.0
  3
Block_35
  1

  0
SPLINE
  5
1A3
330
19F
100
AcDbEntity
  8
レイヤー 1
 62
   250
420
  2299925
370
     9
100
AcDbSpline
210
0.0
220
0.0
230
1.0
 70
     9
 71
     3
 72
    17
 73
    13
 74
     0
 42
0.0000000001
 43
0.0000000001
 40
0.0
 40
0.0
 40
0.0
 40
0.0
 40
1.0
 40
1.0
 40
1.0
 40
2.0
 40
2.0
 40
2.0
 40
3.0
 40
3.0
 40
3.0
 40
4.0
 40
4.0
 40
4.0
 40
4.0
 10
137.4122361521061
 20
-146.4468346534588
 30
0.0
 10
137.4122361521061
 20
-146.6339154476328
 30
0.0
 10
137.1610936585133
 20
-146.7861743326372
 30
0.0
 10
136.8513900553034
 20
-146.7861743326372
 30
0.0
 10
136.5416511743166
 20
-146.7861743326372
 30
0.0
 10
136.2901911807319
 20
-146.6339154476328
 30
0.0
 10
136.2901911807319
 20
-146.4468346534588
 30
0.0
 10
136.2901911807319
 20
-146.2587362905377
 30
0.0
 10
136.5416511743166
 20
-146.1075004610627
 30
0.0
 10
136.8513900553034
 20
-146.1075004610627
 30
0.0
 10
137.1610936585133
 20
-146.1075004610627
 30
0.0
 10
137.4122361521061
 20
-146.2587362905377
 30
0.0
 10
137.4122361521061
 20
-146.4468346534588
 30
0.0
  0
SPLINE
  5
1A4
330
19F
100
AcDbEntity
  8
レイヤー 1
 62
   250
420
  2299925
370
     9
100
AcDbSpline
210
0.0
220
0.0
230
1.0
 70
     8
 71
     3
 72
    11
 73
     7
 74
     0
 42
0.0000000001
 43
0.0000000001
 40
0.0
 40
0.0
 40
0.0
 40
0.0
 40
1.0
 40
1.0
 40
1.0
 40
2.0
 40
2.0
 40
2.0
 40
2.0
 10
136.334605901821
 20
-146.5646624312074
 30
0.0
 10
136.334605901821
 20
-146.5646624312074
 30
0.0
 10
136.3787031229182
 20
-146.299058789509
 30
0.0
 10
136.8069400564374
 20
-146.2404976798919
 30
0.0
 10
136.8069400564374
 20
-146.2404976798919
 30
0.0
 10
137.3089075436311
 20
-146.1960476810259
 30
0.0
 10
137.3684917087777
 20
-146.5805048934398
 30
0.0
  0
ENDBLK
  5
1A2
330
19F
100
AcDbEntity
  8
0
100
AcDbBlockEnd
  0
BLOCK
  5
1A7
330
1A5
100
AcDbEntity
  8
0
100
AcDbBlockBegin
  2
Block_36
 70
     0
 10
0.0
 20
0.0
 30
0.0
  3
Block_36
  1

  0
SPLINE
  5
1A9
330
1A5
100
AcDbEntity
  8
レイヤー 1
 62
   250
420
  2299925
370
     9
100
AcDbSpline
210
0.0
220
0.0
230
1.0
 70
     9
 71
     3
 72
    17
 73
    13
 74
     0
 42
0.0000000001
 43
0.0000000001
 40
0.0
 40
0.0
 40
0.0
 40
0.0
 40
1.0
 40
1.0
 40
1.0
 40
2.0
 40
2.0
 40
2.0
 40
3.0
 40
3.0
 40
3.0
 40
4.0
 40
4.0
 40
4.0
 40
4.0
 10
136.8813408878726
 20
-145.4136571454308
 30
0.0
 10
136.8813408878726
 20
-145.6003824184448
 30
0.0
 10
136.6305511720486
 20
-145.7526413034493
 30
0.0
 10
136.3194717355404
 20
-145.7526413034493
 30
0.0
 10
136.0100856323224
 20
-145.7526413034493
 30
0.0
 10
135.7582375831927
 20
-145.6003824184448
 30
0.0
 10
135.7582375831927
 20
-145.4136571454308
 30
0.0
 10
135.7582375831927
 20
-145.2262615946561
 30
0.0
 10
136.0100856323224
 20
-145.073614654106
 30
0.0
 10
136.3194717355404
 20
-145.073614654106
 30
0.0
 10
136.6305511720486
 20
-145.073614654106
 30
0.0
 10
136.8813408878726
 20
-145.2262615946561
 30
0.0
 10
136.8813408878726
 20
-145.4136571454308
 30
0.0
  0
SPLINE
  5
1AA
330
1A5
100
AcDbEntity
  8
レイヤー 1
 62
   250
420
  2299925
370
     9
100
AcDbSpline
210
0.0
220
0.0
230
1.0
 70
     8
 71
     3
 72
    11
 73
     7
 74
     0
 42
0.0000000001
 43
0.0000000001
 40
0.0
 40
0.0
 40
0.0
 40
0.0
 40
1.0
 40
1.0
 40
1.0
 40
2.0
 40
2.0
 40
2.0
 40
2.0
 10
135.8030403598268
 20
-145.5318376979713
 30
0.0
 10
135.8030403598268
 20
-145.5318376979713
 30
0.0
 10
135.8467848031552
 20
-145.265525760321
 30
0.0
 10
136.2750217366744
 20
-145.2062590951664
 30
0.0
 10
136.2750217366744
 20
-145.2062590951664
 30
0.0
 10
136.7780122793976
 20
-145.1631849295987
 30
0.0
 10
136.836220611246
 20
-145.5459488087224
 30
0.0
  0
ENDBLK
  5
1A8
330
1A5
100
AcDbEntity
  8
0
100
AcDbBlockEnd
  0
BLOCK
  5
1AD
330
1AB
100
AcDbEntity
  8
0
100
AcDbBlockBegin
  2
Block_37
 70
     0
 10
0.0
 20
0.0
 30
0.0
  3
Block_37
  1

  0
SPLINE
  5
1AF
330
1AB
100
AcDbEntity
  8
レイヤー 1
 62
   250
420
  2299925
370
     9
100
AcDbSpline
210
0.0
220
0.0
230
1.0
 70
     9
 71
     3
 72
    17
 73
    13
 74
     0
 42
0.0000000001
 43
0.0000000001
 40
0.0
 40
0.0
 40
0.0
 40
0.0
 40
1.0
 40
1.0
 40
1.0
 40
2.0
 40
2.0
 40
2.0
 40
3.0
 40
3.0
 40
3.0
 40
4.0
 40
4.0
 40
4.0
 40
4.0
 10
135.6703959187664
 20
-146.1364282381025
 30
0.0
 10
135.6703959187664
 20
-146.3242118444228
 30
0.0
 10
135.4185854400213
 20
-146.476467986785
 30
0.0
 10
135.1084937734319
 20
-146.476467986785
 30
0.0
 10
134.7991406632162
 20
-146.476467986785
 30
0.0
 10
134.5483509473922
 20
-146.3242118444228
 30
0.0
 10
134.5483509473922
 20
-146.1364282381025
 30
0.0
 10
134.5483509473922
 20
-145.9490326873278
 30
0.0
 10
134.7991406632162
 20
-145.797444080084
 30
0.0
 10
135.1084937734319
 20
-145.797444080084
 30
0.0
 10
135.4185854400213
 20
-145.797444080084
 30
0.0
 10
135.6703959187664
 20
-145.9490326873278
 30
0.0
 10
135.6703959187664
 20
-146.1364282381025
 30
0.0
  0
SPLINE
  5
1B0
330
1AB
100
AcDbEntity
  8
レイヤー 1
 62
   250
420
  2299925
370
     9
100
AcDbSpline
210
0.0
220
0.0
230
1.0
 70
     8
 71
     3
 72
    11
 73
     7
 74
     0
 42
0.0000000001
 43
0.0000000001
 40
0.0
 40
0.0
 40
0.0
 40
0.0
 40
1.0
 40
1.0
 40
1.0
 40
2.0
 40
2.0
 40
2.0
 40
2.0
 10
134.5924481684893
 20
-146.2549615684118
 30
0.0
 10
134.5924481684893
 20
-146.2549615684118
 30
0.0
 10
134.6365453895866
 20
-145.9890024085303
 30
0.0
 10
135.0647493289985
 20
-145.9300885211444
 30
0.0
 10
135.0647493289985
 20
-145.9300885211444
 30
0.0
 10
135.5667145325226
 20
-145.8863088000391
 30
0.0
 10
135.6252756421397
 20
-146.2704457646141
 30
0.0
  0
ENDBLK
  5
1AE
330
1AB
100
AcDbEntity
  8
0
100
AcDbBlockEnd
  0
BLOCK
  5
1B3
330
1B1
100
AcDbEntity
  8
0
100
AcDbBlockBegin
  2
Block_38
 70
     0
 10
0.0
 20
0.0
 30
0.0
  3
Block_38
  1

  0
SPLINE
  5
1B5
330
1B1
100
AcDbEntity
  8
レイヤー 1
 62
   250
420
  2299925
370
     9
100
AcDbSpline
210
0.0
220
0.0
230
1.0
 70
     9
 71
     3
 72
    17
 73
    13
 74
     0
 42
0.0000000001
 43
0.0000000001
 40
0.0
 40
0.0
 40
0.0
 40
0.0
 40
1.0
 40
1.0
 40
1.0
 40
2.0
 40
2.0
 40
2.0
 40
3.0
 40
3.0
 40
3.0
 40
4.0
 40
4.0
 40
4.0
 40
4.0
 10
131.0487954811177
 20
-142.1804488945835
 30
0.0
 10
131.0487954811177
 20
-142.3674916675894
 30
0.0
 10
130.7980057652937
 20
-142.5204561081314
 30
0.0
 10
130.487949384315
 20
-142.5204561081314
 30
0.0
 10
130.1775402255675
 20
-142.5204561081314
 30
0.0
 10
129.9263977319747
 20
-142.3674916675894
 30
0.0
 10
129.9263977319747
 20
-142.1804488945835
 30
0.0
 10
129.9263977319747
 20
-141.9923477882712
 30
0.0
 10
130.1775402255675
 20
-141.8400536254899
 30
0.0
 10
130.487949384315
 20
-141.8400536254899
 30
0.0
 10
130.7980057652937
 20
-141.8400536254899
 30
0.0
 10
131.0487954811177
 20
-141.9923477882712
 30
0.0
 10
131.0487954811177
 20
-142.1804488945835
 30
0.0
  0
SPLINE
  5
1B6
330
1B1
100
AcDbEntity
  8
レイヤー 1
 62
   250
420
  2299925
370
     9
100
AcDbSpline
210
0.0
220
0.0
230
1.0
 70
     8
 71
     3
 72
    11
 73
     7
 74
     0
 42
0.0000000001
 43
0.0000000001
 40
0.0
 40
0.0
 40
0.0
 40
0.0
 40
1.0
 40
1.0
 40
1.0
 40
2.0
 40
2.0
 40
2.0
 40
2.0
 10
129.9711652308326
 20
-142.2979238915864
 30
0.0
 10
129.9711652308326
 20
-142.2979238915864
 30
0.0
 10
130.0149449519379
 20
-142.0326350094656
 30
0.0
 10
130.4431466076802
 20
-141.9734036220878
 30
0.0
 10
130.4431466076802
 20
-141.9734036220878
 30
0.0
 10
130.9454668726427
 20
-141.929306400991
 30
0.0
 10
131.0040279822604
 20
-142.313058057867
 30
0.0
  0
ENDBLK
  5
1B4
330
1B1
100
AcDbEntity
  8
0
100
AcDbBlockEnd
  0
BLOCK
  5
1B9
330
1B7
100
AcDbEntity
  8
0
100
AcDbBlockBegin
  2
Block_39
 70
     0
 10
0.0
 20
0.0
 30
0.0
  3
Block_39
  1

  0
SPLINE
  5
1BB
330
1B7
100
AcDbEntity
  8
レイヤー 1
 62
   250
420
  2299925
370
     9
100
AcDbSpline
210
0.0
220
0.0
230
1.0
 70
     9
 71
     3
 72
    17
 73
    13
 74
     0
 42
0.0000000001
 43
0.0000000001
 40
0.0
 40
0.0
 40
0.0
 40
0.0
 40
1.0
 40
1.0
 40
1.0
 40
2.0
 40
2.0
 40
2.0
 40
3.0
 40
3.0
 40
3.0
 40
4.0
 40
4.0
 40
4.0
 40
4.0
 10
129.8523144005313
 20
-142.9483374321114
 30
0.0
 10
129.8523144005313
 20
-143.1357710924334
 30
0.0
 10
129.6018774624761
 20
-143.2876771996691
 30
0.0
 10
129.2918210814974
 20
-143.2876771996691
 30
0.0
 10
128.9817647005187
 20
-143.2876771996691
 30
0.0
 10
128.730586929149
 20
-143.1357710924334
 30
0.0
 10
128.730586929149
 20
-142.9483374321114
 30
0.0
 10
128.730586929149
 20
-142.7602391575696
 30
0.0
 10
128.9817647005187
 20
-142.6083330503339
 30
0.0
 10
129.2918210814974
 20
-142.6083330503339
 30
0.0
 10
129.6018774624761
 20
-142.6083330503339
 30
0.0
 10
129.8523144005313
 20
-142.7602391575696
 30
0.0
 10
129.8523144005313
 20
-142.9483374321114
 30
0.0
  0
SPLINE
  5
1BC
330
1B7
100
AcDbEntity
  8
レイヤー 1
 62
   250
420
  2299925
370
     9
100
AcDbSpline
210
0.0
220
0.0
230
1.0
 70
     8
 71
     3
 72
    11
 73
     7
 74
     0
 42
0.0000000001
 43
0.0000000001
 40
0.0
 40
0.0
 40
0.0
 40
0.0
 40
1.0
 40
1.0
 40
1.0
 40
2.0
 40
2.0
 40
2.0
 40
2.0
 10
128.7743687750161
 20
-143.0658124320823
 30
0.0
 10
128.7743687750161
 20
-143.0658124320823
 30
0.0
 10
128.8187813713434
 20
-142.7998561010033
 30
0.0
 10
129.2470183048633
 20
-142.7409422136174
 30
0.0
 10
129.2470183048633
 20
-142.7409422136174
 30
0.0
 10
129.7493032920483
 20
-142.6968449925202
 30
0.0
 10
129.8085699572029
 20
-143.0806290987451
 30
0.0
  0
ENDBLK
  5
1BA
330
1B7
100
AcDbEntity
  8
0
100
AcDbBlockEnd
  0
BLOCK
  5
1BF
330
1BD
100
AcDbEntity
  8
0
100
AcDbBlockBegin
  2
Block_40
 70
     0
 10
0.0
 20
0.0
 30
0.0
  3
Block_40
  1

  0
SPLINE
  5
1C1
330
1BD
100
AcDbEntity
  8
レイヤー 1
 62
   250
420
  2299925
370
     9
100
AcDbSpline
210
0.0
220
0.0
230
1.0
 70
     9
 71
     3
 72
    17
 73
    13
 74
     0
 42
0.0000000001
 43
0.0000000001
 40
0.0
 40
0.0
 40
0.0
 40
0.0
 40
1.0
 40
1.0
 40
1.0
 40
2.0
 40
2.0
 40
2.0
 40
3.0
 40
3.0
 40
3.0
 40
4.0
 40
4.0
 40
4.0
 40
4.0
 10
131.565226856832
 20
-143.1988096542714
 30
0.0
 10
131.565226856832
 20
-143.3865608082574
 30
0.0
 10
131.3140843632385
 20
-143.53850219327
 30
0.0
 10
131.0040279822604
 20
-143.53850219327
 30
0.0
 10
130.6946418790418
 20
-143.53850219327
 30
0.0
 10
130.4431466076802
 20
-143.3865608082574
 30
0.0
 10
130.4431466076802
 20
-143.1988096542714
 30
0.0
 10
130.4431466076802
 20
-143.0120872066999
 30
0.0
 10
130.6946418790418
 20
-142.8594755439267
 30
0.0
 10
131.0040279822604
 20
-142.8594755439267
 30
0.0
 10
131.3140843632385
 20
-142.8594755439267
 30
0.0
 10
131.565226856832
 20
-143.0120872066999
 30
0.0
 10
131.565226856832
 20
-143.1988096542714
 30
0.0
  0
SPLINE
  5
1C2
330
1BD
100
AcDbEntity
  8
レイヤー 1
 62
   250
420
  2299925
370
     9
100
AcDbSpline
210
0.0
220
0.0
230
1.0
 70
     8
 71
     3
 72
    11
 73
     7
 74
     0
 42
0.0000000001
 43
0.0000000001
 40
0.0
 40
0.0
 40
0.0
 40
0.0
 40
1.0
 40
1.0
 40
1.0
 40
2.0
 40
2.0
 40
2.0
 40
2.0
 10
130.487949384315
 20
-143.3176633100152
 30
0.0
 10
130.487949384315
 20
-143.3176633100152
 30
0.0
 10
130.5313410498746
 20
-143.0513485431966
 30
0.0
 10
130.9595779833938
 20
-142.9920818765452
 30
0.0
 10
130.9595779833938
 20
-142.9920818765452
 30
0.0
 10
131.4615454705876
 20
-142.9483374321114
 30
0.0
 10
131.5207768579653
 20
-143.3317744207663
 30
0.0
  0
ENDBLK
  5
1C0
330
1BD
100
AcDbEntity
  8
0
100
AcDbBlockEnd
  0
ENDSEC
  0
SECTION
  2
ENTITIES
  0
LINE
  5
79
330
70
100
AcDbEntity
  8
レイヤー 1
 62
   250
420
  2299925
370
    25
100
AcDbLine
 10
61.51919045849638
 20
-148.0856665217066
 30
0.0
 11
87.51898214721164
 21
-148.0856665217066
 31
0.0
  0
LINE
  5
7A
330
70
100
AcDbEntity
  8
レイヤー 1
 62
   250
420
  2299925
370
    25
100
AcDbLine
 10
61.51919045849638
 20
-147.6856870874665
 30
0.0
 11
61.51919045849638
 21
-148.0856665217066
 31
0.0
  0
LINE
  5
7B
330
70
100
AcDbEntity
  8
レイヤー 1
 62
   250
420
  2299925
370
    25
100
AcDbLine
 10
114.5192520139326
 20
-147.6856870874665
 30
0.0
 11
114.5192520139326
 21
-148.0856665217066
 31
0.0
  0
LINE
  5
7C
330
70
100
AcDbEntity
  8
レイヤー 1
 62
   250
420
  2299925
370
    25
100
AcDbLine
 10
91.01920789124646
 20
-147.6856870874665
 30
0.0
 11
91.01920789124646
 21
-148.0856665217066
 31
0.0
  0
LINE
  5
7D
330
70
100
AcDbEntity
  8
レイヤー 1
 62
   250
420
  2299925
370
    25
100
AcDbLine
 10
85.01923415542998
 20
-147.6856870874665
 30
0.0
 11
85.01923415542998
 21
-148.0856665217066
 31
0.0
  0
LINE
  5
7E
330
70
100
AcDbEntity
  8
レイヤー 1
 62
   250
420
  2299925
370
    25
100
AcDbLine
 10
61.51919045849638
 20
-147.6856870874665
 30
0.0
 11
87.51898214721164
 21
-147.6856870874665
 31
0.0
  0
LINE
  5
7F
330
70
100
AcDbEntity
  8
レイヤー 1
 62
   250
420
  2299925
370
    25
100
AcDbLine
 10
88.51910712169633
 20
-148.0856665217066
 30
0.0
 11
114.5192520139326
 21
-148.0856665217066
 31
0.0
  0
LINE
  5
80
330
70
100
AcDbEntity
  8
レイヤー 1
 62
   250
420
  2299925
370
    25
100
AcDbLine
 10
88.51910712169633
 20
-147.6856870874665
 30
0.0
 11
114.5192520139326
 21
-147.6856870874665
 31
0.0
  0
LINE
  5
81
330
70
100
AcDbEntity
  8
レイヤー 1
  6
AI-Linetype-0
 62
   250
420
  2299925
370
    25
100
AcDbLine
 10
88.42057629087674
 20
-147.5268665359628
 30
0.0
 11
112.8525181675656
 21
-138.6343973183841
 31
0.0
  0
LINE
  5
83
330
70
100
AcDbEntity
  8
レイヤー 1
  6
AI-Linetype-1
 62
   250
420
  2299925
370
    25
100
AcDbLine
 10
63.0488349025585
 20
-156.761459633702
 30
0.0
 11
87.48074103707615
 21
-147.8686376383546
 31
0.0
  0
LINE
  5
85
330
70
100
AcDbEntity
  8
レイヤー 1
  6
AI-Linetype-2
 62
   250
420
  2299925
370
    25
100
AcDbLine
 10
88.55734934062585
 20
-147.9023957642062
 30
0.0
 11
112.9892901085207
 21
-139.0099263219847
 31
0.0
  0
LINE
  5
87
330
70
100
AcDbEntity
  8
レイヤー 1
  6
AI-Linetype-3
 62
   250
420
  2299925
370
    25
100
AcDbLine
 10
90.76979400872097
 20
-146.6718037799995
 30
0.0
 11
90.90656594967608
 21
-147.0473357148633
 31
0.0
  0
LINE
  5
89
330
70
100
AcDbEntity
  8
レイヤー 1
  6
AI-Linetype-4
 62
   250
420
  2299925
370
    25
100
AcDbLine
 10
85.13155859700878
 20
-148.7237003943179
 30
0.0
 11
85.26864803795579
 21
-149.0995498291736
 31
0.0
  0
LINE
  5
8B
330
70
100
AcDbEntity
  8
レイヤー 1
  6
AI-Linetype-5
 62
   250
420
  2299925
370
    25
100
AcDbLine
 10
63.0488349025585
 20
-156.761459633702
 30
0.0
 11
63.18560684696851
 21
-157.1373090685577
 31
0.0
  0
LINE
  5
8D
330
70
100
AcDbEntity
  8
レイヤー 1
  6
AI-Linetype-6
 62
   250
420
  2299925
370
    25
100
AcDbLine
 10
63.18560684696851
 20
-157.1373090685577
 30
0.0
 11
87.61751297803126
 21
-148.2444870732103
 31
0.0
  0
LINE
  5
8F
330
70
100
AcDbEntity
  8
レイヤー 1
  6
AI-Linetype-7
 62
   250
420
  2299925
370
    25
100
AcDbLine
 10
112.8525181675656
 20
-138.6343973183841
 30
0.0
 11
112.9892901085207
 21
-139.0099263219847
 31
0.0
  0
LINE
  5
91
330
70
100
AcDbEntity
  8
レイヤー 1
  6
AI-Linetype-8
 62
   154
420
    23468
370
    25
100
AcDbLine
 10
62.01907656948265
 20
-149.0857914961913
 30
0.0
 11
82.01924728752159
 21
-149.0857914961913
 31
0.0
  0
LINE
  5
93
330
70
100
AcDbEntity
  8
レイヤー 1
  6
AI-Linetype-9
 62
   154
420
    23468
370
    25
100
AcDbLine
 10
114.0190131378059
 20
-149.0857914961913
 30
0.0
 11
94.01919475915518
 21
-149.0857914961913
 31
0.0
  0
LINE
  5
95
330
70
100
AcDbEntity
  8
レイヤー 1
 62
   250
420
  2299925
370
     9
100
AcDbLine
 10
66.43913517948849
 20
-150.5209972929095
 30
0.0
 11
66.08498156846602
 21
-149.5856775945492
 31
0.0
  0
LINE
  5
96
330
70
100
AcDbEntity
  8
レイヤー 1
 62
   250
420
  2299925
370
     9
100
AcDbLine
 10
65.92376212406175
 20
-150.5726792360354
 30
0.0
 11
66.08498156846602
 21
-149.5856775945492
 31
0.0
  0
LINE
  5
97
330
70
100
AcDbEntity
  8
レイヤー 1
 62
   250
420
  2299925
370
     9
100
AcDbLine
 10
67.11713879043019
 20
-154.7484744072798
 30
0.0
 11
66.58867767945134
 21
-153.8992652071513
 31
0.0
  0
LINE
  5
98
330
70
100
AcDbEntity
  8
レイヤー 1
 62
   250
420
  2299925
370
     9
100
AcDbLine
 10
67.11713879043019
 20
-154.7484744072798
 30
0.0
 11
67.08408351266055
 21
-153.7490549883326
 31
0.0
  0
LINE
  5
99
330
70
100
AcDbEntity
  8
レイヤー 1
 62
   250
420
  2299925
370
     9
100
AcDbLine
 10
109.7577751909635
 20
-147.6174951447618
 30
0.0
 11
110.0078946290269
 21
-148.5855526200646
 31
0.0
  0
LINE
  5
9A
330
70
100
AcDbEntity
  8
レイヤー 1
 62
   250
420
  2299925
370
     9
100
AcDbLine
 10
110.2755823999754
 20
-147.6219754224253
 30
0.0
 11
110.0078946290269
 21
-148.5855526200646
 31
0.0
  0
LINE
  5
9B
330
70
100
AcDbEntity
  8
レイヤー 1
 62
   250
420
  2299925
370
     9
100
AcDbLine
 10
109.5445210297374
 20
-143.341087753862
 30
0.0
 11
109.9768854631514
 21
-144.242999397519
 31
0.0
  0
LINE
  5
9C
330
70
100
AcDbEntity
  8
レイヤー 1
 62
   250
420
  2299925
370
     9
100
AcDbLine
 10
109.5445210297374
 20
-143.341087753862
 30
0.0
 11
109.4680388094664
 21
-144.3381082839814
 31
0.0
  0
LINE
  5
9D
330
70
100
AcDbEntity
  8
レイヤー 1
 62
   250
420
  2299925
370
     9
100
AcDbLine
 10
100.3654198750272
 20
-149.5856775945492
 30
0.0
 11
100.3654198750272
 21
-152.8364541782817
 31
0.0
  0
LINE
  5
9E
330
70
100
AcDbEntity
  8
レイヤー 1
 62
   250
420
  2299925
370
     9
100
AcDbLine
 10
100.3654198750272
 20
-149.5856775945492
 30
0.0
 11
100.6241470906488
 21
-150.5516889587931
 31
0.0
  0
LINE
  5
9F
330
70
100
AcDbEntity
  8
レイヤー 1
 62
   250
420
  2299925
370
     9
100
AcDbLine
 10
100.3654198750272
 20
-149.5856775945492
 30
0.0
 11
100.1066926594057
 21
-150.5516889587931
 31
0.0
  0
SPLINE
  5
A0
330
70
100
AcDbEntity
  8
レイヤー 1
 62
   250
420
  2299925
370
    25
100
AcDbSpline
210
0.0
220
0.0
230
1.0
 70
     8
 71
     3
 72
     8
 73
     4
 74
     0
 42
0.0000000001
 43
0.0000000001
 40
0.0
 40
0.0
 40
0.0
 40
0.0
 40
1.0
 40
1.0
 40
1.0
 40
1.0
 10
88.51910712169633
 20
-148.0856665217066
 30
0.0
 10
88.19906712986092
 20
-147.9523518028855
 30
0.0
 10
87.8390574168233
 20
-147.9523518028855
 30
0.0
 10
87.51898214721164
 20
-148.0856665217066
 30
0.0
  0
SPLINE
  5
A1
330
70
100
AcDbEntity
  8
レイヤー 1
 62
   250
420
  2299925
370
    25
100
AcDbSpline
210
0.0
220
0.0
230
1.0
 70
     8
 71
     3
 72
     8
 73
     4
 74
     0
 42
0.0000000001
 43
0.0000000001
 40
0.0
 40
0.0
 40
0.0
 40
0.0
 40
1.0
 40
1.0
 40
1.0
 40
1.0
 10
87.51898214721164
 20
-147.6856870874665
 30
0.0
 10
87.8390574168233
 20
-147.8190370840644
 30
0.0
 10
88.19906712986092
 20
-147.8190370840644
 30
0.0
 10
88.51910712169633
 20
-147.6856870874665
 30
0.0
  0
SPLINE
  5
A2
330
70
100
AcDbEntity
  8
レイヤー 1
 62
   250
420
  2299925
370
     9
100
AcDbSpline
210
0.0
220
0.0
230
1.0
 70
     8
 71
     3
 72
     8
 73
     4
 74
     0
 42
0.0000000001
 43
0.0000000001
 40
0.0
 40
0.0
 40
0.0
 40
0.0
 40
1.0
 40
1.0
 40
1.0
 40
1.0
 10
66.08498156846602
 20
-149.5856775945492
 30
0.0
 10
66.2207304573209
 20
-151.3416263189018
 30
0.0
 10
66.56729934612311
 20
-153.0752141721904
 30
0.0
 10
67.11713879043019
 20
-154.7484744072798
 30
0.0
  0
SPLINE
  5
A3
330
70
100
AcDbEntity
  8
レイヤー 1
 62
   250
420
  2299925
370
     9
100
AcDbSpline
210
0.0
220
0.0
230
1.0
 70
     8
 71
     3
 72
     8
 73
     4
 74
     0
 42
0.0000000001
 43
0.0000000001
 40
0.0
 40
0.0
 40
0.0
 40
0.0
 40
1.0
 40
1.0
 40
1.0
 40
1.0
 10
110.0078946290269
 20
-148.5855526200646
 30
0.0
 10
110.0640568498163
 20
-146.825473776079
 30
0.0
 10
109.9083407426779
 20
-145.0643365987872
 30
0.0
 10
109.5445210297374
 20
-143.341087753862
 30
0.0
  0
SPLINE
  5
A4
330
70
100
AcDbEntity
  8
レイヤー 1
 62
   250
420
  2299925
370
     9
100
AcDbSpline
210
0.0
220
0.0
230
1.0
 70
     9
 71
     3
 72
    17
 73
    13
 74
     0
 42
0.0000000001
 43
0.0000000001
 40
0.0
 40
0.0
 40
0.0
 40
0.0
 40
1.0
 40
1.0
 40
1.0
 40
2.0
 40
2.0
 40
2.0
 40
3.0
 40
3.0
 40
3.0
 40
4.0
 40
4.0
 40
4.0
 40
4.0
 10
118.6192352426666
 20
-147.6856870874665
 30
0.0
 10
118.6192352426666
 20
-147.6302304222146
 30
0.0
 10
118.5744677438087
 20
-147.5854629233567
 30
0.0
 10
118.5190110785569
 20
-147.5854629233567
 30
0.0
 10
118.463871913297
 20
-147.5854629233567
 30
0.0
 10
118.4191044144397
 20
-147.6302304222146
 30
0.0
 10
118.4191044144397
 20
-147.6856870874665
 30
0.0
 10
118.4191044144397
 20
-147.7411763198019
 30
0.0
 10
118.463871913297
 20
-147.7855937515843
 30
0.0
 10
118.5190110785569
 20
-147.7855937515843
 30
0.0
 10
118.5744677438087
 20
-147.7855937515843
 30
0.0
 10
118.6192352426666
 20
-147.7411763198019
 30
0.0
 10
118.6192352426666
 20
-147.6856870874665
 30
0.0
  0
SPLINE
  5
A5
330
70
100
AcDbEntity
  8
レイヤー 1
 62
   250
420
  2299925
370
     9
100
AcDbSpline
210
0.0
220
0.0
230
1.0
 70
     9
 71
     3
 72
    17
 73
    13
 74
     0
 42
0.0000000001
 43
0.0000000001
 40
0.0
 40
0.0
 40
0.0
 40
0.0
 40
1.0
 40
1.0
 40
1.0
 40
2.0
 40
2.0
 40
2.0
 40
3.0
 40
3.0
 40
3.0
 40
4.0
 40
4.0
 40
4.0
 40
4.0
 10
118.6192352426666
 20
-148.0856665217066
 30
0.0
 10
118.6192352426666
 20
-148.0305626342235
 30
0.0
 10
118.5744677438087
 20
-147.9857598575888
 30
0.0
 10
118.5190110785569
 20
-147.9857598575888
 30
0.0
 10
118.463871913297
 20
-147.9857598575888
 30
0.0
 10
118.4191044144397
 20
-148.0305626342235
 30
0.0
 10
118.4191044144397
 20
-148.0856665217066
 30
0.0
 10
118.4191044144397
 20
-148.1408056869665
 30
0.0
 10
118.463871913297
 20
-148.1855731858244
 30
0.0
 10
118.5190110785569
 20
-148.1855731858244
 30
0.0
 10
118.5744677438087
 20
-148.1855731858244
 30
0.0
 10
118.6192352426666
 20
-148.1408056869665
 30
0.0
 10
118.6192352426666
 20
-148.0856665217066
 30
0.0
  0
SPLINE
  5
A6
330
70
100
AcDbEntity
  8
レイヤー 1
 62
   250
420
  2299925
370
     9
100
AcDbSpline
210
0.0
220
0.0
230
1.0
 70
     9
 71
     3
 72
    17
 73
    13
 74
     0
 42
0.0000000001
 43
0.0000000001
 40
0.0
 40
0.0
 40
0.0
 40
0.0
 40
1.0
 40
1.0
 40
1.0
 40
2.0
 40
2.0
 40
2.0
 40
3.0
 40
3.0
 40
3.0
 40
4.0
 40
4.0
 40
4.0
 40
4.0
 10
114.6191604452216
 20
-161.0857389678249
 30
0.0
 10
114.6191604452216
 20
-161.0306350803418
 30
0.0
 10
114.5743576674548
 20
-160.9858323037071
 30
0.0
 10
114.5192520139326
 20
-160.9858323037071
 30
0.0
 10
114.4637600709039
 20
-160.9858323037071
 30
0.0
 10
114.418992572046
 20
-161.0306350803418
 30
0.0
 10
114.418992572046
 20
-161.0857389678249
 30
0.0
 10
114.418992572046
 20
-161.1408781330848
 30
0.0
 10
114.4637600709039
 20
-161.1856456319427
 30
0.0
 10
114.5192520139326
 20
-161.1856456319427
 30
0.0
 10
114.5743576674548
 20
-161.1856456319427
 30
0.0
 10
114.6191604452216
 20
-161.1408781330848
 30
0.0
 10
114.6191604452216
 20
-161.0857389678249
 30
0.0
  0
CIRCLE
  5
A7
330
70
100
AcDbEntity
  8
レイヤー 1
 62
   250
420
  2299925
370
     9
100
AcDbCircle
 10
61.51919045849638
 20
-161.0857389678249
 30
0.0
 40
0.0999066653797365
  0
INSERT
  5
A9
330
70
100
AcDbEntity
  8
レイヤー 1
100
AcDbBlockReference
  2
Block_0
 10
0.0
 20
0.0
 30
0.0
  0
LINE
  5
C2
330
70
100
AcDbEntity
  8
レイヤー 1
 62
   250
420
  2299925
370
     9
100
AcDbLine
 10
61.51919045849638
 20
-161.0857389678249
 30
0.0
 11
114.5192520139326
 21
-161.0857389678249
 31
0.0
  0
LINE
  5
C3
330
70
100
AcDbEntity
  8
レイヤー 1
 62
   250
420
  2299925
370
     9
100
AcDbLine
 10
61.51919045849638
 20
-150.6257370124596
 30
0.0
 11
61.51919045849638
 21
-162.0855111645408
 31
0.0
  0
LINE
  5
C4
330
70
100
AcDbEntity
  8
レイヤー 1
 62
   250
420
  2299925
370
     9
100
AcDbLine
 10
114.5192520139326
 20
-150.6257370124596
 30
0.0
 11
114.5192520139326
 21
-162.0855111645408
 31
0.0
  0
INSERT
  5
C6
330
70
100
AcDbEntity
  8
レイヤー 1
100
AcDbBlockReference
  2
Block_2
 10
0.0
 20
0.0
 30
0.0
  0
LINE
  5
D1
330
70
100
AcDbEntity
  8
レイヤー 1
 62
   250
420
  2299925
370
     9
100
AcDbLine
 10
118.5190110785569
 20
-147.6856870874665
 30
0.0
 11
118.5190110785569
 21
-146.5053957645557
 31
0.0
  0
LINE
  5
D2
330
70
100
AcDbEntity
  8
レイヤー 1
 62
   250
420
  2299925
370
     9
100
AcDbLine
 10
118.5190110785569
 20
-149.0857914961913
 30
0.0
 11
118.5190110785569
 21
-147.6856870874665
 31
0.0
  0
LINE
  5
D3
330
70
100
AcDbEntity
  8
レイヤー 1
 62
   250
420
  2299925
370
     9
100
AcDbLine
 10
117.0589715557225
 20
-148.0856665217066
 30
0.0
 11
119.5191007752647
 21
-148.0856665217066
 31
0.0
  0
LINE
  5
D4
330
70
100
AcDbEntity
  8
レイヤー 1
 62
   250
420
  2299925
370
     9
100
AcDbLine
 10
117.0589715557225
 20
-147.6856870874665
 30
0.0
 11
119.5191007752647
 21
-147.6856870874665
 31
0.0
  0
INSERT
  5
D6
330
70
100
AcDbEntity
  8
レイヤー 1
100
AcDbBlockReference
  2
Block_4
 10
0.0
 20
0.0
 30
0.0
  0
INSERT
  5
E6
330
70
100
AcDbEntity
  8
レイヤー 1
100
AcDbBlockReference
  2
Block_6
 10
0.0
 20
0.0
 30
0.0
  0
ENDSEC
  0
SECTION
  2
OBJECTS
  0
DICTIONARY
  5
C
330
0
100
AcDbDictionary
281
     1
  3
ACAD_COLOR
350
63
  3
ACAD_DETAILVIEWSTYLE
350
6A
  3
ACAD_GROUP
350
D
  3
ACAD_LAYOUT
350
62
  3
ACAD_MATERIAL
350
10
  3
ACAD_MLEADERSTYLE
350
66
  3
ACAD_MLINESTYLE
350
5F
  3
ACAD_PLOTSETTINGS
350
61
  3
ACAD_PLOTSTYLENAME
350
E
  3
ACAD_SCALELIST
350
42
  3
ACAD_SECTIONVIEWSTYLE
350
68
  3
ACAD_TABLESTYLE
350
64
  3
ACAD_VISUALSTYLE
350
29
  3
ACDB_RECOMPOSE_DATA
350
1CB
  3
AcDbVariableDictionary
350
1C3
  0
DICTIONARY
  5
63
102
{ACAD_REACTORS
330
C
102
}
330
C
100
AcDbDictionary
281
     1
  0
DICTIONARY
  5
6A
102
{ACAD_REACTORS
330
C
102
}
330
C
100
AcDbDictionary
281
     1
  3
Imperial24
350
6B
  0
DICTIONARY
  5
D
102
{ACAD_REACTORS
330
C
102
}
330
C
100
AcDbDictionary
281
     1
  0
DICTIONARY
  5
62
102
{ACAD_REACTORS
330
C
102
}
330
C
100
AcDbDictionary
281
     1
  3
Layout1
350
6F
  3
Layout2
350
77
  3
Model
350
73
  0
DICTIONARY
  5
10
102
{ACAD_REACTORS
330
C
102
}
330
C
100
AcDbDictionary
281
     1
  3
ByBlock
350
19
  3
ByLayer
350
11
  3
Global
350
21
  0
DICTIONARY
  5
66
102
{ACAD_REACTORS
330
C
102
}
330
C
100
AcDbDictionary
281
     1
  3
Standard
350
67
  0
DICTIONARY
  5
5F
102
{ACAD_REACTORS
330
C
102
}
330
C
100
AcDbDictionary
281
     1
  3
Standard
350
60
  0
DICTIONARY
  5
61
102
{ACAD_REACTORS
330
C
102
}
330
C
100
AcDbDictionary
281
     1
  0
ACDBDICTIONARYWDFLT
  5
E
102
{ACAD_REACTORS
330
C
102
}
330
C
100
AcDbDictionary
281
     1
  3
Normal
350
F
100
AcDbDictionaryWithDefault
340
F
  0
DICTIONARY
  5
42
102
{ACAD_REACTORS
330
C
102
}
330
C
100
AcDbDictionary
281
     1
  3
A0
350
43
  3
A1
350
44
  3
A2
350
45
  3
A3
350
46
  3
A4
350
47
  3
A5
350
48
  3
A6
350
49
  3
A7
350
4A
  3
A8
350
4B
  3
A9
350
4C
  3
B0
350
4D
  3
B1
350
4E
  3
B2
350
4F
  3
B3
350
50
  3
B4
350
51
  3
B5
350
52
  3
B6
350
53
  0
DICTIONARY
  5
68
102
{ACAD_REACTORS
330
C
102
}
330
C
100
AcDbDictionary
281
     1
  3
Imperial24
350
69
  0
DICTIONARY
  5
64
102
{ACAD_REACTORS
330
C
102
}
330
C
100
AcDbDictionary
281
     1
  3
Standard
350
65
  0
DICTIONARY
  5
29
102
{ACAD_REACTORS
330
C
102
}
330
C
100
AcDbDictionary
281
     1
  3
2dWireframe
350
2F
  3
Basic
350
2E
  3
Brighten
350
35
  3
ColorChange
350
39
  3
Conceptual
350
32
  3
Dim
350
34
  3
EdgeColorOff
350
41
  3
Facepattern
350
38
  3
Flat
350
2A
  3
FlatWithEdges
350
2B
  3
Gouraud
350
2C
  3
GouraudWithEdges
350
2D
  3
Hidden
350
31
  3
JitterOff
350
3F
  3
Linepattern
350
37
  3
OverhangOff
350
40
  3
Realistic
350
33
  3
Shaded
350
3E
  3
Shaded with edges
350
3D
  3
Shades of Gray
350
3A
  3
Sketchy
350
3B
  3
Thicken
350
36
  3
Wireframe
350
30
  3
X-Ray
350
3C
  0
XRECORD
  5
1CB
102
{ACAD_REACTORS
330
C
102
}
330
C
100
AcDbXrecord
280
     1
 90
        1
330
65
  0
DICTIONARY
  5
1C3
102
{ACAD_REACTORS
330
C
102
}
330
C
100
AcDbDictionary
281
     1
  3
CANNOSCALE
350
1C8
  3
CMLEADERSTYLE
350
1C5
  3
CTABLESTYLE
350
1C4
  3
CVIEWDETAILSTYLE
350
1C6
  3
CVIEWSECTIONSTYLE
350
1C7
  0
ACDBDETAILVIEWSTYLE
  5
6B
102
{ACAD_XDICTIONARY
360
200
102
}
102
{ACAD_REACTORS
330
6A
102
}
330
6A
100
AcDbModelDocViewStyle
 70
     0
  3
Imperial24
290
     0
100
AcDbDetailViewStyle
 70
     0
 71
     0
 90
        3
 71
     1
340
55
 62
   256
 40
0.24
340
0
 62
   256
 40
0.24
300

 40
0.36
280
     3
 71
     2
340
5D
 90
       25
 62
   256
 71
     3
340
55
 62
   256
 40
0.24
 90
        1
 40
0.75
 90
        1
300
%<\AcVar ViewType \f "%tc1">% %<\AcVar ViewDetailId>%\PSCALE %<\AcVar ViewScale \f "%sn">%
 71
     4
340
5D
 90
       25
 62
   256
340
5D
 90
       25
 62
   256
280
     0
  0
LAYOUT
  5
6F
102
{ACAD_REACTORS
330
62
102
}
330
62
100
AcDbPlotSettings
  1

  2

  4

  6

 40
0.0
 41
0.0
 42
0.0
 43
0.0
 44
0.0
 45
0.0
 46
0.0
 47
0.0
 48
0.0
 49
0.0
140
0.0
141
0.0
142
1.0
143
1.0
 70
   688
 72
     0
 73
     0
 74
     5
  7

 75
    16
147
1.0
 76
     0
 77
     2
 78
   300
148
0.0
149
0.0
100
AcDbLayout
  1
Layout1
 70
     1
 71
     1
 10
0.0
 20
0.0
 11
12.0
 21
9.0
 12
0.0
 22
0.0
 32
0.0
 14
0.0
 24
0.0
 34
0.0
 15
0.0
 25
0.0
 35
0.0
146
0.0
 13
0.0
 23
0.0
 33
0.0
 16
1.0
 26
0.0
 36
0.0
 17
0.0
 27
1.0
 37
0.0
 76
     0
330
6C
  0
LAYOUT
  5
77
102
{ACAD_REACTORS
330
62
102
}
330
62
100
AcDbPlotSettings
  1

  2

  4

  6

 40
0.0
 41
0.0
 42
0.0
 43
0.0
 44
0.0
 45
0.0
 46
0.0
 47
0.0
 48
0.0
 49
0.0
140
0.0
141
0.0
142
1.0
143
1.0
 70
   688
 72
     0
 73
     0
 74
     5
  7

 75
    16
147
1.0
 76
     0
 77
     2
 78
   300
148
0.0
149
0.0
100
AcDbLayout
  1
Layout2
 70
     1
 71
     2
 10
0.0
 20
0.0
 11
12.0
 21
9.0
 12
0.0
 22
0.0
 32
0.0
 14
0.0
 24
0.0
 34
0.0
 15
0.0
 25
0.0
 35
0.0
146
0.0
 13
0.0
 23
0.0
 33
0.0
 16
1.0
 26
0.0
 36
0.0
 17
0.0
 27
1.0
 37
0.0
 76
     0
330
74
  0
LAYOUT
  5
73
102
{ACAD_REACTORS
330
62
102
}
330
62
100
AcDbPlotSettings
  1

  2

  4

  6

 40
0.0
 41
0.0
 42
0.0
 43
0.0
 44
0.0
 45
0.0
 46
0.0
 47
0.0
 48
0.0
 49
0.0
140
0.0
141
0.0
142
1.0
143
1.0
 70
  1712
 72
     0
 73
     0
 74
     0
  7

 75
     0
147
1.0
 76
     0
 77
     2
 78
   300
148
0.0
149
0.0
100
AcDbLayout
  1
Model
 70
     1
 71
     0
 10
0.0
 20
0.0
 11
12.0
 21
9.0
 12
0.0
 22
0.0
 32
0.0
 14
0.0
 24
0.0
 34
0.0
 15
0.0
 25
0.0
 35
0.0
146
0.0
 13
0.0
 23
0.0
 33
0.0
 16
1.0
 26
0.0
 36
0.0
 17
0.0
 27
1.0
 37
0.0
 76
     0
330
70
  0
MATERIAL
  5
19
102
{ACAD_XDICTIONARY
360
1A
102
}
102
{ACAD_REACTORS
330
10
102
}
330
10
100
AcDbMaterial
  1
ByBlock
 72
     0
 43
0.0208333333333333
 43
0.0
 43
0.0
 43
0.0
 43
0.0
 43
0.0208333333333333
 43
0.0
 43
0.0
 43
0.0
 43
0.0
 43
1.0
 43
0.0
 43
0.0
 43
0.0
 43
0.0
 43
1.0
 77
     0
 47
0.0208333333333333
 47
0.0
 47
0.0
 47
0.0
 47
0.0
 47
0.0208333333333333
 47
0.0
 47
0.0
 47
0.0
 47
0.0
 47
1.0
 47
0.0
 47
0.0
 47
0.0
 47
0.0
 47
1.0
171
     0
 49
0.0208333333333333
 49
0.0
 49
0.0
 49
0.0
 49
0.0
 49
0.0208333333333333
 49
0.0
 49
0.0
 49
0.0
 49
0.0
 49
1.0
 49
0.0
 49
0.0
 49
0.0
 49
0.0
 49
1.0
175
     0
142
0.0208333333333333
142
0.0
142
0.0
142
0.0
142
0.0
142
0.0208333333333333
142
0.0
142
0.0
142
0.0
142
0.0
142
1.0
142
0.0
142
0.0
142
0.0
142
0.0
142
1.0
179
     0
144
0.0208333333333333
144
0.0
144
0.0
144
0.0
144
0.0
144
0.0208333333333333
144
0.0
144
0.0
144
0.0
144
0.0
144
1.0
144
0.0
144
0.0
144
0.0
144
0.0
144
1.0
147
0.0208333333333333
147
0.0
147
0.0
147
0.0
147
0.0
147
0.0208333333333333
147
0.0
147
0.0
147
0.0
147
0.0
147
1.0
147
0.0
147
0.0
147
0.0
147
0.0
147
1.0
  0
MATERIAL
  5
11
102
{ACAD_XDICTIONARY
360
12
102
}
102
{ACAD_REACTORS
330
10
102
}
330
10
100
AcDbMaterial
  1
ByLayer
 72
     0
 43
0.0208333333333333
 43
0.0
 43
0.0
 43
0.0
 43
0.0
 43
0.0208333333333333
 43
0.0
 43
0.0
 43
0.0
 43
0.0
 43
1.0
 43
0.0
 43
0.0
 43
0.0
 43
0.0
 43
1.0
 77
     0
 47
0.0208333333333333
 47
0.0
 47
0.0
 47
0.0
 47
0.0
 47
0.0208333333333333
 47
0.0
 47
0.0
 47
0.0
 47
0.0
 47
1.0
 47
0.0
 47
0.0
 47
0.0
 47
0.0
 47
1.0
171
     0
 49
0.0208333333333333
 49
0.0
 49
0.0
 49
0.0
 49
0.0
 49
0.0208333333333333
 49
0.0
 49
0.0
 49
0.0
 49
0.0
 49
1.0
 49
0.0
 49
0.0
 49
0.0
 49
0.0
 49
1.0
175
     0
142
0.0208333333333333
142
0.0
142
0.0
142
0.0
142
0.0
142
0.0208333333333333
142
0.0
142
0.0
142
0.0
142
0.0
142
1.0
142
0.0
142
0.0
142
0.0
142
0.0
142
1.0
179
     0
144
0.0208333333333333
144
0.0
144
0.0
144
0.0
144
0.0
144
0.0208333333333333
144
0.0
144
0.0
144
0.0
144
0.0
144
1.0
144
0.0
144
0.0
144
0.0
144
0.0
144
1.0
147
0.0208333333333333
147
0.0
147
0.0
147
0.0
147
0.0
147
0.0208333333333333
147
0.0
147
0.0
147
0.0
147
0.0
147
1.0
147
0.0
147
0.0
147
0.0
147
0.0
147
1.0
  0
MATERIAL
  5
21
102
{ACAD_XDICTIONARY
360
22
102
}
102
{ACAD_REACTORS
330
10
102
}
330
10
100
AcDbMaterial
  1
Global
 72
     0
 43
0.0208333333333333
 43
0.0
 43
0.0
 43
0.0
 43
0.0
 43
0.0208333333333333
 43
0.0
 43
0.0
 43
0.0
 43
0.0
 43
1.0
 43
0.0
 43
0.0
 43
0.0
 43
0.0
 43
1.0
 77
     0
 47
0.0208333333333333
 47
0.0
 47
0.0
 47
0.0
 47
0.0
 47
0.0208333333333333
 47
0.0
 47
0.0
 47
0.0
 47
0.0
 47
1.0
 47
0.0
 47
0.0
 47
0.0
 47
0.0
 47
1.0
171
     0
 49
0.0208333333333333
 49
0.0
 49
0.0
 49
0.0
 49
0.0
 49
0.0208333333333333
 49
0.0
 49
0.0
 49
0.0
 49
0.0
 49
1.0
 49
0.0
 49
0.0
 49
0.0
 49
0.0
 49
1.0
175
     0
142
0.0208333333333333
142
0.0
142
0.0
142
0.0
142
0.0
142
0.0208333333333333
142
0.0
142
0.0
142
0.0
142
0.0
142
1.0
142
0.0
142
0.0
142
0.0
142
0.0
142
1.0
179
     0
144
0.0208333333333333
144
0.0
144
0.0
144
0.0
144
0.0
144
0.0208333333333333
144
0.0
144
0.0
144
0.0
144
0.0
144
1.0
144
0.0
144
0.0
144
0.0
144
0.0
144
1.0
147
0.0208333333333333
147
0.0
147
0.0
147
0.0
147
0.0
147
0.0208333333333333
147
0.0
147
0.0
147
0.0
147
0.0
147
1.0
147
0.0
147
0.0
147
0.0
147
0.0
147
1.0
  0
MLEADERSTYLE
  5
67
102
{ACAD_XDICTIONARY
360
1FC
102
}
102
{ACAD_REACTORS
330
66
102
}
330
66
100
AcDbMLeaderStyle
179
     2
170
     2
171
     1
172
     0
 90
        2
 40
0.0
 41
0.0
173
     1
 91
-1056964608
340
5B
 92
       -2
290
     1
 42
0.09
291
     1
 43
0.36
  3
Standard
 44
0.18
300

342
55
174
     1
178
     6
175
     1
176
     0
 93
-1056964608
 45
0.18
292
     0
297
     0
 46
0.18
 94
-1056964608
 47
1.0
 49
1.0
140
1.0
293
     1
141
0.0
294
     1
177
     0
142
1.0
295
     0
296
     0
143
0.125
271
     0
272
     9
273
     9
  0
MLINESTYLE
  5
60
102
{ACAD_REACTORS
330
5F
102
}
330
5F
100
AcDbMlineStyle
  2
STANDARD
 70
     0
  3

 62
   256
 51
90.0
 52
90.0
 71
     2
 49
0.5
 62
   256
  6
BYLAYER
 49
-0.5
 62
   256
  6
BYLAYER
  0
ACDBPLACEHOLDER
  5
F
102
{ACAD_REACTORS
330
E
102
}
330
E
  0
SCALE
  5
43
102
{ACAD_REACTORS
330
42
102
}
330
42
100
AcDbScale
 70
     0
300
1:1
140
1.0
141
1.0
290
     1
  0
SCALE
  5
44
102
{ACAD_REACTORS
330
42
102
}
330
42
100
AcDbScale
 70
     0
300
1/128" = 1'-0"
140
0.0078125
141
12.0
290
     0
  0
SCALE
  5
45
102
{ACAD_REACTORS
330
42
102
}
330
42
100
AcDbScale
 70
     0
300
1/64" = 1'-0"
140
0.015625
141
12.0
290
     0
  0
SCALE
  5
46
102
{ACAD_REACTORS
330
42
102
}
330
42
100
AcDbScale
 70
     0
300
1/32" = 1'-0"
140
0.03125
141
12.0
290
     0
  0
SCALE
  5
47
102
{ACAD_REACTORS
330
42
102
}
330
42
100
AcDbScale
 70
     0
300
1/16" = 1'-0"
140
0.0625
141
12.0
290
     0
  0
SCALE
  5
48
102
{ACAD_REACTORS
330
42
102
}
330
42
100
AcDbScale
 70
     0
300
3/32" = 1'-0"
140
0.09375
141
12.0
290
     0
  0
SCALE
  5
49
102
{ACAD_REACTORS
330
42
102
}
330
42
100
AcDbScale
 70
     0
300
1/8" = 1'-0"
140
0.125
141
12.0
290
     0
  0
SCALE
  5
4A
102
{ACAD_REACTORS
330
42
102
}
330
42
100
AcDbScale
 70
     0
300
3/16" = 1'-0"
140
0.1875
141
12.0
290
     0
  0
SCALE
  5
4B
102
{ACAD_REACTORS
330
42
102
}
330
42
100
AcDbScale
 70
     0
300
1/4" = 1'-0"
140
0.25
141
12.0
290
     0
  0
SCALE
  5
4C
102
{ACAD_REACTORS
330
42
102
}
330
42
100
AcDbScale
 70
     0
300
3/8" = 1'-0"
140
0.375
141
12.0
290
     0
  0
SCALE
  5
4D
102
{ACAD_REACTORS
330
42
102
}
330
42
100
AcDbScale
 70
     0
300
1/2" = 1'-0"
140
0.5
141
12.0
290
     0
  0
SCALE
  5
4E
102
{ACAD_REACTORS
330
42
102
}
330
42
100
AcDbScale
 70
     0
300
3/4" = 1'-0"
140
0.75
141
12.0
290
     0
  0
SCALE
  5
4F
102
{ACAD_REACTORS
330
42
102
}
330
42
100
AcDbScale
 70
     0
300
1" = 1'-0"
140
1.0
141
12.0
290
     0
  0
SCALE
  5
50
102
{ACAD_REACTORS
330
42
102
}
330
42
100
AcDbScale
 70
     0
300
1-1/2" = 1'-0"
140
1.5
141
12.0
290
     0
  0
SCALE
  5
51
102
{ACAD_REACTORS
330
42
102
}
330
42
100
AcDbScale
 70
     0
300
3" = 1'-0"
140
3.0
141
12.0
290
     0
  0
SCALE
  5
52
102
{ACAD_REACTORS
330
42
102
}
330
42
100
AcDbScale
 70
     0
300
6" = 1'-0"
140
6.0
141
12.0
290
     0
  0
SCALE
  5
53
102
{ACAD_REACTORS
330
42
102
}
330
42
100
AcDbScale
 70
     0
300
1'-0" = 1'-0"
140
12.0
141
12.0
290
     0
  0
ACDBSECTIONVIEWSTYLE
  5
69
102
{ACAD_XDICTIONARY
360
1FE
102
}
102
{ACAD_REACTORS
330
68
102
}
330
68
100
AcDbModelDocViewStyle
 70
     0
  3
Imperial24
290
     0
100
AcDbSectionViewStyle
 70
     0
 71
     0
 90
       78
 71
     1
340
55
 62
   256
 40
0.24
340
0
340
0
 62
   256
 40
0.24
300
I, O, Q, S, X, Z
 40
0.48
 90
        3
 40
0.18
 90
        1
 71
     2
340
5D
 90
       25
 62
   256
340
5D
 90
       50
 62
   256
 40
0.24
 40
0.0
 40
0.24
 71
     3
340
55
 62
   256
 40
0.24
 90
        1
 40
0.75
 90
        1
300
%<\AcVar ViewType \f "%tc1">% %<\AcVar ViewSectionStartId>%-%<\AcVar ViewSectionEndId>%\PSCALE %<\AcVar ViewScale \f "%sn">%
 71
     4
 62
   256
 62
   257
300
ANSI31
 40
1.0
 90
        0
290
     0
290
     0
 90
        6
 40
0.0
 40
1.570796326794896
 40
0.2617993877991494
 40
1.308996938995747
 40
-0.2617993877991494
 40
1.832595714594046
  0
TABLESTYLE
  5
65
102
{ACAD_XDICTIONARY
360
1C9
102
}
102
{ACAD_REACTORS
330
64
102
}
330
64
100
AcDbTableStyle
280
     0
  3
Standard
 70
     0
 71
     0
 40
0.06
 41
0.06
280
     0
281
     0
  7
Standard
140
0.18
170
     2
 62
     0
 63
     7
283
     0
 90
      512
 91
        0
  1

274
    -2
284
     1
 64
     0
275
    -2
285
     1
 65
     0
276
    -2
286
     1
 66
     0
277
    -2
287
     1
 67
     0
278
    -2
288
     1
 68
     0
279
    -2
289
     1
 69
     0
  7
Standard
140
0.25
170
     5
 62
     0
 63
     7
283
     0
 90
      512
 91
        0
  1

274
    -2
284
     1
 64
     0
275
    -2
285
     1
 65
     0
276
    -2
286
     1
 66
     0
277
    -2
287
     1
 67
     0
278
    -2
288
     1
 68
     0
279
    -2
289
     1
 69
     0
  7
Standard
140
0.18
170
     5
 62
     0
 63
     7
283
     0
 90
      512
 91
        0
  1

274
    -2
284
     1
 64
     0
275
    -2
285
     1
 65
     0
276
    -2
286
     1
 66
     0
277
    -2
287
     1
 67
     0
278
    -2
288
     1
 68
     0
279
    -2
289
     1
 69
     0
  0
VISUALSTYLE
  5
2F
102
{ACAD_XDICTIONARY
360
1D6
102
}
102
{ACAD_REACTORS
330
29
102
}
330
29
100
AcDbVisualStyle
  2
2dWireframe
 70
     4
177
     2
291
     0
 71
     0
176
     1
 72
     2
176
     1
 73
     0
176
     1
 90
        0
176
     1
 40
0.6
176
     1
 41
30.0
176
     1
 63
     7
421
 16777215
176
     1
 74
     1
176
     1
 91
        4
176
     1
 64
     7
176
     1
 65
   257
176
     1
 75
     1
176
     1
175
     1
176
     1
 42
1.0
176
     1
 92
        0
176
     1
 66
   257
176
     1
 43
1.0
176
     1
 76
     1
176
     1
 77
     6
176
     1
 78
     2
176
     1
 67
     7
176
     1
 79
     5
176
     1
170
     0
176
     1
171
     0
176
     1
290
     0
176
     1
 93
        1
176
     1
 44
0.0
176
     1
173
     0
176
     1
1001
ACAD
1000
AcDbSavedByObjectVersion
1070
     0
  0
VISUALSTYLE
  5
2E
102
{ACAD_XDICTIONARY
360
1D4
102
}
102
{ACAD_REACTORS
330
29
102
}
330
29
100
AcDbVisualStyle
  2
Basic
 70
     7
177
     2
291
     1
 71
     1
176
     1
 72
     0
176
     1
 73
     1
176
     1
 90
        0
176
     1
 40
0.6
176
     1
 41
30.0
176
     1
 63
     7
421
 16777215
176
     1
 74
     0
176
     1
 91
        4
176
     1
 64
     7
176
     1
 65
   257
176
     1
 75
     1
176
     1
175
     1
176
     1
 42
1.0
176
     1
 92
        8
176
     1
 66
     7
176
     1
 43
1.0
176
     1
 76
     1
176
     1
 77
     6
176
     1
 78
     2
176
     1
 67
     7
176
     1
 79
     5
176
     1
170
     0
176
     1
171
     0
176
     1
290
     0
176
     1
 93
        1
176
     1
 44
0.0
176
     1
173
     0
176
     1
1001
ACAD
1000
AcDbSavedByObjectVersion
1070
     0
  0
VISUALSTYLE
  5
35
102
{ACAD_XDICTIONARY
360
1E2
102
}
102
{ACAD_REACTORS
330
29
102
}
330
29
100
AcDbVisualStyle
  2
Brighten
 70
    12
177
     2
291
     1
 71
     2
176
     1
 72
     2
176
     1
 73
     0
176
     1
 90
        0
176
     1
 40
0.6
176
     1
 41
30.0
176
     1
 63
     7
421
 16777215
176
     1
 74
     1
176
     1
 91
        4
176
     1
 64
     7
176
     1
 65
   257
176
     1
 75
     1
176
     1
175
     1
176
     1
 42
1.0
176
     1
 92
        8
176
     1
 66
     7
176
     1
 43
1.0
176
     1
 76
     1
176
     1
 77
     6
176
     1
 78
     2
176
     1
 67
     7
176
     1
 79
     5
176
     1
170
     0
176
     1
171
     0
176
     1
290
     0
176
     1
 93
        1
176
     1
 44
50.0
176
     1
173
     0
176
     1
1001
ACAD
1000
AcDbSavedByObjectVersion
1070
     0
  0
VISUALSTYLE
  5
39
102
{ACAD_XDICTIONARY
360
1EA
102
}
102
{ACAD_REACTORS
330
29
102
}
330
29
100
AcDbVisualStyle
  2
ColorChange
 70
    16
177
     2
291
     1
 71
     2
176
     1
 72
     2
176
     1
 73
     3
176
     1
 90
        0
176
     1
 40
0.6
176
     1
 41
30.0
176
     1
 63
     8
421
  8421504
176
     1
 74
     1
176
     1
 91
        4
176
     1
 64
     7
176
     1
 65
   257
176
     1
 75
     1
176
     1
175
     1
176
     1
 42
1.0
176
     1
 92
        8
176
     1
 66
     8
424
  8421504
176
     1
 43
1.0
176
     1
 76
     1
176
     1
 77
     6
176
     1
 78
     2
176
     1
 67
     7
176
     1
 79
     5
176
     1
170
     0
176
     1
171
     0
176
     1
290
     0
176
     1
 93
        1
176
     1
 44
0.0
176
     1
173
     0
176
     1
1001
ACAD
1000
AcDbSavedByObjectVersion
1070
     0
  0
VISUALSTYLE
  5
32
102
{ACAD_XDICTIONARY
360
1DC
102
}
102
{ACAD_REACTORS
330
29
102
}
330
29
100
AcDbVisualStyle
  2
Conceptual
 70
     9
177
     2
291
     0
 71
     3
176
     1
 72
     2
176
     1
 73
     0
176
     1
 90
        0
176
     1
 40
0.6
176
     1
 41
30.0
176
     1
 63
     7
421
 16777215
176
     1
 74
     2
176
     1
 91
        2
176
     1
 64
     7
176
     1
 65
   257
176
     1
 75
     1
176
     1
175
     1
176
     1
 42
179.0
176
     1
 92
        8
176
     1
 66
     7
176
     1
 43
1.0
176
     1
 76
     1
176
     1
 77
     6
176
     1
 78
     2
176
     1
 67
     7
176
     1
 79
     3
176
     1
170
     0
176
     1
171
     0
176
     1
290
     0
176
     1
 93
        1
176
     1
 44
0.0
176
     1
173
     0
176
     1
1001
ACAD
1000
AcDbSavedByObjectVersion
1070
     0
  0
VISUALSTYLE
  5
34
102
{ACAD_XDICTIONARY
360
1E0
102
}
102
{ACAD_REACTORS
330
29
102
}
330
29
100
AcDbVisualStyle
  2
Dim
 70
    11
177
     2
291
     1
 71
     2
176
     1
 72
     2
176
     1
 73
     0
176
     1
 90
        0
176
     1
 40
0.6
176
     1
 41
30.0
176
     1
 63
     7
421
 16777215
176
     1
 74
     1
176
     1
 91
        4
176
     1
 64
     7
176
     1
 65
   257
176
     1
 75
     1
176
     1
175
     1
176
     1
 42
1.0
176
     1
 92
        8
176
     1
 66
     7
176
     1
 43
1.0
176
     1
 76
     1
176
     1
 77
     6
176
     1
 78
     2
176
     1
 67
     7
176
     1
 79
     5
176
     1
170
     0
176
     1
171
     0
176
     1
290
     0
176
     1
 93
        1
176
     1
 44
-50.0
176
     1
173
     0
176
     1
1001
ACAD
1000
AcDbSavedByObjectVersion
1070
     0
  0
VISUALSTYLE
  5
41
102
{ACAD_XDICTIONARY
360
1FA
102
}
102
{ACAD_REACTORS
330
29
102
}
330
29
100
AcDbVisualStyle
  2
EdgeColorOff
 70
    22
177
     2
291
     1
 71
     2
176
     0
 72
     2
176
     0
 73
     0
176
     0
 90
        0
176
     0
 40
0.6
176
     0
 41
30.0
176
     0
 63
     7
421
 16777215
176
     0
 74
     1
176
     0
 91
        4
176
     0
 64
     7
176
     0
 65
   257
176
     0
 75
     1
176
     0
175
     1
176
     0
 42
1.0
176
     0
 92
        8
176
     2
 66
     7
176
     0
 43
1.0
176
     0
 76
     1
176
     0
 77
     6
176
     0
 78
     2
176
     0
 67
     7
176
     0
 79
     5
176
     0
170
     0
176
     0
171
     0
176
     0
290
     0
176
     0
 93
        1
176
     0
 44
0.0
176
     0
173
     0
176
     0
1001
ACAD
1000
AcDbSavedByObjectVersion
1070
     0
  0
VISUALSTYLE
  5
38
102
{ACAD_XDICTIONARY
360
1E8
102
}
102
{ACAD_REACTORS
330
29
102
}
330
29
100
AcDbVisualStyle
  2
Facepattern
 70
    15
177
     2
291
     1
 71
     2
176
     1
 72
     2
176
     1
 73
     0
176
     1
 90
        0
176
     1
 40
0.6
176
     1
 41
30.0
176
     1
 63
     7
421
 16777215
176
     1
 74
     1
176
     1
 91
        4
176
     1
 64
     7
176
     1
 65
   257
176
     1
 75
     1
176
     1
175
     1
176
     1
 42
1.0
176
     1
 92
        8
176
     1
 66
     7
176
     1
 43
1.0
176
     1
 76
     1
176
     1
 77
     6
176
     1
 78
     2
176
     1
 67
     7
176
     1
 79
     5
176
     1
170
     0
176
     1
171
     0
176
     1
290
     0
176
     1
 93
        1
176
     1
 44
0.0
176
     1
173
     0
176
     1
1001
ACAD
1000
AcDbSavedByObjectVersion
1070
     0
  0
VISUALSTYLE
  5
2A
102
{ACAD_XDICTIONARY
360
1CC
102
}
102
{ACAD_REACTORS
330
29
102
}
330
29
100
AcDbVisualStyle
  2
Flat
 70
     0
177
     2
291
     1
 71
     2
176
     1
 72
     1
176
     1
 73
     1
176
     1
 90
        2
176
     1
 40
0.6
176
     1
 41
30.0
176
     1
 63
     7
421
 16777215
176
     1
 74
     0
176
     1
 91
        0
176
     1
 64
     7
176
     1
 65
   257
176
     1
 75
     1
176
     1
175
     1
176
     1
 42
1.0
176
     1
 92
        8
176
     1
 66
     7
176
     1
 43
1.0
176
     1
 76
     1
176
     1
 77
     6
176
     1
 78
     2
176
     1
 67
     7
176
     1
 79
     5
176
     1
170
     0
176
     1
171
     0
176
     1
290
     0
176
     1
 93
       13
176
     1
 44
0.0
176
     1
173
     0
176
     1
1001
ACAD
1000
AcDbSavedByObjectVersion
1070
     0
  0
VISUALSTYLE
  5
2B
102
{ACAD_XDICTIONARY
360
1CE
102
}
102
{ACAD_REACTORS
330
29
102
}
330
29
100
AcDbVisualStyle
  2
FlatWithEdges
 70
     1
177
     2
291
     1
 71
     2
176
     1
 72
     1
176
     1
 73
     1
176
     1
 90
        2
176
     1
 40
0.6
176
     1
 41
30.0
176
     1
 63
     7
421
 16777215
176
     1
 74
     1
176
     1
 91
        0
176
     1
 64
     7
176
     1
 65
   257
176
     1
 75
     1
176
     1
175
     1
176
     1
 42
1.0
176
     1
 92
        0
176
     1
 66
   257
176
     1
 43
1.0
176
     1
 76
     1
176
     1
 77
     6
176
     1
 78
     2
176
     1
 67
     7
176
     1
 79
     5
176
     1
170
     0
176
     1
171
     0
176
     1
290
     0
176
     1
 93
       13
176
     1
 44
0.0
176
     1
173
     0
176
     1
1001
ACAD
1000
AcDbSavedByObjectVersion
1070
     0
  0
VISUALSTYLE
  5
2C
102
{ACAD_XDICTIONARY
360
1D0
102
}
102
{ACAD_REACTORS
330
29
102
}
330
29
100
AcDbVisualStyle
  2
Gouraud
 70
     2
177
     2
291
     1
 71
     2
176
     1
 72
     2
176
     1
 73
     1
176
     1
 90
        2
176
     1
 40
0.6
176
     1
 41
30.0
176
     1
 63
     7
421
 16777215
176
     1
 74
     0
176
     1
 91
        0
176
     1
 64
     7
176
     1
 65
   257
176
     1
 75
     1
176
     1
175
     1
176
     1
 42
1.0
176
     1
 92
        0
176
     1
 66
     7
176
     1
 43
1.0
176
     1
 76
     1
176
     1
 77
     6
176
     1
 78
     2
176
     1
 67
     7
176
     1
 79
     5
176
     1
170
     0
176
     1
171
     0
176
     1
290
     0
176
     1
 93
       13
176
     1
 44
0.0
176
     1
173
     0
176
     1
1001
ACAD
1000
AcDbSavedByObjectVersion
1070
     0
  0
VISUALSTYLE
  5
2D
102
{ACAD_XDICTIONARY
360
1D2
102
}
102
{ACAD_REACTORS
330
29
102
}
330
29
100
AcDbVisualStyle
  2
GouraudWithEdges
 70
     3
177
     2
291
     1
 71
     2
176
     1
 72
     2
176
     1
 73
     1
176
     1
 90
        2
176
     1
 40
0.6
176
     1
 41
30.0
176
     1
 63
     7
421
 16777215
176
     1
 74
     1
176
     1
 91
        0
176
     1
 64
     7
176
     1
 65
   257
176
     1
 75
     1
176
     1
175
     1
176
     1
 42
1.0
176
     1
 92
        0
176
     1
 66
   257
176
     1
 43
1.0
176
     1
 76
     1
176
     1
 77
     6
176
     1
 78
     2
176
     1
 67
     7
176
     1
 79
     5
176
     1
170
     0
176
     1
171
     0
176
     1
290
     0
176
     1
 93
       13
176
     1
 44
0.0
176
     1
173
     0
176
     1
1001
ACAD
1000
AcDbSavedByObjectVersion
1070
     0
  0
VISUALSTYLE
  5
31
102
{ACAD_XDICTIONARY
360
1DA
102
}
102
{ACAD_REACTORS
330
29
102
}
330
29
100
AcDbVisualStyle
  2
Hidden
 70
     6
177
     2
291
     0
 71
     1
176
     1
 72
     2
176
     1
 73
     2
176
     1
 90
        0
176
     1
 40
0.6
176
     1
 41
30.0
176
     1
 63
     7
421
 16777215
176
     1
 74
     2
176
     1
 91
        2
176
     1
 64
     7
176
     1
 65
   257
176
     1
 75
     2
176
     1
175
     1
176
     1
 42
40.0
176
     1
 92
        0
176
     1
 66
   257
176
     1
 43
1.0
176
     1
 76
     1
176
     1
 77
     6
176
     1
 78
     2
176
     1
 67
     7
176
     1
 79
     3
176
     1
170
     0
176
     1
171
     0
176
     1
290
     0
176
     1
 93
        1
176
     1
 44
0.0
176
     1
173
     0
176
     1
1001
ACAD
1000
AcDbSavedByObjectVersion
1070
     0
  0
VISUALSTYLE
  5
3F
102
{ACAD_XDICTIONARY
360
1F6
102
}
102
{ACAD_REACTORS
330
29
102
}
330
29
100
AcDbVisualStyle
  2
JitterOff
 70
    20
177
     2
291
     1
 71
     2
176
     0
 72
     2
176
     0
 73
     0
176
     0
 90
        0
176
     0
 40
0.6
176
     0
 41
30.0
176
     0
 63
     7
421
 16777215
176
     0
 74
     1
176
     0
 91
        4
176
     0
 64
     7
176
     0
 65
   257
176
     0
 75
     1
176
     0
175
     1
176
     0
 42
1.0
176
     0
 92
       10
176
     2
 66
     7
176
     0
 43
1.0
176
     0
 76
     1
176
     0
 77
     6
176
     0
 78
     2
176
     0
 67
     7
176
     0
 79
     5
176
     0
170
     0
176
     0
171
     0
176
     0
290
     0
176
     0
 93
        1
176
     0
 44
0.0
176
     0
173
     0
176
     0
1001
ACAD
1000
AcDbSavedByObjectVersion
1070
     0
  0
VISUALSTYLE
  5
37
102
{ACAD_XDICTIONARY
360
1E6
102
}
102
{ACAD_REACTORS
330
29
102
}
330
29
100
AcDbVisualStyle
  2
Linepattern
 70
    14
177
     2
291
     1
 71
     2
176
     1
 72
     2
176
     1
 73
     0
176
     1
 90
        0
176
     1
 40
0.6
176
     1
 41
30.0
176
     1
 63
     7
421
 16777215
176
     1
 74
     1
176
     1
 91
        4
176
     1
 64
     7
176
     1
 65
   257
176
     1
 75
     7
176
     1
175
     7
176
     1
 42
1.0
176
     1
 92
        8
176
     1
 66
     7
176
     1
 43
1.0
176
     1
 76
     1
176
     1
 77
     6
176
     1
 78
     2
176
     1
 67
     7
176
     1
 79
     5
176
     1
170
     0
176
     1
171
     0
176
     1
290
     0
176
     1
 93
        1
176
     1
 44
0.0
176
     1
173
     0
176
     1
1001
ACAD
1000
AcDbSavedByObjectVersion
1070
     0
  0
VISUALSTYLE
  5
40
102
{ACAD_XDICTIONARY
360
1F8
102
}
102
{ACAD_REACTORS
330
29
102
}
330
29
100
AcDbVisualStyle
  2
OverhangOff
 70
    21
177
     2
291
     1
 71
     2
176
     0
 72
     2
176
     0
 73
     0
176
     0
 90
        0
176
     0
 40
0.6
176
     0
 41
30.0
176
     0
 63
     7
421
 16777215
176
     0
 74
     1
176
     0
 91
        4
176
     0
 64
     7
176
     0
 65
   257
176
     0
 75
     1
176
     0
175
     1
176
     0
 42
1.0
176
     0
 92
        9
176
     2
 66
     7
176
     0
 43
1.0
176
     0
 76
     1
176
     0
 77
     6
176
     0
 78
     2
176
     0
 67
     7
176
     0
 79
     5
176
     0
170
     0
176
     0
171
     0
176
     0
290
     0
176
     0
 93
        1
176
     0
 44
0.0
176
     0
173
     0
176
     0
1001
ACAD
1000
AcDbSavedByObjectVersion
1070
     0
  0
VISUALSTYLE
  5
33
102
{ACAD_XDICTIONARY
360
1DE
102
}
102
{ACAD_REACTORS
330
29
102
}
330
29
100
AcDbVisualStyle
  2
Realistic
 70
     8
177
     2
291
     0
 71
     2
176
     1
 72
     3
176
     1
 73
     0
176
     1
 90
        2
176
     1
 40
0.6
176
     1
 41
30.0
176
     1
 63
     7
421
 16777215
176
     1
 74
     0
176
     1
 91
        0
176
     1
 64
     7
176
     1
 65
   257
176
     1
 75
     1
176
     1
175
     1
176
     1
 42
1.0
176
     1
 92
        8
176
     1
 66
   257
176
     1
 43
1.0
176
     1
 76
     1
176
     1
 77
     6
176
     1
 78
     2
176
     1
 67
     7
176
     1
 79
     3
176
     1
170
     0
176
     1
171
     0
176
     1
290
     0
176
     1
 93
       13
176
     1
 44
0.0
176
     1
173
     0
176
     1
1001
ACAD
1000
AcDbSavedByObjectVersion
1070
     0
  0
VISUALSTYLE
  5
3E
102
{ACAD_XDICTIONARY
360
1F4
102
}
102
{ACAD_REACTORS
330
29
102
}
330
29
100
AcDbVisualStyle
  2
Shaded
 70
    27
177
     2
291
     0
 71
     2
176
     1
 72
     2
176
     1
 73
     1
176
     1
 90
        2
176
     1
 40
0.6
176
     1
 41
30.0
176
     1
 63
     7
421
 16777215
176
     1
 74
     0
176
     1
 91
        4
176
     1
 64
     7
176
     1
 65
   257
176
     1
 75
     1
176
     1
175
     1
176
     1
 42
1.0
176
     1
 92
        8
176
     1
 66
   257
176
     1
 43
1.0
176
     1
 76
     1
176
     1
 77
     6
176
     1
 78
     2
176
     1
 67
     8
425
  7895160
176
     1
 79
     3
176
     1
170
     0
176
     1
171
     0
176
     1
290
     0
176
     1
 93
        5
176
     1
 44
0.0
176
     1
173
     0
176
     1
1001
ACAD
1000
AcDbSavedByObjectVersion
1070
     0
  0
VISUALSTYLE
  5
3D
102
{ACAD_XDICTIONARY
360
1F2
102
}
102
{ACAD_REACTORS
330
29
102
}
330
29
100
AcDbVisualStyle
  2
Shaded with edges
 70
    26
177
     2
291
     0
 71
     2
176
     1
 72
     2
176
     1
 73
     1
176
     1
 90
        2
176
     1
 40
0.6
176
     1
 41
30.0
176
     1
 63
     7
421
 16777215
176
     1
 74
     1
176
     1
 91
        2
176
     1
 64
     7
176
     1
 65
   257
176
     1
 75
     2
176
     1
175
     1
176
     1
 42
1.0
176
     1
 92
        8
176
     1
 66
   257
176
     1
 43
1.0
176
     1
 76
     1
176
     1
 77
     6
176
     1
 78
     2
176
     1
 67
     7
176
     1
 79
     3
176
     1
170
     0
176
     1
171
     0
176
     1
290
     0
176
     1
 93
        5
176
     1
 44
0.0
176
     1
173
     0
176
     1
1001
ACAD
1000
AcDbSavedByObjectVersion
1070
     0
  0
VISUALSTYLE
  5
3A
102
{ACAD_XDICTIONARY
360
1EC
102
}
102
{ACAD_REACTORS
330
29
102
}
330
29
100
AcDbVisualStyle
  2
Shades of Gray
 70
    23
177
     2
291
     0
 71
     2
176
     1
 72
     2
176
     1
 73
     3
176
     1
 90
        0
176
     1
 40
0.6
176
     1
 41
30.0
176
     1
 63
     7
421
 16777215
176
     1
 74
     2
176
     1
 91
        2
176
     1
 64
     7
176
     1
 65
     7
176
     1
 75
     1
176
     1
175
     1
176
     1
 42
40.0
176
     1
 92
        8
176
     1
 66
     7
176
     1
 43
1.0
176
     1
 76
     1
176
     1
 77
     6
176
     1
 78
     2
176
     1
 67
     7
176
     1
 79
     3
176
     1
170
     0
176
     1
171
     0
176
     1
290
     0
176
     1
 93
        1
176
     1
 44
0.0
176
     1
173
     0
176
     1
1001
ACAD
1000
AcDbSavedByObjectVersion
1070
     0
  0
VISUALSTYLE
  5
3B
102
{ACAD_XDICTIONARY
360
1EE
102
}
102
{ACAD_REACTORS
330
29
102
}
330
29
100
AcDbVisualStyle
  2
Sketchy
 70
    24
177
     2
291
     0
 71
     1
176
     1
 72
     2
176
     1
 73
     2
176
     1
 90
        0
176
     1
 40
0.6
176
     1
 41
30.0
176
     1
 63
     7
421
 16777215
176
     1
 74
     2
176
     1
 91
        2
176
     1
 64
     7
176
     1
 65
     7
176
     1
 75
     1
176
     1
175
     1
176
     1
 42
40.0
176
     1
 92
       11
176
     1
 66
     7
176
     1
 43
1.0
176
     1
 76
     1
176
     1
 77
     6
176
     1
 78
     2
176
     1
 67
     7
176
     1
 79
     6
176
     1
170
     0
176
     1
171
     0
176
     1
290
     0
176
     1
 93
        1
176
     1
 44
0.0
176
     1
173
     0
176
     1
1001
ACAD
1000
AcDbSavedByObjectVersion
1070
     0
  0
VISUALSTYLE
  5
36
102
{ACAD_XDICTIONARY
360
1E4
102
}
102
{ACAD_REACTORS
330
29
102
}
330
29
100
AcDbVisualStyle
  2
Thicken
 70
    13
177
     2
291
     1
 71
     2
176
     1
 72
     2
176
     1
 73
     0
176
     1
 90
        0
176
     1
 40
0.6
176
     1
 41
30.0
176
     1
 63
     7
421
 16777215
176
     1
 74
     1
176
     1
 91
        4
176
     1
 64
     7
176
     1
 65
   257
176
     1
 75
     1
176
     1
175
     1
176
     1
 42
1.0
176
     1
 92
       12
176
     1
 66
     7
176
     1
 43
1.0
176
     1
 76
     1
176
     1
 77
     6
176
     1
 78
     2
176
     1
 67
     7
176
     1
 79
     5
176
     1
170
     0
176
     1
171
     0
176
     1
290
     0
176
     1
 93
        1
176
     1
 44
0.0
176
     1
173
     0
176
     1
1001
ACAD
1000
AcDbSavedByObjectVersion
1070
     0
  0
VISUALSTYLE
  5
30
102
{ACAD_XDICTIONARY
360
1D8
102
}
102
{ACAD_REACTORS
330
29
102
}
330
29
100
AcDbVisualStyle
  2
Wireframe
 70
     5
177
     2
291
     0
 71
     0
176
     1
 72
     2
176
     1
 73
     0
176
     1
 90
        0
176
     1
 40
0.6
176
     1
 41
30.0
176
     1
 63
     7
421
 16777215
176
     1
 74
     1
176
     1
 91
        4
176
     1
 64
     7
176
     1
 65
   257
176
     1
 75
     1
176
     1
175
     1
176
     1
 42
1.0
176
     1
 92
        0
176
     1
 66
   257
176
     1
 43
1.0
176
     1
 76
     1
176
     1
 77
     6
176
     1
 78
     2
176
     1
 67
     7
176
     1
 79
     3
176
     1
170
     0
176
     1
171
     0
176
     1
290
     0
176
     1
 93
        1
176
     1
 44
0.0
176
     1
173
     0
176
     1
1001
ACAD
1000
AcDbSavedByObjectVersion
1070
     0
  0
VISUALSTYLE
  5
3C
102
{ACAD_XDICTIONARY
360
1F0
102
}
102
{ACAD_REACTORS
330
29
102
}
330
29
100
AcDbVisualStyle
  2
X-Ray
 70
    25
177
     2
291
     0
 71
     2
176
     1
 72
     2
176
     1
 73
     1
176
     1
 90
        1
176
     1
 40
0.5
176
     1
 41
30.0
176
     1
 63
     7
421
 16777215
176
     1
 74
     1
176
     1
 91
        0
176
     1
 64
     7
176
     1
 65
   257
176
     1
 75
     1
176
     1
175
     1
176
     1
 42
1.0
176
     1
 92
        8
176
     1
 66
     7
176
     1
 43
1.0
176
     1
 76
     1
176
     1
 77
     6
176
     1
 78
     2
176
     1
 67
     7
176
     1
 79
     3
176
     1
170
     0
176
     1
171
     0
176
     1
290
     0
176
     1
 93
       13
176
     1
 44
0.0
176
     1
173
     0
176
     1
1001
ACAD
1000
AcDbSavedByObjectVersion
1070
     0
  0
DICTIONARYVAR
  5
1C8
102
{ACAD_REACTORS
330
1C3
102
}
330
1C3
100
DictionaryVariables
280
     0
  1
1:1
  0
DICTIONARYVAR
  5
1C5
102
{ACAD_REACTORS
330
1C3
102
}
330
1C3
100
DictionaryVariables
280
     0
  1
STANDARD
  0
DICTIONARYVAR
  5
1C4
102
{ACAD_REACTORS
330
1C3
102
}
330
1C3
100
DictionaryVariables
280
     0
  1
STANDARD
  0
DICTIONARYVAR
  5
1C6
102
{ACAD_REACTORS
330
1C3
102
}
330
1C3
100
DictionaryVariables
280
     0
  1
Imperial24
  0
DICTIONARYVAR
  5
1C7
102
{ACAD_REACTORS
330
1C3
102
}
330
1C3
100
DictionaryVariables
280
     0
  1
Imperial24
  0
DICTIONARY
  5
200
330
6B
100
AcDbDictionary
280
     1
281
     1
  3
ACAD_XREC_ROUNDTRIP
360
201
  0
DICTIONARY
  5
1A
330
19
100
AcDbDictionary
280
     1
281
     1
  3
BUMPTILE
360
1C
  3
DIFFUSETILE
360
1B
  3
OPACITYTILE
360
1F
  3
REFLECTIONTILE
360
1E
  3
REFRACTIONTILE
360
20
  3
SPECULARTILE
360
1D
  0
DICTIONARY
  5
12
330
11
100
AcDbDictionary
280
     1
281
     1
  3
BUMPTILE
360
14
  3
DIFFUSETILE
360
13
  3
OPACITYTILE
360
17
  3
REFLECTIONTILE
360
16
  3
REFRACTIONTILE
360
18
  3
SPECULARTILE
360
15
  0
DICTIONARY
  5
22
330
21
100
AcDbDictionary
280
     1
281
     1
  3
BUMPTILE
360
24
  3
DIFFUSETILE
360
23
  3
OPACITYTILE
360
27
  3
REFLECTIONTILE
360
26
  3
REFRACTIONTILE
360
28
  3
SPECULARTILE
360
25
  0
DICTIONARY
  5
1FC
330
67
100
AcDbDictionary
280
     1
281
     1
  3
ACAD_XREC_ROUNDTRIP
360
1FD
  0
DICTIONARY
  5
1FE
330
69
100
AcDbDictionary
280
     1
281
     1
  3
ACAD_XREC_ROUNDTRIP
360
1FF
  0
DICTIONARY
  5
1C9
330
65
100
AcDbDictionary
280
     1
281
     1
  3
ACAD_ROUNDTRIP_2008_TABLESTYLE_CELLSTYLEMAP
360
1CA
  0
DICTIONARY
  5
1D6
330
2F
100
AcDbDictionary
280
     1
281
     1
  3
ACAD_XREC_ROUNDTRIP
360
1D7
  0
DICTIONARY
  5
1D4
330
2E
100
AcDbDictionary
280
     1
281
     1
  3
ACAD_XREC_ROUNDTRIP
360
1D5
  0
DICTIONARY
  5
1E2
330
35
100
AcDbDictionary
280
     1
281
     1
  3
ACAD_XREC_ROUNDTRIP
360
1E3
  0
DICTIONARY
  5
1EA
330
39
100
AcDbDictionary
280
     1
281
     1
  3
ACAD_XREC_ROUNDTRIP
360
1EB
  0
DICTIONARY
  5
1DC
330
32
100
AcDbDictionary
280
     1
281
     1
  3
ACAD_XREC_ROUNDTRIP
360
1DD
  0
DICTIONARY
  5
1E0
330
34
100
AcDbDictionary
280
     1
281
     1
  3
ACAD_XREC_ROUNDTRIP
360
1E1
  0
DICTIONARY
  5
1FA
330
41
100
AcDbDictionary
280
     1
281
     1
  3
ACAD_XREC_ROUNDTRIP
360
1FB
  0
DICTIONARY
  5
1E8
330
38
100
AcDbDictionary
280
     1
281
     1
  3
ACAD_XREC_ROUNDTRIP
360
1E9
  0
DICTIONARY
  5
1CC
330
2A
100
AcDbDictionary
280
     1
281
     1
  3
ACAD_XREC_ROUNDTRIP
360
1CD
  0
DICTIONARY
  5
1CE
330
2B
100
AcDbDictionary
280
     1
281
     1
  3
ACAD_XREC_ROUNDTRIP
360
1CF
  0
DICTIONARY
  5
1D0
330
2C
100
AcDbDictionary
280
     1
281
     1
  3
ACAD_XREC_ROUNDTRIP
360
1D1
  0
DICTIONARY
  5
1D2
330
2D
100
AcDbDictionary
280
     1
281
     1
  3
ACAD_XREC_ROUNDTRIP
360
1D3
  0
DICTIONARY
  5
1DA
330
31
100
AcDbDictionary
280
     1
281
     1
  3
ACAD_XREC_ROUNDTRIP
360
1DB
  0
DICTIONARY
  5
1F6
330
3F
100
AcDbDictionary
280
     1
281
     1
  3
ACAD_XREC_ROUNDTRIP
360
1F7
  0
DICTIONARY
  5
1E6
330
37
100
AcDbDictionary
280
     1
281
     1
  3
ACAD_XREC_ROUNDTRIP
360
1E7
  0
DICTIONARY
  5
1F8
330
40
100
AcDbDictionary
280
     1
281
     1
  3
ACAD_XREC_ROUNDTRIP
360
1F9
  0
DICTIONARY
  5
1DE
330
33
100
AcDbDictionary
280
     1
281
     1
  3
ACAD_XREC_ROUNDTRIP
360
1DF
  0
DICTIONARY
  5
1F4
330
3E
100
AcDbDictionary
280
     1
281
     1
  3
ACAD_XREC_ROUNDTRIP
360
1F5
  0
DICTIONARY
  5
1F2
330
3D
100
AcDbDictionary
280
     1
281
     1
  3
ACAD_XREC_ROUNDTRIP
360
1F3
  0
DICTIONARY
  5
1EC
330
3A
100
AcDbDictionary
280
     1
281
     1
  3
ACAD_XREC_ROUNDTRIP
360
1ED
  0
DICTIONARY
  5
1EE
330
3B
100
AcDbDictionary
280
     1
281
     1
  3
ACAD_XREC_ROUNDTRIP
360
1EF
  0
DICTIONARY
  5
1E4
330
36
100
AcDbDictionary
280
     1
281
     1
  3
ACAD_XREC_ROUNDTRIP
360
1E5
  0
DICTIONARY
  5
1D8
330
30
100
AcDbDictionary
280
     1
281
     1
  3
ACAD_XREC_ROUNDTRIP
360
1D9
  0
DICTIONARY
  5
1F0
330
3C
100
AcDbDictionary
280
     1
281
     1
  3
ACAD_XREC_ROUNDTRIP
360
1F1
  0
XRECORD
  5
201
102
{ACAD_REACTORS
330
200
102
}
330
200
100
AcDbXrecord
280
     1
102
DISPLAYNAME
  1
Imperial24
102
FLAGS
 90
        0
  0
XRECORD
  5
1C
102
{ACAD_REACTORS
330
1A
102
}
330
1A
100
AcDbXrecord
280
     1
270
     1
271
     1
  0
XRECORD
  5
1B
102
{ACAD_REACTORS
330
1A
102
}
330
1A
100
AcDbXrecord
280
     1
270
     1
271
     1
  0
XRECORD
  5
1F
102
{ACAD_REACTORS
330
1A
102
}
330
1A
100
AcDbXrecord
280
     1
270
     1
271
     1
  0
XRECORD
  5
1E
102
{ACAD_REACTORS
330
1A
102
}
330
1A
100
AcDbXrecord
280
     1
270
     1
271
     1
  0
XRECORD
  5
20
102
{ACAD_REACTORS
330
1A
102
}
330
1A
100
AcDbXrecord
280
     1
270
     1
271
     1
  0
XRECORD
  5
1D
102
{ACAD_REACTORS
330
1A
102
}
330
1A
100
AcDbXrecord
280
     1
270
     1
271
     1
  0
XRECORD
  5
14
102
{ACAD_REACTORS
330
12
102
}
330
12
100
AcDbXrecord
280
     1
270
     1
271
     1
  0
XRECORD
  5
13
102
{ACAD_REACTORS
330
12
102
}
330
12
100
AcDbXrecord
280
     1
270
     1
271
     1
  0
XRECORD
  5
17
102
{ACAD_REACTORS
330
12
102
}
330
12
100
AcDbXrecord
280
     1
270
     1
271
     1
  0
XRECORD
  5
16
102
{ACAD_REACTORS
330
12
102
}
330
12
100
AcDbXrecord
280
     1
270
     1
271
     1
  0
XRECORD
  5
18
102
{ACAD_REACTORS
330
12
102
}
330
12
100
AcDbXrecord
280
     1
270
     1
271
     1
  0
XRECORD
  5
15
102
{ACAD_REACTORS
330
12
102
}
330
12
100
AcDbXrecord
280
     1
270
     1
271
     1
  0
XRECORD
  5
24
102
{ACAD_REACTORS
330
22
102
}
330
22
100
AcDbXrecord
280
     1
270
     1
271
     1
  0
XRECORD
  5
23
102
{ACAD_REACTORS
330
22
102
}
330
22
100
AcDbXrecord
280
     1
270
     1
271
     1
  0
XRECORD
  5
27
102
{ACAD_REACTORS
330
22
102
}
330
22
100
AcDbXrecord
280
     1
270
     1
271
     1
  0
XRECORD
  5
26
102
{ACAD_REACTORS
330
22
102
}
330
22
100
AcDbXrecord
280
     1
270
     1
271
     1
  0
XRECORD
  5
28
102
{ACAD_REACTORS
330
22
102
}
330
22
100
AcDbXrecord
280
     1
270
     1
271
     1
  0
XRECORD
  5
25
102
{ACAD_REACTORS
330
22
102
}
330
22
100
AcDbXrecord
280
     1
270
     1
271
     1
  0
XRECORD
  5
1FD
102
{ACAD_REACTORS
330
1FC
102
}
330
1FC
100
AcDbXrecord
280
     1
102
ACAD_ROUNDTRIP_2012_MLEADER_STYLE
298
     1
  0
XRECORD
  5
1FF
102
{ACAD_REACTORS
330
1FE
102
}
330
1FE
100
AcDbXrecord
280
     1
102
DISPLAYNAME
  1
Imperial24
102
FLAGS
 90
        0
  0
CELLSTYLEMAP
  5
1CA
102
{ACAD_REACTORS
330
1C9
102
}
330
1C9
100
AcDbCellStyleMap
 90
        3
300
CELLSTYLE
  1
TABLEFORMAT_BEGIN
 90
        5
170
     1
 91
        0
 92
    32768
 62
   257
 93
        1
300
CONTENTFORMAT
  1
CONTENTFORMAT_BEGIN
 90
        0
 91
        0
 92
      512
 93
        0
300

 40
0.0
140
1.0
 94
        5
 62
     0
340
55
144
0.25
309
CONTENTFORMAT_END
171
     0
 94
        0
309
TABLEFORMAT_END
  1
CELLSTYLE_BEGIN
 90
        1
 91
        1
300
_TITLE
309
CELLSTYLE_END
300
CELLSTYLE
  1
TABLEFORMAT_BEGIN
 90
        5
170
     1
 91
        0
 92
        0
 62
   257
 93
        1
300
CONTENTFORMAT
  1
CONTENTFORMAT_BEGIN
 90
        0
 91
        0
 92
      512
 93
        0
300

 40
0.0
140
1.0
 94
        5
 62
     0
340
55
144
0.18
309
CONTENTFORMAT_END
171
     0
 94
        0
309
TABLEFORMAT_END
  1
CELLSTYLE_BEGIN
 90
        2
 91
        1
300
_HEADER
309
CELLSTYLE_END
300
CELLSTYLE
  1
TABLEFORMAT_BEGIN
 90
        5
170
     1
 91
        0
 92
        0
 62
   257
 93
        1
300
CONTENTFORMAT
  1
CONTENTFORMAT_BEGIN
 90
        0
 91
        0
 92
      512
 93
        0
300

 40
0.0
140
1.0
 94
        2
 62
     0
340
55
144
0.18
309
CONTENTFORMAT_END
171
     0
 94
        0
309
TABLEFORMAT_END
  1
CELLSTYLE_BEGIN
 90
        3
 91
        2
300
_DATA
309
CELLSTYLE_END
  0
XRECORD
  5
1D7
102
{ACAD_REACTORS
330
1D6
102
}
330
1D6
100
AcDbXrecord
280
     1
102
RTVSPost2010Prop28
280
     1
102
RTVSPost2010PropOp28
 70
     1
102
RTVSPost2010Prop29
280
     1
102
RTVSPost2010PropOp29
 70
     1
102
RTVSPost2010Prop30
280
     0
102
RTVSPost2010PropOp30
 70
     1
102
RTVSPost2010Prop31
280
     0
102
RTVSPost2010PropOp31
 70
     1
102
RTVSPost2010Prop32
280
     0
102
RTVSPost2010PropOp32
 70
     1
102
RTVSPost2010Prop33
280
     0
102
RTVSPost2010PropOp33
 70
     1
102
RTVSPost2010Prop34
280
     0
102
RTVSPost2010PropOp34
 70
     1
102
RTVSPost2010Prop35
280
     0
102
RTVSPost2010PropOp35
 70
     1
102
RTVSPost2010Prop36
280
     0
102
RTVSPost2010PropOp36
 70
     1
102
RTVSPost2010Prop37
 90
       50
102
RTVSPost2010PropOp37
 70
     1
102
RTVSPost2010Prop38
140
0.0
102
RTVSPost2010PropOp38
 70
     1
102
RTVSPost2010Prop39
140
1.0
102
RTVSPost2010PropOp39
 70
     1
102
RTVSPost2010Prop40
 90
        0
102
RTVSPost2010PropOp40
 70
     1
102
RTVSPost2010Prop41ColorIndex
 90
       18
102
RTVSPost2010Prop41ColorRGB
 90
        0
102
RTVSPost2010PropOp41
 70
     1
102
RTVSPost2010Prop42
 90
       50
102
RTVSPost2010PropOp42
 70
     1
102
RTVSPost2010Prop43
 90
        3
102
RTVSPost2010PropOp43
 70
     1
102
RTVSPost2010Prop44ColorIndex
 90
        5
102
RTVSPost2010Prop44ColorRGB
 90
      255
102
RTVSPost2010PropOp44
 70
     1
102
RTVSPost2010Prop45
280
     0
102
RTVSPost2010PropOp45
 70
     1
102
RTVSPost2010Prop46
 90
       50
102
RTVSPost2010PropOp46
 70
     1
102
RTVSPost2010Prop47
 90
       50
102
RTVSPost2010PropOp47
 70
     1
102
RTVSPost2010Prop48
 90
       50
102
RTVSPost2010PropOp48
 70
     1
102
RTVSPost2010Prop49
280
     0
102
RTVSPost2010PropOp49
 70
     1
102
RTVSPost2010Prop50
 90
       50
102
RTVSPost2010PropOp50
 70
     1
102
RTVSPost2010Prop51ColorIndex
 90
      256
102
RTVSPost2010Prop51ColorRGB
 90
-16777216
102
RTVSPost2010PropOp51
 70
     0
102
RTVSPost2010Prop52
140
1.0
102
RTVSPost2010PropOp52
 70
     0
102
RTVSPost2010Prop53
 90
        2
102
RTVSPost2010PropOp53
 70
     1
102
RTVSPost2010Prop54
  1
strokes_ogs.tif
102
RTVSPost2010PropOp54
 70
     1
102
RTVSPost2010Prop55
280
     0
102
RTVSPost2010PropOp55
 70
     1
102
RTVSPost2010Prop56
140
1.0
102
RTVSPost2010PropOp56
 70
     1
102
RTVSPost2010Prop57
140
1.0
102
RTVSPost2010PropOp57
 70
     1
  0
XRECORD
  5
1D5
102
{ACAD_REACTORS
330
1D4
102
}
330
1D4
100
AcDbXrecord
280
     1
102
RTVSPost2010Prop28
280
     0
102
RTVSPost2010PropOp28
 70
     1
102
RTVSPost2010Prop29
280
     1
102
RTVSPost2010PropOp29
 70
     1
102
RTVSPost2010Prop30
280
     1
102
RTVSPost2010PropOp30
 70
     1
102
RTVSPost2010Prop31
280
     0
102
RTVSPost2010PropOp31
 70
     1
102
RTVSPost2010Prop32
280
     0
102
RTVSPost2010PropOp32
 70
     1
102
RTVSPost2010Prop33
280
     0
102
RTVSPost2010PropOp33
 70
     1
102
RTVSPost2010Prop34
280
     0
102
RTVSPost2010PropOp34
 70
     1
102
RTVSPost2010Prop35
280
     0
102
RTVSPost2010PropOp35
 70
     1
102
RTVSPost2010Prop36
280
     0
102
RTVSPost2010PropOp36
 70
     1
102
RTVSPost2010Prop37
 90
       50
102
RTVSPost2010PropOp37
 70
     1
102
RTVSPost2010Prop38
140
0.0
102
RTVSPost2010PropOp38
 70
     1
102
RTVSPost2010Prop39
140
1.0
102
RTVSPost2010PropOp39
 70
     1
102
RTVSPost2010Prop40
 90
        0
102
RTVSPost2010PropOp40
 70
     1
102
RTVSPost2010Prop41ColorIndex
 90
       18
102
RTVSPost2010Prop41ColorRGB
 90
        0
102
RTVSPost2010PropOp41
 70
     1
102
RTVSPost2010Prop42
 90
       50
102
RTVSPost2010PropOp42
 70
     1
102
RTVSPost2010Prop43
 90
        3
102
RTVSPost2010PropOp43
 70
     1
102
RTVSPost2010Prop44ColorIndex
 90
        5
102
RTVSPost2010Prop44ColorRGB
 90
      255
102
RTVSPost2010PropOp44
 70
     1
102
RTVSPost2010Prop45
280
     0
102
RTVSPost2010PropOp45
 70
     1
102
RTVSPost2010Prop46
 90
       50
102
RTVSPost2010PropOp46
 70
     1
102
RTVSPost2010Prop47
 90
       50
102
RTVSPost2010PropOp47
 70
     1
102
RTVSPost2010Prop48
 90
       50
102
RTVSPost2010PropOp48
 70
     1
102
RTVSPost2010Prop49
280
     0
102
RTVSPost2010PropOp49
 70
     1
102
RTVSPost2010Prop50
 90
       50
102
RTVSPost2010PropOp50
 70
     1
102
RTVSPost2010Prop51ColorIndex
 90
      256
102
RTVSPost2010Prop51ColorRGB
 90
-16777216
102
RTVSPost2010PropOp51
 70
     0
102
RTVSPost2010Prop52
140
1.0
102
RTVSPost2010PropOp52
 70
     0
102
RTVSPost2010Prop53
 90
        2
102
RTVSPost2010PropOp53
 70
     1
102
RTVSPost2010Prop54
  1
strokes_ogs.tif
102
RTVSPost2010PropOp54
 70
     1
102
RTVSPost2010Prop55
280
     0
102
RTVSPost2010PropOp55
 70
     1
102
RTVSPost2010Prop56
140
1.0
102
RTVSPost2010PropOp56
 70
     1
102
RTVSPost2010Prop57
140
1.0
102
RTVSPost2010PropOp57
 70
     1
  0
XRECORD
  5
1E3
102
{ACAD_REACTORS
330
1E2
102
}
330
1E2
100
AcDbXrecord
280
     1
102
RTVSPost2010Prop28
280
     0
102
RTVSPost2010PropOp28
 70
     1
102
RTVSPost2010Prop29
280
     1
102
RTVSPost2010PropOp29
 70
     1
102
RTVSPost2010Prop30
280
     1
102
RTVSPost2010PropOp30
 70
     1
102
RTVSPost2010Prop31
280
     0
102
RTVSPost2010PropOp31
 70
     1
102
RTVSPost2010Prop32
280
     0
102
RTVSPost2010PropOp32
 70
     1
102
RTVSPost2010Prop33
280
     0
102
RTVSPost2010PropOp33
 70
     1
102
RTVSPost2010Prop34
280
     0
102
RTVSPost2010PropOp34
 70
     1
102
RTVSPost2010Prop35
280
     0
102
RTVSPost2010PropOp35
 70
     1
102
RTVSPost2010Prop36
280
     0
102
RTVSPost2010PropOp36
 70
     1
102
RTVSPost2010Prop37
 90
       50
102
RTVSPost2010PropOp37
 70
     1
102
RTVSPost2010Prop38
140
0.0
102
RTVSPost2010PropOp38
 70
     1
102
RTVSPost2010Prop39
140
1.0
102
RTVSPost2010PropOp39
 70
     1
102
RTVSPost2010Prop40
 90
        0
102
RTVSPost2010PropOp40
 70
     1
102
RTVSPost2010Prop41ColorIndex
 90
       18
102
RTVSPost2010Prop41ColorRGB
 90
        0
102
RTVSPost2010PropOp41
 70
     1
102
RTVSPost2010Prop42
 90
       50
102
RTVSPost2010PropOp42
 70
     1
102
RTVSPost2010Prop43
 90
        3
102
RTVSPost2010PropOp43
 70
     1
102
RTVSPost2010Prop44ColorIndex
 90
        5
102
RTVSPost2010Prop44ColorRGB
 90
      255
102
RTVSPost2010PropOp44
 70
     1
102
RTVSPost2010Prop45
280
     0
102
RTVSPost2010PropOp45
 70
     1
102
RTVSPost2010Prop46
 90
       50
102
RTVSPost2010PropOp46
 70
     1
102
RTVSPost2010Prop47
 90
       50
102
RTVSPost2010PropOp47
 70
     1
102
RTVSPost2010Prop48
 90
       50
102
RTVSPost2010PropOp48
 70
     1
102
RTVSPost2010Prop49
280
     0
102
RTVSPost2010PropOp49
 70
     1
102
RTVSPost2010Prop50
 90
       50
102
RTVSPost2010PropOp50
 70
     1
102
RTVSPost2010Prop51ColorIndex
 90
      256
102
RTVSPost2010Prop51ColorRGB
 90
-16777216
102
RTVSPost2010PropOp51
 70
     0
102
RTVSPost2010Prop52
140
1.0
102
RTVSPost2010PropOp52
 70
     0
102
RTVSPost2010Prop53
 90
        2
102
RTVSPost2010PropOp53
 70
     1
102
RTVSPost2010Prop54
  1
strokes_ogs.tif
102
RTVSPost2010PropOp54
 70
     1
102
RTVSPost2010Prop55
280
     0
102
RTVSPost2010PropOp55
 70
     1
102
RTVSPost2010Prop56
140
1.0
102
RTVSPost2010PropOp56
 70
     1
102
RTVSPost2010Prop57
140
1.0
102
RTVSPost2010PropOp57
 70
     1
  0
XRECORD
  5
1EB
102
{ACAD_REACTORS
330
1EA
102
}
330
1EA
100
AcDbXrecord
280
     1
102
RTVSPost2010Prop28
280
     0
102
RTVSPost2010PropOp28
 70
     1
102
RTVSPost2010Prop29
280
     1
102
RTVSPost2010PropOp29
 70
     1
102
RTVSPost2010Prop30
280
     1
102
RTVSPost2010PropOp30
 70
     1
102
RTVSPost2010Prop31
280
     0
102
RTVSPost2010PropOp31
 70
     1
102
RTVSPost2010Prop32
280
     0
102
RTVSPost2010PropOp32
 70
     1
102
RTVSPost2010Prop33
280
     0
102
RTVSPost2010PropOp33
 70
     1
102
RTVSPost2010Prop34
280
     0
102
RTVSPost2010PropOp34
 70
     1
102
RTVSPost2010Prop35
280
     0
102
RTVSPost2010PropOp35
 70
     1
102
RTVSPost2010Prop36
280
     0
102
RTVSPost2010PropOp36
 70
     1
102
RTVSPost2010Prop37
 90
       50
102
RTVSPost2010PropOp37
 70
     1
102
RTVSPost2010Prop38
140
0.0
102
RTVSPost2010PropOp38
 70
     1
102
RTVSPost2010Prop39
140
1.0
102
RTVSPost2010PropOp39
 70
     1
102
RTVSPost2010Prop40
 90
        0
102
RTVSPost2010PropOp40
 70
     1
102
RTVSPost2010Prop41ColorIndex
 90
       18
102
RTVSPost2010Prop41ColorRGB
 90
        0
102
RTVSPost2010PropOp41
 70
     1
102
RTVSPost2010Prop42
 90
       50
102
RTVSPost2010PropOp42
 70
     1
102
RTVSPost2010Prop43
 90
        3
102
RTVSPost2010PropOp43
 70
     1
102
RTVSPost2010Prop44ColorIndex
 90
        5
102
RTVSPost2010Prop44ColorRGB
 90
      255
102
RTVSPost2010PropOp44
 70
     1
102
RTVSPost2010Prop45
280
     0
102
RTVSPost2010PropOp45
 70
     1
102
RTVSPost2010Prop46
 90
       50
102
RTVSPost2010PropOp46
 70
     1
102
RTVSPost2010Prop47
 90
       50
102
RTVSPost2010PropOp47
 70
     1
102
RTVSPost2010Prop48
 90
       50
102
RTVSPost2010PropOp48
 70
     1
102
RTVSPost2010Prop49
280
     0
102
RTVSPost2010PropOp49
 70
     1
102
RTVSPost2010Prop50
 90
       50
102
RTVSPost2010PropOp50
 70
     1
102
RTVSPost2010Prop51ColorIndex
 90
      256
102
RTVSPost2010Prop51ColorRGB
 90
-16777216
102
RTVSPost2010PropOp51
 70
     0
102
RTVSPost2010Prop52
140
1.0
102
RTVSPost2010PropOp52
 70
     0
102
RTVSPost2010Prop53
 90
        2
102
RTVSPost2010PropOp53
 70
     1
102
RTVSPost2010Prop54
  1
strokes_ogs.tif
102
RTVSPost2010PropOp54
 70
     1
102
RTVSPost2010Prop55
280
     0
102
RTVSPost2010PropOp55
 70
     1
102
RTVSPost2010Prop56
140
1.0
102
RTVSPost2010PropOp56
 70
     1
102
RTVSPost2010Prop57
140
1.0
102
RTVSPost2010PropOp57
 70
     1
  0
XRECORD
  5
1DD
102
{ACAD_REACTORS
330
1DC
102
}
330
1DC
100
AcDbXrecord
280
     1
102
RTVSPost2010Prop28
280
     0
102
RTVSPost2010PropOp28
 70
     1
102
RTVSPost2010Prop29
280
     1
102
RTVSPost2010PropOp29
 70
     1
102
RTVSPost2010Prop30
280
     1
102
RTVSPost2010PropOp30
 70
     1
102
RTVSPost2010Prop31
280
     0
102
RTVSPost2010PropOp31
 70
     1
102
RTVSPost2010Prop32
280
     0
102
RTVSPost2010PropOp32
 70
     1
102
RTVSPost2010Prop33
280
     0
102
RTVSPost2010PropOp33
 70
     1
102
RTVSPost2010Prop34
280
     0
102
RTVSPost2010PropOp34
 70
     1
102
RTVSPost2010Prop35
280
     0
102
RTVSPost2010PropOp35
 70
     1
102
RTVSPost2010Prop36
280
     0
102
RTVSPost2010PropOp36
 70
     1
102
RTVSPost2010Prop37
 90
       50
102
RTVSPost2010PropOp37
 70
     1
102
RTVSPost2010Prop38
140
0.0
102
RTVSPost2010PropOp38
 70
     1
102
RTVSPost2010Prop39
140
1.0
102
RTVSPost2010PropOp39
 70
     1
102
RTVSPost2010Prop40
 90
        0
102
RTVSPost2010PropOp40
 70
     1
102
RTVSPost2010Prop41ColorIndex
 90
       18
102
RTVSPost2010Prop41ColorRGB
 90
        0
102
RTVSPost2010PropOp41
 70
     1
102
RTVSPost2010Prop42
 90
       50
102
RTVSPost2010PropOp42
 70
     1
102
RTVSPost2010Prop43
 90
        3
102
RTVSPost2010PropOp43
 70
     1
102
RTVSPost2010Prop44ColorIndex
 90
        5
102
RTVSPost2010Prop44ColorRGB
 90
      255
102
RTVSPost2010PropOp44
 70
     1
102
RTVSPost2010Prop45
280
     0
102
RTVSPost2010PropOp45
 70
     1
102
RTVSPost2010Prop46
 90
       50
102
RTVSPost2010PropOp46
 70
     1
102
RTVSPost2010Prop47
 90
       50
102
RTVSPost2010PropOp47
 70
     1
102
RTVSPost2010Prop48
 90
       50
102
RTVSPost2010PropOp48
 70
     1
102
RTVSPost2010Prop49
280
     0
102
RTVSPost2010PropOp49
 70
     1
102
RTVSPost2010Prop50
 90
       50
102
RTVSPost2010PropOp50
 70
     1
102
RTVSPost2010Prop51ColorIndex
 90
      256
102
RTVSPost2010Prop51ColorRGB
 90
-16777216
102
RTVSPost2010PropOp51
 70
     0
102
RTVSPost2010Prop52
140
1.0
102
RTVSPost2010PropOp52
 70
     0
102
RTVSPost2010Prop53
 90
        2
102
RTVSPost2010PropOp53
 70
     1
102
RTVSPost2010Prop54
  1
strokes_ogs.tif
102
RTVSPost2010PropOp54
 70
     1
102
RTVSPost2010Prop55
280
     0
102
RTVSPost2010PropOp55
 70
     1
102
RTVSPost2010Prop56
140
1.0
102
RTVSPost2010PropOp56
 70
     1
102
RTVSPost2010Prop57
140
1.0
102
RTVSPost2010PropOp57
 70
     1
  0
XRECORD
  5
1E1
102
{ACAD_REACTORS
330
1E0
102
}
330
1E0
100
AcDbXrecord
280
     1
102
RTVSPost2010Prop28
280
     0
102
RTVSPost2010PropOp28
 70
     1
102
RTVSPost2010Prop29
280
     1
102
RTVSPost2010PropOp29
 70
     1
102
RTVSPost2010Prop30
280
     1
102
RTVSPost2010PropOp30
 70
     1
102
RTVSPost2010Prop31
280
     0
102
RTVSPost2010PropOp31
 70
     1
102
RTVSPost2010Prop32
280
     0
102
RTVSPost2010PropOp32
 70
     1
102
RTVSPost2010Prop33
280
     0
102
RTVSPost2010PropOp33
 70
     1
102
RTVSPost2010Prop34
280
     0
102
RTVSPost2010PropOp34
 70
     1
102
RTVSPost2010Prop35
280
     0
102
RTVSPost2010PropOp35
 70
     1
102
RTVSPost2010Prop36
280
     0
102
RTVSPost2010PropOp36
 70
     1
102
RTVSPost2010Prop37
 90
       50
102
RTVSPost2010PropOp37
 70
     1
102
RTVSPost2010Prop38
140
0.0
102
RTVSPost2010PropOp38
 70
     1
102
RTVSPost2010Prop39
140
1.0
102
RTVSPost2010PropOp39
 70
     1
102
RTVSPost2010Prop40
 90
        0
102
RTVSPost2010PropOp40
 70
     1
102
RTVSPost2010Prop41ColorIndex
 90
       18
102
RTVSPost2010Prop41ColorRGB
 90
        0
102
RTVSPost2010PropOp41
 70
     1
102
RTVSPost2010Prop42
 90
       50
102
RTVSPost2010PropOp42
 70
     1
102
RTVSPost2010Prop43
 90
        3
102
RTVSPost2010PropOp43
 70
     1
102
RTVSPost2010Prop44ColorIndex
 90
        5
102
RTVSPost2010Prop44ColorRGB
 90
      255
102
RTVSPost2010PropOp44
 70
     1
102
RTVSPost2010Prop45
280
     0
102
RTVSPost2010PropOp45
 70
     1
102
RTVSPost2010Prop46
 90
       50
102
RTVSPost2010PropOp46
 70
     1
102
RTVSPost2010Prop47
 90
       50
102
RTVSPost2010PropOp47
 70
     1
102
RTVSPost2010Prop48
 90
       50
102
RTVSPost2010PropOp48
 70
     1
102
RTVSPost2010Prop49
280
     0
102
RTVSPost2010PropOp49
 70
     1
102
RTVSPost2010Prop50
 90
       50
102
RTVSPost2010PropOp50
 70
     1
102
RTVSPost2010Prop51ColorIndex
 90
      256
102
RTVSPost2010Prop51ColorRGB
 90
-16777216
102
RTVSPost2010PropOp51
 70
     0
102
RTVSPost2010Prop52
140
1.0
102
RTVSPost2010PropOp52
 70
     0
102
RTVSPost2010Prop53
 90
        2
102
RTVSPost2010PropOp53
 70
     1
102
RTVSPost2010Prop54
  1
strokes_ogs.tif
102
RTVSPost2010PropOp54
 70
     1
102
RTVSPost2010Prop55
280
     0
102
RTVSPost2010PropOp55
 70
     1
102
RTVSPost2010Prop56
140
1.0
102
RTVSPost2010PropOp56
 70
     1
102
RTVSPost2010Prop57
140
1.0
102
RTVSPost2010PropOp57
 70
     1
  0
XRECORD
  5
1FB
102
{ACAD_REACTORS
330
1FA
102
}
330
1FA
100
AcDbXrecord
280
     1
102
RTVSPost2010Prop28
280
     0
102
RTVSPost2010PropOp28
 70
     0
102
RTVSPost2010Prop29
280
     1
102
RTVSPost2010PropOp29
 70
     0
102
RTVSPost2010Prop30
280
     1
102
RTVSPost2010PropOp30
 70
     0
102
RTVSPost2010Prop31
280
     0
102
RTVSPost2010PropOp31
 70
     0
102
RTVSPost2010Prop32
280
     0
102
RTVSPost2010PropOp32
 70
     0
102
RTVSPost2010Prop33
280
     0
102
RTVSPost2010PropOp33
 70
     0
102
RTVSPost2010Prop34
280
     0
102
RTVSPost2010PropOp34
 70
     0
102
RTVSPost2010Prop35
280
     0
102
RTVSPost2010PropOp35
 70
     0
102
RTVSPost2010Prop36
280
     0
102
RTVSPost2010PropOp36
 70
     0
102
RTVSPost2010Prop37
 90
       50
102
RTVSPost2010PropOp37
 70
     0
102
RTVSPost2010Prop38
140
0.0
102
RTVSPost2010PropOp38
 70
     0
102
RTVSPost2010Prop39
140
1.0
102
RTVSPost2010PropOp39
 70
     0
102
RTVSPost2010Prop40
 90
        0
102
RTVSPost2010PropOp40
 70
     0
102
RTVSPost2010Prop41ColorIndex
 90
       18
102
RTVSPost2010Prop41ColorRGB
 90
        0
102
RTVSPost2010PropOp41
 70
     0
102
RTVSPost2010Prop42
 90
       50
102
RTVSPost2010PropOp42
 70
     0
102
RTVSPost2010Prop43
 90
        3
102
RTVSPost2010PropOp43
 70
     0
102
RTVSPost2010Prop44ColorIndex
 90
        5
102
RTVSPost2010Prop44ColorRGB
 90
      255
102
RTVSPost2010PropOp44
 70
     0
102
RTVSPost2010Prop45
280
     0
102
RTVSPost2010PropOp45
 70
     0
102
RTVSPost2010Prop46
 90
       50
102
RTVSPost2010PropOp46
 70
     0
102
RTVSPost2010Prop47
 90
       50
102
RTVSPost2010PropOp47
 70
     0
102
RTVSPost2010Prop48
 90
       50
102
RTVSPost2010PropOp48
 70
     0
102
RTVSPost2010Prop49
280
     0
102
RTVSPost2010PropOp49
 70
     0
102
RTVSPost2010Prop50
 90
       50
102
RTVSPost2010PropOp50
 70
     0
102
RTVSPost2010Prop51ColorIndex
 90
      256
102
RTVSPost2010Prop51ColorRGB
 90
-16777216
102
RTVSPost2010PropOp51
 70
     0
102
RTVSPost2010Prop52
140
1.0
102
RTVSPost2010PropOp52
 70
     0
102
RTVSPost2010Prop53
 90
        2
102
RTVSPost2010PropOp53
 70
     0
102
RTVSPost2010Prop54
  1
strokes_ogs.tif
102
RTVSPost2010PropOp54
 70
     0
102
RTVSPost2010Prop55
280
     0
102
RTVSPost2010PropOp55
 70
     0
102
RTVSPost2010Prop56
140
1.0
102
RTVSPost2010PropOp56
 70
     0
102
RTVSPost2010Prop57
140
1.0
102
RTVSPost2010PropOp57
 70
     0
  0
XRECORD
  5
1E9
102
{ACAD_REACTORS
330
1E8
102
}
330
1E8
100
AcDbXrecord
280
     1
102
RTVSPost2010Prop28
280
     0
102
RTVSPost2010PropOp28
 70
     1
102
RTVSPost2010Prop29
280
     1
102
RTVSPost2010PropOp29
 70
     1
102
RTVSPost2010Prop30
280
     1
102
RTVSPost2010PropOp30
 70
     1
102
RTVSPost2010Prop31
280
     0
102
RTVSPost2010PropOp31
 70
     1
102
RTVSPost2010Prop32
280
     0
102
RTVSPost2010PropOp32
 70
     1
102
RTVSPost2010Prop33
280
     0
102
RTVSPost2010PropOp33
 70
     1
102
RTVSPost2010Prop34
280
     0
102
RTVSPost2010PropOp34
 70
     1
102
RTVSPost2010Prop35
280
     0
102
RTVSPost2010PropOp35
 70
     1
102
RTVSPost2010Prop36
280
     0
102
RTVSPost2010PropOp36
 70
     1
102
RTVSPost2010Prop37
 90
       50
102
RTVSPost2010PropOp37
 70
     1
102
RTVSPost2010Prop38
140
0.0
102
RTVSPost2010PropOp38
 70
     1
102
RTVSPost2010Prop39
140
1.0
102
RTVSPost2010PropOp39
 70
     1
102
RTVSPost2010Prop40
 90
        0
102
RTVSPost2010PropOp40
 70
     1
102
RTVSPost2010Prop41ColorIndex
 90
       18
102
RTVSPost2010Prop41ColorRGB
 90
        0
102
RTVSPost2010PropOp41
 70
     1
102
RTVSPost2010Prop42
 90
       50
102
RTVSPost2010PropOp42
 70
     1
102
RTVSPost2010Prop43
 90
        3
102
RTVSPost2010PropOp43
 70
     1
102
RTVSPost2010Prop44ColorIndex
 90
        5
102
RTVSPost2010Prop44ColorRGB
 90
      255
102
RTVSPost2010PropOp44
 70
     1
102
RTVSPost2010Prop45
280
     0
102
RTVSPost2010PropOp45
 70
     1
102
RTVSPost2010Prop46
 90
       50
102
RTVSPost2010PropOp46
 70
     1
102
RTVSPost2010Prop47
 90
       50
102
RTVSPost2010PropOp47
 70
     1
102
RTVSPost2010Prop48
 90
       50
102
RTVSPost2010PropOp48
 70
     1
102
RTVSPost2010Prop49
280
     0
102
RTVSPost2010PropOp49
 70
     1
102
RTVSPost2010Prop50
 90
       50
102
RTVSPost2010PropOp50
 70
     1
102
RTVSPost2010Prop51ColorIndex
 90
      256
102
RTVSPost2010Prop51ColorRGB
 90
-16777216
102
RTVSPost2010PropOp51
 70
     0
102
RTVSPost2010Prop52
140
1.0
102
RTVSPost2010PropOp52
 70
     0
102
RTVSPost2010Prop53
 90
        2
102
RTVSPost2010PropOp53
 70
     1
102
RTVSPost2010Prop54
  1
strokes_ogs.tif
102
RTVSPost2010PropOp54
 70
     1
102
RTVSPost2010Prop55
280
     0
102
RTVSPost2010PropOp55
 70
     1
102
RTVSPost2010Prop56
140
1.0
102
RTVSPost2010PropOp56
 70
     1
102
RTVSPost2010Prop57
140
1.0
102
RTVSPost2010PropOp57
 70
     1
  0
XRECORD
  5
1CD
102
{ACAD_REACTORS
330
1CC
102
}
330
1CC
100
AcDbXrecord
280
     1
102
RTVSPost2010Prop28
280
     0
102
RTVSPost2010PropOp28
 70
     1
102
RTVSPost2010Prop29
280
     1
102
RTVSPost2010PropOp29
 70
     1
102
RTVSPost2010Prop30
280
     1
102
RTVSPost2010PropOp30
 70
     1
102
RTVSPost2010Prop31
280
     0
102
RTVSPost2010PropOp31
 70
     1
102
RTVSPost2010Prop32
280
     0
102
RTVSPost2010PropOp32
 70
     1
102
RTVSPost2010Prop33
280
     0
102
RTVSPost2010PropOp33
 70
     1
102
RTVSPost2010Prop34
280
     0
102
RTVSPost2010PropOp34
 70
     1
102
RTVSPost2010Prop35
280
     0
102
RTVSPost2010PropOp35
 70
     1
102
RTVSPost2010Prop36
280
     0
102
RTVSPost2010PropOp36
 70
     1
102
RTVSPost2010Prop37
 90
       50
102
RTVSPost2010PropOp37
 70
     1
102
RTVSPost2010Prop38
140
0.0
102
RTVSPost2010PropOp38
 70
     1
102
RTVSPost2010Prop39
140
1.0
102
RTVSPost2010PropOp39
 70
     1
102
RTVSPost2010Prop40
 90
        0
102
RTVSPost2010PropOp40
 70
     1
102
RTVSPost2010Prop41ColorIndex
 90
       18
102
RTVSPost2010Prop41ColorRGB
 90
        0
102
RTVSPost2010PropOp41
 70
     1
102
RTVSPost2010Prop42
 90
       50
102
RTVSPost2010PropOp42
 70
     1
102
RTVSPost2010Prop43
 90
        3
102
RTVSPost2010PropOp43
 70
     1
102
RTVSPost2010Prop44ColorIndex
 90
        5
102
RTVSPost2010Prop44ColorRGB
 90
      255
102
RTVSPost2010PropOp44
 70
     1
102
RTVSPost2010Prop45
280
     0
102
RTVSPost2010PropOp45
 70
     1
102
RTVSPost2010Prop46
 90
       50
102
RTVSPost2010PropOp46
 70
     1
102
RTVSPost2010Prop47
 90
       50
102
RTVSPost2010PropOp47
 70
     1
102
RTVSPost2010Prop48
 90
       50
102
RTVSPost2010PropOp48
 70
     1
102
RTVSPost2010Prop49
280
     0
102
RTVSPost2010PropOp49
 70
     1
102
RTVSPost2010Prop50
 90
       50
102
RTVSPost2010PropOp50
 70
     1
102
RTVSPost2010Prop51ColorIndex
 90
      256
102
RTVSPost2010Prop51ColorRGB
 90
-16777216
102
RTVSPost2010PropOp51
 70
     0
102
RTVSPost2010Prop52
140
1.0
102
RTVSPost2010PropOp52
 70
     0
102
RTVSPost2010Prop53
 90
        2
102
RTVSPost2010PropOp53
 70
     1
102
RTVSPost2010Prop54
  1
strokes_ogs.tif
102
RTVSPost2010PropOp54
 70
     1
102
RTVSPost2010Prop55
280
     0
102
RTVSPost2010PropOp55
 70
     1
102
RTVSPost2010Prop56
140
1.0
102
RTVSPost2010PropOp56
 70
     1
102
RTVSPost2010Prop57
140
1.0
102
RTVSPost2010PropOp57
 70
     1
  0
XRECORD
  5
1CF
102
{ACAD_REACTORS
330
1CE
102
}
330
1CE
100
AcDbXrecord
280
     1
102
RTVSPost2010Prop28
280
     0
102
RTVSPost2010PropOp28
 70
     1
102
RTVSPost2010Prop29
280
     1
102
RTVSPost2010PropOp29
 70
     1
102
RTVSPost2010Prop30
280
     1
102
RTVSPost2010PropOp30
 70
     1
102
RTVSPost2010Prop31
280
     0
102
RTVSPost2010PropOp31
 70
     1
102
RTVSPost2010Prop32
280
     0
102
RTVSPost2010PropOp32
 70
     1
102
RTVSPost2010Prop33
280
     0
102
RTVSPost2010PropOp33
 70
     1
102
RTVSPost2010Prop34
280
     0
102
RTVSPost2010PropOp34
 70
     1
102
RTVSPost2010Prop35
280
     0
102
RTVSPost2010PropOp35
 70
     1
102
RTVSPost2010Prop36
280
     0
102
RTVSPost2010PropOp36
 70
     1
102
RTVSPost2010Prop37
 90
       50
102
RTVSPost2010PropOp37
 70
     1
102
RTVSPost2010Prop38
140
0.0
102
RTVSPost2010PropOp38
 70
     1
102
RTVSPost2010Prop39
140
1.0
102
RTVSPost2010PropOp39
 70
     1
102
RTVSPost2010Prop40
 90
        0
102
RTVSPost2010PropOp40
 70
     1
102
RTVSPost2010Prop41ColorIndex
 90
       18
102
RTVSPost2010Prop41ColorRGB
 90
        0
102
RTVSPost2010PropOp41
 70
     1
102
RTVSPost2010Prop42
 90
       50
102
RTVSPost2010PropOp42
 70
     1
102
RTVSPost2010Prop43
 90
        3
102
RTVSPost2010PropOp43
 70
     1
102
RTVSPost2010Prop44ColorIndex
 90
        5
102
RTVSPost2010Prop44ColorRGB
 90
      255
102
RTVSPost2010PropOp44
 70
     1
102
RTVSPost2010Prop45
280
     0
102
RTVSPost2010PropOp45
 70
     1
102
RTVSPost2010Prop46
 90
       50
102
RTVSPost2010PropOp46
 70
     1
102
RTVSPost2010Prop47
 90
       50
102
RTVSPost2010PropOp47
 70
     1
102
RTVSPost2010Prop48
 90
       50
102
RTVSPost2010PropOp48
 70
     1
102
RTVSPost2010Prop49
280
     0
102
RTVSPost2010PropOp49
 70
     1
102
RTVSPost2010Prop50
 90
       50
102
RTVSPost2010PropOp50
 70
     1
102
RTVSPost2010Prop51ColorIndex
 90
      256
102
RTVSPost2010Prop51ColorRGB
 90
-16777216
102
RTVSPost2010PropOp51
 70
     0
102
RTVSPost2010Prop52
140
1.0
102
RTVSPost2010PropOp52
 70
     0
102
RTVSPost2010Prop53
 90
        2
102
RTVSPost2010PropOp53
 70
     1
102
RTVSPost2010Prop54
  1
strokes_ogs.tif
102
RTVSPost2010PropOp54
 70
     1
102
RTVSPost2010Prop55
280
     0
102
RTVSPost2010PropOp55
 70
     1
102
RTVSPost2010Prop56
140
1.0
102
RTVSPost2010PropOp56
 70
     1
102
RTVSPost2010Prop57
140
1.0
102
RTVSPost2010PropOp57
 70
     1
  0
XRECORD
  5
1D1
102
{ACAD_REACTORS
330
1D0
102
}
330
1D0
100
AcDbXrecord
280
     1
102
RTVSPost2010Prop28
280
     0
102
RTVSPost2010PropOp28
 70
     1
102
RTVSPost2010Prop29
280
     1
102
RTVSPost2010PropOp29
 70
     1
102
RTVSPost2010Prop30
280
     1
102
RTVSPost2010PropOp30
 70
     1
102
RTVSPost2010Prop31
280
     0
102
RTVSPost2010PropOp31
 70
     1
102
RTVSPost2010Prop32
280
     0
102
RTVSPost2010PropOp32
 70
     1
102
RTVSPost2010Prop33
280
     0
102
RTVSPost2010PropOp33
 70
     1
102
RTVSPost2010Prop34
280
     0
102
RTVSPost2010PropOp34
 70
     1
102
RTVSPost2010Prop35
280
     0
102
RTVSPost2010PropOp35
 70
     1
102
RTVSPost2010Prop36
280
     0
102
RTVSPost2010PropOp36
 70
     1
102
RTVSPost2010Prop37
 90
       50
102
RTVSPost2010PropOp37
 70
     1
102
RTVSPost2010Prop38
140
0.0
102
RTVSPost2010PropOp38
 70
     1
102
RTVSPost2010Prop39
140
1.0
102
RTVSPost2010PropOp39
 70
     1
102
RTVSPost2010Prop40
 90
        0
102
RTVSPost2010PropOp40
 70
     1
102
RTVSPost2010Prop41ColorIndex
 90
       18
102
RTVSPost2010Prop41ColorRGB
 90
        0
102
RTVSPost2010PropOp41
 70
     1
102
RTVSPost2010Prop42
 90
       50
102
RTVSPost2010PropOp42
 70
     1
102
RTVSPost2010Prop43
 90
        3
102
RTVSPost2010PropOp43
 70
     1
102
RTVSPost2010Prop44ColorIndex
 90
        5
102
RTVSPost2010Prop44ColorRGB
 90
      255
102
RTVSPost2010PropOp44
 70
     1
102
RTVSPost2010Prop45
280
     0
102
RTVSPost2010PropOp45
 70
     1
102
RTVSPost2010Prop46
 90
       50
102
RTVSPost2010PropOp46
 70
     1
102
RTVSPost2010Prop47
 90
       50
102
RTVSPost2010PropOp47
 70
     1
102
RTVSPost2010Prop48
 90
       50
102
RTVSPost2010PropOp48
 70
     1
102
RTVSPost2010Prop49
280
     0
102
RTVSPost2010PropOp49
 70
     1
102
RTVSPost2010Prop50
 90
       50
102
RTVSPost2010PropOp50
 70
     1
102
RTVSPost2010Prop51ColorIndex
 90
      256
102
RTVSPost2010Prop51ColorRGB
 90
-16777216
102
RTVSPost2010PropOp51
 70
     0
102
RTVSPost2010Prop52
140
1.0
102
RTVSPost2010PropOp52
 70
     0
102
RTVSPost2010Prop53
 90
        2
102
RTVSPost2010PropOp53
 70
     1
102
RTVSPost2010Prop54
  1
strokes_ogs.tif
102
RTVSPost2010PropOp54
 70
     1
102
RTVSPost2010Prop55
280
     0
102
RTVSPost2010PropOp55
 70
     1
102
RTVSPost2010Prop56
140
1.0
102
RTVSPost2010PropOp56
 70
     1
102
RTVSPost2010Prop57
140
1.0
102
RTVSPost2010PropOp57
 70
     1
  0
XRECORD
  5
1D3
102
{ACAD_REACTORS
330
1D2
102
}
330
1D2
100
AcDbXrecord
280
     1
102
RTVSPost2010Prop28
280
     0
102
RTVSPost2010PropOp28
 70
     1
102
RTVSPost2010Prop29
280
     1
102
RTVSPost2010PropOp29
 70
     1
102
RTVSPost2010Prop30
280
     1
102
RTVSPost2010PropOp30
 70
     1
102
RTVSPost2010Prop31
280
     0
102
RTVSPost2010PropOp31
 70
     1
102
RTVSPost2010Prop32
280
     0
102
RTVSPost2010PropOp32
 70
     1
102
RTVSPost2010Prop33
280
     0
102
RTVSPost2010PropOp33
 70
     1
102
RTVSPost2010Prop34
280
     0
102
RTVSPost2010PropOp34
 70
     1
102
RTVSPost2010Prop35
280
     0
102
RTVSPost2010PropOp35
 70
     1
102
RTVSPost2010Prop36
280
     0
102
RTVSPost2010PropOp36
 70
     1
102
RTVSPost2010Prop37
 90
       50
102
RTVSPost2010PropOp37
 70
     1
102
RTVSPost2010Prop38
140
0.0
102
RTVSPost2010PropOp38
 70
     1
102
RTVSPost2010Prop39
140
1.0
102
RTVSPost2010PropOp39
 70
     1
102
RTVSPost2010Prop40
 90
        0
102
RTVSPost2010PropOp40
 70
     1
102
RTVSPost2010Prop41ColorIndex
 90
       18
102
RTVSPost2010Prop41ColorRGB
 90
        0
102
RTVSPost2010PropOp41
 70
     1
102
RTVSPost2010Prop42
 90
       50
102
RTVSPost2010PropOp42
 70
     1
102
RTVSPost2010Prop43
 90
        3
102
RTVSPost2010PropOp43
 70
     1
102
RTVSPost2010Prop44ColorIndex
 90
        5
102
RTVSPost2010Prop44ColorRGB
 90
      255
102
RTVSPost2010PropOp44
 70
     1
102
RTVSPost2010Prop45
280
     0
102
RTVSPost2010PropOp45
 70
     1
102
RTVSPost2010Prop46
 90
       50
102
RTVSPost2010PropOp46
 70
     1
102
RTVSPost2010Prop47
 90
       50
102
RTVSPost2010PropOp47
 70
     1
102
RTVSPost2010Prop48
 90
       50
102
RTVSPost2010PropOp48
 70
     1
102
RTVSPost2010Prop49
280
     0
102
RTVSPost2010PropOp49
 70
     1
102
RTVSPost2010Prop50
 90
       50
102
RTVSPost2010PropOp50
 70
     1
102
RTVSPost2010Prop51ColorIndex
 90
      256
102
RTVSPost2010Prop51ColorRGB
 90
-16777216
102
RTVSPost2010PropOp51
 70
     0
102
RTVSPost2010Prop52
140
1.0
102
RTVSPost2010PropOp52
 70
     0
102
RTVSPost2010Prop53
 90
        2
102
RTVSPost2010PropOp53
 70
     1
102
RTVSPost2010Prop54
  1
strokes_ogs.tif
102
RTVSPost2010PropOp54
 70
     1
102
RTVSPost2010Prop55
280
     0
102
RTVSPost2010PropOp55
 70
     1
102
RTVSPost2010Prop56
140
1.0
102
RTVSPost2010PropOp56
 70
     1
102
RTVSPost2010Prop57
140
1.0
102
RTVSPost2010PropOp57
 70
     1
  0
XRECORD
  5
1DB
102
{ACAD_REACTORS
330
1DA
102
}
330
1DA
100
AcDbXrecord
280
     1
102
RTVSPost2010Prop28
280
     0
102
RTVSPost2010PropOp28
 70
     1
102
RTVSPost2010Prop29
280
     1
102
RTVSPost2010PropOp29
 70
     1
102
RTVSPost2010Prop30
280
     1
102
RTVSPost2010PropOp30
 70
     1
102
RTVSPost2010Prop31
280
     0
102
RTVSPost2010PropOp31
 70
     1
102
RTVSPost2010Prop32
280
     0
102
RTVSPost2010PropOp32
 70
     1
102
RTVSPost2010Prop33
280
     0
102
RTVSPost2010PropOp33
 70
     1
102
RTVSPost2010Prop34
280
     0
102
RTVSPost2010PropOp34
 70
     1
102
RTVSPost2010Prop35
280
     0
102
RTVSPost2010PropOp35
 70
     1
102
RTVSPost2010Prop36
280
     0
102
RTVSPost2010PropOp36
 70
     1
102
RTVSPost2010Prop37
 90
       50
102
RTVSPost2010PropOp37
 70
     1
102
RTVSPost2010Prop38
140
0.0
102
RTVSPost2010PropOp38
 70
     1
102
RTVSPost2010Prop39
140
1.0
102
RTVSPost2010PropOp39
 70
     1
102
RTVSPost2010Prop40
 90
        0
102
RTVSPost2010PropOp40
 70
     1
102
RTVSPost2010Prop41ColorIndex
 90
       18
102
RTVSPost2010Prop41ColorRGB
 90
        0
102
RTVSPost2010PropOp41
 70
     1
102
RTVSPost2010Prop42
 90
       50
102
RTVSPost2010PropOp42
 70
     1
102
RTVSPost2010Prop43
 90
        3
102
RTVSPost2010PropOp43
 70
     1
102
RTVSPost2010Prop44ColorIndex
 90
        5
102
RTVSPost2010Prop44ColorRGB
 90
      255
102
RTVSPost2010PropOp44
 70
     1
102
RTVSPost2010Prop45
280
     0
102
RTVSPost2010PropOp45
 70
     1
102
RTVSPost2010Prop46
 90
       50
102
RTVSPost2010PropOp46
 70
     1
102
RTVSPost2010Prop47
 90
       50
102
RTVSPost2010PropOp47
 70
     1
102
RTVSPost2010Prop48
 90
       50
102
RTVSPost2010PropOp48
 70
     1
102
RTVSPost2010Prop49
280
     0
102
RTVSPost2010PropOp49
 70
     1
102
RTVSPost2010Prop50
 90
       50
102
RTVSPost2010PropOp50
 70
     1
102
RTVSPost2010Prop51ColorIndex
 90
      256
102
RTVSPost2010Prop51ColorRGB
 90
-16777216
102
RTVSPost2010PropOp51
 70
     0
102
RTVSPost2010Prop52
140
1.0
102
RTVSPost2010PropOp52
 70
     0
102
RTVSPost2010Prop53
 90
        2
102
RTVSPost2010PropOp53
 70
     1
102
RTVSPost2010Prop54
  1
strokes_ogs.tif
102
RTVSPost2010PropOp54
 70
     1
102
RTVSPost2010Prop55
280
     0
102
RTVSPost2010PropOp55
 70
     1
102
RTVSPost2010Prop56
140
1.0
102
RTVSPost2010PropOp56
 70
     1
102
RTVSPost2010Prop57
140
1.0
102
RTVSPost2010PropOp57
 70
     1
  0
XRECORD
  5
1F7
102
{ACAD_REACTORS
330
1F6
102
}
330
1F6
100
AcDbXrecord
280
     1
102
RTVSPost2010Prop28
280
     0
102
RTVSPost2010PropOp28
 70
     0
102
RTVSPost2010Prop29
280
     1
102
RTVSPost2010PropOp29
 70
     0
102
RTVSPost2010Prop30
280
     1
102
RTVSPost2010PropOp30
 70
     0
102
RTVSPost2010Prop31
280
     0
102
RTVSPost2010PropOp31
 70
     0
102
RTVSPost2010Prop32
280
     0
102
RTVSPost2010PropOp32
 70
     0
102
RTVSPost2010Prop33
280
     0
102
RTVSPost2010PropOp33
 70
     0
102
RTVSPost2010Prop34
280
     0
102
RTVSPost2010PropOp34
 70
     0
102
RTVSPost2010Prop35
280
     0
102
RTVSPost2010PropOp35
 70
     0
102
RTVSPost2010Prop36
280
     0
102
RTVSPost2010PropOp36
 70
     0
102
RTVSPost2010Prop37
 90
       50
102
RTVSPost2010PropOp37
 70
     0
102
RTVSPost2010Prop38
140
0.0
102
RTVSPost2010PropOp38
 70
     0
102
RTVSPost2010Prop39
140
1.0
102
RTVSPost2010PropOp39
 70
     0
102
RTVSPost2010Prop40
 90
        0
102
RTVSPost2010PropOp40
 70
     0
102
RTVSPost2010Prop41ColorIndex
 90
       18
102
RTVSPost2010Prop41ColorRGB
 90
        0
102
RTVSPost2010PropOp41
 70
     0
102
RTVSPost2010Prop42
 90
       50
102
RTVSPost2010PropOp42
 70
     0
102
RTVSPost2010Prop43
 90
        3
102
RTVSPost2010PropOp43
 70
     0
102
RTVSPost2010Prop44ColorIndex
 90
        5
102
RTVSPost2010Prop44ColorRGB
 90
      255
102
RTVSPost2010PropOp44
 70
     0
102
RTVSPost2010Prop45
280
     0
102
RTVSPost2010PropOp45
 70
     0
102
RTVSPost2010Prop46
 90
       50
102
RTVSPost2010PropOp46
 70
     0
102
RTVSPost2010Prop47
 90
       50
102
RTVSPost2010PropOp47
 70
     0
102
RTVSPost2010Prop48
 90
       50
102
RTVSPost2010PropOp48
 70
     0
102
RTVSPost2010Prop49
280
     0
102
RTVSPost2010PropOp49
 70
     0
102
RTVSPost2010Prop50
 90
       50
102
RTVSPost2010PropOp50
 70
     0
102
RTVSPost2010Prop51ColorIndex
 90
      256
102
RTVSPost2010Prop51ColorRGB
 90
-16777216
102
RTVSPost2010PropOp51
 70
     0
102
RTVSPost2010Prop52
140
1.0
102
RTVSPost2010PropOp52
 70
     0
102
RTVSPost2010Prop53
 90
        2
102
RTVSPost2010PropOp53
 70
     0
102
RTVSPost2010Prop54
  1
strokes_ogs.tif
102
RTVSPost2010PropOp54
 70
     0
102
RTVSPost2010Prop55
280
     0
102
RTVSPost2010PropOp55
 70
     0
102
RTVSPost2010Prop56
140
1.0
102
RTVSPost2010PropOp56
 70
     0
102
RTVSPost2010Prop57
140
1.0
102
RTVSPost2010PropOp57
 70
     0
  0
XRECORD
  5
1E7
102
{ACAD_REACTORS
330
1E6
102
}
330
1E6
100
AcDbXrecord
280
     1
102
RTVSPost2010Prop28
280
     0
102
RTVSPost2010PropOp28
 70
     1
102
RTVSPost2010Prop29
280
     1
102
RTVSPost2010PropOp29
 70
     1
102
RTVSPost2010Prop30
280
     1
102
RTVSPost2010PropOp30
 70
     1
102
RTVSPost2010Prop31
280
     0
102
RTVSPost2010PropOp31
 70
     1
102
RTVSPost2010Prop32
280
     0
102
RTVSPost2010PropOp32
 70
     1
102
RTVSPost2010Prop33
280
     0
102
RTVSPost2010PropOp33
 70
     1
102
RTVSPost2010Prop34
280
     0
102
RTVSPost2010PropOp34
 70
     1
102
RTVSPost2010Prop35
280
     0
102
RTVSPost2010PropOp35
 70
     1
102
RTVSPost2010Prop36
280
     0
102
RTVSPost2010PropOp36
 70
     1
102
RTVSPost2010Prop37
 90
       50
102
RTVSPost2010PropOp37
 70
     1
102
RTVSPost2010Prop38
140
0.0
102
RTVSPost2010PropOp38
 70
     1
102
RTVSPost2010Prop39
140
1.0
102
RTVSPost2010PropOp39
 70
     1
102
RTVSPost2010Prop40
 90
        0
102
RTVSPost2010PropOp40
 70
     1
102
RTVSPost2010Prop41ColorIndex
 90
       18
102
RTVSPost2010Prop41ColorRGB
 90
        0
102
RTVSPost2010PropOp41
 70
     1
102
RTVSPost2010Prop42
 90
       50
102
RTVSPost2010PropOp42
 70
     1
102
RTVSPost2010Prop43
 90
        3
102
RTVSPost2010PropOp43
 70
     1
102
RTVSPost2010Prop44ColorIndex
 90
        5
102
RTVSPost2010Prop44ColorRGB
 90
      255
102
RTVSPost2010PropOp44
 70
     1
102
RTVSPost2010Prop45
280
     0
102
RTVSPost2010PropOp45
 70
     1
102
RTVSPost2010Prop46
 90
       50
102
RTVSPost2010PropOp46
 70
     1
102
RTVSPost2010Prop47
 90
       50
102
RTVSPost2010PropOp47
 70
     1
102
RTVSPost2010Prop48
 90
       50
102
RTVSPost2010PropOp48
 70
     1
102
RTVSPost2010Prop49
280
     0
102
RTVSPost2010PropOp49
 70
     1
102
RTVSPost2010Prop50
 90
       50
102
RTVSPost2010PropOp50
 70
     1
102
RTVSPost2010Prop51ColorIndex
 90
      256
102
RTVSPost2010Prop51ColorRGB
 90
-16777216
102
RTVSPost2010PropOp51
 70
     0
102
RTVSPost2010Prop52
140
1.0
102
RTVSPost2010PropOp52
 70
     0
102
RTVSPost2010Prop53
 90
        2
102
RTVSPost2010PropOp53
 70
     1
102
RTVSPost2010Prop54
  1
strokes_ogs.tif
102
RTVSPost2010PropOp54
 70
     1
102
RTVSPost2010Prop55
280
     0
102
RTVSPost2010PropOp55
 70
     1
102
RTVSPost2010Prop56
140
1.0
102
RTVSPost2010PropOp56
 70
     1
102
RTVSPost2010Prop57
140
1.0
102
RTVSPost2010PropOp57
 70
     1
  0
XRECORD
  5
1F9
102
{ACAD_REACTORS
330
1F8
102
}
330
1F8
100
AcDbXrecord
280
     1
102
RTVSPost2010Prop28
280
     0
102
RTVSPost2010PropOp28
 70
     0
102
RTVSPost2010Prop29
280
     1
102
RTVSPost2010PropOp29
 70
     0
102
RTVSPost2010Prop30
280
     1
102
RTVSPost2010PropOp30
 70
     0
102
RTVSPost2010Prop31
280
     0
102
RTVSPost2010PropOp31
 70
     0
102
RTVSPost2010Prop32
280
     0
102
RTVSPost2010PropOp32
 70
     0
102
RTVSPost2010Prop33
280
     0
102
RTVSPost2010PropOp33
 70
     0
102
RTVSPost2010Prop34
280
     0
102
RTVSPost2010PropOp34
 70
     0
102
RTVSPost2010Prop35
280
     0
102
RTVSPost2010PropOp35
 70
     0
102
RTVSPost2010Prop36
280
     0
102
RTVSPost2010PropOp36
 70
     0
102
RTVSPost2010Prop37
 90
       50
102
RTVSPost2010PropOp37
 70
     0
102
RTVSPost2010Prop38
140
0.0
102
RTVSPost2010PropOp38
 70
     0
102
RTVSPost2010Prop39
140
1.0
102
RTVSPost2010PropOp39
 70
     0
102
RTVSPost2010Prop40
 90
        0
102
RTVSPost2010PropOp40
 70
     0
102
RTVSPost2010Prop41ColorIndex
 90
       18
102
RTVSPost2010Prop41ColorRGB
 90
        0
102
RTVSPost2010PropOp41
 70
     0
102
RTVSPost2010Prop42
 90
       50
102
RTVSPost2010PropOp42
 70
     0
102
RTVSPost2010Prop43
 90
        3
102
RTVSPost2010PropOp43
 70
     0
102
RTVSPost2010Prop44ColorIndex
 90
        5
102
RTVSPost2010Prop44ColorRGB
 90
      255
102
RTVSPost2010PropOp44
 70
     0
102
RTVSPost2010Prop45
280
     0
102
RTVSPost2010PropOp45
 70
     0
102
RTVSPost2010Prop46
 90
       50
102
RTVSPost2010PropOp46
 70
     0
102
RTVSPost2010Prop47
 90
       50
102
RTVSPost2010PropOp47
 70
     0
102
RTVSPost2010Prop48
 90
       50
102
RTVSPost2010PropOp48
 70
     0
102
RTVSPost2010Prop49
280
     0
102
RTVSPost2010PropOp49
 70
     0
102
RTVSPost2010Prop50
 90
       50
102
RTVSPost2010PropOp50
 70
     0
102
RTVSPost2010Prop51ColorIndex
 90
      256
102
RTVSPost2010Prop51ColorRGB
 90
-16777216
102
RTVSPost2010PropOp51
 70
     0
102
RTVSPost2010Prop52
140
1.0
102
RTVSPost2010PropOp52
 70
     0
102
RTVSPost2010Prop53
 90
        2
102
RTVSPost2010PropOp53
 70
     0
102
RTVSPost2010Prop54
  1
strokes_ogs.tif
102
RTVSPost2010PropOp54
 70
     0
102
RTVSPost2010Prop55
280
     0
102
RTVSPost2010PropOp55
 70
     0
102
RTVSPost2010Prop56
140
1.0
102
RTVSPost2010PropOp56
 70
     0
102
RTVSPost2010Prop57
140
1.0
102
RTVSPost2010PropOp57
 70
     0
  0
XRECORD
  5
1DF
102
{ACAD_REACTORS
330
1DE
102
}
330
1DE
100
AcDbXrecord
280
     1
102
RTVSPost2010Prop28
280
     0
102
RTVSPost2010PropOp28
 70
     1
102
RTVSPost2010Prop29
280
     1
102
RTVSPost2010PropOp29
 70
     1
102
RTVSPost2010Prop30
280
     1
102
RTVSPost2010PropOp30
 70
     1
102
RTVSPost2010Prop31
280
     0
102
RTVSPost2010PropOp31
 70
     1
102
RTVSPost2010Prop32
280
     0
102
RTVSPost2010PropOp32
 70
     1
102
RTVSPost2010Prop33
280
     0
102
RTVSPost2010PropOp33
 70
     1
102
RTVSPost2010Prop34
280
     0
102
RTVSPost2010PropOp34
 70
     1
102
RTVSPost2010Prop35
280
     0
102
RTVSPost2010PropOp35
 70
     1
102
RTVSPost2010Prop36
280
     0
102
RTVSPost2010PropOp36
 70
     1
102
RTVSPost2010Prop37
 90
       50
102
RTVSPost2010PropOp37
 70
     1
102
RTVSPost2010Prop38
140
0.0
102
RTVSPost2010PropOp38
 70
     1
102
RTVSPost2010Prop39
140
1.0
102
RTVSPost2010PropOp39
 70
     1
102
RTVSPost2010Prop40
 90
        0
102
RTVSPost2010PropOp40
 70
     1
102
RTVSPost2010Prop41ColorIndex
 90
       18
102
RTVSPost2010Prop41ColorRGB
 90
        0
102
RTVSPost2010PropOp41
 70
     1
102
RTVSPost2010Prop42
 90
       50
102
RTVSPost2010PropOp42
 70
     1
102
RTVSPost2010Prop43
 90
        3
102
RTVSPost2010PropOp43
 70
     1
102
RTVSPost2010Prop44ColorIndex
 90
        5
102
RTVSPost2010Prop44ColorRGB
 90
      255
102
RTVSPost2010PropOp44
 70
     1
102
RTVSPost2010Prop45
280
     0
102
RTVSPost2010PropOp45
 70
     1
102
RTVSPost2010Prop46
 90
       50
102
RTVSPost2010PropOp46
 70
     1
102
RTVSPost2010Prop47
 90
       50
102
RTVSPost2010PropOp47
 70
     1
102
RTVSPost2010Prop48
 90
       50
102
RTVSPost2010PropOp48
 70
     1
102
RTVSPost2010Prop49
280
     0
102
RTVSPost2010PropOp49
 70
     1
102
RTVSPost2010Prop50
 90
       50
102
RTVSPost2010PropOp50
 70
     1
102
RTVSPost2010Prop51ColorIndex
 90
      256
102
RTVSPost2010Prop51ColorRGB
 90
-16777216
102
RTVSPost2010PropOp51
 70
     0
102
RTVSPost2010Prop52
140
1.0
102
RTVSPost2010PropOp52
 70
     0
102
RTVSPost2010Prop53
 90
        2
102
RTVSPost2010PropOp53
 70
     1
102
RTVSPost2010Prop54
  1
strokes_ogs.tif
102
RTVSPost2010PropOp54
 70
     1
102
RTVSPost2010Prop55
280
     0
102
RTVSPost2010PropOp55
 70
     1
102
RTVSPost2010Prop56
140
1.0
102
RTVSPost2010PropOp56
 70
     1
102
RTVSPost2010Prop57
140
1.0
102
RTVSPost2010PropOp57
 70
     1
  0
XRECORD
  5
1F5
102
{ACAD_REACTORS
330
1F4
102
}
330
1F4
100
AcDbXrecord
280
     1
102
RTVSPost2010Prop28
280
     0
102
RTVSPost2010PropOp28
 70
     1
102
RTVSPost2010Prop29
280
     1
102
RTVSPost2010PropOp29
 70
     1
102
RTVSPost2010Prop30
280
     1
102
RTVSPost2010PropOp30
 70
     1
102
RTVSPost2010Prop31
280
     0
102
RTVSPost2010PropOp31
 70
     1
102
RTVSPost2010Prop32
280
     0
102
RTVSPost2010PropOp32
 70
     1
102
RTVSPost2010Prop33
280
     0
102
RTVSPost2010PropOp33
 70
     1
102
RTVSPost2010Prop34
280
     0
102
RTVSPost2010PropOp34
 70
     1
102
RTVSPost2010Prop35
280
     0
102
RTVSPost2010PropOp35
 70
     1
102
RTVSPost2010Prop36
280
     0
102
RTVSPost2010PropOp36
 70
     1
102
RTVSPost2010Prop37
 90
       50
102
RTVSPost2010PropOp37
 70
     1
102
RTVSPost2010Prop38
140
0.0
102
RTVSPost2010PropOp38
 70
     1
102
RTVSPost2010Prop39
140
1.0
102
RTVSPost2010PropOp39
 70
     1
102
RTVSPost2010Prop40
 90
        0
102
RTVSPost2010PropOp40
 70
     1
102
RTVSPost2010Prop41ColorIndex
 90
       18
102
RTVSPost2010Prop41ColorRGB
 90
        0
102
RTVSPost2010PropOp41
 70
     1
102
RTVSPost2010Prop42
 90
       50
102
RTVSPost2010PropOp42
 70
     1
102
RTVSPost2010Prop43
 90
        3
102
RTVSPost2010PropOp43
 70
     1
102
RTVSPost2010Prop44ColorIndex
 90
        5
102
RTVSPost2010Prop44ColorRGB
 90
      255
102
RTVSPost2010PropOp44
 70
     1
102
RTVSPost2010Prop45
280
     0
102
RTVSPost2010PropOp45
 70
     1
102
RTVSPost2010Prop46
 90
       50
102
RTVSPost2010PropOp46
 70
     1
102
RTVSPost2010Prop47
 90
       50
102
RTVSPost2010PropOp47
 70
     1
102
RTVSPost2010Prop48
 90
       50
102
RTVSPost2010PropOp48
 70
     1
102
RTVSPost2010Prop49
280
     0
102
RTVSPost2010PropOp49
 70
     1
102
RTVSPost2010Prop50
 90
       50
102
RTVSPost2010PropOp50
 70
     1
102
RTVSPost2010Prop51ColorIndex
 90
      256
102
RTVSPost2010Prop51ColorRGB
 90
-16777216
102
RTVSPost2010PropOp51
 70
     0
102
RTVSPost2010Prop52
140
1.0
102
RTVSPost2010PropOp52
 70
     0
102
RTVSPost2010Prop53
 90
        2
102
RTVSPost2010PropOp53
 70
     1
102
RTVSPost2010Prop54
  1
strokes_ogs.tif
102
RTVSPost2010PropOp54
 70
     1
102
RTVSPost2010Prop55
280
     0
102
RTVSPost2010PropOp55
 70
     1
102
RTVSPost2010Prop56
140
1.0
102
RTVSPost2010PropOp56
 70
     1
102
RTVSPost2010Prop57
140
1.0
102
RTVSPost2010PropOp57
 70
     1
  0
XRECORD
  5
1F3
102
{ACAD_REACTORS
330
1F2
102
}
330
1F2
100
AcDbXrecord
280
     1
102
RTVSPost2010Prop28
280
     0
102
RTVSPost2010PropOp28
 70
     1
102
RTVSPost2010Prop29
280
     1
102
RTVSPost2010PropOp29
 70
     1
102
RTVSPost2010Prop30
280
     1
102
RTVSPost2010PropOp30
 70
     1
102
RTVSPost2010Prop31
280
     0
102
RTVSPost2010PropOp31
 70
     1
102
RTVSPost2010Prop32
280
     0
102
RTVSPost2010PropOp32
 70
     1
102
RTVSPost2010Prop33
280
     0
102
RTVSPost2010PropOp33
 70
     1
102
RTVSPost2010Prop34
280
     0
102
RTVSPost2010PropOp34
 70
     1
102
RTVSPost2010Prop35
280
     0
102
RTVSPost2010PropOp35
 70
     1
102
RTVSPost2010Prop36
280
     0
102
RTVSPost2010PropOp36
 70
     1
102
RTVSPost2010Prop37
 90
       50
102
RTVSPost2010PropOp37
 70
     1
102
RTVSPost2010Prop38
140
0.0
102
RTVSPost2010PropOp38
 70
     1
102
RTVSPost2010Prop39
140
1.0
102
RTVSPost2010PropOp39
 70
     1
102
RTVSPost2010Prop40
 90
        0
102
RTVSPost2010PropOp40
 70
     1
102
RTVSPost2010Prop41ColorIndex
 90
       18
102
RTVSPost2010Prop41ColorRGB
 90
        0
102
RTVSPost2010PropOp41
 70
     1
102
RTVSPost2010Prop42
 90
       50
102
RTVSPost2010PropOp42
 70
     1
102
RTVSPost2010Prop43
 90
        3
102
RTVSPost2010PropOp43
 70
     1
102
RTVSPost2010Prop44ColorIndex
 90
        5
102
RTVSPost2010Prop44ColorRGB
 90
      255
102
RTVSPost2010PropOp44
 70
     1
102
RTVSPost2010Prop45
280
     0
102
RTVSPost2010PropOp45
 70
     1
102
RTVSPost2010Prop46
 90
       50
102
RTVSPost2010PropOp46
 70
     1
102
RTVSPost2010Prop47
 90
       50
102
RTVSPost2010PropOp47
 70
     1
102
RTVSPost2010Prop48
 90
       50
102
RTVSPost2010PropOp48
 70
     1
102
RTVSPost2010Prop49
280
     0
102
RTVSPost2010PropOp49
 70
     1
102
RTVSPost2010Prop50
 90
       50
102
RTVSPost2010PropOp50
 70
     1
102
RTVSPost2010Prop51ColorIndex
 90
      256
102
RTVSPost2010Prop51ColorRGB
 90
-16777216
102
RTVSPost2010PropOp51
 70
     0
102
RTVSPost2010Prop52
140
1.0
102
RTVSPost2010PropOp52
 70
     0
102
RTVSPost2010Prop53
 90
        2
102
RTVSPost2010PropOp53
 70
     1
102
RTVSPost2010Prop54
  1
strokes_ogs.tif
102
RTVSPost2010PropOp54
 70
     1
102
RTVSPost2010Prop55
280
     0
102
RTVSPost2010PropOp55
 70
     1
102
RTVSPost2010Prop56
140
1.0
102
RTVSPost2010PropOp56
 70
     1
102
RTVSPost2010Prop57
140
1.0
102
RTVSPost2010PropOp57
 70
     1
  0
XRECORD
  5
1ED
102
{ACAD_REACTORS
330
1EC
102
}
330
1EC
100
AcDbXrecord
280
     1
102
RTVSPost2010Prop28
280
     0
102
RTVSPost2010PropOp28
 70
     1
102
RTVSPost2010Prop29
280
     1
102
RTVSPost2010PropOp29
 70
     1
102
RTVSPost2010Prop30
280
     1
102
RTVSPost2010PropOp30
 70
     1
102
RTVSPost2010Prop31
280
     0
102
RTVSPost2010PropOp31
 70
     1
102
RTVSPost2010Prop32
280
     0
102
RTVSPost2010PropOp32
 70
     1
102
RTVSPost2010Prop33
280
     0
102
RTVSPost2010PropOp33
 70
     1
102
RTVSPost2010Prop34
280
     0
102
RTVSPost2010PropOp34
 70
     1
102
RTVSPost2010Prop35
280
     0
102
RTVSPost2010PropOp35
 70
     1
102
RTVSPost2010Prop36
280
     0
102
RTVSPost2010PropOp36
 70
     1
102
RTVSPost2010Prop37
 90
       50
102
RTVSPost2010PropOp37
 70
     1
102
RTVSPost2010Prop38
140
0.0
102
RTVSPost2010PropOp38
 70
     1
102
RTVSPost2010Prop39
140
1.0
102
RTVSPost2010PropOp39
 70
     1
102
RTVSPost2010Prop40
 90
        0
102
RTVSPost2010PropOp40
 70
     1
102
RTVSPost2010Prop41ColorIndex
 90
       18
102
RTVSPost2010Prop41ColorRGB
 90
        0
102
RTVSPost2010PropOp41
 70
     1
102
RTVSPost2010Prop42
 90
       50
102
RTVSPost2010PropOp42
 70
     1
102
RTVSPost2010Prop43
 90
        3
102
RTVSPost2010PropOp43
 70
     1
102
RTVSPost2010Prop44ColorIndex
 90
        5
102
RTVSPost2010Prop44ColorRGB
 90
      255
102
RTVSPost2010PropOp44
 70
     1
102
RTVSPost2010Prop45
280
     0
102
RTVSPost2010PropOp45
 70
     1
102
RTVSPost2010Prop46
 90
       50
102
RTVSPost2010PropOp46
 70
     1
102
RTVSPost2010Prop47
 90
       50
102
RTVSPost2010PropOp47
 70
     1
102
RTVSPost2010Prop48
 90
       50
102
RTVSPost2010PropOp48
 70
     1
102
RTVSPost2010Prop49
280
     0
102
RTVSPost2010PropOp49
 70
     1
102
RTVSPost2010Prop50
 90
       50
102
RTVSPost2010PropOp50
 70
     1
102
RTVSPost2010Prop51ColorIndex
 90
      256
102
RTVSPost2010Prop51ColorRGB
 90
-16777216
102
RTVSPost2010PropOp51
 70
     0
102
RTVSPost2010Prop52
140
1.0
102
RTVSPost2010PropOp52
 70
     0
102
RTVSPost2010Prop53
 90
        2
102
RTVSPost2010PropOp53
 70
     1
102
RTVSPost2010Prop54
  1
strokes_ogs.tif
102
RTVSPost2010PropOp54
 70
     1
102
RTVSPost2010Prop55
280
     0
102
RTVSPost2010PropOp55
 70
     1
102
RTVSPost2010Prop56
140
1.0
102
RTVSPost2010PropOp56
 70
     1
102
RTVSPost2010Prop57
140
1.0
102
RTVSPost2010PropOp57
 70
     1
  0
XRECORD
  5
1EF
102
{ACAD_REACTORS
330
1EE
102
}
330
1EE
100
AcDbXrecord
280
     1
102
RTVSPost2010Prop28
280
     0
102
RTVSPost2010PropOp28
 70
     1
102
RTVSPost2010Prop29
280
     1
102
RTVSPost2010PropOp29
 70
     1
102
RTVSPost2010Prop30
280
     1
102
RTVSPost2010PropOp30
 70
     1
102
RTVSPost2010Prop31
280
     0
102
RTVSPost2010PropOp31
 70
     1
102
RTVSPost2010Prop32
280
     0
102
RTVSPost2010PropOp32
 70
     1
102
RTVSPost2010Prop33
280
     0
102
RTVSPost2010PropOp33
 70
     1
102
RTVSPost2010Prop34
280
     0
102
RTVSPost2010PropOp34
 70
     1
102
RTVSPost2010Prop35
280
     0
102
RTVSPost2010PropOp35
 70
     1
102
RTVSPost2010Prop36
280
     0
102
RTVSPost2010PropOp36
 70
     1
102
RTVSPost2010Prop37
 90
       50
102
RTVSPost2010PropOp37
 70
     1
102
RTVSPost2010Prop38
140
0.0
102
RTVSPost2010PropOp38
 70
     1
102
RTVSPost2010Prop39
140
1.0
102
RTVSPost2010PropOp39
 70
     1
102
RTVSPost2010Prop40
 90
        0
102
RTVSPost2010PropOp40
 70
     1
102
RTVSPost2010Prop41ColorIndex
 90
       18
102
RTVSPost2010Prop41ColorRGB
 90
        0
102
RTVSPost2010PropOp41
 70
     1
102
RTVSPost2010Prop42
 90
       50
102
RTVSPost2010PropOp42
 70
     1
102
RTVSPost2010Prop43
 90
        3
102
RTVSPost2010PropOp43
 70
     1
102
RTVSPost2010Prop44ColorIndex
 90
        5
102
RTVSPost2010Prop44ColorRGB
 90
      255
102
RTVSPost2010PropOp44
 70
     1
102
RTVSPost2010Prop45
280
     0
102
RTVSPost2010PropOp45
 70
     1
102
RTVSPost2010Prop46
 90
       50
102
RTVSPost2010PropOp46
 70
     1
102
RTVSPost2010Prop47
 90
       50
102
RTVSPost2010PropOp47
 70
     1
102
RTVSPost2010Prop48
 90
       50
102
RTVSPost2010PropOp48
 70
     1
102
RTVSPost2010Prop49
280
     0
102
RTVSPost2010PropOp49
 70
     1
102
RTVSPost2010Prop50
 90
       50
102
RTVSPost2010PropOp50
 70
     1
102
RTVSPost2010Prop51ColorIndex
 90
      256
102
RTVSPost2010Prop51ColorRGB
 90
-16777216
102
RTVSPost2010PropOp51
 70
     0
102
RTVSPost2010Prop52
140
1.0
102
RTVSPost2010PropOp52
 70
     0
102
RTVSPost2010Prop53
 90
        2
102
RTVSPost2010PropOp53
 70
     1
102
RTVSPost2010Prop54
  1
strokes_ogs.tif
102
RTVSPost2010PropOp54
 70
     1
102
RTVSPost2010Prop55
280
     0
102
RTVSPost2010PropOp55
 70
     1
102
RTVSPost2010Prop56
140
1.0
102
RTVSPost2010PropOp56
 70
     1
102
RTVSPost2010Prop57
140
1.0
102
RTVSPost2010PropOp57
 70
     1
  0
XRECORD
  5
1E5
102
{ACAD_REACTORS
330
1E4
102
}
330
1E4
100
AcDbXrecord
280
     1
102
RTVSPost2010Prop28
280
     0
102
RTVSPost2010PropOp28
 70
     1
102
RTVSPost2010Prop29
280
     1
102
RTVSPost2010PropOp29
 70
     1
102
RTVSPost2010Prop30
280
     1
102
RTVSPost2010PropOp30
 70
     1
102
RTVSPost2010Prop31
280
     0
102
RTVSPost2010PropOp31
 70
     1
102
RTVSPost2010Prop32
280
     0
102
RTVSPost2010PropOp32
 70
     1
102
RTVSPost2010Prop33
280
     0
102
RTVSPost2010PropOp33
 70
     1
102
RTVSPost2010Prop34
280
     0
102
RTVSPost2010PropOp34
 70
     1
102
RTVSPost2010Prop35
280
     0
102
RTVSPost2010PropOp35
 70
     1
102
RTVSPost2010Prop36
280
     0
102
RTVSPost2010PropOp36
 70
     1
102
RTVSPost2010Prop37
 90
       50
102
RTVSPost2010PropOp37
 70
     1
102
RTVSPost2010Prop38
140
0.0
102
RTVSPost2010PropOp38
 70
     1
102
RTVSPost2010Prop39
140
1.0
102
RTVSPost2010PropOp39
 70
     1
102
RTVSPost2010Prop40
 90
        0
102
RTVSPost2010PropOp40
 70
     1
102
RTVSPost2010Prop41ColorIndex
 90
       18
102
RTVSPost2010Prop41ColorRGB
 90
        0
102
RTVSPost2010PropOp41
 70
     1
102
RTVSPost2010Prop42
 90
       50
102
RTVSPost2010PropOp42
 70
     1
102
RTVSPost2010Prop43
 90
        3
102
RTVSPost2010PropOp43
 70
     1
102
RTVSPost2010Prop44ColorIndex
 90
        5
102
RTVSPost2010Prop44ColorRGB
 90
      255
102
RTVSPost2010PropOp44
 70
     1
102
RTVSPost2010Prop45
280
     0
102
RTVSPost2010PropOp45
 70
     1
102
RTVSPost2010Prop46
 90
       50
102
RTVSPost2010PropOp46
 70
     1
102
RTVSPost2010Prop47
 90
       50
102
RTVSPost2010PropOp47
 70
     1
102
RTVSPost2010Prop48
 90
       50
102
RTVSPost2010PropOp48
 70
     1
102
RTVSPost2010Prop49
280
     0
102
RTVSPost2010PropOp49
 70
     1
102
RTVSPost2010Prop50
 90
       50
102
RTVSPost2010PropOp50
 70
     1
102
RTVSPost2010Prop51ColorIndex
 90
      256
102
RTVSPost2010Prop51ColorRGB
 90
-16777216
102
RTVSPost2010PropOp51
 70
     0
102
RTVSPost2010Prop52
140
1.0
102
RTVSPost2010PropOp52
 70
     0
102
RTVSPost2010Prop53
 90
        2
102
RTVSPost2010PropOp53
 70
     1
102
RTVSPost2010Prop54
  1
strokes_ogs.tif
102
RTVSPost2010PropOp54
 70
     1
102
RTVSPost2010Prop55
280
     0
102
RTVSPost2010PropOp55
 70
     1
102
RTVSPost2010Prop56
140
1.0
102
RTVSPost2010PropOp56
 70
     1
102
RTVSPost2010Prop57
140
1.0
102
RTVSPost2010PropOp57
 70
     1
  0
XRECORD
  5
1D9
102
{ACAD_REACTORS
330
1D8
102
}
330
1D8
100
AcDbXrecord
280
     1
102
RTVSPost2010Prop28
280
     0
102
RTVSPost2010PropOp28
 70
     1
102
RTVSPost2010Prop29
280
     1
102
RTVSPost2010PropOp29
 70
     1
102
RTVSPost2010Prop30
280
     1
102
RTVSPost2010PropOp30
 70
     1
102
RTVSPost2010Prop31
280
     0
102
RTVSPost2010PropOp31
 70
     1
102
RTVSPost2010Prop32
280
     0
102
RTVSPost2010PropOp32
 70
     1
102
RTVSPost2010Prop33
280
     0
102
RTVSPost2010PropOp33
 70
     1
102
RTVSPost2010Prop34
280
     0
102
RTVSPost2010PropOp34
 70
     1
102
RTVSPost2010Prop35
280
     0
102
RTVSPost2010PropOp35
 70
     1
102
RTVSPost2010Prop36
280
     0
102
RTVSPost2010PropOp36
 70
     1
102
RTVSPost2010Prop37
 90
       50
102
RTVSPost2010PropOp37
 70
     1
102
RTVSPost2010Prop38
140
0.0
102
RTVSPost2010PropOp38
 70
     1
102
RTVSPost2010Prop39
140
1.0
102
RTVSPost2010PropOp39
 70
     1
102
RTVSPost2010Prop40
 90
        0
102
RTVSPost2010PropOp40
 70
     1
102
RTVSPost2010Prop41ColorIndex
 90
       18
102
RTVSPost2010Prop41ColorRGB
 90
        0
102
RTVSPost2010PropOp41
 70
     1
102
RTVSPost2010Prop42
 90
       50
102
RTVSPost2010PropOp42
 70
     1
102
RTVSPost2010Prop43
 90
        3
102
RTVSPost2010PropOp43
 70
     1
102
RTVSPost2010Prop44ColorIndex
 90
        5
102
RTVSPost2010Prop44ColorRGB
 90
      255
102
RTVSPost2010PropOp44
 70
     1
102
RTVSPost2010Prop45
280
     0
102
RTVSPost2010PropOp45
 70
     1
102
RTVSPost2010Prop46
 90
       50
102
RTVSPost2010PropOp46
 70
     1
102
RTVSPost2010Prop47
 90
       50
102
RTVSPost2010PropOp47
 70
     1
102
RTVSPost2010Prop48
 90
       50
102
RTVSPost2010PropOp48
 70
     1
102
RTVSPost2010Prop49
280
     0
102
RTVSPost2010PropOp49
 70
     1
102
RTVSPost2010Prop50
 90
       50
102
RTVSPost2010PropOp50
 70
     1
102
RTVSPost2010Prop51ColorIndex
 90
      256
102
RTVSPost2010Prop51ColorRGB
 90
-16777216
102
RTVSPost2010PropOp51
 70
     0
102
RTVSPost2010Prop52
140
1.0
102
RTVSPost2010PropOp52
 70
     0
102
RTVSPost2010Prop53
 90
        2
102
RTVSPost2010PropOp53
 70
     1
102
RTVSPost2010Prop54
  1
strokes_ogs.tif
102
RTVSPost2010PropOp54
 70
     1
102
RTVSPost2010Prop55
280
     0
102
RTVSPost2010PropOp55
 70
     1
102
RTVSPost2010Prop56
140
1.0
102
RTVSPost2010PropOp56
 70
     1
102
RTVSPost2010Prop57
140
1.0
102
RTVSPost2010PropOp57
 70
     1
  0
XRECORD
  5
1F1
102
{ACAD_REACTORS
330
1F0
102
}
330
1F0
100
AcDbXrecord
280
     1
102
RTVSPost2010Prop28
280
     0
102
RTVSPost2010PropOp28
 70
     1
102
RTVSPost2010Prop29
280
     1
102
RTVSPost2010PropOp29
 70
     1
102
RTVSPost2010Prop30
280
     1
102
RTVSPost2010PropOp30
 70
     1
102
RTVSPost2010Prop31
280
     0
102
RTVSPost2010PropOp31
 70
     1
102
RTVSPost2010Prop32
280
     0
102
RTVSPost2010PropOp32
 70
     1
102
RTVSPost2010Prop33
280
     0
102
RTVSPost2010PropOp33
 70
     1
102
RTVSPost2010Prop34
280
     0
102
RTVSPost2010PropOp34
 70
     1
102
RTVSPost2010Prop35
280
     0
102
RTVSPost2010PropOp35
 70
     1
102
RTVSPost2010Prop36
280
     0
102
RTVSPost2010PropOp36
 70
     1
102
RTVSPost2010Prop37
 90
       50
102
RTVSPost2010PropOp37
 70
     1
102
RTVSPost2010Prop38
140
0.0
102
RTVSPost2010PropOp38
 70
     1
102
RTVSPost2010Prop39
140
1.0
102
RTVSPost2010PropOp39
 70
     1
102
RTVSPost2010Prop40
 90
        0
102
RTVSPost2010PropOp40
 70
     1
102
RTVSPost2010Prop41ColorIndex
 90
       18
102
RTVSPost2010Prop41ColorRGB
 90
        0
102
RTVSPost2010PropOp41
 70
     1
102
RTVSPost2010Prop42
 90
       50
102
RTVSPost2010PropOp42
 70
     1
102
RTVSPost2010Prop43
 90
        3
102
RTVSPost2010PropOp43
 70
     1
102
RTVSPost2010Prop44ColorIndex
 90
        5
102
RTVSPost2010Prop44ColorRGB
 90
      255
102
RTVSPost2010PropOp44
 70
     1
102
RTVSPost2010Prop45
280
     0
102
RTVSPost2010PropOp45
 70
     1
102
RTVSPost2010Prop46
 90
       50
102
RTVSPost2010PropOp46
 70
     1
102
RTVSPost2010Prop47
 90
       50
102
RTVSPost2010PropOp47
 70
     1
102
RTVSPost2010Prop48
 90
       50
102
RTVSPost2010PropOp48
 70
     1
102
RTVSPost2010Prop49
280
     0
102
RTVSPost2010PropOp49
 70
     1
102
RTVSPost2010Prop50
 90
       50
102
RTVSPost2010PropOp50
 70
     1
102
RTVSPost2010Prop51ColorIndex
 90
      256
102
RTVSPost2010Prop51ColorRGB
 90
-16777216
102
RTVSPost2010PropOp51
 70
     0
102
RTVSPost2010Prop52
140
1.0
102
RTVSPost2010PropOp52
 70
     0
102
RTVSPost2010Prop53
 90
        2
102
RTVSPost2010PropOp53
 70
     1
102
RTVSPost2010Prop54
  1
strokes_ogs.tif
102
RTVSPost2010PropOp54
 70
     1
102
RTVSPost2010Prop55
280
     0
102
RTVSPost2010PropOp55
 70
     1
102
RTVSPost2010Prop56
140
1.0
102
RTVSPost2010PropOp56
 70
     1
102
RTVSPost2010Prop57
140
1.0
102
RTVSPost2010PropOp57
 70
     1
  0
ENDSEC
  0
EOF
