  0
SECTION
  2
HEADER
  9
$ACADVER
  1
AC1024
  9
$ACADMAINTVER
 70
   226
  9
$DWGCODEPAGE
  3
ANSI_932
  9
$INSBASE
 10
0.0
 20
0.0
 30
0.0
  9
$EXTMIN
 10
1.000000000000000E+20
 20
1.000000000000000E+20
 30
1.000000000000000E+20
  9
$EXTMAX
 10
-1.000000000000000E+20
 20
-1.000000000000000E+20
 30
-1.000000000000000E+20
  9
$LIMMIN
 10
0.0
 20
0.0
  9
$LIMMAX
 10
12.0
 20
9.0
  9
$ORTHOMODE
 70
     0
  9
$REGENMODE
 70
     1
  9
$FILLMODE
 70
     1
  9
$QTEXTMODE
 70
     0
  9
$MIRRTEXT
 70
     0
  9
$LTSCALE
 40
1.0
  9
$ATTMODE
 70
     1
  9
$TEXTSIZE
 40
0.2
  9
$TRACEWID
 40
0.05
  9
$TEXTSTYLE
  7
Standard
  9
$CLAYER
  8
0
  9
$CELTYPE
  6
ByLayer
  9
$CECOLOR
 62
   256
  9
$CELTSCALE
 40
1.0
  9
$DISPSILH
 70
     0
  9
$DIMSCALE
 40
1.0
  9
$DIMASZ
 40
0.18
  9
$DIMEXO
 40
0.0625
  9
$DIMDLI
 40
0.38
  9
$DIMRND
 40
0.0
  9
$DIMDLE
 40
0.0
  9
$DIMEXE
 40
0.18
  9
$DIMTP
 40
0.0
  9
$DIMTM
 40
0.0
  9
$DIMTXT
 40
0.18
  9
$DIMCEN
 40
0.09
  9
$DIMTSZ
 40
0.0
  9
$DIMTOL
 70
     0
  9
$DIMLIM
 70
     0
  9
$DIMTIH
 70
     1
  9
$DIMTOH
 70
     1
  9
$DIMSE1
 70
     0
  9
$DIMSE2
 70
     0
  9
$DIMTAD
 70
     0
  9
$DIMZIN
 70
     0
  9
$DIMBLK
  1

  9
$DIMASO
 70
     1
  9
$DIMSHO
 70
     1
  9
$DIMPOST
  1

  9
$DIMAPOST
  1

  9
$DIMALT
 70
     0
  9
$DIMALTD
 70
     2
  9
$DIMALTF
 40
25.4
  9
$DIMLFAC
 40
1.0
  9
$DIMTOFL
 70
     0
  9
$DIMTVP
 40
0.0
  9
$DIMTIX
 70
     0
  9
$DIMSOXD
 70
     0
  9
$DIMSAH
 70
     0
  9
$DIMBLK1
  1

  9
$DIMBLK2
  1

  9
$DIMSTYLE
  2
Standard
  9
$DIMCLRD
 70
     0
  9
$DIMCLRE
 70
     0
  9
$DIMCLRT
 70
     0
  9
$DIMTFAC
 40
1.0
  9
$DIMGAP
 40
0.09
  9
$DIMJUST
 70
     0
  9
$DIMSD1
 70
     0
  9
$DIMSD2
 70
     0
  9
$DIMTOLJ
 70
     1
  9
$DIMTZIN
 70
     0
  9
$DIMALTZ
 70
     0
  9
$DIMALTTZ
 70
     0
  9
$DIMUPT
 70
     0
  9
$DIMDEC
 70
     4
  9
$DIMTDEC
 70
     4
  9
$DIMALTU
 70
     2
  9
$DIMALTTD
 70
     2
  9
$DIMTXSTY
  7
Standard
  9
$DIMAUNIT
 70
     0
  9
$DIMADEC
 70
     0
  9
$DIMALTRND
 40
0.0
  9
$DIMAZIN
 70
     0
  9
$DIMDSEP
 70
    46
  9
$DIMATFIT
 70
     3
  9
$DIMFRAC
 70
     0
  9
$DIMLDRBLK
  1

  9
$DIMLUNIT
 70
     2
  9
$DIMLWD
 70
    -2
  9
$DIMLWE
 70
    -2
  9
$DIMTMOVE
 70
     0
  9
$DIMFXL
 40
1.0
  9
$DIMFXLON
 70
     0
  9
$DIMJOGANG
 40
0.7853981633974483
  9
$DIMTFILL
 70
     0
  9
$DIMTFILLCLR
 70
     0
  9
$DIMARCSYM
 70
     0
  9
$DIMLTYPE
  6

  9
$DIMLTEX1
  6

  9
$DIMLTEX2
  6

  9
$DIMTXTDIRECTION
 70
     0
  9
$LUNITS
 70
     2
  9
$LUPREC
 70
     4
  9
$SKETCHINC
 40
0.1
  9
$FILLETRAD
 40
0.0
  9
$AUNITS
 70
     0
  9
$AUPREC
 70
     0
  9
$MENU
  1
.
  9
$ELEVATION
 40
0.0
  9
$PELEVATION
 40
0.0
  9
$THICKNESS
 40
0.0
  9
$LIMCHECK
 70
     0
  9
$CHAMFERA
 40
0.0
  9
$CHAMFERB
 40
0.0
  9
$CHAMFERC
 40
0.0
  9
$CHAMFERD
 40
0.0
  9
$SKPOLY
 70
     0
  9
$TDCREATE
 40
2459569.502581019
  9
$TDUCREATE
 40
2459569.127581019
  9
$TDUPDATE
 40
2459569.502581019
  9
$TDUUPDATE
 40
2459569.127581019
  9
$TDINDWG
 40
0.0000000000
  9
$TDUSRTIMER
 40
0.0000000000
  9
$USRTIMER
 70
     1
  9
$ANGBASE
 50
0.0
  9
$ANGDIR
 70
     0
  9
$PDMODE
 70
     0
  9
$PDSIZE
 40
0.0
  9
$PLINEWID
 40
0.0
  9
$SPLFRAME
 70
     0
  9
$SPLINETYPE
 70
     6
  9
$SPLINESEGS
 70
     8
  9
$HANDSEED
  5
138
  9
$SURFTAB1
 70
     6
  9
$SURFTAB2
 70
     6
  9
$SURFTYPE
 70
     6
  9
$SURFU
 70
     6
  9
$SURFV
 70
     6
  9
$UCSBASE
  2

  9
$UCSNAME
  2

  9
$UCSORG
 10
0.0
 20
0.0
 30
0.0
  9
$UCSXDIR
 10
1.0
 20
0.0
 30
0.0
  9
$UCSYDIR
 10
0.0
 20
1.0
 30
0.0
  9
$UCSORTHOREF
  2

  9
$UCSORTHOVIEW
 70
     0
  9
$UCSORGTOP
 10
0.0
 20
0.0
 30
0.0
  9
$UCSORGBOTTOM
 10
0.0
 20
0.0
 30
0.0
  9
$UCSORGLEFT
 10
0.0
 20
0.0
 30
0.0
  9
$UCSORGRIGHT
 10
0.0
 20
0.0
 30
0.0
  9
$UCSORGFRONT
 10
0.0
 20
0.0
 30
0.0
  9
$UCSORGBACK
 10
0.0
 20
0.0
 30
0.0
  9
$PUCSBASE
  2

  9
$PUCSNAME
  2

  9
$PUCSORG
 10
0.0
 20
0.0
 30
0.0
  9
$PUCSXDIR
 10
1.0
 20
0.0
 30
0.0
  9
$PUCSYDIR
 10
0.0
 20
1.0
 30
0.0
  9
$PUCSORTHOREF
  2

  9
$PUCSORTHOVIEW
 70
     0
  9
$PUCSORGTOP
 10
0.0
 20
0.0
 30
0.0
  9
$PUCSORGBOTTOM
 10
0.0
 20
0.0
 30
0.0
  9
$PUCSORGLEFT
 10
0.0
 20
0.0
 30
0.0
  9
$PUCSORGRIGHT
 10
0.0
 20
0.0
 30
0.0
  9
$PUCSORGFRONT
 10
0.0
 20
0.0
 30
0.0
  9
$PUCSORGBACK
 10
0.0
 20
0.0
 30
0.0
  9
$USERI1
 70
     0
  9
$USERI2
 70
     0
  9
$USERI3
 70
     0
  9
$USERI4
 70
     0
  9
$USERI5
 70
     0
  9
$USERR1
 40
0.0
  9
$USERR2
 40
0.0
  9
$USERR3
 40
0.0
  9
$USERR4
 40
0.0
  9
$USERR5
 40
0.0
  9
$WORLDVIEW
 70
     1
  9
$SHADEDGE
 70
     3
  9
$SHADEDIF
 70
    70
  9
$TILEMODE
 70
     1
  9
$MAXACTVP
 70
    64
  9
$PINSBASE
 10
0.0
 20
0.0
 30
0.0
  9
$PLIMCHECK
 70
     0
  9
$PEXTMIN
 10
1.000000000000000E+20
 20
1.000000000000000E+20
 30
1.000000000000000E+20
  9
$PEXTMAX
 10
-1.000000000000000E+20
 20
-1.000000000000000E+20
 30
-1.000000000000000E+20
  9
$PLIMMIN
 10
0.0
 20
0.0
  9
$PLIMMAX
 10
12.0
 20
9.0
  9
$UNITMODE
 70
     0
  9
$VISRETAIN
 70
     1
  9
$PLINEGEN
 70
     0
  9
$PSLTSCALE
 70
     1
  9
$TREEDEPTH
 70
  3020
  9
$CMLSTYLE
  2
Standard
  9
$CMLJUST
 70
     0
  9
$CMLSCALE
 40
1.0
  9
$PROXYGRAPHICS
 70
     1
  9
$MEASUREMENT
 70
     0
  9
$CELWEIGHT
370
    -1
  9
$ENDCAPS
280
     0
  9
$JOINSTYLE
280
     0
  9
$LWDISPLAY
290
     1
  9
$INSUNITS
 70
     4
  9
$HYPERLINKBASE
  1

  9
$STYLESHEET
  1

  9
$XEDIT
290
     1
  9
$CEPSNTYPE
380
     0
  9
$PSTYLEMODE
290
     1
  9
$FINGERPRINTGUID
  2
{7E82B920-C4DE-C44F-B857-B2AFD9AD57DC}
  9
$VERSIONGUID
  2
{F18E6B5B-C7C0-9443-B964-B5FB693CD42C}
  9
$EXTNAMES
290
     1
  9
$PSVPSCALE
 40
0.0
  9
$OLESTARTUP
290
     0
  9
$SORTENTS
280
   127
  9
$INDEXCTL
280
     0
  9
$HIDETEXT
280
     1
  9
$XCLIPFRAME
280
     2
  9
$HALOGAP
280
     0
  9
$OBSCOLOR
 70
   257
  9
$OBSLTYPE
280
     0
  9
$INTERSECTIONDISPLAY
280
     0
  9
$INTERSECTIONCOLOR
 70
   257
  9
$DIMASSOC
280
     2
  9
$PROJECTNAME
  1

  9
$CAMERADISPLAY
290
     0
  9
$LENSLENGTH
 40
50.0
  9
$CAMERAHEIGHT
 40
0.0
  9
$STEPSPERSEC
 40
2.0
  9
$STEPSIZE
 40
6.0
  9
$3DDWFPREC
 40
2.0
  9
$PSOLWIDTH
 40
0.25
  9
$PSOLHEIGHT
 40
4.0
  9
$LOFTANG1
 40
1.570796326794896
  9
$LOFTANG2
 40
1.570796326794896
  9
$LOFTMAG1
 40
0.0
  9
$LOFTMAG2
 40
0.0
  9
$LOFTPARAM
 70
     7
  9
$LOFTNORMALS
280
     1
  9
$LATITUDE
 40
37.795
  9
$LONGITUDE
 40
-122.394
  9
$NORTHDIRECTION
 40
0.0
  9
$TIMEZONE
 70
 -8000
  9
$LIGHTGLYPHDISPLAY
280
     1
  9
$TILEMODELIGHTSYNCH
280
     1
  9
$CMATERIAL
347
11
  9
$SOLIDHIST
280
     0
  9
$SHOWHIST
280
     1
  9
$DWFFRAME
280
     2
  9
$DGNFRAME
280
     0
  9
$REALWORLDSCALE
290
     1
  9
$INTERFERECOLOR
 62
     1
  9
$INTERFEREOBJVS
345
33
  9
$INTERFEREVPVS
346
30
  9
$CSHADOW
280
     0
  9
$SHADOWPLANELOCATION
 40
0.0
  0
ENDSEC
  0
SECTION
  2
CLASSES
  0
CLASS
  1
ACDBDICTIONARYWDFLT
  2
AcDbDictionaryWithDefault
  3
ObjectDBX Classes
 90
        0
 91
        1
280
     0
281
     0
  0
CLASS
  1
MATERIAL
  2
AcDbMaterial
  3
ObjectDBX Classes
 90
     1153
 91
        3
280
     0
281
     0
  0
CLASS
  1
VISUALSTYLE
  2
AcDbVisualStyle
  3
ObjectDBX Classes
 90
     4095
 91
       24
280
     0
281
     0
  0
CLASS
  1
SCALE
  2
AcDbScale
  3
ObjectDBX Classes
 90
     1153
 91
       17
280
     0
281
     0
  0
CLASS
  1
TABLESTYLE
  2
AcDbTableStyle
  3
ObjectDBX Classes
 90
     4095
 91
        1
280
     0
281
     0
  0
CLASS
  1
MLEADERSTYLE
  2
AcDbMLeaderStyle
  3
ACDB_MLEADERSTYLE_CLASS
 90
     4095
 91
        1
280
     0
281
     0
  0
CLASS
  1
ACDBSECTIONVIEWSTYLE
  2
AcDbSectionViewStyle
  3
ObjectDBX Classes
 90
     1025
 91
        1
280
     0
281
     0
  0
CLASS
  1
ACDBDETAILVIEWSTYLE
  2
AcDbDetailViewStyle
  3
ObjectDBX Classes
 90
     1025
 91
        1
280
     0
281
     0
  0
CLASS
  1
DICTIONARYVAR
  2
AcDbDictionaryVar
  3
ObjectDBX Classes
 90
        0
 91
        5
280
     0
281
     0
  0
CLASS
  1
CELLSTYLEMAP
  2
AcDbCellStyleMap
  3
ObjectDBX Classes
 90
     1152
 91
        1
280
     0
281
     0
  0
ENDSEC
  0
SECTION
  2
TABLES
  0
TABLE
  2
VPORT
  5
8
330
0
100
AcDbSymbolTable
 70
     1
  0
VPORT
  5
57
330
8
100
AcDbSymbolTableRecord
100
AcDbViewportTableRecord
  2
*Active
 70
     0
 10
0.0
 20
0.0
 11
1.0
 21
1.0
 12
0.0
 22
0.0
 13
0.0
 23
0.0
 14
1.0
 24
1.0
 15
0.0
 25
0.0
 16
0.0
 26
0.0
 36
1.0
 17
104.9999999737534
 27
-148.4999999628701
 37
0.0
 40
302.939999924255
 41
0.7070707070707534
 42
50.0
 43
0.0
 44
0.0
 50
0.0
 51
0.0
 71
     0
 72
   100
 73
     1
 74
     0
 75
     1
 76
     0
 77
     0
 78
     0
281
     0
 65
     1
110
0.0
120
0.0
130
0.0
111
1.0
121
0.0
131
0.0
112
0.0
122
1.0
132
0.0
 79
     0
146
0.0
 60
     3
 61
     5
292
     1
282
     1
141
0.0
142
0.0
 63
   250
421
  3355443
  0
ENDTAB
  0
TABLE
  2
LTYPE
  5
5
330
0
100
AcDbSymbolTable
 70
     3
  0
LTYPE
  5
5B
330
5
100
AcDbSymbolTableRecord
100
AcDbLinetypeTableRecord
  2
ByBlock
 70
     0
  3

 72
    65
 73
     0
 40
0.0
  0
LTYPE
  5
5C
330
5
100
AcDbSymbolTableRecord
100
AcDbLinetypeTableRecord
  2
ByLayer
 70
     0
  3

 72
    65
 73
     0
 40
0.0
  0
LTYPE
  5
5D
330
5
100
AcDbSymbolTableRecord
100
AcDbLinetypeTableRecord
  2
Continuous
 70
     0
  3
Solid line
 72
    65
 73
     0
 40
0.0
  0
LTYPE
  5
A9
330
5
100
AcDbSymbolTableRecord
100
AcDbLinetypeTableRecord
  2
AI-Linetype-0
 70
     0
  3
Adobe Illustrator Linetype No. 0
 72
    65
 73
     2
 40
1.411111110758333
 49
0.7055555553791667
 74
     0
 49
-0.7055555553791667
 74
     0
  0
LTYPE
  5
AB
330
5
100
AcDbSymbolTableRecord
100
AcDbLinetypeTableRecord
  2
AI-Linetype-1
 70
     0
  3
Adobe Illustrator Linetype No. 1
 72
    65
 73
     2
 40
1.411111110758333
 49
0.7055555553791667
 74
     0
 49
-0.7055555553791667
 74
     0
  0
ENDTAB
  0
TABLE
  2
LAYER
  5
2
330
0
100
AcDbSymbolTable
 70
     2
  0
LAYER
  5
54
330
2
100
AcDbSymbolTableRecord
100
AcDbLayerTableRecord
  2
0
 70
     0
 62
     7
  6
Continuous
370
    -3
390
F
347
21
  0
LAYER
  5
78
330
2
100
AcDbSymbolTableRecord
100
AcDbLayerTableRecord
  2
レイヤー 1
 70
     0
 62
     7
  6
Continuous
370
     0
390
F
347
21
  0
ENDTAB
  0
TABLE
  2
STYLE
  5
3
330
0
100
AcDbSymbolTable
 70
     2
  0
STYLE
  5
55
330
3
100
AcDbSymbolTableRecord
100
AcDbTextStyleTableRecord
  2
Standard
 70
     0
 40
0.0
 41
1.0
 50
0.0
 71
     0
 42
0.2
  3
txt
  4

  0
STYLE
  5
5A
330
3
100
AcDbSymbolTableRecord
100
AcDbTextStyleTableRecord
  2
Annotative
 70
     0
 40
0.0
 41
1.0
 50
0.0
 71
     0
 42
0.2
  3
txt
  4

1001
AcadAnnotative
1000
AnnotativeData
1002
{
1070
     1
1070
     1
1002
}
  0
ENDTAB
  0
TABLE
  2
VIEW
  5
6
330
0
100
AcDbSymbolTable
 70
     0
  0
ENDTAB
  0
TABLE
  2
UCS
  5
7
330
0
100
AcDbSymbolTable
 70
     0
  0
ENDTAB
  0
TABLE
  2
APPID
  5
9
330
0
100
AcDbSymbolTable
 70
     2
  0
APPID
  5
56
330
9
100
AcDbSymbolTableRecord
100
AcDbRegAppTableRecord
  2
ACAD
 70
     0
  0
APPID
  5
5E
330
9
100
AcDbSymbolTableRecord
100
AcDbRegAppTableRecord
  2
AcadAnnotative
 70
     0
  0
ENDTAB
  0
TABLE
  2
DIMSTYLE
  5
A
330
0
100
AcDbSymbolTable
 70
     2
100
AcDbDimStyleTable
 71
     0
  0
DIMSTYLE
105
58
330
A
100
AcDbSymbolTableRecord
100
AcDbDimStyleTableRecord
  2
Standard
 70
     0
340
55
  0
DIMSTYLE
105
59
330
A
100
AcDbSymbolTableRecord
100
AcDbDimStyleTableRecord
  2
Annotative
 70
     0
340
55
1001
AcadAnnotative
1000
AnnotativeData
1002
{
1070
     1
1070
     1
1002
}
  0
ENDTAB
  0
TABLE
  2
BLOCK_RECORD
  5
1
330
0
100
AcDbSymbolTable
 70
     9
  0
BLOCK_RECORD
  5
70
330
1
100
AcDbSymbolTableRecord
100
AcDbBlockTableRecord
  2
*Model_Space
340
73
 70
     0
280
     1
281
     0
  0
BLOCK_RECORD
  5
6C
330
1
100
AcDbSymbolTableRecord
100
AcDbBlockTableRecord
  2
*Paper_Space
340
6F
 70
     0
280
     1
281
     0
  0
BLOCK_RECORD
  5
74
330
1
100
AcDbSymbolTableRecord
100
AcDbBlockTableRecord
  2
*Paper_Space0
340
77
 70
     0
280
     1
281
     0
  0
BLOCK_RECORD
  5
79
330
1
100
AcDbSymbolTableRecord
100
AcDbBlockTableRecord
  2
Block_0
340
0
102
{BLKREFS
331
7A
102
}
 70
     0
280
     1
281
     0
  0
BLOCK_RECORD
  5
8B
330
1
100
AcDbSymbolTableRecord
100
AcDbBlockTableRecord
  2
Block_1
340
0
102
{BLKREFS
331
8C
102
}
 70
     0
280
     1
281
     0
  0
BLOCK_RECORD
  5
8F
330
1
100
AcDbSymbolTableRecord
100
AcDbBlockTableRecord
  2
Block_2
340
0
102
{BLKREFS
331
90
102
}
 70
     0
280
     1
281
     0
  0
BLOCK_RECORD
  5
9B
330
1
100
AcDbSymbolTableRecord
100
AcDbBlockTableRecord
  2
Block_3
340
0
102
{BLKREFS
331
9C
102
}
 70
     0
280
     1
281
     0
  0
BLOCK_RECORD
  5
9F
330
1
100
AcDbSymbolTableRecord
100
AcDbBlockTableRecord
  2
Block_4
340
0
102
{BLKREFS
331
A0
102
}
 70
     0
280
     1
281
     0
  0
BLOCK_RECORD
  5
AC
330
1
100
AcDbSymbolTableRecord
100
AcDbBlockTableRecord
  2
Block_5
340
0
102
{BLKREFS
331
AD
102
}
 70
     0
280
     1
281
     0
  0
BLOCK_RECORD
  5
B0
330
1
100
AcDbSymbolTableRecord
100
AcDbBlockTableRecord
  2
Block_6
340
0
102
{BLKREFS
331
B1
102
}
 70
     0
280
     1
281
     0
  0
BLOCK_RECORD
  5
CE
330
1
100
AcDbSymbolTableRecord
100
AcDbBlockTableRecord
  2
Block_7
340
0
102
{BLKREFS
331
CF
102
}
 70
     0
280
     1
281
     0
  0
ENDTAB
  0
ENDSEC
  0
SECTION
  2
BLOCKS
  0
BLOCK
  5
71
330
70
100
AcDbEntity
  8
0
100
AcDbBlockBegin
  2
*Model_Space
 70
     0
 10
0.0
 20
0.0
 30
0.0
  3
*Model_Space
  1

  0
ENDBLK
  5
72
330
70
100
AcDbEntity
  8
0
100
AcDbBlockEnd
  0
BLOCK
  5
6D
330
6C
100
AcDbEntity
 67
     1
  8
0
100
AcDbBlockBegin
  2
*Paper_Space
 70
     0
 10
0.0
 20
0.0
 30
0.0
  3
*Paper_Space
  1

  0
ENDBLK
  5
6E
330
6C
100
AcDbEntity
 67
     1
  8
0
100
AcDbBlockEnd
  0
BLOCK
  5
75
330
74
100
AcDbEntity
 67
     1
  8
0
100
AcDbBlockBegin
  2
*Paper_Space0
 70
     0
 10
0.0
 20
0.0
 30
0.0
  3
*Paper_Space0
  1

  0
ENDBLK
  5
76
330
74
100
AcDbEntity
 67
     1
  8
0
100
AcDbBlockEnd
  0
BLOCK
  5
7B
330
79
100
AcDbEntity
  8
0
100
AcDbBlockBegin
  2
Block_0
 70
     0
 10
0.0
 20
0.0
 30
0.0
  3
Block_0
  1

  0
LINE
  5
7D
330
79
100
AcDbEntity
  8
レイヤー 1
 62
   250
420
  2299925
370
    25
100
AcDbLine
 10
84.45034704627042
 20
-170.2037037368772
 30
0.0
 11
133.4497680184129
 21
-170.2037037368772
 31
0.0
  0
LINE
  5
7E
330
79
100
AcDbEntity
  8
レイヤー 1
 62
   250
420
  2299925
370
    25
100
AcDbLine
 10
85.55002590710417
 20
-121.2037535980812
 30
0.0
 11
85.95035811911307
 21
-121.2037535980812
 31
0.0
  0
LINE
  5
7F
330
79
100
AcDbEntity
  8
レイヤー 1
 62
   250
420
  2299925
370
    25
100
AcDbLine
 10
84.45034704627042
 20
-170.2037037368772
 30
0.0
 11
85.95035811911307
 21
-121.2037535980812
 31
0.0
  0
LINE
  5
80
330
79
100
AcDbEntity
  8
レイヤー 1
 62
   250
420
  2299925
370
    25
100
AcDbLine
 10
85.55002590710417
 20
-121.2037535980812
 30
0.0
 11
83.45057484955452
 21
-170.3694011730564
 31
0.0
  0
LINE
  5
81
330
79
100
AcDbEntity
  8
レイヤー 1
 62
   250
420
  2299925
370
    25
100
AcDbLine
 10
133.4497680184129
 20
-170.2037037368772
 30
0.0
 11
133.4497680184129
 21
-170.6036456174419
 31
0.0
  0
LINE
  5
82
330
79
100
AcDbEntity
  8
レイヤー 1
 62
   250
420
  2299925
370
    25
100
AcDbLine
 10
133.4497680184129
 20
-170.6036456174419
 30
0.0
 11
84.26019982889926
 21
-171.203793433585
 31
0.0
  0
SPLINE
  5
83
330
79
100
AcDbEntity
  8
レイヤー 1
 62
   250
420
  2299925
370
    25
100
AcDbSpline
210
0.0
220
0.0
230
1.0
 70
     8
 71
     3
 72
    11
 73
     7
 74
     0
 42
0.0000000001
 43
0.0000000001
 40
0.0
 40
0.0
 40
0.0
 40
0.0
 40
1.0
 40
1.0
 40
1.0
 40
2.0
 40
2.0
 40
2.0
 40
2.0
 10
83.45057484955452
 20
-170.3694011730564
 30
0.0
 10
83.43198557419102
 20
-170.8110459436048
 30
0.0
 10
83.77442484129241
 20
-171.184178989641
 30
0.0
 10
84.21610260780205
 20
-171.2031231558244
 30
0.0
 10
84.23056649632194
 20
-171.2034406558163
 30
0.0
 10
84.24503038484182
 20
-171.203793433585
 30
0.0
 10
84.26019982889926
 20
-171.203793433585
 30
0.0
  0
SPLINE
  5
84
330
79
100
AcDbEntity
  8
レイヤー 1
 62
   250
420
  2299925
370
     9
100
AcDbSpline
210
0.0
220
0.0
230
1.0
 70
     9
 71
     3
 72
    17
 73
    13
 74
     0
 42
0.0000000001
 43
0.0000000001
 40
0.0
 40
0.0
 40
0.0
 40
0.0
 40
1.0
 40
1.0
 40
1.0
 40
2.0
 40
2.0
 40
2.0
 40
3.0
 40
3.0
 40
3.0
 40
4.0
 40
4.0
 40
4.0
 40
4.0
 10
133.5496746825308
 20
-175.2035524982094
 30
0.0
 10
133.5496746825308
 20
-175.1484486107263
 30
0.0
 10
133.5049105616729
 20
-175.1036458340915
 30
0.0
 10
133.4497680184129
 20
-175.1036458340915
 30
0.0
 10
133.3946641309299
 20
-175.1036458340915
 30
0.0
 10
133.3498613542951
 20
-175.1484486107263
 30
0.0
 10
133.3498613542951
 20
-175.2035524982094
 30
0.0
 10
133.3498613542951
 20
-175.2590091634612
 30
0.0
 10
133.3946641309299
 20
-175.303811940096
 30
0.0
 10
133.4497680184129
 20
-175.303811940096
 30
0.0
 10
133.5049105616729
 20
-175.303811940096
 30
0.0
 10
133.5496746825308
 20
-175.2590091634612
 30
0.0
 10
133.5496746825308
 20
-175.2035524982094
 30
0.0
  0
SPLINE
  5
85
330
79
100
AcDbEntity
  8
レイヤー 1
 62
   250
420
  2299925
370
     9
100
AcDbSpline
210
0.0
220
0.0
230
1.0
 70
     9
 71
     3
 72
    17
 73
    13
 74
     0
 42
0.0000000001
 43
0.0000000001
 40
0.0
 40
0.0
 40
0.0
 40
0.0
 40
1.0
 40
1.0
 40
1.0
 40
2.0
 40
2.0
 40
2.0
 40
3.0
 40
3.0
 40
3.0
 40
4.0
 40
4.0
 40
4.0
 40
4.0
 10
79.55005217128736
 20
-171.203793433585
 30
0.0
 10
79.55005217128736
 20
-171.1483345061945
 30
0.0
 10
79.50524939465259
 20
-171.1035317284285
 30
0.0
 10
79.45014550716952
 20
-171.1035317284285
 30
0.0
 10
79.39500634190991
 20
-171.1035317284285
 30
0.0
 10
79.35023884305201
 20
-171.1483345061945
 30
0.0
 10
79.35023884305201
 20
-171.203793433585
 30
0.0
 10
79.35023884305201
 20
-171.258932598845
 30
0.0
 10
79.39500634190991
 20
-171.3037000977029
 30
0.0
 10
79.45014550716952
 20
-171.3037000977029
 30
0.0
 10
79.50524939465259
 20
-171.3037000977029
 30
0.0
 10
79.55005217128736
 20
-171.258932598845
 30
0.0
 10
79.55005217128736
 20
-171.203793433585
 30
0.0
  0
SPLINE
  5
86
330
79
100
AcDbEntity
  8
レイヤー 1
 62
   250
420
  2299925
370
     9
100
AcDbSpline
210
0.0
220
0.0
230
1.0
 70
     9
 71
     3
 72
    17
 73
    13
 74
     0
 42
0.0000000001
 43
0.0000000001
 40
0.0
 40
0.0
 40
0.0
 40
0.0
 40
1.0
 40
1.0
 40
1.0
 40
2.0
 40
2.0
 40
2.0
 40
3.0
 40
3.0
 40
3.0
 40
4.0
 40
4.0
 40
4.0
 40
4.0
 10
83.54981335193929
 20
-175.2035524982094
 30
0.0
 10
83.54981335193929
 20
-175.1484486107263
 30
0.0
 10
83.50501057417224
 20
-175.1036458340915
 30
0.0
 10
83.44990457179383
 20
-175.1036458340915
 30
0.0
 10
83.39476540653389
 20
-175.1036458340915
 30
0.0
 10
83.34999790767602
 20
-175.1484486107263
 30
0.0
 10
83.34999790767602
 20
-175.2035524982094
 30
0.0
 10
83.34999790767602
 20
-175.2590091634612
 30
0.0
 10
83.39476540653389
 20
-175.303811940096
 30
0.0
 10
83.44990457179383
 20
-175.303811940096
 30
0.0
 10
83.50501057417224
 20
-175.303811940096
 30
0.0
 10
83.54981335193929
 20
-175.2590091634612
 30
0.0
 10
83.54981335193929
 20
-175.2035524982094
 30
0.0
  0
SPLINE
  5
87
330
79
100
AcDbEntity
  8
レイヤー 1
 62
   250
420
  2299925
370
     9
100
AcDbSpline
210
0.0
220
0.0
230
1.0
 70
     9
 71
     3
 72
    17
 73
    13
 74
     0
 42
0.0000000001
 43
0.0000000001
 40
0.0
 40
0.0
 40
0.0
 40
0.0
 40
1.0
 40
1.0
 40
1.0
 40
2.0
 40
2.0
 40
2.0
 40
3.0
 40
3.0
 40
3.0
 40
4.0
 40
4.0
 40
4.0
 40
4.0
 10
79.55005217128736
 20
-121.2037535980812
 30
0.0
 10
79.55005217128736
 20
-121.1486144328212
 30
0.0
 10
79.50524939465259
 20
-121.1038469339634
 30
0.0
 10
79.45014550716952
 20
-121.1038469339634
 30
0.0
 10
79.39500634190991
 20
-121.1038469339634
 30
0.0
 10
79.35023884305201
 20
-121.1486144328212
 30
0.0
 10
79.35023884305201
 20
-121.2037535980812
 30
0.0
 10
79.35023884305201
 20
-121.2588539631114
 30
0.0
 10
79.39500634190991
 20
-121.3036567408781
 30
0.0
 10
79.45014550716952
 20
-121.3036567408781
 30
0.0
 10
79.50524939465259
 20
-121.3036567408781
 30
0.0
 10
79.55005217128736
 20
-121.2588539631114
 30
0.0
 10
79.55005217128736
 20
-121.2037535980812
 30
0.0
  0
LINE
  5
88
330
79
100
AcDbEntity
  8
レイヤー 1
 62
   250
420
  2299925
370
     9
100
AcDbLine
 10
83.44990457179383
 20
-175.2035524982094
 30
0.0
 11
133.4497680184129
 21
-175.2035524982094
 31
0.0
  0
LINE
  5
89
330
79
100
AcDbEntity
  8
レイヤー 1
 62
   250
420
  2299925
370
     9
100
AcDbLine
 10
83.44990457179383
 20
-172.9435875558658
 30
0.0
 11
83.44990457179383
 21
-176.203677472694
 31
0.0
  0
LINE
  5
8A
330
79
100
AcDbEntity
  8
レイヤー 1
 62
   250
420
  2299925
370
     9
100
AcDbLine
 10
133.4497680184129
 20
-173.1437183840934
 30
0.0
 11
133.4497680184129
 21
-176.203677472694
 31
0.0
  0
INSERT
  5
8C
330
79
100
AcDbEntity
  8
レイヤー 1
100
AcDbBlockReference
  2
Block_1
 10
0.0
 20
0.0
 30
0.0
  0
LINE
  5
98
330
79
100
AcDbEntity
  8
レイヤー 1
 62
   250
420
  2299925
370
     9
100
AcDbLine
 10
79.45014550716952
 20
-121.2037535980812
 30
0.0
 11
79.45014550716952
 21
-171.203793433585
 31
0.0
  0
LINE
  5
99
330
79
100
AcDbEntity
  8
レイヤー 1
 62
   250
420
  2299925
370
     9
100
AcDbLine
 10
83.01030819411998
 20
-121.2037535980812
 30
0.0
 11
78.45037331045363
 21
-121.2037535980812
 31
0.0
  0
LINE
  5
9A
330
79
100
AcDbEntity
  8
レイヤー 1
 62
   250
420
  2299925
370
     9
100
AcDbLine
 10
81.71011044951303
 20
-171.203793433585
 30
0.0
 11
78.45037331045363
 21
-171.203793433585
 31
0.0
  0
INSERT
  5
9C
330
79
100
AcDbEntity
  8
レイヤー 1
100
AcDbBlockReference
  2
Block_3
 10
0.0
 20
0.0
 30
0.0
  0
ENDBLK
  5
7C
330
79
100
AcDbEntity
  8
0
100
AcDbBlockEnd
  0
BLOCK
  5
8D
330
8B
100
AcDbEntity
  8
0
100
AcDbBlockBegin
  2
Block_1
 70
     0
 10
0.0
 20
0.0
 30
0.0
  3
Block_1
  1

  0
INSERT
  5
90
330
8B
100
AcDbEntity
  8
レイヤー 1
100
AcDbBlockReference
  2
Block_2
 10
0.0
 20
0.0
 30
0.0
  0
ENDBLK
  5
8E
330
8B
100
AcDbEntity
  8
0
100
AcDbBlockEnd
  0
BLOCK
  5
91
330
8F
100
AcDbEntity
  8
0
100
AcDbBlockBegin
  2
Block_2
 70
     0
 10
0.0
 20
0.0
 30
0.0
  3
Block_2
  1

  0
SPLINE
  5
93
330
8F
100
AcDbEntity
  8
レイヤー 1
100
AcDbSpline
210
0.0
220
0.0
230
1.0
 70
     9
 71
     3
 72
    53
 73
    49
 74
     0
 42
0.0000000001
 43
0.0000000001
 40
0.0
 40
0.0
 40
0.0
 40
0.0
 40
1.0
 40
1.0
 40
1.0
 40
2.0
 40
2.0
 40
2.0
 40
3.0
 40
3.0
 40
3.0
 40
4.0
 40
4.0
 40
4.0
 40
5.0
 40
5.0
 40
5.0
 40
6.0
 40
6.0
 40
6.0
 40
7.0
 40
7.0
 40
7.0
 40
8.0
 40
8.0
 40
8.0
 40
9.0
 40
9.0
 40
9.0
 40
10.0
 40
10.0
 40
10.0
 40
11.0
 40
11.0
 40
11.0
 40
12.0
 40
12.0
 40
12.0
 40
13.0
 40
13.0
 40
13.0
 40
14.0
 40
14.0
 40
14.0
 40
15.0
 40
15.0
 40
15.0
 40
16.0
 40
16.0
 40
16.0
 40
16.0
 10
107.8039279244379
 20
-174.5412841360522
 30
0.0
 10
107.7205566136948
 20
-174.5412841360522
 30
0.0
 10
107.6116915963609
 20
-174.5244031681744
 30
0.0
 10
107.5035155981241
 20
-174.4610134112458
 30
0.0
 10
107.3178249514691
 20
-174.3511148652664
 30
0.0
 10
107.295431830815
 20
-174.2198567272783
 30
0.0
 10
107.275105767452
 20
-174.11202523859
 30
0.0
 10
107.275105767452
 20
-174.11202523859
 30
0.0
 10
107.5124728463858
 20
-174.11202523859
 30
0.0
 10
107.5124728463858
 20
-174.11202523859
 30
0.0
 10
107.571039469635
 20
-174.3108072480889
 30
0.0
 10
107.7067762317538
 20
-174.3404350692621
 30
0.0
 10
107.8063394912776
 20
-174.3404350692621
 30
0.0
 10
107.9555121257889
 20
-174.3404350692621
 30
0.0
 10
108.1181206326927
 20
-174.2408718097384
 30
0.0
 10
108.1181206326927
 20
-174.008327864484
 30
0.0
 10
108.1181206326927
 20
-173.7523572699299
 30
0.0
 10
107.9262288141642
 20
-173.6824218315794
 30
0.0
 10
107.7973822430159
 20
-173.6824218315794
 30
0.0
 10
107.7632757977119
 20
-173.6824218315794
 30
0.0
 10
107.6116915963609
 20
-173.6824218315794
 30
0.0
 10
107.5169514705166
 20
-173.8116129122762
 30
0.0
 10
107.5169514705166
 20
-173.8116129122762
 30
0.0
 10
107.3291937665705
 20
-173.7926648871074
 30
0.0
 10
107.3291937665705
 20
-173.7926648871074
 30
0.0
 10
107.3291937665705
 20
-173.7926648871074
 30
0.0
 10
107.4580403377188
 20
-172.9462049263815
 30
0.0
 10
107.4580403377188
 20
-172.9462049263815
 30
0.0
 10
107.4580403377188
 20
-172.9462049263815
 30
0.0
 10
108.2900308974066
 20
-172.9462049263815
 30
0.0
 10
108.2900308974066
 20
-172.9462049263815
 30
0.0
 10
108.2900308974066
 20
-172.9462049263815
 30
0.0
 10
108.2900308974066
 20
-173.1408528212981
 30
0.0
 10
108.2900308974066
 20
-173.1408528212981
 30
0.0
 10
108.2900308974066
 20
-173.1408528212981
 30
0.0
 10
107.6323621692724
 20
-173.1408528212981
 30
0.0
 10
107.6323621692724
 20
-173.1408528212981
 30
0.0
 10
107.6323621692724
 20
-173.1408528212981
 30
0.0
 10
107.5620822213734
 20
-173.5639105468868
 30
0.0
 10
107.5620822213734
 20
-173.5639105468868
 30
0.0
 10
107.6275390355931
 20
-173.5301486111313
 30
0.0
 10
107.7157334800155
 20
-173.4898409939539
 30
0.0
 10
107.8425129938727
 20
-173.4898409939539
 30
0.0
 10
108.1136420085618
 20
-173.4898409939539
 30
0.0
 10
108.3668565267277
 20
-173.6762206597059
 30
0.0
 10
108.3668565267277
 20
-173.9893798393151
 30
0.0
 10
108.3668565267277
 20
-174.3066731335066
 30
0.0
 10
108.1274223905029
 20
-174.5412841360522
 30
0.0
 10
107.8039279244379
 20
-174.5412841360522
 30
0.0
  0
HATCH
  5
94
330
8F
100
AcDbEntity
  8
レイヤー 1
 62
   250
420
  2299925
440
 33554687
100
AcDbHatch
 10
0.0
 20
0.0
 30
0.0
210
0.0
220
0.0
230
1.0
  2
SOLID
 70
     1
 71
     1
 91
        1
 92
        1
 93
        1
 72
     4
 94
        3
 73
     0
 74
     0
 95
       53
 96
       49
 40
0.0
 40
0.0
 40
0.0
 40
0.0
 40
1.0
 40
1.0
 40
1.0
 40
2.0
 40
2.0
 40
2.0
 40
3.0
 40
3.0
 40
3.0
 40
4.0
 40
4.0
 40
4.0
 40
5.0
 40
5.0
 40
5.0
 40
6.0
 40
6.0
 40
6.0
 40
7.0
 40
7.0
 40
7.0
 40
8.0
 40
8.0
 40
8.0
 40
9.0
 40
9.0
 40
9.0
 40
10.0
 40
10.0
 40
10.0
 40
11.0
 40
11.0
 40
11.0
 40
12.0
 40
12.0
 40
12.0
 40
13.0
 40
13.0
 40
13.0
 40
14.0
 40
14.0
 40
14.0
 40
15.0
 40
15.0
 40
15.0
 40
16.0
 40
16.0
 40
16.0
 40
16.0
 10
107.8039279244379
 20
-174.5412841360522
 10
107.7205566136948
 20
-174.5412841360522
 10
107.6116915963609
 20
-174.5244031681744
 10
107.5035155981241
 20
-174.4610134112458
 10
107.3178249514691
 20
-174.3511148652664
 10
107.295431830815
 20
-174.2198567272783
 10
107.275105767452
 20
-174.11202523859
 10
107.275105767452
 20
-174.11202523859
 10
107.5124728463858
 20
-174.11202523859
 10
107.5124728463858
 20
-174.11202523859
 10
107.571039469635
 20
-174.3108072480889
 10
107.7067762317538
 20
-174.3404350692621
 10
107.8063394912776
 20
-174.3404350692621
 10
107.9555121257889
 20
-174.3404350692621
 10
108.1181206326927
 20
-174.2408718097384
 10
108.1181206326927
 20
-174.008327864484
 10
108.1181206326927
 20
-173.7523572699299
 10
107.9262288141642
 20
-173.6824218315794
 10
107.7973822430159
 20
-173.6824218315794
 10
107.7632757977119
 20
-173.6824218315794
 10
107.6116915963609
 20
-173.6824218315794
 10
107.5169514705166
 20
-173.8116129122762
 10
107.5169514705166
 20
-173.8116129122762
 10
107.3291937665705
 20
-173.7926648871074
 10
107.3291937665705
 20
-173.7926648871074
 10
107.3291937665705
 20
-173.7926648871074
 10
107.4580403377188
 20
-172.9462049263815
 10
107.4580403377188
 20
-172.9462049263815
 10
107.4580403377188
 20
-172.9462049263815
 10
108.2900308974066
 20
-172.9462049263815
 10
108.2900308974066
 20
-172.9462049263815
 10
108.2900308974066
 20
-172.9462049263815
 10
108.2900308974066
 20
-173.1408528212981
 10
108.2900308974066
 20
-173.1408528212981
 10
108.2900308974066
 20
-173.1408528212981
 10
107.6323621692724
 20
-173.1408528212981
 10
107.6323621692724
 20
-173.1408528212981
 10
107.6323621692724
 20
-173.1408528212981
 10
107.5620822213734
 20
-173.5639105468868
 10
107.5620822213734
 20
-173.5639105468868
 10
107.6275390355931
 20
-173.5301486111313
 10
107.7157334800155
 20
-173.4898409939539
 10
107.8425129938727
 20
-173.4898409939539
 10
108.1136420085618
 20
-173.4898409939539
 10
108.3668565267277
 20
-173.6762206597059
 10
108.3668565267277
 20
-173.9893798393151
 10
108.3668565267277
 20
-174.3066731335066
 10
108.1274223905029
 20
-174.5412841360522
 10
107.8039279244379
 20
-174.5412841360522
 97
        0
 97
        1
330
93
 75
     2
 76
     1
 98
        1
 10
0.0
 20
0.0
450
        0
451
        0
460
0.0
461
0.0
452
        0
462
0.0
453
        0
470

  0
SPLINE
  5
95
330
8F
100
AcDbEntity
  8
レイヤー 1
100
AcDbSpline
210
0.0
220
0.0
230
1.0
 70
     9
 71
     3
 72
    17
 73
    13
 74
     0
 42
0.0000000001
 43
0.0000000001
 40
0.0
 40
0.0
 40
0.0
 40
0.0
 40
1.0
 40
1.0
 40
1.0
 40
2.0
 40
2.0
 40
2.0
 40
3.0
 40
3.0
 40
3.0
 40
4.0
 40
4.0
 40
4.0
 40
4.0
 10
109.0820583494656
 20
-173.0902099176649
 30
0.0
 10
108.8154079589072
 20
-173.0902099176649
 30
0.0
 10
108.7657985839196
 20
-173.373741276101
 30
0.0
 10
108.7657985839196
 20
-173.7185953341745
 30
0.0
 10
108.7657985839196
 20
-174.0379556856572
 30
0.0
 10
108.8040391438059
 20
-174.3466362411355
 30
0.0
 10
109.0820583494656
 20
-174.3466362411355
 30
0.0
 10
109.3466416827328
 20
-174.3466362411355
 30
0.0
 10
109.39866262456
 20
-174.0655164495391
 30
0.0
 10
109.39866262456
 20
-173.7185953341745
 30
0.0
 10
109.39866262456
 20
-173.3988904731433
 30
0.0
 10
109.3580104978341
 20
-173.0902099176649
 30
0.0
 10
109.0820583494656
 20
-173.0902099176649
 30
0.0
  0
SPLINE
  5
96
330
8F
100
AcDbEntity
  8
レイヤー 1
100
AcDbSpline
210
0.0
220
0.0
230
1.0
 70
     9
 71
     3
 72
    29
 73
    25
 74
     0
 42
0.0000000001
 43
0.0000000001
 40
0.0
 40
0.0
 40
0.0
 40
0.0
 40
1.0
 40
1.0
 40
1.0
 40
2.0
 40
2.0
 40
2.0
 40
3.0
 40
3.0
 40
3.0
 40
4.0
 40
4.0
 40
4.0
 40
5.0
 40
5.0
 40
5.0
 40
6.0
 40
6.0
 40
6.0
 40
7.0
 40
7.0
 40
7.0
 40
8.0
 40
8.0
 40
8.0
 40
8.0
 10
109.5071831323454
 20
-174.3128743053801
 30
0.0
 10
109.3917724335895
 20
-174.5223361108833
 30
0.0
 10
109.2064262964831
 20
-174.5412841360522
 30
0.0
 10
109.0820583494656
 20
-174.5412841360522
 30
0.0
 10
108.9104925943001
 20
-174.5412841360522
 30
0.0
 10
108.7589083929491
 20
-174.4947753470013
 30
0.0
 10
108.6572780761343
 20
-174.3128743053801
 30
0.0
 10
108.5463460015092
 20
-174.1182264104635
 30
0.0
 10
108.5260199381463
 20
-173.8812038410783
 30
0.0
 10
108.5260199381463
 20
-173.7185953341745
 30
0.0
 10
108.5260199381463
 20
-173.574590342891
 30
0.0
 10
108.5439344346696
 20
-173.3227538629193
 30
0.0
 10
108.6572780761343
 20
-173.1239718534204
 30
0.0
 10
108.7723442653416
 20
-172.9210557293392
 30
0.0
 10
108.9442545300556
 20
-172.8976290800394
 30
0.0
 10
109.0820583494656
 20
-172.8976290800394
 30
0.0
 10
109.2519015568884
 20
-172.8976290800394
 30
0.0
 10
109.4055528155305
 20
-172.9420708117992
 30
0.0
 10
109.5071831323454
 20
-173.1239718534204
 30
0.0
 10
109.6136365828396
 20
-173.3165526910458
 30
0.0
 10
109.6384412703334
 20
-173.5449625217179
 30
0.0
 10
109.6384412703334
 20
-173.7185953341745
 30
0.0
 10
109.6384412703334
 20
-173.8898165797914
 30
0.0
 10
109.6157036401308
 20
-174.1202934677546
 30
0.0
 10
109.5071831323454
 20
-174.3128743053801
 30
0.0
  0
HATCH
  5
97
330
8F
100
AcDbEntity
  8
レイヤー 1
 62
   250
420
  2299925
440
 33554687
100
AcDbHatch
 10
0.0
 20
0.0
 30
0.0
210
0.0
220
0.0
230
1.0
  2
SOLID
 70
     1
 71
     1
 91
        2
 92
        1
 93
        1
 72
     4
 94
        3
 73
     0
 74
     0
 95
       17
 96
       13
 40
0.0
 40
0.0
 40
0.0
 40
0.0
 40
1.0
 40
1.0
 40
1.0
 40
2.0
 40
2.0
 40
2.0
 40
3.0
 40
3.0
 40
3.0
 40
4.0
 40
4.0
 40
4.0
 40
4.0
 10
109.0820583494656
 20
-173.0902099176649
 10
108.8154079589072
 20
-173.0902099176649
 10
108.7657985839196
 20
-173.373741276101
 10
108.7657985839196
 20
-173.7185953341745
 10
108.7657985839196
 20
-174.0379556856572
 10
108.8040391438059
 20
-174.3466362411355
 10
109.0820583494656
 20
-174.3466362411355
 10
109.3466416827328
 20
-174.3466362411355
 10
109.39866262456
 20
-174.0655164495391
 10
109.39866262456
 20
-173.7185953341745
 10
109.39866262456
 20
-173.3988904731433
 10
109.3580104978341
 20
-173.0902099176649
 10
109.0820583494656
 20
-173.0902099176649
 97
        0
 97
        1
330
95
 92
        1
 93
        1
 72
     4
 94
        3
 73
     0
 74
     0
 95
       29
 96
       25
 40
0.0
 40
0.0
 40
0.0
 40
0.0
 40
1.0
 40
1.0
 40
1.0
 40
2.0
 40
2.0
 40
2.0
 40
3.0
 40
3.0
 40
3.0
 40
4.0
 40
4.0
 40
4.0
 40
5.0
 40
5.0
 40
5.0
 40
6.0
 40
6.0
 40
6.0
 40
7.0
 40
7.0
 40
7.0
 40
8.0
 40
8.0
 40
8.0
 40
8.0
 10
109.5071831323454
 20
-174.3128743053801
 10
109.3917724335895
 20
-174.5223361108833
 10
109.2064262964831
 20
-174.5412841360522
 10
109.0820583494656
 20
-174.5412841360522
 10
108.9104925943001
 20
-174.5412841360522
 10
108.7589083929491
 20
-174.4947753470013
 10
108.6572780761343
 20
-174.3128743053801
 10
108.5463460015092
 20
-174.1182264104635
 10
108.5260199381463
 20
-173.8812038410783
 10
108.5260199381463
 20
-173.7185953341745
 10
108.5260199381463
 20
-173.574590342891
 10
108.5439344346696
 20
-173.3227538629193
 10
108.6572780761343
 20
-173.1239718534204
 10
108.7723442653416
 20
-172.9210557293392
 10
108.9442545300556
 20
-172.8976290800394
 10
109.0820583494656
 20
-172.8976290800394
 10
109.2519015568884
 20
-172.8976290800394
 10
109.4055528155305
 20
-172.9420708117992
 10
109.5071831323454
 20
-173.1239718534204
 10
109.6136365828396
 20
-173.3165526910458
 10
109.6384412703334
 20
-173.5449625217179
 10
109.6384412703334
 20
-173.7185953341745
 10
109.6384412703334
 20
-173.8898165797914
 10
109.6157036401308
 20
-174.1202934677546
 10
109.5071831323454
 20
-174.3128743053801
 97
        0
 97
        1
330
96
 75
     2
 76
     1
 98
        1
 10
0.0
 20
0.0
450
        0
451
        0
460
0.0
461
0.0
452
        0
462
0.0
453
        0
470

  0
ENDBLK
  5
92
330
8F
100
AcDbEntity
  8
0
100
AcDbBlockEnd
  0
BLOCK
  5
9D
330
9B
100
AcDbEntity
  8
0
100
AcDbBlockBegin
  2
Block_3
 70
     0
 10
0.0
 20
0.0
 30
0.0
  3
Block_3
  1

  0
INSERT
  5
A0
330
9B
100
AcDbEntity
  8
レイヤー 1
100
AcDbBlockReference
  2
Block_4
 10
0.0
 20
0.0
 30
0.0
  0
ENDBLK
  5
9E
330
9B
100
AcDbEntity
  8
0
100
AcDbBlockEnd
  0
BLOCK
  5
A1
330
9F
100
AcDbEntity
  8
0
100
AcDbBlockBegin
  2
Block_4
 70
     0
 10
0.0
 20
0.0
 30
0.0
  3
Block_4
  1

  0
SPLINE
  5
A3
330
9F
100
AcDbEntity
  8
レイヤー 1
100
AcDbSpline
210
0.0
220
0.0
230
1.0
 70
     9
 71
     3
 72
    53
 73
    49
 74
     0
 42
0.0000000001
 43
0.0000000001
 40
0.0
 40
0.0
 40
0.0
 40
0.0
 40
1.0
 40
1.0
 40
1.0
 40
2.0
 40
2.0
 40
2.0
 40
3.0
 40
3.0
 40
3.0
 40
4.0
 40
4.0
 40
4.0
 40
5.0
 40
5.0
 40
5.0
 40
6.0
 40
6.0
 40
6.0
 40
7.0
 40
7.0
 40
7.0
 40
8.0
 40
8.0
 40
8.0
 40
9.0
 40
9.0
 40
9.0
 40
10.0
 40
10.0
 40
10.0
 40
11.0
 40
11.0
 40
11.0
 40
12.0
 40
12.0
 40
12.0
 40
13.0
 40
13.0
 40
13.0
 40
14.0
 40
14.0
 40
14.0
 40
15.0
 40
15.0
 40
15.0
 40
16.0
 40
16.0
 40
16.0
 40
16.0
 10
78.7860609069528
 20
-146.8480563326456
 30
0.0
 10
78.7860609069528
 20
-146.9317721529372
 30
0.0
 10
78.7690076843008
 20
-147.039948151174
 30
0.0
 10
78.70561792737222
 20
-147.1488131685079
 30
0.0
 10
78.59554712661848
 20
-147.3341593056144
 30
0.0
 10
78.46446124340473
 20
-147.3565524262685
 30
0.0
 10
78.35662975471641
 20
-147.3768784896314
 30
0.0
 10
78.35662975471641
 20
-147.3768784896314
 30
0.0
 10
78.35662975471641
 20
-147.1395114106977
 30
0.0
 10
78.35662975471641
 20
-147.1395114106977
 30
0.0
 10
78.55541176421532
 20
-147.0809447874485
 30
0.0
 10
78.58503958538847
 20
-146.9452080253296
 30
0.0
 10
78.58503958538847
 20
-146.8456447658059
 30
0.0
 10
78.58503958538847
 20
-146.6964721312946
 30
0.0
 10
78.48564858063901
 20
-146.5335191148423
 30
0.0
 10
78.25293238061037
 20
-146.5335191148423
 30
0.0
 10
77.99696178605632
 20
-146.5335191148423
 30
0.0
 10
77.92719860248
 20
-146.7257554429192
 30
0.0
 10
77.92719860248
 20
-146.8546020140676
 30
0.0
 10
77.92719860248
 20
-146.8887084593715
 30
0.0
 10
77.92719860248
 20
-147.039948151174
 30
0.0
 10
78.05621742840262
 20
-147.1350327865669
 30
0.0
 10
78.05621742840262
 20
-147.1350327865669
 30
0.0
 10
78.03709714845948
 20
-147.322790490513
 30
0.0
 10
78.03709714845948
 20
-147.322790490513
 30
0.0
 10
78.03709714845948
 20
-147.322790490513
 30
0.0
 10
77.19098169728212
 20
-147.1939439193647
 30
0.0
 10
77.19098169728212
 20
-147.1939439193647
 30
0.0
 10
77.19098169728212
 20
-147.1939439193647
 30
0.0
 10
77.19098169728212
 20
-146.3619533596768
 30
0.0
 10
77.19098169728212
 20
-146.3619533596768
 30
0.0
 10
77.19098169728212
 20
-146.3619533596768
 30
0.0
 10
77.38562959219874
 20
-146.3619533596768
 30
0.0
 10
77.38562959219874
 20
-146.3619533596768
 30
0.0
 10
77.38562959219874
 20
-146.3619533596768
 30
0.0
 10
77.38562959219874
 20
-147.0196220878111
 30
0.0
 10
77.38562959219874
 20
-147.0196220878111
 30
0.0
 10
77.38562959219874
 20
-147.0196220878111
 30
0.0
 10
77.80868731778742
 20
-147.0899020357101
 30
0.0
 10
77.80868731778742
 20
-147.0899020357101
 30
0.0
 10
77.77475312725771
 20
-147.0244452214904
 30
0.0
 10
77.73461776485454
 20
-146.936250777068
 30
0.0
 10
77.73461776485454
 20
-146.8094712632108
 30
0.0
 10
77.73461776485454
 20
-146.5383422485216
 30
0.0
 10
77.92082517583229
 20
-146.2851277303558
 30
0.0
 10
78.23381210066725
 20
-146.2851277303558
 30
0.0
 10
78.55127764963302
 20
-146.2851277303558
 30
0.0
 10
78.7860609069528
 20
-146.5245618665807
 30
0.0
 10
78.7860609069528
 20
-146.8480563326456
 30
0.0
  0
HATCH
  5
A4
330
9F
100
AcDbEntity
  8
レイヤー 1
 62
   250
420
  2299925
440
 33554687
100
AcDbHatch
 10
0.0
 20
0.0
 30
0.0
210
0.0
220
0.0
230
1.0
  2
SOLID
 70
     1
 71
     1
 91
        1
 92
        1
 93
        1
 72
     4
 94
        3
 73
     0
 74
     0
 95
       53
 96
       49
 40
0.0
 40
0.0
 40
0.0
 40
0.0
 40
1.0
 40
1.0
 40
1.0
 40
2.0
 40
2.0
 40
2.0
 40
3.0
 40
3.0
 40
3.0
 40
4.0
 40
4.0
 40
4.0
 40
5.0
 40
5.0
 40
5.0
 40
6.0
 40
6.0
 40
6.0
 40
7.0
 40
7.0
 40
7.0
 40
8.0
 40
8.0
 40
8.0
 40
9.0
 40
9.0
 40
9.0
 40
10.0
 40
10.0
 40
10.0
 40
11.0
 40
11.0
 40
11.0
 40
12.0
 40
12.0
 40
12.0
 40
13.0
 40
13.0
 40
13.0
 40
14.0
 40
14.0
 40
14.0
 40
15.0
 40
15.0
 40
15.0
 40
16.0
 40
16.0
 40
16.0
 40
16.0
 10
78.7860609069528
 20
-146.8480563326456
 10
78.7860609069528
 20
-146.9317721529372
 10
78.7690076843008
 20
-147.039948151174
 10
78.70561792737222
 20
-147.1488131685079
 10
78.59554712661848
 20
-147.3341593056144
 10
78.46446124340473
 20
-147.3565524262685
 10
78.35662975471641
 20
-147.3768784896314
 10
78.35662975471641
 20
-147.3768784896314
 10
78.35662975471641
 20
-147.1395114106977
 10
78.35662975471641
 20
-147.1395114106977
 10
78.55541176421532
 20
-147.0809447874485
 10
78.58503958538847
 20
-146.9452080253296
 10
78.58503958538847
 20
-146.8456447658059
 10
78.58503958538847
 20
-146.6964721312946
 10
78.48564858063901
 20
-146.5335191148423
 10
78.25293238061037
 20
-146.5335191148423
 10
77.99696178605632
 20
-146.5335191148423
 10
77.92719860248
 20
-146.7257554429192
 10
77.92719860248
 20
-146.8546020140676
 10
77.92719860248
 20
-146.8887084593715
 10
77.92719860248
 20
-147.039948151174
 10
78.05621742840262
 20
-147.1350327865669
 10
78.05621742840262
 20
-147.1350327865669
 10
78.03709714845948
 20
-147.322790490513
 10
78.03709714845948
 20
-147.322790490513
 10
78.03709714845948
 20
-147.322790490513
 10
77.19098169728212
 20
-147.1939439193647
 10
77.19098169728212
 20
-147.1939439193647
 10
77.19098169728212
 20
-147.1939439193647
 10
77.19098169728212
 20
-146.3619533596768
 10
77.19098169728212
 20
-146.3619533596768
 10
77.19098169728212
 20
-146.3619533596768
 10
77.38562959219874
 20
-146.3619533596768
 10
77.38562959219874
 20
-146.3619533596768
 10
77.38562959219874
 20
-146.3619533596768
 10
77.38562959219874
 20
-147.0196220878111
 10
77.38562959219874
 20
-147.0196220878111
 10
77.38562959219874
 20
-147.0196220878111
 10
77.80868731778742
 20
-147.0899020357101
 10
77.80868731778742
 20
-147.0899020357101
 10
77.77475312725771
 20
-147.0244452214904
 10
77.73461776485454
 20
-146.936250777068
 10
77.73461776485454
 20
-146.8094712632108
 10
77.73461776485454
 20
-146.5383422485216
 10
77.92082517583229
 20
-146.2851277303558
 10
78.23381210066725
 20
-146.2851277303558
 10
78.55127764963302
 20
-146.2851277303558
 10
78.7860609069528
 20
-146.5245618665807
 10
78.7860609069528
 20
-146.8480563326456
 97
        0
 97
        1
330
A3
 75
     2
 76
     1
 98
        1
 10
0.0
 20
0.0
450
        0
451
        0
460
0.0
461
0.0
452
        0
462
0.0
453
        0
470

  0
SPLINE
  5
A5
330
9F
100
AcDbEntity
  8
レイヤー 1
100
AcDbSpline
210
0.0
220
0.0
230
1.0
 70
     9
 71
     3
 72
    17
 73
    13
 74
     0
 42
0.0000000001
 43
0.0000000001
 40
0.0
 40
0.0
 40
0.0
 40
0.0
 40
1.0
 40
1.0
 40
1.0
 40
2.0
 40
2.0
 40
2.0
 40
3.0
 40
3.0
 40
3.0
 40
4.0
 40
4.0
 40
4.0
 40
4.0
 10
77.3348144337913
 20
-145.5699259076179
 30
0.0
 10
77.3348144337913
 20
-145.8365762981762
 30
0.0
 10
77.61834579222735
 20
-145.8861856731639
 30
0.0
 10
77.96302759552661
 20
-145.8861856731639
 30
0.0
 10
78.28256020178352
 20
-145.8861856731639
 30
0.0
 10
78.59141301203618
 20
-145.8479451132776
 30
0.0
 10
78.59141301203618
 20
-145.5699259076179
 30
0.0
 10
78.59141301203618
 20
-145.3053425743507
 30
0.0
 10
78.30994871089126
 20
-145.2533216325235
 30
0.0
 10
77.96302759552661
 20
-145.2533216325235
 30
0.0
 10
77.64366724404395
 20
-145.2533216325235
 30
0.0
 10
77.3348144337913
 20
-145.2939737592494
 30
0.0
 10
77.3348144337913
 20
-145.5699259076179
 30
0.0
  0
SPLINE
  5
A6
330
9F
100
AcDbEntity
  8
レイヤー 1
100
AcDbSpline
210
0.0
220
0.0
230
1.0
 70
     9
 71
     3
 72
    29
 73
    25
 74
     0
 42
0.0000000001
 43
0.0000000001
 40
0.0
 40
0.0
 40
0.0
 40
0.0
 40
1.0
 40
1.0
 40
1.0
 40
2.0
 40
2.0
 40
2.0
 40
3.0
 40
3.0
 40
3.0
 40
4.0
 40
4.0
 40
4.0
 40
5.0
 40
5.0
 40
5.0
 40
6.0
 40
6.0
 40
6.0
 40
7.0
 40
7.0
 40
7.0
 40
8.0
 40
8.0
 40
8.0
 40
8.0
 10
78.55747882150646
 20
-145.1448011247381
 30
0.0
 10
78.76694062700966
 20
-145.260211823494
 30
0.0
 10
78.7860609069528
 20
-145.4455579606004
 30
0.0
 10
78.7860609069528
 20
-145.5699259076179
 30
0.0
 10
78.7860609069528
 20
-145.7414916627834
 30
0.0
 10
78.73955211790192
 20
-145.8930758641344
 30
0.0
 10
78.55747882150646
 20
-145.9947061809492
 30
0.0
 10
78.36283092658985
 20
-146.1056382555743
 30
0.0
 10
78.12598061197893
 20
-146.1259643189372
 30
0.0
 10
77.96302759552661
 20
-146.1259643189372
 30
0.0
 10
77.81919485901743
 20
-146.1259643189372
 30
0.0
 10
77.56753063381992
 20
-146.1077053128654
 30
0.0
 10
77.36857636954674
 20
-145.9947061809492
 30
0.0
 10
77.16548799069127
 20
-145.8796399917419
 30
0.0
 10
77.14223359616584
 20
-145.7077297270279
 30
0.0
 10
77.14223359616584
 20
-145.5699259076179
 30
0.0
 10
77.14223359616584
 20
-145.4000827001951
 30
0.0
 10
77.18667532792555
 20
-145.246431441553
 30
0.0
 10
77.36857636954674
 20
-145.1448011247381
 30
0.0
 10
77.56115720717222
 20
-145.0383476742439
 30
0.0
 10
77.78956703784428
 20
-145.0135429867501
 30
0.0
 10
77.96302759552661
 20
-145.0135429867501
 30
0.0
 10
78.13442109591779
 20
-145.0135429867501
 30
0.0
 10
78.36507023865526
 20
-145.0362806169527
 30
0.0
 10
78.55747882150646
 20
-145.1448011247381
 30
0.0
  0
HATCH
  5
A7
330
9F
100
AcDbEntity
  8
レイヤー 1
 62
   250
420
  2299925
440
 33554687
100
AcDbHatch
 10
0.0
 20
0.0
 30
0.0
210
0.0
220
0.0
230
1.0
  2
SOLID
 70
     1
 71
     1
 91
        2
 92
        1
 93
        1
 72
     4
 94
        3
 73
     0
 74
     0
 95
       17
 96
       13
 40
0.0
 40
0.0
 40
0.0
 40
0.0
 40
1.0
 40
1.0
 40
1.0
 40
2.0
 40
2.0
 40
2.0
 40
3.0
 40
3.0
 40
3.0
 40
4.0
 40
4.0
 40
4.0
 40
4.0
 10
77.3348144337913
 20
-145.5699259076179
 10
77.3348144337913
 20
-145.8365762981762
 10
77.61834579222735
 20
-145.8861856731639
 10
77.96302759552661
 20
-145.8861856731639
 10
78.28256020178352
 20
-145.8861856731639
 10
78.59141301203618
 20
-145.8479451132776
 10
78.59141301203618
 20
-145.5699259076179
 10
78.59141301203618
 20
-145.3053425743507
 10
78.30994871089126
 20
-145.2533216325235
 10
77.96302759552661
 20
-145.2533216325235
 10
77.64366724404395
 20
-145.2533216325235
 10
77.3348144337913
 20
-145.2939737592494
 10
77.3348144337913
 20
-145.5699259076179
 97
        0
 97
        1
330
A5
 92
        1
 93
        1
 72
     4
 94
        3
 73
     0
 74
     0
 95
       29
 96
       25
 40
0.0
 40
0.0
 40
0.0
 40
0.0
 40
1.0
 40
1.0
 40
1.0
 40
2.0
 40
2.0
 40
2.0
 40
3.0
 40
3.0
 40
3.0
 40
4.0
 40
4.0
 40
4.0
 40
5.0
 40
5.0
 40
5.0
 40
6.0
 40
6.0
 40
6.0
 40
7.0
 40
7.0
 40
7.0
 40
8.0
 40
8.0
 40
8.0
 40
8.0
 10
78.55747882150646
 20
-145.1448011247381
 10
78.76694062700966
 20
-145.260211823494
 10
78.7860609069528
 20
-145.4455579606004
 10
78.7860609069528
 20
-145.5699259076179
 10
78.7860609069528
 20
-145.7414916627834
 10
78.73955211790192
 20
-145.8930758641344
 10
78.55747882150646
 20
-145.9947061809492
 10
78.36283092658985
 20
-146.1056382555743
 10
78.12598061197893
 20
-146.1259643189372
 10
77.96302759552661
 20
-146.1259643189372
 10
77.81919485901743
 20
-146.1259643189372
 10
77.56753063381992
 20
-146.1077053128654
 10
77.36857636954674
 20
-145.9947061809492
 10
77.16548799069127
 20
-145.8796399917419
 10
77.14223359616584
 20
-145.7077297270279
 10
77.14223359616584
 20
-145.5699259076179
 10
77.14223359616584
 20
-145.4000827001951
 10
77.18667532792555
 20
-145.246431441553
 10
77.36857636954674
 20
-145.1448011247381
 10
77.56115720717222
 20
-145.0383476742439
 10
77.78956703784428
 20
-145.0135429867501
 10
77.96302759552661
 20
-145.0135429867501
 10
78.13442109591779
 20
-145.0135429867501
 10
78.36507023865526
 20
-145.0362806169527
 10
78.55747882150646
 20
-145.1448011247381
 97
        0
 97
        1
330
A6
 75
     2
 76
     1
 98
        1
 10
0.0
 20
0.0
450
        0
451
        0
460
0.0
461
0.0
452
        0
462
0.0
453
        0
470

  0
ENDBLK
  5
A2
330
9F
100
AcDbEntity
  8
0
100
AcDbBlockEnd
  0
BLOCK
  5
AE
330
AC
100
AcDbEntity
  8
0
100
AcDbBlockBegin
  2
Block_5
 70
     0
 10
0.0
 20
0.0
 30
0.0
  3
Block_5
  1

  0
INSERT
  5
B1
330
AC
100
AcDbEntity
  8
レイヤー 1
100
AcDbBlockReference
  2
Block_6
 10
0.0
 20
0.0
 30
0.0
  0
ENDBLK
  5
AF
330
AC
100
AcDbEntity
  8
0
100
AcDbBlockEnd
  0
BLOCK
  5
B2
330
B0
100
AcDbEntity
  8
0
100
AcDbBlockBegin
  2
Block_6
 70
     0
 10
0.0
 20
0.0
 30
0.0
  3
Block_6
  1

  0
SPLINE
  5
B4
330
B0
100
AcDbEntity
  8
レイヤー 1
100
AcDbSpline
210
0.0
220
0.0
230
1.0
 70
     9
 71
     3
 72
    17
 73
    13
 74
     0
 42
0.0000000001
 43
0.0000000001
 40
0.0
 40
0.0
 40
0.0
 40
0.0
 40
1.0
 40
1.0
 40
1.0
 40
2.0
 40
2.0
 40
2.0
 40
3.0
 40
3.0
 40
3.0
 40
4.0
 40
4.0
 40
4.0
 40
4.0
 10
91.13758949544477
 20
-160.3123507628733
 30
0.0
 10
91.12277558485819
 20
-160.3419785840464
 30
0.0
 10
91.07833385309847
 20
-160.4349961621482
 30
0.0
 10
91.0690320952883
 20
-160.453944187317
 30
0.0
 10
91.23577471677441
 20
-160.5131998296633
 30
0.0
 10
91.25420597762049
 20
-160.5197455110853
 30
0.0
 10
91.31725122500055
 20
-160.5469617654188
 30
0.0
 10
91.36531030701979
 20
-160.460489868739
 30
0.0
 10
91.38580862515702
 20
-160.3864203158062
 30
0.0
 10
91.3987277332267
 20
-160.3123507628733
 30
0.0
 10
91.3987277332267
 20
-160.3123507628733
 30
0.0
 10
91.13758949544477
 20
-160.3123507628733
 30
0.0
 10
91.13758949544477
 20
-160.3123507628733
 30
0.0
  0
SPLINE
  5
B5
330
B0
100
AcDbEntity
  8
レイヤー 1
100
AcDbSpline
210
0.0
220
0.0
230
1.0
 70
    11
 71
     3
 72
    20
 73
    16
 74
     0
 42
0.0000000001
 43
0.0000000001
 40
0.0
 40
0.0
 40
0.0
 40
0.0
 40
1.0
 40
1.0
 40
1.0
 40
2.0
 40
2.0
 40
2.0
 40
3.0
 40
3.0
 40
3.0
 40
4.0
 40
4.0
 40
4.0
 40
5.0
 40
5.0
 40
5.0
 40
5.0
 10
91.08212345813225
 20
-159.4617566875651
 30
0.0
 10
91.08212345813225
 20
-159.4617566875651
 30
0.0
 10
91.05421818470173
 20
-159.4617566875651
 30
0.0
 10
91.05421818470173
 20
-159.4617566875651
 30
0.0
 10
91.09504256620194
 20
-159.5613199470888
 30
0.0
 10
91.12277558485819
 20
-159.6415906718951
 30
0.0
 10
91.15240340603135
 20
-159.7687146953008
 30
0.0
 10
91.15240340603135
 20
-159.7687146953008
 30
0.0
 10
91.33395993810401
 20
-159.7687146953008
 30
0.0
 10
91.33395993810401
 20
-159.7687146953008
 30
0.0
 10
91.36169295676028
 20
-159.6756971171991
 30
0.0
 10
91.38201902012324
 20
-159.590947768262
 30
0.0
 10
91.40234508348623
 20
-159.4617566875651
 30
0.0
 10
91.40234508348623
 20
-159.4617566875651
 30
0.0
 10
91.08212345813225
 20
-159.4617566875651
 30
0.0
 10
91.08212345813225
 20
-159.4617566875651
 30
0.0
  0
SPLINE
  5
B6
330
B0
100
AcDbEntity
  8
レイヤー 1
100
AcDbSpline
210
0.0
220
0.0
230
1.0
 70
     9
 71
     3
 72
   242
 73
   238
 74
     0
 42
0.0000000001
 43
0.0000000001
 40
0.0
 40
0.0
 40
0.0
 40
0.0
 40
1.0
 40
1.0
 40
1.0
 40
2.0
 40
2.0
 40
2.0
 40
3.0
 40
3.0
 40
3.0
 40
4.0
 40
4.0
 40
4.0
 40
5.0
 40
5.0
 40
5.0
 40
6.0
 40
6.0
 40
6.0
 40
7.0
 40
7.0
 40
7.0
 40
8.0
 40
8.0
 40
8.0
 40
9.0
 40
9.0
 40
9.0
 40
10.0
 40
10.0
 40
10.0
 40
11.0
 40
11.0
 40
11.0
 40
12.0
 40
12.0
 40
12.0
 40
13.0
 40
13.0
 40
13.0
 40
14.0
 40
14.0
 40
14.0
 40
15.0
 40
15.0
 40
15.0
 40
16.0
 40
16.0
 40
16.0
 40
17.0
 40
17.0
 40
17.0
 40
18.0
 40
18.0
 40
18.0
 40
19.0
 40
19.0
 40
19.0
 40
20.0
 40
20.0
 40
20.0
 40
21.0
 40
21.0
 40
21.0
 40
22.0
 40
22.0
 40
22.0
 40
23.0
 40
23.0
 40
23.0
 40
24.0
 40
24.0
 40
24.0
 40
25.0
 40
25.0
 40
25.0
 40
26.0
 40
26.0
 40
26.0
 40
27.0
 40
27.0
 40
27.0
 40
28.0
 40
28.0
 40
28.0
 40
29.0
 40
29.0
 40
29.0
 40
30.0
 40
30.0
 40
30.0
 40
31.0
 40
31.0
 40
31.0
 40
32.0
 40
32.0
 40
32.0
 40
33.0
 40
33.0
 40
33.0
 40
34.0
 40
34.0
 40
34.0
 40
35.0
 40
35.0
 40
35.0
 40
36.0
 40
36.0
 40
36.0
 40
37.0
 40
37.0
 40
37.0
 40
38.0
 40
38.0
 40
38.0
 40
39.0
 40
39.0
 40
39.0
 40
40.0
 40
40.0
 40
40.0
 40
41.0
 40
41.0
 40
41.0
 40
42.0
 40
42.0
 40
42.0
 40
43.0
 40
43.0
 40
43.0
 40
44.0
 40
44.0
 40
44.0
 40
45.0
 40
45.0
 40
45.0
 40
46.0
 40
46.0
 40
46.0
 40
47.0
 40
47.0
 40
47.0
 40
48.0
 40
48.0
 40
48.0
 40
49.0
 40
49.0
 40
49.0
 40
50.0
 40
50.0
 40
50.0
 40
51.0
 40
51.0
 40
51.0
 40
52.0
 40
52.0
 40
52.0
 40
53.0
 40
53.0
 40
53.0
 40
54.0
 40
54.0
 40
54.0
 40
55.0
 40
55.0
 40
55.0
 40
56.0
 40
56.0
 40
56.0
 40
57.0
 40
57.0
 40
57.0
 40
58.0
 40
58.0
 40
58.0
 40
59.0
 40
59.0
 40
59.0
 40
60.0
 40
60.0
 40
60.0
 40
61.0
 40
61.0
 40
61.0
 40
62.0
 40
62.0
 40
62.0
 40
63.0
 40
63.0
 40
63.0
 40
64.0
 40
64.0
 40
64.0
 40
65.0
 40
65.0
 40
65.0
 40
66.0
 40
66.0
 40
66.0
 40
67.0
 40
67.0
 40
67.0
 40
68.0
 40
68.0
 40
68.0
 40
69.0
 40
69.0
 40
69.0
 40
70.0
 40
70.0
 40
70.0
 40
71.0
 40
71.0
 40
71.0
 40
72.0
 40
72.0
 40
72.0
 40
73.0
 40
73.0
 40
73.0
 40
74.0
 40
74.0
 40
74.0
 40
75.0
 40
75.0
 40
75.0
 40
76.0
 40
76.0
 40
76.0
 40
77.0
 40
77.0
 40
77.0
 40
78.0
 40
78.0
 40
78.0
 40
79.0
 40
79.0
 40
79.0
 40
79.0
 10
91.63196069757812
 20
-159.9271890876224
 30
0.0
 10
91.63196069757812
 20
-159.9271890876224
 30
0.0
 10
91.40975203877951
 20
-159.9271890876224
 30
0.0
 10
91.40975203877951
 20
-159.9271890876224
 30
0.0
 10
91.40975203877951
 20
-159.9271890876224
 30
0.0
 10
91.16721731661792
 20
-159.9271890876224
 30
0.0
 10
91.16721731661792
 20
-159.9271890876224
 30
0.0
 10
91.16721731661792
 20
-159.9271890876224
 30
0.0
 10
91.27832164601723
 20
-159.9695637620909
 30
0.0
 10
91.27832164601723
 20
-159.9695637620909
 30
0.0
 10
91.2876234038274
 20
-159.9736978766732
 30
0.0
 10
91.2986477093802
 20
-159.9802435580952
 30
0.0
 10
91.2986477093802
 20
-159.9929904113906
 30
0.0
 10
91.2986477093802
 20
-160.0140054938506
 30
0.0
 10
91.27091469072395
 20
-160.0202066657241
 30
0.0
 10
91.25248342987786
 20
-160.0246852898549
 30
0.0
 10
91.24318167206768
 20
-160.0477674296061
 30
0.0
 10
91.21717120115404
 20
-160.1135687533744
 30
0.0
 10
91.20063474282485
 20
-160.1580104851341
 30
0.0
 10
91.20063474282485
 20
-160.1580104851341
 30
0.0
 10
91.43765731221003
 20
-160.1580104851341
 30
0.0
 10
91.43765731221003
 20
-160.1580104851341
 30
0.0
 10
91.5172390179193
 20
-160.1580104851341
 30
0.0
 10
91.68949379218179
 20
-160.1535318610033
 30
0.0
 10
91.81351722965079
 20
-160.1452636318387
 30
0.0
 10
91.81351722965079
 20
-160.1452636318387
 30
0.0
 10
91.81351722965079
 20
-160.3230305588775
 30
0.0
 10
91.81351722965079
 20
-160.3230305588775
 30
0.0
 10
91.74134247923481
 20
-160.3185519347467
 30
0.0
 10
91.72273896361446
 20
-160.3185519347467
 30
0.0
 10
91.56529809993854
 20
-160.3144178201644
 30
0.0
 10
91.53756508128228
 20
-160.4687580979036
 30
0.0
 10
91.49863550229895
 20
-160.5493733322585
 30
0.0
 10
91.4598781780899
 20
-160.6189642610605
 30
0.0
 10
91.56529809993854
 20
-160.6782199034068
 30
0.0
 10
91.65797116849175
 20
-160.7460882844662
 30
0.0
 10
91.7487494345281
 20
-160.8284260665637
 30
0.0
 10
91.7487494345281
 20
-160.8284260665637
 30
0.0
 10
91.64505206042207
 20
-160.9955131975983
 30
0.0
 10
91.64505206042207
 20
-160.9955131975983
 30
0.0
 10
91.62455374228484
 20
-160.9765651724295
 30
0.0
 10
91.61352943673204
 20
-160.9679524337163
 30
0.0
 10
91.51534421540242
 20
-160.8835475943277
 30
0.0
 10
91.47279728615957
 20
-160.8453070344414
 30
0.0
 10
91.42094859910656
 20
-160.8094780413948
 30
0.0
 10
91.35049639643321
 20
-160.7650363096351
 30
0.0
 10
91.16532251410104
 20
-160.9510714658386
 30
0.0
 10
90.98583303931951
 20
-160.9744981151383
 30
0.0
 10
90.73210175683087
 20
-161.0041259363114
 30
0.0
 10
90.73210175683087
 20
-161.0041259363114
 30
0.0
 10
90.64132349079454
 20
-160.8242919519814
 30
0.0
 10
90.64132349079454
 20
-160.8242919519814
 30
0.0
 10
90.91917044167994
 20
-160.8201578373991
 30
0.0
 10
91.07282170032208
 20
-160.7946641308083
 30
0.0
 10
91.20614689560126
 20
-160.6847655848288
 30
0.0
 10
91.10244952149523
 20
-160.6337781716471
 30
0.0
 10
91.02459036352858
 20
-160.6062174077651
 30
0.0
 10
90.99323999461281
 20
-160.5938150640182
 30
0.0
 10
90.97653128150934
 20
-160.6210313183517
 30
0.0
 10
90.96361217343966
 20
-160.6403238530691
 30
0.0
 10
90.9394965050429
 20
-160.6740857888245
 30
0.0
 10
90.9394965050429
 20
-160.6740857888245
 30
0.0
 10
90.76724173078041
 20
-160.5914034971785
 30
0.0
 10
90.76724173078041
 20
-160.5914034971785
 30
0.0
 10
90.83941648119639
 20
-160.5111327723722
 30
0.0
 10
90.8931599707663
 20
-160.4160481369793
 30
0.0
 10
90.94311385530241
 20
-160.3144178201644
 30
0.0
 10
90.77654348859059
 20
-160.3185519347467
 30
0.0
 10
90.75793997297024
 20
-160.3185519347467
 30
0.0
 10
90.68576522255424
 20
-160.3230305588775
 30
0.0
 10
90.68576522255424
 20
-160.3230305588775
 30
0.0
 10
90.68576522255424
 20
-160.1452636318387
 30
0.0
 10
90.68576522255424
 20
-160.1452636318387
 30
0.0
 10
90.80806611228062
 20
-160.1514648037121
 30
0.0
 10
90.99134519209592
 20
-160.1555989182944
 30
0.0
 10
91.01356605797578
 20
-160.1555989182944
 30
0.0
 10
91.02837996856235
 20
-160.121836982539
 30
0.0
 10
91.07643905058159
 20
-160.0012586405552
 30
0.0
 10
91.09314776368504
 20
-159.9271890876224
 30
0.0
 10
91.07643905058159
 20
-159.9271890876224
 30
0.0
 10
90.92089298942255
 20
-159.9337347690443
 30
0.0
 10
90.75053301767695
 20
-159.9464816223397
 30
0.0
 10
90.75053301767695
 20
-159.9464816223397
 30
0.0
 10
90.75053301767695
 20
-160.0794623080704
 30
0.0
 10
90.75053301767695
 20
-160.0794623080704
 30
0.0
 10
90.70798608843412
 20
-160.1049560146613
 30
0.0
 10
90.65613740138109
 20
-160.1366508931255
 30
0.0
 10
90.53952091920541
 20
-160.2024522168938
 30
0.0
 10
90.53952091920541
 20
-160.2024522168938
 30
0.0
 10
90.53952091920541
 20
-160.3481797559199
 30
0.0
 10
90.53952091920541
 20
-160.3481797559199
 30
0.0
 10
90.53952091920541
 20
-160.3481797559199
 30
0.0
 10
90.53952091920541
 20
-160.8156792132683
 30
0.0
 10
90.53952091920541
 20
-160.8156792132683
 30
0.0
 10
90.53952091920541
 20
-160.942803236674
 30
0.0
 10
90.50799829551536
 20
-161.0020588790203
 30
0.0
 10
90.25995142057738
 20
-160.9934461403072
 30
0.0
 10
90.25995142057738
 20
-160.9934461403072
 30
0.0
 10
90.16917315454104
 20
-160.7860513920952
 30
0.0
 10
90.16917315454104
 20
-160.7860513920952
 30
0.0
 10
90.22463919185357
 20
-160.7987982453906
 30
0.0
 10
90.26735837587066
 20
-160.8032768695214
 30
0.0
 10
90.3024983498202
 20
-160.8032768695214
 30
0.0
 10
90.36916094745981
 20
-160.8032768695214
 30
0.0
 10
90.37846270526996
 20
-160.7798502202217
 30
0.0
 10
90.37846270526996
 20
-160.7143934060019
 30
0.0
 10
90.37846270526996
 20
-160.7143934060019
 30
0.0
 10
90.37846270526996
 20
-160.2847899989913
 30
0.0
 10
90.37846270526996
 20
-160.2847899989913
 30
0.0
 10
90.29319659201004
 20
-160.3250976161687
 30
0.0
 10
90.27838268142346
 20
-160.3312987880421
 30
0.0
 10
90.23773055469751
 20
-160.350246813211
 30
0.0
 10
90.23394094966375
 20
-160.3716064052196
 30
0.0
 10
90.23032359940422
 20
-160.4012342263927
 30
0.0
 10
90.21361488630075
 20
-160.4012342263927
 30
0.0
 10
90.20620793100748
 20
-160.4012342263927
 30
0.0
 10
90.1969061731973
 20
-160.3967556022619
 30
0.0
 10
90.19139402042091
 20
-160.3736734625107
 30
0.0
 10
90.19139402042091
 20
-160.3736734625107
 30
0.0
 10
90.1450574861443
 20
-160.1810926248853
 30
0.0
 10
90.1450574861443
 20
-160.1810926248853
 30
0.0
 10
90.27287052864705
 20
-160.1345838358344
 30
0.0
 10
90.33023136847647
 20
-160.1115016960832
 30
0.0
 10
90.37846270526996
 20
-160.0901421040747
 30
0.0
 10
90.37846270526996
 20
-160.0901421040747
 30
0.0
 10
90.37846270526996
 20
-159.6777641744903
 30
0.0
 10
90.37846270526996
 20
-159.6777641744903
 30
0.0
 10
90.37846270526996
 20
-159.6777641744903
 30
0.0
 10
90.33212617099335
 20
-159.6777641744903
 30
0.0
 10
90.33212617099335
 20
-159.6777641744903
 30
0.0
 10
90.33212617099335
 20
-159.6777641744903
 30
0.0
 10
90.26356877083689
 20
-159.6777641744903
 30
0.0
 10
90.26356877083689
 20
-159.6777641744903
 30
0.0
 10
90.2043131284906
 20
-159.6777641744903
 30
0.0
 10
90.1969061731973
 20
-159.6777641744903
 30
0.0
 10
90.16538354950727
 20
-159.6839653463637
 30
0.0
 10
90.16538354950727
 20
-159.6839653463637
 30
0.0
 10
90.16538354950727
 20
-159.4893174514471
 30
0.0
 10
90.16538354950727
 20
-159.4893174514471
 30
0.0
 10
90.18949921790401
 20
-159.4958631328691
 30
0.0
 10
90.1969061731973
 20
-159.4958631328691
 30
0.0
 10
90.2580566180605
 20
-159.4958631328691
 30
0.0
 10
90.2580566180605
 20
-159.4958631328691
 30
0.0
 10
90.3746731002362
 20
-159.4958631328691
 30
0.0
 10
90.3746731002362
 20
-159.4958631328691
 30
0.0
 10
90.3746731002362
 20
-159.4259276945185
 30
0.0
 10
90.3746731002362
 20
-159.3432454028725
 30
0.0
 10
90.3727782977193
 20
-159.3391112882902
 30
0.0
 10
90.36537134242601
 20
-159.1592773039602
 30
0.0
 10
90.36537134242601
 20
-159.1403292787913
 30
0.0
 10
90.3636487946834
 20
-159.0938204897404
 30
0.0
 10
90.3636487946834
 20
-159.0938204897404
 30
0.0
 10
90.55244002727508
 20
-159.102088718905
 30
0.0
 10
90.55244002727508
 20
-159.102088718905
 30
0.0
 10
90.56174178508525
 20
-159.102088718905
 30
0.0
 10
90.58017304593134
 20
-159.1045002857447
 30
0.0
 10
90.58017304593134
 20
-159.1213812536224
 30
0.0
 10
90.58017304593134
 20
-159.1403292787913
 30
0.0
 10
90.56725393786166
 20
-159.1510090747956
 30
0.0
 10
90.5450330719818
 20
-159.1699570999644
 30
0.0
 10
90.5450330719818
 20
-159.2206000035976
 30
0.0
 10
90.53952091920541
 20
-159.4493543438182
 30
0.0
 10
90.54141572172229
 20
-159.4958631328691
 30
0.0
 10
90.65424259886421
 20
-159.4958631328691
 30
0.0
 10
90.66543915919128
 20
-159.4958631328691
 30
0.0
 10
90.75053301767695
 20
-159.487250394156
 30
0.0
 10
90.75053301767695
 20
-159.487250394156
 30
0.0
 10
90.75053301767695
 20
-159.6818982890726
 30
0.0
 10
90.75053301767695
 20
-159.6818982890726
 30
0.0
 10
90.71728784624429
 20
-159.6798312317814
 30
0.0
 10
90.65803220389801
 20
-159.6756971171991
 30
0.0
 10
90.53952091920541
 20
-159.6777641744903
 30
0.0
 10
90.53952091920541
 20
-159.6777641744903
 30
0.0
 10
90.53952091920541
 20
-160.0160725511418
 30
0.0
 10
90.53952091920541
 20
-160.0160725511418
 30
0.0
 10
90.58758000122464
 20
-159.9929904113906
 30
0.0
 10
90.64511309582831
 20
-159.9654296475086
 30
0.0
 10
90.68766002507114
 20
-159.9420029982089
 30
0.0
 10
90.68766002507114
 20
-159.9420029982089
 30
0.0
 10
90.68766002507114
 20
-159.76423607117
 30
0.0
 10
90.68766002507114
 20
-159.76423607117
 30
0.0
 10
90.78756779414339
 20
-159.7769829244654
 30
0.0
 10
90.8912651682494
 20
-159.7769829244654
 30
0.0
 10
90.99323999461281
 20
-159.7769829244654
 30
0.0
 10
90.97274167647556
 20
-159.6818982890726
 30
0.0
 10
90.94879826285309
 20
-159.5992159974266
 30
0.0
 10
90.8931599707663
 20
-159.4662353116959
 30
0.0
 10
90.85423039178298
 20
-159.4683023689871
 30
0.0
 10
90.782055641367
 20
-159.4724364835694
 30
0.0
 10
90.74881046993432
 20
-159.4745035408605
 30
0.0
 10
90.74881046993432
 20
-159.4745035408605
 30
0.0
 10
90.74881046993432
 20
-159.2946695565305
 30
0.0
 10
90.74881046993432
 20
-159.2946695565305
 30
0.0
 10
90.85801999681676
 20
-159.3032822952436
 30
0.0
 10
91.009776452942
 20
-159.3074164098259
 30
0.0
 10
91.08212345813225
 20
-159.3074164098259
 30
0.0
 10
91.08212345813225
 20
-159.3074164098259
 30
0.0
 10
91.15429820854824
 20
-159.3074164098259
 30
0.0
 10
91.15429820854824
 20
-159.3074164098259
 30
0.0
 10
91.15429820854824
 20
-159.1444633933736
 30
0.0
 10
91.15429820854824
 20
-159.1341281069178
 30
0.0
 10
91.15240340603135
 20
-159.0790065791538
 30
0.0
 10
91.15240340603135
 20
-159.0790065791538
 30
0.0
 10
91.34877384869058
 20
-159.1045002857447
 30
0.0
 10
91.34877384869058
 20
-159.1045002857447
 30
0.0
 10
91.35239119895009
 20
-159.1045002857447
 30
0.0
 10
91.37099471457045
 20
-159.1065673430358
 30
0.0
 10
91.37099471457045
 20
-159.1234483109136
 30
0.0
 10
91.37099471457045
 20
-159.1382622215001
 30
0.0
 10
91.36169295676028
 20
-159.1465304506647
 30
0.0
 10
91.33757728836354
 20
-159.1613443612513
 30
0.0
 10
91.33206513558713
 20
-159.2271456850196
 30
0.0
 10
91.33017033307025
 20
-159.2481607674796
 30
0.0
 10
91.33017033307025
 20
-159.3074164098259
 30
0.0
 10
91.33017033307025
 20
-159.3074164098259
 30
0.0
 10
91.41354164381329
 20
-159.3074164098259
 30
0.0
 10
91.41354164381329
 20
-159.3074164098259
 30
0.0
 10
91.48571639422927
 20
-159.3074164098259
 30
0.0
 10
91.63764510512878
 20
-159.3032822952436
 30
0.0
 10
91.7468546320112
 20
-159.2946695565305
 30
0.0
 10
91.7468546320112
 20
-159.2946695565305
 30
0.0
 10
91.7468546320112
 20
-159.4745035408605
 30
0.0
 10
91.7468546320112
 20
-159.4745035408605
 30
0.0
 10
91.72084416109758
 20
-159.4724364835694
 30
0.0
 10
91.61714678699155
 20
-159.4683023689871
 30
0.0
 10
91.58200681304199
 20
-159.4662353116959
 30
0.0
 10
91.56908770497231
 20
-159.5168782153291
 30
0.0
 10
91.53945988379916
 20
-159.6288438185997
 30
0.0
 10
91.48209904396976
 20
-159.7687146953008
 30
0.0
 10
91.5191338204362
 20
-159.7687146953008
 30
0.0
 10
91.76166854259777
 20
-159.7494221605835
 30
0.0
 10
91.81541203216768
 20
-159.7473551032923
 30
0.0
 10
91.81541203216768
 20
-159.7473551032923
 30
0.0
 10
91.81541203216768
 20
-159.9316677117532
 30
0.0
 10
91.81541203216768
 20
-159.9316677117532
 30
0.0
 10
91.78940156125404
 20
-159.9316677117532
 30
0.0
 10
91.77458765066747
 20
-159.9271890876224
 30
0.0
 10
91.63196069757812
 20
-159.9271890876224
 30
0.0
  0
HATCH
  5
B7
330
B0
100
AcDbEntity
  8
レイヤー 1
 62
   250
420
  2299925
440
 33554687
100
AcDbHatch
 10
0.0
 20
0.0
 30
0.0
210
0.0
220
0.0
230
1.0
  2
SOLID
 70
     1
 71
     1
 91
        3
 92
        1
 93
        1
 72
     4
 94
        3
 73
     0
 74
     0
 95
       17
 96
       13
 40
0.0
 40
0.0
 40
0.0
 40
0.0
 40
1.0
 40
1.0
 40
1.0
 40
2.0
 40
2.0
 40
2.0
 40
3.0
 40
3.0
 40
3.0
 40
4.0
 40
4.0
 40
4.0
 40
4.0
 10
91.13758949544477
 20
-160.3123507628733
 10
91.12277558485819
 20
-160.3419785840464
 10
91.07833385309847
 20
-160.4349961621482
 10
91.0690320952883
 20
-160.453944187317
 10
91.23577471677441
 20
-160.5131998296633
 10
91.25420597762049
 20
-160.5197455110853
 10
91.31725122500055
 20
-160.5469617654188
 10
91.36531030701979
 20
-160.460489868739
 10
91.38580862515702
 20
-160.3864203158062
 10
91.3987277332267
 20
-160.3123507628733
 10
91.3987277332267
 20
-160.3123507628733
 10
91.13758949544477
 20
-160.3123507628733
 10
91.13758949544477
 20
-160.3123507628733
 97
        0
 97
        1
330
B4
 92
        1
 93
        1
 72
     4
 94
        3
 73
     0
 74
     0
 95
       20
 96
       16
 40
0.0
 40
0.0
 40
0.0
 40
0.0
 40
1.0
 40
1.0
 40
1.0
 40
2.0
 40
2.0
 40
2.0
 40
3.0
 40
3.0
 40
3.0
 40
4.0
 40
4.0
 40
4.0
 40
5.0
 40
5.0
 40
5.0
 40
5.0
 10
91.08212345813225
 20
-159.4617566875651
 10
91.08212345813225
 20
-159.4617566875651
 10
91.05421818470173
 20
-159.4617566875651
 10
91.05421818470173
 20
-159.4617566875651
 10
91.09504256620194
 20
-159.5613199470888
 10
91.12277558485819
 20
-159.6415906718951
 10
91.15240340603135
 20
-159.7687146953008
 10
91.15240340603135
 20
-159.7687146953008
 10
91.33395993810401
 20
-159.7687146953008
 10
91.33395993810401
 20
-159.7687146953008
 10
91.36169295676028
 20
-159.6756971171991
 10
91.38201902012324
 20
-159.590947768262
 10
91.40234508348623
 20
-159.4617566875651
 10
91.40234508348623
 20
-159.4617566875651
 10
91.08212345813225
 20
-159.4617566875651
 10
91.08212345813225
 20
-159.4617566875651
 97
        0
 97
        1
330
B5
 92
        1
 93
        1
 72
     4
 94
        3
 73
     0
 74
     0
 95
      242
 96
      238
 40
0.0
 40
0.0
 40
0.0
 40
0.0
 40
1.0
 40
1.0
 40
1.0
 40
2.0
 40
2.0
 40
2.0
 40
3.0
 40
3.0
 40
3.0
 40
4.0
 40
4.0
 40
4.0
 40
5.0
 40
5.0
 40
5.0
 40
6.0
 40
6.0
 40
6.0
 40
7.0
 40
7.0
 40
7.0
 40
8.0
 40
8.0
 40
8.0
 40
9.0
 40
9.0
 40
9.0
 40
10.0
 40
10.0
 40
10.0
 40
11.0
 40
11.0
 40
11.0
 40
12.0
 40
12.0
 40
12.0
 40
13.0
 40
13.0
 40
13.0
 40
14.0
 40
14.0
 40
14.0
 40
15.0
 40
15.0
 40
15.0
 40
16.0
 40
16.0
 40
16.0
 40
17.0
 40
17.0
 40
17.0
 40
18.0
 40
18.0
 40
18.0
 40
19.0
 40
19.0
 40
19.0
 40
20.0
 40
20.0
 40
20.0
 40
21.0
 40
21.0
 40
21.0
 40
22.0
 40
22.0
 40
22.0
 40
23.0
 40
23.0
 40
23.0
 40
24.0
 40
24.0
 40
24.0
 40
25.0
 40
25.0
 40
25.0
 40
26.0
 40
26.0
 40
26.0
 40
27.0
 40
27.0
 40
27.0
 40
28.0
 40
28.0
 40
28.0
 40
29.0
 40
29.0
 40
29.0
 40
30.0
 40
30.0
 40
30.0
 40
31.0
 40
31.0
 40
31.0
 40
32.0
 40
32.0
 40
32.0
 40
33.0
 40
33.0
 40
33.0
 40
34.0
 40
34.0
 40
34.0
 40
35.0
 40
35.0
 40
35.0
 40
36.0
 40
36.0
 40
36.0
 40
37.0
 40
37.0
 40
37.0
 40
38.0
 40
38.0
 40
38.0
 40
39.0
 40
39.0
 40
39.0
 40
40.0
 40
40.0
 40
40.0
 40
41.0
 40
41.0
 40
41.0
 40
42.0
 40
42.0
 40
42.0
 40
43.0
 40
43.0
 40
43.0
 40
44.0
 40
44.0
 40
44.0
 40
45.0
 40
45.0
 40
45.0
 40
46.0
 40
46.0
 40
46.0
 40
47.0
 40
47.0
 40
47.0
 40
48.0
 40
48.0
 40
48.0
 40
49.0
 40
49.0
 40
49.0
 40
50.0
 40
50.0
 40
50.0
 40
51.0
 40
51.0
 40
51.0
 40
52.0
 40
52.0
 40
52.0
 40
53.0
 40
53.0
 40
53.0
 40
54.0
 40
54.0
 40
54.0
 40
55.0
 40
55.0
 40
55.0
 40
56.0
 40
56.0
 40
56.0
 40
57.0
 40
57.0
 40
57.0
 40
58.0
 40
58.0
 40
58.0
 40
59.0
 40
59.0
 40
59.0
 40
60.0
 40
60.0
 40
60.0
 40
61.0
 40
61.0
 40
61.0
 40
62.0
 40
62.0
 40
62.0
 40
63.0
 40
63.0
 40
63.0
 40
64.0
 40
64.0
 40
64.0
 40
65.0
 40
65.0
 40
65.0
 40
66.0
 40
66.0
 40
66.0
 40
67.0
 40
67.0
 40
67.0
 40
68.0
 40
68.0
 40
68.0
 40
69.0
 40
69.0
 40
69.0
 40
70.0
 40
70.0
 40
70.0
 40
71.0
 40
71.0
 40
71.0
 40
72.0
 40
72.0
 40
72.0
 40
73.0
 40
73.0
 40
73.0
 40
74.0
 40
74.0
 40
74.0
 40
75.0
 40
75.0
 40
75.0
 40
76.0
 40
76.0
 40
76.0
 40
77.0
 40
77.0
 40
77.0
 40
78.0
 40
78.0
 40
78.0
 40
79.0
 40
79.0
 40
79.0
 40
79.0
 10
91.63196069757812
 20
-159.9271890876224
 10
91.63196069757812
 20
-159.9271890876224
 10
91.40975203877951
 20
-159.9271890876224
 10
91.40975203877951
 20
-159.9271890876224
 10
91.40975203877951
 20
-159.9271890876224
 10
91.16721731661792
 20
-159.9271890876224
 10
91.16721731661792
 20
-159.9271890876224
 10
91.16721731661792
 20
-159.9271890876224
 10
91.27832164601723
 20
-159.9695637620909
 10
91.27832164601723
 20
-159.9695637620909
 10
91.2876234038274
 20
-159.9736978766732
 10
91.2986477093802
 20
-159.9802435580952
 10
91.2986477093802
 20
-159.9929904113906
 10
91.2986477093802
 20
-160.0140054938506
 10
91.27091469072395
 20
-160.0202066657241
 10
91.25248342987786
 20
-160.0246852898549
 10
91.24318167206768
 20
-160.0477674296061
 10
91.21717120115404
 20
-160.1135687533744
 10
91.20063474282485
 20
-160.1580104851341
 10
91.20063474282485
 20
-160.1580104851341
 10
91.43765731221003
 20
-160.1580104851341
 10
91.43765731221003
 20
-160.1580104851341
 10
91.5172390179193
 20
-160.1580104851341
 10
91.68949379218179
 20
-160.1535318610033
 10
91.81351722965079
 20
-160.1452636318387
 10
91.81351722965079
 20
-160.1452636318387
 10
91.81351722965079
 20
-160.3230305588775
 10
91.81351722965079
 20
-160.3230305588775
 10
91.74134247923481
 20
-160.3185519347467
 10
91.72273896361446
 20
-160.3185519347467
 10
91.56529809993854
 20
-160.3144178201644
 10
91.53756508128228
 20
-160.4687580979036
 10
91.49863550229895
 20
-160.5493733322585
 10
91.4598781780899
 20
-160.6189642610605
 10
91.56529809993854
 20
-160.6782199034068
 10
91.65797116849175
 20
-160.7460882844662
 10
91.7487494345281
 20
-160.8284260665637
 10
91.7487494345281
 20
-160.8284260665637
 10
91.64505206042207
 20
-160.9955131975983
 10
91.64505206042207
 20
-160.9955131975983
 10
91.62455374228484
 20
-160.9765651724295
 10
91.61352943673204
 20
-160.9679524337163
 10
91.51534421540242
 20
-160.8835475943277
 10
91.47279728615957
 20
-160.8453070344414
 10
91.42094859910656
 20
-160.8094780413948
 10
91.35049639643321
 20
-160.7650363096351
 10
91.16532251410104
 20
-160.9510714658386
 10
90.98583303931951
 20
-160.9744981151383
 10
90.73210175683087
 20
-161.0041259363114
 10
90.73210175683087
 20
-161.0041259363114
 10
90.64132349079454
 20
-160.8242919519814
 10
90.64132349079454
 20
-160.8242919519814
 10
90.91917044167994
 20
-160.8201578373991
 10
91.07282170032208
 20
-160.7946641308083
 10
91.20614689560126
 20
-160.6847655848288
 10
91.10244952149523
 20
-160.6337781716471
 10
91.02459036352858
 20
-160.6062174077651
 10
90.99323999461281
 20
-160.5938150640182
 10
90.97653128150934
 20
-160.6210313183517
 10
90.96361217343966
 20
-160.6403238530691
 10
90.9394965050429
 20
-160.6740857888245
 10
90.9394965050429
 20
-160.6740857888245
 10
90.76724173078041
 20
-160.5914034971785
 10
90.76724173078041
 20
-160.5914034971785
 10
90.83941648119639
 20
-160.5111327723722
 10
90.8931599707663
 20
-160.4160481369793
 10
90.94311385530241
 20
-160.3144178201644
 10
90.77654348859059
 20
-160.3185519347467
 10
90.75793997297024
 20
-160.3185519347467
 10
90.68576522255424
 20
-160.3230305588775
 10
90.68576522255424
 20
-160.3230305588775
 10
90.68576522255424
 20
-160.1452636318387
 10
90.68576522255424
 20
-160.1452636318387
 10
90.80806611228062
 20
-160.1514648037121
 10
90.99134519209592
 20
-160.1555989182944
 10
91.01356605797578
 20
-160.1555989182944
 10
91.02837996856235
 20
-160.121836982539
 10
91.07643905058159
 20
-160.0012586405552
 10
91.09314776368504
 20
-159.9271890876224
 10
91.07643905058159
 20
-159.9271890876224
 10
90.92089298942255
 20
-159.9337347690443
 10
90.75053301767695
 20
-159.9464816223397
 10
90.75053301767695
 20
-159.9464816223397
 10
90.75053301767695
 20
-160.0794623080704
 10
90.75053301767695
 20
-160.0794623080704
 10
90.70798608843412
 20
-160.1049560146613
 10
90.65613740138109
 20
-160.1366508931255
 10
90.53952091920541
 20
-160.2024522168938
 10
90.53952091920541
 20
-160.2024522168938
 10
90.53952091920541
 20
-160.3481797559199
 10
90.53952091920541
 20
-160.3481797559199
 10
90.53952091920541
 20
-160.3481797559199
 10
90.53952091920541
 20
-160.8156792132683
 10
90.53952091920541
 20
-160.8156792132683
 10
90.53952091920541
 20
-160.942803236674
 10
90.50799829551536
 20
-161.0020588790203
 10
90.25995142057738
 20
-160.9934461403072
 10
90.25995142057738
 20
-160.9934461403072
 10
90.16917315454104
 20
-160.7860513920952
 10
90.16917315454104
 20
-160.7860513920952
 10
90.22463919185357
 20
-160.7987982453906
 10
90.26735837587066
 20
-160.8032768695214
 10
90.3024983498202
 20
-160.8032768695214
 10
90.36916094745981
 20
-160.8032768695214
 10
90.37846270526996
 20
-160.7798502202217
 10
90.37846270526996
 20
-160.7143934060019
 10
90.37846270526996
 20
-160.7143934060019
 10
90.37846270526996
 20
-160.2847899989913
 10
90.37846270526996
 20
-160.2847899989913
 10
90.29319659201004
 20
-160.3250976161687
 10
90.27838268142346
 20
-160.3312987880421
 10
90.23773055469751
 20
-160.350246813211
 10
90.23394094966375
 20
-160.3716064052196
 10
90.23032359940422
 20
-160.4012342263927
 10
90.21361488630075
 20
-160.4012342263927
 10
90.20620793100748
 20
-160.4012342263927
 10
90.1969061731973
 20
-160.3967556022619
 10
90.19139402042091
 20
-160.3736734625107
 10
90.19139402042091
 20
-160.3736734625107
 10
90.1450574861443
 20
-160.1810926248853
 10
90.1450574861443
 20
-160.1810926248853
 10
90.27287052864705
 20
-160.1345838358344
 10
90.33023136847647
 20
-160.1115016960832
 10
90.37846270526996
 20
-160.0901421040747
 10
90.37846270526996
 20
-160.0901421040747
 10
90.37846270526996
 20
-159.6777641744903
 10
90.37846270526996
 20
-159.6777641744903
 10
90.37846270526996
 20
-159.6777641744903
 10
90.33212617099335
 20
-159.6777641744903
 10
90.33212617099335
 20
-159.6777641744903
 10
90.33212617099335
 20
-159.6777641744903
 10
90.26356877083689
 20
-159.6777641744903
 10
90.26356877083689
 20
-159.6777641744903
 10
90.2043131284906
 20
-159.6777641744903
 10
90.1969061731973
 20
-159.6777641744903
 10
90.16538354950727
 20
-159.6839653463637
 10
90.16538354950727
 20
-159.6839653463637
 10
90.16538354950727
 20
-159.4893174514471
 10
90.16538354950727
 20
-159.4893174514471
 10
90.18949921790401
 20
-159.4958631328691
 10
90.1969061731973
 20
-159.4958631328691
 10
90.2580566180605
 20
-159.4958631328691
 10
90.2580566180605
 20
-159.4958631328691
 10
90.3746731002362
 20
-159.4958631328691
 10
90.3746731002362
 20
-159.4958631328691
 10
90.3746731002362
 20
-159.4259276945185
 10
90.3746731002362
 20
-159.3432454028725
 10
90.3727782977193
 20
-159.3391112882902
 10
90.36537134242601
 20
-159.1592773039602
 10
90.36537134242601
 20
-159.1403292787913
 10
90.3636487946834
 20
-159.0938204897404
 10
90.3636487946834
 20
-159.0938204897404
 10
90.55244002727508
 20
-159.102088718905
 10
90.55244002727508
 20
-159.102088718905
 10
90.56174178508525
 20
-159.102088718905
 10
90.58017304593134
 20
-159.1045002857447
 10
90.58017304593134
 20
-159.1213812536224
 10
90.58017304593134
 20
-159.1403292787913
 10
90.56725393786166
 20
-159.1510090747956
 10
90.5450330719818
 20
-159.1699570999644
 10
90.5450330719818
 20
-159.2206000035976
 10
90.53952091920541
 20
-159.4493543438182
 10
90.54141572172229
 20
-159.4958631328691
 10
90.65424259886421
 20
-159.4958631328691
 10
90.66543915919128
 20
-159.4958631328691
 10
90.75053301767695
 20
-159.487250394156
 10
90.75053301767695
 20
-159.487250394156
 10
90.75053301767695
 20
-159.6818982890726
 10
90.75053301767695
 20
-159.6818982890726
 10
90.71728784624429
 20
-159.6798312317814
 10
90.65803220389801
 20
-159.6756971171991
 10
90.53952091920541
 20
-159.6777641744903
 10
90.53952091920541
 20
-159.6777641744903
 10
90.53952091920541
 20
-160.0160725511418
 10
90.53952091920541
 20
-160.0160725511418
 10
90.58758000122464
 20
-159.9929904113906
 10
90.64511309582831
 20
-159.9654296475086
 10
90.68766002507114
 20
-159.9420029982089
 10
90.68766002507114
 20
-159.9420029982089
 10
90.68766002507114
 20
-159.76423607117
 10
90.68766002507114
 20
-159.76423607117
 10
90.78756779414339
 20
-159.7769829244654
 10
90.8912651682494
 20
-159.7769829244654
 10
90.99323999461281
 20
-159.7769829244654
 10
90.97274167647556
 20
-159.6818982890726
 10
90.94879826285309
 20
-159.5992159974266
 10
90.8931599707663
 20
-159.4662353116959
 10
90.85423039178298
 20
-159.4683023689871
 10
90.782055641367
 20
-159.4724364835694
 10
90.74881046993432
 20
-159.4745035408605
 10
90.74881046993432
 20
-159.4745035408605
 10
90.74881046993432
 20
-159.2946695565305
 10
90.74881046993432
 20
-159.2946695565305
 10
90.85801999681676
 20
-159.3032822952436
 10
91.009776452942
 20
-159.3074164098259
 10
91.08212345813225
 20
-159.3074164098259
 10
91.08212345813225
 20
-159.3074164098259
 10
91.15429820854824
 20
-159.3074164098259
 10
91.15429820854824
 20
-159.3074164098259
 10
91.15429820854824
 20
-159.1444633933736
 10
91.15429820854824
 20
-159.1341281069178
 10
91.15240340603135
 20
-159.0790065791538
 10
91.15240340603135
 20
-159.0790065791538
 10
91.34877384869058
 20
-159.1045002857447
 10
91.34877384869058
 20
-159.1045002857447
 10
91.35239119895009
 20
-159.1045002857447
 10
91.37099471457045
 20
-159.1065673430358
 10
91.37099471457045
 20
-159.1234483109136
 10
91.37099471457045
 20
-159.1382622215001
 10
91.36169295676028
 20
-159.1465304506647
 10
91.33757728836354
 20
-159.1613443612513
 10
91.33206513558713
 20
-159.2271456850196
 10
91.33017033307025
 20
-159.2481607674796
 10
91.33017033307025
 20
-159.3074164098259
 10
91.33017033307025
 20
-159.3074164098259
 10
91.41354164381329
 20
-159.3074164098259
 10
91.41354164381329
 20
-159.3074164098259
 10
91.48571639422927
 20
-159.3074164098259
 10
91.63764510512878
 20
-159.3032822952436
 10
91.7468546320112
 20
-159.2946695565305
 10
91.7468546320112
 20
-159.2946695565305
 10
91.7468546320112
 20
-159.4745035408605
 10
91.7468546320112
 20
-159.4745035408605
 10
91.72084416109758
 20
-159.4724364835694
 10
91.61714678699155
 20
-159.4683023689871
 10
91.58200681304199
 20
-159.4662353116959
 10
91.56908770497231
 20
-159.5168782153291
 10
91.53945988379916
 20
-159.6288438185997
 10
91.48209904396976
 20
-159.7687146953008
 10
91.5191338204362
 20
-159.7687146953008
 10
91.76166854259777
 20
-159.7494221605835
 10
91.81541203216768
 20
-159.7473551032923
 10
91.81541203216768
 20
-159.7473551032923
 10
91.81541203216768
 20
-159.9316677117532
 10
91.81541203216768
 20
-159.9316677117532
 10
91.78940156125404
 20
-159.9316677117532
 10
91.77458765066747
 20
-159.9271890876224
 10
91.63196069757812
 20
-159.9271890876224
 97
        0
 97
        1
330
B6
 75
     2
 76
     1
 98
        1
 10
0.0
 20
0.0
450
        0
451
        0
460
0.0
461
0.0
452
        0
462
0.0
453
        0
470

  0
SPLINE
  5
B8
330
B0
100
AcDbEntity
  8
レイヤー 1
100
AcDbSpline
210
0.0
220
0.0
230
1.0
 70
    11
 71
     3
 72
    17
 73
    13
 74
     0
 42
0.0000000001
 43
0.0000000001
 40
0.0
 40
0.0
 40
0.0
 40
0.0
 40
1.0
 40
1.0
 40
1.0
 40
2.0
 40
2.0
 40
2.0
 40
3.0
 40
3.0
 40
3.0
 40
4.0
 40
4.0
 40
4.0
 40
4.0
 10
93.2582180213903
 20
-160.7267957497489
 30
0.0
 10
93.2582180213903
 20
-160.7267957497489
 30
0.0
 10
92.63982338178797
 20
-160.7267957497489
 30
0.0
 10
92.63982338178797
 20
-160.7267957497489
 30
0.0
 10
92.63982338178797
 20
-160.7267957497489
 30
0.0
 10
92.63982338178797
 20
-160.8411729198591
 30
0.0
 10
92.63982338178797
 20
-160.8411729198591
 30
0.0
 10
92.63982338178797
 20
-160.8411729198591
 30
0.0
 10
93.2582180213903
 20
-160.8411729198591
 30
0.0
 10
93.2582180213903
 20
-160.8411729198591
 30
0.0
 10
93.2582180213903
 20
-160.8411729198591
 30
0.0
 10
93.2582180213903
 20
-160.7267957497489
 30
0.0
 10
93.2582180213903
 20
-160.7267957497489
 30
0.0
  0
SPLINE
  5
B9
330
B0
100
AcDbEntity
  8
レイヤー 1
100
AcDbSpline
210
0.0
220
0.0
230
1.0
 70
    11
 71
     3
 72
    17
 73
    13
 74
     0
 42
0.0000000001
 43
0.0000000001
 40
0.0
 40
0.0
 40
0.0
 40
0.0
 40
1.0
 40
1.0
 40
1.0
 40
2.0
 40
2.0
 40
2.0
 40
3.0
 40
3.0
 40
3.0
 40
4.0
 40
4.0
 40
4.0
 40
4.0
 10
93.2582180213903
 20
-160.4835720084902
 30
0.0
 10
93.2582180213903
 20
-160.4835720084902
 30
0.0
 10
92.63982338178797
 20
-160.4835720084902
 30
0.0
 10
92.63982338178797
 20
-160.4835720084902
 30
0.0
 10
92.63982338178797
 20
-160.4835720084902
 30
0.0
 10
92.63982338178797
 20
-160.5979491786005
 30
0.0
 10
92.63982338178797
 20
-160.5979491786005
 30
0.0
 10
92.63982338178797
 20
-160.5979491786005
 30
0.0
 10
93.2582180213903
 20
-160.5979491786005
 30
0.0
 10
93.2582180213903
 20
-160.5979491786005
 30
0.0
 10
93.2582180213903
 20
-160.5979491786005
 30
0.0
 10
93.2582180213903
 20
-160.4835720084902
 30
0.0
 10
93.2582180213903
 20
-160.4835720084902
 30
0.0
  0
SPLINE
  5
BA
330
B0
100
AcDbEntity
  8
レイヤー 1
100
AcDbSpline
210
0.0
220
0.0
230
1.0
 70
    11
 71
     3
 72
    17
 73
    13
 74
     0
 42
0.0000000001
 43
0.0000000001
 40
0.0
 40
0.0
 40
0.0
 40
0.0
 40
1.0
 40
1.0
 40
1.0
 40
2.0
 40
2.0
 40
2.0
 40
3.0
 40
3.0
 40
3.0
 40
4.0
 40
4.0
 40
4.0
 40
4.0
 10
93.2582180213903
 20
-160.2510280632358
 30
0.0
 10
93.2582180213903
 20
-160.2510280632358
 30
0.0
 10
92.63982338178797
 20
-160.2510280632358
 30
0.0
 10
92.63982338178797
 20
-160.2510280632358
 30
0.0
 10
92.63982338178797
 20
-160.2510280632358
 30
0.0
 10
92.63982338178797
 20
-160.3588595519242
 30
0.0
 10
92.63982338178797
 20
-160.3588595519242
 30
0.0
 10
92.63982338178797
 20
-160.3588595519242
 30
0.0
 10
93.2582180213903
 20
-160.3588595519242
 30
0.0
 10
93.2582180213903
 20
-160.3588595519242
 30
0.0
 10
93.2582180213903
 20
-160.3588595519242
 30
0.0
 10
93.2582180213903
 20
-160.2510280632358
 30
0.0
 10
93.2582180213903
 20
-160.2510280632358
 30
0.0
  0
SPLINE
  5
BB
330
B0
100
AcDbEntity
  8
レイヤー 1
100
AcDbSpline
210
0.0
220
0.0
230
1.0
 70
     9
 71
     3
 72
   203
 73
   199
 74
     0
 42
0.0000000001
 43
0.0000000001
 40
0.0
 40
0.0
 40
0.0
 40
0.0
 40
1.0
 40
1.0
 40
1.0
 40
2.0
 40
2.0
 40
2.0
 40
3.0
 40
3.0
 40
3.0
 40
4.0
 40
4.0
 40
4.0
 40
5.0
 40
5.0
 40
5.0
 40
6.0
 40
6.0
 40
6.0
 40
7.0
 40
7.0
 40
7.0
 40
8.0
 40
8.0
 40
8.0
 40
9.0
 40
9.0
 40
9.0
 40
10.0
 40
10.0
 40
10.0
 40
11.0
 40
11.0
 40
11.0
 40
12.0
 40
12.0
 40
12.0
 40
13.0
 40
13.0
 40
13.0
 40
14.0
 40
14.0
 40
14.0
 40
15.0
 40
15.0
 40
15.0
 40
16.0
 40
16.0
 40
16.0
 40
17.0
 40
17.0
 40
17.0
 40
18.0
 40
18.0
 40
18.0
 40
19.0
 40
19.0
 40
19.0
 40
20.0
 40
20.0
 40
20.0
 40
21.0
 40
21.0
 40
21.0
 40
22.0
 40
22.0
 40
22.0
 40
23.0
 40
23.0
 40
23.0
 40
24.0
 40
24.0
 40
24.0
 40
25.0
 40
25.0
 40
25.0
 40
26.0
 40
26.0
 40
26.0
 40
27.0
 40
27.0
 40
27.0
 40
28.0
 40
28.0
 40
28.0
 40
29.0
 40
29.0
 40
29.0
 40
30.0
 40
30.0
 40
30.0
 40
31.0
 40
31.0
 40
31.0
 40
32.0
 40
32.0
 40
32.0
 40
33.0
 40
33.0
 40
33.0
 40
34.0
 40
34.0
 40
34.0
 40
35.0
 40
35.0
 40
35.0
 40
36.0
 40
36.0
 40
36.0
 40
37.0
 40
37.0
 40
37.0
 40
38.0
 40
38.0
 40
38.0
 40
39.0
 40
39.0
 40
39.0
 40
40.0
 40
40.0
 40
40.0
 40
41.0
 40
41.0
 40
41.0
 40
42.0
 40
42.0
 40
42.0
 40
43.0
 40
43.0
 40
43.0
 40
44.0
 40
44.0
 40
44.0
 40
45.0
 40
45.0
 40
45.0
 40
46.0
 40
46.0
 40
46.0
 40
47.0
 40
47.0
 40
47.0
 40
48.0
 40
48.0
 40
48.0
 40
49.0
 40
49.0
 40
49.0
 40
50.0
 40
50.0
 40
50.0
 40
51.0
 40
51.0
 40
51.0
 40
52.0
 40
52.0
 40
52.0
 40
53.0
 40
53.0
 40
53.0
 40
54.0
 40
54.0
 40
54.0
 40
55.0
 40
55.0
 40
55.0
 40
56.0
 40
56.0
 40
56.0
 40
57.0
 40
57.0
 40
57.0
 40
58.0
 40
58.0
 40
58.0
 40
59.0
 40
59.0
 40
59.0
 40
60.0
 40
60.0
 40
60.0
 40
61.0
 40
61.0
 40
61.0
 40
62.0
 40
62.0
 40
62.0
 40
63.0
 40
63.0
 40
63.0
 40
64.0
 40
64.0
 40
64.0
 40
65.0
 40
65.0
 40
65.0
 40
66.0
 40
66.0
 40
66.0
 40
66.0
 10
93.11386852055834
 20
-159.9950574686818
 30
0.0
 10
93.11386852055834
 20
-159.9950574686818
 30
0.0
 10
92.62500947120139
 20
-159.9950574686818
 30
0.0
 10
92.62500947120139
 20
-159.9950574686818
 30
0.0
 10
92.61570771339121
 20
-160.0394992004415
 30
0.0
 10
92.60830075809792
 20
-160.0711940789058
 30
0.0
 10
92.59727645254512
 20
-160.1090901292435
 30
0.0
 10
92.61932506365074
 20
-160.1090901292435
 30
0.0
 10
92.63241642649466
 20
-160.1115016960832
 30
0.0
 10
92.63792857927107
 20
-160.1115016960832
 30
0.0
 10
92.63792857927107
 20
-160.1115016960832
 30
0.0
 10
92.80277639824028
 20
-160.1115016960832
 30
0.0
 10
92.80277639824028
 20
-160.1115016960832
 30
0.0
 10
92.80277639824028
 20
-160.1115016960832
 30
0.0
 10
93.13057723366181
 20
-160.1115016960832
 30
0.0
 10
93.13057723366181
 20
-160.1115016960832
 30
0.0
 10
93.17501896542152
 20
-160.1115016960832
 30
0.0
 10
93.4230658403595
 20
-160.0987548427878
 30
0.0
 10
93.45079885901578
 20
-160.0987548427878
 30
0.0
 10
93.4489040564989
 20
-160.1259710971213
 30
0.0
 10
93.44718150875626
 20
-160.1452636318387
 30
0.0
 10
93.44718150875626
 20
-160.1748914530118
 30
0.0
 10
93.44528670623937
 20
-160.2065863314761
 30
0.0
 10
93.44528670623937
 20
-160.3419785840464
 30
0.0
 10
93.44528670623937
 20
-160.3695393479284
 30
0.0
 10
93.44528670623937
 20
-160.3695393479284
 30
0.0
 10
93.44528670623937
 20
-160.6148301464782
 30
0.0
 10
93.44528670623937
 20
-160.6148301464782
 30
0.0
 10
93.44528670623937
 20
-160.659271878238
 30
0.0
 10
93.4489040564989
 20
-160.8559868304457
 30
0.0
 10
93.45269366153265
 20
-161.0082600508937
 30
0.0
 10
93.45269366153265
 20
-161.0082600508937
 30
0.0
 10
93.2546006711308
 20
-161.0082600508937
 30
0.0
 10
93.2546006711308
 20
-161.0082600508937
 30
0.0
 10
93.2546006711308
 20
-161.0082600508937
 30
0.0
 10
93.25632321887342
 20
-160.9744981151383
 30
0.0
 10
93.25632321887342
 20
-160.9744981151383
 30
0.0
 10
93.25632321887342
 20
-160.9744981151383
 30
0.0
 10
92.64171818430485
 20
-160.9744981151383
 30
0.0
 10
92.64171818430485
 20
-160.9744981151383
 30
0.0
 10
92.64171818430485
 20
-160.9744981151383
 30
0.0
 10
92.64344073204748
 20
-161.0082600508937
 30
0.0
 10
92.64344073204748
 20
-161.0082600508937
 30
0.0
 10
92.64344073204748
 20
-161.0082600508937
 30
0.0
 10
92.4527546969389
 20
-161.0082600508937
 30
0.0
 10
92.4527546969389
 20
-161.0082600508937
 30
0.0
 10
92.45637204719841
 20
-160.9531385231298
 30
0.0
 10
92.45637204719841
 20
-160.9407361793828
 30
0.0
 10
92.46205645474907
 20
-160.8263590092725
 30
0.0
 10
92.46395125726596
 20
-160.7987982453906
 30
0.0
 10
92.46567380500859
 20
-160.6654730501114
 30
0.0
 10
92.46567380500859
 20
-160.6465250249425
 30
0.0
 10
92.46567380500859
 20
-160.6465250249425
 30
0.0
 10
92.46567380500859
 20
-160.4436089008613
 30
0.0
 10
92.46567380500859
 20
-160.4436089008613
 30
0.0
 10
92.34354517005646
 20
-160.6930338139934
 30
0.0
 10
92.19540606419073
 20
-160.8242919519814
 30
0.0
 10
92.1027329956375
 20
-160.8897487662012
 30
0.0
 10
92.1027329956375
 20
-160.8897487662012
 30
0.0
 10
91.95097653951226
 20
-160.7502223990485
 30
0.0
 10
91.95097653951226
 20
-160.7502223990485
 30
0.0
 10
92.02866344270464
 20
-160.6995794954154
 30
0.0
 10
92.15458168269051
 20
-160.6127630891871
 30
0.0
 10
92.27498776990001
 20
-160.4181151942705
 30
0.0
 10
92.35456947560928
 20
-160.2909911708648
 30
0.0
 10
92.41193031543868
 20
-160.1473306891298
 30
0.0
 10
92.44155813661183
 20
-159.9950574686818
 30
0.0
 10
92.24174259846734
 20
-159.9971245259729
 30
0.0
 10
92.08430173479142
 20
-160.0033256978464
 30
0.0
 10
92.00093042404837
 20
-160.0053927551375
 30
0.0
 10
92.00093042404837
 20
-160.0053927551375
 30
0.0
 10
92.00093042404837
 20
-159.8279703376471
 30
0.0
 10
92.00093042404837
 20
-159.8279703376471
 30
0.0
 10
92.17318519831087
 20
-159.8341715095206
 30
0.0
 10
92.42123207324885
 20
-159.8383056241029
 30
0.0
 10
92.55283472078541
 20
-159.8383056241029
 30
0.0
 10
92.55283472078541
 20
-159.8383056241029
 30
0.0
 10
92.7397311508602
 20
-159.8383056241029
 30
0.0
 10
92.7397311508602
 20
-159.8383056241029
 30
0.0
 10
92.7397311508602
 20
-159.8383056241029
 30
0.0
 10
92.7397311508602
 20
-159.7304741354146
 30
0.0
 10
92.7397311508602
 20
-159.7304741354146
 30
0.0
 10
92.7397311508602
 20
-159.7304741354146
 30
0.0
 10
92.6120903631317
 20
-159.7304741354146
 30
0.0
 10
92.6120903631317
 20
-159.7304741354146
 30
0.0
 10
92.46395125726596
 20
-159.7304741354146
 30
0.0
 10
92.31581215140023
 20
-159.7346082499969
 30
0.0
 10
92.16939559327711
 20
-159.7411539314189
 30
0.0
 10
92.16939559327711
 20
-159.7411539314189
 30
0.0
 10
92.16939559327711
 20
-159.5699326858019
 30
0.0
 10
92.16939559327711
 20
-159.5699326858019
 30
0.0
 10
92.30461559107316
 20
-159.5802679722577
 30
0.0
 10
92.46756860752547
 20
-159.5802679722577
 30
0.0
 10
92.6120903631317
 20
-159.5802679722577
 30
0.0
 10
92.6120903631317
 20
-159.5802679722577
 30
0.0
 10
92.7397311508602
 20
-159.5802679722577
 30
0.0
 10
92.7397311508602
 20
-159.5802679722577
 30
0.0
 10
92.7397311508602
 20
-159.5802679722577
 30
0.0
 10
92.7397311508602
 20
-159.4617566875651
 30
0.0
 10
92.7397311508602
 20
-159.4617566875651
 30
0.0
 10
92.7397311508602
 20
-159.4617566875651
 30
0.0
 10
92.62500947120139
 20
-159.4617566875651
 30
0.0
 10
92.62500947120139
 20
-159.4617566875651
 30
0.0
 10
92.58418508970118
 20
-159.4617566875651
 30
0.0
 10
92.40641816266229
 20
-159.4703694262782
 30
0.0
 10
92.36938338619586
 20
-159.4703694262782
 30
0.0
 10
92.19161645915695
 20
-159.4745035408605
 30
0.0
 10
92.12495386151738
 20
-159.4765705981517
 30
0.0
 10
92.0563964613609
 20
-159.4786376554428
 30
0.0
 10
92.0563964613609
 20
-159.4786376554428
 30
0.0
 10
92.0563964613609
 20
-159.2946695565305
 30
0.0
 10
92.0563964613609
 20
-159.2946695565305
 30
0.0
 10
92.15647648520741
 20
-159.3032822952436
 30
0.0
 10
92.19540606419073
 20
-159.3032822952436
 30
0.0
 10
92.53044160013129
 20
-159.3115505244082
 30
0.0
 10
92.47497556281876
 20
-159.2164658890153
 30
0.0
 10
92.450859894422
 20
-159.1889051251333
 30
0.0
 10
92.41950952550624
 20
-159.1530761320867
 30
0.0
 10
92.41950952550624
 20
-159.1530761320867
 30
0.0
 10
92.57316078414838
 20
-159.0703938404407
 30
0.0
 10
92.57316078414838
 20
-159.0703938404407
 30
0.0
 10
92.60830075809792
 20
-159.1065673430358
 30
0.0
 10
92.64723033708126
 20
-159.1489420175044
 30
0.0
 10
92.71199813220395
 20
-159.2588405634839
 30
0.0
 10
92.71199813220395
 20
-159.2588405634839
 30
0.0
 10
92.6120903631317
 20
-159.3136175816994
 30
0.0
 10
92.6120903631317
 20
-159.3136175816994
 30
0.0
 10
92.6120903631317
 20
-159.3136175816994
 30
0.0
 10
92.62121986616762
 20
-159.3136175816994
 30
0.0
 10
92.62121986616762
 20
-159.3136175816994
 30
0.0
 10
92.62121986616762
 20
-159.3136175816994
 30
0.0
 10
93.07855629183453
 20
-159.3136175816994
 30
0.0
 10
93.07855629183453
 20
-159.3136175816994
 30
0.0
 10
93.07855629183453
 20
-159.3136175816994
 30
0.0
 10
92.99535723586576
 20
-159.2695203594882
 30
0.0
 10
92.99535723586576
 20
-159.2695203594882
 30
0.0
 10
93.01930064948823
 20
-159.2312797996019
 30
0.0
 10
93.06942678879861
 20
-159.1510090747956
 30
0.0
 10
93.08234589686831
 20
-159.0769395218627
 30
0.0
 10
93.08234589686831
 20
-159.0769395218627
 30
0.0
 10
93.26941458171736
 20
-159.1403292787913
 30
0.0
 10
93.26941458171736
 20
-159.1403292787913
 30
0.0
 10
93.27682153701067
 20
-159.1423963360824
 30
0.0
 10
93.29525279785675
 20
-159.1530761320867
 30
0.0
 10
93.29525279785675
 20
-159.1740912145468
 30
0.0
 10
93.29525279785675
 20
-159.212331774433
 30
0.0
 10
93.23789195802733
 20
-159.212331774433
 30
0.0
 10
93.22118324492388
 20
-159.212331774433
 30
0.0
 10
93.21188148711369
 20
-159.2312797996019
 30
0.0
 10
93.19155542375073
 20
-159.2715874167793
 30
0.0
 10
93.16571720761135
 20
-159.3115505244082
 30
0.0
 10
93.51573890891273
 20
-159.3053493525348
 30
0.0
 10
93.54157712505211
 20
-159.3032822952436
 30
0.0
 10
93.60823972269169
 20
-159.2967366138216
 30
0.0
 10
93.60823972269169
 20
-159.2967366138216
 30
0.0
 10
93.60823972269169
 20
-159.4786376554428
 30
0.0
 10
93.60823972269169
 20
-159.4786376554428
 30
0.0
 10
93.59153100958824
 20
-159.4786376554428
 30
0.0
 10
93.56931014370836
 20
-159.4765705981517
 30
0.0
 10
93.3767293060829
 20
-159.4683023689871
 30
0.0
 10
93.33228757432319
 20
-159.4662353116959
 30
0.0
 10
93.13970673669771
 20
-159.4617566875651
 30
0.0
 10
93.10094941248866
 20
-159.4617566875651
 30
0.0
 10
93.10094941248866
 20
-159.4617566875651
 30
0.0
 10
92.91198592512271
 20
-159.4617566875651
 30
0.0
 10
92.91198592512271
 20
-159.4617566875651
 30
0.0
 10
92.91198592512271
 20
-159.4617566875651
 30
0.0
 10
92.91198592512271
 20
-159.5802679722577
 30
0.0
 10
92.91198592512271
 20
-159.5802679722577
 30
0.0
 10
92.91198592512271
 20
-159.5802679722577
 30
0.0
 10
93.06374238124796
 20
-159.5802679722577
 30
0.0
 10
93.06374238124796
 20
-159.5802679722577
 30
0.0
 10
93.2063693343373
 20
-159.5802679722577
 30
0.0
 10
93.37311195582339
 20
-159.5802679722577
 30
0.0
 10
93.51005450136208
 20
-159.5699326858019
 30
0.0
 10
93.51005450136208
 20
-159.5699326858019
 30
0.0
 10
93.51005450136208
 20
-159.7411539314189
 30
0.0
 10
93.51005450136208
 20
-159.7411539314189
 30
0.0
 10
93.32677542154678
 20
-159.7325411927057
 30
0.0
 10
93.15452064728429
 20
-159.7304741354146
 30
0.0
 10
93.06374238124796
 20
-159.7304741354146
 30
0.0
 10
93.06374238124796
 20
-159.7304741354146
 30
0.0
 10
92.91198592512271
 20
-159.7304741354146
 30
0.0
 10
92.91198592512271
 20
-159.7304741354146
 30
0.0
 10
92.91198592512271
 20
-159.7304741354146
 30
0.0
 10
92.91198592512271
 20
-159.8383056241029
 30
0.0
 10
92.91198592512271
 20
-159.8383056241029
 30
0.0
 10
92.91198592512271
 20
-159.8383056241029
 30
0.0
 10
93.11386852055834
 20
-159.8383056241029
 30
0.0
 10
93.11386852055834
 20
-159.8383056241029
 30
0.0
 10
93.23048500273406
 20
-159.8383056241029
 30
0.0
 10
93.48232148270581
 20
-159.8341715095206
 30
0.0
 10
93.6656005625211
 20
-159.8279703376471
 30
0.0
 10
93.6656005625211
 20
-159.8279703376471
 30
0.0
 10
93.6656005625211
 20
-160.0053927551375
 30
0.0
 10
93.6656005625211
 20
-160.0053927551375
 30
0.0
 10
93.49713539329238
 20
-159.9991915832641
 30
0.0
 10
93.22307804744076
 20
-159.9950574686818
 30
0.0
 10
93.11386852055834
 20
-159.9950574686818
 30
0.0
  0
HATCH
  5
BC
330
B0
100
AcDbEntity
  8
レイヤー 1
 62
   250
420
  2299925
440
 33554687
100
AcDbHatch
 10
0.0
 20
0.0
 30
0.0
210
0.0
220
0.0
230
1.0
  2
SOLID
 70
     1
 71
     1
 91
        4
 92
        1
 93
        1
 72
     4
 94
        3
 73
     0
 74
     0
 95
       17
 96
       13
 40
0.0
 40
0.0
 40
0.0
 40
0.0
 40
1.0
 40
1.0
 40
1.0
 40
2.0
 40
2.0
 40
2.0
 40
3.0
 40
3.0
 40
3.0
 40
4.0
 40
4.0
 40
4.0
 40
4.0
 10
93.2582180213903
 20
-160.7267957497489
 10
93.2582180213903
 20
-160.7267957497489
 10
92.63982338178797
 20
-160.7267957497489
 10
92.63982338178797
 20
-160.7267957497489
 10
92.63982338178797
 20
-160.7267957497489
 10
92.63982338178797
 20
-160.8411729198591
 10
92.63982338178797
 20
-160.8411729198591
 10
92.63982338178797
 20
-160.8411729198591
 10
93.2582180213903
 20
-160.8411729198591
 10
93.2582180213903
 20
-160.8411729198591
 10
93.2582180213903
 20
-160.8411729198591
 10
93.2582180213903
 20
-160.7267957497489
 10
93.2582180213903
 20
-160.7267957497489
 97
        0
 97
        1
330
B8
 92
        1
 93
        1
 72
     4
 94
        3
 73
     0
 74
     0
 95
       17
 96
       13
 40
0.0
 40
0.0
 40
0.0
 40
0.0
 40
1.0
 40
1.0
 40
1.0
 40
2.0
 40
2.0
 40
2.0
 40
3.0
 40
3.0
 40
3.0
 40
4.0
 40
4.0
 40
4.0
 40
4.0
 10
93.2582180213903
 20
-160.4835720084902
 10
93.2582180213903
 20
-160.4835720084902
 10
92.63982338178797
 20
-160.4835720084902
 10
92.63982338178797
 20
-160.4835720084902
 10
92.63982338178797
 20
-160.4835720084902
 10
92.63982338178797
 20
-160.5979491786005
 10
92.63982338178797
 20
-160.5979491786005
 10
92.63982338178797
 20
-160.5979491786005
 10
93.2582180213903
 20
-160.5979491786005
 10
93.2582180213903
 20
-160.5979491786005
 10
93.2582180213903
 20
-160.5979491786005
 10
93.2582180213903
 20
-160.4835720084902
 10
93.2582180213903
 20
-160.4835720084902
 97
        0
 97
        1
330
B9
 92
        1
 93
        1
 72
     4
 94
        3
 73
     0
 74
     0
 95
       17
 96
       13
 40
0.0
 40
0.0
 40
0.0
 40
0.0
 40
1.0
 40
1.0
 40
1.0
 40
2.0
 40
2.0
 40
2.0
 40
3.0
 40
3.0
 40
3.0
 40
4.0
 40
4.0
 40
4.0
 40
4.0
 10
93.2582180213903
 20
-160.2510280632358
 10
93.2582180213903
 20
-160.2510280632358
 10
92.63982338178797
 20
-160.2510280632358
 10
92.63982338178797
 20
-160.2510280632358
 10
92.63982338178797
 20
-160.2510280632358
 10
92.63982338178797
 20
-160.3588595519242
 10
92.63982338178797
 20
-160.3588595519242
 10
92.63982338178797
 20
-160.3588595519242
 10
93.2582180213903
 20
-160.3588595519242
 10
93.2582180213903
 20
-160.3588595519242
 10
93.2582180213903
 20
-160.3588595519242
 10
93.2582180213903
 20
-160.2510280632358
 10
93.2582180213903
 20
-160.2510280632358
 97
        0
 97
        1
330
BA
 92
        1
 93
        1
 72
     4
 94
        3
 73
     0
 74
     0
 95
      203
 96
      199
 40
0.0
 40
0.0
 40
0.0
 40
0.0
 40
1.0
 40
1.0
 40
1.0
 40
2.0
 40
2.0
 40
2.0
 40
3.0
 40
3.0
 40
3.0
 40
4.0
 40
4.0
 40
4.0
 40
5.0
 40
5.0
 40
5.0
 40
6.0
 40
6.0
 40
6.0
 40
7.0
 40
7.0
 40
7.0
 40
8.0
 40
8.0
 40
8.0
 40
9.0
 40
9.0
 40
9.0
 40
10.0
 40
10.0
 40
10.0
 40
11.0
 40
11.0
 40
11.0
 40
12.0
 40
12.0
 40
12.0
 40
13.0
 40
13.0
 40
13.0
 40
14.0
 40
14.0
 40
14.0
 40
15.0
 40
15.0
 40
15.0
 40
16.0
 40
16.0
 40
16.0
 40
17.0
 40
17.0
 40
17.0
 40
18.0
 40
18.0
 40
18.0
 40
19.0
 40
19.0
 40
19.0
 40
20.0
 40
20.0
 40
20.0
 40
21.0
 40
21.0
 40
21.0
 40
22.0
 40
22.0
 40
22.0
 40
23.0
 40
23.0
 40
23.0
 40
24.0
 40
24.0
 40
24.0
 40
25.0
 40
25.0
 40
25.0
 40
26.0
 40
26.0
 40
26.0
 40
27.0
 40
27.0
 40
27.0
 40
28.0
 40
28.0
 40
28.0
 40
29.0
 40
29.0
 40
29.0
 40
30.0
 40
30.0
 40
30.0
 40
31.0
 40
31.0
 40
31.0
 40
32.0
 40
32.0
 40
32.0
 40
33.0
 40
33.0
 40
33.0
 40
34.0
 40
34.0
 40
34.0
 40
35.0
 40
35.0
 40
35.0
 40
36.0
 40
36.0
 40
36.0
 40
37.0
 40
37.0
 40
37.0
 40
38.0
 40
38.0
 40
38.0
 40
39.0
 40
39.0
 40
39.0
 40
40.0
 40
40.0
 40
40.0
 40
41.0
 40
41.0
 40
41.0
 40
42.0
 40
42.0
 40
42.0
 40
43.0
 40
43.0
 40
43.0
 40
44.0
 40
44.0
 40
44.0
 40
45.0
 40
45.0
 40
45.0
 40
46.0
 40
46.0
 40
46.0
 40
47.0
 40
47.0
 40
47.0
 40
48.0
 40
48.0
 40
48.0
 40
49.0
 40
49.0
 40
49.0
 40
50.0
 40
50.0
 40
50.0
 40
51.0
 40
51.0
 40
51.0
 40
52.0
 40
52.0
 40
52.0
 40
53.0
 40
53.0
 40
53.0
 40
54.0
 40
54.0
 40
54.0
 40
55.0
 40
55.0
 40
55.0
 40
56.0
 40
56.0
 40
56.0
 40
57.0
 40
57.0
 40
57.0
 40
58.0
 40
58.0
 40
58.0
 40
59.0
 40
59.0
 40
59.0
 40
60.0
 40
60.0
 40
60.0
 40
61.0
 40
61.0
 40
61.0
 40
62.0
 40
62.0
 40
62.0
 40
63.0
 40
63.0
 40
63.0
 40
64.0
 40
64.0
 40
64.0
 40
65.0
 40
65.0
 40
65.0
 40
66.0
 40
66.0
 40
66.0
 40
66.0
 10
93.11386852055834
 20
-159.9950574686818
 10
93.11386852055834
 20
-159.9950574686818
 10
92.62500947120139
 20
-159.9950574686818
 10
92.62500947120139
 20
-159.9950574686818
 10
92.61570771339121
 20
-160.0394992004415
 10
92.60830075809792
 20
-160.0711940789058
 10
92.59727645254512
 20
-160.1090901292435
 10
92.61932506365074
 20
-160.1090901292435
 10
92.63241642649466
 20
-160.1115016960832
 10
92.63792857927107
 20
-160.1115016960832
 10
92.63792857927107
 20
-160.1115016960832
 10
92.80277639824028
 20
-160.1115016960832
 10
92.80277639824028
 20
-160.1115016960832
 10
92.80277639824028
 20
-160.1115016960832
 10
93.13057723366181
 20
-160.1115016960832
 10
93.13057723366181
 20
-160.1115016960832
 10
93.17501896542152
 20
-160.1115016960832
 10
93.4230658403595
 20
-160.0987548427878
 10
93.45079885901578
 20
-160.0987548427878
 10
93.4489040564989
 20
-160.1259710971213
 10
93.44718150875626
 20
-160.1452636318387
 10
93.44718150875626
 20
-160.1748914530118
 10
93.44528670623937
 20
-160.2065863314761
 10
93.44528670623937
 20
-160.3419785840464
 10
93.44528670623937
 20
-160.3695393479284
 10
93.44528670623937
 20
-160.3695393479284
 10
93.44528670623937
 20
-160.6148301464782
 10
93.44528670623937
 20
-160.6148301464782
 10
93.44528670623937
 20
-160.659271878238
 10
93.4489040564989
 20
-160.8559868304457
 10
93.45269366153265
 20
-161.0082600508937
 10
93.45269366153265
 20
-161.0082600508937
 10
93.2546006711308
 20
-161.0082600508937
 10
93.2546006711308
 20
-161.0082600508937
 10
93.2546006711308
 20
-161.0082600508937
 10
93.25632321887342
 20
-160.9744981151383
 10
93.25632321887342
 20
-160.9744981151383
 10
93.25632321887342
 20
-160.9744981151383
 10
92.64171818430485
 20
-160.9744981151383
 10
92.64171818430485
 20
-160.9744981151383
 10
92.64171818430485
 20
-160.9744981151383
 10
92.64344073204748
 20
-161.0082600508937
 10
92.64344073204748
 20
-161.0082600508937
 10
92.64344073204748
 20
-161.0082600508937
 10
92.4527546969389
 20
-161.0082600508937
 10
92.4527546969389
 20
-161.0082600508937
 10
92.45637204719841
 20
-160.9531385231298
 10
92.45637204719841
 20
-160.9407361793828
 10
92.46205645474907
 20
-160.8263590092725
 10
92.46395125726596
 20
-160.7987982453906
 10
92.46567380500859
 20
-160.6654730501114
 10
92.46567380500859
 20
-160.6465250249425
 10
92.46567380500859
 20
-160.6465250249425
 10
92.46567380500859
 20
-160.4436089008613
 10
92.46567380500859
 20
-160.4436089008613
 10
92.34354517005646
 20
-160.6930338139934
 10
92.19540606419073
 20
-160.8242919519814
 10
92.1027329956375
 20
-160.8897487662012
 10
92.1027329956375
 20
-160.8897487662012
 10
91.95097653951226
 20
-160.7502223990485
 10
91.95097653951226
 20
-160.7502223990485
 10
92.02866344270464
 20
-160.6995794954154
 10
92.15458168269051
 20
-160.6127630891871
 10
92.27498776990001
 20
-160.4181151942705
 10
92.35456947560928
 20
-160.2909911708648
 10
92.41193031543868
 20
-160.1473306891298
 10
92.44155813661183
 20
-159.9950574686818
 10
92.24174259846734
 20
-159.9971245259729
 10
92.08430173479142
 20
-160.0033256978464
 10
92.00093042404837
 20
-160.0053927551375
 10
92.00093042404837
 20
-160.0053927551375
 10
92.00093042404837
 20
-159.8279703376471
 10
92.00093042404837
 20
-159.8279703376471
 10
92.17318519831087
 20
-159.8341715095206
 10
92.42123207324885
 20
-159.8383056241029
 10
92.55283472078541
 20
-159.8383056241029
 10
92.55283472078541
 20
-159.8383056241029
 10
92.7397311508602
 20
-159.8383056241029
 10
92.7397311508602
 20
-159.8383056241029
 10
92.7397311508602
 20
-159.8383056241029
 10
92.7397311508602
 20
-159.7304741354146
 10
92.7397311508602
 20
-159.7304741354146
 10
92.7397311508602
 20
-159.7304741354146
 10
92.6120903631317
 20
-159.7304741354146
 10
92.6120903631317
 20
-159.7304741354146
 10
92.46395125726596
 20
-159.7304741354146
 10
92.31581215140023
 20
-159.7346082499969
 10
92.16939559327711
 20
-159.7411539314189
 10
92.16939559327711
 20
-159.7411539314189
 10
92.16939559327711
 20
-159.5699326858019
 10
92.16939559327711
 20
-159.5699326858019
 10
92.30461559107316
 20
-159.5802679722577
 10
92.46756860752547
 20
-159.5802679722577
 10
92.6120903631317
 20
-159.5802679722577
 10
92.6120903631317
 20
-159.5802679722577
 10
92.7397311508602
 20
-159.5802679722577
 10
92.7397311508602
 20
-159.5802679722577
 10
92.7397311508602
 20
-159.5802679722577
 10
92.7397311508602
 20
-159.4617566875651
 10
92.7397311508602
 20
-159.4617566875651
 10
92.7397311508602
 20
-159.4617566875651
 10
92.62500947120139
 20
-159.4617566875651
 10
92.62500947120139
 20
-159.4617566875651
 10
92.58418508970118
 20
-159.4617566875651
 10
92.40641816266229
 20
-159.4703694262782
 10
92.36938338619586
 20
-159.4703694262782
 10
92.19161645915695
 20
-159.4745035408605
 10
92.12495386151738
 20
-159.4765705981517
 10
92.0563964613609
 20
-159.4786376554428
 10
92.0563964613609
 20
-159.4786376554428
 10
92.0563964613609
 20
-159.2946695565305
 10
92.0563964613609
 20
-159.2946695565305
 10
92.15647648520741
 20
-159.3032822952436
 10
92.19540606419073
 20
-159.3032822952436
 10
92.53044160013129
 20
-159.3115505244082
 10
92.47497556281876
 20
-159.2164658890153
 10
92.450859894422
 20
-159.1889051251333
 10
92.41950952550624
 20
-159.1530761320867
 10
92.41950952550624
 20
-159.1530761320867
 10
92.57316078414838
 20
-159.0703938404407
 10
92.57316078414838
 20
-159.0703938404407
 10
92.60830075809792
 20
-159.1065673430358
 10
92.64723033708126
 20
-159.1489420175044
 10
92.71199813220395
 20
-159.2588405634839
 10
92.71199813220395
 20
-159.2588405634839
 10
92.6120903631317
 20
-159.3136175816994
 10
92.6120903631317
 20
-159.3136175816994
 10
92.6120903631317
 20
-159.3136175816994
 10
92.62121986616762
 20
-159.3136175816994
 10
92.62121986616762
 20
-159.3136175816994
 10
92.62121986616762
 20
-159.3136175816994
 10
93.07855629183453
 20
-159.3136175816994
 10
93.07855629183453
 20
-159.3136175816994
 10
93.07855629183453
 20
-159.3136175816994
 10
92.99535723586576
 20
-159.2695203594882
 10
92.99535723586576
 20
-159.2695203594882
 10
93.01930064948823
 20
-159.2312797996019
 10
93.06942678879861
 20
-159.1510090747956
 10
93.08234589686831
 20
-159.0769395218627
 10
93.08234589686831
 20
-159.0769395218627
 10
93.26941458171736
 20
-159.1403292787913
 10
93.26941458171736
 20
-159.1403292787913
 10
93.27682153701067
 20
-159.1423963360824
 10
93.29525279785675
 20
-159.1530761320867
 10
93.29525279785675
 20
-159.1740912145468
 10
93.29525279785675
 20
-159.212331774433
 10
93.23789195802733
 20
-159.212331774433
 10
93.22118324492388
 20
-159.212331774433
 10
93.21188148711369
 20
-159.2312797996019
 10
93.19155542375073
 20
-159.2715874167793
 10
93.16571720761135
 20
-159.3115505244082
 10
93.51573890891273
 20
-159.3053493525348
 10
93.54157712505211
 20
-159.3032822952436
 10
93.60823972269169
 20
-159.2967366138216
 10
93.60823972269169
 20
-159.2967366138216
 10
93.60823972269169
 20
-159.4786376554428
 10
93.60823972269169
 20
-159.4786376554428
 10
93.59153100958824
 20
-159.4786376554428
 10
93.56931014370836
 20
-159.4765705981517
 10
93.3767293060829
 20
-159.4683023689871
 10
93.33228757432319
 20
-159.4662353116959
 10
93.13970673669771
 20
-159.4617566875651
 10
93.10094941248866
 20
-159.4617566875651
 10
93.10094941248866
 20
-159.4617566875651
 10
92.91198592512271
 20
-159.4617566875651
 10
92.91198592512271
 20
-159.4617566875651
 10
92.91198592512271
 20
-159.4617566875651
 10
92.91198592512271
 20
-159.5802679722577
 10
92.91198592512271
 20
-159.5802679722577
 10
92.91198592512271
 20
-159.5802679722577
 10
93.06374238124796
 20
-159.5802679722577
 10
93.06374238124796
 20
-159.5802679722577
 10
93.2063693343373
 20
-159.5802679722577
 10
93.37311195582339
 20
-159.5802679722577
 10
93.51005450136208
 20
-159.5699326858019
 10
93.51005450136208
 20
-159.5699326858019
 10
93.51005450136208
 20
-159.7411539314189
 10
93.51005450136208
 20
-159.7411539314189
 10
93.32677542154678
 20
-159.7325411927057
 10
93.15452064728429
 20
-159.7304741354146
 10
93.06374238124796
 20
-159.7304741354146
 10
93.06374238124796
 20
-159.7304741354146
 10
92.91198592512271
 20
-159.7304741354146
 10
92.91198592512271
 20
-159.7304741354146
 10
92.91198592512271
 20
-159.7304741354146
 10
92.91198592512271
 20
-159.8383056241029
 10
92.91198592512271
 20
-159.8383056241029
 10
92.91198592512271
 20
-159.8383056241029
 10
93.11386852055834
 20
-159.8383056241029
 10
93.11386852055834
 20
-159.8383056241029
 10
93.23048500273406
 20
-159.8383056241029
 10
93.48232148270581
 20
-159.8341715095206
 10
93.6656005625211
 20
-159.8279703376471
 10
93.6656005625211
 20
-159.8279703376471
 10
93.6656005625211
 20
-160.0053927551375
 10
93.6656005625211
 20
-160.0053927551375
 10
93.49713539329238
 20
-159.9991915832641
 10
93.22307804744076
 20
-159.9950574686818
 10
93.11386852055834
 20
-159.9950574686818
 97
        0
 97
        1
330
BB
 75
     2
 76
     1
 98
        1
 10
0.0
 20
0.0
450
        0
451
        0
460
0.0
461
0.0
452
        0
462
0.0
453
        0
470

  0
SPLINE
  5
BD
330
B0
100
AcDbEntity
  8
レイヤー 1
100
AcDbSpline
210
0.0
220
0.0
230
1.0
 70
     9
 71
     3
 72
    29
 73
    25
 74
     0
 42
0.0000000001
 43
0.0000000001
 40
0.0
 40
0.0
 40
0.0
 40
0.0
 40
1.0
 40
1.0
 40
1.0
 40
2.0
 40
2.0
 40
2.0
 40
3.0
 40
3.0
 40
3.0
 40
4.0
 40
4.0
 40
4.0
 40
5.0
 40
5.0
 40
5.0
 40
6.0
 40
6.0
 40
6.0
 40
7.0
 40
7.0
 40
7.0
 40
8.0
 40
8.0
 40
8.0
 40
8.0
 10
94.75666230269972
 20
-159.4428086623962
 30
0.0
 10
94.75666230269972
 20
-159.4428086623962
 30
0.0
 10
94.44746498289855
 20
-159.4428086623962
 30
0.0
 10
94.44746498289855
 20
-159.4428086623962
 30
0.0
 10
94.34927976156894
 20
-159.4428086623962
 30
0.0
 10
94.22697887184256
 20
-159.4493543438182
 30
0.0
 10
94.13258325554672
 20
-159.4617566875651
 30
0.0
 10
94.13258325554672
 20
-159.4617566875651
 30
0.0
 10
94.13258325554672
 20
-159.2271456850196
 30
0.0
 10
94.13258325554672
 20
-159.2271456850196
 30
0.0
 10
94.23628062965274
 20
-159.2419595956062
 30
0.0
 10
94.39733884358817
 20
-159.2460937101885
 30
0.0
 10
94.44746498289855
 20
-159.2460937101885
 30
0.0
 10
94.44746498289855
 20
-159.2460937101885
 30
0.0
 10
94.75666230269972
 20
-159.2460937101885
 30
0.0
 10
94.75666230269972
 20
-159.2460937101885
 30
0.0
 10
94.77337101580319
 20
-159.2460937101885
 30
0.0
 10
94.95113794284208
 20
-159.2460937101885
 30
0.0
 10
95.07516138031107
 20
-159.2271456850196
 30
0.0
 10
95.07516138031107
 20
-159.2271456850196
 30
0.0
 10
95.07516138031107
 20
-159.4617566875651
 30
0.0
 10
95.07516138031107
 20
-159.4617566875651
 30
0.0
 10
94.93804657999813
 20
-159.4428086623962
 30
0.0
 10
94.77147621328631
 20
-159.4428086623962
 30
0.0
 10
94.75666230269972
 20
-159.4428086623962
 30
0.0
  0
SPLINE
  5
BE
330
B0
100
AcDbEntity
  8
レイヤー 1
100
AcDbSpline
210
0.0
220
0.0
230
1.0
 70
     9
 71
     3
 72
    47
 73
    43
 74
     0
 42
0.0000000001
 43
0.0000000001
 40
0.0
 40
0.0
 40
0.0
 40
0.0
 40
1.0
 40
1.0
 40
1.0
 40
2.0
 40
2.0
 40
2.0
 40
3.0
 40
3.0
 40
3.0
 40
4.0
 40
4.0
 40
4.0
 40
5.0
 40
5.0
 40
5.0
 40
6.0
 40
6.0
 40
6.0
 40
7.0
 40
7.0
 40
7.0
 40
8.0
 40
8.0
 40
8.0
 40
9.0
 40
9.0
 40
9.0
 40
10.0
 40
10.0
 40
10.0
 40
11.0
 40
11.0
 40
11.0
 40
12.0
 40
12.0
 40
12.0
 40
13.0
 40
13.0
 40
13.0
 40
14.0
 40
14.0
 40
14.0
 40
14.0
 10
94.84554576621917
 20
-159.9716308193821
 30
0.0
 10
94.84554576621917
 20
-159.9716308193821
 30
0.0
 10
94.75666230269972
 20
-159.9716308193821
 30
0.0
 10
94.75666230269972
 20
-159.9716308193821
 30
0.0
 10
94.75666230269972
 20
-160.0584472256104
 30
0.0
 10
94.73805878707938
 20
-160.4477430154436
 30
0.0
 10
94.56597626759116
 20
-160.6675401074026
 30
0.0
 10
94.43265107231198
 20
-160.8370388052768
 30
0.0
 10
94.2510945402393
 20
-160.9066297340789
 30
0.0
 10
94.17702498730644
 20
-160.9341904979609
 30
0.0
 10
94.17702498730644
 20
-160.9341904979609
 30
0.0
 10
94.00666501556084
 20
-160.7671033669262
 30
0.0
 10
94.00666501556084
 20
-160.7671033669262
 30
0.0
 10
94.09193112882077
 20
-160.7543565136308
 30
0.0
 10
94.24558238746291
 20
-160.7312743738797
 30
0.0
 10
94.41043020643212
 20
-160.5428276508365
 30
0.0
 10
94.47519800155481
 20
-160.4708251551948
 30
0.0
 10
94.56597626759116
 20
-160.3312987880421
 30
0.0
 10
94.56597626759116
 20
-159.9716308193821
 30
0.0
 10
94.56597626759116
 20
-159.9716308193821
 30
0.0
 10
94.36409367215551
 20
-159.9716308193821
 30
0.0
 10
94.36409367215551
 20
-159.9716308193821
 30
0.0
 10
94.20114065570318
 20
-159.9716308193821
 30
0.0
 10
94.03818763925087
 20
-159.9761094435129
 30
0.0
 10
93.87523462279856
 20
-159.9909233540995
 30
0.0
 10
93.87523462279856
 20
-159.9909233540995
 30
0.0
 10
93.87523462279856
 20
-159.770781752592
 30
0.0
 10
93.87523462279856
 20
-159.770781752592
 30
0.0
 10
94.04008244176777
 20
-159.7855956631786
 30
0.0
 10
94.29002411922263
 20
-159.7897297777609
 30
0.0
 10
94.36409367215551
 20
-159.7897297777609
 30
0.0
 10
94.36409367215551
 20
-159.7897297777609
 30
0.0
 10
94.84554576621917
 20
-159.7897297777609
 30
0.0
 10
94.84554576621917
 20
-159.7897297777609
 30
0.0
 10
94.86225447932262
 20
-159.7897297777609
 30
0.0
 10
95.13992917543378
 20
-159.7897297777609
 30
0.0
 10
95.33991696835252
 20
-159.770781752592
 30
0.0
 10
95.33991696835252
 20
-159.770781752592
 30
0.0
 10
95.33991696835252
 20
-159.9909233540995
 30
0.0
 10
95.33991696835252
 20
-159.9909233540995
 30
0.0
 10
95.17506914938332
 20
-159.9761094435129
 30
0.0
 10
95.01039358518838
 20
-159.9716308193821
 30
0.0
 10
94.84554576621917
 20
-159.9716308193821
 30
0.0
  0
HATCH
  5
BF
330
B0
100
AcDbEntity
  8
レイヤー 1
 62
   250
420
  2299925
440
 33554687
100
AcDbHatch
 10
0.0
 20
0.0
 30
0.0
210
0.0
220
0.0
230
1.0
  2
SOLID
 70
     1
 71
     1
 91
        2
 92
        1
 93
        1
 72
     4
 94
        3
 73
     0
 74
     0
 95
       29
 96
       25
 40
0.0
 40
0.0
 40
0.0
 40
0.0
 40
1.0
 40
1.0
 40
1.0
 40
2.0
 40
2.0
 40
2.0
 40
3.0
 40
3.0
 40
3.0
 40
4.0
 40
4.0
 40
4.0
 40
5.0
 40
5.0
 40
5.0
 40
6.0
 40
6.0
 40
6.0
 40
7.0
 40
7.0
 40
7.0
 40
8.0
 40
8.0
 40
8.0
 40
8.0
 10
94.75666230269972
 20
-159.4428086623962
 10
94.75666230269972
 20
-159.4428086623962
 10
94.44746498289855
 20
-159.4428086623962
 10
94.44746498289855
 20
-159.4428086623962
 10
94.34927976156894
 20
-159.4428086623962
 10
94.22697887184256
 20
-159.4493543438182
 10
94.13258325554672
 20
-159.4617566875651
 10
94.13258325554672
 20
-159.4617566875651
 10
94.13258325554672
 20
-159.2271456850196
 10
94.13258325554672
 20
-159.2271456850196
 10
94.23628062965274
 20
-159.2419595956062
 10
94.39733884358817
 20
-159.2460937101885
 10
94.44746498289855
 20
-159.2460937101885
 10
94.44746498289855
 20
-159.2460937101885
 10
94.75666230269972
 20
-159.2460937101885
 10
94.75666230269972
 20
-159.2460937101885
 10
94.77337101580319
 20
-159.2460937101885
 10
94.95113794284208
 20
-159.2460937101885
 10
95.07516138031107
 20
-159.2271456850196
 10
95.07516138031107
 20
-159.2271456850196
 10
95.07516138031107
 20
-159.4617566875651
 10
95.07516138031107
 20
-159.4617566875651
 10
94.93804657999813
 20
-159.4428086623962
 10
94.77147621328631
 20
-159.4428086623962
 10
94.75666230269972
 20
-159.4428086623962
 97
        0
 97
        1
330
BD
 92
        1
 93
        1
 72
     4
 94
        3
 73
     0
 74
     0
 95
       47
 96
       43
 40
0.0
 40
0.0
 40
0.0
 40
0.0
 40
1.0
 40
1.0
 40
1.0
 40
2.0
 40
2.0
 40
2.0
 40
3.0
 40
3.0
 40
3.0
 40
4.0
 40
4.0
 40
4.0
 40
5.0
 40
5.0
 40
5.0
 40
6.0
 40
6.0
 40
6.0
 40
7.0
 40
7.0
 40
7.0
 40
8.0
 40
8.0
 40
8.0
 40
9.0
 40
9.0
 40
9.0
 40
10.0
 40
10.0
 40
10.0
 40
11.0
 40
11.0
 40
11.0
 40
12.0
 40
12.0
 40
12.0
 40
13.0
 40
13.0
 40
13.0
 40
14.0
 40
14.0
 40
14.0
 40
14.0
 10
94.84554576621917
 20
-159.9716308193821
 10
94.84554576621917
 20
-159.9716308193821
 10
94.75666230269972
 20
-159.9716308193821
 10
94.75666230269972
 20
-159.9716308193821
 10
94.75666230269972
 20
-160.0584472256104
 10
94.73805878707938
 20
-160.4477430154436
 10
94.56597626759116
 20
-160.6675401074026
 10
94.43265107231198
 20
-160.8370388052768
 10
94.2510945402393
 20
-160.9066297340789
 10
94.17702498730644
 20
-160.9341904979609
 10
94.17702498730644
 20
-160.9341904979609
 10
94.00666501556084
 20
-160.7671033669262
 10
94.00666501556084
 20
-160.7671033669262
 10
94.09193112882077
 20
-160.7543565136308
 10
94.24558238746291
 20
-160.7312743738797
 10
94.41043020643212
 20
-160.5428276508365
 10
94.47519800155481
 20
-160.4708251551948
 10
94.56597626759116
 20
-160.3312987880421
 10
94.56597626759116
 20
-159.9716308193821
 10
94.56597626759116
 20
-159.9716308193821
 10
94.36409367215551
 20
-159.9716308193821
 10
94.36409367215551
 20
-159.9716308193821
 10
94.20114065570318
 20
-159.9716308193821
 10
94.03818763925087
 20
-159.9761094435129
 10
93.87523462279856
 20
-159.9909233540995
 10
93.87523462279856
 20
-159.9909233540995
 10
93.87523462279856
 20
-159.770781752592
 10
93.87523462279856
 20
-159.770781752592
 10
94.04008244176777
 20
-159.7855956631786
 10
94.29002411922263
 20
-159.7897297777609
 10
94.36409367215551
 20
-159.7897297777609
 10
94.36409367215551
 20
-159.7897297777609
 10
94.84554576621917
 20
-159.7897297777609
 10
94.84554576621917
 20
-159.7897297777609
 10
94.86225447932262
 20
-159.7897297777609
 10
95.13992917543378
 20
-159.7897297777609
 10
95.33991696835252
 20
-159.770781752592
 10
95.33991696835252
 20
-159.770781752592
 10
95.33991696835252
 20
-159.9909233540995
 10
95.33991696835252
 20
-159.9909233540995
 10
95.17506914938332
 20
-159.9761094435129
 10
95.01039358518838
 20
-159.9716308193821
 10
94.84554576621917
 20
-159.9716308193821
 97
        0
 97
        1
330
BE
 75
     2
 76
     1
 98
        1
 10
0.0
 20
0.0
450
        0
451
        0
460
0.0
461
0.0
452
        0
462
0.0
453
        0
470

  0
SPLINE
  5
C0
330
B0
100
AcDbEntity
  8
レイヤー 1
100
AcDbSpline
210
0.0
220
0.0
230
1.0
 70
     9
 71
     3
 72
    29
 73
    25
 74
     0
 42
0.0000000001
 43
0.0000000001
 40
0.0
 40
0.0
 40
0.0
 40
0.0
 40
1.0
 40
1.0
 40
1.0
 40
2.0
 40
2.0
 40
2.0
 40
3.0
 40
3.0
 40
3.0
 40
4.0
 40
4.0
 40
4.0
 40
5.0
 40
5.0
 40
5.0
 40
6.0
 40
6.0
 40
6.0
 40
7.0
 40
7.0
 40
7.0
 40
8.0
 40
8.0
 40
8.0
 40
8.0
 10
96.46232907744693
 20
-160.1345838358344
 30
0.0
 10
96.46232907744693
 20
-160.1345838358344
 30
0.0
 10
96.03823782321267
 20
-160.1345838358344
 30
0.0
 10
96.03823782321267
 20
-160.1345838358344
 30
0.0
 10
96.01412215481593
 20
-160.1345838358344
 30
0.0
 10
95.73644745870479
 20
-160.1345838358344
 30
0.0
 10
95.5512735763726
 20
-160.1600775424252
 30
0.0
 10
95.5512735763726
 20
-160.1600775424252
 30
0.0
 10
95.5512735763726
 20
-159.9292561449135
 30
0.0
 10
95.5512735763726
 20
-159.9292561449135
 30
0.0
 10
95.69011092442817
 20
-159.9526827942132
 30
0.0
 10
95.85668129114001
 20
-159.9547498515043
 30
0.0
 10
96.03823782321267
 20
-159.9547498515043
 30
0.0
 10
96.03823782321267
 20
-159.9547498515043
 30
0.0
 10
96.46232907744693
 20
-159.9547498515043
 30
0.0
 10
96.46232907744693
 20
-159.9547498515043
 30
0.0
 10
96.62528209389925
 20
-159.9547498515043
 30
0.0
 10
96.78823511035155
 20
-159.9526827942132
 30
0.0
 10
96.94929332428699
 20
-159.9292561449135
 30
0.0
 10
96.94929332428699
 20
-159.9292561449135
 30
0.0
 10
96.94929332428699
 20
-160.1600775424252
 30
0.0
 10
96.94929332428699
 20
-160.1600775424252
 30
0.0
 10
96.78823511035155
 20
-160.1366508931255
 30
0.0
 10
96.57153860432934
 20
-160.1345838358344
 30
0.0
 10
96.46232907744693
 20
-160.1345838358344
 30
0.0
  0
HATCH
  5
C1
330
B0
100
AcDbEntity
  8
レイヤー 1
 62
   250
420
  2299925
440
 33554687
100
AcDbHatch
 10
0.0
 20
0.0
 30
0.0
210
0.0
220
0.0
230
1.0
  2
SOLID
 70
     1
 71
     1
 91
        1
 92
        1
 93
        1
 72
     4
 94
        3
 73
     0
 74
     0
 95
       29
 96
       25
 40
0.0
 40
0.0
 40
0.0
 40
0.0
 40
1.0
 40
1.0
 40
1.0
 40
2.0
 40
2.0
 40
2.0
 40
3.0
 40
3.0
 40
3.0
 40
4.0
 40
4.0
 40
4.0
 40
5.0
 40
5.0
 40
5.0
 40
6.0
 40
6.0
 40
6.0
 40
7.0
 40
7.0
 40
7.0
 40
8.0
 40
8.0
 40
8.0
 40
8.0
 10
96.46232907744693
 20
-160.1345838358344
 10
96.46232907744693
 20
-160.1345838358344
 10
96.03823782321267
 20
-160.1345838358344
 10
96.03823782321267
 20
-160.1345838358344
 10
96.01412215481593
 20
-160.1345838358344
 10
95.73644745870479
 20
-160.1345838358344
 10
95.5512735763726
 20
-160.1600775424252
 10
95.5512735763726
 20
-160.1600775424252
 10
95.5512735763726
 20
-159.9292561449135
 10
95.5512735763726
 20
-159.9292561449135
 10
95.69011092442817
 20
-159.9526827942132
 10
95.85668129114001
 20
-159.9547498515043
 10
96.03823782321267
 20
-159.9547498515043
 10
96.03823782321267
 20
-159.9547498515043
 10
96.46232907744693
 20
-159.9547498515043
 10
96.46232907744693
 20
-159.9547498515043
 10
96.62528209389925
 20
-159.9547498515043
 10
96.78823511035155
 20
-159.9526827942132
 10
96.94929332428699
 20
-159.9292561449135
 10
96.94929332428699
 20
-159.9292561449135
 10
96.94929332428699
 20
-160.1600775424252
 10
96.94929332428699
 20
-160.1600775424252
 10
96.78823511035155
 20
-160.1366508931255
 10
96.57153860432934
 20
-160.1345838358344
 10
96.46232907744693
 20
-160.1345838358344
 97
        0
 97
        1
330
C0
 75
     2
 76
     1
 98
        1
 10
0.0
 20
0.0
450
        0
451
        0
460
0.0
461
0.0
452
        0
462
0.0
453
        0
470

  0
SPLINE
  5
C2
330
B0
100
AcDbEntity
  8
レイヤー 1
100
AcDbSpline
210
0.0
220
0.0
230
1.0
 70
     9
 71
     3
 72
    47
 73
    43
 74
     0
 42
0.0000000001
 43
0.0000000001
 40
0.0
 40
0.0
 40
0.0
 40
0.0
 40
1.0
 40
1.0
 40
1.0
 40
2.0
 40
2.0
 40
2.0
 40
3.0
 40
3.0
 40
3.0
 40
4.0
 40
4.0
 40
4.0
 40
5.0
 40
5.0
 40
5.0
 40
6.0
 40
6.0
 40
6.0
 40
7.0
 40
7.0
 40
7.0
 40
8.0
 40
8.0
 40
8.0
 40
9.0
 40
9.0
 40
9.0
 40
10.0
 40
10.0
 40
10.0
 40
11.0
 40
11.0
 40
11.0
 40
12.0
 40
12.0
 40
12.0
 40
13.0
 40
13.0
 40
13.0
 40
14.0
 40
14.0
 40
14.0
 40
14.0
 10
98.40656871454768
 20
-159.5403048646288
 30
0.0
 10
98.34559052445875
 20
-159.819357598934
 30
0.0
 10
98.27892792681916
 20
-160.1239040398301
 30
0.0
 10
98.00487058096754
 20
-160.4560112446082
 30
0.0
 10
97.7974758327555
 20
-160.7057806672888
 30
0.0
 10
97.58267412925016
 20
-160.8053439268125
 30
0.0
 10
97.49000106069695
 20
-160.8473740917326
 30
0.0
 10
97.49000106069695
 20
-160.8473740917326
 30
0.0
 10
97.31964108895134
 20
-160.6654730501114
 30
0.0
 10
97.31964108895134
 20
-160.6654730501114
 30
0.0
 10
97.48259410540367
 20
-160.6189642610605
 30
0.0
 10
97.79919838049814
 20
-160.5259466829588
 30
0.0
 10
98.05844181576318
 20
-160.0308864617284
 30
0.0
 10
98.19917396633563
 20
-159.76423607117
 30
0.0
 10
98.2103705266627
 20
-159.590947768262
 30
0.0
 10
98.21777748195598
 20
-159.4999972474514
 30
0.0
 10
98.21777748195598
 20
-159.4999972474514
 30
0.0
 10
97.77525496687564
 20
-159.4999972474514
 30
0.0
 10
97.77525496687564
 20
-159.4999972474514
 30
0.0
 10
97.67155759276962
 20
-159.4999972474514
 30
0.0
 10
97.30293237584788
 20
-159.5189452726202
 30
0.0
 10
97.16960718056872
 20
-159.5296250686245
 30
0.0
 10
97.16960718056872
 20
-159.5296250686245
 30
0.0
 10
97.16960718056872
 20
-159.3201632631213
 30
0.0
 10
97.16960718056872
 20
-159.3201632631213
 30
0.0
 10
97.29380287281196
 20
-159.3329101164167
 30
0.0
 10
97.53633759497356
 20
-159.3370442309991
 30
0.0
 10
97.63814016656269
 20
-159.3370442309991
 30
0.0
 10
97.63814016656269
 20
-159.3370442309991
 30
0.0
 10
97.94923228888075
 20
-159.3370442309991
 30
0.0
 10
97.94923228888075
 20
-159.3370442309991
 30
0.0
 10
97.97334795727749
 20
-159.3370442309991
 30
0.0
 10
98.11408010784996
 20
-159.3349771737079
 30
0.0
 10
98.2103705266627
 20
-159.3201632631213
 30
0.0
 10
98.26032441119881
 20
-159.3136175816994
 30
0.0
 10
98.27513832178539
 20
-159.2946695565305
 30
0.0
 10
98.29546438514837
 20
-159.2715874167793
 30
0.0
 10
98.29546438514837
 20
-159.2715874167793
 30
0.0
 10
98.46031220411758
 20
-159.4217935799362
 30
0.0
 10
98.46031220411758
 20
-159.4217935799362
 30
0.0
 10
98.44739309604788
 20
-159.4514214011093
 30
0.0
 10
98.4380913382377
 20
-159.4703694262782
 30
0.0
 10
98.40656871454768
 20
-159.5403048646288
 30
0.0
  0
HATCH
  5
C3
330
B0
100
AcDbEntity
  8
レイヤー 1
 62
   250
420
  2299925
440
 33554687
100
AcDbHatch
 10
0.0
 20
0.0
 30
0.0
210
0.0
220
0.0
230
1.0
  2
SOLID
 70
     1
 71
     1
 91
        1
 92
        1
 93
        1
 72
     4
 94
        3
 73
     0
 74
     0
 95
       47
 96
       43
 40
0.0
 40
0.0
 40
0.0
 40
0.0
 40
1.0
 40
1.0
 40
1.0
 40
2.0
 40
2.0
 40
2.0
 40
3.0
 40
3.0
 40
3.0
 40
4.0
 40
4.0
 40
4.0
 40
5.0
 40
5.0
 40
5.0
 40
6.0
 40
6.0
 40
6.0
 40
7.0
 40
7.0
 40
7.0
 40
8.0
 40
8.0
 40
8.0
 40
9.0
 40
9.0
 40
9.0
 40
10.0
 40
10.0
 40
10.0
 40
11.0
 40
11.0
 40
11.0
 40
12.0
 40
12.0
 40
12.0
 40
13.0
 40
13.0
 40
13.0
 40
14.0
 40
14.0
 40
14.0
 40
14.0
 10
98.40656871454768
 20
-159.5403048646288
 10
98.34559052445875
 20
-159.819357598934
 10
98.27892792681916
 20
-160.1239040398301
 10
98.00487058096754
 20
-160.4560112446082
 10
97.7974758327555
 20
-160.7057806672888
 10
97.58267412925016
 20
-160.8053439268125
 10
97.49000106069695
 20
-160.8473740917326
 10
97.49000106069695
 20
-160.8473740917326
 10
97.31964108895134
 20
-160.6654730501114
 10
97.31964108895134
 20
-160.6654730501114
 10
97.48259410540367
 20
-160.6189642610605
 10
97.79919838049814
 20
-160.5259466829588
 10
98.05844181576318
 20
-160.0308864617284
 10
98.19917396633563
 20
-159.76423607117
 10
98.2103705266627
 20
-159.590947768262
 10
98.21777748195598
 20
-159.4999972474514
 10
98.21777748195598
 20
-159.4999972474514
 10
97.77525496687564
 20
-159.4999972474514
 10
97.77525496687564
 20
-159.4999972474514
 10
97.67155759276962
 20
-159.4999972474514
 10
97.30293237584788
 20
-159.5189452726202
 10
97.16960718056872
 20
-159.5296250686245
 10
97.16960718056872
 20
-159.5296250686245
 10
97.16960718056872
 20
-159.3201632631213
 10
97.16960718056872
 20
-159.3201632631213
 10
97.29380287281196
 20
-159.3329101164167
 10
97.53633759497356
 20
-159.3370442309991
 10
97.63814016656269
 20
-159.3370442309991
 10
97.63814016656269
 20
-159.3370442309991
 10
97.94923228888075
 20
-159.3370442309991
 10
97.94923228888075
 20
-159.3370442309991
 10
97.97334795727749
 20
-159.3370442309991
 10
98.11408010784996
 20
-159.3349771737079
 10
98.2103705266627
 20
-159.3201632631213
 10
98.26032441119881
 20
-159.3136175816994
 10
98.27513832178539
 20
-159.2946695565305
 10
98.29546438514837
 20
-159.2715874167793
 10
98.29546438514837
 20
-159.2715874167793
 10
98.46031220411758
 20
-159.4217935799362
 10
98.46031220411758
 20
-159.4217935799362
 10
98.44739309604788
 20
-159.4514214011093
 10
98.4380913382377
 20
-159.4703694262782
 10
98.40656871454768
 20
-159.5403048646288
 97
        0
 97
        1
330
C2
 75
     2
 76
     1
 98
        1
 10
0.0
 20
0.0
450
        0
451
        0
460
0.0
461
0.0
452
        0
462
0.0
453
        0
470

  0
SPLINE
  5
C4
330
B0
100
AcDbEntity
  8
レイヤー 1
100
AcDbSpline
210
0.0
220
0.0
230
1.0
 70
    11
 71
     3
 72
    17
 73
    13
 74
     0
 42
0.0000000001
 43
0.0000000001
 40
0.0
 40
0.0
 40
0.0
 40
0.0
 40
1.0
 40
1.0
 40
1.0
 40
2.0
 40
2.0
 40
2.0
 40
3.0
 40
3.0
 40
3.0
 40
4.0
 40
4.0
 40
4.0
 40
4.0
 10
98.74935571533002
 20
-159.3222303204125
 30
0.0
 10
98.74935571533002
 20
-159.3814859627588
 30
0.0
 10
98.79000784205597
 20
-159.4279947518097
 30
0.0
 10
98.84185652910899
 20
-159.4279947518097
 30
0.0
 10
98.893705216162
 20
-159.4279947518097
 30
0.0
 10
98.93642440017909
 20
-159.3814859627588
 30
0.0
 10
98.93642440017909
 20
-159.3222303204125
 30
0.0
 10
98.93642440017909
 20
-159.2629746780662
 30
0.0
 10
98.893705216162
 20
-159.2143988317242
 30
0.0
 10
98.84185652910899
 20
-159.2143988317242
 30
0.0
 10
98.79000784205597
 20
-159.2143988317242
 30
0.0
 10
98.74935571533002
 20
-159.2629746780662
 30
0.0
 10
98.74935571533002
 20
-159.3222303204125
 30
0.0
  0
SPLINE
  5
C5
330
B0
100
AcDbEntity
  8
レイヤー 1
100
AcDbSpline
210
0.0
220
0.0
230
1.0
 70
     9
 71
     3
 72
    17
 73
    13
 74
     0
 42
0.0000000001
 43
0.0000000001
 40
0.0
 40
0.0
 40
0.0
 40
0.0
 40
1.0
 40
1.0
 40
1.0
 40
2.0
 40
2.0
 40
2.0
 40
3.0
 40
3.0
 40
3.0
 40
4.0
 40
4.0
 40
4.0
 40
4.0
 10
99.02530786369855
 20
-159.3222303204125
 30
0.0
 10
99.02530786369855
 20
-159.4366074905228
 30
0.0
 10
98.94383135547238
 20
-159.5316921259157
 30
0.0
 10
98.84185652910899
 20
-159.5316921259157
 30
0.0
 10
98.74194876003674
 20
-159.5316921259157
 30
0.0
 10
98.65857744929369
 20
-159.4366074905228
 30
0.0
 10
98.65857744929369
 20
-159.3222303204125
 30
0.0
 10
98.65857744929369
 20
-159.205786093011
 30
0.0
 10
98.74194876003674
 20
-159.1127685149093
 30
0.0
 10
98.84185652910899
 20
-159.1127685149093
 30
0.0
 10
98.9419365529555
 20
-159.1127685149093
 30
0.0
 10
99.02530786369855
 20
-159.205786093011
 30
0.0
 10
99.02530786369855
 20
-159.3222303204125
 30
0.0
  0
HATCH
  5
C6
330
B0
100
AcDbEntity
  8
レイヤー 1
 62
   250
420
  2299925
440
 33554687
100
AcDbHatch
 10
0.0
 20
0.0
 30
0.0
210
0.0
220
0.0
230
1.0
  2
SOLID
 70
     1
 71
     1
 91
        2
 92
        1
 93
        1
 72
     4
 94
        3
 73
     0
 74
     0
 95
       17
 96
       13
 40
0.0
 40
0.0
 40
0.0
 40
0.0
 40
1.0
 40
1.0
 40
1.0
 40
2.0
 40
2.0
 40
2.0
 40
3.0
 40
3.0
 40
3.0
 40
4.0
 40
4.0
 40
4.0
 40
4.0
 10
98.74935571533002
 20
-159.3222303204125
 10
98.74935571533002
 20
-159.3814859627588
 10
98.79000784205597
 20
-159.4279947518097
 10
98.84185652910899
 20
-159.4279947518097
 10
98.893705216162
 20
-159.4279947518097
 10
98.93642440017909
 20
-159.3814859627588
 10
98.93642440017909
 20
-159.3222303204125
 10
98.93642440017909
 20
-159.2629746780662
 10
98.893705216162
 20
-159.2143988317242
 10
98.84185652910899
 20
-159.2143988317242
 10
98.79000784205597
 20
-159.2143988317242
 10
98.74935571533002
 20
-159.2629746780662
 10
98.74935571533002
 20
-159.3222303204125
 97
        0
 97
        1
330
C4
 92
        1
 93
        1
 72
     4
 94
        3
 73
     0
 74
     0
 95
       17
 96
       13
 40
0.0
 40
0.0
 40
0.0
 40
0.0
 40
1.0
 40
1.0
 40
1.0
 40
2.0
 40
2.0
 40
2.0
 40
3.0
 40
3.0
 40
3.0
 40
4.0
 40
4.0
 40
4.0
 40
4.0
 10
99.02530786369855
 20
-159.3222303204125
 10
99.02530786369855
 20
-159.4366074905228
 10
98.94383135547238
 20
-159.5316921259157
 10
98.84185652910899
 20
-159.5316921259157
 10
98.74194876003674
 20
-159.5316921259157
 10
98.65857744929369
 20
-159.4366074905228
 10
98.65857744929369
 20
-159.3222303204125
 10
98.65857744929369
 20
-159.205786093011
 10
98.74194876003674
 20
-159.1127685149093
 10
98.84185652910899
 20
-159.1127685149093
 10
98.9419365529555
 20
-159.1127685149093
 10
99.02530786369855
 20
-159.205786093011
 10
99.02530786369855
 20
-159.3222303204125
 97
        0
 97
        1
330
C5
 75
     2
 76
     1
 98
        1
 10
0.0
 20
0.0
450
        0
451
        0
460
0.0
461
0.0
452
        0
462
0.0
453
        0
470

  0
ENDBLK
  5
B3
330
B0
100
AcDbEntity
  8
0
100
AcDbBlockEnd
  0
BLOCK
  5
D0
330
CE
100
AcDbEntity
  8
0
100
AcDbBlockBegin
  2
Block_7
 70
     0
 10
0.0
 20
0.0
 30
0.0
  3
Block_7
  1

  0
LINE
  5
D2
330
CE
100
AcDbEntity
  8
レイヤー 1
 62
   250
420
  2299925
370
    25
100
AcDbLine
 10
100.3943707199568
 20
-143.882489092997
 30
0.0
 11
109.8348096457772
 21
-134.3712829467592
 31
0.0
  0
LINE
  5
D3
330
CE
100
AcDbEntity
  8
レイヤー 1
 62
   250
420
  2299925
370
    25
100
AcDbLine
 10
109.3456153435857
 20
-154.2322471082741
 30
0.0
 11
120.0281468857235
 21
-143.4628952148129
 31
0.0
  0
SPLINE
  5
D4
330
CE
100
AcDbEntity
  8
レイヤー 1
 62
   250
420
  2299925
370
    25
100
AcDbSpline
210
0.0
220
0.0
230
1.0
 70
     9
 71
     3
 72
    17
 73
    13
 74
     0
 42
0.0000000001
 43
0.0000000001
 40
0.0
 40
0.0
 40
0.0
 40
0.0
 40
1.0
 40
1.0
 40
1.0
 40
2.0
 40
2.0
 40
2.0
 40
3.0
 40
3.0
 40
3.0
 40
4.0
 40
4.0
 40
4.0
 40
4.0
 10
109.6339379842352
 20
-140.1052975226946
 30
0.0
 10
109.6825181212799
 20
-139.7108566994242
 30
0.0
 10
110.0408318627433
 20
-139.4297280954853
 30
0.0
 10
110.4359782415512
 20
-139.478305594246
 30
0.0
 10
110.8297514543265
 20
-139.5271993341724
 30
0.0
 10
111.1095042320336
 20
-139.8865400282755
 30
0.0
 10
111.0609240589408
 20
-140.2806633515539
 30
0.0
 10
111.012664060172
 20
-140.6744326672191
 30
0.0
 10
110.6547357359702
 20
-140.9552097232337
 30
0.0
 10
110.260259634923
 20
-140.9069850022418
 30
0.0
 10
109.8658188116527
 20
-140.8587602812499
 30
0.0
 10
109.5853604854745
 20
-140.4990680682042
 30
0.0
 10
109.6339379842352
 20
-140.1052975226946
 30
0.0
  0
SPLINE
  5
D5
330
CE
100
AcDbEntity
  8
レイヤー 1
 62
   250
420
  2299925
370
    25
100
AcDbSpline
210
0.0
220
0.0
230
1.0
 70
     9
 71
     3
 72
    17
 73
    13
 74
     0
 42
0.0000000001
 43
0.0000000001
 40
0.0
 40
0.0
 40
0.0
 40
0.0
 40
1.0
 40
1.0
 40
1.0
 40
2.0
 40
2.0
 40
2.0
 40
3.0
 40
3.0
 40
3.0
 40
4.0
 40
4.0
 40
4.0
 40
4.0
 10
112.0245012565802
 20
-140.1890104451181
 30
0.0
 10
112.0727259775721
 20
-139.7948883639471
 30
0.0
 10
112.4310423573195
 20
-139.5130882230652
 30
0.0
 10
112.8254831805898
 20
-139.5620197587772
 30
0.0
 10
113.2206295593977
 20
-139.6109500353064
 30
0.0
 10
113.5003823300384
 20
-139.9702541928064
 30
0.0
 10
113.4518048312777
 20
-140.3640247383161
 30
0.0
 10
113.4035801102858
 20
-140.7585008393636
 30
0.0
 10
113.0452990083152
 20
-141.0392766655334
 30
0.0
 10
112.6504701294992
 20
-140.9910519445415
 30
0.0
 10
112.2560320095248
 20
-140.942121668012
 30
0.0
 10
111.9759264540399
 20
-140.5831350105039
 30
0.0
 10
112.0245012565802
 20
-140.1890104451181
 30
0.0
  0
SPLINE
  5
D6
330
CE
100
AcDbEntity
  8
レイヤー 1
 62
   250
420
  2299925
370
    25
100
AcDbSpline
210
0.0
220
0.0
230
1.0
 70
     9
 71
     3
 72
    17
 73
    13
 74
     0
 42
0.0000000001
 43
0.0000000001
 40
0.0
 40
0.0
 40
0.0
 40
0.0
 40
1.0
 40
1.0
 40
1.0
 40
2.0
 40
2.0
 40
2.0
 40
3.0
 40
3.0
 40
3.0
 40
4.0
 40
4.0
 40
4.0
 40
4.0
 10
114.4167958978735
 20
-140.2724083517645
 30
0.0
 10
114.4653706387528
 20
-139.8782850284861
 30
0.0
 10
114.8236517407234
 20
-139.5971564245472
 30
0.0
 10
115.2187981195313
 20
-139.6457326674765
 30
0.0
 10
115.6132742205785
 20
-139.6943114220686
 30
0.0
 10
115.8933444912111
 20
-140.0536155795686
 30
0.0
 10
115.8451197702192
 20
-140.4473861250782
 30
0.0
 10
115.7968950492273
 20
-140.8422150038942
 30
0.0
 10
115.4382611694879
 20
-141.1233436078331
 30
0.0
 10
115.04311479068
 20
-141.0740605535352
 30
0.0
 10
114.6486386896328
 20
-141.0254830547742
 30
0.0
 10
114.3682156412315
 20
-140.666496397266
 30
0.0
 10
114.4167958978735
 20
-140.2724083517645
 30
0.0
  0
SPLINE
  5
D7
330
CE
100
AcDbEntity
  8
レイヤー 1
 62
   250
420
  2299925
370
    25
100
AcDbSpline
210
0.0
220
0.0
230
1.0
 70
     9
 71
     3
 72
    17
 73
    13
 74
     0
 42
0.0000000001
 43
0.0000000001
 40
0.0
 40
0.0
 40
0.0
 40
0.0
 40
1.0
 40
1.0
 40
1.0
 40
2.0
 40
2.0
 40
2.0
 40
3.0
 40
3.0
 40
3.0
 40
4.0
 40
4.0
 40
4.0
 40
4.0
 10
116.809402523396
 20
-140.3561225162954
 30
0.0
 10
116.8579800221567
 20
-139.9616464152483
 30
0.0
 10
117.2166139018961
 20
-139.6801650335406
 30
0.0
 10
117.611760280704
 20
-139.7294480878388
 30
0.0
 10
118.0062363817512
 20
-139.7780243341101
 30
0.0
 10
118.2863066523838
 20
-140.1373297440995
 30
0.0
 10
118.23773200803
 20
-140.5311002896092
 30
0.0
 10
118.1898572103999
 20
-140.9255763906564
 30
0.0
 10
117.8315408306525
 20
-141.2063522168265
 30
0.0
 10
117.4360769518527
 20
-141.1577747180658
 30
0.0
 10
117.0419536285743
 20
-141.1091972193051
 30
0.0
 10
116.761495302396
 20
-140.7498930618051
 30
0.0
 10
116.809402523396
 20
-140.3561225162954
 30
0.0
  0
SPLINE
  5
D8
330
CE
100
AcDbEntity
  8
レイヤー 1
 62
   250
420
  2299925
370
    25
100
AcDbSpline
210
0.0
220
0.0
230
1.0
 70
     9
 71
     3
 72
    17
 73
    13
 74
     0
 42
0.0000000001
 43
0.0000000001
 40
0.0
 40
0.0
 40
0.0
 40
0.0
 40
1.0
 40
1.0
 40
1.0
 40
2.0
 40
2.0
 40
2.0
 40
3.0
 40
3.0
 40
3.0
 40
4.0
 40
4.0
 40
4.0
 40
4.0
 10
109.7173346487742
 20
-137.7119825837531
 30
0.0
 10
109.7662296475268
 20
-137.3178945382516
 30
0.0
 10
110.1248635272662
 20
-137.0367659343126
 30
0.0
 10
110.5189868505446
 20
-137.0856609330652
 30
0.0
 10
110.913110173823
 20
-137.133920931834
 30
0.0
 10
111.1925101666949
 20
-137.4935778671028
 30
0.0
 10
111.144285445703
 20
-137.8877011903812
 30
0.0
 10
111.0960607247111
 20
-138.2818245136596
 30
0.0
 10
110.7377796227405
 20
-138.5626003398298
 30
0.0
 10
110.3439764544478
 20
-138.5140215566482
 30
0.0
 10
109.9495329761837
 20
-138.4654453423084
 30
0.0
 10
109.6691125657275
 20
-138.1068114625691
 30
0.0
 10
109.7173346487742
 20
-137.7119825837531
 30
0.0
  0
SPLINE
  5
D9
330
CE
100
AcDbEntity
  8
レイヤー 1
 62
   250
420
  2299925
370
    25
100
AcDbSpline
210
0.0
220
0.0
230
1.0
 70
     9
 71
     3
 72
    17
 73
    13
 74
     0
 42
0.0000000001
 43
0.0000000001
 40
0.0
 40
0.0
 40
0.0
 40
0.0
 40
1.0
 40
1.0
 40
1.0
 40
2.0
 40
2.0
 40
2.0
 40
3.0
 40
3.0
 40
3.0
 40
4.0
 40
4.0
 40
4.0
 40
4.0
 10
112.1071923655816
 20
-137.7960495260528
 30
0.0
 10
112.1561226421111
 20
-137.4019262027744
 30
0.0
 10
112.5147565218505
 20
-137.1204800988436
 30
0.0
 10
112.9091973451208
 20
-137.1690575976042
 30
0.0
 10
113.3043437239287
 20
-137.2179525963568
 30
0.0
 10
113.5840964945693
 20
-137.5769392538653
 30
0.0
 10
113.5358717735774
 20
-137.9717681326809
 30
0.0
 10
113.4872942748168
 20
-138.3651859004218
 30
0.0
 10
113.1286603950774
 20
-138.6463132232818
 30
0.0
 10
112.7338667940383
 20
-138.5980897833688
 30
0.0
 10
112.3393906929911
 20
-138.5491595068394
 30
0.0
 10
112.0589676445897
 20
-138.1901715567293
 30
0.0
 10
112.1071923655816
 20
-137.7960495260528
 30
0.0
  0
SPLINE
  5
DA
330
CE
100
AcDbEntity
  8
レイヤー 1
 62
   250
420
  2299925
370
    25
100
AcDbSpline
210
0.0
220
0.0
230
1.0
 70
     9
 71
     3
 72
    17
 73
    13
 74
     0
 42
0.0000000001
 43
0.0000000001
 40
0.0
 40
0.0
 40
0.0
 40
0.0
 40
1.0
 40
1.0
 40
1.0
 40
2.0
 40
2.0
 40
2.0
 40
3.0
 40
3.0
 40
3.0
 40
4.0
 40
4.0
 40
4.0
 40
4.0
 10
114.5001545267543
 20
-137.8797636905841
 30
0.0
 10
114.5487347867306
 20
-137.485321556905
 30
0.0
 10
114.9073659052544
 20
-137.2041942633745
 30
0.0
 10
115.3025122840622
 20
-137.2524189843664
 30
0.0
 10
115.6969883851094
 20
-137.3013492608959
 30
0.0
 10
115.977058655742
 20
-137.660335918404
 30
0.0
 10
115.9284811569813
 20
-138.0551295194431
 30
0.0
 10
115.8806092137582
 20
-138.4489000649527
 30
0.0
 10
115.5212697784813
 20
-138.7296758911229
 30
0.0
 10
115.126828955211
 20
-138.6810983923622
 30
0.0
 10
114.732000076395
 20
-138.6325208936015
 30
0.0
 10
114.4519298057624
 20
-138.2735342360934
 30
0.0
 10
114.5001545267543
 20
-137.8797636905841
 30
0.0
  0
SPLINE
  5
DB
330
CE
100
AcDbEntity
  8
レイヤー 1
 62
   250
420
  2299925
370
    25
100
AcDbSpline
210
0.0
220
0.0
230
1.0
 70
     9
 71
     3
 72
    17
 73
    13
 74
     0
 42
0.0000000001
 43
0.0000000001
 40
0.0
 40
0.0
 40
0.0
 40
0.0
 40
1.0
 40
1.0
 40
1.0
 40
2.0
 40
2.0
 40
2.0
 40
3.0
 40
3.0
 40
3.0
 40
4.0
 40
4.0
 40
4.0
 40
4.0
 10
109.3841713239406
 20
-147.2569848402398
 30
0.0
 10
109.4324313227094
 20
-146.8625076656721
 30
0.0
 10
109.7910652024488
 20
-146.5817329130224
 30
0.0
 10
110.1858588034878
 20
-146.6303104117832
 30
0.0
 10
110.5803375654992
 20
-146.6795934660814
 30
0.0
 10
110.8604051751676
 20
-147.0382273458208
 30
0.0
 10
110.8118276764069
 20
-147.4319978913304
 30
0.0
 10
110.763602955415
 20
-147.8264387146007
 30
0.0
 10
110.4049690756756
 20
-148.1079200963084
 30
0.0
 10
110.0101754746366
 20
-148.0589898197792
 30
0.0
 10
109.6160521513581
 20
-148.0114706543246
 30
0.0
 10
109.3355938251799
 20
-147.6511081635182
 30
0.0
 10
109.3841713239406
 20
-147.2569848402398
 30
0.0
  0
SPLINE
  5
DC
330
CE
100
AcDbEntity
  8
レイヤー 1
 62
   250
420
  2299925
370
    25
100
AcDbSpline
210
0.0
220
0.0
230
1.0
 70
     9
 71
     3
 72
    17
 73
    13
 74
     0
 42
0.0000000001
 43
0.0000000001
 40
0.0
 40
0.0
 40
0.0
 40
0.0
 40
1.0
 40
1.0
 40
1.0
 40
2.0
 40
2.0
 40
2.0
 40
3.0
 40
3.0
 40
3.0
 40
4.0
 40
4.0
 40
4.0
 40
4.0
 10
106.9912091627679
 20
-147.1732706757088
 30
0.0
 10
107.0397866615286
 20
-146.7787945746616
 30
0.0
 10
107.3981030412761
 20
-146.498724304029
 30
0.0
 10
107.7928966423152
 20
-146.5473018027898
 30
0.0
 10
108.1873727433624
 20
-146.5955265237817
 30
0.0
 10
108.4677957917637
 20
-146.9545131812898
 30
0.0
 10
108.4192208993728
 20
-147.3479298877728
 30
0.0
 10
108.3706407942424
 20
-147.7427245500698
 30
0.0
 10
108.012006914503
 20
-148.0242048876041
 30
0.0
 10
107.6175308134558
 20
-147.9756284330168
 30
0.0
 10
107.2230899901855
 20
-147.9274037120249
 30
0.0
 10
106.9426316640072
 20
-147.5677104432739
 30
0.0
 10
106.9912091627679
 20
-147.1732706757088
 30
0.0
  0
SPLINE
  5
DD
330
CE
100
AcDbEntity
  8
レイヤー 1
 62
   250
420
  2299925
370
    25
100
AcDbSpline
210
0.0
220
0.0
230
1.0
 70
     9
 71
     3
 72
    17
 73
    13
 74
     0
 42
0.0000000001
 43
0.0000000001
 40
0.0
 40
0.0
 40
0.0
 40
0.0
 40
1.0
 40
1.0
 40
1.0
 40
2.0
 40
2.0
 40
2.0
 40
3.0
 40
3.0
 40
3.0
 40
4.0
 40
4.0
 40
4.0
 40
4.0
 10
104.5982470015956
 20
-147.0895565111779
 30
0.0
 10
104.6468245003562
 20
-146.6957859656683
 30
0.0
 10
105.0054583800956
 20
-146.4150101394981
 30
0.0
 10
105.3999344811428
 20
-146.4632348604901
 30
0.0
 10
105.7944105821897
 20
-146.5118123592507
 30
0.0
 10
106.074833630591
 20
-146.8711165167508
 30
0.0
 10
106.0262561318304
 20
-147.2645695622685
 30
0.0
 10
105.9776786330697
 20
-147.6593631633076
 30
0.0
 10
105.6193975310991
 20
-147.9404917672465
 30
0.0
 10
105.2245686522834
 20
-147.8915604431928
 30
0.0
 10
104.8301278290131
 20
-147.8436895474939
 30
0.0
 10
104.5500222806037
 20
-147.4836798344563
 30
0.0
 10
104.5982470015956
 20
-147.0895565111779
 30
0.0
  0
SPLINE
  5
DE
330
CE
100
AcDbEntity
  8
レイヤー 1
 62
   250
420
  2299925
370
    25
100
AcDbSpline
210
0.0
220
0.0
230
1.0
 70
     9
 71
     3
 72
    17
 73
    13
 74
     0
 42
0.0000000001
 43
0.0000000001
 40
0.0
 40
0.0
 40
0.0
 40
0.0
 40
1.0
 40
1.0
 40
1.0
 40
2.0
 40
2.0
 40
2.0
 40
3.0
 40
3.0
 40
3.0
 40
4.0
 40
4.0
 40
4.0
 40
4.0
 10
102.2056376181917
 20
-147.0061598466389
 30
0.0
 10
102.2538623391836
 20
-146.6120718011373
 30
0.0
 10
102.6124986786028
 20
-146.3316134749594
 30
0.0
 10
103.0069723199705
 20
-146.3795206959591
 30
0.0
 10
103.4014484210173
 20
-146.4280981947198
 30
0.0
 10
103.6818714694187
 20
-146.7877551299886
 30
0.0
 10
103.6336467484268
 20
-147.1811728977295
 30
0.0
 10
103.5850692496661
 20
-147.5760017765454
 30
0.0
 10
103.2264353699267
 20
-147.8571303804847
 30
0.0
 10
102.8316064911108
 20
-147.8085528817237
 30
0.0
 10
102.4371681230914
 20
-147.7599743321141
 30
0.0
 10
102.1570625676052
 20
-147.4002831699173
 30
0.0
 10
102.2056376181917
 20
-147.0061598466389
 30
0.0
  0
SPLINE
  5
DF
330
CE
100
AcDbEntity
  8
レイヤー 1
 62
   250
420
  2299925
370
    25
100
AcDbSpline
210
0.0
220
0.0
230
1.0
 70
     9
 71
     3
 72
    17
 73
    13
 74
     0
 42
0.0000000001
 43
0.0000000001
 40
0.0
 40
0.0
 40
0.0
 40
0.0
 40
1.0
 40
1.0
 40
1.0
 40
2.0
 40
2.0
 40
2.0
 40
3.0
 40
3.0
 40
3.0
 40
4.0
 40
4.0
 40
4.0
 40
4.0
 10
109.5499063197123
 20
-142.5013641282327
 30
0.0
 10
109.5988013184649
 20
-142.107240804954
 30
0.0
 10
109.9574351982043
 20
-141.8275233120902
 30
0.0
 10
110.3519112992515
 20
-141.8760655330741
 30
0.0
 10
110.7463874002987
 20
-141.9246430318347
 30
0.0
 10
111.0257873931706
 20
-142.2826066338134
 30
0.0
 10
110.9775273944018
 20
-142.6770827348606
 30
0.0
 10
110.9293026734099
 20
-143.0722291136685
 30
0.0
 10
110.5710215714393
 20
-143.3522993843011
 30
0.0
 10
110.1765454703921
 20
-143.3037218855404
 30
0.0
 10
109.781751869353
 20
-143.2551443867797
 30
0.0
 10
109.5016463209436
 20
-142.8968632848091
 30
0.0
 10
109.5499063197123
 20
-142.5013641282327
 30
0.0
  0
SPLINE
  5
E0
330
CE
100
AcDbEntity
  8
レイヤー 1
 62
   250
420
  2299925
370
    25
100
AcDbSpline
210
0.0
220
0.0
230
1.0
 70
     9
 71
     3
 72
    17
 73
    13
 74
     0
 42
0.0000000001
 43
0.0000000001
 40
0.0
 40
0.0
 40
0.0
 40
0.0
 40
1.0
 40
1.0
 40
1.0
 40
2.0
 40
2.0
 40
2.0
 40
3.0
 40
3.0
 40
3.0
 40
4.0
 40
4.0
 40
4.0
 40
4.0
 10
107.1572616585316
 20
-142.4183555192391
 30
0.0
 10
107.2058391572922
 20
-142.0238794181919
 30
0.0
 10
107.5641555370397
 20
-141.7441266475512
 30
0.0
 10
107.9589491380788
 20
-141.7923513685431
 30
0.0
 10
108.353425239126
 20
-141.8406113673119
 30
0.0
 10
108.6334955097586
 20
-142.1988924692825
 30
0.0
 10
108.5852707887667
 20
-142.5936860703216
 30
0.0
 10
108.5366958993442
 20
-142.9885149491375
 30
0.0
 10
108.1780594102666
 20
-143.2685852197701
 30
0.0
 10
107.7835833092194
 20
-143.2200077210094
 30
0.0
 10
107.3891424859491
 20
-143.1717830000175
 30
0.0
 10
107.1090369375397
 20
-142.8135018980469
 30
0.0
 10
107.1572616585316
 20
-142.4183555192391
 30
0.0
  0
SPLINE
  5
E1
330
CE
100
AcDbEntity
  8
レイヤー 1
 62
   250
420
  2299925
370
    25
100
AcDbSpline
210
0.0
220
0.0
230
1.0
 70
     9
 71
     3
 72
    17
 73
    13
 74
     0
 42
0.0000000001
 43
0.0000000001
 40
0.0
 40
0.0
 40
0.0
 40
0.0
 40
1.0
 40
1.0
 40
1.0
 40
2.0
 40
2.0
 40
2.0
 40
3.0
 40
3.0
 40
3.0
 40
4.0
 40
4.0
 40
4.0
 40
4.0
 10
111.9407870920492
 20
-142.5854298889634
 30
0.0
 10
111.9890118130411
 20
-142.190954969485
 30
0.0
 10
112.3469754150198
 20
-141.9108846988524
 30
0.0
 10
112.7414162382901
 20
-141.9594621976131
 30
0.0
 10
113.1365978948749
 20
-142.0080396963737
 30
0.0
 10
113.4166708981238
 20
-142.3659680205756
 30
0.0
 10
113.367737888978
 20
-142.7611132222533
 30
0.0
 10
113.3195131679861
 20
-143.1559432781994
 30
0.0
 10
112.9612347871274
 20
-143.4356607710632
 30
0.0
 10
112.5667559649683
 20
-143.3874360500713
 30
0.0
 10
112.172315141698
 20
-143.3392113290794
 30
0.0
 10
111.8925623710573
 20
-142.9802246715713
 30
0.0
 10
111.9407870920492
 20
-142.5854298889634
 30
0.0
  0
SPLINE
  5
E2
330
CE
100
AcDbEntity
  8
レイヤー 1
 62
   250
420
  2299925
370
    25
100
AcDbSpline
210
0.0
220
0.0
230
1.0
 70
     9
 71
     3
 72
    17
 73
    13
 74
     0
 42
0.0000000001
 43
0.0000000001
 40
0.0
 40
0.0
 40
0.0
 40
0.0
 40
1.0
 40
1.0
 40
1.0
 40
2.0
 40
2.0
 40
2.0
 40
3.0
 40
3.0
 40
3.0
 40
4.0
 40
4.0
 40
4.0
 40
4.0
 10
114.3330789754612
 20
-142.6694980128319
 30
0.0
 10
114.3816564742219
 20
-142.2746691340159
 30
0.0
 10
114.7402931200153
 20
-141.9945988633833
 30
0.0
 10
115.1343783994628
 20
-142.043176362144
 30
0.0
 10
115.5295600560475
 20
-142.0914010831359
 30
0.0
 10
115.8092775489114
 20
-142.4496821851065
 30
0.0
 10
115.7610528279194
 20
-142.8445110639225
 30
0.0
 10
115.7124753291588
 20
-143.2393046649616
 30
0.0
 10
115.3541942271882
 20
-143.5190574356023
 30
0.0
 10
114.9590478483803
 20
-143.4708327146103
 30
0.0
 10
114.5649245251019
 20
-143.4225715554213
 30
0.0
 10
114.2848189766924
 20
-143.0636213361103
 30
0.0
 10
114.3330789754612
 20
-142.6694980128319
 30
0.0
  0
SPLINE
  5
E3
330
CE
100
AcDbEntity
  8
レイヤー 1
 62
   250
420
  2299925
370
    25
100
AcDbSpline
210
0.0
220
0.0
230
1.0
 70
     9
 71
     3
 72
    17
 73
    13
 74
     0
 42
0.0000000001
 43
0.0000000001
 40
0.0
 40
0.0
 40
0.0
 40
0.0
 40
1.0
 40
1.0
 40
1.0
 40
2.0
 40
2.0
 40
2.0
 40
3.0
 40
3.0
 40
3.0
 40
4.0
 40
4.0
 40
4.0
 40
4.0
 10
116.7256883588651
 20
-142.752859399594
 30
0.0
 10
116.7746186353946
 20
-142.3580657985549
 30
0.0
 10
117.1328997373652
 20
-142.0783130279143
 30
0.0
 10
117.5276933384042
 20
-142.1265377489065
 30
0.0
 10
117.9218166616827
 20
-142.1751152476669
 30
0.0
 10
118.202239710084
 20
-142.5337491274062
 30
0.0
 10
118.1540149890921
 20
-142.9278724506847
 30
0.0
 10
118.1057931191742
 20
-143.3226660517237
 30
0.0
 10
117.7468036105921
 20
-143.6027716001332
 30
0.0
 10
117.352010009553
 20
-143.5548632220549
 30
0.0
 10
116.957181130737
 20
-143.5062868803725
 30
0.0
 10
116.6781339156339
 20
-143.1476530006331
 30
0.0
 10
116.7256883588651
 20
-142.752859399594
 30
0.0
  0
SPLINE
  5
E4
330
CE
100
AcDbEntity
  8
レイヤー 1
 62
   250
420
  2299925
370
    25
100
AcDbSpline
210
0.0
220
0.0
230
1.0
 70
     9
 71
     3
 72
    17
 73
    13
 74
     0
 42
0.0000000001
 43
0.0000000001
 40
0.0
 40
0.0
 40
0.0
 40
0.0
 40
1.0
 40
1.0
 40
1.0
 40
2.0
 40
2.0
 40
2.0
 40
3.0
 40
3.0
 40
3.0
 40
4.0
 40
4.0
 40
4.0
 40
4.0
 10
109.4675679884796
 20
-144.8695260122601
 30
0.0
 10
109.5161454872403
 20
-144.4754026889816
 30
0.0
 10
109.8747820101201
 20
-144.195332418349
 30
0.0
 10
110.2688674124812
 20
-144.2432043615722
 30
0.0
 10
110.664049069066
 20
-144.2921346381016
 30
0.0
 10
110.9437665619298
 20
-144.6504157400722
 30
0.0
 10
110.8955418409379
 20
-145.0452093411113
 30
0.0
 10
110.8469643421772
 20
-145.4393326643897
 30
0.0
 10
110.4886832402066
 20
-145.719790990568
 30
0.0
 10
110.0938896391675
 20
-145.6715298881923
 30
0.0
 10
109.6990607603515
 20
-145.6233062708073
 30
0.0
 10
109.4189931213459
 20
-145.2643196132991
 30
0.0
 10
109.4675679884796
 20
-144.8695260122601
 30
0.0
  0
SPLINE
  5
E5
330
CE
100
AcDbEntity
  8
レイヤー 1
 62
   250
420
  2299925
370
    25
100
AcDbSpline
210
0.0
220
0.0
230
1.0
 70
     9
 71
     3
 72
    17
 73
    13
 74
     0
 42
0.0000000001
 43
0.0000000001
 40
0.0
 40
0.0
 40
0.0
 40
0.0
 40
1.0
 40
1.0
 40
1.0
 40
2.0
 40
2.0
 40
2.0
 40
3.0
 40
3.0
 40
3.0
 40
4.0
 40
4.0
 40
4.0
 40
4.0
 10
107.074605827307
 20
-144.7861646254979
 30
0.0
 10
107.1231833260676
 20
-144.3913357466819
 30
0.0
 10
107.481817205807
 20
-144.1116182538184
 30
0.0
 10
107.8759052513085
 20
-144.15984297481
 30
0.0
 10
108.2707341301245
 20
-144.2084204735707
 30
0.0
 10
108.5511597882286
 20
-144.5663487977725
 30
0.0
 10
108.502932457534
 20
-144.9614951765804
 30
0.0
 10
108.4540021810045
 20
-145.3553009998669
 30
0.0
 10
108.0957236772323
 20
-145.636076826037
 30
0.0
 10
107.7009274779948
 20
-145.588169605037
 30
0.0
 10
107.3064513769476
 20
-145.5395909993362
 30
0.0
 10
107.0263458285382
 20
-145.1806054487682
 30
0.0
 10
107.074605827307
 20
-144.7861646254979
 30
0.0
  0
SPLINE
  5
E6
330
CE
100
AcDbEntity
  8
レイヤー 1
 62
   250
420
  2299925
370
    25
100
AcDbSpline
210
0.0
220
0.0
230
1.0
 70
     9
 71
     3
 72
    17
 73
    13
 74
     0
 42
0.0000000001
 43
0.0000000001
 40
0.0
 40
0.0
 40
0.0
 40
0.0
 40
1.0
 40
1.0
 40
1.0
 40
2.0
 40
2.0
 40
2.0
 40
3.0
 40
3.0
 40
3.0
 40
4.0
 40
4.0
 40
4.0
 40
4.0
 10
107.2395999897643
 20
-140.0505111352034
 30
0.0
 10
107.2881774885249
 20
-139.6557175341643
 30
0.0
 10
107.6468113682643
 20
-139.3759647635236
 30
0.0
 10
108.0412874693115
 20
-139.4242247622924
 30
0.0
 10
108.4360810703506
 20
-139.473119761045
 30
0.0
 10
108.7161866187601
 20
-139.8310833630237
 30
0.0
 10
108.6676091199994
 20
-140.2262297418315
 30
0.0
 10
108.6193843990075
 20
-140.6200002873412
 30
0.0
 10
108.26106801926
 20
-140.9007761135113
 30
0.0
 10
107.8662744182209
 20
-140.8521986147506
 30
0.0
 10
107.4714808171818
 20
-140.8043266715275
 30
0.0
 10
107.1910224910036
 20
-140.4449872362505
 30
0.0
 10
107.2395999897643
 20
-140.0505111352034
 30
0.0
  0
SPLINE
  5
E7
330
CE
100
AcDbEntity
  8
レイヤー 1
 62
   250
420
  2299925
370
    25
100
AcDbSpline
210
0.0
220
0.0
230
1.0
 70
     9
 71
     3
 72
    17
 73
    13
 74
     0
 42
0.0000000001
 43
0.0000000001
 40
0.0
 40
0.0
 40
0.0
 40
0.0
 40
1.0
 40
1.0
 40
1.0
 40
2.0
 40
2.0
 40
2.0
 40
3.0
 40
3.0
 40
3.0
 40
4.0
 40
4.0
 40
4.0
 40
4.0
 10
104.6816436661343
 20
-144.7027679609589
 30
0.0
 10
104.7302236780736
 20
-144.3079743599198
 30
0.0
 10
105.0888550446346
 20
-144.0282215892794
 30
0.0
 10
105.4832958679047
 20
-144.0761288102791
 30
0.0
 10
105.8781247467206
 20
-144.1247063090398
 30
0.0
 10
106.158547795122
 20
-144.4829874110103
 30
0.0
 10
106.1099702963613
 20
-144.8784854439457
 30
0.0
 10
106.0613927976006
 20
-145.2722571130966
 30
0.0
 10
105.7027589178612
 20
-145.5530329392668
 30
0.0
 10
105.3079300390456
 20
-145.5041026627373
 30
0.0
 10
104.9134892157753
 20
-145.4558779417454
 30
0.0
 10
104.6333836673658
 20
-145.0968912842373
 30
0.0
 10
104.6816436661343
 20
-144.7027679609589
 30
0.0
  0
SPLINE
  5
E8
330
CE
100
AcDbEntity
  8
レイヤー 1
 62
   250
420
  2299925
370
    25
100
AcDbSpline
210
0.0
220
0.0
230
1.0
 70
     9
 71
     3
 72
    17
 73
    13
 74
     0
 42
0.0000000001
 43
0.0000000001
 40
0.0
 40
0.0
 40
0.0
 40
0.0
 40
1.0
 40
1.0
 40
1.0
 40
2.0
 40
2.0
 40
2.0
 40
3.0
 40
3.0
 40
3.0
 40
4.0
 40
4.0
 40
4.0
 40
4.0
 10
104.7642994973595
 20
-142.3346413547081
 30
0.0
 10
104.8128769961199
 20
-141.9405180314297
 30
0.0
 10
105.1715108758589
 20
-141.6604124830203
 30
0.0
 10
105.5659869769061
 20
-141.7083197040203
 30
0.0
 10
105.9607805779452
 20
-141.7568972027809
 30
0.0
 10
106.2412389041235
 20
-142.1155298890807
 30
0.0
 10
106.192308627594
 20
-142.5103246835594
 30
0.0
 10
106.1440839066021
 20
-142.9044480068378
 30
0.0
 10
105.7854500268627
 20
-143.185223833008
 30
0.0
 10
105.3906236779083
 20
-143.1366463342473
 30
0.0
 10
104.9961803247768
 20
-143.0880688354866
 30
0.0
 10
104.7157219985985
 20
-142.7294349557472
 30
0.0
 10
104.7642994973595
 20
-142.3346413547081
 30
0.0
  0
SPLINE
  5
E9
330
CE
100
AcDbEntity
  8
レイヤー 1
 62
   250
420
  2299925
370
    25
100
AcDbSpline
210
0.0
220
0.0
230
1.0
 70
     9
 71
     3
 72
    17
 73
    13
 74
     0
 42
0.0000000001
 43
0.0000000001
 40
0.0
 40
0.0
 40
0.0
 40
0.0
 40
1.0
 40
1.0
 40
1.0
 40
2.0
 40
2.0
 40
2.0
 40
3.0
 40
3.0
 40
3.0
 40
4.0
 40
4.0
 40
4.0
 40
4.0
 10
102.2886815049623
 20
-144.6190537964282
 30
0.0
 10
102.3372590037226
 20
-144.2246129731576
 30
0.0
 10
102.695892883462
 20
-143.9445074247481
 30
0.0
 10
103.0903337067323
 20
-143.9924146457481
 30
0.0
 10
103.4851625855479
 20
-144.0416624222695
 30
0.0
 10
103.7655856339496
 20
-144.3996260242485
 30
0.0
 10
103.717008135189
 20
-144.7944196252873
 30
0.0
 10
103.6684306364283
 20
-145.1885429485657
 30
0.0
 10
103.3101495344577
 20
-145.4693187747358
 30
0.0
 10
102.9153206556417
 20
-145.4207412759752
 30
0.0
 10
102.5205270546026
 20
-145.3725165549832
 30
0.0
 10
102.2404215061931
 20
-145.0135298974751
 30
0.0
 10
102.2886815049623
 20
-144.6190537964282
 30
0.0
  0
SPLINE
  5
EA
330
CE
100
AcDbEntity
  8
レイヤー 1
 62
   250
420
  2299925
370
    25
100
AcDbSpline
210
0.0
220
0.0
230
1.0
 70
     9
 71
     3
 72
    17
 73
    13
 74
     0
 42
0.0000000001
 43
0.0000000001
 40
0.0
 40
0.0
 40
0.0
 40
0.0
 40
1.0
 40
1.0
 40
1.0
 40
2.0
 40
2.0
 40
2.0
 40
3.0
 40
3.0
 40
3.0
 40
4.0
 40
4.0
 40
4.0
 40
4.0
 10
111.8584514540697
 20
-144.953240176791
 30
0.0
 10
111.9070262595772
 20
-144.5587640757438
 30
0.0
 10
112.2649898615559
 20
-144.27904658288
 30
0.0
 10
112.6587604070655
 20
-144.3272713038719
 30
0.0
 10
113.0535540081046
 20
-144.3754960248638
 30
0.0
 10
113.333977056506
 20
-144.7344826823719
 30
0.0
 10
113.2857523355141
 20
-145.1286048883279
 30
0.0
 10
113.2371748367534
 20
-145.5230468289207
 30
0.0
 10
112.8788937347828
 20
-145.803821554826
 30
0.0
 10
112.4840648559668
 20
-145.7555979340992
 30
0.0
 10
112.0899768104653
 20
-145.7066676575695
 30
0.0
 10
111.8098712620558
 20
-145.3477162778382
 30
0.0
 10
111.8584514540697
 20
-144.953240176791
 30
0.0
  0
SPLINE
  5
EB
330
CE
100
AcDbEntity
  8
レイヤー 1
 62
   250
420
  2299925
370
    25
100
AcDbSpline
210
0.0
220
0.0
230
1.0
 70
     9
 71
     3
 72
    17
 73
    13
 74
     0
 42
0.0000000001
 43
0.0000000001
 40
0.0
 40
0.0
 40
0.0
 40
0.0
 40
1.0
 40
1.0
 40
1.0
 40
2.0
 40
2.0
 40
2.0
 40
3.0
 40
3.0
 40
3.0
 40
4.0
 40
4.0
 40
4.0
 40
4.0
 10
114.2503878664597
 20
-145.0369543413219
 30
0.0
 10
114.2989681201255
 20
-144.6424771106714
 30
0.0
 10
114.6575992449598
 20
-144.3624079696421
 30
0.0
 10
115.0517225682382
 20
-144.4106326906341
 30
0.0
 10
115.446868947046
 20
-144.458857411626
 30
0.0
 10
115.7272919954474
 20
-144.8174912913653
 30
0.0
 10
115.6787144966867
 20
-145.2119673924125
 30
0.0
 10
115.6301369979261
 20
-145.6067609934516
 30
0.0
 10
115.2718558959554
 20
-145.8872193196299
 30
0.0
 10
114.8767095171476
 20
-145.8386418208692
 30
0.0
 10
114.4822334161004
 20
-145.7900632214958
 30
0.0
 10
114.2021631454678
 20
-145.4314304423691
 30
0.0
 10
114.2503878664597
 20
-145.0369543413219
 30
0.0
  0
SPLINE
  5
EC
330
CE
100
AcDbEntity
  8
レイヤー 1
 62
   250
420
  2299925
370
    25
100
AcDbSpline
210
0.0
220
0.0
230
1.0
 70
     9
 71
     3
 72
    17
 73
    13
 74
     0
 42
0.0000000001
 43
0.0000000001
 40
0.0
 40
0.0
 40
0.0
 40
0.0
 40
1.0
 40
1.0
 40
1.0
 40
2.0
 40
2.0
 40
2.0
 40
3.0
 40
3.0
 40
3.0
 40
4.0
 40
4.0
 40
4.0
 40
4.0
 10
109.3004597880425
 20
-149.6492414458749
 30
0.0
 10
109.3490346581703
 20
-149.2554709003653
 30
0.0
 10
109.7076685379097
 20
-148.9746950741951
 30
0.0
 10
110.1021446389569
 20
-149.0229187762434
 30
0.0
 10
110.496938239996
 20
-149.0718500717165
 30
0.0
 10
110.7770437884054
 20
-149.4308367292246
 30
0.0
 10
110.7288190674135
 20
-149.8249600525031
 30
0.0
 10
110.6805590686448
 20
-150.2197536535421
 30
0.0
 10
110.3216076889135
 20
-150.4998592019516
 30
0.0
 10
109.9267788100975
 20
-150.4512817031909
 30
0.0
 10
109.5323379868272
 20
-150.4027042044303
 30
0.0
 10
109.2522324384177
 20
-150.0447406024516
 30
0.0
 10
109.3004597880425
 20
-149.6492414458749
 30
0.0
  0
SPLINE
  5
ED
330
CE
100
AcDbEntity
  8
レイヤー 1
 62
   250
420
  2299925
370
    25
100
AcDbSpline
210
0.0
220
0.0
230
1.0
 70
     9
 71
     3
 72
    17
 73
    13
 74
     0
 42
0.0000000001
 43
0.0000000001
 40
0.0
 40
0.0
 40
0.0
 40
0.0
 40
1.0
 40
1.0
 40
1.0
 40
2.0
 40
2.0
 40
2.0
 40
3.0
 40
3.0
 40
3.0
 40
4.0
 40
4.0
 40
4.0
 40
4.0
 10
106.907494998237
 20
-149.5658800591128
 30
0.0
 10
106.9560724969977
 20
-149.1714039580656
 30
0.0
 10
107.314706376737
 20
-148.8913326651647
 30
0.0
 10
107.7091824777842
 20
-148.9399111861937
 30
0.0
 10
108.1039760788233
 20
-148.9884886849543
 30
0.0
 10
108.3840816272328
 20
-149.3471215539401
 30
0.0
 10
108.3358569062409
 20
-149.741563387964
 30
0.0
 10
108.2872820105169
 20
-150.1360394890112
 30
0.0
 10
107.9286455277408
 20
-150.4161450374207
 30
0.0
 10
107.5341694266936
 20
-150.3678850386519
 30
0.0
 10
107.1393758256545
 20
-150.3189900398993
 30
0.0
 10
106.8592702772451
 20
-149.9606736601518
 30
0.0
 10
106.907494998237
 20
-149.5658800591128
 30
0.0
  0
SPLINE
  5
EE
330
CE
100
AcDbEntity
  8
レイヤー 1
 62
   250
420
  2299925
370
    25
100
AcDbSpline
210
0.0
220
0.0
230
1.0
 70
     9
 71
     3
 72
    17
 73
    13
 74
     0
 42
0.0000000001
 43
0.0000000001
 40
0.0
 40
0.0
 40
0.0
 40
0.0
 40
1.0
 40
1.0
 40
1.0
 40
2.0
 40
2.0
 40
2.0
 40
3.0
 40
3.0
 40
3.0
 40
4.0
 40
4.0
 40
4.0
 40
4.0
 10
104.5148856148334
 20
-149.4825186723506
 30
0.0
 10
104.5634631135944
 20
-149.0883953490722
 30
0.0
 10
104.9220969933335
 20
-148.807619522902
 30
0.0
 10
105.3165730943806
 20
-148.8561970216627
 30
0.0
 10
105.7113666954194
 20
-148.9047745204234
 30
0.0
 10
105.9911194660601
 20
-149.2634084001628
 30
0.0
 10
105.9428947450682
 20
-149.6582020012018
 30
0.0
 10
105.8946347462994
 20
-150.0526771093192
 30
0.0
 10
105.53600086656
 20
-150.3327483728816
 30
0.0
 10
105.141209789082
 20
-150.2838533741291
 30
0.0
 10
104.7467311644741
 20
-150.2355933753602
 30
0.0
 10
104.4663081160724
 20
-149.8773122733897
 30
0.0
 10
104.5148856148334
 20
-149.4825186723506
 30
0.0
  0
SPLINE
  5
EF
330
CE
100
AcDbEntity
  8
レイヤー 1
 62
   250
420
  2299925
370
    25
100
AcDbSpline
210
0.0
220
0.0
230
1.0
 70
     9
 71
     3
 72
    17
 73
    13
 74
     0
 42
0.0000000001
 43
0.0000000001
 40
0.0
 40
0.0
 40
0.0
 40
0.0
 40
1.0
 40
1.0
 40
1.0
 40
2.0
 40
2.0
 40
2.0
 40
3.0
 40
3.0
 40
3.0
 40
4.0
 40
4.0
 40
4.0
 40
4.0
 10
106.8241336114748
 20
-151.9588422202854
 30
0.0
 10
106.8723583324667
 20
-151.5643661192382
 30
0.0
 10
107.2309922122061
 20
-151.2839430708369
 30
0.0
 10
107.625823677349
 20
-151.3325205695975
 30
0.0
 10
108.0202619142924
 20
-151.381450846127
 30
0.0
 10
108.3003674627018
 20
-151.7397319480976
 30
0.0
 10
108.2521427417099
 20
-152.133855271376
 30
0.0
 10
108.2035652429492
 20
-152.5286488724151
 30
0.0
 10
107.8449313632099
 20
-152.8091071985933
 30
0.0
 10
107.4504552621627
 20
-152.7601769220639
 30
0.0
 10
107.0556616611236
 20
-152.711952201072
 30
0.0
 10
106.7759088904829
 20
-152.3536358213245
 30
0.0
 10
106.8241336114748
 20
-151.9588422202854
 30
0.0
  0
SPLINE
  5
F0
330
CE
100
AcDbEntity
  8
レイヤー 1
 62
   250
420
  2299925
370
    25
100
AcDbSpline
210
0.0
220
0.0
230
1.0
 70
     9
 71
     3
 72
    17
 73
    13
 74
     0
 42
0.0000000001
 43
0.0000000001
 40
0.0
 40
0.0
 40
0.0
 40
0.0
 40
1.0
 40
1.0
 40
1.0
 40
2.0
 40
2.0
 40
2.0
 40
3.0
 40
3.0
 40
3.0
 40
4.0
 40
4.0
 40
4.0
 40
4.0
 10
111.7754401518231
 20
-147.340346227002
 30
0.0
 10
111.823664872815
 20
-146.9458701259548
 30
0.0
 10
112.1815958984325
 20
-146.6650942997846
 30
0.0
 10
112.5757165202953
 20
-146.7140245763141
 30
0.0
 10
112.9705453991112
 20
-146.7629548528439
 30
0.0
 10
113.2506156697438
 20
-147.1212359548141
 30
0.0
 10
113.2016853932144
 20
-147.5160648336301
 30
0.0
 10
113.1538134499912
 20
-147.9105056569004
 30
0.0
 10
112.7948267924831
 20
-148.1906112053099
 30
0.0
 10
112.4003506914359
 20
-148.1416798875743
 30
0.0
 10
112.0065801459263
 20
-148.0934562077885
 30
0.0
 10
111.7268653429904
 20
-147.7348223280491
 30
0.0
 10
111.7754401518231
 20
-147.340346227002
 30
0.0
  0
SPLINE
  5
F1
330
CE
100
AcDbEntity
  8
レイヤー 1
 62
   250
420
  2299925
370
    25
100
AcDbSpline
210
0.0
220
0.0
230
1.0
 70
     9
 71
     3
 72
    17
 73
    13
 74
     0
 42
0.0000000001
 43
0.0000000001
 40
0.0
 40
0.0
 40
0.0
 40
0.0
 40
1.0
 40
1.0
 40
1.0
 40
2.0
 40
2.0
 40
2.0
 40
3.0
 40
3.0
 40
3.0
 40
4.0
 40
4.0
 40
4.0
 40
4.0
 10
112.1950340300073
 20
-135.3738068100716
 30
0.0
 10
112.2439643065368
 20
-134.9796834867932
 30
0.0
 10
112.6025981862761
 20
-134.6985548828542
 30
0.0
 10
112.9967215095545
 20
-134.7474851593837
 30
0.0
 10
113.3908448328329
 20
-134.7957098803756
 30
0.0
 10
113.6702448257049
 20
-135.1554020934213
 30
0.0
 10
113.6219875647399
 20
-135.5495254166998
 30
0.0
 10
113.5737601059442
 20
-135.9436134622013
 30
0.0
 10
113.2154790039736
 20
-136.2243892883717
 30
0.0
 10
112.8217084584639
 20
-136.1758104461214
 30
0.0
 10
112.4272323574167
 20
-136.1272695686269
 30
0.0
 10
112.1468093090154
 20
-135.7686004111107
 30
0.0
 10
112.1950340300073
 20
-135.3738068100716
 30
0.0
  0
SPLINE
  5
F2
330
CE
100
AcDbEntity
  8
レイヤー 1
 62
   250
420
  2299925
370
    25
100
AcDbSpline
210
0.0
220
0.0
230
1.0
 70
     9
 71
     3
 72
    17
 73
    13
 74
     0
 42
0.0000000001
 43
0.0000000001
 40
0.0
 40
0.0
 40
0.0
 40
0.0
 40
1.0
 40
1.0
 40
1.0
 40
2.0
 40
2.0
 40
2.0
 40
3.0
 40
3.0
 40
3.0
 40
4.0
 40
4.0
 40
4.0
 40
4.0
 10
99.81232267925058
 20
-146.9575823478782
 30
0.0
 10
99.86090017801094
 20
-146.5627887468391
 30
0.0
 10
100.2195340577503
 20
-146.2830359761984
 30
0.0
 10
100.6140125679914
 20
-146.3312959749672
 30
0.0
 10
101.0088037598369
 20
-146.3801909737198
 30
0.0
 10
101.288909308246
 20
-146.7381545756985
 30
0.0
 10
101.2403318094853
 20
-147.1333009545063
 30
0.0
 10
101.1921070884937
 20
-147.527071500016
 30
0.0
 10
100.8337931234922
 20
-147.8078473261861
 30
0.0
 10
100.4389971077069
 20
-147.7592687765592
 30
0.0
 10
100.0442035066678
 20
-147.7113978842023
 30
0.0
 10
99.76374518048956
 20
-147.3520584489254
 30
0.0
 10
99.81232267925058
 20
-146.9575823478782
 30
0.0
  0
SPLINE
  5
F3
330
CE
100
AcDbEntity
  8
レイヤー 1
 62
   250
420
  2299925
370
    25
100
AcDbSpline
210
0.0
220
0.0
230
1.0
 70
     9
 71
     3
 72
    17
 73
    13
 74
     0
 42
0.0000000001
 43
0.0000000001
 40
0.0
 40
0.0
 40
0.0
 40
0.0
 40
1.0
 40
1.0
 40
1.0
 40
2.0
 40
2.0
 40
2.0
 40
3.0
 40
3.0
 40
3.0
 40
4.0
 40
4.0
 40
4.0
 40
4.0
 10
102.121570675892
 20
-149.4280850626282
 30
0.0
 10
102.1701481746529
 20
-149.0332561838122
 30
0.0
 10
102.528782054392
 20
-148.7535386909484
 30
0.0
 10
102.9232581554392
 20
-148.8017634119403
 30
0.0
 10
103.318054233982
 20
-148.8506936884698
 30
0.0
 10
103.5981597894678
 20
-149.2086220126716
 30
0.0
 10
103.5495798061271
 20
-149.6037683914795
 30
0.0
 10
103.5013550851352
 20
-149.9975389369891
 30
0.0
 10
103.1430387053877
 20
-150.2783147631592
 30
0.0
 10
102.7482451043489
 20
-150.2297372643986
 30
0.0
 10
102.3534162255326
 20
-150.1818653211754
 30
0.0
 10
102.0729931771313
 20
-149.8225258858985
 30
0.0
 10
102.121570675892
 20
-149.4280850626282
 30
0.0
  0
SPLINE
  5
F4
330
CE
100
AcDbEntity
  8
レイヤー 1
 62
   250
420
  2299925
370
    25
100
AcDbSpline
210
0.0
220
0.0
230
1.0
 70
     9
 71
     3
 72
    17
 73
    13
 74
     0
 42
0.0000000001
 43
0.0000000001
 40
0.0
 40
0.0
 40
0.0
 40
0.0
 40
1.0
 40
1.0
 40
1.0
 40
2.0
 40
2.0
 40
2.0
 40
3.0
 40
3.0
 40
3.0
 40
4.0
 40
4.0
 40
4.0
 40
4.0
 10
104.4311714503028
 20
-151.9047604421895
 30
0.0
 10
104.479751455914
 20
-151.5099325095158
 30
0.0
 10
104.8383828288028
 20
-151.230215016652
 30
0.0
 10
105.2328589298497
 20
-151.2784397376439
 30
0.0
 10
105.6276525308885
 20
-151.3273700141734
 30
0.0
 10
105.9077228015211
 20
-151.6852983383752
 30
0.0
 10
105.8591453027604
 20
-152.0804437754788
 30
0.0
 10
105.8109205817685
 20
-152.4742152626927
 30
0.0
 10
105.4526394797982
 20
-152.7549910888629
 30
0.0
 10
105.0578458787591
 20
-152.7064135901022
 30
0.0
 10
104.6630169999435
 20
-152.658541646879
 30
0.0
 10
104.3825939515418
 20
-152.2992022116021
 30
0.0
 10
104.4311714503028
 20
-151.9047604421895
 30
0.0
  0
SPLINE
  5
F5
330
CE
100
AcDbEntity
  8
レイヤー 1
 62
   250
420
  2299925
370
    25
100
AcDbSpline
210
0.0
220
0.0
230
1.0
 70
     9
 71
     3
 72
    17
 73
    13
 74
     0
 42
0.0000000001
 43
0.0000000001
 40
0.0
 40
0.0
 40
0.0
 40
0.0
 40
1.0
 40
1.0
 40
1.0
 40
2.0
 40
2.0
 40
2.0
 40
3.0
 40
3.0
 40
3.0
 40
4.0
 40
4.0
 40
4.0
 40
4.0
 10
116.8944925212252
 20
-137.9338445225374
 30
0.0
 10
116.9434227977547
 20
-137.5397564770358
 30
0.0
 10
117.302056677494
 20
-137.2586278730972
 30
0.0
 10
117.6961800007725
 20
-137.3075581496264
 30
0.0
 10
118.0902708969552
 20
-137.3557828706183
 30
0.0
 10
118.3696708968859
 20
-137.7154398058871
 30
0.0
 10
118.321443318154
 20
-138.1095631291655
 30
0.0
 10
118.2732185971621
 20
-138.5036864524439
 30
0.0
 10
117.9149403414437
 20
-138.7844622786141
 30
0.0
 10
117.5211669496819
 20
-138.7358847798534
 30
0.0
 10
117.1266908486347
 20
-138.6873072810927
 30
0.0
 10
116.8462678002333
 20
-138.3286734013533
 30
0.0
 10
116.8944925212252
 20
-137.9338445225374
 30
0.0
  0
SPLINE
  5
F6
330
CE
100
AcDbEntity
  8
レイヤー 1
 62
   250
420
  2299925
370
    25
100
AcDbSpline
210
0.0
220
0.0
230
1.0
 70
     9
 71
     3
 72
    17
 73
    13
 74
     0
 42
0.0000000001
 43
0.0000000001
 40
0.0
 40
0.0
 40
0.0
 40
0.0
 40
1.0
 40
1.0
 40
1.0
 40
2.0
 40
2.0
 40
2.0
 40
3.0
 40
3.0
 40
3.0
 40
4.0
 40
4.0
 40
4.0
 40
4.0
 10
114.5848917468147
 20
-135.4578737523713
 30
0.0
 10
114.6338220233442
 20
-135.0637504290929
 30
0.0
 10
114.9924559030836
 20
-134.782621825154
 30
0.0
 10
115.3865820087433
 20
-134.8315521016834
 30
0.0
 10
115.7807025496404
 20
-134.8797768226753
 30
0.0
 10
116.0601025425123
 20
-135.2394337579442
 30
0.0
 10
116.0118425437435
 20
-135.6335570812229
 30
0.0
 10
115.9636178227516
 20
-136.027680404501
 30
0.0
 10
115.605336720781
 20
-136.3084548905328
 30
0.0
 10
115.2115661752714
 20
-136.2598787319104
 30
0.0
 10
114.8170900742242
 20
-136.2113012331498
 30
0.0
 10
114.5366670258228
 20
-135.852666001758
 30
0.0
 10
114.5848917468147
 20
-135.4578737523713
 30
0.0
  0
SPLINE
  5
F7
330
CE
100
AcDbEntity
  8
レイヤー 1
 62
   250
420
  2299925
370
    25
100
AcDbSpline
210
0.0
220
0.0
230
1.0
 70
     9
 71
     3
 72
    17
 73
    13
 74
     0
 42
0.0000000001
 43
0.0000000001
 40
0.0
 40
0.0
 40
0.0
 40
0.0
 40
1.0
 40
1.0
 40
1.0
 40
2.0
 40
2.0
 40
2.0
 40
3.0
 40
3.0
 40
3.0
 40
4.0
 40
4.0
 40
4.0
 40
4.0
 10
119.2033877400982
 20
-140.4146836259126
 30
0.0
 10
119.2523208966653
 20
-140.0205603026341
 30
0.0
 10
119.610951896367
 20
-139.7394316986952
 30
0.0
 10
120.0050752196454
 20
-139.7883619752247
 30
0.0
 10
120.3992014519342
 20
-139.8365854452063
 30
0.0
 10
120.6786014518636
 20
-140.1962436314854
 30
0.0
 10
120.630338537027
 20
-140.5903669547638
 30
0.0
 10
120.582113816035
 20
-140.9844902780422
 30
0.0
 10
120.2238327140644
 20
-141.2652661042124
 30
0.0
 10
119.8300621685548
 20
-141.2166886054517
 30
0.0
 10
119.4355860675076
 20
-141.168111106691
 30
0.0
 10
119.1551630191063
 20
-140.8094772269516
 30
0.0
 10
119.2033877400982
 20
-140.4146836259126
 30
0.0
  0
SPLINE
  5
F8
330
CE
100
AcDbEntity
  8
レイヤー 1
100
AcDbSpline
210
0.0
220
0.0
230
1.0
 70
    11
 71
     3
 72
    17
 73
    13
 74
     0
 42
0.0000000001
 43
0.0000000001
 40
0.0
 40
0.0
 40
0.0
 40
0.0
 40
1.0
 40
1.0
 40
1.0
 40
2.0
 40
2.0
 40
2.0
 40
3.0
 40
3.0
 40
3.0
 40
4.0
 40
4.0
 40
4.0
 40
4.0
 10
100.2546707235205
 20
-144.3017654711893
 30
0.0
 10
100.2546707235205
 20
-138.7792764454131
 30
0.0
 10
104.7312442204247
 20
-134.3023854485169
 30
0.0
 10
110.2540860239694
 20
-134.3023854485169
 30
0.0
 10
115.7693078277088
 20
-134.3023854485169
 30
0.0
 10
120.2376292297516
 20
-138.7792764454131
 30
0.0
 10
120.2376292297516
 20
-144.3017654711893
 30
0.0
 10
120.2376292297516
 20
-149.8242544969655
 30
0.0
 10
115.7693078277088
 20
-154.3022029415899
 30
0.0
 10
110.2540860239694
 20
-154.3022029415899
 30
0.0
 10
104.7312442204247
 20
-154.3022029415899
 30
0.0
 10
100.2546707235205
 20
-149.8242544969655
 30
0.0
 10
100.2546707235205
 20
-144.3017654711893
 30
0.0
  0
ENDBLK
  5
D1
330
CE
100
AcDbEntity
  8
0
100
AcDbBlockEnd
  0
ENDSEC
  0
SECTION
  2
ENTITIES
  0
INSERT
  5
7A
330
70
100
AcDbEntity
  8
レイヤー 1
100
AcDbBlockReference
  2
Block_0
 10
0.0
 20
0.0
 30
0.0
  0
LINE
  5
A8
330
70
100
AcDbEntity
  8
レイヤー 1
  6
AI-Linetype-0
 62
   154
420
    23468
370
    25
100
AcDbLine
 10
86.46368505046178
 20
-121.1662180434833
 30
0.0
 11
86.46368505046178
 21
-136.1661523830253
 31
0.0
  0
LINE
  5
AA
330
70
100
AcDbEntity
  8
レイヤー 1
  6
AI-Linetype-1
 62
   154
420
    23468
370
    25
100
AcDbLine
 10
117.9757709131875
 20
-169.1425834861709
 30
0.0
 11
132.9757438951385
 21
-169.1425834861709
 31
0.0
  0
INSERT
  5
AD
330
70
100
AcDbEntity
  8
レイヤー 1
100
AcDbBlockReference
  2
Block_5
 10
0.0
 20
0.0
 30
0.0
  0
LINE
  5
C7
330
70
100
AcDbEntity
  8
レイヤー 1
 62
   250
420
  2299925
370
     9
100
AcDbLine
 10
116.7809409978787
 20
-168.8648061494597
 30
0.0
 11
115.9398560121839
 21
-168.3239629625543
 31
0.0
  0
LINE
  5
C8
330
70
100
AcDbEntity
  8
レイヤー 1
 62
   250
420
  2299925
370
     9
100
AcDbLine
 10
116.7809408646004
 20
-168.8648065653699
 30
0.0
 11
97.4796129393216
 21
-162.6796710870213
 31
0.0
  0
LINE
  5
C9
330
70
100
AcDbEntity
  8
レイヤー 1
 62
   250
420
  2299925
370
     9
100
AcDbLine
 10
116.7809409978787
 20
-168.8648061494597
 30
0.0
 11
115.7819467477071
 21
-168.8167344639676
 31
0.0
  0
LINE
  5
CA
330
70
100
AcDbEntity
  8
レイヤー 1
 62
   250
420
  2299925
370
     9
100
AcDbLine
 10
86.89461770049971
 20
-136.9118116315589
 30
0.0
 11
86.9295559047328
 21
-137.9111687388377
 31
0.0
  0
LINE
  5
CB
330
70
100
AcDbEntity
  8
レイヤー 1
 62
   250
420
  2299925
370
     9
100
AcDbLine
 10
86.89830515066399
 20
-136.9228971620274
 30
0.0
 11
93.16956444706798
 21
-157.4655020079124
 31
0.0
  0
LINE
  5
CC
330
70
100
AcDbEntity
  8
レイヤー 1
 62
   250
420
  2299925
370
     9
100
AcDbLine
 10
86.89461770049971
 20
-136.9118116315589
 30
0.0
 11
87.42446228949306
 21
-137.7600834690836
 31
0.0
  0
SPLINE
  5
CD
330
70
100
AcDbEntity
  8
レイヤー 1
 62
   250
420
  2299925
370
    25
100
AcDbSpline
210
0.0
220
0.0
230
1.0
 70
    11
 71
     3
 72
    17
 73
    13
 74
     0
 42
0.0000000001
 43
0.0000000001
 40
0.0
 40
0.0
 40
0.0
 40
0.0
 40
1.0
 40
1.0
 40
1.0
 40
2.0
 40
2.0
 40
2.0
 40
3.0
 40
3.0
 40
3.0
 40
4.0
 40
4.0
 40
4.0
 40
4.0
 10
100.2546707235205
 20
-144.3017654711893
 30
0.0
 10
100.2546707235205
 20
-138.7792764454131
 30
0.0
 10
104.7312442204247
 20
-134.3023854485169
 30
0.0
 10
110.2540860239694
 20
-134.3023854485169
 30
0.0
 10
115.7693078277088
 20
-134.3023854485169
 30
0.0
 10
120.2376292297516
 20
-138.7792764454131
 30
0.0
 10
120.2376292297516
 20
-144.3017654711893
 30
0.0
 10
120.2376292297516
 20
-149.8242544969655
 30
0.0
 10
115.7693078277088
 20
-154.3022029415899
 30
0.0
 10
110.2540860239694
 20
-154.3022029415899
 30
0.0
 10
104.7312442204247
 20
-154.3022029415899
 30
0.0
 10
100.2546707235205
 20
-149.8242544969655
 30
0.0
 10
100.2546707235205
 20
-144.3017654711893
 30
0.0
  0
INSERT
  5
CF
330
70
100
AcDbEntity
  8
レイヤー 1
100
AcDbBlockReference
  2
Block_7
 10
0.0
 20
0.0
 30
0.0
  0
ENDSEC
  0
SECTION
  2
OBJECTS
  0
DICTIONARY
  5
C
330
0
100
AcDbDictionary
281
     1
  3
ACAD_COLOR
350
63
  3
ACAD_DETAILVIEWSTYLE
350
6A
  3
ACAD_GROUP
350
D
  3
ACAD_LAYOUT
350
62
  3
ACAD_MATERIAL
350
10
  3
ACAD_MLEADERSTYLE
350
66
  3
ACAD_MLINESTYLE
350
5F
  3
ACAD_PLOTSETTINGS
350
61
  3
ACAD_PLOTSTYLENAME
350
E
  3
ACAD_SCALELIST
350
42
  3
ACAD_SECTIONVIEWSTYLE
350
68
  3
ACAD_TABLESTYLE
350
64
  3
ACAD_VISUALSTYLE
350
29
  3
ACDB_RECOMPOSE_DATA
350
101
  3
AcDbVariableDictionary
350
F9
  0
DICTIONARY
  5
63
102
{ACAD_REACTORS
330
C
102
}
330
C
100
AcDbDictionary
281
     1
  0
DICTIONARY
  5
6A
102
{ACAD_REACTORS
330
C
102
}
330
C
100
AcDbDictionary
281
     1
  3
Imperial24
350
6B
  0
DICTIONARY
  5
D
102
{ACAD_REACTORS
330
C
102
}
330
C
100
AcDbDictionary
281
     1
  0
DICTIONARY
  5
62
102
{ACAD_REACTORS
330
C
102
}
330
C
100
AcDbDictionary
281
     1
  3
Layout1
350
6F
  3
Layout2
350
77
  3
Model
350
73
  0
DICTIONARY
  5
10
102
{ACAD_REACTORS
330
C
102
}
330
C
100
AcDbDictionary
281
     1
  3
ByBlock
350
19
  3
ByLayer
350
11
  3
Global
350
21
  0
DICTIONARY
  5
66
102
{ACAD_REACTORS
330
C
102
}
330
C
100
AcDbDictionary
281
     1
  3
Standard
350
67
  0
DICTIONARY
  5
5F
102
{ACAD_REACTORS
330
C
102
}
330
C
100
AcDbDictionary
281
     1
  3
Standard
350
60
  0
DICTIONARY
  5
61
102
{ACAD_REACTORS
330
C
102
}
330
C
100
AcDbDictionary
281
     1
  0
ACDBDICTIONARYWDFLT
  5
E
102
{ACAD_REACTORS
330
C
102
}
330
C
100
AcDbDictionary
281
     1
  3
Normal
350
F
100
AcDbDictionaryWithDefault
340
F
  0
DICTIONARY
  5
42
102
{ACAD_REACTORS
330
C
102
}
330
C
100
AcDbDictionary
281
     1
  3
A0
350
43
  3
A1
350
44
  3
A2
350
45
  3
A3
350
46
  3
A4
350
47
  3
A5
350
48
  3
A6
350
49
  3
A7
350
4A
  3
A8
350
4B
  3
A9
350
4C
  3
B0
350
4D
  3
B1
350
4E
  3
B2
350
4F
  3
B3
350
50
  3
B4
350
51
  3
B5
350
52
  3
B6
350
53
  0
DICTIONARY
  5
68
102
{ACAD_REACTORS
330
C
102
}
330
C
100
AcDbDictionary
281
     1
  3
Imperial24
350
69
  0
DICTIONARY
  5
64
102
{ACAD_REACTORS
330
C
102
}
330
C
100
AcDbDictionary
281
     1
  3
Standard
350
65
  0
DICTIONARY
  5
29
102
{ACAD_REACTORS
330
C
102
}
330
C
100
AcDbDictionary
281
     1
  3
2dWireframe
350
2F
  3
Basic
350
2E
  3
Brighten
350
35
  3
ColorChange
350
39
  3
Conceptual
350
32
  3
Dim
350
34
  3
EdgeColorOff
350
41
  3
Facepattern
350
38
  3
Flat
350
2A
  3
FlatWithEdges
350
2B
  3
Gouraud
350
2C
  3
GouraudWithEdges
350
2D
  3
Hidden
350
31
  3
JitterOff
350
3F
  3
Linepattern
350
37
  3
OverhangOff
350
40
  3
Realistic
350
33
  3
Shaded
350
3E
  3
Shaded with edges
350
3D
  3
Shades of Gray
350
3A
  3
Sketchy
350
3B
  3
Thicken
350
36
  3
Wireframe
350
30
  3
X-Ray
350
3C
  0
XRECORD
  5
101
102
{ACAD_REACTORS
330
C
102
}
330
C
100
AcDbXrecord
280
     1
 90
        1
330
65
  0
DICTIONARY
  5
F9
102
{ACAD_REACTORS
330
C
102
}
330
C
100
AcDbDictionary
281
     1
  3
CANNOSCALE
350
FE
  3
CMLEADERSTYLE
350
FB
  3
CTABLESTYLE
350
FA
  3
CVIEWDETAILSTYLE
350
FC
  3
CVIEWSECTIONSTYLE
350
FD
  0
ACDBDETAILVIEWSTYLE
  5
6B
102
{ACAD_XDICTIONARY
360
136
102
}
102
{ACAD_REACTORS
330
6A
102
}
330
6A
100
AcDbModelDocViewStyle
 70
     0
  3
Imperial24
290
     0
100
AcDbDetailViewStyle
 70
     0
 71
     0
 90
        3
 71
     1
340
55
 62
   256
 40
0.24
340
0
 62
   256
 40
0.24
300

 40
0.36
280
     3
 71
     2
340
5D
 90
       25
 62
   256
 71
     3
340
55
 62
   256
 40
0.24
 90
        1
 40
0.75
 90
        1
300
%<\AcVar ViewType \f "%tc1">% %<\AcVar ViewDetailId>%\PSCALE %<\AcVar ViewScale \f "%sn">%
 71
     4
340
5D
 90
       25
 62
   256
340
5D
 90
       25
 62
   256
280
     0
  0
LAYOUT
  5
6F
102
{ACAD_REACTORS
330
62
102
}
330
62
100
AcDbPlotSettings
  1

  2

  4

  6

 40
0.0
 41
0.0
 42
0.0
 43
0.0
 44
0.0
 45
0.0
 46
0.0
 47
0.0
 48
0.0
 49
0.0
140
0.0
141
0.0
142
1.0
143
1.0
 70
   688
 72
     0
 73
     0
 74
     5
  7

 75
    16
147
1.0
 76
     0
 77
     2
 78
   300
148
0.0
149
0.0
100
AcDbLayout
  1
Layout1
 70
     1
 71
     1
 10
0.0
 20
0.0
 11
12.0
 21
9.0
 12
0.0
 22
0.0
 32
0.0
 14
0.0
 24
0.0
 34
0.0
 15
0.0
 25
0.0
 35
0.0
146
0.0
 13
0.0
 23
0.0
 33
0.0
 16
1.0
 26
0.0
 36
0.0
 17
0.0
 27
1.0
 37
0.0
 76
     0
330
6C
  0
LAYOUT
  5
77
102
{ACAD_REACTORS
330
62
102
}
330
62
100
AcDbPlotSettings
  1

  2

  4

  6

 40
0.0
 41
0.0
 42
0.0
 43
0.0
 44
0.0
 45
0.0
 46
0.0
 47
0.0
 48
0.0
 49
0.0
140
0.0
141
0.0
142
1.0
143
1.0
 70
   688
 72
     0
 73
     0
 74
     5
  7

 75
    16
147
1.0
 76
     0
 77
     2
 78
   300
148
0.0
149
0.0
100
AcDbLayout
  1
Layout2
 70
     1
 71
     2
 10
0.0
 20
0.0
 11
12.0
 21
9.0
 12
0.0
 22
0.0
 32
0.0
 14
0.0
 24
0.0
 34
0.0
 15
0.0
 25
0.0
 35
0.0
146
0.0
 13
0.0
 23
0.0
 33
0.0
 16
1.0
 26
0.0
 36
0.0
 17
0.0
 27
1.0
 37
0.0
 76
     0
330
74
  0
LAYOUT
  5
73
102
{ACAD_REACTORS
330
62
102
}
330
62
100
AcDbPlotSettings
  1

  2

  4

  6

 40
0.0
 41
0.0
 42
0.0
 43
0.0
 44
0.0
 45
0.0
 46
0.0
 47
0.0
 48
0.0
 49
0.0
140
0.0
141
0.0
142
1.0
143
1.0
 70
  1712
 72
     0
 73
     0
 74
     0
  7

 75
     0
147
1.0
 76
     0
 77
     2
 78
   300
148
0.0
149
0.0
100
AcDbLayout
  1
Model
 70
     1
 71
     0
 10
0.0
 20
0.0
 11
12.0
 21
9.0
 12
0.0
 22
0.0
 32
0.0
 14
0.0
 24
0.0
 34
0.0
 15
0.0
 25
0.0
 35
0.0
146
0.0
 13
0.0
 23
0.0
 33
0.0
 16
1.0
 26
0.0
 36
0.0
 17
0.0
 27
1.0
 37
0.0
 76
     0
330
70
  0
MATERIAL
  5
19
102
{ACAD_XDICTIONARY
360
1A
102
}
102
{ACAD_REACTORS
330
10
102
}
330
10
100
AcDbMaterial
  1
ByBlock
 72
     0
 43
0.0208333333333333
 43
0.0
 43
0.0
 43
0.0
 43
0.0
 43
0.0208333333333333
 43
0.0
 43
0.0
 43
0.0
 43
0.0
 43
1.0
 43
0.0
 43
0.0
 43
0.0
 43
0.0
 43
1.0
 77
     0
 47
0.0208333333333333
 47
0.0
 47
0.0
 47
0.0
 47
0.0
 47
0.0208333333333333
 47
0.0
 47
0.0
 47
0.0
 47
0.0
 47
1.0
 47
0.0
 47
0.0
 47
0.0
 47
0.0
 47
1.0
171
     0
 49
0.0208333333333333
 49
0.0
 49
0.0
 49
0.0
 49
0.0
 49
0.0208333333333333
 49
0.0
 49
0.0
 49
0.0
 49
0.0
 49
1.0
 49
0.0
 49
0.0
 49
0.0
 49
0.0
 49
1.0
175
     0
142
0.0208333333333333
142
0.0
142
0.0
142
0.0
142
0.0
142
0.0208333333333333
142
0.0
142
0.0
142
0.0
142
0.0
142
1.0
142
0.0
142
0.0
142
0.0
142
0.0
142
1.0
179
     0
144
0.0208333333333333
144
0.0
144
0.0
144
0.0
144
0.0
144
0.0208333333333333
144
0.0
144
0.0
144
0.0
144
0.0
144
1.0
144
0.0
144
0.0
144
0.0
144
0.0
144
1.0
147
0.0208333333333333
147
0.0
147
0.0
147
0.0
147
0.0
147
0.0208333333333333
147
0.0
147
0.0
147
0.0
147
0.0
147
1.0
147
0.0
147
0.0
147
0.0
147
0.0
147
1.0
  0
MATERIAL
  5
11
102
{ACAD_XDICTIONARY
360
12
102
}
102
{ACAD_REACTORS
330
10
102
}
330
10
100
AcDbMaterial
  1
ByLayer
 72
     0
 43
0.0208333333333333
 43
0.0
 43
0.0
 43
0.0
 43
0.0
 43
0.0208333333333333
 43
0.0
 43
0.0
 43
0.0
 43
0.0
 43
1.0
 43
0.0
 43
0.0
 43
0.0
 43
0.0
 43
1.0
 77
     0
 47
0.0208333333333333
 47
0.0
 47
0.0
 47
0.0
 47
0.0
 47
0.0208333333333333
 47
0.0
 47
0.0
 47
0.0
 47
0.0
 47
1.0
 47
0.0
 47
0.0
 47
0.0
 47
0.0
 47
1.0
171
     0
 49
0.0208333333333333
 49
0.0
 49
0.0
 49
0.0
 49
0.0
 49
0.0208333333333333
 49
0.0
 49
0.0
 49
0.0
 49
0.0
 49
1.0
 49
0.0
 49
0.0
 49
0.0
 49
0.0
 49
1.0
175
     0
142
0.0208333333333333
142
0.0
142
0.0
142
0.0
142
0.0
142
0.0208333333333333
142
0.0
142
0.0
142
0.0
142
0.0
142
1.0
142
0.0
142
0.0
142
0.0
142
0.0
142
1.0
179
     0
144
0.0208333333333333
144
0.0
144
0.0
144
0.0
144
0.0
144
0.0208333333333333
144
0.0
144
0.0
144
0.0
144
0.0
144
1.0
144
0.0
144
0.0
144
0.0
144
0.0
144
1.0
147
0.0208333333333333
147
0.0
147
0.0
147
0.0
147
0.0
147
0.0208333333333333
147
0.0
147
0.0
147
0.0
147
0.0
147
1.0
147
0.0
147
0.0
147
0.0
147
0.0
147
1.0
  0
MATERIAL
  5
21
102
{ACAD_XDICTIONARY
360
22
102
}
102
{ACAD_REACTORS
330
10
102
}
330
10
100
AcDbMaterial
  1
Global
 72
     0
 43
0.0208333333333333
 43
0.0
 43
0.0
 43
0.0
 43
0.0
 43
0.0208333333333333
 43
0.0
 43
0.0
 43
0.0
 43
0.0
 43
1.0
 43
0.0
 43
0.0
 43
0.0
 43
0.0
 43
1.0
 77
     0
 47
0.0208333333333333
 47
0.0
 47
0.0
 47
0.0
 47
0.0
 47
0.0208333333333333
 47
0.0
 47
0.0
 47
0.0
 47
0.0
 47
1.0
 47
0.0
 47
0.0
 47
0.0
 47
0.0
 47
1.0
171
     0
 49
0.0208333333333333
 49
0.0
 49
0.0
 49
0.0
 49
0.0
 49
0.0208333333333333
 49
0.0
 49
0.0
 49
0.0
 49
0.0
 49
1.0
 49
0.0
 49
0.0
 49
0.0
 49
0.0
 49
1.0
175
     0
142
0.0208333333333333
142
0.0
142
0.0
142
0.0
142
0.0
142
0.0208333333333333
142
0.0
142
0.0
142
0.0
142
0.0
142
1.0
142
0.0
142
0.0
142
0.0
142
0.0
142
1.0
179
     0
144
0.0208333333333333
144
0.0
144
0.0
144
0.0
144
0.0
144
0.0208333333333333
144
0.0
144
0.0
144
0.0
144
0.0
144
1.0
144
0.0
144
0.0
144
0.0
144
0.0
144
1.0
147
0.0208333333333333
147
0.0
147
0.0
147
0.0
147
0.0
147
0.0208333333333333
147
0.0
147
0.0
147
0.0
147
0.0
147
1.0
147
0.0
147
0.0
147
0.0
147
0.0
147
1.0
  0
MLEADERSTYLE
  5
67
102
{ACAD_XDICTIONARY
360
132
102
}
102
{ACAD_REACTORS
330
66
102
}
330
66
100
AcDbMLeaderStyle
179
     2
170
     2
171
     1
172
     0
 90
        2
 40
0.0
 41
0.0
173
     1
 91
-1056964608
340
5B
 92
       -2
290
     1
 42
0.09
291
     1
 43
0.36
  3
Standard
 44
0.18
300

342
55
174
     1
178
     6
175
     1
176
     0
 93
-1056964608
 45
0.18
292
     0
297
     0
 46
0.18
 94
-1056964608
 47
1.0
 49
1.0
140
1.0
293
     1
141
0.0
294
     1
177
     0
142
1.0
295
     0
296
     0
143
0.125
271
     0
272
     9
273
     9
  0
MLINESTYLE
  5
60
102
{ACAD_REACTORS
330
5F
102
}
330
5F
100
AcDbMlineStyle
  2
STANDARD
 70
     0
  3

 62
   256
 51
90.0
 52
90.0
 71
     2
 49
0.5
 62
   256
  6
BYLAYER
 49
-0.5
 62
   256
  6
BYLAYER
  0
ACDBPLACEHOLDER
  5
F
102
{ACAD_REACTORS
330
E
102
}
330
E
  0
SCALE
  5
43
102
{ACAD_REACTORS
330
42
102
}
330
42
100
AcDbScale
 70
     0
300
1:1
140
1.0
141
1.0
290
     1
  0
SCALE
  5
44
102
{ACAD_REACTORS
330
42
102
}
330
42
100
AcDbScale
 70
     0
300
1/128" = 1'-0"
140
0.0078125
141
12.0
290
     0
  0
SCALE
  5
45
102
{ACAD_REACTORS
330
42
102
}
330
42
100
AcDbScale
 70
     0
300
1/64" = 1'-0"
140
0.015625
141
12.0
290
     0
  0
SCALE
  5
46
102
{ACAD_REACTORS
330
42
102
}
330
42
100
AcDbScale
 70
     0
300
1/32" = 1'-0"
140
0.03125
141
12.0
290
     0
  0
SCALE
  5
47
102
{ACAD_REACTORS
330
42
102
}
330
42
100
AcDbScale
 70
     0
300
1/16" = 1'-0"
140
0.0625
141
12.0
290
     0
  0
SCALE
  5
48
102
{ACAD_REACTORS
330
42
102
}
330
42
100
AcDbScale
 70
     0
300
3/32" = 1'-0"
140
0.09375
141
12.0
290
     0
  0
SCALE
  5
49
102
{ACAD_REACTORS
330
42
102
}
330
42
100
AcDbScale
 70
     0
300
1/8" = 1'-0"
140
0.125
141
12.0
290
     0
  0
SCALE
  5
4A
102
{ACAD_REACTORS
330
42
102
}
330
42
100
AcDbScale
 70
     0
300
3/16" = 1'-0"
140
0.1875
141
12.0
290
     0
  0
SCALE
  5
4B
102
{ACAD_REACTORS
330
42
102
}
330
42
100
AcDbScale
 70
     0
300
1/4" = 1'-0"
140
0.25
141
12.0
290
     0
  0
SCALE
  5
4C
102
{ACAD_REACTORS
330
42
102
}
330
42
100
AcDbScale
 70
     0
300
3/8" = 1'-0"
140
0.375
141
12.0
290
     0
  0
SCALE
  5
4D
102
{ACAD_REACTORS
330
42
102
}
330
42
100
AcDbScale
 70
     0
300
1/2" = 1'-0"
140
0.5
141
12.0
290
     0
  0
SCALE
  5
4E
102
{ACAD_REACTORS
330
42
102
}
330
42
100
AcDbScale
 70
     0
300
3/4" = 1'-0"
140
0.75
141
12.0
290
     0
  0
SCALE
  5
4F
102
{ACAD_REACTORS
330
42
102
}
330
42
100
AcDbScale
 70
     0
300
1" = 1'-0"
140
1.0
141
12.0
290
     0
  0
SCALE
  5
50
102
{ACAD_REACTORS
330
42
102
}
330
42
100
AcDbScale
 70
     0
300
1-1/2" = 1'-0"
140
1.5
141
12.0
290
     0
  0
SCALE
  5
51
102
{ACAD_REACTORS
330
42
102
}
330
42
100
AcDbScale
 70
     0
300
3" = 1'-0"
140
3.0
141
12.0
290
     0
  0
SCALE
  5
52
102
{ACAD_REACTORS
330
42
102
}
330
42
100
AcDbScale
 70
     0
300
6" = 1'-0"
140
6.0
141
12.0
290
     0
  0
SCALE
  5
53
102
{ACAD_REACTORS
330
42
102
}
330
42
100
AcDbScale
 70
     0
300
1'-0" = 1'-0"
140
12.0
141
12.0
290
     0
  0
ACDBSECTIONVIEWSTYLE
  5
69
102
{ACAD_XDICTIONARY
360
134
102
}
102
{ACAD_REACTORS
330
68
102
}
330
68
100
AcDbModelDocViewStyle
 70
     0
  3
Imperial24
290
     0
100
AcDbSectionViewStyle
 70
     0
 71
     0
 90
       78
 71
     1
340
55
 62
   256
 40
0.24
340
0
340
0
 62
   256
 40
0.24
300
I, O, Q, S, X, Z
 40
0.48
 90
        3
 40
0.18
 90
        1
 71
     2
340
5D
 90
       25
 62
   256
340
5D
 90
       50
 62
   256
 40
0.24
 40
0.0
 40
0.24
 71
     3
340
55
 62
   256
 40
0.24
 90
        1
 40
0.75
 90
        1
300
%<\AcVar ViewType \f "%tc1">% %<\AcVar ViewSectionStartId>%-%<\AcVar ViewSectionEndId>%\PSCALE %<\AcVar ViewScale \f "%sn">%
 71
     4
 62
   256
 62
   257
300
ANSI31
 40
1.0
 90
        0
290
     0
290
     0
 90
        6
 40
0.0
 40
1.570796326794896
 40
0.2617993877991494
 40
1.308996938995747
 40
-0.2617993877991494
 40
1.832595714594046
  0
TABLESTYLE
  5
65
102
{ACAD_XDICTIONARY
360
FF
102
}
102
{ACAD_REACTORS
330
64
102
}
330
64
100
AcDbTableStyle
280
     0
  3
Standard
 70
     0
 71
     0
 40
0.06
 41
0.06
280
     0
281
     0
  7
Standard
140
0.18
170
     2
 62
     0
 63
     7
283
     0
 90
      512
 91
        0
  1

274
    -2
284
     1
 64
     0
275
    -2
285
     1
 65
     0
276
    -2
286
     1
 66
     0
277
    -2
287
     1
 67
     0
278
    -2
288
     1
 68
     0
279
    -2
289
     1
 69
     0
  7
Standard
140
0.25
170
     5
 62
     0
 63
     7
283
     0
 90
      512
 91
        0
  1

274
    -2
284
     1
 64
     0
275
    -2
285
     1
 65
     0
276
    -2
286
     1
 66
     0
277
    -2
287
     1
 67
     0
278
    -2
288
     1
 68
     0
279
    -2
289
     1
 69
     0
  7
Standard
140
0.18
170
     5
 62
     0
 63
     7
283
     0
 90
      512
 91
        0
  1

274
    -2
284
     1
 64
     0
275
    -2
285
     1
 65
     0
276
    -2
286
     1
 66
     0
277
    -2
287
     1
 67
     0
278
    -2
288
     1
 68
     0
279
    -2
289
     1
 69
     0
  0
VISUALSTYLE
  5
2F
102
{ACAD_XDICTIONARY
360
10C
102
}
102
{ACAD_REACTORS
330
29
102
}
330
29
100
AcDbVisualStyle
  2
2dWireframe
 70
     4
177
     2
291
     0
 71
     0
176
     1
 72
     2
176
     1
 73
     0
176
     1
 90
        0
176
     1
 40
0.6
176
     1
 41
30.0
176
     1
 63
     7
421
 16777215
176
     1
 74
     1
176
     1
 91
        4
176
     1
 64
     7
176
     1
 65
   257
176
     1
 75
     1
176
     1
175
     1
176
     1
 42
1.0
176
     1
 92
        0
176
     1
 66
   257
176
     1
 43
1.0
176
     1
 76
     1
176
     1
 77
     6
176
     1
 78
     2
176
     1
 67
     7
176
     1
 79
     5
176
     1
170
     0
176
     1
171
     0
176
     1
290
     0
176
     1
 93
        1
176
     1
 44
0.0
176
     1
173
     0
176
     1
1001
ACAD
1000
AcDbSavedByObjectVersion
1070
     0
  0
VISUALSTYLE
  5
2E
102
{ACAD_XDICTIONARY
360
10A
102
}
102
{ACAD_REACTORS
330
29
102
}
330
29
100
AcDbVisualStyle
  2
Basic
 70
     7
177
     2
291
     1
 71
     1
176
     1
 72
     0
176
     1
 73
     1
176
     1
 90
        0
176
     1
 40
0.6
176
     1
 41
30.0
176
     1
 63
     7
421
 16777215
176
     1
 74
     0
176
     1
 91
        4
176
     1
 64
     7
176
     1
 65
   257
176
     1
 75
     1
176
     1
175
     1
176
     1
 42
1.0
176
     1
 92
        8
176
     1
 66
     7
176
     1
 43
1.0
176
     1
 76
     1
176
     1
 77
     6
176
     1
 78
     2
176
     1
 67
     7
176
     1
 79
     5
176
     1
170
     0
176
     1
171
     0
176
     1
290
     0
176
     1
 93
        1
176
     1
 44
0.0
176
     1
173
     0
176
     1
1001
ACAD
1000
AcDbSavedByObjectVersion
1070
     0
  0
VISUALSTYLE
  5
35
102
{ACAD_XDICTIONARY
360
118
102
}
102
{ACAD_REACTORS
330
29
102
}
330
29
100
AcDbVisualStyle
  2
Brighten
 70
    12
177
     2
291
     1
 71
     2
176
     1
 72
     2
176
     1
 73
     0
176
     1
 90
        0
176
     1
 40
0.6
176
     1
 41
30.0
176
     1
 63
     7
421
 16777215
176
     1
 74
     1
176
     1
 91
        4
176
     1
 64
     7
176
     1
 65
   257
176
     1
 75
     1
176
     1
175
     1
176
     1
 42
1.0
176
     1
 92
        8
176
     1
 66
     7
176
     1
 43
1.0
176
     1
 76
     1
176
     1
 77
     6
176
     1
 78
     2
176
     1
 67
     7
176
     1
 79
     5
176
     1
170
     0
176
     1
171
     0
176
     1
290
     0
176
     1
 93
        1
176
     1
 44
50.0
176
     1
173
     0
176
     1
1001
ACAD
1000
AcDbSavedByObjectVersion
1070
     0
  0
VISUALSTYLE
  5
39
102
{ACAD_XDICTIONARY
360
120
102
}
102
{ACAD_REACTORS
330
29
102
}
330
29
100
AcDbVisualStyle
  2
ColorChange
 70
    16
177
     2
291
     1
 71
     2
176
     1
 72
     2
176
     1
 73
     3
176
     1
 90
        0
176
     1
 40
0.6
176
     1
 41
30.0
176
     1
 63
     8
421
  8421504
176
     1
 74
     1
176
     1
 91
        4
176
     1
 64
     7
176
     1
 65
   257
176
     1
 75
     1
176
     1
175
     1
176
     1
 42
1.0
176
     1
 92
        8
176
     1
 66
     8
424
  8421504
176
     1
 43
1.0
176
     1
 76
     1
176
     1
 77
     6
176
     1
 78
     2
176
     1
 67
     7
176
     1
 79
     5
176
     1
170
     0
176
     1
171
     0
176
     1
290
     0
176
     1
 93
        1
176
     1
 44
0.0
176
     1
173
     0
176
     1
1001
ACAD
1000
AcDbSavedByObjectVersion
1070
     0
  0
VISUALSTYLE
  5
32
102
{ACAD_XDICTIONARY
360
112
102
}
102
{ACAD_REACTORS
330
29
102
}
330
29
100
AcDbVisualStyle
  2
Conceptual
 70
     9
177
     2
291
     0
 71
     3
176
     1
 72
     2
176
     1
 73
     0
176
     1
 90
        0
176
     1
 40
0.6
176
     1
 41
30.0
176
     1
 63
     7
421
 16777215
176
     1
 74
     2
176
     1
 91
        2
176
     1
 64
     7
176
     1
 65
   257
176
     1
 75
     1
176
     1
175
     1
176
     1
 42
179.0
176
     1
 92
        8
176
     1
 66
     7
176
     1
 43
1.0
176
     1
 76
     1
176
     1
 77
     6
176
     1
 78
     2
176
     1
 67
     7
176
     1
 79
     3
176
     1
170
     0
176
     1
171
     0
176
     1
290
     0
176
     1
 93
        1
176
     1
 44
0.0
176
     1
173
     0
176
     1
1001
ACAD
1000
AcDbSavedByObjectVersion
1070
     0
  0
VISUALSTYLE
  5
34
102
{ACAD_XDICTIONARY
360
116
102
}
102
{ACAD_REACTORS
330
29
102
}
330
29
100
AcDbVisualStyle
  2
Dim
 70
    11
177
     2
291
     1
 71
     2
176
     1
 72
     2
176
     1
 73
     0
176
     1
 90
        0
176
     1
 40
0.6
176
     1
 41
30.0
176
     1
 63
     7
421
 16777215
176
     1
 74
     1
176
     1
 91
        4
176
     1
 64
     7
176
     1
 65
   257
176
     1
 75
     1
176
     1
175
     1
176
     1
 42
1.0
176
     1
 92
        8
176
     1
 66
     7
176
     1
 43
1.0
176
     1
 76
     1
176
     1
 77
     6
176
     1
 78
     2
176
     1
 67
     7
176
     1
 79
     5
176
     1
170
     0
176
     1
171
     0
176
     1
290
     0
176
     1
 93
        1
176
     1
 44
-50.0
176
     1
173
     0
176
     1
1001
ACAD
1000
AcDbSavedByObjectVersion
1070
     0
  0
VISUALSTYLE
  5
41
102
{ACAD_XDICTIONARY
360
130
102
}
102
{ACAD_REACTORS
330
29
102
}
330
29
100
AcDbVisualStyle
  2
EdgeColorOff
 70
    22
177
     2
291
     1
 71
     2
176
     0
 72
     2
176
     0
 73
     0
176
     0
 90
        0
176
     0
 40
0.6
176
     0
 41
30.0
176
     0
 63
     7
421
 16777215
176
     0
 74
     1
176
     0
 91
        4
176
     0
 64
     7
176
     0
 65
   257
176
     0
 75
     1
176
     0
175
     1
176
     0
 42
1.0
176
     0
 92
        8
176
     2
 66
     7
176
     0
 43
1.0
176
     0
 76
     1
176
     0
 77
     6
176
     0
 78
     2
176
     0
 67
     7
176
     0
 79
     5
176
     0
170
     0
176
     0
171
     0
176
     0
290
     0
176
     0
 93
        1
176
     0
 44
0.0
176
     0
173
     0
176
     0
1001
ACAD
1000
AcDbSavedByObjectVersion
1070
     0
  0
VISUALSTYLE
  5
38
102
{ACAD_XDICTIONARY
360
11E
102
}
102
{ACAD_REACTORS
330
29
102
}
330
29
100
AcDbVisualStyle
  2
Facepattern
 70
    15
177
     2
291
     1
 71
     2
176
     1
 72
     2
176
     1
 73
     0
176
     1
 90
        0
176
     1
 40
0.6
176
     1
 41
30.0
176
     1
 63
     7
421
 16777215
176
     1
 74
     1
176
     1
 91
        4
176
     1
 64
     7
176
     1
 65
   257
176
     1
 75
     1
176
     1
175
     1
176
     1
 42
1.0
176
     1
 92
        8
176
     1
 66
     7
176
     1
 43
1.0
176
     1
 76
     1
176
     1
 77
     6
176
     1
 78
     2
176
     1
 67
     7
176
     1
 79
     5
176
     1
170
     0
176
     1
171
     0
176
     1
290
     0
176
     1
 93
        1
176
     1
 44
0.0
176
     1
173
     0
176
     1
1001
ACAD
1000
AcDbSavedByObjectVersion
1070
     0
  0
VISUALSTYLE
  5
2A
102
{ACAD_XDICTIONARY
360
102
102
}
102
{ACAD_REACTORS
330
29
102
}
330
29
100
AcDbVisualStyle
  2
Flat
 70
     0
177
     2
291
     1
 71
     2
176
     1
 72
     1
176
     1
 73
     1
176
     1
 90
        2
176
     1
 40
0.6
176
     1
 41
30.0
176
     1
 63
     7
421
 16777215
176
     1
 74
     0
176
     1
 91
        0
176
     1
 64
     7
176
     1
 65
   257
176
     1
 75
     1
176
     1
175
     1
176
     1
 42
1.0
176
     1
 92
        8
176
     1
 66
     7
176
     1
 43
1.0
176
     1
 76
     1
176
     1
 77
     6
176
     1
 78
     2
176
     1
 67
     7
176
     1
 79
     5
176
     1
170
     0
176
     1
171
     0
176
     1
290
     0
176
     1
 93
       13
176
     1
 44
0.0
176
     1
173
     0
176
     1
1001
ACAD
1000
AcDbSavedByObjectVersion
1070
     0
  0
VISUALSTYLE
  5
2B
102
{ACAD_XDICTIONARY
360
104
102
}
102
{ACAD_REACTORS
330
29
102
}
330
29
100
AcDbVisualStyle
  2
FlatWithEdges
 70
     1
177
     2
291
     1
 71
     2
176
     1
 72
     1
176
     1
 73
     1
176
     1
 90
        2
176
     1
 40
0.6
176
     1
 41
30.0
176
     1
 63
     7
421
 16777215
176
     1
 74
     1
176
     1
 91
        0
176
     1
 64
     7
176
     1
 65
   257
176
     1
 75
     1
176
     1
175
     1
176
     1
 42
1.0
176
     1
 92
        0
176
     1
 66
   257
176
     1
 43
1.0
176
     1
 76
     1
176
     1
 77
     6
176
     1
 78
     2
176
     1
 67
     7
176
     1
 79
     5
176
     1
170
     0
176
     1
171
     0
176
     1
290
     0
176
     1
 93
       13
176
     1
 44
0.0
176
     1
173
     0
176
     1
1001
ACAD
1000
AcDbSavedByObjectVersion
1070
     0
  0
VISUALSTYLE
  5
2C
102
{ACAD_XDICTIONARY
360
106
102
}
102
{ACAD_REACTORS
330
29
102
}
330
29
100
AcDbVisualStyle
  2
Gouraud
 70
     2
177
     2
291
     1
 71
     2
176
     1
 72
     2
176
     1
 73
     1
176
     1
 90
        2
176
     1
 40
0.6
176
     1
 41
30.0
176
     1
 63
     7
421
 16777215
176
     1
 74
     0
176
     1
 91
        0
176
     1
 64
     7
176
     1
 65
   257
176
     1
 75
     1
176
     1
175
     1
176
     1
 42
1.0
176
     1
 92
        0
176
     1
 66
     7
176
     1
 43
1.0
176
     1
 76
     1
176
     1
 77
     6
176
     1
 78
     2
176
     1
 67
     7
176
     1
 79
     5
176
     1
170
     0
176
     1
171
     0
176
     1
290
     0
176
     1
 93
       13
176
     1
 44
0.0
176
     1
173
     0
176
     1
1001
ACAD
1000
AcDbSavedByObjectVersion
1070
     0
  0
VISUALSTYLE
  5
2D
102
{ACAD_XDICTIONARY
360
108
102
}
102
{ACAD_REACTORS
330
29
102
}
330
29
100
AcDbVisualStyle
  2
GouraudWithEdges
 70
     3
177
     2
291
     1
 71
     2
176
     1
 72
     2
176
     1
 73
     1
176
     1
 90
        2
176
     1
 40
0.6
176
     1
 41
30.0
176
     1
 63
     7
421
 16777215
176
     1
 74
     1
176
     1
 91
        0
176
     1
 64
     7
176
     1
 65
   257
176
     1
 75
     1
176
     1
175
     1
176
     1
 42
1.0
176
     1
 92
        0
176
     1
 66
   257
176
     1
 43
1.0
176
     1
 76
     1
176
     1
 77
     6
176
     1
 78
     2
176
     1
 67
     7
176
     1
 79
     5
176
     1
170
     0
176
     1
171
     0
176
     1
290
     0
176
     1
 93
       13
176
     1
 44
0.0
176
     1
173
     0
176
     1
1001
ACAD
1000
AcDbSavedByObjectVersion
1070
     0
  0
VISUALSTYLE
  5
31
102
{ACAD_XDICTIONARY
360
110
102
}
102
{ACAD_REACTORS
330
29
102
}
330
29
100
AcDbVisualStyle
  2
Hidden
 70
     6
177
     2
291
     0
 71
     1
176
     1
 72
     2
176
     1
 73
     2
176
     1
 90
        0
176
     1
 40
0.6
176
     1
 41
30.0
176
     1
 63
     7
421
 16777215
176
     1
 74
     2
176
     1
 91
        2
176
     1
 64
     7
176
     1
 65
   257
176
     1
 75
     2
176
     1
175
     1
176
     1
 42
40.0
176
     1
 92
        0
176
     1
 66
   257
176
     1
 43
1.0
176
     1
 76
     1
176
     1
 77
     6
176
     1
 78
     2
176
     1
 67
     7
176
     1
 79
     3
176
     1
170
     0
176
     1
171
     0
176
     1
290
     0
176
     1
 93
        1
176
     1
 44
0.0
176
     1
173
     0
176
     1
1001
ACAD
1000
AcDbSavedByObjectVersion
1070
     0
  0
VISUALSTYLE
  5
3F
102
{ACAD_XDICTIONARY
360
12C
102
}
102
{ACAD_REACTORS
330
29
102
}
330
29
100
AcDbVisualStyle
  2
JitterOff
 70
    20
177
     2
291
     1
 71
     2
176
     0
 72
     2
176
     0
 73
     0
176
     0
 90
        0
176
     0
 40
0.6
176
     0
 41
30.0
176
     0
 63
     7
421
 16777215
176
     0
 74
     1
176
     0
 91
        4
176
     0
 64
     7
176
     0
 65
   257
176
     0
 75
     1
176
     0
175
     1
176
     0
 42
1.0
176
     0
 92
       10
176
     2
 66
     7
176
     0
 43
1.0
176
     0
 76
     1
176
     0
 77
     6
176
     0
 78
     2
176
     0
 67
     7
176
     0
 79
     5
176
     0
170
     0
176
     0
171
     0
176
     0
290
     0
176
     0
 93
        1
176
     0
 44
0.0
176
     0
173
     0
176
     0
1001
ACAD
1000
AcDbSavedByObjectVersion
1070
     0
  0
VISUALSTYLE
  5
37
102
{ACAD_XDICTIONARY
360
11C
102
}
102
{ACAD_REACTORS
330
29
102
}
330
29
100
AcDbVisualStyle
  2
Linepattern
 70
    14
177
     2
291
     1
 71
     2
176
     1
 72
     2
176
     1
 73
     0
176
     1
 90
        0
176
     1
 40
0.6
176
     1
 41
30.0
176
     1
 63
     7
421
 16777215
176
     1
 74
     1
176
     1
 91
        4
176
     1
 64
     7
176
     1
 65
   257
176
     1
 75
     7
176
     1
175
     7
176
     1
 42
1.0
176
     1
 92
        8
176
     1
 66
     7
176
     1
 43
1.0
176
     1
 76
     1
176
     1
 77
     6
176
     1
 78
     2
176
     1
 67
     7
176
     1
 79
     5
176
     1
170
     0
176
     1
171
     0
176
     1
290
     0
176
     1
 93
        1
176
     1
 44
0.0
176
     1
173
     0
176
     1
1001
ACAD
1000
AcDbSavedByObjectVersion
1070
     0
  0
VISUALSTYLE
  5
40
102
{ACAD_XDICTIONARY
360
12E
102
}
102
{ACAD_REACTORS
330
29
102
}
330
29
100
AcDbVisualStyle
  2
OverhangOff
 70
    21
177
     2
291
     1
 71
     2
176
     0
 72
     2
176
     0
 73
     0
176
     0
 90
        0
176
     0
 40
0.6
176
     0
 41
30.0
176
     0
 63
     7
421
 16777215
176
     0
 74
     1
176
     0
 91
        4
176
     0
 64
     7
176
     0
 65
   257
176
     0
 75
     1
176
     0
175
     1
176
     0
 42
1.0
176
     0
 92
        9
176
     2
 66
     7
176
     0
 43
1.0
176
     0
 76
     1
176
     0
 77
     6
176
     0
 78
     2
176
     0
 67
     7
176
     0
 79
     5
176
     0
170
     0
176
     0
171
     0
176
     0
290
     0
176
     0
 93
        1
176
     0
 44
0.0
176
     0
173
     0
176
     0
1001
ACAD
1000
AcDbSavedByObjectVersion
1070
     0
  0
VISUALSTYLE
  5
33
102
{ACAD_XDICTIONARY
360
114
102
}
102
{ACAD_REACTORS
330
29
102
}
330
29
100
AcDbVisualStyle
  2
Realistic
 70
     8
177
     2
291
     0
 71
     2
176
     1
 72
     3
176
     1
 73
     0
176
     1
 90
        2
176
     1
 40
0.6
176
     1
 41
30.0
176
     1
 63
     7
421
 16777215
176
     1
 74
     0
176
     1
 91
        0
176
     1
 64
     7
176
     1
 65
   257
176
     1
 75
     1
176
     1
175
     1
176
     1
 42
1.0
176
     1
 92
        8
176
     1
 66
   257
176
     1
 43
1.0
176
     1
 76
     1
176
     1
 77
     6
176
     1
 78
     2
176
     1
 67
     7
176
     1
 79
     3
176
     1
170
     0
176
     1
171
     0
176
     1
290
     0
176
     1
 93
       13
176
     1
 44
0.0
176
     1
173
     0
176
     1
1001
ACAD
1000
AcDbSavedByObjectVersion
1070
     0
  0
VISUALSTYLE
  5
3E
102
{ACAD_XDICTIONARY
360
12A
102
}
102
{ACAD_REACTORS
330
29
102
}
330
29
100
AcDbVisualStyle
  2
Shaded
 70
    27
177
     2
291
     0
 71
     2
176
     1
 72
     2
176
     1
 73
     1
176
     1
 90
        2
176
     1
 40
0.6
176
     1
 41
30.0
176
     1
 63
     7
421
 16777215
176
     1
 74
     0
176
     1
 91
        4
176
     1
 64
     7
176
     1
 65
   257
176
     1
 75
     1
176
     1
175
     1
176
     1
 42
1.0
176
     1
 92
        8
176
     1
 66
   257
176
     1
 43
1.0
176
     1
 76
     1
176
     1
 77
     6
176
     1
 78
     2
176
     1
 67
     8
425
  7895160
176
     1
 79
     3
176
     1
170
     0
176
     1
171
     0
176
     1
290
     0
176
     1
 93
        5
176
     1
 44
0.0
176
     1
173
     0
176
     1
1001
ACAD
1000
AcDbSavedByObjectVersion
1070
     0
  0
VISUALSTYLE
  5
3D
102
{ACAD_XDICTIONARY
360
128
102
}
102
{ACAD_REACTORS
330
29
102
}
330
29
100
AcDbVisualStyle
  2
Shaded with edges
 70
    26
177
     2
291
     0
 71
     2
176
     1
 72
     2
176
     1
 73
     1
176
     1
 90
        2
176
     1
 40
0.6
176
     1
 41
30.0
176
     1
 63
     7
421
 16777215
176
     1
 74
     1
176
     1
 91
        2
176
     1
 64
     7
176
     1
 65
   257
176
     1
 75
     2
176
     1
175
     1
176
     1
 42
1.0
176
     1
 92
        8
176
     1
 66
   257
176
     1
 43
1.0
176
     1
 76
     1
176
     1
 77
     6
176
     1
 78
     2
176
     1
 67
     7
176
     1
 79
     3
176
     1
170
     0
176
     1
171
     0
176
     1
290
     0
176
     1
 93
        5
176
     1
 44
0.0
176
     1
173
     0
176
     1
1001
ACAD
1000
AcDbSavedByObjectVersion
1070
     0
  0
VISUALSTYLE
  5
3A
102
{ACAD_XDICTIONARY
360
122
102
}
102
{ACAD_REACTORS
330
29
102
}
330
29
100
AcDbVisualStyle
  2
Shades of Gray
 70
    23
177
     2
291
     0
 71
     2
176
     1
 72
     2
176
     1
 73
     3
176
     1
 90
        0
176
     1
 40
0.6
176
     1
 41
30.0
176
     1
 63
     7
421
 16777215
176
     1
 74
     2
176
     1
 91
        2
176
     1
 64
     7
176
     1
 65
     7
176
     1
 75
     1
176
     1
175
     1
176
     1
 42
40.0
176
     1
 92
        8
176
     1
 66
     7
176
     1
 43
1.0
176
     1
 76
     1
176
     1
 77
     6
176
     1
 78
     2
176
     1
 67
     7
176
     1
 79
     3
176
     1
170
     0
176
     1
171
     0
176
     1
290
     0
176
     1
 93
        1
176
     1
 44
0.0
176
     1
173
     0
176
     1
1001
ACAD
1000
AcDbSavedByObjectVersion
1070
     0
  0
VISUALSTYLE
  5
3B
102
{ACAD_XDICTIONARY
360
124
102
}
102
{ACAD_REACTORS
330
29
102
}
330
29
100
AcDbVisualStyle
  2
Sketchy
 70
    24
177
     2
291
     0
 71
     1
176
     1
 72
     2
176
     1
 73
     2
176
     1
 90
        0
176
     1
 40
0.6
176
     1
 41
30.0
176
     1
 63
     7
421
 16777215
176
     1
 74
     2
176
     1
 91
        2
176
     1
 64
     7
176
     1
 65
     7
176
     1
 75
     1
176
     1
175
     1
176
     1
 42
40.0
176
     1
 92
       11
176
     1
 66
     7
176
     1
 43
1.0
176
     1
 76
     1
176
     1
 77
     6
176
     1
 78
     2
176
     1
 67
     7
176
     1
 79
     6
176
     1
170
     0
176
     1
171
     0
176
     1
290
     0
176
     1
 93
        1
176
     1
 44
0.0
176
     1
173
     0
176
     1
1001
ACAD
1000
AcDbSavedByObjectVersion
1070
     0
  0
VISUALSTYLE
  5
36
102
{ACAD_XDICTIONARY
360
11A
102
}
102
{ACAD_REACTORS
330
29
102
}
330
29
100
AcDbVisualStyle
  2
Thicken
 70
    13
177
     2
291
     1
 71
     2
176
     1
 72
     2
176
     1
 73
     0
176
     1
 90
        0
176
     1
 40
0.6
176
     1
 41
30.0
176
     1
 63
     7
421
 16777215
176
     1
 74
     1
176
     1
 91
        4
176
     1
 64
     7
176
     1
 65
   257
176
     1
 75
     1
176
     1
175
     1
176
     1
 42
1.0
176
     1
 92
       12
176
     1
 66
     7
176
     1
 43
1.0
176
     1
 76
     1
176
     1
 77
     6
176
     1
 78
     2
176
     1
 67
     7
176
     1
 79
     5
176
     1
170
     0
176
     1
171
     0
176
     1
290
     0
176
     1
 93
        1
176
     1
 44
0.0
176
     1
173
     0
176
     1
1001
ACAD
1000
AcDbSavedByObjectVersion
1070
     0
  0
VISUALSTYLE
  5
30
102
{ACAD_XDICTIONARY
360
10E
102
}
102
{ACAD_REACTORS
330
29
102
}
330
29
100
AcDbVisualStyle
  2
Wireframe
 70
     5
177
     2
291
     0
 71
     0
176
     1
 72
     2
176
     1
 73
     0
176
     1
 90
        0
176
     1
 40
0.6
176
     1
 41
30.0
176
     1
 63
     7
421
 16777215
176
     1
 74
     1
176
     1
 91
        4
176
     1
 64
     7
176
     1
 65
   257
176
     1
 75
     1
176
     1
175
     1
176
     1
 42
1.0
176
     1
 92
        0
176
     1
 66
   257
176
     1
 43
1.0
176
     1
 76
     1
176
     1
 77
     6
176
     1
 78
     2
176
     1
 67
     7
176
     1
 79
     3
176
     1
170
     0
176
     1
171
     0
176
     1
290
     0
176
     1
 93
        1
176
     1
 44
0.0
176
     1
173
     0
176
     1
1001
ACAD
1000
AcDbSavedByObjectVersion
1070
     0
  0
VISUALSTYLE
  5
3C
102
{ACAD_XDICTIONARY
360
126
102
}
102
{ACAD_REACTORS
330
29
102
}
330
29
100
AcDbVisualStyle
  2
X-Ray
 70
    25
177
     2
291
     0
 71
     2
176
     1
 72
     2
176
     1
 73
     1
176
     1
 90
        1
176
     1
 40
0.5
176
     1
 41
30.0
176
     1
 63
     7
421
 16777215
176
     1
 74
     1
176
     1
 91
        0
176
     1
 64
     7
176
     1
 65
   257
176
     1
 75
     1
176
     1
175
     1
176
     1
 42
1.0
176
     1
 92
        8
176
     1
 66
     7
176
     1
 43
1.0
176
     1
 76
     1
176
     1
 77
     6
176
     1
 78
     2
176
     1
 67
     7
176
     1
 79
     3
176
     1
170
     0
176
     1
171
     0
176
     1
290
     0
176
     1
 93
       13
176
     1
 44
0.0
176
     1
173
     0
176
     1
1001
ACAD
1000
AcDbSavedByObjectVersion
1070
     0
  0
DICTIONARYVAR
  5
FE
102
{ACAD_REACTORS
330
F9
102
}
330
F9
100
DictionaryVariables
280
     0
  1
1:1
  0
DICTIONARYVAR
  5
FB
102
{ACAD_REACTORS
330
F9
102
}
330
F9
100
DictionaryVariables
280
     0
  1
STANDARD
  0
DICTIONARYVAR
  5
FA
102
{ACAD_REACTORS
330
F9
102
}
330
F9
100
DictionaryVariables
280
     0
  1
STANDARD
  0
DICTIONARYVAR
  5
FC
102
{ACAD_REACTORS
330
F9
102
}
330
F9
100
DictionaryVariables
280
     0
  1
Imperial24
  0
DICTIONARYVAR
  5
FD
102
{ACAD_REACTORS
330
F9
102
}
330
F9
100
DictionaryVariables
280
     0
  1
Imperial24
  0
DICTIONARY
  5
136
330
6B
100
AcDbDictionary
280
     1
281
     1
  3
ACAD_XREC_ROUNDTRIP
360
137
  0
DICTIONARY
  5
1A
330
19
100
AcDbDictionary
280
     1
281
     1
  3
BUMPTILE
360
1C
  3
DIFFUSETILE
360
1B
  3
OPACITYTILE
360
1F
  3
REFLECTIONTILE
360
1E
  3
REFRACTIONTILE
360
20
  3
SPECULARTILE
360
1D
  0
DICTIONARY
  5
12
330
11
100
AcDbDictionary
280
     1
281
     1
  3
BUMPTILE
360
14
  3
DIFFUSETILE
360
13
  3
OPACITYTILE
360
17
  3
REFLECTIONTILE
360
16
  3
REFRACTIONTILE
360
18
  3
SPECULARTILE
360
15
  0
DICTIONARY
  5
22
330
21
100
AcDbDictionary
280
     1
281
     1
  3
BUMPTILE
360
24
  3
DIFFUSETILE
360
23
  3
OPACITYTILE
360
27
  3
REFLECTIONTILE
360
26
  3
REFRACTIONTILE
360
28
  3
SPECULARTILE
360
25
  0
DICTIONARY
  5
132
330
67
100
AcDbDictionary
280
     1
281
     1
  3
ACAD_XREC_ROUNDTRIP
360
133
  0
DICTIONARY
  5
134
330
69
100
AcDbDictionary
280
     1
281
     1
  3
ACAD_XREC_ROUNDTRIP
360
135
  0
DICTIONARY
  5
FF
330
65
100
AcDbDictionary
280
     1
281
     1
  3
ACAD_ROUNDTRIP_2008_TABLESTYLE_CELLSTYLEMAP
360
100
  0
DICTIONARY
  5
10C
330
2F
100
AcDbDictionary
280
     1
281
     1
  3
ACAD_XREC_ROUNDTRIP
360
10D
  0
DICTIONARY
  5
10A
330
2E
100
AcDbDictionary
280
     1
281
     1
  3
ACAD_XREC_ROUNDTRIP
360
10B
  0
DICTIONARY
  5
118
330
35
100
AcDbDictionary
280
     1
281
     1
  3
ACAD_XREC_ROUNDTRIP
360
119
  0
DICTIONARY
  5
120
330
39
100
AcDbDictionary
280
     1
281
     1
  3
ACAD_XREC_ROUNDTRIP
360
121
  0
DICTIONARY
  5
112
330
32
100
AcDbDictionary
280
     1
281
     1
  3
ACAD_XREC_ROUNDTRIP
360
113
  0
DICTIONARY
  5
116
330
34
100
AcDbDictionary
280
     1
281
     1
  3
ACAD_XREC_ROUNDTRIP
360
117
  0
DICTIONARY
  5
130
330
41
100
AcDbDictionary
280
     1
281
     1
  3
ACAD_XREC_ROUNDTRIP
360
131
  0
DICTIONARY
  5
11E
330
38
100
AcDbDictionary
280
     1
281
     1
  3
ACAD_XREC_ROUNDTRIP
360
11F
  0
DICTIONARY
  5
102
330
2A
100
AcDbDictionary
280
     1
281
     1
  3
ACAD_XREC_ROUNDTRIP
360
103
  0
DICTIONARY
  5
104
330
2B
100
AcDbDictionary
280
     1
281
     1
  3
ACAD_XREC_ROUNDTRIP
360
105
  0
DICTIONARY
  5
106
330
2C
100
AcDbDictionary
280
     1
281
     1
  3
ACAD_XREC_ROUNDTRIP
360
107
  0
DICTIONARY
  5
108
330
2D
100
AcDbDictionary
280
     1
281
     1
  3
ACAD_XREC_ROUNDTRIP
360
109
  0
DICTIONARY
  5
110
330
31
100
AcDbDictionary
280
     1
281
     1
  3
ACAD_XREC_ROUNDTRIP
360
111
  0
DICTIONARY
  5
12C
330
3F
100
AcDbDictionary
280
     1
281
     1
  3
ACAD_XREC_ROUNDTRIP
360
12D
  0
DICTIONARY
  5
11C
330
37
100
AcDbDictionary
280
     1
281
     1
  3
ACAD_XREC_ROUNDTRIP
360
11D
  0
DICTIONARY
  5
12E
330
40
100
AcDbDictionary
280
     1
281
     1
  3
ACAD_XREC_ROUNDTRIP
360
12F
  0
DICTIONARY
  5
114
330
33
100
AcDbDictionary
280
     1
281
     1
  3
ACAD_XREC_ROUNDTRIP
360
115
  0
DICTIONARY
  5
12A
330
3E
100
AcDbDictionary
280
     1
281
     1
  3
ACAD_XREC_ROUNDTRIP
360
12B
  0
DICTIONARY
  5
128
330
3D
100
AcDbDictionary
280
     1
281
     1
  3
ACAD_XREC_ROUNDTRIP
360
129
  0
DICTIONARY
  5
122
330
3A
100
AcDbDictionary
280
     1
281
     1
  3
ACAD_XREC_ROUNDTRIP
360
123
  0
DICTIONARY
  5
124
330
3B
100
AcDbDictionary
280
     1
281
     1
  3
ACAD_XREC_ROUNDTRIP
360
125
  0
DICTIONARY
  5
11A
330
36
100
AcDbDictionary
280
     1
281
     1
  3
ACAD_XREC_ROUNDTRIP
360
11B
  0
DICTIONARY
  5
10E
330
30
100
AcDbDictionary
280
     1
281
     1
  3
ACAD_XREC_ROUNDTRIP
360
10F
  0
DICTIONARY
  5
126
330
3C
100
AcDbDictionary
280
     1
281
     1
  3
ACAD_XREC_ROUNDTRIP
360
127
  0
XRECORD
  5
137
102
{ACAD_REACTORS
330
136
102
}
330
136
100
AcDbXrecord
280
     1
102
DISPLAYNAME
  1
Imperial24
102
FLAGS
 90
        0
  0
XRECORD
  5
1C
102
{ACAD_REACTORS
330
1A
102
}
330
1A
100
AcDbXrecord
280
     1
270
     1
271
     1
  0
XRECORD
  5
1B
102
{ACAD_REACTORS
330
1A
102
}
330
1A
100
AcDbXrecord
280
     1
270
     1
271
     1
  0
XRECORD
  5
1F
102
{ACAD_REACTORS
330
1A
102
}
330
1A
100
AcDbXrecord
280
     1
270
     1
271
     1
  0
XRECORD
  5
1E
102
{ACAD_REACTORS
330
1A
102
}
330
1A
100
AcDbXrecord
280
     1
270
     1
271
     1
  0
XRECORD
  5
20
102
{ACAD_REACTORS
330
1A
102
}
330
1A
100
AcDbXrecord
280
     1
270
     1
271
     1
  0
XRECORD
  5
1D
102
{ACAD_REACTORS
330
1A
102
}
330
1A
100
AcDbXrecord
280
     1
270
     1
271
     1
  0
XRECORD
  5
14
102
{ACAD_REACTORS
330
12
102
}
330
12
100
AcDbXrecord
280
     1
270
     1
271
     1
  0
XRECORD
  5
13
102
{ACAD_REACTORS
330
12
102
}
330
12
100
AcDbXrecord
280
     1
270
     1
271
     1
  0
XRECORD
  5
17
102
{ACAD_REACTORS
330
12
102
}
330
12
100
AcDbXrecord
280
     1
270
     1
271
     1
  0
XRECORD
  5
16
102
{ACAD_REACTORS
330
12
102
}
330
12
100
AcDbXrecord
280
     1
270
     1
271
     1
  0
XRECORD
  5
18
102
{ACAD_REACTORS
330
12
102
}
330
12
100
AcDbXrecord
280
     1
270
     1
271
     1
  0
XRECORD
  5
15
102
{ACAD_REACTORS
330
12
102
}
330
12
100
AcDbXrecord
280
     1
270
     1
271
     1
  0
XRECORD
  5
24
102
{ACAD_REACTORS
330
22
102
}
330
22
100
AcDbXrecord
280
     1
270
     1
271
     1
  0
XRECORD
  5
23
102
{ACAD_REACTORS
330
22
102
}
330
22
100
AcDbXrecord
280
     1
270
     1
271
     1
  0
XRECORD
  5
27
102
{ACAD_REACTORS
330
22
102
}
330
22
100
AcDbXrecord
280
     1
270
     1
271
     1
  0
XRECORD
  5
26
102
{ACAD_REACTORS
330
22
102
}
330
22
100
AcDbXrecord
280
     1
270
     1
271
     1
  0
XRECORD
  5
28
102
{ACAD_REACTORS
330
22
102
}
330
22
100
AcDbXrecord
280
     1
270
     1
271
     1
  0
XRECORD
  5
25
102
{ACAD_REACTORS
330
22
102
}
330
22
100
AcDbXrecord
280
     1
270
     1
271
     1
  0
XRECORD
  5
133
102
{ACAD_REACTORS
330
132
102
}
330
132
100
AcDbXrecord
280
     1
102
ACAD_ROUNDTRIP_2012_MLEADER_STYLE
298
     1
  0
XRECORD
  5
135
102
{ACAD_REACTORS
330
134
102
}
330
134
100
AcDbXrecord
280
     1
102
DISPLAYNAME
  1
Imperial24
102
FLAGS
 90
        0
  0
CELLSTYLEMAP
  5
100
102
{ACAD_REACTORS
330
FF
102
}
330
FF
100
AcDbCellStyleMap
 90
        3
300
CELLSTYLE
  1
TABLEFORMAT_BEGIN
 90
        5
170
     1
 91
        0
 92
    32768
 62
   257
 93
        1
300
CONTENTFORMAT
  1
CONTENTFORMAT_BEGIN
 90
        0
 91
        0
 92
      512
 93
        0
300

 40
0.0
140
1.0
 94
        5
 62
     0
340
55
144
0.25
309
CONTENTFORMAT_END
171
     0
 94
        0
309
TABLEFORMAT_END
  1
CELLSTYLE_BEGIN
 90
        1
 91
        1
300
_TITLE
309
CELLSTYLE_END
300
CELLSTYLE
  1
TABLEFORMAT_BEGIN
 90
        5
170
     1
 91
        0
 92
        0
 62
   257
 93
        1
300
CONTENTFORMAT
  1
CONTENTFORMAT_BEGIN
 90
        0
 91
        0
 92
      512
 93
        0
300

 40
0.0
140
1.0
 94
        5
 62
     0
340
55
144
0.18
309
CONTENTFORMAT_END
171
     0
 94
        0
309
TABLEFORMAT_END
  1
CELLSTYLE_BEGIN
 90
        2
 91
        1
300
_HEADER
309
CELLSTYLE_END
300
CELLSTYLE
  1
TABLEFORMAT_BEGIN
 90
        5
170
     1
 91
        0
 92
        0
 62
   257
 93
        1
300
CONTENTFORMAT
  1
CONTENTFORMAT_BEGIN
 90
        0
 91
        0
 92
      512
 93
        0
300

 40
0.0
140
1.0
 94
        2
 62
     0
340
55
144
0.18
309
CONTENTFORMAT_END
171
     0
 94
        0
309
TABLEFORMAT_END
  1
CELLSTYLE_BEGIN
 90
        3
 91
        2
300
_DATA
309
CELLSTYLE_END
  0
XRECORD
  5
10D
102
{ACAD_REACTORS
330
10C
102
}
330
10C
100
AcDbXrecord
280
     1
102
RTVSPost2010Prop28
280
     1
102
RTVSPost2010PropOp28
 70
     1
102
RTVSPost2010Prop29
280
     1
102
RTVSPost2010PropOp29
 70
     1
102
RTVSPost2010Prop30
280
     0
102
RTVSPost2010PropOp30
 70
     1
102
RTVSPost2010Prop31
280
     0
102
RTVSPost2010PropOp31
 70
     1
102
RTVSPost2010Prop32
280
     0
102
RTVSPost2010PropOp32
 70
     1
102
RTVSPost2010Prop33
280
     0
102
RTVSPost2010PropOp33
 70
     1
102
RTVSPost2010Prop34
280
     0
102
RTVSPost2010PropOp34
 70
     1
102
RTVSPost2010Prop35
280
     0
102
RTVSPost2010PropOp35
 70
     1
102
RTVSPost2010Prop36
280
     0
102
RTVSPost2010PropOp36
 70
     1
102
RTVSPost2010Prop37
 90
       50
102
RTVSPost2010PropOp37
 70
     1
102
RTVSPost2010Prop38
140
0.0
102
RTVSPost2010PropOp38
 70
     1
102
RTVSPost2010Prop39
140
1.0
102
RTVSPost2010PropOp39
 70
     1
102
RTVSPost2010Prop40
 90
        0
102
RTVSPost2010PropOp40
 70
     1
102
RTVSPost2010Prop41ColorIndex
 90
       18
102
RTVSPost2010Prop41ColorRGB
 90
        0
102
RTVSPost2010PropOp41
 70
     1
102
RTVSPost2010Prop42
 90
       50
102
RTVSPost2010PropOp42
 70
     1
102
RTVSPost2010Prop43
 90
        3
102
RTVSPost2010PropOp43
 70
     1
102
RTVSPost2010Prop44ColorIndex
 90
        5
102
RTVSPost2010Prop44ColorRGB
 90
      255
102
RTVSPost2010PropOp44
 70
     1
102
RTVSPost2010Prop45
280
     0
102
RTVSPost2010PropOp45
 70
     1
102
RTVSPost2010Prop46
 90
       50
102
RTVSPost2010PropOp46
 70
     1
102
RTVSPost2010Prop47
 90
       50
102
RTVSPost2010PropOp47
 70
     1
102
RTVSPost2010Prop48
 90
       50
102
RTVSPost2010PropOp48
 70
     1
102
RTVSPost2010Prop49
280
     0
102
RTVSPost2010PropOp49
 70
     1
102
RTVSPost2010Prop50
 90
       50
102
RTVSPost2010PropOp50
 70
     1
102
RTVSPost2010Prop51ColorIndex
 90
      256
102
RTVSPost2010Prop51ColorRGB
 90
-16777216
102
RTVSPost2010PropOp51
 70
     0
102
RTVSPost2010Prop52
140
1.0
102
RTVSPost2010PropOp52
 70
     0
102
RTVSPost2010Prop53
 90
        2
102
RTVSPost2010PropOp53
 70
     1
102
RTVSPost2010Prop54
  1
strokes_ogs.tif
102
RTVSPost2010PropOp54
 70
     1
102
RTVSPost2010Prop55
280
     0
102
RTVSPost2010PropOp55
 70
     1
102
RTVSPost2010Prop56
140
1.0
102
RTVSPost2010PropOp56
 70
     1
102
RTVSPost2010Prop57
140
1.0
102
RTVSPost2010PropOp57
 70
     1
  0
XRECORD
  5
10B
102
{ACAD_REACTORS
330
10A
102
}
330
10A
100
AcDbXrecord
280
     1
102
RTVSPost2010Prop28
280
     0
102
RTVSPost2010PropOp28
 70
     1
102
RTVSPost2010Prop29
280
     1
102
RTVSPost2010PropOp29
 70
     1
102
RTVSPost2010Prop30
280
     1
102
RTVSPost2010PropOp30
 70
     1
102
RTVSPost2010Prop31
280
     0
102
RTVSPost2010PropOp31
 70
     1
102
RTVSPost2010Prop32
280
     0
102
RTVSPost2010PropOp32
 70
     1
102
RTVSPost2010Prop33
280
     0
102
RTVSPost2010PropOp33
 70
     1
102
RTVSPost2010Prop34
280
     0
102
RTVSPost2010PropOp34
 70
     1
102
RTVSPost2010Prop35
280
     0
102
RTVSPost2010PropOp35
 70
     1
102
RTVSPost2010Prop36
280
     0
102
RTVSPost2010PropOp36
 70
     1
102
RTVSPost2010Prop37
 90
       50
102
RTVSPost2010PropOp37
 70
     1
102
RTVSPost2010Prop38
140
0.0
102
RTVSPost2010PropOp38
 70
     1
102
RTVSPost2010Prop39
140
1.0
102
RTVSPost2010PropOp39
 70
     1
102
RTVSPost2010Prop40
 90
        0
102
RTVSPost2010PropOp40
 70
     1
102
RTVSPost2010Prop41ColorIndex
 90
       18
102
RTVSPost2010Prop41ColorRGB
 90
        0
102
RTVSPost2010PropOp41
 70
     1
102
RTVSPost2010Prop42
 90
       50
102
RTVSPost2010PropOp42
 70
     1
102
RTVSPost2010Prop43
 90
        3
102
RTVSPost2010PropOp43
 70
     1
102
RTVSPost2010Prop44ColorIndex
 90
        5
102
RTVSPost2010Prop44ColorRGB
 90
      255
102
RTVSPost2010PropOp44
 70
     1
102
RTVSPost2010Prop45
280
     0
102
RTVSPost2010PropOp45
 70
     1
102
RTVSPost2010Prop46
 90
       50
102
RTVSPost2010PropOp46
 70
     1
102
RTVSPost2010Prop47
 90
       50
102
RTVSPost2010PropOp47
 70
     1
102
RTVSPost2010Prop48
 90
       50
102
RTVSPost2010PropOp48
 70
     1
102
RTVSPost2010Prop49
280
     0
102
RTVSPost2010PropOp49
 70
     1
102
RTVSPost2010Prop50
 90
       50
102
RTVSPost2010PropOp50
 70
     1
102
RTVSPost2010Prop51ColorIndex
 90
      256
102
RTVSPost2010Prop51ColorRGB
 90
-16777216
102
RTVSPost2010PropOp51
 70
     0
102
RTVSPost2010Prop52
140
1.0
102
RTVSPost2010PropOp52
 70
     0
102
RTVSPost2010Prop53
 90
        2
102
RTVSPost2010PropOp53
 70
     1
102
RTVSPost2010Prop54
  1
strokes_ogs.tif
102
RTVSPost2010PropOp54
 70
     1
102
RTVSPost2010Prop55
280
     0
102
RTVSPost2010PropOp55
 70
     1
102
RTVSPost2010Prop56
140
1.0
102
RTVSPost2010PropOp56
 70
     1
102
RTVSPost2010Prop57
140
1.0
102
RTVSPost2010PropOp57
 70
     1
  0
XRECORD
  5
119
102
{ACAD_REACTORS
330
118
102
}
330
118
100
AcDbXrecord
280
     1
102
RTVSPost2010Prop28
280
     0
102
RTVSPost2010PropOp28
 70
     1
102
RTVSPost2010Prop29
280
     1
102
RTVSPost2010PropOp29
 70
     1
102
RTVSPost2010Prop30
280
     1
102
RTVSPost2010PropOp30
 70
     1
102
RTVSPost2010Prop31
280
     0
102
RTVSPost2010PropOp31
 70
     1
102
RTVSPost2010Prop32
280
     0
102
RTVSPost2010PropOp32
 70
     1
102
RTVSPost2010Prop33
280
     0
102
RTVSPost2010PropOp33
 70
     1
102
RTVSPost2010Prop34
280
     0
102
RTVSPost2010PropOp34
 70
     1
102
RTVSPost2010Prop35
280
     0
102
RTVSPost2010PropOp35
 70
     1
102
RTVSPost2010Prop36
280
     0
102
RTVSPost2010PropOp36
 70
     1
102
RTVSPost2010Prop37
 90
       50
102
RTVSPost2010PropOp37
 70
     1
102
RTVSPost2010Prop38
140
0.0
102
RTVSPost2010PropOp38
 70
     1
102
RTVSPost2010Prop39
140
1.0
102
RTVSPost2010PropOp39
 70
     1
102
RTVSPost2010Prop40
 90
        0
102
RTVSPost2010PropOp40
 70
     1
102
RTVSPost2010Prop41ColorIndex
 90
       18
102
RTVSPost2010Prop41ColorRGB
 90
        0
102
RTVSPost2010PropOp41
 70
     1
102
RTVSPost2010Prop42
 90
       50
102
RTVSPost2010PropOp42
 70
     1
102
RTVSPost2010Prop43
 90
        3
102
RTVSPost2010PropOp43
 70
     1
102
RTVSPost2010Prop44ColorIndex
 90
        5
102
RTVSPost2010Prop44ColorRGB
 90
      255
102
RTVSPost2010PropOp44
 70
     1
102
RTVSPost2010Prop45
280
     0
102
RTVSPost2010PropOp45
 70
     1
102
RTVSPost2010Prop46
 90
       50
102
RTVSPost2010PropOp46
 70
     1
102
RTVSPost2010Prop47
 90
       50
102
RTVSPost2010PropOp47
 70
     1
102
RTVSPost2010Prop48
 90
       50
102
RTVSPost2010PropOp48
 70
     1
102
RTVSPost2010Prop49
280
     0
102
RTVSPost2010PropOp49
 70
     1
102
RTVSPost2010Prop50
 90
       50
102
RTVSPost2010PropOp50
 70
     1
102
RTVSPost2010Prop51ColorIndex
 90
      256
102
RTVSPost2010Prop51ColorRGB
 90
-16777216
102
RTVSPost2010PropOp51
 70
     0
102
RTVSPost2010Prop52
140
1.0
102
RTVSPost2010PropOp52
 70
     0
102
RTVSPost2010Prop53
 90
        2
102
RTVSPost2010PropOp53
 70
     1
102
RTVSPost2010Prop54
  1
strokes_ogs.tif
102
RTVSPost2010PropOp54
 70
     1
102
RTVSPost2010Prop55
280
     0
102
RTVSPost2010PropOp55
 70
     1
102
RTVSPost2010Prop56
140
1.0
102
RTVSPost2010PropOp56
 70
     1
102
RTVSPost2010Prop57
140
1.0
102
RTVSPost2010PropOp57
 70
     1
  0
XRECORD
  5
121
102
{ACAD_REACTORS
330
120
102
}
330
120
100
AcDbXrecord
280
     1
102
RTVSPost2010Prop28
280
     0
102
RTVSPost2010PropOp28
 70
     1
102
RTVSPost2010Prop29
280
     1
102
RTVSPost2010PropOp29
 70
     1
102
RTVSPost2010Prop30
280
     1
102
RTVSPost2010PropOp30
 70
     1
102
RTVSPost2010Prop31
280
     0
102
RTVSPost2010PropOp31
 70
     1
102
RTVSPost2010Prop32
280
     0
102
RTVSPost2010PropOp32
 70
     1
102
RTVSPost2010Prop33
280
     0
102
RTVSPost2010PropOp33
 70
     1
102
RTVSPost2010Prop34
280
     0
102
RTVSPost2010PropOp34
 70
     1
102
RTVSPost2010Prop35
280
     0
102
RTVSPost2010PropOp35
 70
     1
102
RTVSPost2010Prop36
280
     0
102
RTVSPost2010PropOp36
 70
     1
102
RTVSPost2010Prop37
 90
       50
102
RTVSPost2010PropOp37
 70
     1
102
RTVSPost2010Prop38
140
0.0
102
RTVSPost2010PropOp38
 70
     1
102
RTVSPost2010Prop39
140
1.0
102
RTVSPost2010PropOp39
 70
     1
102
RTVSPost2010Prop40
 90
        0
102
RTVSPost2010PropOp40
 70
     1
102
RTVSPost2010Prop41ColorIndex
 90
       18
102
RTVSPost2010Prop41ColorRGB
 90
        0
102
RTVSPost2010PropOp41
 70
     1
102
RTVSPost2010Prop42
 90
       50
102
RTVSPost2010PropOp42
 70
     1
102
RTVSPost2010Prop43
 90
        3
102
RTVSPost2010PropOp43
 70
     1
102
RTVSPost2010Prop44ColorIndex
 90
        5
102
RTVSPost2010Prop44ColorRGB
 90
      255
102
RTVSPost2010PropOp44
 70
     1
102
RTVSPost2010Prop45
280
     0
102
RTVSPost2010PropOp45
 70
     1
102
RTVSPost2010Prop46
 90
       50
102
RTVSPost2010PropOp46
 70
     1
102
RTVSPost2010Prop47
 90
       50
102
RTVSPost2010PropOp47
 70
     1
102
RTVSPost2010Prop48
 90
       50
102
RTVSPost2010PropOp48
 70
     1
102
RTVSPost2010Prop49
280
     0
102
RTVSPost2010PropOp49
 70
     1
102
RTVSPost2010Prop50
 90
       50
102
RTVSPost2010PropOp50
 70
     1
102
RTVSPost2010Prop51ColorIndex
 90
      256
102
RTVSPost2010Prop51ColorRGB
 90
-16777216
102
RTVSPost2010PropOp51
 70
     0
102
RTVSPost2010Prop52
140
1.0
102
RTVSPost2010PropOp52
 70
     0
102
RTVSPost2010Prop53
 90
        2
102
RTVSPost2010PropOp53
 70
     1
102
RTVSPost2010Prop54
  1
strokes_ogs.tif
102
RTVSPost2010PropOp54
 70
     1
102
RTVSPost2010Prop55
280
     0
102
RTVSPost2010PropOp55
 70
     1
102
RTVSPost2010Prop56
140
1.0
102
RTVSPost2010PropOp56
 70
     1
102
RTVSPost2010Prop57
140
1.0
102
RTVSPost2010PropOp57
 70
     1
  0
XRECORD
  5
113
102
{ACAD_REACTORS
330
112
102
}
330
112
100
AcDbXrecord
280
     1
102
RTVSPost2010Prop28
280
     0
102
RTVSPost2010PropOp28
 70
     1
102
RTVSPost2010Prop29
280
     1
102
RTVSPost2010PropOp29
 70
     1
102
RTVSPost2010Prop30
280
     1
102
RTVSPost2010PropOp30
 70
     1
102
RTVSPost2010Prop31
280
     0
102
RTVSPost2010PropOp31
 70
     1
102
RTVSPost2010Prop32
280
     0
102
RTVSPost2010PropOp32
 70
     1
102
RTVSPost2010Prop33
280
     0
102
RTVSPost2010PropOp33
 70
     1
102
RTVSPost2010Prop34
280
     0
102
RTVSPost2010PropOp34
 70
     1
102
RTVSPost2010Prop35
280
     0
102
RTVSPost2010PropOp35
 70
     1
102
RTVSPost2010Prop36
280
     0
102
RTVSPost2010PropOp36
 70
     1
102
RTVSPost2010Prop37
 90
       50
102
RTVSPost2010PropOp37
 70
     1
102
RTVSPost2010Prop38
140
0.0
102
RTVSPost2010PropOp38
 70
     1
102
RTVSPost2010Prop39
140
1.0
102
RTVSPost2010PropOp39
 70
     1
102
RTVSPost2010Prop40
 90
        0
102
RTVSPost2010PropOp40
 70
     1
102
RTVSPost2010Prop41ColorIndex
 90
       18
102
RTVSPost2010Prop41ColorRGB
 90
        0
102
RTVSPost2010PropOp41
 70
     1
102
RTVSPost2010Prop42
 90
       50
102
RTVSPost2010PropOp42
 70
     1
102
RTVSPost2010Prop43
 90
        3
102
RTVSPost2010PropOp43
 70
     1
102
RTVSPost2010Prop44ColorIndex
 90
        5
102
RTVSPost2010Prop44ColorRGB
 90
      255
102
RTVSPost2010PropOp44
 70
     1
102
RTVSPost2010Prop45
280
     0
102
RTVSPost2010PropOp45
 70
     1
102
RTVSPost2010Prop46
 90
       50
102
RTVSPost2010PropOp46
 70
     1
102
RTVSPost2010Prop47
 90
       50
102
RTVSPost2010PropOp47
 70
     1
102
RTVSPost2010Prop48
 90
       50
102
RTVSPost2010PropOp48
 70
     1
102
RTVSPost2010Prop49
280
     0
102
RTVSPost2010PropOp49
 70
     1
102
RTVSPost2010Prop50
 90
       50
102
RTVSPost2010PropOp50
 70
     1
102
RTVSPost2010Prop51ColorIndex
 90
      256
102
RTVSPost2010Prop51ColorRGB
 90
-16777216
102
RTVSPost2010PropOp51
 70
     0
102
RTVSPost2010Prop52
140
1.0
102
RTVSPost2010PropOp52
 70
     0
102
RTVSPost2010Prop53
 90
        2
102
RTVSPost2010PropOp53
 70
     1
102
RTVSPost2010Prop54
  1
strokes_ogs.tif
102
RTVSPost2010PropOp54
 70
     1
102
RTVSPost2010Prop55
280
     0
102
RTVSPost2010PropOp55
 70
     1
102
RTVSPost2010Prop56
140
1.0
102
RTVSPost2010PropOp56
 70
     1
102
RTVSPost2010Prop57
140
1.0
102
RTVSPost2010PropOp57
 70
     1
  0
XRECORD
  5
117
102
{ACAD_REACTORS
330
116
102
}
330
116
100
AcDbXrecord
280
     1
102
RTVSPost2010Prop28
280
     0
102
RTVSPost2010PropOp28
 70
     1
102
RTVSPost2010Prop29
280
     1
102
RTVSPost2010PropOp29
 70
     1
102
RTVSPost2010Prop30
280
     1
102
RTVSPost2010PropOp30
 70
     1
102
RTVSPost2010Prop31
280
     0
102
RTVSPost2010PropOp31
 70
     1
102
RTVSPost2010Prop32
280
     0
102
RTVSPost2010PropOp32
 70
     1
102
RTVSPost2010Prop33
280
     0
102
RTVSPost2010PropOp33
 70
     1
102
RTVSPost2010Prop34
280
     0
102
RTVSPost2010PropOp34
 70
     1
102
RTVSPost2010Prop35
280
     0
102
RTVSPost2010PropOp35
 70
     1
102
RTVSPost2010Prop36
280
     0
102
RTVSPost2010PropOp36
 70
     1
102
RTVSPost2010Prop37
 90
       50
102
RTVSPost2010PropOp37
 70
     1
102
RTVSPost2010Prop38
140
0.0
102
RTVSPost2010PropOp38
 70
     1
102
RTVSPost2010Prop39
140
1.0
102
RTVSPost2010PropOp39
 70
     1
102
RTVSPost2010Prop40
 90
        0
102
RTVSPost2010PropOp40
 70
     1
102
RTVSPost2010Prop41ColorIndex
 90
       18
102
RTVSPost2010Prop41ColorRGB
 90
        0
102
RTVSPost2010PropOp41
 70
     1
102
RTVSPost2010Prop42
 90
       50
102
RTVSPost2010PropOp42
 70
     1
102
RTVSPost2010Prop43
 90
        3
102
RTVSPost2010PropOp43
 70
     1
102
RTVSPost2010Prop44ColorIndex
 90
        5
102
RTVSPost2010Prop44ColorRGB
 90
      255
102
RTVSPost2010PropOp44
 70
     1
102
RTVSPost2010Prop45
280
     0
102
RTVSPost2010PropOp45
 70
     1
102
RTVSPost2010Prop46
 90
       50
102
RTVSPost2010PropOp46
 70
     1
102
RTVSPost2010Prop47
 90
       50
102
RTVSPost2010PropOp47
 70
     1
102
RTVSPost2010Prop48
 90
       50
102
RTVSPost2010PropOp48
 70
     1
102
RTVSPost2010Prop49
280
     0
102
RTVSPost2010PropOp49
 70
     1
102
RTVSPost2010Prop50
 90
       50
102
RTVSPost2010PropOp50
 70
     1
102
RTVSPost2010Prop51ColorIndex
 90
      256
102
RTVSPost2010Prop51ColorRGB
 90
-16777216
102
RTVSPost2010PropOp51
 70
     0
102
RTVSPost2010Prop52
140
1.0
102
RTVSPost2010PropOp52
 70
     0
102
RTVSPost2010Prop53
 90
        2
102
RTVSPost2010PropOp53
 70
     1
102
RTVSPost2010Prop54
  1
strokes_ogs.tif
102
RTVSPost2010PropOp54
 70
     1
102
RTVSPost2010Prop55
280
     0
102
RTVSPost2010PropOp55
 70
     1
102
RTVSPost2010Prop56
140
1.0
102
RTVSPost2010PropOp56
 70
     1
102
RTVSPost2010Prop57
140
1.0
102
RTVSPost2010PropOp57
 70
     1
  0
XRECORD
  5
131
102
{ACAD_REACTORS
330
130
102
}
330
130
100
AcDbXrecord
280
     1
102
RTVSPost2010Prop28
280
     0
102
RTVSPost2010PropOp28
 70
     0
102
RTVSPost2010Prop29
280
     1
102
RTVSPost2010PropOp29
 70
     0
102
RTVSPost2010Prop30
280
     1
102
RTVSPost2010PropOp30
 70
     0
102
RTVSPost2010Prop31
280
     0
102
RTVSPost2010PropOp31
 70
     0
102
RTVSPost2010Prop32
280
     0
102
RTVSPost2010PropOp32
 70
     0
102
RTVSPost2010Prop33
280
     0
102
RTVSPost2010PropOp33
 70
     0
102
RTVSPost2010Prop34
280
     0
102
RTVSPost2010PropOp34
 70
     0
102
RTVSPost2010Prop35
280
     0
102
RTVSPost2010PropOp35
 70
     0
102
RTVSPost2010Prop36
280
     0
102
RTVSPost2010PropOp36
 70
     0
102
RTVSPost2010Prop37
 90
       50
102
RTVSPost2010PropOp37
 70
     0
102
RTVSPost2010Prop38
140
0.0
102
RTVSPost2010PropOp38
 70
     0
102
RTVSPost2010Prop39
140
1.0
102
RTVSPost2010PropOp39
 70
     0
102
RTVSPost2010Prop40
 90
        0
102
RTVSPost2010PropOp40
 70
     0
102
RTVSPost2010Prop41ColorIndex
 90
       18
102
RTVSPost2010Prop41ColorRGB
 90
        0
102
RTVSPost2010PropOp41
 70
     0
102
RTVSPost2010Prop42
 90
       50
102
RTVSPost2010PropOp42
 70
     0
102
RTVSPost2010Prop43
 90
        3
102
RTVSPost2010PropOp43
 70
     0
102
RTVSPost2010Prop44ColorIndex
 90
        5
102
RTVSPost2010Prop44ColorRGB
 90
      255
102
RTVSPost2010PropOp44
 70
     0
102
RTVSPost2010Prop45
280
     0
102
RTVSPost2010PropOp45
 70
     0
102
RTVSPost2010Prop46
 90
       50
102
RTVSPost2010PropOp46
 70
     0
102
RTVSPost2010Prop47
 90
       50
102
RTVSPost2010PropOp47
 70
     0
102
RTVSPost2010Prop48
 90
       50
102
RTVSPost2010PropOp48
 70
     0
102
RTVSPost2010Prop49
280
     0
102
RTVSPost2010PropOp49
 70
     0
102
RTVSPost2010Prop50
 90
       50
102
RTVSPost2010PropOp50
 70
     0
102
RTVSPost2010Prop51ColorIndex
 90
      256
102
RTVSPost2010Prop51ColorRGB
 90
-16777216
102
RTVSPost2010PropOp51
 70
     0
102
RTVSPost2010Prop52
140
1.0
102
RTVSPost2010PropOp52
 70
     0
102
RTVSPost2010Prop53
 90
        2
102
RTVSPost2010PropOp53
 70
     0
102
RTVSPost2010Prop54
  1
strokes_ogs.tif
102
RTVSPost2010PropOp54
 70
     0
102
RTVSPost2010Prop55
280
     0
102
RTVSPost2010PropOp55
 70
     0
102
RTVSPost2010Prop56
140
1.0
102
RTVSPost2010PropOp56
 70
     0
102
RTVSPost2010Prop57
140
1.0
102
RTVSPost2010PropOp57
 70
     0
  0
XRECORD
  5
11F
102
{ACAD_REACTORS
330
11E
102
}
330
11E
100
AcDbXrecord
280
     1
102
RTVSPost2010Prop28
280
     0
102
RTVSPost2010PropOp28
 70
     1
102
RTVSPost2010Prop29
280
     1
102
RTVSPost2010PropOp29
 70
     1
102
RTVSPost2010Prop30
280
     1
102
RTVSPost2010PropOp30
 70
     1
102
RTVSPost2010Prop31
280
     0
102
RTVSPost2010PropOp31
 70
     1
102
RTVSPost2010Prop32
280
     0
102
RTVSPost2010PropOp32
 70
     1
102
RTVSPost2010Prop33
280
     0
102
RTVSPost2010PropOp33
 70
     1
102
RTVSPost2010Prop34
280
     0
102
RTVSPost2010PropOp34
 70
     1
102
RTVSPost2010Prop35
280
     0
102
RTVSPost2010PropOp35
 70
     1
102
RTVSPost2010Prop36
280
     0
102
RTVSPost2010PropOp36
 70
     1
102
RTVSPost2010Prop37
 90
       50
102
RTVSPost2010PropOp37
 70
     1
102
RTVSPost2010Prop38
140
0.0
102
RTVSPost2010PropOp38
 70
     1
102
RTVSPost2010Prop39
140
1.0
102
RTVSPost2010PropOp39
 70
     1
102
RTVSPost2010Prop40
 90
        0
102
RTVSPost2010PropOp40
 70
     1
102
RTVSPost2010Prop41ColorIndex
 90
       18
102
RTVSPost2010Prop41ColorRGB
 90
        0
102
RTVSPost2010PropOp41
 70
     1
102
RTVSPost2010Prop42
 90
       50
102
RTVSPost2010PropOp42
 70
     1
102
RTVSPost2010Prop43
 90
        3
102
RTVSPost2010PropOp43
 70
     1
102
RTVSPost2010Prop44ColorIndex
 90
        5
102
RTVSPost2010Prop44ColorRGB
 90
      255
102
RTVSPost2010PropOp44
 70
     1
102
RTVSPost2010Prop45
280
     0
102
RTVSPost2010PropOp45
 70
     1
102
RTVSPost2010Prop46
 90
       50
102
RTVSPost2010PropOp46
 70
     1
102
RTVSPost2010Prop47
 90
       50
102
RTVSPost2010PropOp47
 70
     1
102
RTVSPost2010Prop48
 90
       50
102
RTVSPost2010PropOp48
 70
     1
102
RTVSPost2010Prop49
280
     0
102
RTVSPost2010PropOp49
 70
     1
102
RTVSPost2010Prop50
 90
       50
102
RTVSPost2010PropOp50
 70
     1
102
RTVSPost2010Prop51ColorIndex
 90
      256
102
RTVSPost2010Prop51ColorRGB
 90
-16777216
102
RTVSPost2010PropOp51
 70
     0
102
RTVSPost2010Prop52
140
1.0
102
RTVSPost2010PropOp52
 70
     0
102
RTVSPost2010Prop53
 90
        2
102
RTVSPost2010PropOp53
 70
     1
102
RTVSPost2010Prop54
  1
strokes_ogs.tif
102
RTVSPost2010PropOp54
 70
     1
102
RTVSPost2010Prop55
280
     0
102
RTVSPost2010PropOp55
 70
     1
102
RTVSPost2010Prop56
140
1.0
102
RTVSPost2010PropOp56
 70
     1
102
RTVSPost2010Prop57
140
1.0
102
RTVSPost2010PropOp57
 70
     1
  0
XRECORD
  5
103
102
{ACAD_REACTORS
330
102
102
}
330
102
100
AcDbXrecord
280
     1
102
RTVSPost2010Prop28
280
     0
102
RTVSPost2010PropOp28
 70
     1
102
RTVSPost2010Prop29
280
     1
102
RTVSPost2010PropOp29
 70
     1
102
RTVSPost2010Prop30
280
     1
102
RTVSPost2010PropOp30
 70
     1
102
RTVSPost2010Prop31
280
     0
102
RTVSPost2010PropOp31
 70
     1
102
RTVSPost2010Prop32
280
     0
102
RTVSPost2010PropOp32
 70
     1
102
RTVSPost2010Prop33
280
     0
102
RTVSPost2010PropOp33
 70
     1
102
RTVSPost2010Prop34
280
     0
102
RTVSPost2010PropOp34
 70
     1
102
RTVSPost2010Prop35
280
     0
102
RTVSPost2010PropOp35
 70
     1
102
RTVSPost2010Prop36
280
     0
102
RTVSPost2010PropOp36
 70
     1
102
RTVSPost2010Prop37
 90
       50
102
RTVSPost2010PropOp37
 70
     1
102
RTVSPost2010Prop38
140
0.0
102
RTVSPost2010PropOp38
 70
     1
102
RTVSPost2010Prop39
140
1.0
102
RTVSPost2010PropOp39
 70
     1
102
RTVSPost2010Prop40
 90
        0
102
RTVSPost2010PropOp40
 70
     1
102
RTVSPost2010Prop41ColorIndex
 90
       18
102
RTVSPost2010Prop41ColorRGB
 90
        0
102
RTVSPost2010PropOp41
 70
     1
102
RTVSPost2010Prop42
 90
       50
102
RTVSPost2010PropOp42
 70
     1
102
RTVSPost2010Prop43
 90
        3
102
RTVSPost2010PropOp43
 70
     1
102
RTVSPost2010Prop44ColorIndex
 90
        5
102
RTVSPost2010Prop44ColorRGB
 90
      255
102
RTVSPost2010PropOp44
 70
     1
102
RTVSPost2010Prop45
280
     0
102
RTVSPost2010PropOp45
 70
     1
102
RTVSPost2010Prop46
 90
       50
102
RTVSPost2010PropOp46
 70
     1
102
RTVSPost2010Prop47
 90
       50
102
RTVSPost2010PropOp47
 70
     1
102
RTVSPost2010Prop48
 90
       50
102
RTVSPost2010PropOp48
 70
     1
102
RTVSPost2010Prop49
280
     0
102
RTVSPost2010PropOp49
 70
     1
102
RTVSPost2010Prop50
 90
       50
102
RTVSPost2010PropOp50
 70
     1
102
RTVSPost2010Prop51ColorIndex
 90
      256
102
RTVSPost2010Prop51ColorRGB
 90
-16777216
102
RTVSPost2010PropOp51
 70
     0
102
RTVSPost2010Prop52
140
1.0
102
RTVSPost2010PropOp52
 70
     0
102
RTVSPost2010Prop53
 90
        2
102
RTVSPost2010PropOp53
 70
     1
102
RTVSPost2010Prop54
  1
strokes_ogs.tif
102
RTVSPost2010PropOp54
 70
     1
102
RTVSPost2010Prop55
280
     0
102
RTVSPost2010PropOp55
 70
     1
102
RTVSPost2010Prop56
140
1.0
102
RTVSPost2010PropOp56
 70
     1
102
RTVSPost2010Prop57
140
1.0
102
RTVSPost2010PropOp57
 70
     1
  0
XRECORD
  5
105
102
{ACAD_REACTORS
330
104
102
}
330
104
100
AcDbXrecord
280
     1
102
RTVSPost2010Prop28
280
     0
102
RTVSPost2010PropOp28
 70
     1
102
RTVSPost2010Prop29
280
     1
102
RTVSPost2010PropOp29
 70
     1
102
RTVSPost2010Prop30
280
     1
102
RTVSPost2010PropOp30
 70
     1
102
RTVSPost2010Prop31
280
     0
102
RTVSPost2010PropOp31
 70
     1
102
RTVSPost2010Prop32
280
     0
102
RTVSPost2010PropOp32
 70
     1
102
RTVSPost2010Prop33
280
     0
102
RTVSPost2010PropOp33
 70
     1
102
RTVSPost2010Prop34
280
     0
102
RTVSPost2010PropOp34
 70
     1
102
RTVSPost2010Prop35
280
     0
102
RTVSPost2010PropOp35
 70
     1
102
RTVSPost2010Prop36
280
     0
102
RTVSPost2010PropOp36
 70
     1
102
RTVSPost2010Prop37
 90
       50
102
RTVSPost2010PropOp37
 70
     1
102
RTVSPost2010Prop38
140
0.0
102
RTVSPost2010PropOp38
 70
     1
102
RTVSPost2010Prop39
140
1.0
102
RTVSPost2010PropOp39
 70
     1
102
RTVSPost2010Prop40
 90
        0
102
RTVSPost2010PropOp40
 70
     1
102
RTVSPost2010Prop41ColorIndex
 90
       18
102
RTVSPost2010Prop41ColorRGB
 90
        0
102
RTVSPost2010PropOp41
 70
     1
102
RTVSPost2010Prop42
 90
       50
102
RTVSPost2010PropOp42
 70
     1
102
RTVSPost2010Prop43
 90
        3
102
RTVSPost2010PropOp43
 70
     1
102
RTVSPost2010Prop44ColorIndex
 90
        5
102
RTVSPost2010Prop44ColorRGB
 90
      255
102
RTVSPost2010PropOp44
 70
     1
102
RTVSPost2010Prop45
280
     0
102
RTVSPost2010PropOp45
 70
     1
102
RTVSPost2010Prop46
 90
       50
102
RTVSPost2010PropOp46
 70
     1
102
RTVSPost2010Prop47
 90
       50
102
RTVSPost2010PropOp47
 70
     1
102
RTVSPost2010Prop48
 90
       50
102
RTVSPost2010PropOp48
 70
     1
102
RTVSPost2010Prop49
280
     0
102
RTVSPost2010PropOp49
 70
     1
102
RTVSPost2010Prop50
 90
       50
102
RTVSPost2010PropOp50
 70
     1
102
RTVSPost2010Prop51ColorIndex
 90
      256
102
RTVSPost2010Prop51ColorRGB
 90
-16777216
102
RTVSPost2010PropOp51
 70
     0
102
RTVSPost2010Prop52
140
1.0
102
RTVSPost2010PropOp52
 70
     0
102
RTVSPost2010Prop53
 90
        2
102
RTVSPost2010PropOp53
 70
     1
102
RTVSPost2010Prop54
  1
strokes_ogs.tif
102
RTVSPost2010PropOp54
 70
     1
102
RTVSPost2010Prop55
280
     0
102
RTVSPost2010PropOp55
 70
     1
102
RTVSPost2010Prop56
140
1.0
102
RTVSPost2010PropOp56
 70
     1
102
RTVSPost2010Prop57
140
1.0
102
RTVSPost2010PropOp57
 70
     1
  0
XRECORD
  5
107
102
{ACAD_REACTORS
330
106
102
}
330
106
100
AcDbXrecord
280
     1
102
RTVSPost2010Prop28
280
     0
102
RTVSPost2010PropOp28
 70
     1
102
RTVSPost2010Prop29
280
     1
102
RTVSPost2010PropOp29
 70
     1
102
RTVSPost2010Prop30
280
     1
102
RTVSPost2010PropOp30
 70
     1
102
RTVSPost2010Prop31
280
     0
102
RTVSPost2010PropOp31
 70
     1
102
RTVSPost2010Prop32
280
     0
102
RTVSPost2010PropOp32
 70
     1
102
RTVSPost2010Prop33
280
     0
102
RTVSPost2010PropOp33
 70
     1
102
RTVSPost2010Prop34
280
     0
102
RTVSPost2010PropOp34
 70
     1
102
RTVSPost2010Prop35
280
     0
102
RTVSPost2010PropOp35
 70
     1
102
RTVSPost2010Prop36
280
     0
102
RTVSPost2010PropOp36
 70
     1
102
RTVSPost2010Prop37
 90
       50
102
RTVSPost2010PropOp37
 70
     1
102
RTVSPost2010Prop38
140
0.0
102
RTVSPost2010PropOp38
 70
     1
102
RTVSPost2010Prop39
140
1.0
102
RTVSPost2010PropOp39
 70
     1
102
RTVSPost2010Prop40
 90
        0
102
RTVSPost2010PropOp40
 70
     1
102
RTVSPost2010Prop41ColorIndex
 90
       18
102
RTVSPost2010Prop41ColorRGB
 90
        0
102
RTVSPost2010PropOp41
 70
     1
102
RTVSPost2010Prop42
 90
       50
102
RTVSPost2010PropOp42
 70
     1
102
RTVSPost2010Prop43
 90
        3
102
RTVSPost2010PropOp43
 70
     1
102
RTVSPost2010Prop44ColorIndex
 90
        5
102
RTVSPost2010Prop44ColorRGB
 90
      255
102
RTVSPost2010PropOp44
 70
     1
102
RTVSPost2010Prop45
280
     0
102
RTVSPost2010PropOp45
 70
     1
102
RTVSPost2010Prop46
 90
       50
102
RTVSPost2010PropOp46
 70
     1
102
RTVSPost2010Prop47
 90
       50
102
RTVSPost2010PropOp47
 70
     1
102
RTVSPost2010Prop48
 90
       50
102
RTVSPost2010PropOp48
 70
     1
102
RTVSPost2010Prop49
280
     0
102
RTVSPost2010PropOp49
 70
     1
102
RTVSPost2010Prop50
 90
       50
102
RTVSPost2010PropOp50
 70
     1
102
RTVSPost2010Prop51ColorIndex
 90
      256
102
RTVSPost2010Prop51ColorRGB
 90
-16777216
102
RTVSPost2010PropOp51
 70
     0
102
RTVSPost2010Prop52
140
1.0
102
RTVSPost2010PropOp52
 70
     0
102
RTVSPost2010Prop53
 90
        2
102
RTVSPost2010PropOp53
 70
     1
102
RTVSPost2010Prop54
  1
strokes_ogs.tif
102
RTVSPost2010PropOp54
 70
     1
102
RTVSPost2010Prop55
280
     0
102
RTVSPost2010PropOp55
 70
     1
102
RTVSPost2010Prop56
140
1.0
102
RTVSPost2010PropOp56
 70
     1
102
RTVSPost2010Prop57
140
1.0
102
RTVSPost2010PropOp57
 70
     1
  0
XRECORD
  5
109
102
{ACAD_REACTORS
330
108
102
}
330
108
100
AcDbXrecord
280
     1
102
RTVSPost2010Prop28
280
     0
102
RTVSPost2010PropOp28
 70
     1
102
RTVSPost2010Prop29
280
     1
102
RTVSPost2010PropOp29
 70
     1
102
RTVSPost2010Prop30
280
     1
102
RTVSPost2010PropOp30
 70
     1
102
RTVSPost2010Prop31
280
     0
102
RTVSPost2010PropOp31
 70
     1
102
RTVSPost2010Prop32
280
     0
102
RTVSPost2010PropOp32
 70
     1
102
RTVSPost2010Prop33
280
     0
102
RTVSPost2010PropOp33
 70
     1
102
RTVSPost2010Prop34
280
     0
102
RTVSPost2010PropOp34
 70
     1
102
RTVSPost2010Prop35
280
     0
102
RTVSPost2010PropOp35
 70
     1
102
RTVSPost2010Prop36
280
     0
102
RTVSPost2010PropOp36
 70
     1
102
RTVSPost2010Prop37
 90
       50
102
RTVSPost2010PropOp37
 70
     1
102
RTVSPost2010Prop38
140
0.0
102
RTVSPost2010PropOp38
 70
     1
102
RTVSPost2010Prop39
140
1.0
102
RTVSPost2010PropOp39
 70
     1
102
RTVSPost2010Prop40
 90
        0
102
RTVSPost2010PropOp40
 70
     1
102
RTVSPost2010Prop41ColorIndex
 90
       18
102
RTVSPost2010Prop41ColorRGB
 90
        0
102
RTVSPost2010PropOp41
 70
     1
102
RTVSPost2010Prop42
 90
       50
102
RTVSPost2010PropOp42
 70
     1
102
RTVSPost2010Prop43
 90
        3
102
RTVSPost2010PropOp43
 70
     1
102
RTVSPost2010Prop44ColorIndex
 90
        5
102
RTVSPost2010Prop44ColorRGB
 90
      255
102
RTVSPost2010PropOp44
 70
     1
102
RTVSPost2010Prop45
280
     0
102
RTVSPost2010PropOp45
 70
     1
102
RTVSPost2010Prop46
 90
       50
102
RTVSPost2010PropOp46
 70
     1
102
RTVSPost2010Prop47
 90
       50
102
RTVSPost2010PropOp47
 70
     1
102
RTVSPost2010Prop48
 90
       50
102
RTVSPost2010PropOp48
 70
     1
102
RTVSPost2010Prop49
280
     0
102
RTVSPost2010PropOp49
 70
     1
102
RTVSPost2010Prop50
 90
       50
102
RTVSPost2010PropOp50
 70
     1
102
RTVSPost2010Prop51ColorIndex
 90
      256
102
RTVSPost2010Prop51ColorRGB
 90
-16777216
102
RTVSPost2010PropOp51
 70
     0
102
RTVSPost2010Prop52
140
1.0
102
RTVSPost2010PropOp52
 70
     0
102
RTVSPost2010Prop53
 90
        2
102
RTVSPost2010PropOp53
 70
     1
102
RTVSPost2010Prop54
  1
strokes_ogs.tif
102
RTVSPost2010PropOp54
 70
     1
102
RTVSPost2010Prop55
280
     0
102
RTVSPost2010PropOp55
 70
     1
102
RTVSPost2010Prop56
140
1.0
102
RTVSPost2010PropOp56
 70
     1
102
RTVSPost2010Prop57
140
1.0
102
RTVSPost2010PropOp57
 70
     1
  0
XRECORD
  5
111
102
{ACAD_REACTORS
330
110
102
}
330
110
100
AcDbXrecord
280
     1
102
RTVSPost2010Prop28
280
     0
102
RTVSPost2010PropOp28
 70
     1
102
RTVSPost2010Prop29
280
     1
102
RTVSPost2010PropOp29
 70
     1
102
RTVSPost2010Prop30
280
     1
102
RTVSPost2010PropOp30
 70
     1
102
RTVSPost2010Prop31
280
     0
102
RTVSPost2010PropOp31
 70
     1
102
RTVSPost2010Prop32
280
     0
102
RTVSPost2010PropOp32
 70
     1
102
RTVSPost2010Prop33
280
     0
102
RTVSPost2010PropOp33
 70
     1
102
RTVSPost2010Prop34
280
     0
102
RTVSPost2010PropOp34
 70
     1
102
RTVSPost2010Prop35
280
     0
102
RTVSPost2010PropOp35
 70
     1
102
RTVSPost2010Prop36
280
     0
102
RTVSPost2010PropOp36
 70
     1
102
RTVSPost2010Prop37
 90
       50
102
RTVSPost2010PropOp37
 70
     1
102
RTVSPost2010Prop38
140
0.0
102
RTVSPost2010PropOp38
 70
     1
102
RTVSPost2010Prop39
140
1.0
102
RTVSPost2010PropOp39
 70
     1
102
RTVSPost2010Prop40
 90
        0
102
RTVSPost2010PropOp40
 70
     1
102
RTVSPost2010Prop41ColorIndex
 90
       18
102
RTVSPost2010Prop41ColorRGB
 90
        0
102
RTVSPost2010PropOp41
 70
     1
102
RTVSPost2010Prop42
 90
       50
102
RTVSPost2010PropOp42
 70
     1
102
RTVSPost2010Prop43
 90
        3
102
RTVSPost2010PropOp43
 70
     1
102
RTVSPost2010Prop44ColorIndex
 90
        5
102
RTVSPost2010Prop44ColorRGB
 90
      255
102
RTVSPost2010PropOp44
 70
     1
102
RTVSPost2010Prop45
280
     0
102
RTVSPost2010PropOp45
 70
     1
102
RTVSPost2010Prop46
 90
       50
102
RTVSPost2010PropOp46
 70
     1
102
RTVSPost2010Prop47
 90
       50
102
RTVSPost2010PropOp47
 70
     1
102
RTVSPost2010Prop48
 90
       50
102
RTVSPost2010PropOp48
 70
     1
102
RTVSPost2010Prop49
280
     0
102
RTVSPost2010PropOp49
 70
     1
102
RTVSPost2010Prop50
 90
       50
102
RTVSPost2010PropOp50
 70
     1
102
RTVSPost2010Prop51ColorIndex
 90
      256
102
RTVSPost2010Prop51ColorRGB
 90
-16777216
102
RTVSPost2010PropOp51
 70
     0
102
RTVSPost2010Prop52
140
1.0
102
RTVSPost2010PropOp52
 70
     0
102
RTVSPost2010Prop53
 90
        2
102
RTVSPost2010PropOp53
 70
     1
102
RTVSPost2010Prop54
  1
strokes_ogs.tif
102
RTVSPost2010PropOp54
 70
     1
102
RTVSPost2010Prop55
280
     0
102
RTVSPost2010PropOp55
 70
     1
102
RTVSPost2010Prop56
140
1.0
102
RTVSPost2010PropOp56
 70
     1
102
RTVSPost2010Prop57
140
1.0
102
RTVSPost2010PropOp57
 70
     1
  0
XRECORD
  5
12D
102
{ACAD_REACTORS
330
12C
102
}
330
12C
100
AcDbXrecord
280
     1
102
RTVSPost2010Prop28
280
     0
102
RTVSPost2010PropOp28
 70
     0
102
RTVSPost2010Prop29
280
     1
102
RTVSPost2010PropOp29
 70
     0
102
RTVSPost2010Prop30
280
     1
102
RTVSPost2010PropOp30
 70
     0
102
RTVSPost2010Prop31
280
     0
102
RTVSPost2010PropOp31
 70
     0
102
RTVSPost2010Prop32
280
     0
102
RTVSPost2010PropOp32
 70
     0
102
RTVSPost2010Prop33
280
     0
102
RTVSPost2010PropOp33
 70
     0
102
RTVSPost2010Prop34
280
     0
102
RTVSPost2010PropOp34
 70
     0
102
RTVSPost2010Prop35
280
     0
102
RTVSPost2010PropOp35
 70
     0
102
RTVSPost2010Prop36
280
     0
102
RTVSPost2010PropOp36
 70
     0
102
RTVSPost2010Prop37
 90
       50
102
RTVSPost2010PropOp37
 70
     0
102
RTVSPost2010Prop38
140
0.0
102
RTVSPost2010PropOp38
 70
     0
102
RTVSPost2010Prop39
140
1.0
102
RTVSPost2010PropOp39
 70
     0
102
RTVSPost2010Prop40
 90
        0
102
RTVSPost2010PropOp40
 70
     0
102
RTVSPost2010Prop41ColorIndex
 90
       18
102
RTVSPost2010Prop41ColorRGB
 90
        0
102
RTVSPost2010PropOp41
 70
     0
102
RTVSPost2010Prop42
 90
       50
102
RTVSPost2010PropOp42
 70
     0
102
RTVSPost2010Prop43
 90
        3
102
RTVSPost2010PropOp43
 70
     0
102
RTVSPost2010Prop44ColorIndex
 90
        5
102
RTVSPost2010Prop44ColorRGB
 90
      255
102
RTVSPost2010PropOp44
 70
     0
102
RTVSPost2010Prop45
280
     0
102
RTVSPost2010PropOp45
 70
     0
102
RTVSPost2010Prop46
 90
       50
102
RTVSPost2010PropOp46
 70
     0
102
RTVSPost2010Prop47
 90
       50
102
RTVSPost2010PropOp47
 70
     0
102
RTVSPost2010Prop48
 90
       50
102
RTVSPost2010PropOp48
 70
     0
102
RTVSPost2010Prop49
280
     0
102
RTVSPost2010PropOp49
 70
     0
102
RTVSPost2010Prop50
 90
       50
102
RTVSPost2010PropOp50
 70
     0
102
RTVSPost2010Prop51ColorIndex
 90
      256
102
RTVSPost2010Prop51ColorRGB
 90
-16777216
102
RTVSPost2010PropOp51
 70
     0
102
RTVSPost2010Prop52
140
1.0
102
RTVSPost2010PropOp52
 70
     0
102
RTVSPost2010Prop53
 90
        2
102
RTVSPost2010PropOp53
 70
     0
102
RTVSPost2010Prop54
  1
strokes_ogs.tif
102
RTVSPost2010PropOp54
 70
     0
102
RTVSPost2010Prop55
280
     0
102
RTVSPost2010PropOp55
 70
     0
102
RTVSPost2010Prop56
140
1.0
102
RTVSPost2010PropOp56
 70
     0
102
RTVSPost2010Prop57
140
1.0
102
RTVSPost2010PropOp57
 70
     0
  0
XRECORD
  5
11D
102
{ACAD_REACTORS
330
11C
102
}
330
11C
100
AcDbXrecord
280
     1
102
RTVSPost2010Prop28
280
     0
102
RTVSPost2010PropOp28
 70
     1
102
RTVSPost2010Prop29
280
     1
102
RTVSPost2010PropOp29
 70
     1
102
RTVSPost2010Prop30
280
     1
102
RTVSPost2010PropOp30
 70
     1
102
RTVSPost2010Prop31
280
     0
102
RTVSPost2010PropOp31
 70
     1
102
RTVSPost2010Prop32
280
     0
102
RTVSPost2010PropOp32
 70
     1
102
RTVSPost2010Prop33
280
     0
102
RTVSPost2010PropOp33
 70
     1
102
RTVSPost2010Prop34
280
     0
102
RTVSPost2010PropOp34
 70
     1
102
RTVSPost2010Prop35
280
     0
102
RTVSPost2010PropOp35
 70
     1
102
RTVSPost2010Prop36
280
     0
102
RTVSPost2010PropOp36
 70
     1
102
RTVSPost2010Prop37
 90
       50
102
RTVSPost2010PropOp37
 70
     1
102
RTVSPost2010Prop38
140
0.0
102
RTVSPost2010PropOp38
 70
     1
102
RTVSPost2010Prop39
140
1.0
102
RTVSPost2010PropOp39
 70
     1
102
RTVSPost2010Prop40
 90
        0
102
RTVSPost2010PropOp40
 70
     1
102
RTVSPost2010Prop41ColorIndex
 90
       18
102
RTVSPost2010Prop41ColorRGB
 90
        0
102
RTVSPost2010PropOp41
 70
     1
102
RTVSPost2010Prop42
 90
       50
102
RTVSPost2010PropOp42
 70
     1
102
RTVSPost2010Prop43
 90
        3
102
RTVSPost2010PropOp43
 70
     1
102
RTVSPost2010Prop44ColorIndex
 90
        5
102
RTVSPost2010Prop44ColorRGB
 90
      255
102
RTVSPost2010PropOp44
 70
     1
102
RTVSPost2010Prop45
280
     0
102
RTVSPost2010PropOp45
 70
     1
102
RTVSPost2010Prop46
 90
       50
102
RTVSPost2010PropOp46
 70
     1
102
RTVSPost2010Prop47
 90
       50
102
RTVSPost2010PropOp47
 70
     1
102
RTVSPost2010Prop48
 90
       50
102
RTVSPost2010PropOp48
 70
     1
102
RTVSPost2010Prop49
280
     0
102
RTVSPost2010PropOp49
 70
     1
102
RTVSPost2010Prop50
 90
       50
102
RTVSPost2010PropOp50
 70
     1
102
RTVSPost2010Prop51ColorIndex
 90
      256
102
RTVSPost2010Prop51ColorRGB
 90
-16777216
102
RTVSPost2010PropOp51
 70
     0
102
RTVSPost2010Prop52
140
1.0
102
RTVSPost2010PropOp52
 70
     0
102
RTVSPost2010Prop53
 90
        2
102
RTVSPost2010PropOp53
 70
     1
102
RTVSPost2010Prop54
  1
strokes_ogs.tif
102
RTVSPost2010PropOp54
 70
     1
102
RTVSPost2010Prop55
280
     0
102
RTVSPost2010PropOp55
 70
     1
102
RTVSPost2010Prop56
140
1.0
102
RTVSPost2010PropOp56
 70
     1
102
RTVSPost2010Prop57
140
1.0
102
RTVSPost2010PropOp57
 70
     1
  0
XRECORD
  5
12F
102
{ACAD_REACTORS
330
12E
102
}
330
12E
100
AcDbXrecord
280
     1
102
RTVSPost2010Prop28
280
     0
102
RTVSPost2010PropOp28
 70
     0
102
RTVSPost2010Prop29
280
     1
102
RTVSPost2010PropOp29
 70
     0
102
RTVSPost2010Prop30
280
     1
102
RTVSPost2010PropOp30
 70
     0
102
RTVSPost2010Prop31
280
     0
102
RTVSPost2010PropOp31
 70
     0
102
RTVSPost2010Prop32
280
     0
102
RTVSPost2010PropOp32
 70
     0
102
RTVSPost2010Prop33
280
     0
102
RTVSPost2010PropOp33
 70
     0
102
RTVSPost2010Prop34
280
     0
102
RTVSPost2010PropOp34
 70
     0
102
RTVSPost2010Prop35
280
     0
102
RTVSPost2010PropOp35
 70
     0
102
RTVSPost2010Prop36
280
     0
102
RTVSPost2010PropOp36
 70
     0
102
RTVSPost2010Prop37
 90
       50
102
RTVSPost2010PropOp37
 70
     0
102
RTVSPost2010Prop38
140
0.0
102
RTVSPost2010PropOp38
 70
     0
102
RTVSPost2010Prop39
140
1.0
102
RTVSPost2010PropOp39
 70
     0
102
RTVSPost2010Prop40
 90
        0
102
RTVSPost2010PropOp40
 70
     0
102
RTVSPost2010Prop41ColorIndex
 90
       18
102
RTVSPost2010Prop41ColorRGB
 90
        0
102
RTVSPost2010PropOp41
 70
     0
102
RTVSPost2010Prop42
 90
       50
102
RTVSPost2010PropOp42
 70
     0
102
RTVSPost2010Prop43
 90
        3
102
RTVSPost2010PropOp43
 70
     0
102
RTVSPost2010Prop44ColorIndex
 90
        5
102
RTVSPost2010Prop44ColorRGB
 90
      255
102
RTVSPost2010PropOp44
 70
     0
102
RTVSPost2010Prop45
280
     0
102
RTVSPost2010PropOp45
 70
     0
102
RTVSPost2010Prop46
 90
       50
102
RTVSPost2010PropOp46
 70
     0
102
RTVSPost2010Prop47
 90
       50
102
RTVSPost2010PropOp47
 70
     0
102
RTVSPost2010Prop48
 90
       50
102
RTVSPost2010PropOp48
 70
     0
102
RTVSPost2010Prop49
280
     0
102
RTVSPost2010PropOp49
 70
     0
102
RTVSPost2010Prop50
 90
       50
102
RTVSPost2010PropOp50
 70
     0
102
RTVSPost2010Prop51ColorIndex
 90
      256
102
RTVSPost2010Prop51ColorRGB
 90
-16777216
102
RTVSPost2010PropOp51
 70
     0
102
RTVSPost2010Prop52
140
1.0
102
RTVSPost2010PropOp52
 70
     0
102
RTVSPost2010Prop53
 90
        2
102
RTVSPost2010PropOp53
 70
     0
102
RTVSPost2010Prop54
  1
strokes_ogs.tif
102
RTVSPost2010PropOp54
 70
     0
102
RTVSPost2010Prop55
280
     0
102
RTVSPost2010PropOp55
 70
     0
102
RTVSPost2010Prop56
140
1.0
102
RTVSPost2010PropOp56
 70
     0
102
RTVSPost2010Prop57
140
1.0
102
RTVSPost2010PropOp57
 70
     0
  0
XRECORD
  5
115
102
{ACAD_REACTORS
330
114
102
}
330
114
100
AcDbXrecord
280
     1
102
RTVSPost2010Prop28
280
     0
102
RTVSPost2010PropOp28
 70
     1
102
RTVSPost2010Prop29
280
     1
102
RTVSPost2010PropOp29
 70
     1
102
RTVSPost2010Prop30
280
     1
102
RTVSPost2010PropOp30
 70
     1
102
RTVSPost2010Prop31
280
     0
102
RTVSPost2010PropOp31
 70
     1
102
RTVSPost2010Prop32
280
     0
102
RTVSPost2010PropOp32
 70
     1
102
RTVSPost2010Prop33
280
     0
102
RTVSPost2010PropOp33
 70
     1
102
RTVSPost2010Prop34
280
     0
102
RTVSPost2010PropOp34
 70
     1
102
RTVSPost2010Prop35
280
     0
102
RTVSPost2010PropOp35
 70
     1
102
RTVSPost2010Prop36
280
     0
102
RTVSPost2010PropOp36
 70
     1
102
RTVSPost2010Prop37
 90
       50
102
RTVSPost2010PropOp37
 70
     1
102
RTVSPost2010Prop38
140
0.0
102
RTVSPost2010PropOp38
 70
     1
102
RTVSPost2010Prop39
140
1.0
102
RTVSPost2010PropOp39
 70
     1
102
RTVSPost2010Prop40
 90
        0
102
RTVSPost2010PropOp40
 70
     1
102
RTVSPost2010Prop41ColorIndex
 90
       18
102
RTVSPost2010Prop41ColorRGB
 90
        0
102
RTVSPost2010PropOp41
 70
     1
102
RTVSPost2010Prop42
 90
       50
102
RTVSPost2010PropOp42
 70
     1
102
RTVSPost2010Prop43
 90
        3
102
RTVSPost2010PropOp43
 70
     1
102
RTVSPost2010Prop44ColorIndex
 90
        5
102
RTVSPost2010Prop44ColorRGB
 90
      255
102
RTVSPost2010PropOp44
 70
     1
102
RTVSPost2010Prop45
280
     0
102
RTVSPost2010PropOp45
 70
     1
102
RTVSPost2010Prop46
 90
       50
102
RTVSPost2010PropOp46
 70
     1
102
RTVSPost2010Prop47
 90
       50
102
RTVSPost2010PropOp47
 70
     1
102
RTVSPost2010Prop48
 90
       50
102
RTVSPost2010PropOp48
 70
     1
102
RTVSPost2010Prop49
280
     0
102
RTVSPost2010PropOp49
 70
     1
102
RTVSPost2010Prop50
 90
       50
102
RTVSPost2010PropOp50
 70
     1
102
RTVSPost2010Prop51ColorIndex
 90
      256
102
RTVSPost2010Prop51ColorRGB
 90
-16777216
102
RTVSPost2010PropOp51
 70
     0
102
RTVSPost2010Prop52
140
1.0
102
RTVSPost2010PropOp52
 70
     0
102
RTVSPost2010Prop53
 90
        2
102
RTVSPost2010PropOp53
 70
     1
102
RTVSPost2010Prop54
  1
strokes_ogs.tif
102
RTVSPost2010PropOp54
 70
     1
102
RTVSPost2010Prop55
280
     0
102
RTVSPost2010PropOp55
 70
     1
102
RTVSPost2010Prop56
140
1.0
102
RTVSPost2010PropOp56
 70
     1
102
RTVSPost2010Prop57
140
1.0
102
RTVSPost2010PropOp57
 70
     1
  0
XRECORD
  5
12B
102
{ACAD_REACTORS
330
12A
102
}
330
12A
100
AcDbXrecord
280
     1
102
RTVSPost2010Prop28
280
     0
102
RTVSPost2010PropOp28
 70
     1
102
RTVSPost2010Prop29
280
     1
102
RTVSPost2010PropOp29
 70
     1
102
RTVSPost2010Prop30
280
     1
102
RTVSPost2010PropOp30
 70
     1
102
RTVSPost2010Prop31
280
     0
102
RTVSPost2010PropOp31
 70
     1
102
RTVSPost2010Prop32
280
     0
102
RTVSPost2010PropOp32
 70
     1
102
RTVSPost2010Prop33
280
     0
102
RTVSPost2010PropOp33
 70
     1
102
RTVSPost2010Prop34
280
     0
102
RTVSPost2010PropOp34
 70
     1
102
RTVSPost2010Prop35
280
     0
102
RTVSPost2010PropOp35
 70
     1
102
RTVSPost2010Prop36
280
     0
102
RTVSPost2010PropOp36
 70
     1
102
RTVSPost2010Prop37
 90
       50
102
RTVSPost2010PropOp37
 70
     1
102
RTVSPost2010Prop38
140
0.0
102
RTVSPost2010PropOp38
 70
     1
102
RTVSPost2010Prop39
140
1.0
102
RTVSPost2010PropOp39
 70
     1
102
RTVSPost2010Prop40
 90
        0
102
RTVSPost2010PropOp40
 70
     1
102
RTVSPost2010Prop41ColorIndex
 90
       18
102
RTVSPost2010Prop41ColorRGB
 90
        0
102
RTVSPost2010PropOp41
 70
     1
102
RTVSPost2010Prop42
 90
       50
102
RTVSPost2010PropOp42
 70
     1
102
RTVSPost2010Prop43
 90
        3
102
RTVSPost2010PropOp43
 70
     1
102
RTVSPost2010Prop44ColorIndex
 90
        5
102
RTVSPost2010Prop44ColorRGB
 90
      255
102
RTVSPost2010PropOp44
 70
     1
102
RTVSPost2010Prop45
280
     0
102
RTVSPost2010PropOp45
 70
     1
102
RTVSPost2010Prop46
 90
       50
102
RTVSPost2010PropOp46
 70
     1
102
RTVSPost2010Prop47
 90
       50
102
RTVSPost2010PropOp47
 70
     1
102
RTVSPost2010Prop48
 90
       50
102
RTVSPost2010PropOp48
 70
     1
102
RTVSPost2010Prop49
280
     0
102
RTVSPost2010PropOp49
 70
     1
102
RTVSPost2010Prop50
 90
       50
102
RTVSPost2010PropOp50
 70
     1
102
RTVSPost2010Prop51ColorIndex
 90
      256
102
RTVSPost2010Prop51ColorRGB
 90
-16777216
102
RTVSPost2010PropOp51
 70
     0
102
RTVSPost2010Prop52
140
1.0
102
RTVSPost2010PropOp52
 70
     0
102
RTVSPost2010Prop53
 90
        2
102
RTVSPost2010PropOp53
 70
     1
102
RTVSPost2010Prop54
  1
strokes_ogs.tif
102
RTVSPost2010PropOp54
 70
     1
102
RTVSPost2010Prop55
280
     0
102
RTVSPost2010PropOp55
 70
     1
102
RTVSPost2010Prop56
140
1.0
102
RTVSPost2010PropOp56
 70
     1
102
RTVSPost2010Prop57
140
1.0
102
RTVSPost2010PropOp57
 70
     1
  0
XRECORD
  5
129
102
{ACAD_REACTORS
330
128
102
}
330
128
100
AcDbXrecord
280
     1
102
RTVSPost2010Prop28
280
     0
102
RTVSPost2010PropOp28
 70
     1
102
RTVSPost2010Prop29
280
     1
102
RTVSPost2010PropOp29
 70
     1
102
RTVSPost2010Prop30
280
     1
102
RTVSPost2010PropOp30
 70
     1
102
RTVSPost2010Prop31
280
     0
102
RTVSPost2010PropOp31
 70
     1
102
RTVSPost2010Prop32
280
     0
102
RTVSPost2010PropOp32
 70
     1
102
RTVSPost2010Prop33
280
     0
102
RTVSPost2010PropOp33
 70
     1
102
RTVSPost2010Prop34
280
     0
102
RTVSPost2010PropOp34
 70
     1
102
RTVSPost2010Prop35
280
     0
102
RTVSPost2010PropOp35
 70
     1
102
RTVSPost2010Prop36
280
     0
102
RTVSPost2010PropOp36
 70
     1
102
RTVSPost2010Prop37
 90
       50
102
RTVSPost2010PropOp37
 70
     1
102
RTVSPost2010Prop38
140
0.0
102
RTVSPost2010PropOp38
 70
     1
102
RTVSPost2010Prop39
140
1.0
102
RTVSPost2010PropOp39
 70
     1
102
RTVSPost2010Prop40
 90
        0
102
RTVSPost2010PropOp40
 70
     1
102
RTVSPost2010Prop41ColorIndex
 90
       18
102
RTVSPost2010Prop41ColorRGB
 90
        0
102
RTVSPost2010PropOp41
 70
     1
102
RTVSPost2010Prop42
 90
       50
102
RTVSPost2010PropOp42
 70
     1
102
RTVSPost2010Prop43
 90
        3
102
RTVSPost2010PropOp43
 70
     1
102
RTVSPost2010Prop44ColorIndex
 90
        5
102
RTVSPost2010Prop44ColorRGB
 90
      255
102
RTVSPost2010PropOp44
 70
     1
102
RTVSPost2010Prop45
280
     0
102
RTVSPost2010PropOp45
 70
     1
102
RTVSPost2010Prop46
 90
       50
102
RTVSPost2010PropOp46
 70
     1
102
RTVSPost2010Prop47
 90
       50
102
RTVSPost2010PropOp47
 70
     1
102
RTVSPost2010Prop48
 90
       50
102
RTVSPost2010PropOp48
 70
     1
102
RTVSPost2010Prop49
280
     0
102
RTVSPost2010PropOp49
 70
     1
102
RTVSPost2010Prop50
 90
       50
102
RTVSPost2010PropOp50
 70
     1
102
RTVSPost2010Prop51ColorIndex
 90
      256
102
RTVSPost2010Prop51ColorRGB
 90
-16777216
102
RTVSPost2010PropOp51
 70
     0
102
RTVSPost2010Prop52
140
1.0
102
RTVSPost2010PropOp52
 70
     0
102
RTVSPost2010Prop53
 90
        2
102
RTVSPost2010PropOp53
 70
     1
102
RTVSPost2010Prop54
  1
strokes_ogs.tif
102
RTVSPost2010PropOp54
 70
     1
102
RTVSPost2010Prop55
280
     0
102
RTVSPost2010PropOp55
 70
     1
102
RTVSPost2010Prop56
140
1.0
102
RTVSPost2010PropOp56
 70
     1
102
RTVSPost2010Prop57
140
1.0
102
RTVSPost2010PropOp57
 70
     1
  0
XRECORD
  5
123
102
{ACAD_REACTORS
330
122
102
}
330
122
100
AcDbXrecord
280
     1
102
RTVSPost2010Prop28
280
     0
102
RTVSPost2010PropOp28
 70
     1
102
RTVSPost2010Prop29
280
     1
102
RTVSPost2010PropOp29
 70
     1
102
RTVSPost2010Prop30
280
     1
102
RTVSPost2010PropOp30
 70
     1
102
RTVSPost2010Prop31
280
     0
102
RTVSPost2010PropOp31
 70
     1
102
RTVSPost2010Prop32
280
     0
102
RTVSPost2010PropOp32
 70
     1
102
RTVSPost2010Prop33
280
     0
102
RTVSPost2010PropOp33
 70
     1
102
RTVSPost2010Prop34
280
     0
102
RTVSPost2010PropOp34
 70
     1
102
RTVSPost2010Prop35
280
     0
102
RTVSPost2010PropOp35
 70
     1
102
RTVSPost2010Prop36
280
     0
102
RTVSPost2010PropOp36
 70
     1
102
RTVSPost2010Prop37
 90
       50
102
RTVSPost2010PropOp37
 70
     1
102
RTVSPost2010Prop38
140
0.0
102
RTVSPost2010PropOp38
 70
     1
102
RTVSPost2010Prop39
140
1.0
102
RTVSPost2010PropOp39
 70
     1
102
RTVSPost2010Prop40
 90
        0
102
RTVSPost2010PropOp40
 70
     1
102
RTVSPost2010Prop41ColorIndex
 90
       18
102
RTVSPost2010Prop41ColorRGB
 90
        0
102
RTVSPost2010PropOp41
 70
     1
102
RTVSPost2010Prop42
 90
       50
102
RTVSPost2010PropOp42
 70
     1
102
RTVSPost2010Prop43
 90
        3
102
RTVSPost2010PropOp43
 70
     1
102
RTVSPost2010Prop44ColorIndex
 90
        5
102
RTVSPost2010Prop44ColorRGB
 90
      255
102
RTVSPost2010PropOp44
 70
     1
102
RTVSPost2010Prop45
280
     0
102
RTVSPost2010PropOp45
 70
     1
102
RTVSPost2010Prop46
 90
       50
102
RTVSPost2010PropOp46
 70
     1
102
RTVSPost2010Prop47
 90
       50
102
RTVSPost2010PropOp47
 70
     1
102
RTVSPost2010Prop48
 90
       50
102
RTVSPost2010PropOp48
 70
     1
102
RTVSPost2010Prop49
280
     0
102
RTVSPost2010PropOp49
 70
     1
102
RTVSPost2010Prop50
 90
       50
102
RTVSPost2010PropOp50
 70
     1
102
RTVSPost2010Prop51ColorIndex
 90
      256
102
RTVSPost2010Prop51ColorRGB
 90
-16777216
102
RTVSPost2010PropOp51
 70
     0
102
RTVSPost2010Prop52
140
1.0
102
RTVSPost2010PropOp52
 70
     0
102
RTVSPost2010Prop53
 90
        2
102
RTVSPost2010PropOp53
 70
     1
102
RTVSPost2010Prop54
  1
strokes_ogs.tif
102
RTVSPost2010PropOp54
 70
     1
102
RTVSPost2010Prop55
280
     0
102
RTVSPost2010PropOp55
 70
     1
102
RTVSPost2010Prop56
140
1.0
102
RTVSPost2010PropOp56
 70
     1
102
RTVSPost2010Prop57
140
1.0
102
RTVSPost2010PropOp57
 70
     1
  0
XRECORD
  5
125
102
{ACAD_REACTORS
330
124
102
}
330
124
100
AcDbXrecord
280
     1
102
RTVSPost2010Prop28
280
     0
102
RTVSPost2010PropOp28
 70
     1
102
RTVSPost2010Prop29
280
     1
102
RTVSPost2010PropOp29
 70
     1
102
RTVSPost2010Prop30
280
     1
102
RTVSPost2010PropOp30
 70
     1
102
RTVSPost2010Prop31
280
     0
102
RTVSPost2010PropOp31
 70
     1
102
RTVSPost2010Prop32
280
     0
102
RTVSPost2010PropOp32
 70
     1
102
RTVSPost2010Prop33
280
     0
102
RTVSPost2010PropOp33
 70
     1
102
RTVSPost2010Prop34
280
     0
102
RTVSPost2010PropOp34
 70
     1
102
RTVSPost2010Prop35
280
     0
102
RTVSPost2010PropOp35
 70
     1
102
RTVSPost2010Prop36
280
     0
102
RTVSPost2010PropOp36
 70
     1
102
RTVSPost2010Prop37
 90
       50
102
RTVSPost2010PropOp37
 70
     1
102
RTVSPost2010Prop38
140
0.0
102
RTVSPost2010PropOp38
 70
     1
102
RTVSPost2010Prop39
140
1.0
102
RTVSPost2010PropOp39
 70
     1
102
RTVSPost2010Prop40
 90
        0
102
RTVSPost2010PropOp40
 70
     1
102
RTVSPost2010Prop41ColorIndex
 90
       18
102
RTVSPost2010Prop41ColorRGB
 90
        0
102
RTVSPost2010PropOp41
 70
     1
102
RTVSPost2010Prop42
 90
       50
102
RTVSPost2010PropOp42
 70
     1
102
RTVSPost2010Prop43
 90
        3
102
RTVSPost2010PropOp43
 70
     1
102
RTVSPost2010Prop44ColorIndex
 90
        5
102
RTVSPost2010Prop44ColorRGB
 90
      255
102
RTVSPost2010PropOp44
 70
     1
102
RTVSPost2010Prop45
280
     0
102
RTVSPost2010PropOp45
 70
     1
102
RTVSPost2010Prop46
 90
       50
102
RTVSPost2010PropOp46
 70
     1
102
RTVSPost2010Prop47
 90
       50
102
RTVSPost2010PropOp47
 70
     1
102
RTVSPost2010Prop48
 90
       50
102
RTVSPost2010PropOp48
 70
     1
102
RTVSPost2010Prop49
280
     0
102
RTVSPost2010PropOp49
 70
     1
102
RTVSPost2010Prop50
 90
       50
102
RTVSPost2010PropOp50
 70
     1
102
RTVSPost2010Prop51ColorIndex
 90
      256
102
RTVSPost2010Prop51ColorRGB
 90
-16777216
102
RTVSPost2010PropOp51
 70
     0
102
RTVSPost2010Prop52
140
1.0
102
RTVSPost2010PropOp52
 70
     0
102
RTVSPost2010Prop53
 90
        2
102
RTVSPost2010PropOp53
 70
     1
102
RTVSPost2010Prop54
  1
strokes_ogs.tif
102
RTVSPost2010PropOp54
 70
     1
102
RTVSPost2010Prop55
280
     0
102
RTVSPost2010PropOp55
 70
     1
102
RTVSPost2010Prop56
140
1.0
102
RTVSPost2010PropOp56
 70
     1
102
RTVSPost2010Prop57
140
1.0
102
RTVSPost2010PropOp57
 70
     1
  0
XRECORD
  5
11B
102
{ACAD_REACTORS
330
11A
102
}
330
11A
100
AcDbXrecord
280
     1
102
RTVSPost2010Prop28
280
     0
102
RTVSPost2010PropOp28
 70
     1
102
RTVSPost2010Prop29
280
     1
102
RTVSPost2010PropOp29
 70
     1
102
RTVSPost2010Prop30
280
     1
102
RTVSPost2010PropOp30
 70
     1
102
RTVSPost2010Prop31
280
     0
102
RTVSPost2010PropOp31
 70
     1
102
RTVSPost2010Prop32
280
     0
102
RTVSPost2010PropOp32
 70
     1
102
RTVSPost2010Prop33
280
     0
102
RTVSPost2010PropOp33
 70
     1
102
RTVSPost2010Prop34
280
     0
102
RTVSPost2010PropOp34
 70
     1
102
RTVSPost2010Prop35
280
     0
102
RTVSPost2010PropOp35
 70
     1
102
RTVSPost2010Prop36
280
     0
102
RTVSPost2010PropOp36
 70
     1
102
RTVSPost2010Prop37
 90
       50
102
RTVSPost2010PropOp37
 70
     1
102
RTVSPost2010Prop38
140
0.0
102
RTVSPost2010PropOp38
 70
     1
102
RTVSPost2010Prop39
140
1.0
102
RTVSPost2010PropOp39
 70
     1
102
RTVSPost2010Prop40
 90
        0
102
RTVSPost2010PropOp40
 70
     1
102
RTVSPost2010Prop41ColorIndex
 90
       18
102
RTVSPost2010Prop41ColorRGB
 90
        0
102
RTVSPost2010PropOp41
 70
     1
102
RTVSPost2010Prop42
 90
       50
102
RTVSPost2010PropOp42
 70
     1
102
RTVSPost2010Prop43
 90
        3
102
RTVSPost2010PropOp43
 70
     1
102
RTVSPost2010Prop44ColorIndex
 90
        5
102
RTVSPost2010Prop44ColorRGB
 90
      255
102
RTVSPost2010PropOp44
 70
     1
102
RTVSPost2010Prop45
280
     0
102
RTVSPost2010PropOp45
 70
     1
102
RTVSPost2010Prop46
 90
       50
102
RTVSPost2010PropOp46
 70
     1
102
RTVSPost2010Prop47
 90
       50
102
RTVSPost2010PropOp47
 70
     1
102
RTVSPost2010Prop48
 90
       50
102
RTVSPost2010PropOp48
 70
     1
102
RTVSPost2010Prop49
280
     0
102
RTVSPost2010PropOp49
 70
     1
102
RTVSPost2010Prop50
 90
       50
102
RTVSPost2010PropOp50
 70
     1
102
RTVSPost2010Prop51ColorIndex
 90
      256
102
RTVSPost2010Prop51ColorRGB
 90
-16777216
102
RTVSPost2010PropOp51
 70
     0
102
RTVSPost2010Prop52
140
1.0
102
RTVSPost2010PropOp52
 70
     0
102
RTVSPost2010Prop53
 90
        2
102
RTVSPost2010PropOp53
 70
     1
102
RTVSPost2010Prop54
  1
strokes_ogs.tif
102
RTVSPost2010PropOp54
 70
     1
102
RTVSPost2010Prop55
280
     0
102
RTVSPost2010PropOp55
 70
     1
102
RTVSPost2010Prop56
140
1.0
102
RTVSPost2010PropOp56
 70
     1
102
RTVSPost2010Prop57
140
1.0
102
RTVSPost2010PropOp57
 70
     1
  0
XRECORD
  5
10F
102
{ACAD_REACTORS
330
10E
102
}
330
10E
100
AcDbXrecord
280
     1
102
RTVSPost2010Prop28
280
     0
102
RTVSPost2010PropOp28
 70
     1
102
RTVSPost2010Prop29
280
     1
102
RTVSPost2010PropOp29
 70
     1
102
RTVSPost2010Prop30
280
     1
102
RTVSPost2010PropOp30
 70
     1
102
RTVSPost2010Prop31
280
     0
102
RTVSPost2010PropOp31
 70
     1
102
RTVSPost2010Prop32
280
     0
102
RTVSPost2010PropOp32
 70
     1
102
RTVSPost2010Prop33
280
     0
102
RTVSPost2010PropOp33
 70
     1
102
RTVSPost2010Prop34
280
     0
102
RTVSPost2010PropOp34
 70
     1
102
RTVSPost2010Prop35
280
     0
102
RTVSPost2010PropOp35
 70
     1
102
RTVSPost2010Prop36
280
     0
102
RTVSPost2010PropOp36
 70
     1
102
RTVSPost2010Prop37
 90
       50
102
RTVSPost2010PropOp37
 70
     1
102
RTVSPost2010Prop38
140
0.0
102
RTVSPost2010PropOp38
 70
     1
102
RTVSPost2010Prop39
140
1.0
102
RTVSPost2010PropOp39
 70
     1
102
RTVSPost2010Prop40
 90
        0
102
RTVSPost2010PropOp40
 70
     1
102
RTVSPost2010Prop41ColorIndex
 90
       18
102
RTVSPost2010Prop41ColorRGB
 90
        0
102
RTVSPost2010PropOp41
 70
     1
102
RTVSPost2010Prop42
 90
       50
102
RTVSPost2010PropOp42
 70
     1
102
RTVSPost2010Prop43
 90
        3
102
RTVSPost2010PropOp43
 70
     1
102
RTVSPost2010Prop44ColorIndex
 90
        5
102
RTVSPost2010Prop44ColorRGB
 90
      255
102
RTVSPost2010PropOp44
 70
     1
102
RTVSPost2010Prop45
280
     0
102
RTVSPost2010PropOp45
 70
     1
102
RTVSPost2010Prop46
 90
       50
102
RTVSPost2010PropOp46
 70
     1
102
RTVSPost2010Prop47
 90
       50
102
RTVSPost2010PropOp47
 70
     1
102
RTVSPost2010Prop48
 90
       50
102
RTVSPost2010PropOp48
 70
     1
102
RTVSPost2010Prop49
280
     0
102
RTVSPost2010PropOp49
 70
     1
102
RTVSPost2010Prop50
 90
       50
102
RTVSPost2010PropOp50
 70
     1
102
RTVSPost2010Prop51ColorIndex
 90
      256
102
RTVSPost2010Prop51ColorRGB
 90
-16777216
102
RTVSPost2010PropOp51
 70
     0
102
RTVSPost2010Prop52
140
1.0
102
RTVSPost2010PropOp52
 70
     0
102
RTVSPost2010Prop53
 90
        2
102
RTVSPost2010PropOp53
 70
     1
102
RTVSPost2010Prop54
  1
strokes_ogs.tif
102
RTVSPost2010PropOp54
 70
     1
102
RTVSPost2010Prop55
280
     0
102
RTVSPost2010PropOp55
 70
     1
102
RTVSPost2010Prop56
140
1.0
102
RTVSPost2010PropOp56
 70
     1
102
RTVSPost2010Prop57
140
1.0
102
RTVSPost2010PropOp57
 70
     1
  0
XRECORD
  5
127
102
{ACAD_REACTORS
330
126
102
}
330
126
100
AcDbXrecord
280
     1
102
RTVSPost2010Prop28
280
     0
102
RTVSPost2010PropOp28
 70
     1
102
RTVSPost2010Prop29
280
     1
102
RTVSPost2010PropOp29
 70
     1
102
RTVSPost2010Prop30
280
     1
102
RTVSPost2010PropOp30
 70
     1
102
RTVSPost2010Prop31
280
     0
102
RTVSPost2010PropOp31
 70
     1
102
RTVSPost2010Prop32
280
     0
102
RTVSPost2010PropOp32
 70
     1
102
RTVSPost2010Prop33
280
     0
102
RTVSPost2010PropOp33
 70
     1
102
RTVSPost2010Prop34
280
     0
102
RTVSPost2010PropOp34
 70
     1
102
RTVSPost2010Prop35
280
     0
102
RTVSPost2010PropOp35
 70
     1
102
RTVSPost2010Prop36
280
     0
102
RTVSPost2010PropOp36
 70
     1
102
RTVSPost2010Prop37
 90
       50
102
RTVSPost2010PropOp37
 70
     1
102
RTVSPost2010Prop38
140
0.0
102
RTVSPost2010PropOp38
 70
     1
102
RTVSPost2010Prop39
140
1.0
102
RTVSPost2010PropOp39
 70
     1
102
RTVSPost2010Prop40
 90
        0
102
RTVSPost2010PropOp40
 70
     1
102
RTVSPost2010Prop41ColorIndex
 90
       18
102
RTVSPost2010Prop41ColorRGB
 90
        0
102
RTVSPost2010PropOp41
 70
     1
102
RTVSPost2010Prop42
 90
       50
102
RTVSPost2010PropOp42
 70
     1
102
RTVSPost2010Prop43
 90
        3
102
RTVSPost2010PropOp43
 70
     1
102
RTVSPost2010Prop44ColorIndex
 90
        5
102
RTVSPost2010Prop44ColorRGB
 90
      255
102
RTVSPost2010PropOp44
 70
     1
102
RTVSPost2010Prop45
280
     0
102
RTVSPost2010PropOp45
 70
     1
102
RTVSPost2010Prop46
 90
       50
102
RTVSPost2010PropOp46
 70
     1
102
RTVSPost2010Prop47
 90
       50
102
RTVSPost2010PropOp47
 70
     1
102
RTVSPost2010Prop48
 90
       50
102
RTVSPost2010PropOp48
 70
     1
102
RTVSPost2010Prop49
280
     0
102
RTVSPost2010PropOp49
 70
     1
102
RTVSPost2010Prop50
 90
       50
102
RTVSPost2010PropOp50
 70
     1
102
RTVSPost2010Prop51ColorIndex
 90
      256
102
RTVSPost2010Prop51ColorRGB
 90
-16777216
102
RTVSPost2010PropOp51
 70
     0
102
RTVSPost2010Prop52
140
1.0
102
RTVSPost2010PropOp52
 70
     0
102
RTVSPost2010Prop53
 90
        2
102
RTVSPost2010PropOp53
 70
     1
102
RTVSPost2010Prop54
  1
strokes_ogs.tif
102
RTVSPost2010PropOp54
 70
     1
102
RTVSPost2010Prop55
280
     0
102
RTVSPost2010PropOp55
 70
     1
102
RTVSPost2010Prop56
140
1.0
102
RTVSPost2010PropOp56
 70
     1
102
RTVSPost2010Prop57
140
1.0
102
RTVSPost2010PropOp57
 70
     1
  0
ENDSEC
  0
EOF
