  0
SECTION
  2
HEADER
  9
$ACADVER
  1
AC1024
  9
$ACADMAINTVER
 70
     6
  9
$DWGCODEPAGE
  3
UNDEFINED
  9
$INSBASE
 10
0.0
 20
0.0
 30
0.0
  9
$EXTMIN
 10
1.000000000000000E+20
 20
1.000000000000000E+20
 30
1.000000000000000E+20
  9
$EXTMAX
 10
-1.000000000000000E+20
 20
-1.000000000000000E+20
 30
-1.000000000000000E+20
  9
$LIMMIN
 10
0.0
 20
0.0
  9
$LIMMAX
 10
12.0
 20
9.0
  9
$ORTHOMODE
 70
     0
  9
$REGENMODE
 70
     1
  9
$FILLMODE
 70
     1
  9
$QTEXTMODE
 70
     0
  9
$MIRRTEXT
 70
     1
  9
$LTSCALE
 40
1.0
  9
$ATTMODE
 70
     1
  9
$TEXTSIZE
 40
0.2
  9
$TRACEWID
 40
0.05
  9
$TEXTSTYLE
  7
Standard
  9
$CLAYER
  8
0
  9
$CELTYPE
  6
ByLayer
  9
$CECOLOR
 62
   256
  9
$CELTSCALE
 40
1.0
  9
$DISPSILH
 70
     0
  9
$DIMSCALE
 40
1.0
  9
$DIMASZ
 40
0.18
  9
$DIMEXO
 40
0.0625
  9
$DIMDLI
 40
0.38
  9
$DIMRND
 40
0.0
  9
$DIMDLE
 40
0.0
  9
$DIMEXE
 40
0.18
  9
$DIMTP
 40
0.0
  9
$DIMTM
 40
0.0
  9
$DIMTXT
 40
0.18
  9
$DIMCEN
 40
0.09
  9
$DIMTSZ
 40
0.0
  9
$DIMTOL
 70
     0
  9
$DIMLIM
 70
     0
  9
$DIMTIH
 70
     1
  9
$DIMTOH
 70
     1
  9
$DIMSE1
 70
     0
  9
$DIMSE2
 70
     0
  9
$DIMTAD
 70
     0
  9
$DIMZIN
 70
     0
  9
$DIMBLK
  1

  9
$DIMASO
 70
     1
  9
$DIMSHO
 70
     1
  9
$DIMPOST
  1

  9
$DIMAPOST
  1

  9
$DIMALT
 70
     0
  9
$DIMALTD
 70
     2
  9
$DIMALTF
 40
25.4
  9
$DIMLFAC
 40
1.0
  9
$DIMTOFL
 70
     0
  9
$DIMTVP
 40
0.0
  9
$DIMTIX
 70
     0
  9
$DIMSOXD
 70
     0
  9
$DIMSAH
 70
     0
  9
$DIMBLK1
  1

  9
$DIMBLK2
  1

  9
$DIMSTYLE
  2
Standard
  9
$DIMCLRD
 70
     0
  9
$DIMCLRE
 70
     0
  9
$DIMCLRT
 70
     0
  9
$DIMTFAC
 40
1.0
  9
$DIMGAP
 40
0.09
  9
$DIMJUST
 70
     0
  9
$DIMSD1
 70
     0
  9
$DIMSD2
 70
     0
  9
$DIMTOLJ
 70
     1
  9
$DIMTZIN
 70
     0
  9
$DIMALTZ
 70
     0
  9
$DIMALTTZ
 70
     0
  9
$DIMUPT
 70
     0
  9
$DIMDEC
 70
     4
  9
$DIMTDEC
 70
     4
  9
$DIMALTU
 70
     2
  9
$DIMALTTD
 70
     2
  9
$DIMTXSTY
  7
Standard
  9
$DIMAUNIT
 70
     0
  9
$DIMADEC
 70
     0
  9
$DIMALTRND
 40
0.0
  9
$DIMAZIN
 70
     0
  9
$DIMDSEP
 70
    46
  9
$DIMATFIT
 70
     3
  9
$DIMFRAC
 70
     0
  9
$DIMLDRBLK
  1

  9
$DIMLUNIT
 70
     2
  9
$DIMLWD
 70
    -2
  9
$DIMLWE
 70
    -2
  9
$DIMTMOVE
 70
     0
  9
$DIMFXL
 40
1.0
  9
$DIMFXLON
 70
     0
  9
$DIMJOGANG
 40
0.7853981633974483
  9
$DIMTFILL
 70
     0
  9
$DIMTFILLCLR
 70
     0
  9
$DIMARCSYM
 70
     0
  9
$DIMLTYPE
  6

  9
$DIMLTEX1
  6

  9
$DIMLTEX2
  6

  9
$DIMTXTDIRECTION
 70
     0
  9
$LUNITS
 70
     2
  9
$LUPREC
 70
     4
  9
$SKETCHINC
 40
0.1
  9
$FILLETRAD
 40
0.5
  9
$AUNITS
 70
     0
  9
$AUPREC
 70
     0
  9
$MENU
  1
.
  9
$ELEVATION
 40
0.0
  9
$PELEVATION
 40
0.0
  9
$THICKNESS
 40
0.0
  9
$LIMCHECK
 70
     0
  9
$CHAMFERA
 40
0.5
  9
$CHAMFERB
 40
0.5
  9
$CHAMFERC
 40
1.0
  9
$CHAMFERD
 40
0.0
  9
$SKPOLY
 70
     0
  9
$TDCREATE
 40
2457917.583877303
  9
$TDUCREATE
 40
2457917.208877315
  9
$TDUPDATE
 40
2457917.583877303
  9
$TDUUPDATE
 40
2457917.208877315
  9
$TDINDWG
 40
0.0000000116
  9
$TDUSRTIMER
 40
0.0000000116
  9
$USRTIMER
 70
     1
  9
$ANGBASE
 50
0.0
  9
$ANGDIR
 70
     0
  9
$PDMODE
 70
     0
  9
$PDSIZE
 40
0.0
  9
$PLINEWID
 40
0.0
  9
$SPLFRAME
 70
     0
  9
$SPLINETYPE
 70
     6
  9
$SPLINESEGS
 70
     8
  9
$HANDSEED
  5
D8
  9
$SURFTAB1
 70
     6
  9
$SURFTAB2
 70
     6
  9
$SURFTYPE
 70
     6
  9
$SURFU
 70
     6
  9
$SURFV
 70
     6
  9
$UCSBASE
  2

  9
$UCSNAME
  2

  9
$UCSORG
 10
0.0
 20
0.0
 30
0.0
  9
$UCSXDIR
 10
1.0
 20
0.0
 30
0.0
  9
$UCSYDIR
 10
0.0
 20
1.0
 30
0.0
  9
$UCSORTHOREF
  2

  9
$UCSORTHOVIEW
 70
     0
  9
$UCSORGTOP
 10
0.0
 20
0.0
 30
0.0
  9
$UCSORGBOTTOM
 10
0.0
 20
0.0
 30
0.0
  9
$UCSORGLEFT
 10
0.0
 20
0.0
 30
0.0
  9
$UCSORGRIGHT
 10
0.0
 20
0.0
 30
0.0
  9
$UCSORGFRONT
 10
0.0
 20
0.0
 30
0.0
  9
$UCSORGBACK
 10
0.0
 20
0.0
 30
0.0
  9
$PUCSBASE
  2

  9
$PUCSNAME
  2

  9
$PUCSORG
 10
0.0
 20
0.0
 30
0.0
  9
$PUCSXDIR
 10
1.0
 20
0.0
 30
0.0
  9
$PUCSYDIR
 10
0.0
 20
1.0
 30
0.0
  9
$PUCSORTHOREF
  2

  9
$PUCSORTHOVIEW
 70
     0
  9
$PUCSORGTOP
 10
0.0
 20
0.0
 30
0.0
  9
$PUCSORGBOTTOM
 10
0.0
 20
0.0
 30
0.0
  9
$PUCSORGLEFT
 10
0.0
 20
0.0
 30
0.0
  9
$PUCSORGRIGHT
 10
0.0
 20
0.0
 30
0.0
  9
$PUCSORGFRONT
 10
0.0
 20
0.0
 30
0.0
  9
$PUCSORGBACK
 10
0.0
 20
0.0
 30
0.0
  9
$USERI1
 70
     0
  9
$USERI2
 70
     0
  9
$USERI3
 70
     0
  9
$USERI4
 70
     0
  9
$USERI5
 70
     0
  9
$USERR1
 40
0.0
  9
$USERR2
 40
0.0
  9
$USERR3
 40
0.0
  9
$USERR4
 40
0.0
  9
$USERR5
 40
0.0
  9
$WORLDVIEW
 70
     1
  9
$SHADEDGE
 70
     3
  9
$SHADEDIF
 70
    70
  9
$TILEMODE
 70
     1
  9
$MAXACTVP
 70
    64
  9
$PINSBASE
 10
0.0
 20
0.0
 30
0.0
  9
$PLIMCHECK
 70
     0
  9
$PEXTMIN
 10
1.000000000000000E+20
 20
1.000000000000000E+20
 30
1.000000000000000E+20
  9
$PEXTMAX
 10
-1.000000000000000E+20
 20
-1.000000000000000E+20
 30
-1.000000000000000E+20
  9
$PLIMMIN
 10
0.0
 20
0.0
  9
$PLIMMAX
 10
12.0
 20
9.0
  9
$UNITMODE
 70
     0
  9
$VISRETAIN
 70
     1
  9
$PLINEGEN
 70
     0
  9
$PSLTSCALE
 70
     1
  9
$TREEDEPTH
 70
  3020
  9
$CMLSTYLE
  2
Standard
  9
$CMLJUST
 70
     0
  9
$CMLSCALE
 40
1.0
  9
$PROXYGRAPHICS
 70
     1
  9
$MEASUREMENT
 70
     0
  9
$CELWEIGHT
370
    -1
  9
$ENDCAPS
280
     0
  9
$JOINSTYLE
280
     0
  9
$LWDISPLAY
290
     1
  9
$INSUNITS
 70
     1
  9
$HYPERLINKBASE
  1

  9
$STYLESHEET
  1

  9
$XEDIT
290
     1
  9
$CEPSNTYPE
380
     0
  9
$PSTYLEMODE
290
     1
  9
$FINGERPRINTGUID
  2
{A9C84055-9B2E-85F8-AEFC-937F33472888}
  9
$VERSIONGUID
  2
{FAEB1C32-E019-11D5-929B-00C0DF256EC4}
  9
$EXTNAMES
290
     1
  9
$PSVPSCALE
 40
0.0
  9
$OLESTARTUP
290
     0
  9
$SORTENTS
280
   127
  9
$INDEXCTL
280
     0
  9
$HIDETEXT
280
     1
  9
$XCLIPFRAME
280
     2
  9
$HALOGAP
280
     0
  9
$OBSCOLOR
 70
   257
  9
$OBSLTYPE
280
     0
  9
$INTERSECTIONDISPLAY
280
     0
  9
$INTERSECTIONCOLOR
 70
   257
  9
$DIMASSOC
280
     2
  9
$PROJECTNAME
  1

  9
$CAMERADISPLAY
290
     0
  9
$LENSLENGTH
 40
50.0
  9
$CAMERAHEIGHT
 40
0.0
  9
$STEPSPERSEC
 40
2.0
  9
$STEPSIZE
 40
6.0
  9
$3DDWFPREC
 40
2.0
  9
$PSOLWIDTH
 40
0.25
  9
$PSOLHEIGHT
 40
4.0
  9
$LOFTANG1
 40
1.570796326794897
  9
$LOFTANG2
 40
1.570796326794897
  9
$LOFTMAG1
 40
0.0
  9
$LOFTMAG2
 40
0.0
  9
$LOFTPARAM
 70
     7
  9
$LOFTNORMALS
280
     1
  9
$LATITUDE
 40
37.795
  9
$LONGITUDE
 40
-122.394
  9
$NORTHDIRECTION
 40
0.0
  9
$TIMEZONE
 70
 -8000
  9
$LIGHTGLYPHDISPLAY
280
     1
  9
$TILEMODELIGHTSYNCH
280
     1
  9
$CMATERIAL
347
3C
  9
$SOLIDHIST
280
     1
  9
$SHOWHIST
280
     1
  9
$DWFFRAME
280
     2
  9
$DGNFRAME
280
     2
  9
$REALWORLDSCALE
290
     1
  9
$INTERFERECOLOR
 62
   256
  9
$CSHADOW
280
     0
  9
$SHADOWPLANELOCATION
 40
0.0
  0
ENDSEC
  0
SECTION
  2
CLASSES
  0
CLASS
  1
ACDBDICTIONARYWDFLT
  2
AcDbDictionaryWithDefault
  3
ObjectDBX Classes
 90
        0
 91
        4
280
     0
281
     0
  0
CLASS
  1
VISUALSTYLE
  2
AcDbVisualStyle
  3
ObjectDBX Classes
 90
     4095
 91
        4
280
     0
281
     0
  0
CLASS
  1
MATERIAL
  2
AcDbMaterial
  3
ObjectDBX Classes
 90
     1153
 91
        4
280
     0
281
     0
  0
CLASS
  1
SUN
  2
AcDbSun
  3
SCENEOE
 90
     1024
 91
        4
280
     0
281
     0
  0
ENDSEC
  0
SECTION
  2
TABLES
  0
TABLE
  2
VPORT
  5
8
330
0
100
AcDbSymbolTable
 70
     1
  0
VPORT
  5
29
330
8
100
AcDbSymbolTableRecord
100
AcDbViewportTableRecord
  2
*Active
 70
     0
 10
0.0
 20
0.0
 11
1.0
 21
1.0
 12
0.0
 22
0.0
 13
0.0
 23
0.0
 14
0.5
 24
0.5
 15
0.5
 25
0.5
 16
0.0
 26
0.0
 36
1.0
 17
91.00082462281999
 27
-128.4993055234307
 37
0.0
 40
256.9986110468615
 41
0.7081814508812795
 42
50.0
 43
0.0
 44
0.0
 50
0.0
 51
0.0
 71
     0
 72
   100
 73
     1
 74
     3
 75
     0
 76
     0
 77
     0
 78
     0
281
     0
 65
     1
110
0.0
120
0.0
130
0.0
111
1.0
121
0.0
131
0.0
112
0.0
122
1.0
132
0.0
 79
     0
146
0.0
 60
     3
 61
     5
292
     1
282
     1
141
0.0
142
0.0
 63
   250
361
3F
  0
ENDTAB
  0
TABLE
  2
LTYPE
  5
5
330
0
100
AcDbSymbolTable
 70
     3
  0
LTYPE
  5
14
330
5
100
AcDbSymbolTableRecord
100
AcDbLinetypeTableRecord
  2
ByBlock
 70
     0
  3

 72
    65
 73
     0
 40
0.0
  0
LTYPE
  5
15
330
5
100
AcDbSymbolTableRecord
100
AcDbLinetypeTableRecord
  2
ByLayer
 70
     0
  3

 72
    65
 73
     0
 40
0.0
  0
LTYPE
  5
16
330
5
100
AcDbSymbolTableRecord
100
AcDbLinetypeTableRecord
  2
Continuous
 70
     0
  3
Solid line
 72
    65
 73
     0
 40
0.0
  0
LTYPE
  5
8F
330
5
100
AcDbSymbolTableRecord
100
AcDbLinetypeTableRecord
  2
AI-Linetype-1
 70
     0
  3
Adobe Illustrator Linetype No. 1
 72
    65
 73
     2
 40
1.411111110758333
 49
0.7055555553791667
 74
     0
 49
-0.7055555553791667
 74
     0
  0
LTYPE
  5
94
330
5
100
AcDbSymbolTableRecord
100
AcDbLinetypeTableRecord
  2
AI-Linetype-2
 70
     0
  3
Adobe Illustrator Linetype No. 2
 72
    65
 73
     2
 40
1.411111110758333
 49
0.7055555553791667
 74
     0
 49
-0.7055555553791667
 74
     0
  0
ENDTAB
  0
TABLE
  2
LAYER
  5
2
330
0
100
AcDbSymbolTable
 70
     2
  0
LAYER
  5
10
330
2
100
AcDbSymbolTableRecord
100
AcDbLayerTableRecord
  2
0
 70
     0
 62
     7
  6
Continuous
370
    -3
390
F
347
3E
  0
LAYER
  5
40
330
2
100
AcDbSymbolTableRecord
100
AcDbLayerTableRecord
  2
_U+30EC_U+30A4_U+30E4_U+30FC 1
 70
     0
 62
     7
  6
Continuous
370
    -3
390
F
347
3E
  0
ENDTAB
  0
TABLE
  2
STYLE
  5
3
330
0
100
AcDbSymbolTable
 70
     1
  0
STYLE
  5
11
330
3
100
AcDbSymbolTableRecord
100
AcDbTextStyleTableRecord
  2
Standard
 70
     0
 40
0.0
 41
1.0
 50
0.0
 71
     0
 42
0.2
  3
txt
  4

  0
ENDTAB
  0
TABLE
  2
VIEW
  5
6
330
0
100
AcDbSymbolTable
 70
     0
  0
ENDTAB
  0
TABLE
  2
UCS
  5
7
330
0
100
AcDbSymbolTable
 70
     0
  0
ENDTAB
  0
TABLE
  2
APPID
  5
9
330
0
100
AcDbSymbolTable
 70
     1
  0
APPID
  5
12
330
9
100
AcDbSymbolTableRecord
100
AcDbRegAppTableRecord
  2
ACAD
 70
     0
  0
ENDTAB
  0
TABLE
  2
DIMSTYLE
  5
A
330
0
100
AcDbSymbolTable
 70
     1
100
AcDbDimStyleTable
  0
DIMSTYLE
105
27
330
A
100
AcDbSymbolTableRecord
100
AcDbDimStyleTableRecord
  2
Standard
 70
     0
178
     0
340
11
  0
ENDTAB
  0
TABLE
  2
BLOCK_RECORD
  5
1
330
0
100
AcDbSymbolTable
 70
     5
  0
BLOCK_RECORD
  5
1F
330
1
100
AcDbSymbolTableRecord
100
AcDbBlockTableRecord
  2
*Model_Space
340
22
 70
     0
280
     1
281
     0
  0
BLOCK_RECORD
  5
1B
330
1
100
AcDbSymbolTableRecord
100
AcDbBlockTableRecord
  2
*Paper_Space
340
1E
 70
     0
280
     1
281
     0
  0
BLOCK_RECORD
  5
23
330
1
100
AcDbSymbolTableRecord
100
AcDbBlockTableRecord
  2
*Paper_Space0
340
26
 70
     0
280
     1
281
     0
  0
BLOCK_RECORD
  5
41
330
1
100
AcDbSymbolTableRecord
100
AcDbBlockTableRecord
  2
block 2
340
0
102
{BLKREFS
331
42
102
}
 70
     0
280
     1
281
     0
  0
BLOCK_RECORD
  5
6E
330
1
100
AcDbSymbolTableRecord
100
AcDbBlockTableRecord
  2
block 3
340
0
102
{BLKREFS
331
6F
102
}
 70
     0
280
     1
281
     0
  0
BLOCK_RECORD
  5
83
330
1
100
AcDbSymbolTableRecord
100
AcDbBlockTableRecord
  2
block 4
340
0
102
{BLKREFS
331
84
102
}
 70
     0
280
     1
281
     0
  0
BLOCK_RECORD
  5
AE
330
1
100
AcDbSymbolTableRecord
100
AcDbBlockTableRecord
  2
block 5
340
0
102
{BLKREFS
331
AF
102
}
 70
     0
280
     1
281
     0
  0
ENDTAB
  0
ENDSEC
  0
SECTION
  2
BLOCKS
  0
BLOCK
  5
20
330
1F
100
AcDbEntity
  8
0
100
AcDbBlockBegin
  2
*Model_Space
 70
     0
 10
0.0
 20
0.0
 30
0.0
  3
*Model_Space
  1

  0
ENDBLK
  5
21
330
1F
100
AcDbEntity
  8
0
100
AcDbBlockEnd
  0
BLOCK
  5
1C
330
1B
100
AcDbEntity
 67
     1
  8
0
100
AcDbBlockBegin
  2
*Paper_Space
 70
     0
 10
0.0
 20
0.0
 30
0.0
  3
*Paper_Space
  1

  0
ENDBLK
  5
1D
330
1B
100
AcDbEntity
 67
     1
  8
0
100
AcDbBlockEnd
  0
BLOCK
  5
24
330
23
100
AcDbEntity
  8
0
100
AcDbBlockBegin
  2
*Paper_Space0
 70
     0
 10
0.0
 20
0.0
 30
0.0
  3
*Paper_Space0
  1

  0
ENDBLK
  5
25
330
23
100
AcDbEntity
  8
0
100
AcDbBlockEnd
  0
BLOCK
  5
43
330
41
100
AcDbEntity
  8
0
100
AcDbBlockBegin
  2
block 2
 70
     0
 10
0.0
 20
0.0
 30
0.0
  3
block 2
  1

  0
POLYLINE
  5
45
330
41
100
AcDbEntity
  8
_U+30EC_U+30A4_U+30E4_U+30FC 1
 62
   179
420
  2234388
370
    25
100
AcDb2dPolyline
 66
     1
 10
0.0
 20
0.0
 30
0.0
  0
VERTEX
  5
46
330
45
100
AcDbEntity
  8
_U+30EC_U+30A4_U+30E4_U+30FC 1
 62
   179
420
  2234388
370
    25
100
AcDbVertex
100
AcDb2dVertex
 10
70.26789876287211
 20
-149.9281566291849
 30
0.0
  0
VERTEX
  5
47
330
45
100
AcDbEntity
  8
_U+30EC_U+30A4_U+30E4_U+30FC 1
 62
   179
420
  2234388
370
    25
100
AcDbVertex
100
AcDb2dVertex
 10
119.2674961238993
 20
-149.9281566291849
 30
0.0
  0
SEQEND
  5
48
330
45
100
AcDbEntity
  8
_U+30EC_U+30A4_U+30E4_U+30FC 1
 62
   179
420
  2234388
370
    25
  0
POLYLINE
  5
49
330
41
100
AcDbEntity
  8
_U+30EC_U+30A4_U+30E4_U+30FC 1
 62
   179
420
  2234388
370
    25
100
AcDb2dPolyline
 66
     1
 10
0.0
 20
0.0
 30
0.0
  0
VERTEX
  5
4A
330
49
100
AcDbEntity
  8
_U+30EC_U+30A4_U+30E4_U+30FC 1
 62
   179
420
  2234388
370
    25
100
AcDbVertex
100
AcDb2dVertex
 10
71.36757762370586
 20
-100.9282052525457
 30
0.0
  0
VERTEX
  5
4B
330
49
100
AcDbEntity
  8
_U+30EC_U+30A4_U+30E4_U+30FC 1
 62
   179
420
  2234388
370
    25
100
AcDbVertex
100
AcDb2dVertex
 10
71.76787455793787
 20
-100.9282052525457
 30
0.0
  0
SEQEND
  5
4C
330
49
100
AcDbEntity
  8
_U+30EC_U+30A4_U+30E4_U+30FC 1
 62
   179
420
  2234388
370
    25
  0
POLYLINE
  5
4D
330
41
100
AcDbEntity
  8
_U+30EC_U+30A4_U+30E4_U+30FC 1
 62
   179
420
  2234388
370
    25
100
AcDb2dPolyline
 66
     1
 10
0.0
 20
0.0
 30
0.0
  0
VERTEX
  5
4E
330
4D
100
AcDbEntity
  8
_U+30EC_U+30A4_U+30E4_U+30FC 1
 62
   179
420
  2234388
370
    25
100
AcDbVertex
100
AcDb2dVertex
 10
70.26789876287211
 20
-149.9281566291849
 30
0.0
  0
VERTEX
  5
4F
330
4D
100
AcDbEntity
  8
_U+30EC_U+30A4_U+30E4_U+30FC 1
 62
   179
420
  2234388
370
    25
100
AcDbVertex
100
AcDb2dVertex
 10
71.76787455793787
 20
-100.9282052525457
 30
0.0
  0
SEQEND
  5
50
330
4D
100
AcDbEntity
  8
_U+30EC_U+30A4_U+30E4_U+30FC 1
 62
   179
420
  2234388
370
    25
  0
POLYLINE
  5
51
330
41
100
AcDbEntity
  8
_U+30EC_U+30A4_U+30E4_U+30FC 1
 62
   179
420
  2234388
370
    25
100
AcDb2dPolyline
 66
     1
 10
0.0
 20
0.0
 30
0.0
  0
VERTEX
  5
52
330
51
100
AcDbEntity
  8
_U+30EC_U+30A4_U+30E4_U+30FC 1
 62
   179
420
  2234388
370
    25
100
AcDbVertex
100
AcDb2dVertex
 10
71.36757762370586
 20
-100.9282052525457
 30
0.0
  0
VERTEX
  5
53
330
51
100
AcDbEntity
  8
_U+30EC_U+30A4_U+30E4_U+30FC 1
 62
   179
420
  2234388
370
    25
100
AcDbVertex
100
AcDb2dVertex
 10
69.2681265661562
 20
-150.0938563513656
 30
0.0
  0
SEQEND
  5
54
330
51
100
AcDbEntity
  8
_U+30EC_U+30A4_U+30E4_U+30FC 1
 62
   179
420
  2234388
370
    25
  0
POLYLINE
  5
55
330
41
100
AcDbEntity
  8
_U+30EC_U+30A4_U+30E4_U+30FC 1
 62
   179
420
  2234388
370
    25
100
AcDb2dPolyline
 66
     1
 10
0.0
 20
0.0
 30
0.0
  0
VERTEX
  5
56
330
55
100
AcDbEntity
  8
_U+30EC_U+30A4_U+30E4_U+30FC 1
 62
   179
420
  2234388
370
    25
100
AcDbVertex
100
AcDb2dVertex
 10
119.2674961238993
 20
-149.9281566291849
 30
0.0
  0
VERTEX
  5
57
330
55
100
AcDbEntity
  8
_U+30EC_U+30A4_U+30E4_U+30FC 1
 62
   179
420
  2234388
370
    25
100
AcDbVertex
100
AcDb2dVertex
 10
119.2674961238993
 20
-150.3281360735292
 30
0.0
  0
SEQEND
  5
58
330
55
100
AcDbEntity
  8
_U+30EC_U+30A4_U+30E4_U+30FC 1
 62
   179
420
  2234388
370
    25
  0
POLYLINE
  5
59
330
41
100
AcDbEntity
  8
_U+30EC_U+30A4_U+30E4_U+30FC 1
 62
   179
420
  2234388
370
    25
100
AcDb2dPolyline
 66
     1
 10
0.0
 20
0.0
 30
0.0
  0
VERTEX
  5
5A
330
59
100
AcDbEntity
  8
_U+30EC_U+30A4_U+30E4_U+30FC 1
 62
   179
420
  2234388
370
    25
100
AcDbVertex
100
AcDb2dVertex
 10
119.2674961238993
 20
-150.3281360735292
 30
0.0
  0
VERTEX
  5
5B
330
59
100
AcDbEntity
  8
_U+30EC_U+30A4_U+30E4_U+30FC 1
 62
   179
420
  2234388
370
    25
100
AcDbVertex
100
AcDb2dVertex
 10
70.07771626772407
 20
-150.9282463511571
 30
0.0
  0
SEQEND
  5
5C
330
59
100
AcDbEntity
  8
_U+30EC_U+30A4_U+30E4_U+30FC 1
 62
   179
420
  2234388
370
    25
  0
SPLINE
  5
5D
330
41
100
AcDbEntity
  8
_U+30EC_U+30A4_U+30E4_U+30FC 1
 62
   179
420
  2234388
370
    25
100
AcDbSpline
210
0.0
220
0.0
230
1.0
 70
     8
 71
     3
 72
    11
 73
     7
 74
     0
 42
0.0000000001
 43
0.0000000001
 12
1.0
 22
0.0
 32
0.0
 13
1.0
 23
0.0
 33
0.0
 40
0.0
 40
0.0
 40
0.0
 40
0.0
 40
1.0
 40
1.0
 40
1.0
 40
2.0
 40
2.0
 40
2.0
 40
2.0
 10
69.2681265661562
 20
-150.0938563513656
 30
0.0
 10
69.24953517774162
 20
-150.5354988512549
 30
0.0
 10
69.5919765578941
 20
-150.908631906717
 30
0.0
 10
70.03361904662685
 20
-150.927576073379
 30
0.0
 10
70.04808293514674
 20
-150.9278935733793
 30
0.0
 10
70.06254682366662
 20
-150.9282463511571
 30
0.0
 10
70.07771626772407
 20
-150.9282463511571
 30
0.0
  0
SPLINE
  5
5E
330
41
100
AcDbEntity
  8
_U+30EC_U+30A4_U+30E4_U+30FC 1
 62
   179
420
  2234388
370
     9
100
AcDbSpline
210
0.0
220
0.0
230
1.0
 70
    11
 71
     3
 72
    17
 73
    13
 74
     0
 42
0.0000000001
 43
0.0000000001
 12
1.0
 22
0.0
 32
0.0
 13
1.0
 23
0.0
 33
0.0
 40
0.0
 40
0.0
 40
0.0
 40
0.0
 40
1.0
 40
1.0
 40
1.0
 40
2.0
 40
2.0
 40
2.0
 40
3.0
 40
3.0
 40
3.0
 40
4.0
 40
4.0
 40
4.0
 40
4.0
 10
119.3674027880172
 20
-154.9280055168233
 30
0.0
 10
119.3674027880172
 20
-154.8729016279484
 30
0.0
 10
119.3226000113824
 20
-154.8280988501817
 30
0.0
 10
119.2674961238993
 20
-154.8280988501817
 30
0.0
 10
119.2123569586394
 20
-154.8280988501817
 30
0.0
 10
119.1675894597815
 20
-154.8729016279484
 30
0.0
 10
119.1675894597815
 20
-154.9280055168233
 30
0.0
 10
119.1675894597815
 20
-154.9834621834766
 30
0.0
 10
119.2123569586394
 20
-155.0282649612427
 30
0.0
 10
119.2674961238993
 20
-155.0282649612427
 30
0.0
 10
119.3226000113824
 20
-155.0282649612427
 30
0.0
 10
119.3674027880172
 20
-154.9834621834766
 30
0.0
 10
119.3674027880172
 20
-154.9280055168233
 30
0.0
  0
SPLINE
  5
5F
330
41
100
AcDbEntity
  8
_U+30EC_U+30A4_U+30E4_U+30FC 1
 62
   179
420
  2234388
370
     9
100
AcDbSpline
210
0.0
220
0.0
230
1.0
 70
    11
 71
     3
 72
    17
 73
    13
 74
     0
 42
0.0000000001
 43
0.0000000001
 12
1.0
 22
0.0
 32
0.0
 13
1.0
 23
0.0
 33
0.0
 40
0.0
 40
0.0
 40
0.0
 40
0.0
 40
1.0
 40
1.0
 40
1.0
 40
2.0
 40
2.0
 40
2.0
 40
3.0
 40
3.0
 40
3.0
 40
4.0
 40
4.0
 40
4.0
 40
4.0
 10
65.36756861011217
 20
-150.9282463511571
 30
0.0
 10
65.36756861011217
 20
-150.8727896845037
 30
0.0
 10
65.3228027614472
 20
-150.8279869067377
 30
0.0
 10
65.26766194599433
 20
-150.8279869067377
 30
0.0
 10
65.21255805851126
 20
-150.8279869067377
 30
0.0
 10
65.1677552818765
 20
-150.8727896845037
 30
0.0
 10
65.1677552818765
 20
-150.9282463511571
 30
0.0
 10
65.1677552818765
 20
-150.9833855178095
 30
0.0
 10
65.21255805851126
 20
-151.0281530177987
 30
0.0
 10
65.26766194599433
 20
-151.0281530177987
 30
0.0
 10
65.3228027614472
 20
-151.0281530177987
 30
0.0
 10
65.36756861011217
 20
-150.9833855178095
 30
0.0
 10
65.36756861011217
 20
-150.9282463511571
 30
0.0
  0
SPLINE
  5
60
330
41
100
AcDbEntity
  8
_U+30EC_U+30A4_U+30E4_U+30FC 1
 62
   179
420
  2234388
370
     9
100
AcDbSpline
210
0.0
220
0.0
230
1.0
 70
    11
 71
     3
 72
    17
 73
    13
 74
     0
 42
0.0000000001
 43
0.0000000001
 12
1.0
 22
0.0
 32
0.0
 13
1.0
 23
0.0
 33
0.0
 40
0.0
 40
0.0
 40
0.0
 40
0.0
 40
1.0
 40
1.0
 40
1.0
 40
2.0
 40
2.0
 40
2.0
 40
3.0
 40
3.0
 40
3.0
 40
4.0
 40
4.0
 40
4.0
 40
4.0
 10
69.36732767473649
 20
-154.9280055168233
 30
0.0
 10
69.36732767473649
 20
-154.8729016279484
 30
0.0
 10
69.32256017587859
 20
-154.8280988501817
 30
0.0
 10
69.26742101061865
 20
-154.8280988501817
 30
0.0
 10
69.21231712313558
 20
-154.8280988501817
 30
0.0
 10
69.16751434650081
 20
-154.8729016279484
 30
0.0
 10
69.16751434650081
 20
-154.9280055168233
 30
0.0
 10
69.16751434650081
 20
-154.9834621834766
 30
0.0
 10
69.21231712313558
 20
-155.0282649612427
 30
0.0
 10
69.26742101061865
 20
-155.0282649612427
 30
0.0
 10
69.32256017587859
 20
-155.0282649612427
 30
0.0
 10
69.36732767473649
 20
-154.9834621834766
 30
0.0
 10
69.36732767473649
 20
-154.9280055168233
 30
0.0
  0
SPLINE
  5
61
330
41
100
AcDbEntity
  8
_U+30EC_U+30A4_U+30E4_U+30FC 1
 62
   179
420
  2234388
370
     9
100
AcDbSpline
210
0.0
220
0.0
230
1.0
 70
    11
 71
     3
 72
    17
 73
    13
 74
     0
 42
0.0000000001
 43
0.0000000001
 12
1.0
 22
0.0
 32
0.0
 13
1.0
 23
0.0
 33
0.0
 40
0.0
 40
0.0
 40
0.0
 40
0.0
 40
1.0
 40
1.0
 40
1.0
 40
2.0
 40
2.0
 40
2.0
 40
3.0
 40
3.0
 40
3.0
 40
4.0
 40
4.0
 40
4.0
 40
4.0
 10
65.36756861011217
 20
-100.9282052525457
 30
0.0
 10
65.36756861011217
 20
-100.8731013636708
 30
0.0
 10
65.3228027614472
 20
-100.828298585904
 30
0.0
 10
65.26766194599433
 20
-100.828298585904
 30
0.0
 10
65.21255805851126
 20
-100.828298585904
 30
0.0
 10
65.1677552818765
 20
-100.8731013636708
 30
0.0
 10
65.1677552818765
 20
-100.9282052525457
 30
0.0
 10
65.1677552818765
 20
-100.9833444191988
 30
0.0
 10
65.21255805851126
 20
-101.0281119191873
 30
0.0
 10
65.26766194599433
 20
-101.0281119191873
 30
0.0
 10
65.3228027614472
 20
-101.0281119191873
 30
0.0
 10
65.36756861011217
 20
-100.9833444191988
 30
0.0
 10
65.36756861011217
 20
-100.9282052525457
 30
0.0
  0
POLYLINE
  5
62
330
41
100
AcDbEntity
  8
_U+30EC_U+30A4_U+30E4_U+30FC 1
 62
   179
420
  2234388
370
     9
100
AcDb2dPolyline
 66
     1
 10
0.0
 20
0.0
 30
0.0
  0
VERTEX
  5
63
330
62
100
AcDbEntity
  8
_U+30EC_U+30A4_U+30E4_U+30FC 1
 62
   179
420
  2234388
370
     9
100
AcDbVertex
100
AcDb2dVertex
 10
69.26742101061865
 20
-154.9280055168233
 30
0.0
  0
VERTEX
  5
64
330
62
100
AcDbEntity
  8
_U+30EC_U+30A4_U+30E4_U+30FC 1
 62
   179
420
  2234388
370
     9
100
AcDbVertex
100
AcDb2dVertex
 10
119.2674961238993
 20
-154.9280055168233
 30
0.0
  0
SEQEND
  5
65
330
62
100
AcDbEntity
  8
_U+30EC_U+30A4_U+30E4_U+30FC 1
 62
   179
420
  2234388
370
     9
  0
POLYLINE
  5
66
330
41
100
AcDbEntity
  8
_U+30EC_U+30A4_U+30E4_U+30FC 1
 62
   179
420
  2234388
370
     9
100
AcDb2dPolyline
 66
     1
 10
0.0
 20
0.0
 30
0.0
  0
VERTEX
  5
67
330
66
100
AcDbEntity
  8
_U+30EC_U+30A4_U+30E4_U+30FC 1
 62
   179
420
  2234388
370
     9
100
AcDbVertex
100
AcDb2dVertex
 10
69.26742101061865
 20
-152.6680405173885
 30
0.0
  0
VERTEX
  5
68
330
66
100
AcDbEntity
  8
_U+30EC_U+30A4_U+30E4_U+30FC 1
 62
   179
420
  2234388
370
     9
100
AcDbVertex
100
AcDb2dVertex
 10
69.26742101061865
 20
-155.9281305165736
 30
0.0
  0
SEQEND
  5
69
330
66
100
AcDbEntity
  8
_U+30EC_U+30A4_U+30E4_U+30FC 1
 62
   179
420
  2234388
370
     9
  0
POLYLINE
  5
6A
330
41
100
AcDbEntity
  8
_U+30EC_U+30A4_U+30E4_U+30FC 1
 62
   179
420
  2234388
370
     9
100
AcDb2dPolyline
 66
     1
 10
0.0
 20
0.0
 30
0.0
  0
VERTEX
  5
6B
330
6A
100
AcDbEntity
  8
_U+30EC_U+30A4_U+30E4_U+30FC 1
 62
   179
420
  2234388
370
     9
100
AcDbVertex
100
AcDb2dVertex
 10
119.2674961238993
 20
-152.868171350672
 30
0.0
  0
VERTEX
  5
6C
330
6A
100
AcDbEntity
  8
_U+30EC_U+30A4_U+30E4_U+30FC 1
 62
   179
420
  2234388
370
     9
100
AcDbVertex
100
AcDb2dVertex
 10
119.2674961238993
 20
-155.9281305165736
 30
0.0
  0
SEQEND
  5
6D
330
6A
100
AcDbEntity
  8
_U+30EC_U+30A4_U+30E4_U+30FC 1
 62
   179
420
  2234388
370
     9
  0
INSERT
  5
6F
330
41
100
AcDbEntity
  8
_U+30EC_U+30A4_U+30E4_U+30FC 1
100
AcDbBlockReference
  2
block 3
 10
0.0
 20
0.0
 30
0.0
  0
POLYLINE
  5
77
330
41
100
AcDbEntity
  8
_U+30EC_U+30A4_U+30E4_U+30FC 1
 62
   179
420
  2234388
370
     9
100
AcDb2dPolyline
 66
     1
 10
0.0
 20
0.0
 30
0.0
  0
VERTEX
  5
78
330
77
100
AcDbEntity
  8
_U+30EC_U+30A4_U+30E4_U+30FC 1
 62
   179
420
  2234388
370
     9
100
AcDbVertex
100
AcDb2dVertex
 10
65.26766194599433
 20
-100.9282052525457
 30
0.0
  0
VERTEX
  5
79
330
77
100
AcDbEntity
  8
_U+30EC_U+30A4_U+30E4_U+30FC 1
 62
   179
420
  2234388
370
     9
100
AcDbVertex
100
AcDb2dVertex
 10
65.26766194599433
 20
-150.9282463511571
 30
0.0
  0
SEQEND
  5
7A
330
77
100
AcDbEntity
  8
_U+30EC_U+30A4_U+30E4_U+30FC 1
 62
   179
420
  2234388
370
     9
  0
POLYLINE
  5
7B
330
41
100
AcDbEntity
  8
_U+30EC_U+30A4_U+30E4_U+30FC 1
 62
   179
420
  2234388
370
     9
100
AcDb2dPolyline
 66
     1
 10
0.0
 20
0.0
 30
0.0
  0
VERTEX
  5
7C
330
7B
100
AcDbEntity
  8
_U+30EC_U+30A4_U+30E4_U+30FC 1
 62
   179
420
  2234388
370
     9
100
AcDbVertex
100
AcDb2dVertex
 10
68.8278246329448
 20
-100.9282052525457
 30
0.0
  0
VERTEX
  5
7D
330
7B
100
AcDbEntity
  8
_U+30EC_U+30A4_U+30E4_U+30FC 1
 62
   179
420
  2234388
370
     9
100
AcDbVertex
100
AcDb2dVertex
 10
64.2679250270553
 20
-100.9282052525457
 30
0.0
  0
SEQEND
  5
7E
330
7B
100
AcDbEntity
  8
_U+30EC_U+30A4_U+30E4_U+30FC 1
 62
   179
420
  2234388
370
     9
  0
POLYLINE
  5
7F
330
41
100
AcDbEntity
  8
_U+30EC_U+30A4_U+30E4_U+30FC 1
 62
   179
420
  2234388
370
     9
100
AcDb2dPolyline
 66
     1
 10
0.0
 20
0.0
 30
0.0
  0
VERTEX
  5
80
330
7F
100
AcDbEntity
  8
_U+30EC_U+30A4_U+30E4_U+30FC 1
 62
   179
420
  2234388
370
     9
100
AcDbVertex
100
AcDb2dVertex
 10
67.52766387200711
 20
-150.9282463511571
 30
0.0
  0
VERTEX
  5
81
330
7F
100
AcDbEntity
  8
_U+30EC_U+30A4_U+30E4_U+30FC 1
 62
   179
420
  2234388
370
     9
100
AcDbVertex
100
AcDb2dVertex
 10
64.2679250270553
 20
-150.9282463511571
 30
0.0
  0
SEQEND
  5
82
330
7F
100
AcDbEntity
  8
_U+30EC_U+30A4_U+30E4_U+30FC 1
 62
   179
420
  2234388
370
     9
  0
INSERT
  5
84
330
41
100
AcDbEntity
  8
_U+30EC_U+30A4_U+30E4_U+30FC 1
100
AcDbBlockReference
  2
block 4
 10
0.0
 20
0.0
 30
0.0
  0
ENDBLK
  5
44
330
41
100
AcDbEntity
  8
0
100
AcDbBlockEnd
  0
BLOCK
  5
70
330
6E
100
AcDbEntity
  8
0
100
AcDbBlockBegin
  2
block 3
 70
     0
 10
0.0
 20
0.0
 30
0.0
  3
block 3
  1

  0
SPLINE
  5
72
330
6E
100
AcDbEntity
  8
_U+30EC_U+30A4_U+30E4_U+30FC 1
370
     0
100
AcDbSpline
210
0.0
220
0.0
230
1.0
 70
    11
 71
     3
 72
    53
 73
    49
 74
     0
 42
0.0000000001
 43
0.0000000001
 12
1.0
 22
0.0
 32
0.0
 13
1.0
 23
0.0
 33
0.0
 40
0.0
 40
0.0
 40
0.0
 40
0.0
 40
1.0
 40
1.0
 40
1.0
 40
2.0
 40
2.0
 40
2.0
 40
3.0
 40
3.0
 40
3.0
 40
4.0
 40
4.0
 40
4.0
 40
5.0
 40
5.0
 40
5.0
 40
6.0
 40
6.0
 40
6.0
 40
7.0
 40
7.0
 40
7.0
 40
8.0
 40
8.0
 40
8.0
 40
9.0
 40
9.0
 40
9.0
 40
10.0
 40
10.0
 40
10.0
 40
11.0
 40
11.0
 40
11.0
 40
12.0
 40
12.0
 40
12.0
 40
13.0
 40
13.0
 40
13.0
 40
14.0
 40
14.0
 40
14.0
 40
15.0
 40
15.0
 40
15.0
 40
16.0
 40
16.0
 40
16.0
 40
16.0
 10
93.6215033403099
 20
-154.2658636767113
 30
0.0
 10
93.53813202956687
 20
-154.2658636767113
 30
0.0
 10
93.42926701223297
 20
-154.2489827088336
 30
0.0
 10
93.32109101399612
 20
-154.185592951905
 30
0.0
 10
93.13540036734115
 20
-154.0756944059255
 30
0.0
 10
93.11300724668703
 20
-153.9444362679375
 30
0.0
 10
93.09268118332406
 20
-153.8366047792492
 30
0.0
 10
93.09268118332406
 20
-153.8366047792492
 30
0.0
 10
93.33004826225778
 20
-153.8366047792492
 30
0.0
 10
93.33004826225778
 20
-153.8366047792492
 30
0.0
 10
93.38861488550701
 20
-154.0353867887481
 30
0.0
 10
93.52435164762586
 20
-154.0650146099213
 30
0.0
 10
93.62391490714958
 20
-154.0650146099213
 30
0.0
 10
93.7730875416609
 20
-154.0650146099213
 30
0.0
 10
93.9356960485647
 20
-153.9654513503975
 30
0.0
 10
93.9356960485647
 20
-153.7329074051432
 30
0.0
 10
93.9356960485647
 20
-153.4769368105891
 30
0.0
 10
93.74380423003628
 20
-153.4070013722385
 30
0.0
 10
93.61495765888793
 20
-153.4070013722385
 30
0.0
 10
93.58085121358395
 20
-153.4070013722385
 30
0.0
 10
93.42926701223297
 20
-153.4070013722385
 30
0.0
 10
93.33452688638859
 20
-153.5361924529354
 30
0.0
 10
93.33452688638859
 20
-153.5361924529354
 30
0.0
 10
93.14676918244248
 20
-153.5172444277665
 30
0.0
 10
93.14676918244248
 20
-153.5172444277665
 30
0.0
 10
93.14676918244248
 20
-153.5172444277665
 30
0.0
 10
93.27561575359083
 20
-152.6707844670406
 30
0.0
 10
93.27561575359083
 20
-152.6707844670406
 30
0.0
 10
93.27561575359083
 20
-152.6707844670406
 30
0.0
 10
94.10760631327865
 20
-152.6707844670406
 30
0.0
 10
94.10760631327865
 20
-152.6707844670406
 30
0.0
 10
94.10760631327865
 20
-152.6707844670406
 30
0.0
 10
94.10760631327865
 20
-152.8654323619573
 30
0.0
 10
94.10760631327865
 20
-152.8654323619573
 30
0.0
 10
94.10760631327865
 20
-152.8654323619573
 30
0.0
 10
93.44993758514447
 20
-152.8654323619573
 30
0.0
 10
93.44993758514447
 20
-152.8654323619573
 30
0.0
 10
93.44993758514447
 20
-152.8654323619573
 30
0.0
 10
93.37965763724537
 20
-153.2884900875459
 30
0.0
 10
93.37965763724537
 20
-153.2884900875459
 30
0.0
 10
93.44511445146512
 20
-153.2547281517905
 30
0.0
 10
93.53330889588752
 20
-153.2144205346131
 30
0.0
 10
93.6600884097447
 20
-153.2144205346131
 30
0.0
 10
93.93121742443387
 20
-153.2144205346131
 30
0.0
 10
94.18443194259973
 20
-153.4008002003651
 30
0.0
 10
94.18443194259973
 20
-153.7139593799743
 30
0.0
 10
94.18443194259973
 20
-154.0312526741658
 30
0.0
 10
93.94499780637487
 20
-154.2658636767113
 30
0.0
 10
93.6215033403099
 20
-154.2658636767113
 30
0.0
  0
HATCH
  5
73
330
6E
100
AcDbEntity
  8
_U+30EC_U+30A4_U+30E4_U+30FC 1
 62
   179
420
  2234388
100
AcDbHatch
 10
0.0
 20
0.0
 30
0.0
210
0.0
220
0.0
230
1.0
  2
SOLID
 70
     1
 71
     0
 91
        1
 92
        1
 93
        1
 72
     4
 94
        3
 73
     0
 74
     1
 95
       53
 96
       49
 40
0.0
 40
0.0
 40
0.0
 40
0.0
 40
1.0
 40
1.0
 40
1.0
 40
2.0
 40
2.0
 40
2.0
 40
3.0
 40
3.0
 40
3.0
 40
4.0
 40
4.0
 40
4.0
 40
5.0
 40
5.0
 40
5.0
 40
6.0
 40
6.0
 40
6.0
 40
7.0
 40
7.0
 40
7.0
 40
8.0
 40
8.0
 40
8.0
 40
9.0
 40
9.0
 40
9.0
 40
10.0
 40
10.0
 40
10.0
 40
11.0
 40
11.0
 40
11.0
 40
12.0
 40
12.0
 40
12.0
 40
13.0
 40
13.0
 40
13.0
 40
14.0
 40
14.0
 40
14.0
 40
15.0
 40
15.0
 40
15.0
 40
16.0
 40
16.0
 40
16.0
 40
16.0
 10
93.6215033403099
 20
-154.2658636767113
 10
93.53813202956687
 20
-154.2658636767113
 10
93.42926701223297
 20
-154.2489827088336
 10
93.32109101399612
 20
-154.185592951905
 10
93.13540036734115
 20
-154.0756944059255
 10
93.11300724668703
 20
-153.9444362679375
 10
93.09268118332406
 20
-153.8366047792492
 10
93.09268118332406
 20
-153.8366047792492
 10
93.33004826225778
 20
-153.8366047792492
 10
93.33004826225778
 20
-153.8366047792492
 10
93.38861488550701
 20
-154.0353867887481
 10
93.52435164762586
 20
-154.0650146099213
 10
93.62391490714958
 20
-154.0650146099213
 10
93.7730875416609
 20
-154.0650146099213
 10
93.9356960485647
 20
-153.9654513503975
 10
93.9356960485647
 20
-153.7329074051432
 10
93.9356960485647
 20
-153.4769368105891
 10
93.74380423003628
 20
-153.4070013722385
 10
93.61495765888793
 20
-153.4070013722385
 10
93.58085121358395
 20
-153.4070013722385
 10
93.42926701223297
 20
-153.4070013722385
 10
93.33452688638859
 20
-153.5361924529354
 10
93.33452688638859
 20
-153.5361924529354
 10
93.14676918244248
 20
-153.5172444277665
 10
93.14676918244248
 20
-153.5172444277665
 10
93.14676918244248
 20
-153.5172444277665
 10
93.27561575359083
 20
-152.6707844670406
 10
93.27561575359083
 20
-152.6707844670406
 10
93.27561575359083
 20
-152.6707844670406
 10
94.10760631327865
 20
-152.6707844670406
 10
94.10760631327865
 20
-152.6707844670406
 10
94.10760631327865
 20
-152.6707844670406
 10
94.10760631327865
 20
-152.8654323619573
 10
94.10760631327865
 20
-152.8654323619573
 10
94.10760631327865
 20
-152.8654323619573
 10
93.44993758514447
 20
-152.8654323619573
 10
93.44993758514447
 20
-152.8654323619573
 10
93.44993758514447
 20
-152.8654323619573
 10
93.37965763724537
 20
-153.2884900875459
 10
93.37965763724537
 20
-153.2884900875459
 10
93.44511445146512
 20
-153.2547281517905
 10
93.53330889588752
 20
-153.2144205346131
 10
93.6600884097447
 20
-153.2144205346131
 10
93.93121742443387
 20
-153.2144205346131
 10
94.18443194259973
 20
-153.4008002003651
 10
94.18443194259973
 20
-153.7139593799743
 10
94.18443194259973
 20
-154.0312526741658
 10
93.94499780637487
 20
-154.2658636767113
 10
93.6215033403099
 20
-154.2658636767113
 97
        0
 97
        0
 75
     2
 76
     1
 98
        0
  0
SPLINE
  5
74
330
6E
100
AcDbEntity
  8
_U+30EC_U+30A4_U+30E4_U+30FC 1
370
     0
100
AcDbSpline
210
0.0
220
0.0
230
1.0
 70
    11
 71
     3
 72
    29
 73
    25
 74
     0
 42
0.0000000001
 43
0.0000000001
 12
1.0
 22
0.0
 32
0.0
 13
1.0
 23
0.0
 33
0.0
 40
0.0
 40
0.0
 40
0.0
 40
0.0
 40
1.0
 40
1.0
 40
1.0
 40
2.0
 40
2.0
 40
2.0
 40
3.0
 40
3.0
 40
3.0
 40
4.0
 40
4.0
 40
4.0
 40
5.0
 40
5.0
 40
5.0
 40
6.0
 40
6.0
 40
6.0
 40
7.0
 40
7.0
 40
7.0
 40
8.0
 40
8.0
 40
8.0
 40
8.0
 10
95.32475854821743
 20
-154.0374538460393
 30
0.0
 10
95.20934784946155
 20
-154.2469156515425
 30
0.0
 10
95.02400171235512
 20
-154.2658636767113
 30
0.0
 10
94.8996337653376
 20
-154.2658636767113
 30
0.0
 10
94.72806801017215
 20
-154.2658636767113
 30
0.0
 10
94.57648380882117
 20
-154.2193548876604
 30
0.0
 10
94.47485349200629
 20
-154.0374538460393
 30
0.0
 10
94.36392141738125
 20
-153.8428059511226
 30
0.0
 10
94.34359535401828
 20
-153.6057833817374
 30
0.0
 10
94.34359535401828
 20
-153.4431748748337
 30
0.0
 10
94.34359535401828
 20
-153.2991698835502
 30
0.0
 10
94.36150985054157
 20
-153.0473334035784
 30
0.0
 10
94.47485349200629
 20
-152.8485513940795
 30
0.0
 10
94.58991968121363
 20
-152.6456352699983
 30
0.0
 10
94.7618299459276
 20
-152.6222086206986
 30
0.0
 10
94.8996337653376
 20
-152.6222086206986
 30
0.0
 10
95.06947697276041
 20
-152.6222086206986
 30
0.0
 10
95.22312823140255
 20
-152.6666503524583
 30
0.0
 10
95.32475854821743
 20
-152.8485513940795
 30
0.0
 10
95.43121199871165
 20
-153.041132231705
 30
0.0
 10
95.45601668620544
 20
-153.2695420623771
 30
0.0
 10
95.45601668620544
 20
-153.4431748748337
 30
0.0
 10
95.45601668620544
 20
-153.6143961204506
 30
0.0
 10
95.43327905600279
 20
-153.8448730084138
 30
0.0
 10
95.32475854821743
 20
-154.0374538460393
 30
0.0
  0
SPLINE
  5
75
330
6E
100
AcDbEntity
  8
_U+30EC_U+30A4_U+30E4_U+30FC 1
370
     0
100
AcDbSpline
210
0.0
220
0.0
230
1.0
 70
    11
 71
     3
 72
    17
 73
    13
 74
     0
 42
0.0000000001
 43
0.0000000001
 12
1.0
 22
0.0
 32
0.0
 13
1.0
 23
0.0
 33
0.0
 40
0.0
 40
0.0
 40
0.0
 40
0.0
 40
1.0
 40
1.0
 40
1.0
 40
2.0
 40
2.0
 40
2.0
 40
3.0
 40
3.0
 40
3.0
 40
4.0
 40
4.0
 40
4.0
 40
4.0
 10
94.8996337653376
 20
-152.8147894583241
 30
0.0
 10
94.63298337477926
 20
-152.8147894583241
 30
0.0
 10
94.58337399979166
 20
-153.0983208167602
 30
0.0
 10
94.58337399979166
 20
-153.4431748748337
 30
0.0
 10
94.58337399979166
 20
-153.7625352263163
 30
0.0
 10
94.62161455967794
 20
-154.0712157817947
 30
0.0
 10
94.8996337653376
 20
-154.0712157817947
 30
0.0
 10
95.16421709860478
 20
-154.0712157817947
 30
0.0
 10
95.21623804043206
 20
-153.7900959901983
 30
0.0
 10
95.21623804043206
 20
-153.4431748748337
 30
0.0
 10
95.21623804043206
 20
-153.1234700138025
 30
0.0
 10
95.1755859137061
 20
-152.8147894583241
 30
0.0
 10
94.8996337653376
 20
-152.8147894583241
 30
0.0
  0
HATCH
  5
76
330
6E
100
AcDbEntity
  8
_U+30EC_U+30A4_U+30E4_U+30FC 1
 62
   179
420
  2234388
100
AcDbHatch
 10
0.0
 20
0.0
 30
0.0
210
0.0
220
0.0
230
1.0
  2
SOLID
 70
     1
 71
     0
 91
        2
 92
        1
 93
        1
 72
     4
 94
        3
 73
     0
 74
     1
 95
       29
 96
       25
 40
0.0
 40
0.0
 40
0.0
 40
0.0
 40
1.0
 40
1.0
 40
1.0
 40
2.0
 40
2.0
 40
2.0
 40
3.0
 40
3.0
 40
3.0
 40
4.0
 40
4.0
 40
4.0
 40
5.0
 40
5.0
 40
5.0
 40
6.0
 40
6.0
 40
6.0
 40
7.0
 40
7.0
 40
7.0
 40
8.0
 40
8.0
 40
8.0
 40
8.0
 10
95.32475854821743
 20
-154.0374538460393
 10
95.20934784946155
 20
-154.2469156515425
 10
95.02400171235512
 20
-154.2658636767113
 10
94.8996337653376
 20
-154.2658636767113
 10
94.72806801017215
 20
-154.2658636767113
 10
94.57648380882117
 20
-154.2193548876604
 10
94.47485349200629
 20
-154.0374538460393
 10
94.36392141738125
 20
-153.8428059511226
 10
94.34359535401828
 20
-153.6057833817374
 10
94.34359535401828
 20
-153.4431748748337
 10
94.34359535401828
 20
-153.2991698835502
 10
94.36150985054157
 20
-153.0473334035784
 10
94.47485349200629
 20
-152.8485513940795
 10
94.58991968121363
 20
-152.6456352699983
 10
94.7618299459276
 20
-152.6222086206986
 10
94.8996337653376
 20
-152.6222086206986
 10
95.06947697276041
 20
-152.6222086206986
 10
95.22312823140255
 20
-152.6666503524583
 10
95.32475854821743
 20
-152.8485513940795
 10
95.43121199871165
 20
-153.041132231705
 10
95.45601668620544
 20
-153.2695420623771
 10
95.45601668620544
 20
-153.4431748748337
 10
95.45601668620544
 20
-153.6143961204506
 10
95.43327905600279
 20
-153.8448730084138
 10
95.32475854821743
 20
-154.0374538460393
 97
        0
 97
        0
 92
        1
 93
        1
 72
     4
 94
        3
 73
     0
 74
     1
 95
       17
 96
       13
 40
0.0
 40
0.0
 40
0.0
 40
0.0
 40
1.0
 40
1.0
 40
1.0
 40
2.0
 40
2.0
 40
2.0
 40
3.0
 40
3.0
 40
3.0
 40
4.0
 40
4.0
 40
4.0
 40
4.0
 10
94.8996337653376
 20
-152.8147894583241
 10
94.63298337477926
 20
-152.8147894583241
 10
94.58337399979166
 20
-153.0983208167602
 10
94.58337399979166
 20
-153.4431748748337
 10
94.58337399979166
 20
-153.7625352263163
 10
94.62161455967794
 20
-154.0712157817947
 10
94.8996337653376
 20
-154.0712157817947
 10
95.16421709860478
 20
-154.0712157817947
 10
95.21623804043206
 20
-153.7900959901983
 10
95.21623804043206
 20
-153.4431748748337
 10
95.21623804043206
 20
-153.1234700138025
 10
95.1755859137061
 20
-152.8147894583241
 10
94.8996337653376
 20
-152.8147894583241
 97
        0
 97
        0
 75
     2
 76
     1
 98
        0
  0
ENDBLK
  5
71
330
6E
100
AcDbEntity
  8
0
100
AcDbBlockEnd
  0
BLOCK
  5
85
330
83
100
AcDbEntity
  8
0
100
AcDbBlockBegin
  2
block 4
 70
     0
 10
0.0
 20
0.0
 30
0.0
  3
block 4
  1

  0
SPLINE
  5
87
330
83
100
AcDbEntity
  8
_U+30EC_U+30A4_U+30E4_U+30FC 1
370
     0
100
AcDbSpline
210
0.0
220
0.0
230
1.0
 70
    11
 71
     3
 72
    53
 73
    49
 74
     0
 42
0.0000000001
 43
0.0000000001
 12
1.0
 22
0.0
 32
0.0
 13
1.0
 23
0.0
 33
0.0
 40
0.0
 40
0.0
 40
0.0
 40
0.0
 40
1.0
 40
1.0
 40
1.0
 40
2.0
 40
2.0
 40
2.0
 40
3.0
 40
3.0
 40
3.0
 40
4.0
 40
4.0
 40
4.0
 40
5.0
 40
5.0
 40
5.0
 40
6.0
 40
6.0
 40
6.0
 40
7.0
 40
7.0
 40
7.0
 40
8.0
 40
8.0
 40
8.0
 40
9.0
 40
9.0
 40
9.0
 40
10.0
 40
10.0
 40
10.0
 40
11.0
 40
11.0
 40
11.0
 40
12.0
 40
12.0
 40
12.0
 40
13.0
 40
13.0
 40
13.0
 40
14.0
 40
14.0
 40
14.0
 40
15.0
 40
15.0
 40
15.0
 40
16.0
 40
16.0
 40
16.0
 40
16.0
 10
64.60363632282478
 20
-126.5724636185305
 30
0.0
 10
64.60363632282478
 20
-126.6561794388221
 30
0.0
 10
64.5865831001728
 20
-126.7643554370589
 30
0.0
 10
64.5231933432442
 20
-126.8732204543928
 30
0.0
 10
64.41312254249047
 20
-127.0585665914993
 30
0.0
 10
64.28203665927671
 20
-127.0809597121534
 30
0.0
 10
64.1742051705884
 20
-127.1012857755163
 30
0.0
 10
64.1742051705884
 20
-127.1012857755163
 30
0.0
 10
64.1742051705884
 20
-126.8639186965826
 30
0.0
 10
64.1742051705884
 20
-126.8639186965826
 30
0.0
 10
64.3729871800873
 20
-126.8053520733334
 30
0.0
 10
64.40261500126046
 20
-126.6696153112145
 30
0.0
 10
64.40261500126046
 20
-126.5700520516908
 30
0.0
 10
64.40261500126046
 20
-126.4208794171795
 30
0.0
 10
64.30322399651101
 20
-126.2579264007272
 30
0.0
 10
64.07050779648237
 20
-126.2579264007272
 30
0.0
 10
63.81453720192831
 20
-126.2579264007272
 30
0.0
 10
63.744774018352
 20
-126.4501627288041
 30
0.0
 10
63.744774018352
 20
-126.5790092999525
 30
0.0
 10
63.744774018352
 20
-126.6131157452565
 30
0.0
 10
63.744774018352
 20
-126.7643554370589
 30
0.0
 10
63.87379284427461
 20
-126.8594400724518
 30
0.0
 10
63.87379284427461
 20
-126.8594400724518
 30
0.0
 10
63.85467256433147
 20
-127.0471977763979
 30
0.0
 10
63.85467256433147
 20
-127.0471977763979
 30
0.0
 10
63.85467256433147
 20
-127.0471977763979
 30
0.0
 10
63.00855711315411
 20
-126.9183512052496
 30
0.0
 10
63.00855711315411
 20
-126.9183512052496
 30
0.0
 10
63.00855711315411
 20
-126.9183512052496
 30
0.0
 10
63.00855711315411
 20
-126.0863606455618
 30
0.0
 10
63.00855711315411
 20
-126.0863606455618
 30
0.0
 10
63.00855711315411
 20
-126.0863606455618
 30
0.0
 10
63.20320500807073
 20
-126.0863606455618
 30
0.0
 10
63.20320500807073
 20
-126.0863606455618
 30
0.0
 10
63.20320500807073
 20
-126.0863606455618
 30
0.0
 10
63.20320500807073
 20
-126.7440293736959
 30
0.0
 10
63.20320500807073
 20
-126.7440293736959
 30
0.0
 10
63.20320500807073
 20
-126.7440293736959
 30
0.0
 10
63.62626273365941
 20
-126.814309321595
 30
0.0
 10
63.62626273365941
 20
-126.814309321595
 30
0.0
 10
63.5923285431297
 20
-126.7488525073753
 30
0.0
 10
63.55219318072654
 20
-126.6606580629529
 30
0.0
 10
63.55219318072654
 20
-126.5338785490957
 30
0.0
 10
63.55219318072654
 20
-126.2627495344065
 30
0.0
 10
63.73840059170429
 20
-126.0095350162407
 30
0.0
 10
64.05138751653924
 20
-126.0095350162407
 30
0.0
 10
64.36885306550501
 20
-126.0095350162407
 30
0.0
 10
64.60363632282478
 20
-126.2489691524655
 30
0.0
 10
64.60363632282478
 20
-126.5724636185305
 30
0.0
  0
HATCH
  5
88
330
83
100
AcDbEntity
  8
_U+30EC_U+30A4_U+30E4_U+30FC 1
 62
   179
420
  2234388
100
AcDbHatch
 10
0.0
 20
0.0
 30
0.0
210
0.0
220
0.0
230
1.0
  2
SOLID
 70
     1
 71
     0
 91
        1
 92
        1
 93
        1
 72
     4
 94
        3
 73
     0
 74
     1
 95
       53
 96
       49
 40
0.0
 40
0.0
 40
0.0
 40
0.0
 40
1.0
 40
1.0
 40
1.0
 40
2.0
 40
2.0
 40
2.0
 40
3.0
 40
3.0
 40
3.0
 40
4.0
 40
4.0
 40
4.0
 40
5.0
 40
5.0
 40
5.0
 40
6.0
 40
6.0
 40
6.0
 40
7.0
 40
7.0
 40
7.0
 40
8.0
 40
8.0
 40
8.0
 40
9.0
 40
9.0
 40
9.0
 40
10.0
 40
10.0
 40
10.0
 40
11.0
 40
11.0
 40
11.0
 40
12.0
 40
12.0
 40
12.0
 40
13.0
 40
13.0
 40
13.0
 40
14.0
 40
14.0
 40
14.0
 40
15.0
 40
15.0
 40
15.0
 40
16.0
 40
16.0
 40
16.0
 40
16.0
 10
64.60363632282478
 20
-126.5724636185305
 10
64.60363632282478
 20
-126.6561794388221
 10
64.5865831001728
 20
-126.7643554370589
 10
64.5231933432442
 20
-126.8732204543928
 10
64.41312254249047
 20
-127.0585665914993
 10
64.28203665927671
 20
-127.0809597121534
 10
64.1742051705884
 20
-127.1012857755163
 10
64.1742051705884
 20
-127.1012857755163
 10
64.1742051705884
 20
-126.8639186965826
 10
64.1742051705884
 20
-126.8639186965826
 10
64.3729871800873
 20
-126.8053520733334
 10
64.40261500126046
 20
-126.6696153112145
 10
64.40261500126046
 20
-126.5700520516908
 10
64.40261500126046
 20
-126.4208794171795
 10
64.30322399651101
 20
-126.2579264007272
 10
64.07050779648237
 20
-126.2579264007272
 10
63.81453720192831
 20
-126.2579264007272
 10
63.744774018352
 20
-126.4501627288041
 10
63.744774018352
 20
-126.5790092999525
 10
63.744774018352
 20
-126.6131157452565
 10
63.744774018352
 20
-126.7643554370589
 10
63.87379284427461
 20
-126.8594400724518
 10
63.87379284427461
 20
-126.8594400724518
 10
63.85467256433147
 20
-127.0471977763979
 10
63.85467256433147
 20
-127.0471977763979
 10
63.85467256433147
 20
-127.0471977763979
 10
63.00855711315411
 20
-126.9183512052496
 10
63.00855711315411
 20
-126.9183512052496
 10
63.00855711315411
 20
-126.9183512052496
 10
63.00855711315411
 20
-126.0863606455618
 10
63.00855711315411
 20
-126.0863606455618
 10
63.00855711315411
 20
-126.0863606455618
 10
63.20320500807073
 20
-126.0863606455618
 10
63.20320500807073
 20
-126.0863606455618
 10
63.20320500807073
 20
-126.0863606455618
 10
63.20320500807073
 20
-126.7440293736959
 10
63.20320500807073
 20
-126.7440293736959
 10
63.20320500807073
 20
-126.7440293736959
 10
63.62626273365941
 20
-126.814309321595
 10
63.62626273365941
 20
-126.814309321595
 10
63.5923285431297
 20
-126.7488525073753
 10
63.55219318072654
 20
-126.6606580629529
 10
63.55219318072654
 20
-126.5338785490957
 10
63.55219318072654
 20
-126.2627495344065
 10
63.73840059170429
 20
-126.0095350162407
 10
64.05138751653924
 20
-126.0095350162407
 10
64.36885306550501
 20
-126.0095350162407
 10
64.60363632282478
 20
-126.2489691524655
 10
64.60363632282478
 20
-126.5724636185305
 97
        0
 97
        0
 75
     2
 76
     1
 98
        0
  0
SPLINE
  5
89
330
83
100
AcDbEntity
  8
_U+30EC_U+30A4_U+30E4_U+30FC 1
370
     0
100
AcDbSpline
210
0.0
220
0.0
230
1.0
 70
    11
 71
     3
 72
    29
 73
    25
 74
     0
 42
0.0000000001
 43
0.0000000001
 12
1.0
 22
0.0
 32
0.0
 13
1.0
 23
0.0
 33
0.0
 40
0.0
 40
0.0
 40
0.0
 40
0.0
 40
1.0
 40
1.0
 40
1.0
 40
2.0
 40
2.0
 40
2.0
 40
3.0
 40
3.0
 40
3.0
 40
4.0
 40
4.0
 40
4.0
 40
5.0
 40
5.0
 40
5.0
 40
6.0
 40
6.0
 40
6.0
 40
7.0
 40
7.0
 40
7.0
 40
8.0
 40
8.0
 40
8.0
 40
8.0
 10
64.37505423737846
 20
-124.869208410623
 30
0.0
 10
64.58451604288165
 20
-124.9846191093789
 30
0.0
 10
64.60363632282478
 20
-125.1699652464853
 30
0.0
 10
64.60363632282478
 20
-125.2943331935028
 30
0.0
 10
64.60363632282478
 20
-125.4658989486683
 30
0.0
 10
64.55712753377392
 20
-125.6174831500192
 30
0.0
 10
64.37505423737846
 20
-125.7191134668341
 30
0.0
 10
64.18040634246185
 20
-125.8300455414592
 30
0.0
 10
63.94355602785092
 20
-125.8503716048221
 30
0.0
 10
63.7806030113986
 20
-125.8503716048221
 30
0.0
 10
63.63677027488942
 20
-125.8503716048221
 30
0.0
 10
63.38510604969192
 20
-125.8321125987503
 30
0.0
 10
63.18615178541874
 20
-125.7191134668341
 30
0.0
 10
62.98306340656327
 20
-125.6040472776268
 30
0.0
 10
62.95980901203783
 20
-125.4321370129128
 30
0.0
 10
62.95980901203783
 20
-125.2943331935028
 30
0.0
 10
62.95980901203783
 20
-125.12448998608
 30
0.0
 10
63.00425074379755
 20
-124.9708387274379
 30
0.0
 10
63.18615178541874
 20
-124.869208410623
 30
0.0
 10
63.37873262304421
 20
-124.7627549601288
 30
0.0
 10
63.60714245371627
 20
-124.737950272635
 30
0.0
 10
63.7806030113986
 20
-124.737950272635
 30
0.0
 10
63.95199651178978
 20
-124.737950272635
 30
0.0
 10
64.18264565452726
 20
-124.7606879028376
 30
0.0
 10
64.37505423737846
 20
-124.869208410623
 30
0.0
  0
SPLINE
  5
8A
330
83
100
AcDbEntity
  8
_U+30EC_U+30A4_U+30E4_U+30FC 1
370
     0
100
AcDbSpline
210
0.0
220
0.0
230
1.0
 70
    11
 71
     3
 72
    17
 73
    13
 74
     0
 42
0.0000000001
 43
0.0000000001
 12
1.0
 22
0.0
 32
0.0
 13
1.0
 23
0.0
 33
0.0
 40
0.0
 40
0.0
 40
0.0
 40
0.0
 40
1.0
 40
1.0
 40
1.0
 40
2.0
 40
2.0
 40
2.0
 40
3.0
 40
3.0
 40
3.0
 40
4.0
 40
4.0
 40
4.0
 40
4.0
 10
63.15238984966329
 20
-125.2943331935028
 30
0.0
 10
63.15238984966329
 20
-125.5609835840611
 30
0.0
 10
63.43592120809936
 20
-125.6105929590487
 30
0.0
 10
63.7806030113986
 20
-125.6105929590487
 30
0.0
 10
64.10013561765552
 20
-125.6105929590487
 30
0.0
 10
64.40898842790817
 20
-125.5723523991625
 30
0.0
 10
64.40898842790817
 20
-125.2943331935028
 30
0.0
 10
64.40898842790817
 20
-125.0297498602356
 30
0.0
 10
64.12752412676326
 20
-124.9777289184083
 30
0.0
 10
63.7806030113986
 20
-124.9777289184083
 30
0.0
 10
63.46124265991594
 20
-124.9777289184083
 30
0.0
 10
63.15238984966329
 20
-125.0183810451343
 30
0.0
 10
63.15238984966329
 20
-125.2943331935028
 30
0.0
  0
HATCH
  5
8B
330
83
100
AcDbEntity
  8
_U+30EC_U+30A4_U+30E4_U+30FC 1
 62
   179
420
  2234388
100
AcDbHatch
 10
0.0
 20
0.0
 30
0.0
210
0.0
220
0.0
230
1.0
  2
SOLID
 70
     1
 71
     0
 91
        2
 92
        1
 93
        1
 72
     4
 94
        3
 73
     0
 74
     1
 95
       29
 96
       25
 40
0.0
 40
0.0
 40
0.0
 40
0.0
 40
1.0
 40
1.0
 40
1.0
 40
2.0
 40
2.0
 40
2.0
 40
3.0
 40
3.0
 40
3.0
 40
4.0
 40
4.0
 40
4.0
 40
5.0
 40
5.0
 40
5.0
 40
6.0
 40
6.0
 40
6.0
 40
7.0
 40
7.0
 40
7.0
 40
8.0
 40
8.0
 40
8.0
 40
8.0
 10
64.37505423737846
 20
-124.869208410623
 10
64.58451604288165
 20
-124.9846191093789
 10
64.60363632282478
 20
-125.1699652464853
 10
64.60363632282478
 20
-125.2943331935028
 10
64.60363632282478
 20
-125.4658989486683
 10
64.55712753377392
 20
-125.6174831500192
 10
64.37505423737846
 20
-125.7191134668341
 10
64.18040634246185
 20
-125.8300455414592
 10
63.94355602785092
 20
-125.8503716048221
 10
63.7806030113986
 20
-125.8503716048221
 10
63.63677027488942
 20
-125.8503716048221
 10
63.38510604969192
 20
-125.8321125987503
 10
63.18615178541874
 20
-125.7191134668341
 10
62.98306340656327
 20
-125.6040472776268
 10
62.95980901203783
 20
-125.4321370129128
 10
62.95980901203783
 20
-125.2943331935028
 10
62.95980901203783
 20
-125.12448998608
 10
63.00425074379755
 20
-124.9708387274379
 10
63.18615178541874
 20
-124.869208410623
 10
63.37873262304421
 20
-124.7627549601288
 10
63.60714245371627
 20
-124.737950272635
 10
63.7806030113986
 20
-124.737950272635
 10
63.95199651178978
 20
-124.737950272635
 10
64.18264565452726
 20
-124.7606879028376
 10
64.37505423737846
 20
-124.869208410623
 97
        0
 97
        0
 92
        1
 93
        1
 72
     4
 94
        3
 73
     0
 74
     1
 95
       17
 96
       13
 40
0.0
 40
0.0
 40
0.0
 40
0.0
 40
1.0
 40
1.0
 40
1.0
 40
2.0
 40
2.0
 40
2.0
 40
3.0
 40
3.0
 40
3.0
 40
4.0
 40
4.0
 40
4.0
 40
4.0
 10
63.15238984966329
 20
-125.2943331935028
 10
63.15238984966329
 20
-125.5609835840611
 10
63.43592120809936
 20
-125.6105929590487
 10
63.7806030113986
 20
-125.6105929590487
 10
64.10013561765552
 20
-125.6105929590487
 10
64.40898842790817
 20
-125.5723523991625
 10
64.40898842790817
 20
-125.2943331935028
 10
64.40898842790817
 20
-125.0297498602356
 10
64.12752412676326
 20
-124.9777289184083
 10
63.7806030113986
 20
-124.9777289184083
 10
63.46124265991594
 20
-124.9777289184083
 10
63.15238984966329
 20
-125.0183810451343
 10
63.15238984966329
 20
-125.2943331935028
 97
        0
 97
        0
 75
     2
 76
     1
 98
        0
  0
ENDBLK
  5
86
330
83
100
AcDbEntity
  8
0
100
AcDbBlockEnd
  0
BLOCK
  5
B0
330
AE
100
AcDbEntity
  8
0
100
AcDbBlockBegin
  2
block 5
 70
     0
 10
0.0
 20
0.0
 30
0.0
  3
block 5
  1

  0
SPLINE
  5
B2
330
AE
100
AcDbEntity
  8
_U+30EC_U+30A4_U+30E4_U+30FC 1
370
     0
100
AcDbSpline
210
0.0
220
0.0
230
1.0
 70
    11
 71
     3
 72
   242
 73
   238
 74
     0
 42
0.0000000001
 43
0.0000000001
 12
1.0
 22
0.0
 32
0.0
 13
1.0
 23
0.0
 33
0.0
 40
0.0
 40
0.0
 40
0.0
 40
0.0
 40
1.0
 40
1.0
 40
1.0
 40
2.0
 40
2.0
 40
2.0
 40
3.0
 40
3.0
 40
3.0
 40
4.0
 40
4.0
 40
4.0
 40
5.0
 40
5.0
 40
5.0
 40
6.0
 40
6.0
 40
6.0
 40
7.0
 40
7.0
 40
7.0
 40
8.0
 40
8.0
 40
8.0
 40
9.0
 40
9.0
 40
9.0
 40
10.0
 40
10.0
 40
10.0
 40
11.0
 40
11.0
 40
11.0
 40
12.0
 40
12.0
 40
12.0
 40
13.0
 40
13.0
 40
13.0
 40
14.0
 40
14.0
 40
14.0
 40
15.0
 40
15.0
 40
15.0
 40
16.0
 40
16.0
 40
16.0
 40
17.0
 40
17.0
 40
17.0
 40
18.0
 40
18.0
 40
18.0
 40
19.0
 40
19.0
 40
19.0
 40
20.0
 40
20.0
 40
20.0
 40
21.0
 40
21.0
 40
21.0
 40
22.0
 40
22.0
 40
22.0
 40
23.0
 40
23.0
 40
23.0
 40
24.0
 40
24.0
 40
24.0
 40
25.0
 40
25.0
 40
25.0
 40
26.0
 40
26.0
 40
26.0
 40
27.0
 40
27.0
 40
27.0
 40
28.0
 40
28.0
 40
28.0
 40
29.0
 40
29.0
 40
29.0
 40
30.0
 40
30.0
 40
30.0
 40
31.0
 40
31.0
 40
31.0
 40
32.0
 40
32.0
 40
32.0
 40
33.0
 40
33.0
 40
33.0
 40
34.0
 40
34.0
 40
34.0
 40
35.0
 40
35.0
 40
35.0
 40
36.0
 40
36.0
 40
36.0
 40
37.0
 40
37.0
 40
37.0
 40
38.0
 40
38.0
 40
38.0
 40
39.0
 40
39.0
 40
39.0
 40
40.0
 40
40.0
 40
40.0
 40
41.0
 40
41.0
 40
41.0
 40
42.0
 40
42.0
 40
42.0
 40
43.0
 40
43.0
 40
43.0
 40
44.0
 40
44.0
 40
44.0
 40
45.0
 40
45.0
 40
45.0
 40
46.0
 40
46.0
 40
46.0
 40
47.0
 40
47.0
 40
47.0
 40
48.0
 40
48.0
 40
48.0
 40
49.0
 40
49.0
 40
49.0
 40
50.0
 40
50.0
 40
50.0
 40
51.0
 40
51.0
 40
51.0
 40
52.0
 40
52.0
 40
52.0
 40
53.0
 40
53.0
 40
53.0
 40
54.0
 40
54.0
 40
54.0
 40
55.0
 40
55.0
 40
55.0
 40
56.0
 40
56.0
 40
56.0
 40
57.0
 40
57.0
 40
57.0
 40
58.0
 40
58.0
 40
58.0
 40
59.0
 40
59.0
 40
59.0
 40
60.0
 40
60.0
 40
60.0
 40
61.0
 40
61.0
 40
61.0
 40
62.0
 40
62.0
 40
62.0
 40
63.0
 40
63.0
 40
63.0
 40
64.0
 40
64.0
 40
64.0
 40
65.0
 40
65.0
 40
65.0
 40
66.0
 40
66.0
 40
66.0
 40
67.0
 40
67.0
 40
67.0
 40
68.0
 40
68.0
 40
68.0
 40
69.0
 40
69.0
 40
69.0
 40
70.0
 40
70.0
 40
70.0
 40
71.0
 40
71.0
 40
71.0
 40
72.0
 40
72.0
 40
72.0
 40
73.0
 40
73.0
 40
73.0
 40
74.0
 40
74.0
 40
74.0
 40
75.0
 40
75.0
 40
75.0
 40
76.0
 40
76.0
 40
76.0
 40
77.0
 40
77.0
 40
77.0
 40
78.0
 40
78.0
 40
78.0
 40
79.0
 40
79.0
 40
79.0
 40
79.0
 10
102.1212429215183
 20
-112.5190578603251
 30
0.0
 10
102.1212429215183
 20
-112.5190578603251
 30
0.0
 10
101.8673393842554
 20
-112.5190578603251
 30
0.0
 10
101.8673393842554
 20
-112.5190578603251
 30
0.0
 10
101.8673393842554
 20
-112.5190578603251
 30
0.0
 10
101.5903537072413
 20
-112.5190578603251
 30
0.0
 10
101.5903537072413
 20
-112.5190578603251
 30
0.0
 10
101.5903537072413
 20
-112.5190578603251
 30
0.0
 10
101.7171332210985
 20
-112.5614325347937
 30
0.0
 10
101.7171332210985
 20
-112.5614325347937
 30
0.0
 10
101.7278130171028
 20
-112.5657389041502
 30
0.0
 10
101.7405598703982
 20
-112.5719400760237
 30
0.0
 10
101.7405598703982
 20
-112.5846869293191
 30
0.0
 10
101.7405598703982
 20
-112.6058742665534
 30
0.0
 10
101.7085204823854
 20
-112.6122476932011
 30
0.0
 10
101.6875053999254
 20
-112.6163818077834
 30
0.0
 10
101.6768256039211
 20
-112.6396362023088
 30
0.0
 10
101.6471977827479
 20
-112.7052652713028
 30
0.0
 10
101.6282497575791
 20
-112.7497070030626
 30
0.0
 10
101.6282497575791
 20
-112.7497070030626
 30
0.0
 10
101.8990342627197
 20
-112.7497070030626
 30
0.0
 10
101.8990342627197
 20
-112.7497070030626
 30
0.0
 10
101.9899847835303
 20
-112.7497070030626
 30
0.0
 10
102.186699735738
 20
-112.745400633706
 30
0.0
 10
102.3286376697303
 20
-112.7369601497672
 30
0.0
 10
102.3286376697303
 20
-112.7369601497672
 30
0.0
 10
102.3286376697303
 20
-112.914727076806
 30
0.0
 10
102.3286376697303
 20
-112.914727076806
 30
0.0
 10
102.2459553780843
 20
-112.9104207074495
 30
0.0
 10
102.2249402956243
 20
-112.9104207074495
 30
0.0
 10
102.0451063112943
 20
-112.9062865928672
 30
0.0
 10
102.01341143283
 20
-113.0606268706064
 30
0.0
 10
101.9689697010703
 20
-113.141069850187
 30
0.0
 10
101.9245279693105
 20
-113.2108330337633
 30
0.0
 10
102.0451063112943
 20
-113.2700886761096
 30
0.0
 10
102.1508707426915
 20
-113.3377848023947
 30
0.0
 10
102.2545681167975
 20
-113.4202948392665
 30
0.0
 10
102.2545681167975
 20
-113.4202948392665
 30
0.0
 10
102.1360568321049
 20
-113.5873819703011
 30
0.0
 10
102.1360568321049
 20
-113.5873819703011
 30
0.0
 10
102.1126301828052
 20
-113.5684339451322
 30
0.0
 10
102.0998833295098
 20
-113.5599934611933
 30
0.0
 10
101.9879177262391
 20
-113.4752441122562
 30
0.0
 10
101.9393418798971
 20
-113.4371758071442
 30
0.0
 10
101.8800862375508
 20
-113.4013468140976
 30
0.0
 10
101.799471003196
 20
-113.3569050823379
 30
0.0
 10
101.5879421404016
 20
-113.5431124933156
 30
0.0
 10
101.3829589590293
 20
-113.5663668878411
 30
0.0
 10
101.0928819191712
 20
-113.5959947090142
 30
0.0
 10
101.0928819191712
 20
-113.5959947090142
 30
0.0
 10
100.9895290546137
 20
-113.4161607246842
 30
0.0
 10
100.9895290546137
 20
-113.4161607246842
 30
0.0
 10
101.3068223488052
 20
-113.4118543553276
 30
0.0
 10
101.4821777090045
 20
-113.386532903511
 30
0.0
 10
101.6344509294525
 20
-113.2764621027573
 30
0.0
 10
101.5162841543084
 20
-113.2256469443498
 30
0.0
 10
101.427400690789
 20
-113.1982584352421
 30
0.0
 10
101.3912271881939
 20
-113.1855115819467
 30
0.0
 10
101.372279163025
 20
-113.2130723458287
 30
0.0
 10
101.3574652524384
 20
-113.2320203709976
 30
0.0
 10
101.3299044885564
 20
-113.2659545615273
 30
0.0
 10
101.3299044885564
 20
-113.2659545615273
 30
0.0
 10
101.1331895363487
 20
-113.1834445246555
 30
0.0
 10
101.1331895363487
 20
-113.1834445246555
 30
0.0
 10
101.2158718279946
 20
-113.1030015450749
 30
0.0
 10
101.2771945276321
 20
-113.0077446549078
 30
0.0
 10
101.3340386031387
 20
-112.9062865928672
 30
0.0
 10
101.1438693323529
 20
-112.9104207074495
 30
0.0
 10
101.1225097403444
 20
-112.9104207074495
 30
0.0
 10
101.0401719582469
 20
-112.914727076806
 30
0.0
 10
101.0401719582469
 20
-112.914727076806
 30
0.0
 10
101.0401719582469
 20
-112.7369601497672
 30
0.0
 10
101.0401719582469
 20
-112.7369601497672
 30
0.0
 10
101.1796983253995
 20
-112.7433335764149
 30
0.0
 10
101.3891601309027
 20
-112.7476399457714
 30
0.0
 10
101.4146538374936
 20
-112.7476399457714
 30
0.0
 10
101.4315348053713
 20
-112.7137057552417
 30
0.0
 10
101.4866563331353
 20
-112.593127413258
 30
0.0
 10
101.5056043583042
 20
-112.5190578603251
 30
0.0
 10
101.4866563331353
 20
-112.5190578603251
 30
0.0
 10
101.3088894060964
 20
-112.5254312869728
 30
0.0
 10
101.1142415111798
 20
-112.5381781402682
 30
0.0
 10
101.1142415111798
 20
-112.5381781402682
 30
0.0
 10
101.1142415111798
 20
-112.6715033355474
 30
0.0
 10
101.1142415111798
 20
-112.6715033355474
 30
0.0
 10
101.0656656648378
 20
-112.696824787364
 30
0.0
 10
101.0064100224915
 20
-112.7285196658283
 30
0.0
 10
100.8730848272123
 20
-112.7941487348223
 30
0.0
 10
100.8730848272123
 20
-112.7941487348223
 30
0.0
 10
100.8730848272123
 20
-112.9400485286226
 30
0.0
 10
100.8730848272123
 20
-112.9400485286226
 30
0.0
 10
100.8730848272123
 20
-112.9400485286226
 30
0.0
 10
100.8730848272123
 20
-113.4077202407453
 30
0.0
 10
100.8730848272123
 20
-113.4077202407453
 30
0.0
 10
100.8730848272123
 20
-113.5344997546025
 30
0.0
 10
100.8369113246172
 20
-113.5937553969488
 30
0.0
 10
100.5537244757296
 20
-113.5853149130099
 30
0.0
 10
100.5537244757296
 20
-113.5853149130099
 30
0.0
 10
100.4500271016236
 20
-113.3780924195722
 30
0.0
 10
100.4500271016236
 20
-113.3780924195722
 30
0.0
 10
100.5134168585522
 20
-113.3906670180933
 30
0.0
 10
100.5619927048942
 20
-113.3949733874499
 30
0.0
 10
100.6023003220717
 20
-113.3949733874499
 30
0.0
 10
100.6784369322957
 20
-113.3949733874499
 30
0.0
 10
100.6891167283
 20
-113.3717189929244
 30
0.0
 10
100.6891167283
 20
-113.3060899239304
 30
0.0
 10
100.6891167283
 20
-113.3060899239304
 30
0.0
 10
100.6891167283
 20
-112.876658771694
 30
0.0
 10
100.6891167283
 20
-112.876658771694
 30
0.0
 10
100.5916205260674
 20
-112.9167941340972
 30
0.0
 10
100.5747395581896
 20
-112.9231675607449
 30
0.0
 10
100.5282307691388
 20
-112.942287840688
 30
0.0
 10
100.5240966545565
 20
-112.9633029231481
 30
0.0
 10
100.5196180304257
 20
-112.9929307443212
 30
0.0
 10
100.5006700052568
 20
-112.9929307443212
 30
0.0
 10
100.4924017760922
 20
-112.9929307443212
 30
0.0
 10
100.4817219800879
 20
-112.9887966297389
 30
0.0
 10
100.4751762986659
 20
-112.9655422352135
 30
0.0
 10
100.4751762986659
 20
-112.9655422352135
 30
0.0
 10
100.4224663377416
 20
-112.772961397588
 30
0.0
 10
100.4224663377416
 20
-112.772961397588
 30
0.0
 10
100.5685383863162
 20
-112.7264526085371
 30
0.0
 10
100.6339952005359
 20
-112.7031982140117
 30
0.0
 10
100.6891167283
 20
-112.6820108767774
 30
0.0
 10
100.6891167283
 20
-112.6820108767774
 30
0.0
 10
100.6891167283
 20
-112.2694606924187
 30
0.0
 10
100.6891167283
 20
-112.2694606924187
 30
0.0
 10
100.6891167283
 20
-112.2694606924187
 30
0.0
 10
100.6360622578271
 20
-112.2694606924187
 30
0.0
 10
100.6360622578271
 20
-112.2694606924187
 30
0.0
 10
100.6360622578271
 20
-112.2694606924187
 30
0.0
 10
100.5578585903119
 20
-112.2694606924187
 30
0.0
 10
100.5578585903119
 20
-112.2694606924187
 30
0.0
 10
100.4899902092525
 20
-112.2694606924187
 30
0.0
 10
100.4817219800879
 20
-112.2694606924187
 30
0.0
 10
100.4455484774928
 20
-112.2758341190665
 30
0.0
 10
100.4455484774928
 20
-112.2758341190665
 30
0.0
 10
100.4455484774928
 20
-112.0811862241498
 30
0.0
 10
100.4455484774928
 20
-112.0811862241498
 30
0.0
 10
100.4731092413748
 20
-112.0875596507976
 30
0.0
 10
100.4817219800879
 20
-112.0875596507976
 30
0.0
 10
100.55131290889
 20
-112.0875596507976
 30
0.0
 10
100.55131290889
 20
-112.0875596507976
 30
0.0
 10
100.6846381041691
 20
-112.0875596507976
 30
0.0
 10
100.6846381041691
 20
-112.0875596507976
 30
0.0
 10
100.6846381041691
 20
-112.0177964672212
 30
0.0
 10
100.6846381041691
 20
-111.9352864303495
 30
0.0
 10
100.682571046878
 20
-111.930980060993
 30
0.0
 10
100.6743028177134
 20
-111.7511460766629
 30
0.0
 10
100.6743028177134
 20
-111.732198051494
 30
0.0
 10
100.6718912508737
 20
-111.6856892624432
 30
0.0
 10
100.6718912508737
 20
-111.6856892624432
 30
0.0
 10
100.8878987377989
 20
-111.694129746382
 30
0.0
 10
100.8878987377989
 20
-111.694129746382
 30
0.0
 10
100.8985785338031
 20
-111.694129746382
 30
0.0
 10
100.9195936162632
 20
-111.6961968036732
 30
0.0
 10
100.9195936162632
 20
-111.7130777715509
 30
0.0
 10
100.9195936162632
 20
-111.732198051494
 30
0.0
 10
100.9047797056766
 20
-111.7427055927241
 30
0.0
 10
100.8792859990857
 20
-111.7618258726672
 30
0.0
 10
100.8792859990857
 20
-111.8124687763004
 30
0.0
 10
100.8730848272123
 20
-112.0410508617467
 30
0.0
 10
100.8751518845034
 20
-112.0875596507976
 30
0.0
 10
101.0043429652003
 20
-112.0875596507976
 30
0.0
 10
101.0167453089472
 20
-112.0875596507976
 30
0.0
 10
101.1142415111798
 20
-112.0791191668587
 30
0.0
 10
101.1142415111798
 20
-112.0791191668587
 30
0.0
 10
101.1142415111798
 20
-112.2737670617753
 30
0.0
 10
101.1142415111798
 20
-112.2737670617753
 30
0.0
 10
101.0760009512935
 20
-112.2715277497099
 30
0.0
 10
101.0084770797826
 20
-112.2673936351276
 30
0.0
 10
100.8730848272123
 20
-112.2694606924187
 30
0.0
 10
100.8730848272123
 20
-112.2694606924187
 30
0.0
 10
100.8730848272123
 20
-112.6079413238445
 30
0.0
 10
100.8730848272123
 20
-112.6079413238445
 30
0.0
 10
100.9282063549763
 20
-112.5846869293191
 30
0.0
 10
100.993663169196
 20
-112.5571261654371
 30
0.0
 10
101.0422390155381
 20
-112.5338717709117
 30
0.0
 10
101.0422390155381
 20
-112.5338717709117
 30
0.0
 10
101.0422390155381
 20
-112.356277098647
 30
0.0
 10
101.0422390155381
 20
-112.356277098647
 30
0.0
 10
101.1566161856483
 20
-112.3688516971682
 30
0.0
 10
101.2751274703409
 20
-112.3688516971682
 30
0.0
 10
101.3912271881939
 20
-112.3688516971682
 30
0.0
 10
101.3681450484427
 20
-112.2737670617753
 30
0.0
 10
101.3405842845607
 20
-112.1912570249036
 30
0.0
 10
101.2771945276321
 20
-112.0579318296244
 30
0.0
 10
101.2327527958724
 20
-112.0599988869156
 30
0.0
 10
101.1500705042264
 20
-112.0643052562721
 30
0.0
 10
101.1121744538886
 20
-112.0663723135633
 30
0.0
 10
101.1121744538886
 20
-112.0663723135633
 30
0.0
 10
101.1121744538886
 20
-111.8865383292332
 30
0.0
 10
101.1121744538886
 20
-111.8865383292332
 30
0.0
 10
101.2368869104547
 20
-111.8949788131721
 30
0.0
 10
101.4105197229113
 20
-111.8992851825287
 30
0.0
 10
101.4928575050087
 20
-111.8992851825287
 30
0.0
 10
101.4928575050087
 20
-111.8992851825287
 30
0.0
 10
101.5755397966547
 20
-111.8992851825287
 30
0.0
 10
101.5755397966547
 20
-111.8992851825287
 30
0.0
 10
101.5755397966547
 20
-111.7363321660763
 30
0.0
 10
101.5755397966547
 20
-111.7258246248463
 30
0.0
 10
101.5731282298151
 20
-111.6708753518566
 30
0.0
 10
101.5731282298151
 20
-111.6708753518566
 30
0.0
 10
101.7974039459048
 20
-111.6961968036732
 30
0.0
 10
101.7974039459048
 20
-111.6961968036732
 30
0.0
 10
101.8018825700356
 20
-111.6961968036732
 30
0.0
 10
101.8228976524957
 20
-111.6982638609643
 30
0.0
 10
101.8228976524957
 20
-111.7151448288421
 30
0.0
 10
101.8228976524957
 20
-111.7299587394286
 30
0.0
 10
101.8122178564914
 20
-111.7385714781418
 30
0.0
 10
101.7846570926094
 20
-111.7533853887283
 30
0.0
 10
101.778455920736
 20
-111.8188422029481
 30
0.0
 10
101.7763888634448
 20
-111.8400295401824
 30
0.0
 10
101.7763888634448
 20
-111.8992851825287
 30
0.0
 10
101.7763888634448
 20
-111.8992851825287
 30
0.0
 10
101.8714734988377
 20
-111.8992851825287
 30
0.0
 10
101.8714734988377
 20
-111.8992851825287
 30
0.0
 10
101.9541557904837
 20
-111.8992851825287
 30
0.0
 10
102.1274440933918
 20
-111.8949788131721
 30
0.0
 10
102.2525010595063
 20
-111.8865383292332
 30
0.0
 10
102.2525010595063
 20
-111.8865383292332
 30
0.0
 10
102.2525010595063
 20
-112.0663723135633
 30
0.0
 10
102.2525010595063
 20
-112.0663723135633
 30
0.0
 10
102.2228732383332
 20
-112.0643052562721
 30
0.0
 10
102.1043619536406
 20
-112.0599988869156
 30
0.0
 10
102.0640543364632
 20
-112.0579318296244
 30
0.0
 10
102.0492404258766
 20
-112.1087469880318
 30
0.0
 10
102.0154784901211
 20
-112.2208848460767
 30
0.0
 10
101.9496771663529
 20
-112.3604112132293
 30
0.0
 10
101.9920518408214
 20
-112.3604112132293
 30
0.0
 10
102.2693820273841
 20
-112.3414631880605
 30
0.0
 10
102.3307047270215
 20
-112.3392238759951
 30
0.0
 10
102.3307047270215
 20
-112.3392238759951
 30
0.0
 10
102.3307047270215
 20
-112.5233642296817
 30
0.0
 10
102.3307047270215
 20
-112.5233642296817
 30
0.0
 10
102.3010769058483
 20
-112.5233642296817
 30
0.0
 10
102.2841959379706
 20
-112.5190578603251
 30
0.0
 10
102.1212429215183
 20
-112.5190578603251
 30
0.0
  0
SPLINE
  5
B3
330
AE
100
AcDbEntity
  8
_U+30EC_U+30A4_U+30E4_U+30FC 1
370
     0
100
AcDbSpline
210
0.0
220
0.0
230
1.0
 70
    11
 71
     3
 72
    20
 73
    16
 74
     0
 42
0.0000000001
 43
0.0000000001
 12
1.0
 22
0.0
 32
0.0
 13
1.0
 23
0.0
 33
0.0
 40
0.0
 40
0.0
 40
0.0
 40
0.0
 40
1.0
 40
1.0
 40
1.0
 40
2.0
 40
2.0
 40
2.0
 40
3.0
 40
3.0
 40
3.0
 40
4.0
 40
4.0
 40
4.0
 40
5.0
 40
5.0
 40
5.0
 40
5.0
 10
101.4928575050087
 20
-112.0537977150421
 30
0.0
 10
101.4928575050087
 20
-112.0537977150421
 30
0.0
 10
101.4611626265444
 20
-112.0537977150421
 30
0.0
 10
101.4611626265444
 20
-112.0537977150421
 30
0.0
 10
101.5076714155953
 20
-112.1531887197916
 30
0.0
 10
101.5393662940596
 20
-112.2334594445979
 30
0.0
 10
101.5731282298151
 20
-112.3604112132293
 30
0.0
 10
101.5731282298151
 20
-112.3604112132293
 30
0.0
 10
101.7805229780271
 20
-112.3604112132293
 30
0.0
 10
101.7805229780271
 20
-112.3604112132293
 30
0.0
 10
101.8122178564914
 20
-112.2673936351276
 30
0.0
 10
101.8356445057911
 20
-112.1828165409647
 30
0.0
 10
101.8587266455423
 20
-112.0537977150421
 30
0.0
 10
101.8587266455423
 20
-112.0537977150421
 30
0.0
 10
101.4928575050087
 20
-112.0537977150421
 30
0.0
 10
101.4928575050087
 20
-112.0537977150421
 30
0.0
  0
SPLINE
  5
B4
330
AE
100
AcDbEntity
  8
_U+30EC_U+30A4_U+30E4_U+30FC 1
370
     0
100
AcDbSpline
210
0.0
220
0.0
230
1.0
 70
    11
 71
     3
 72
    17
 73
    13
 74
     0
 42
0.0000000001
 43
0.0000000001
 12
1.0
 22
0.0
 32
0.0
 13
1.0
 23
0.0
 33
0.0
 40
0.0
 40
0.0
 40
0.0
 40
0.0
 40
1.0
 40
1.0
 40
1.0
 40
2.0
 40
2.0
 40
2.0
 40
3.0
 40
3.0
 40
3.0
 40
4.0
 40
4.0
 40
4.0
 40
4.0
 10
101.5562472619373
 20
-112.904219535576
 30
0.0
 10
101.5393662940596
 20
-112.9336751019749
 30
0.0
 10
101.4887233904264
 20
-113.0268649348509
 30
0.0
 10
101.4780435944222
 20
-113.0458129600198
 30
0.0
 10
101.6685573747565
 20
-113.1050686023661
 30
0.0
 10
101.6895724572165
 20
-113.1114420290138
 30
0.0
 10
101.7615749528582
 20
-113.1390027928958
 30
0.0
 10
101.8166964806222
 20
-113.0521863866675
 30
0.0
 10
101.8397786203734
 20
-112.9781168337346
 30
0.0
 10
101.85459253096
 20
-112.904219535576
 30
0.0
 10
101.85459253096
 20
-112.904219535576
 30
0.0
 10
101.5562472619373
 20
-112.904219535576
 30
0.0
 10
101.5562472619373
 20
-112.904219535576
 30
0.0
  0
HATCH
  5
B5
330
AE
100
AcDbEntity
  8
_U+30EC_U+30A4_U+30E4_U+30FC 1
 62
   179
420
  2234388
100
AcDbHatch
 10
0.0
 20
0.0
 30
0.0
210
0.0
220
0.0
230
1.0
  2
SOLID
 70
     1
 71
     0
 91
        3
 92
        1
 93
        1
 72
     4
 94
        3
 73
     0
 74
     1
 95
      242
 96
      238
 40
0.0
 40
0.0
 40
0.0
 40
0.0
 40
1.0
 40
1.0
 40
1.0
 40
2.0
 40
2.0
 40
2.0
 40
3.0
 40
3.0
 40
3.0
 40
4.0
 40
4.0
 40
4.0
 40
5.0
 40
5.0
 40
5.0
 40
6.0
 40
6.0
 40
6.0
 40
7.0
 40
7.0
 40
7.0
 40
8.0
 40
8.0
 40
8.0
 40
9.0
 40
9.0
 40
9.0
 40
10.0
 40
10.0
 40
10.0
 40
11.0
 40
11.0
 40
11.0
 40
12.0
 40
12.0
 40
12.0
 40
13.0
 40
13.0
 40
13.0
 40
14.0
 40
14.0
 40
14.0
 40
15.0
 40
15.0
 40
15.0
 40
16.0
 40
16.0
 40
16.0
 40
17.0
 40
17.0
 40
17.0
 40
18.0
 40
18.0
 40
18.0
 40
19.0
 40
19.0
 40
19.0
 40
20.0
 40
20.0
 40
20.0
 40
21.0
 40
21.0
 40
21.0
 40
22.0
 40
22.0
 40
22.0
 40
23.0
 40
23.0
 40
23.0
 40
24.0
 40
24.0
 40
24.0
 40
25.0
 40
25.0
 40
25.0
 40
26.0
 40
26.0
 40
26.0
 40
27.0
 40
27.0
 40
27.0
 40
28.0
 40
28.0
 40
28.0
 40
29.0
 40
29.0
 40
29.0
 40
30.0
 40
30.0
 40
30.0
 40
31.0
 40
31.0
 40
31.0
 40
32.0
 40
32.0
 40
32.0
 40
33.0
 40
33.0
 40
33.0
 40
34.0
 40
34.0
 40
34.0
 40
35.0
 40
35.0
 40
35.0
 40
36.0
 40
36.0
 40
36.0
 40
37.0
 40
37.0
 40
37.0
 40
38.0
 40
38.0
 40
38.0
 40
39.0
 40
39.0
 40
39.0
 40
40.0
 40
40.0
 40
40.0
 40
41.0
 40
41.0
 40
41.0
 40
42.0
 40
42.0
 40
42.0
 40
43.0
 40
43.0
 40
43.0
 40
44.0
 40
44.0
 40
44.0
 40
45.0
 40
45.0
 40
45.0
 40
46.0
 40
46.0
 40
46.0
 40
47.0
 40
47.0
 40
47.0
 40
48.0
 40
48.0
 40
48.0
 40
49.0
 40
49.0
 40
49.0
 40
50.0
 40
50.0
 40
50.0
 40
51.0
 40
51.0
 40
51.0
 40
52.0
 40
52.0
 40
52.0
 40
53.0
 40
53.0
 40
53.0
 40
54.0
 40
54.0
 40
54.0
 40
55.0
 40
55.0
 40
55.0
 40
56.0
 40
56.0
 40
56.0
 40
57.0
 40
57.0
 40
57.0
 40
58.0
 40
58.0
 40
58.0
 40
59.0
 40
59.0
 40
59.0
 40
60.0
 40
60.0
 40
60.0
 40
61.0
 40
61.0
 40
61.0
 40
62.0
 40
62.0
 40
62.0
 40
63.0
 40
63.0
 40
63.0
 40
64.0
 40
64.0
 40
64.0
 40
65.0
 40
65.0
 40
65.0
 40
66.0
 40
66.0
 40
66.0
 40
67.0
 40
67.0
 40
67.0
 40
68.0
 40
68.0
 40
68.0
 40
69.0
 40
69.0
 40
69.0
 40
70.0
 40
70.0
 40
70.0
 40
71.0
 40
71.0
 40
71.0
 40
72.0
 40
72.0
 40
72.0
 40
73.0
 40
73.0
 40
73.0
 40
74.0
 40
74.0
 40
74.0
 40
75.0
 40
75.0
 40
75.0
 40
76.0
 40
76.0
 40
76.0
 40
77.0
 40
77.0
 40
77.0
 40
78.0
 40
78.0
 40
78.0
 40
79.0
 40
79.0
 40
79.0
 40
79.0
 10
102.1212429215183
 20
-112.5190578603251
 10
102.1212429215183
 20
-112.5190578603251
 10
101.8673393842554
 20
-112.5190578603251
 10
101.8673393842554
 20
-112.5190578603251
 10
101.8673393842554
 20
-112.5190578603251
 10
101.5903537072413
 20
-112.5190578603251
 10
101.5903537072413
 20
-112.5190578603251
 10
101.5903537072413
 20
-112.5190578603251
 10
101.7171332210985
 20
-112.5614325347937
 10
101.7171332210985
 20
-112.5614325347937
 10
101.7278130171028
 20
-112.5657389041502
 10
101.7405598703982
 20
-112.5719400760237
 10
101.7405598703982
 20
-112.5846869293191
 10
101.7405598703982
 20
-112.6058742665534
 10
101.7085204823854
 20
-112.6122476932011
 10
101.6875053999254
 20
-112.6163818077834
 10
101.6768256039211
 20
-112.6396362023088
 10
101.6471977827479
 20
-112.7052652713028
 10
101.6282497575791
 20
-112.7497070030626
 10
101.6282497575791
 20
-112.7497070030626
 10
101.8990342627197
 20
-112.7497070030626
 10
101.8990342627197
 20
-112.7497070030626
 10
101.9899847835303
 20
-112.7497070030626
 10
102.186699735738
 20
-112.745400633706
 10
102.3286376697303
 20
-112.7369601497672
 10
102.3286376697303
 20
-112.7369601497672
 10
102.3286376697303
 20
-112.914727076806
 10
102.3286376697303
 20
-112.914727076806
 10
102.2459553780843
 20
-112.9104207074495
 10
102.2249402956243
 20
-112.9104207074495
 10
102.0451063112943
 20
-112.9062865928672
 10
102.01341143283
 20
-113.0606268706064
 10
101.9689697010703
 20
-113.141069850187
 10
101.9245279693105
 20
-113.2108330337633
 10
102.0451063112943
 20
-113.2700886761096
 10
102.1508707426915
 20
-113.3377848023947
 10
102.2545681167975
 20
-113.4202948392665
 10
102.2545681167975
 20
-113.4202948392665
 10
102.1360568321049
 20
-113.5873819703011
 10
102.1360568321049
 20
-113.5873819703011
 10
102.1126301828052
 20
-113.5684339451322
 10
102.0998833295098
 20
-113.5599934611933
 10
101.9879177262391
 20
-113.4752441122562
 10
101.9393418798971
 20
-113.4371758071442
 10
101.8800862375508
 20
-113.4013468140976
 10
101.799471003196
 20
-113.3569050823379
 10
101.5879421404016
 20
-113.5431124933156
 10
101.3829589590293
 20
-113.5663668878411
 10
101.0928819191712
 20
-113.5959947090142
 10
101.0928819191712
 20
-113.5959947090142
 10
100.9895290546137
 20
-113.4161607246842
 10
100.9895290546137
 20
-113.4161607246842
 10
101.3068223488052
 20
-113.4118543553276
 10
101.4821777090045
 20
-113.386532903511
 10
101.6344509294525
 20
-113.2764621027573
 10
101.5162841543084
 20
-113.2256469443498
 10
101.427400690789
 20
-113.1982584352421
 10
101.3912271881939
 20
-113.1855115819467
 10
101.372279163025
 20
-113.2130723458287
 10
101.3574652524384
 20
-113.2320203709976
 10
101.3299044885564
 20
-113.2659545615273
 10
101.3299044885564
 20
-113.2659545615273
 10
101.1331895363487
 20
-113.1834445246555
 10
101.1331895363487
 20
-113.1834445246555
 10
101.2158718279946
 20
-113.1030015450749
 10
101.2771945276321
 20
-113.0077446549078
 10
101.3340386031387
 20
-112.9062865928672
 10
101.1438693323529
 20
-112.9104207074495
 10
101.1225097403444
 20
-112.9104207074495
 10
101.0401719582469
 20
-112.914727076806
 10
101.0401719582469
 20
-112.914727076806
 10
101.0401719582469
 20
-112.7369601497672
 10
101.0401719582469
 20
-112.7369601497672
 10
101.1796983253995
 20
-112.7433335764149
 10
101.3891601309027
 20
-112.7476399457714
 10
101.4146538374936
 20
-112.7476399457714
 10
101.4315348053713
 20
-112.7137057552417
 10
101.4866563331353
 20
-112.593127413258
 10
101.5056043583042
 20
-112.5190578603251
 10
101.4866563331353
 20
-112.5190578603251
 10
101.3088894060964
 20
-112.5254312869728
 10
101.1142415111798
 20
-112.5381781402682
 10
101.1142415111798
 20
-112.5381781402682
 10
101.1142415111798
 20
-112.6715033355474
 10
101.1142415111798
 20
-112.6715033355474
 10
101.0656656648378
 20
-112.696824787364
 10
101.0064100224915
 20
-112.7285196658283
 10
100.8730848272123
 20
-112.7941487348223
 10
100.8730848272123
 20
-112.7941487348223
 10
100.8730848272123
 20
-112.9400485286226
 10
100.8730848272123
 20
-112.9400485286226
 10
100.8730848272123
 20
-112.9400485286226
 10
100.8730848272123
 20
-113.4077202407453
 10
100.8730848272123
 20
-113.4077202407453
 10
100.8730848272123
 20
-113.5344997546025
 10
100.8369113246172
 20
-113.5937553969488
 10
100.5537244757296
 20
-113.5853149130099
 10
100.5537244757296
 20
-113.5853149130099
 10
100.4500271016236
 20
-113.3780924195722
 10
100.4500271016236
 20
-113.3780924195722
 10
100.5134168585522
 20
-113.3906670180933
 10
100.5619927048942
 20
-113.3949733874499
 10
100.6023003220717
 20
-113.3949733874499
 10
100.6784369322957
 20
-113.3949733874499
 10
100.6891167283
 20
-113.3717189929244
 10
100.6891167283
 20
-113.3060899239304
 10
100.6891167283
 20
-113.3060899239304
 10
100.6891167283
 20
-112.876658771694
 10
100.6891167283
 20
-112.876658771694
 10
100.5916205260674
 20
-112.9167941340972
 10
100.5747395581896
 20
-112.9231675607449
 10
100.5282307691388
 20
-112.942287840688
 10
100.5240966545565
 20
-112.9633029231481
 10
100.5196180304257
 20
-112.9929307443212
 10
100.5006700052568
 20
-112.9929307443212
 10
100.4924017760922
 20
-112.9929307443212
 10
100.4817219800879
 20
-112.9887966297389
 10
100.4751762986659
 20
-112.9655422352135
 10
100.4751762986659
 20
-112.9655422352135
 10
100.4224663377416
 20
-112.772961397588
 10
100.4224663377416
 20
-112.772961397588
 10
100.5685383863162
 20
-112.7264526085371
 10
100.6339952005359
 20
-112.7031982140117
 10
100.6891167283
 20
-112.6820108767774
 10
100.6891167283
 20
-112.6820108767774
 10
100.6891167283
 20
-112.2694606924187
 10
100.6891167283
 20
-112.2694606924187
 10
100.6891167283
 20
-112.2694606924187
 10
100.6360622578271
 20
-112.2694606924187
 10
100.6360622578271
 20
-112.2694606924187
 10
100.6360622578271
 20
-112.2694606924187
 10
100.5578585903119
 20
-112.2694606924187
 10
100.5578585903119
 20
-112.2694606924187
 10
100.4899902092525
 20
-112.2694606924187
 10
100.4817219800879
 20
-112.2694606924187
 10
100.4455484774928
 20
-112.2758341190665
 10
100.4455484774928
 20
-112.2758341190665
 10
100.4455484774928
 20
-112.0811862241498
 10
100.4455484774928
 20
-112.0811862241498
 10
100.4731092413748
 20
-112.0875596507976
 10
100.4817219800879
 20
-112.0875596507976
 10
100.55131290889
 20
-112.0875596507976
 10
100.55131290889
 20
-112.0875596507976
 10
100.6846381041691
 20
-112.0875596507976
 10
100.6846381041691
 20
-112.0875596507976
 10
100.6846381041691
 20
-112.0177964672212
 10
100.6846381041691
 20
-111.9352864303495
 10
100.682571046878
 20
-111.930980060993
 10
100.6743028177134
 20
-111.7511460766629
 10
100.6743028177134
 20
-111.732198051494
 10
100.6718912508737
 20
-111.6856892624432
 10
100.6718912508737
 20
-111.6856892624432
 10
100.8878987377989
 20
-111.694129746382
 10
100.8878987377989
 20
-111.694129746382
 10
100.8985785338031
 20
-111.694129746382
 10
100.9195936162632
 20
-111.6961968036732
 10
100.9195936162632
 20
-111.7130777715509
 10
100.9195936162632
 20
-111.732198051494
 10
100.9047797056766
 20
-111.7427055927241
 10
100.8792859990857
 20
-111.7618258726672
 10
100.8792859990857
 20
-111.8124687763004
 10
100.8730848272123
 20
-112.0410508617467
 10
100.8751518845034
 20
-112.0875596507976
 10
101.0043429652003
 20
-112.0875596507976
 10
101.0167453089472
 20
-112.0875596507976
 10
101.1142415111798
 20
-112.0791191668587
 10
101.1142415111798
 20
-112.0791191668587
 10
101.1142415111798
 20
-112.2737670617753
 10
101.1142415111798
 20
-112.2737670617753
 10
101.0760009512935
 20
-112.2715277497099
 10
101.0084770797826
 20
-112.2673936351276
 10
100.8730848272123
 20
-112.2694606924187
 10
100.8730848272123
 20
-112.2694606924187
 10
100.8730848272123
 20
-112.6079413238445
 10
100.8730848272123
 20
-112.6079413238445
 10
100.9282063549763
 20
-112.5846869293191
 10
100.993663169196
 20
-112.5571261654371
 10
101.0422390155381
 20
-112.5338717709117
 10
101.0422390155381
 20
-112.5338717709117
 10
101.0422390155381
 20
-112.356277098647
 10
101.0422390155381
 20
-112.356277098647
 10
101.1566161856483
 20
-112.3688516971682
 10
101.2751274703409
 20
-112.3688516971682
 10
101.3912271881939
 20
-112.3688516971682
 10
101.3681450484427
 20
-112.2737670617753
 10
101.3405842845607
 20
-112.1912570249036
 10
101.2771945276321
 20
-112.0579318296244
 10
101.2327527958724
 20
-112.0599988869156
 10
101.1500705042264
 20
-112.0643052562721
 10
101.1121744538886
 20
-112.0663723135633
 10
101.1121744538886
 20
-112.0663723135633
 10
101.1121744538886
 20
-111.8865383292332
 10
101.1121744538886
 20
-111.8865383292332
 10
101.2368869104547
 20
-111.8949788131721
 10
101.4105197229113
 20
-111.8992851825287
 10
101.4928575050087
 20
-111.8992851825287
 10
101.4928575050087
 20
-111.8992851825287
 10
101.5755397966547
 20
-111.8992851825287
 10
101.5755397966547
 20
-111.8992851825287
 10
101.5755397966547
 20
-111.7363321660763
 10
101.5755397966547
 20
-111.7258246248463
 10
101.5731282298151
 20
-111.6708753518566
 10
101.5731282298151
 20
-111.6708753518566
 10
101.7974039459048
 20
-111.6961968036732
 10
101.7974039459048
 20
-111.6961968036732
 10
101.8018825700356
 20
-111.6961968036732
 10
101.8228976524957
 20
-111.6982638609643
 10
101.8228976524957
 20
-111.7151448288421
 10
101.8228976524957
 20
-111.7299587394286
 10
101.8122178564914
 20
-111.7385714781418
 10
101.7846570926094
 20
-111.7533853887283
 10
101.778455920736
 20
-111.8188422029481
 10
101.7763888634448
 20
-111.8400295401824
 10
101.7763888634448
 20
-111.8992851825287
 10
101.7763888634448
 20
-111.8992851825287
 10
101.8714734988377
 20
-111.8992851825287
 10
101.8714734988377
 20
-111.8992851825287
 10
101.9541557904837
 20
-111.8992851825287
 10
102.1274440933918
 20
-111.8949788131721
 10
102.2525010595063
 20
-111.8865383292332
 10
102.2525010595063
 20
-111.8865383292332
 10
102.2525010595063
 20
-112.0663723135633
 10
102.2525010595063
 20
-112.0663723135633
 10
102.2228732383332
 20
-112.0643052562721
 10
102.1043619536406
 20
-112.0599988869156
 10
102.0640543364632
 20
-112.0579318296244
 10
102.0492404258766
 20
-112.1087469880318
 10
102.0154784901211
 20
-112.2208848460767
 10
101.9496771663529
 20
-112.3604112132293
 10
101.9920518408214
 20
-112.3604112132293
 10
102.2693820273841
 20
-112.3414631880605
 10
102.3307047270215
 20
-112.3392238759951
 10
102.3307047270215
 20
-112.3392238759951
 10
102.3307047270215
 20
-112.5233642296817
 10
102.3307047270215
 20
-112.5233642296817
 10
102.3010769058483
 20
-112.5233642296817
 10
102.2841959379706
 20
-112.5190578603251
 10
102.1212429215183
 20
-112.5190578603251
 97
        0
 97
        0
 92
        1
 93
        1
 72
     4
 94
        3
 73
     0
 74
     1
 95
       20
 96
       16
 40
0.0
 40
0.0
 40
0.0
 40
0.0
 40
1.0
 40
1.0
 40
1.0
 40
2.0
 40
2.0
 40
2.0
 40
3.0
 40
3.0
 40
3.0
 40
4.0
 40
4.0
 40
4.0
 40
5.0
 40
5.0
 40
5.0
 40
5.0
 10
101.4928575050087
 20
-112.0537977150421
 10
101.4928575050087
 20
-112.0537977150421
 10
101.4611626265444
 20
-112.0537977150421
 10
101.4611626265444
 20
-112.0537977150421
 10
101.5076714155953
 20
-112.1531887197916
 10
101.5393662940596
 20
-112.2334594445979
 10
101.5731282298151
 20
-112.3604112132293
 10
101.5731282298151
 20
-112.3604112132293
 10
101.7805229780271
 20
-112.3604112132293
 10
101.7805229780271
 20
-112.3604112132293
 10
101.8122178564914
 20
-112.2673936351276
 10
101.8356445057911
 20
-112.1828165409647
 10
101.8587266455423
 20
-112.0537977150421
 10
101.8587266455423
 20
-112.0537977150421
 10
101.4928575050087
 20
-112.0537977150421
 10
101.4928575050087
 20
-112.0537977150421
 97
        0
 97
        0
 92
        1
 93
        1
 72
     4
 94
        3
 73
     0
 74
     1
 95
       17
 96
       13
 40
0.0
 40
0.0
 40
0.0
 40
0.0
 40
1.0
 40
1.0
 40
1.0
 40
2.0
 40
2.0
 40
2.0
 40
3.0
 40
3.0
 40
3.0
 40
4.0
 40
4.0
 40
4.0
 40
4.0
 10
101.5562472619373
 20
-112.904219535576
 10
101.5393662940596
 20
-112.9336751019749
 10
101.4887233904264
 20
-113.0268649348509
 10
101.4780435944222
 20
-113.0458129600198
 10
101.6685573747565
 20
-113.1050686023661
 10
101.6895724572165
 20
-113.1114420290138
 10
101.7615749528582
 20
-113.1390027928958
 10
101.8166964806222
 20
-113.0521863866675
 10
101.8397786203734
 20
-112.9781168337346
 10
101.85459253096
 20
-112.904219535576
 10
101.85459253096
 20
-112.904219535576
 10
101.5562472619373
 20
-112.904219535576
 10
101.5562472619373
 20
-112.904219535576
 97
        0
 97
        0
 75
     2
 76
     1
 98
        0
  0
SPLINE
  5
B6
330
AE
100
AcDbEntity
  8
_U+30EC_U+30A4_U+30E4_U+30FC 1
370
     0
100
AcDbSpline
210
0.0
220
0.0
230
1.0
 70
    11
 71
     3
 72
   203
 73
   199
 74
     0
 42
0.0000000001
 43
0.0000000001
 12
1.0
 22
0.0
 32
0.0
 13
1.0
 23
0.0
 33
0.0
 40
0.0
 40
0.0
 40
0.0
 40
0.0
 40
1.0
 40
1.0
 40
1.0
 40
2.0
 40
2.0
 40
2.0
 40
3.0
 40
3.0
 40
3.0
 40
4.0
 40
4.0
 40
4.0
 40
5.0
 40
5.0
 40
5.0
 40
6.0
 40
6.0
 40
6.0
 40
7.0
 40
7.0
 40
7.0
 40
8.0
 40
8.0
 40
8.0
 40
9.0
 40
9.0
 40
9.0
 40
10.0
 40
10.0
 40
10.0
 40
11.0
 40
11.0
 40
11.0
 40
12.0
 40
12.0
 40
12.0
 40
13.0
 40
13.0
 40
13.0
 40
14.0
 40
14.0
 40
14.0
 40
15.0
 40
15.0
 40
15.0
 40
16.0
 40
16.0
 40
16.0
 40
17.0
 40
17.0
 40
17.0
 40
18.0
 40
18.0
 40
18.0
 40
19.0
 40
19.0
 40
19.0
 40
20.0
 40
20.0
 40
20.0
 40
21.0
 40
21.0
 40
21.0
 40
22.0
 40
22.0
 40
22.0
 40
23.0
 40
23.0
 40
23.0
 40
24.0
 40
24.0
 40
24.0
 40
25.0
 40
25.0
 40
25.0
 40
26.0
 40
26.0
 40
26.0
 40
27.0
 40
27.0
 40
27.0
 40
28.0
 40
28.0
 40
28.0
 40
29.0
 40
29.0
 40
29.0
 40
30.0
 40
30.0
 40
30.0
 40
31.0
 40
31.0
 40
31.0
 40
32.0
 40
32.0
 40
32.0
 40
33.0
 40
33.0
 40
33.0
 40
34.0
 40
34.0
 40
34.0
 40
35.0
 40
35.0
 40
35.0
 40
36.0
 40
36.0
 40
36.0
 40
37.0
 40
37.0
 40
37.0
 40
38.0
 40
38.0
 40
38.0
 40
39.0
 40
39.0
 40
39.0
 40
40.0
 40
40.0
 40
40.0
 40
41.0
 40
41.0
 40
41.0
 40
42.0
 40
42.0
 40
42.0
 40
43.0
 40
43.0
 40
43.0
 40
44.0
 40
44.0
 40
44.0
 40
45.0
 40
45.0
 40
45.0
 40
46.0
 40
46.0
 40
46.0
 40
47.0
 40
47.0
 40
47.0
 40
48.0
 40
48.0
 40
48.0
 40
49.0
 40
49.0
 40
49.0
 40
50.0
 40
50.0
 40
50.0
 40
51.0
 40
51.0
 40
51.0
 40
52.0
 40
52.0
 40
52.0
 40
53.0
 40
53.0
 40
53.0
 40
54.0
 40
54.0
 40
54.0
 40
55.0
 40
55.0
 40
55.0
 40
56.0
 40
56.0
 40
56.0
 40
57.0
 40
57.0
 40
57.0
 40
58.0
 40
58.0
 40
58.0
 40
59.0
 40
59.0
 40
59.0
 40
60.0
 40
60.0
 40
60.0
 40
61.0
 40
61.0
 40
61.0
 40
62.0
 40
62.0
 40
62.0
 40
63.0
 40
63.0
 40
63.0
 40
64.0
 40
64.0
 40
64.0
 40
65.0
 40
65.0
 40
65.0
 40
66.0
 40
66.0
 40
66.0
 40
66.0
 10
103.812784804776
 20
-112.5867539866103
 30
0.0
 10
103.812784804776
 20
-112.5867539866103
 30
0.0
 10
103.2539903170685
 20
-112.5867539866103
 30
0.0
 10
103.2539903170685
 20
-112.5867539866103
 30
0.0
 10
103.2436550306127
 20
-112.63119571837
 30
0.0
 10
103.2350422918996
 20
-112.6628905968343
 30
0.0
 10
103.2222954386041
 20
-112.7011311567205
 30
0.0
 10
103.247789145195
 20
-112.7011311567205
 30
0.0
 10
103.2626030557816
 20
-112.7031982140117
 30
0.0
 10
103.268804227655
 20
-112.7031982140117
 30
0.0
 10
103.268804227655
 20
-112.7031982140117
 30
0.0
 10
103.4572509506982
 20
-112.7031982140117
 30
0.0
 10
103.4572509506982
 20
-112.7031982140117
 30
0.0
 10
103.4572509506982
 20
-112.7031982140117
 30
0.0
 10
103.8317328299449
 20
-112.7031982140117
 30
0.0
 10
103.8317328299449
 20
-112.7031982140117
 30
0.0
 10
103.882375733578
 20
-112.7031982140117
 30
0.0
 10
104.1659070920141
 20
-112.6904513607163
 30
0.0
 10
104.1976019704784
 20
-112.6904513607163
 30
0.0
 10
104.1955349131872
 20
-112.7180121245983
 30
0.0
 10
104.1934678558961
 20
-112.7369601497672
 30
0.0
 10
104.1934678558961
 20
-112.7665879709403
 30
0.0
 10
104.1914007986049
 20
-112.7982828494046
 30
0.0
 10
104.1914007986049
 20
-112.9336751019749
 30
0.0
 10
104.1914007986049
 20
-112.9612358658569
 30
0.0
 10
104.1914007986049
 20
-112.9612358658569
 30
0.0
 10
104.1914007986049
 20
-113.206698919181
 30
0.0
 10
104.1914007986049
 20
-113.206698919181
 30
0.0
 10
104.1914007986049
 20
-113.2511406509407
 30
0.0
 10
104.1955349131872
 20
-113.4478556031485
 30
0.0
 10
104.1996690277695
 20
-113.6001288235965
 30
0.0
 10
104.1996690277695
 20
-113.6001288235965
 30
0.0
 10
103.9733262543886
 20
-113.6001288235965
 30
0.0
 10
103.9733262543886
 20
-113.6001288235965
 30
0.0
 10
103.9733262543886
 20
-113.6001288235965
 30
0.0
 10
103.9753933116798
 20
-113.5663668878411
 30
0.0
 10
103.9753933116798
 20
-113.5663668878411
 30
0.0
 10
103.9753933116798
 20
-113.5663668878411
 30
0.0
 10
103.2732828517859
 20
-113.5663668878411
 30
0.0
 10
103.2732828517859
 20
-113.5663668878411
 30
0.0
 10
103.2732828517859
 20
-113.5663668878411
 30
0.0
 10
103.275349909077
 20
-113.6001288235965
 30
0.0
 10
103.275349909077
 20
-113.6001288235965
 30
0.0
 10
103.275349909077
 20
-113.6001288235965
 30
0.0
 10
103.0572753648607
 20
-113.6001288235965
 30
0.0
 10
103.0572753648607
 20
-113.6001288235965
 30
0.0
 10
103.0617539889915
 20
-113.5451795506068
 30
0.0
 10
103.0617539889915
 20
-113.5324326973113
 30
0.0
 10
103.067955160865
 20
-113.4182277819753
 30
0.0
 10
103.0700222181561
 20
-113.3906670180933
 30
0.0
 10
103.0720892754473
 20
-113.2575140775884
 30
0.0
 10
103.0720892754473
 20
-113.2383937976453
 30
0.0
 10
103.0720892754473
 20
-113.2383937976453
 30
0.0
 10
103.0720892754473
 20
-113.0353054187898
 30
0.0
 10
103.0720892754473
 20
-113.0353054187898
 30
0.0
 10
102.9325629082946
 20
-113.2849025866961
 30
0.0
 10
102.7634087199689
 20
-113.4161607246842
 30
0.0
 10
102.6576442885717
 20
-113.4816175389039
 30
0.0
 10
102.6576442885717
 20
-113.4816175389039
 30
0.0
 10
102.4840114761151
 20
-113.3420911717513
 30
0.0
 10
102.4840114761151
 20
-113.3420911717513
 30
0.0
 10
102.5728949396346
 20
-113.2912760133438
 30
0.0
 10
102.716899930918
 20
-113.2044596071156
 30
0.0
 10
102.8543592407795
 20
-113.0099839669732
 30
0.0
 10
102.9453097615901
 20
-112.8830321983418
 30
0.0
 10
103.0107665758098
 20
-112.7391994618326
 30
0.0
 10
103.0448730211138
 20
-112.5867539866103
 30
0.0
 10
102.8161186808932
 20
-112.5889932986757
 30
0.0
 10
102.6362846965632
 20
-112.5953667253234
 30
0.0
 10
102.5412000611703
 20
-112.5974337826145
 30
0.0
 10
102.5412000611703
 20
-112.5974337826145
 30
0.0
 10
102.5412000611703
 20
-112.4196668555756
 30
0.0
 10
102.5412000611703
 20
-112.4196668555756
 30
0.0
 10
102.737915013378
 20
-112.4260402822234
 30
0.0
 10
103.0214463718141
 20
-112.4303466515799
 30
0.0
 10
103.171652534971
 20
-112.4303466515799
 30
0.0
 10
103.171652534971
 20
-112.4303466515799
 30
0.0
 10
103.3852484550565
 20
-112.4303466515799
 30
0.0
 10
103.3852484550565
 20
-112.4303466515799
 30
0.0
 10
103.3852484550565
 20
-112.4303466515799
 30
0.0
 10
103.3852484550565
 20
-112.3223429081173
 30
0.0
 10
103.3852484550565
 20
-112.3223429081173
 30
0.0
 10
103.3852484550565
 20
-112.3223429081173
 30
0.0
 10
103.2391764064819
 20
-112.3223429081173
 30
0.0
 10
103.2391764064819
 20
-112.3223429081173
 30
0.0
 10
103.0700222181561
 20
-112.3223429081173
 30
0.0
 10
102.9008680298303
 20
-112.3266492774739
 30
0.0
 10
102.7337808987957
 20
-112.3330227041216
 30
0.0
 10
102.7337808987957
 20
-112.3330227041216
 30
0.0
 10
102.7337808987957
 20
-112.1616292037304
 30
0.0
 10
102.7337808987957
 20
-112.1616292037304
 30
0.0
 10
102.8881211765349
 20
-112.1721367449604
 30
0.0
 10
103.0741563327384
 20
-112.1721367449604
 30
0.0
 10
103.2391764064819
 20
-112.1721367449604
 30
0.0
 10
103.2391764064819
 20
-112.1721367449604
 30
0.0
 10
103.3852484550565
 20
-112.1721367449604
 30
0.0
 10
103.3852484550565
 20
-112.1721367449604
 30
0.0
 10
103.3852484550565
 20
-112.1721367449604
 30
0.0
 10
103.3852484550565
 20
-112.0537977150421
 30
0.0
 10
103.3852484550565
 20
-112.0537977150421
 30
0.0
 10
103.3852484550565
 20
-112.0537977150421
 30
0.0
 10
103.2539903170685
 20
-112.0537977150421
 30
0.0
 10
103.2539903170685
 20
-112.0537977150421
 30
0.0
 10
103.2074815280176
 20
-112.0537977150421
 30
0.0
 10
103.0045654039364
 20
-112.062238198981
 30
0.0
 10
102.9621907294678
 20
-112.062238198981
 30
0.0
 10
102.7592746053866
 20
-112.0663723135633
 30
0.0
 10
102.682793485614
 20
-112.0684393708544
 30
0.0
 10
102.6045898180989
 20
-112.0706786829198
 30
0.0
 10
102.6045898180989
 20
-112.0706786829198
 30
0.0
 10
102.6045898180989
 20
-111.8865383292332
 30
0.0
 10
102.6045898180989
 20
-111.8865383292332
 30
0.0
 10
102.7189669882091
 20
-111.8949788131721
 30
0.0
 10
102.7634087199689
 20
-111.8949788131721
 30
0.0
 10
103.1461588283801
 20
-111.9035915518852
 30
0.0
 10
103.0827690714515
 20
-111.8083346617181
 30
0.0
 10
103.0552083075695
 20
-111.7807738978361
 30
0.0
 10
103.0193793145229
 20
-111.7447726500152
 30
0.0
 10
103.0193793145229
 20
-111.7447726500152
 30
0.0
 10
103.1947346747222
 20
-111.6622626131435
 30
0.0
 10
103.1947346747222
 20
-111.6622626131435
 30
0.0
 10
103.2350422918996
 20
-111.6982638609643
 30
0.0
 10
103.2794840236593
 20
-111.7406385354329
 30
0.0
 10
103.3535535765922
 20
-111.8505370814124
 30
0.0
 10
103.3535535765922
 20
-111.8505370814124
 30
0.0
 10
103.2391764064819
 20
-111.9056586091764
 30
0.0
 10
103.2391764064819
 20
-111.9056586091764
 30
0.0
 10
103.2391764064819
 20
-111.9056586091764
 30
0.0
 10
103.2498562024862
 20
-111.9056586091764
 30
0.0
 10
103.2498562024862
 20
-111.9056586091764
 30
0.0
 10
103.2498562024862
 20
-111.9056586091764
 30
0.0
 10
103.7724771875986
 20
-111.9056586091764
 30
0.0
 10
103.7724771875986
 20
-111.9056586091764
 30
0.0
 10
103.7724771875986
 20
-111.9056586091764
 30
0.0
 10
103.6773925522057
 20
-111.8612168774167
 30
0.0
 10
103.6773925522057
 20
-111.8612168774167
 30
0.0
 10
103.7046088065391
 20
-111.8231485723046
 30
0.0
 10
103.7617973915943
 20
-111.7427055927241
 30
0.0
 10
103.7766113021809
 20
-111.6686360397912
 30
0.0
 10
103.7766113021809
 20
-111.6686360397912
 30
0.0
 10
103.9902072222663
 20
-111.732198051494
 30
0.0
 10
103.9902072222663
 20
-111.732198051494
 30
0.0
 10
103.9988199609795
 20
-111.7342651087852
 30
0.0
 10
104.0198350434395
 20
-111.7447726500152
 30
0.0
 10
104.0198350434395
 20
-111.7659599872495
 30
0.0
 10
104.0198350434395
 20
-111.8040282923615
 30
0.0
 10
103.9543782292197
 20
-111.8040282923615
 30
0.0
 10
103.9354302040509
 20
-111.8040282923615
 30
0.0
 10
103.9247504080466
 20
-111.8231485723046
 30
0.0
 10
103.9013237587469
 20
-111.8632839347078
 30
0.0
 10
103.8716959375737
 20
-111.9035915518852
 30
0.0
 10
104.2716715234113
 20
-111.8972181252375
 30
0.0
 10
104.3012993445844
 20
-111.8949788131721
 30
0.0
 10
104.3774359548084
 20
-111.8887776412986
 30
0.0
 10
104.3774359548084
 20
-111.8887776412986
 30
0.0
 10
104.3774359548084
 20
-112.0706786829198
 30
0.0
 10
104.3774359548084
 20
-112.0706786829198
 30
0.0
 10
104.3584879296396
 20
-112.0706786829198
 30
0.0
 10
104.3329942230487
 20
-112.0684393708544
 30
0.0
 10
104.1131971310898
 20
-112.0599988869156
 30
0.0
 10
104.0622097179081
 20
-112.0579318296244
 30
0.0
 10
103.8424126259491
 20
-112.0537977150421
 30
0.0
 10
103.7979708941894
 20
-112.0537977150421
 30
0.0
 10
103.7979708941894
 20
-112.0537977150421
 30
0.0
 10
103.5819634072642
 20
-112.0537977150421
 30
0.0
 10
103.5819634072642
 20
-112.0537977150421
 30
0.0
 10
103.5819634072642
 20
-112.0537977150421
 30
0.0
 10
103.5819634072642
 20
-112.1721367449604
 30
0.0
 10
103.5819634072642
 20
-112.1721367449604
 30
0.0
 10
103.5819634072642
 20
-112.1721367449604
 30
0.0
 10
103.7555962197208
 20
-112.1721367449604
 30
0.0
 10
103.7555962197208
 20
-112.1721367449604
 30
0.0
 10
103.9185492361731
 20
-112.1721367449604
 30
0.0
 10
104.1087185069589
 20
-112.1721367449604
 30
0.0
 10
104.2654703515378
 20
-112.1616292037304
 30
0.0
 10
104.2654703515378
 20
-112.1616292037304
 30
0.0
 10
104.2654703515378
 20
-112.3330227041216
 30
0.0
 10
104.2654703515378
 20
-112.3330227041216
 30
0.0
 10
104.0560085460346
 20
-112.3245822201827
 30
0.0
 10
103.8592935938268
 20
-112.3223429081173
 30
0.0
 10
103.7555962197208
 20
-112.3223429081173
 30
0.0
 10
103.7555962197208
 20
-112.3223429081173
 30
0.0
 10
103.5819634072642
 20
-112.3223429081173
 30
0.0
 10
103.5819634072642
 20
-112.3223429081173
 30
0.0
 10
103.5819634072642
 20
-112.3223429081173
 30
0.0
 10
103.5819634072642
 20
-112.4303466515799
 30
0.0
 10
103.5819634072642
 20
-112.4303466515799
 30
0.0
 10
103.5819634072642
 20
-112.4303466515799
 30
0.0
 10
103.812784804776
 20
-112.4303466515799
 30
0.0
 10
103.812784804776
 20
-112.4303466515799
 30
0.0
 10
103.9457654905066
 20
-112.4303466515799
 30
0.0
 10
104.2337754730735
 20
-112.4260402822234
 30
0.0
 10
104.4428927690282
 20
-112.4196668555756
 30
0.0
 10
104.4428927690282
 20
-112.4196668555756
 30
0.0
 10
104.4428927690282
 20
-112.5974337826145
 30
0.0
 10
104.4428927690282
 20
-112.5974337826145
 30
0.0
 10
104.2506564409512
 20
-112.5910603559668
 30
0.0
 10
103.937497261342
 20
-112.5867539866103
 30
0.0
 10
103.812784804776
 20
-112.5867539866103
 30
0.0
  0
POLYLINE
  5
B7
330
AE
100
AcDbEntity
  8
_U+30EC_U+30A4_U+30E4_U+30FC 1
370
     0
100
AcDb2dPolyline
 66
     1
 10
0.0
 20
0.0
 30
0.0
  0
VERTEX
  5
B8
330
B7
100
AcDbEntity
  8
_U+30EC_U+30A4_U+30E4_U+30FC 1
370
     0
100
AcDbVertex
100
AcDb2dVertex
 10
103.9778048785194
 20
-112.8427245811643
 30
0.0
  0
VERTEX
  5
B9
330
B7
100
AcDbEntity
  8
_U+30EC_U+30A4_U+30E4_U+30FC 1
370
     0
100
AcDbVertex
100
AcDb2dVertex
 10
103.2712157944947
 20
-112.8427245811643
 30
0.0
  0
VERTEX
  5
BA
330
B7
100
AcDbEntity
  8
_U+30EC_U+30A4_U+30E4_U+30FC 1
370
     0
100
AcDbVertex
100
AcDb2dVertex
 10
103.2712157944947
 20
-112.9507283246269
 30
0.0
  0
VERTEX
  5
BB
330
B7
100
AcDbEntity
  8
_U+30EC_U+30A4_U+30E4_U+30FC 1
370
     0
100
AcDbVertex
100
AcDb2dVertex
 10
103.9778048785194
 20
-112.9507283246269
 30
0.0
  0
VERTEX
  5
BC
330
B7
100
AcDbEntity
  8
_U+30EC_U+30A4_U+30E4_U+30FC 1
370
     0
100
AcDbVertex
100
AcDb2dVertex
 10
103.9778048785194
 20
-112.8427245811643
 30
0.0
  0
SEQEND
  5
BD
330
B7
100
AcDbEntity
  8
_U+30EC_U+30A4_U+30E4_U+30FC 1
370
     0
  0
POLYLINE
  5
BE
330
AE
100
AcDbEntity
  8
_U+30EC_U+30A4_U+30E4_U+30FC 1
370
     0
100
AcDb2dPolyline
 66
     1
 10
0.0
 20
0.0
 30
0.0
  0
VERTEX
  5
BF
330
BE
100
AcDbEntity
  8
_U+30EC_U+30A4_U+30E4_U+30FC 1
370
     0
100
AcDbVertex
100
AcDb2dVertex
 10
103.9778048785194
 20
-113.075440781193
 30
0.0
  0
VERTEX
  5
C0
330
BE
100
AcDbEntity
  8
_U+30EC_U+30A4_U+30E4_U+30FC 1
370
     0
100
AcDbVertex
100
AcDb2dVertex
 10
103.2712157944947
 20
-113.075440781193
 30
0.0
  0
VERTEX
  5
C1
330
BE
100
AcDbEntity
  8
_U+30EC_U+30A4_U+30E4_U+30FC 1
370
     0
100
AcDbVertex
100
AcDb2dVertex
 10
103.2712157944947
 20
-113.1898179513032
 30
0.0
  0
VERTEX
  5
C2
330
BE
100
AcDbEntity
  8
_U+30EC_U+30A4_U+30E4_U+30FC 1
370
     0
100
AcDbVertex
100
AcDb2dVertex
 10
103.9778048785194
 20
-113.1898179513032
 30
0.0
  0
VERTEX
  5
C3
330
BE
100
AcDbEntity
  8
_U+30EC_U+30A4_U+30E4_U+30FC 1
370
     0
100
AcDbVertex
100
AcDb2dVertex
 10
103.9778048785194
 20
-113.075440781193
 30
0.0
  0
SEQEND
  5
C4
330
BE
100
AcDbEntity
  8
_U+30EC_U+30A4_U+30E4_U+30FC 1
370
     0
  0
POLYLINE
  5
C5
330
AE
100
AcDbEntity
  8
_U+30EC_U+30A4_U+30E4_U+30FC 1
370
     0
100
AcDb2dPolyline
 66
     1
 10
0.0
 20
0.0
 30
0.0
  0
VERTEX
  5
C6
330
C5
100
AcDbEntity
  8
_U+30EC_U+30A4_U+30E4_U+30FC 1
370
     0
100
AcDbVertex
100
AcDb2dVertex
 10
103.9778048785194
 20
-113.3188367772259
 30
0.0
  0
VERTEX
  5
C7
330
C5
100
AcDbEntity
  8
_U+30EC_U+30A4_U+30E4_U+30FC 1
370
     0
100
AcDbVertex
100
AcDb2dVertex
 10
103.2712157944947
 20
-113.3188367772259
 30
0.0
  0
VERTEX
  5
C8
330
C5
100
AcDbEntity
  8
_U+30EC_U+30A4_U+30E4_U+30FC 1
370
     0
100
AcDbVertex
100
AcDb2dVertex
 10
103.2712157944947
 20
-113.4330416925619
 30
0.0
  0
VERTEX
  5
C9
330
C5
100
AcDbEntity
  8
_U+30EC_U+30A4_U+30E4_U+30FC 1
370
     0
100
AcDbVertex
100
AcDb2dVertex
 10
103.9778048785194
 20
-113.4330416925619
 30
0.0
  0
VERTEX
  5
CA
330
C5
100
AcDbEntity
  8
_U+30EC_U+30A4_U+30E4_U+30FC 1
370
     0
100
AcDbVertex
100
AcDb2dVertex
 10
103.9778048785194
 20
-113.3188367772259
 30
0.0
  0
SEQEND
  5
CB
330
C5
100
AcDbEntity
  8
_U+30EC_U+30A4_U+30E4_U+30FC 1
370
     0
  0
HATCH
  5
CC
330
AE
100
AcDbEntity
  8
_U+30EC_U+30A4_U+30E4_U+30FC 1
 62
   179
420
  2234388
100
AcDbHatch
 10
0.0
 20
0.0
 30
0.0
210
0.0
220
0.0
230
1.0
  2
SOLID
 70
     1
 71
     0
 91
        4
 92
        1
 93
        1
 72
     4
 94
        3
 73
     0
 74
     1
 95
      203
 96
      199
 40
0.0
 40
0.0
 40
0.0
 40
0.0
 40
1.0
 40
1.0
 40
1.0
 40
2.0
 40
2.0
 40
2.0
 40
3.0
 40
3.0
 40
3.0
 40
4.0
 40
4.0
 40
4.0
 40
5.0
 40
5.0
 40
5.0
 40
6.0
 40
6.0
 40
6.0
 40
7.0
 40
7.0
 40
7.0
 40
8.0
 40
8.0
 40
8.0
 40
9.0
 40
9.0
 40
9.0
 40
10.0
 40
10.0
 40
10.0
 40
11.0
 40
11.0
 40
11.0
 40
12.0
 40
12.0
 40
12.0
 40
13.0
 40
13.0
 40
13.0
 40
14.0
 40
14.0
 40
14.0
 40
15.0
 40
15.0
 40
15.0
 40
16.0
 40
16.0
 40
16.0
 40
17.0
 40
17.0
 40
17.0
 40
18.0
 40
18.0
 40
18.0
 40
19.0
 40
19.0
 40
19.0
 40
20.0
 40
20.0
 40
20.0
 40
21.0
 40
21.0
 40
21.0
 40
22.0
 40
22.0
 40
22.0
 40
23.0
 40
23.0
 40
23.0
 40
24.0
 40
24.0
 40
24.0
 40
25.0
 40
25.0
 40
25.0
 40
26.0
 40
26.0
 40
26.0
 40
27.0
 40
27.0
 40
27.0
 40
28.0
 40
28.0
 40
28.0
 40
29.0
 40
29.0
 40
29.0
 40
30.0
 40
30.0
 40
30.0
 40
31.0
 40
31.0
 40
31.0
 40
32.0
 40
32.0
 40
32.0
 40
33.0
 40
33.0
 40
33.0
 40
34.0
 40
34.0
 40
34.0
 40
35.0
 40
35.0
 40
35.0
 40
36.0
 40
36.0
 40
36.0
 40
37.0
 40
37.0
 40
37.0
 40
38.0
 40
38.0
 40
38.0
 40
39.0
 40
39.0
 40
39.0
 40
40.0
 40
40.0
 40
40.0
 40
41.0
 40
41.0
 40
41.0
 40
42.0
 40
42.0
 40
42.0
 40
43.0
 40
43.0
 40
43.0
 40
44.0
 40
44.0
 40
44.0
 40
45.0
 40
45.0
 40
45.0
 40
46.0
 40
46.0
 40
46.0
 40
47.0
 40
47.0
 40
47.0
 40
48.0
 40
48.0
 40
48.0
 40
49.0
 40
49.0
 40
49.0
 40
50.0
 40
50.0
 40
50.0
 40
51.0
 40
51.0
 40
51.0
 40
52.0
 40
52.0
 40
52.0
 40
53.0
 40
53.0
 40
53.0
 40
54.0
 40
54.0
 40
54.0
 40
55.0
 40
55.0
 40
55.0
 40
56.0
 40
56.0
 40
56.0
 40
57.0
 40
57.0
 40
57.0
 40
58.0
 40
58.0
 40
58.0
 40
59.0
 40
59.0
 40
59.0
 40
60.0
 40
60.0
 40
60.0
 40
61.0
 40
61.0
 40
61.0
 40
62.0
 40
62.0
 40
62.0
 40
63.0
 40
63.0
 40
63.0
 40
64.0
 40
64.0
 40
64.0
 40
65.0
 40
65.0
 40
65.0
 40
66.0
 40
66.0
 40
66.0
 40
66.0
 10
103.812784804776
 20
-112.5867539866103
 10
103.812784804776
 20
-112.5867539866103
 10
103.2539903170685
 20
-112.5867539866103
 10
103.2539903170685
 20
-112.5867539866103
 10
103.2436550306127
 20
-112.63119571837
 10
103.2350422918996
 20
-112.6628905968343
 10
103.2222954386041
 20
-112.7011311567205
 10
103.247789145195
 20
-112.7011311567205
 10
103.2626030557816
 20
-112.7031982140117
 10
103.268804227655
 20
-112.7031982140117
 10
103.268804227655
 20
-112.7031982140117
 10
103.4572509506982
 20
-112.7031982140117
 10
103.4572509506982
 20
-112.7031982140117
 10
103.4572509506982
 20
-112.7031982140117
 10
103.8317328299449
 20
-112.7031982140117
 10
103.8317328299449
 20
-112.7031982140117
 10
103.882375733578
 20
-112.7031982140117
 10
104.1659070920141
 20
-112.6904513607163
 10
104.1976019704784
 20
-112.6904513607163
 10
104.1955349131872
 20
-112.7180121245983
 10
104.1934678558961
 20
-112.7369601497672
 10
104.1934678558961
 20
-112.7665879709403
 10
104.1914007986049
 20
-112.7982828494046
 10
104.1914007986049
 20
-112.9336751019749
 10
104.1914007986049
 20
-112.9612358658569
 10
104.1914007986049
 20
-112.9612358658569
 10
104.1914007986049
 20
-113.206698919181
 10
104.1914007986049
 20
-113.206698919181
 10
104.1914007986049
 20
-113.2511406509407
 10
104.1955349131872
 20
-113.4478556031485
 10
104.1996690277695
 20
-113.6001288235965
 10
104.1996690277695
 20
-113.6001288235965
 10
103.9733262543886
 20
-113.6001288235965
 10
103.9733262543886
 20
-113.6001288235965
 10
103.9733262543886
 20
-113.6001288235965
 10
103.9753933116798
 20
-113.5663668878411
 10
103.9753933116798
 20
-113.5663668878411
 10
103.9753933116798
 20
-113.5663668878411
 10
103.2732828517859
 20
-113.5663668878411
 10
103.2732828517859
 20
-113.5663668878411
 10
103.2732828517859
 20
-113.5663668878411
 10
103.275349909077
 20
-113.6001288235965
 10
103.275349909077
 20
-113.6001288235965
 10
103.275349909077
 20
-113.6001288235965
 10
103.0572753648607
 20
-113.6001288235965
 10
103.0572753648607
 20
-113.6001288235965
 10
103.0617539889915
 20
-113.5451795506068
 10
103.0617539889915
 20
-113.5324326973113
 10
103.067955160865
 20
-113.4182277819753
 10
103.0700222181561
 20
-113.3906670180933
 10
103.0720892754473
 20
-113.2575140775884
 10
103.0720892754473
 20
-113.2383937976453
 10
103.0720892754473
 20
-113.2383937976453
 10
103.0720892754473
 20
-113.0353054187898
 10
103.0720892754473
 20
-113.0353054187898
 10
102.9325629082946
 20
-113.2849025866961
 10
102.7634087199689
 20
-113.4161607246842
 10
102.6576442885717
 20
-113.4816175389039
 10
102.6576442885717
 20
-113.4816175389039
 10
102.4840114761151
 20
-113.3420911717513
 10
102.4840114761151
 20
-113.3420911717513
 10
102.5728949396346
 20
-113.2912760133438
 10
102.716899930918
 20
-113.2044596071156
 10
102.8543592407795
 20
-113.0099839669732
 10
102.9453097615901
 20
-112.8830321983418
 10
103.0107665758098
 20
-112.7391994618326
 10
103.0448730211138
 20
-112.5867539866103
 10
102.8161186808932
 20
-112.5889932986757
 10
102.6362846965632
 20
-112.5953667253234
 10
102.5412000611703
 20
-112.5974337826145
 10
102.5412000611703
 20
-112.5974337826145
 10
102.5412000611703
 20
-112.4196668555756
 10
102.5412000611703
 20
-112.4196668555756
 10
102.737915013378
 20
-112.4260402822234
 10
103.0214463718141
 20
-112.4303466515799
 10
103.171652534971
 20
-112.4303466515799
 10
103.171652534971
 20
-112.4303466515799
 10
103.3852484550565
 20
-112.4303466515799
 10
103.3852484550565
 20
-112.4303466515799
 10
103.3852484550565
 20
-112.4303466515799
 10
103.3852484550565
 20
-112.3223429081173
 10
103.3852484550565
 20
-112.3223429081173
 10
103.3852484550565
 20
-112.3223429081173
 10
103.2391764064819
 20
-112.3223429081173
 10
103.2391764064819
 20
-112.3223429081173
 10
103.0700222181561
 20
-112.3223429081173
 10
102.9008680298303
 20
-112.3266492774739
 10
102.7337808987957
 20
-112.3330227041216
 10
102.7337808987957
 20
-112.3330227041216
 10
102.7337808987957
 20
-112.1616292037304
 10
102.7337808987957
 20
-112.1616292037304
 10
102.8881211765349
 20
-112.1721367449604
 10
103.0741563327384
 20
-112.1721367449604
 10
103.2391764064819
 20
-112.1721367449604
 10
103.2391764064819
 20
-112.1721367449604
 10
103.3852484550565
 20
-112.1721367449604
 10
103.3852484550565
 20
-112.1721367449604
 10
103.3852484550565
 20
-112.1721367449604
 10
103.3852484550565
 20
-112.0537977150421
 10
103.3852484550565
 20
-112.0537977150421
 10
103.3852484550565
 20
-112.0537977150421
 10
103.2539903170685
 20
-112.0537977150421
 10
103.2539903170685
 20
-112.0537977150421
 10
103.2074815280176
 20
-112.0537977150421
 10
103.0045654039364
 20
-112.062238198981
 10
102.9621907294678
 20
-112.062238198981
 10
102.7592746053866
 20
-112.0663723135633
 10
102.682793485614
 20
-112.0684393708544
 10
102.6045898180989
 20
-112.0706786829198
 10
102.6045898180989
 20
-112.0706786829198
 10
102.6045898180989
 20
-111.8865383292332
 10
102.6045898180989
 20
-111.8865383292332
 10
102.7189669882091
 20
-111.8949788131721
 10
102.7634087199689
 20
-111.8949788131721
 10
103.1461588283801
 20
-111.9035915518852
 10
103.0827690714515
 20
-111.8083346617181
 10
103.0552083075695
 20
-111.7807738978361
 10
103.0193793145229
 20
-111.7447726500152
 10
103.0193793145229
 20
-111.7447726500152
 10
103.1947346747222
 20
-111.6622626131435
 10
103.1947346747222
 20
-111.6622626131435
 10
103.2350422918996
 20
-111.6982638609643
 10
103.2794840236593
 20
-111.7406385354329
 10
103.3535535765922
 20
-111.8505370814124
 10
103.3535535765922
 20
-111.8505370814124
 10
103.2391764064819
 20
-111.9056586091764
 10
103.2391764064819
 20
-111.9056586091764
 10
103.2391764064819
 20
-111.9056586091764
 10
103.2498562024862
 20
-111.9056586091764
 10
103.2498562024862
 20
-111.9056586091764
 10
103.2498562024862
 20
-111.9056586091764
 10
103.7724771875986
 20
-111.9056586091764
 10
103.7724771875986
 20
-111.9056586091764
 10
103.7724771875986
 20
-111.9056586091764
 10
103.6773925522057
 20
-111.8612168774167
 10
103.6773925522057
 20
-111.8612168774167
 10
103.7046088065391
 20
-111.8231485723046
 10
103.7617973915943
 20
-111.7427055927241
 10
103.7766113021809
 20
-111.6686360397912
 10
103.7766113021809
 20
-111.6686360397912
 10
103.9902072222663
 20
-111.732198051494
 10
103.9902072222663
 20
-111.732198051494
 10
103.9988199609795
 20
-111.7342651087852
 10
104.0198350434395
 20
-111.7447726500152
 10
104.0198350434395
 20
-111.7659599872495
 10
104.0198350434395
 20
-111.8040282923615
 10
103.9543782292197
 20
-111.8040282923615
 10
103.9354302040509
 20
-111.8040282923615
 10
103.9247504080466
 20
-111.8231485723046
 10
103.9013237587469
 20
-111.8632839347078
 10
103.8716959375737
 20
-111.9035915518852
 10
104.2716715234113
 20
-111.8972181252375
 10
104.3012993445844
 20
-111.8949788131721
 10
104.3774359548084
 20
-111.8887776412986
 10
104.3774359548084
 20
-111.8887776412986
 10
104.3774359548084
 20
-112.0706786829198
 10
104.3774359548084
 20
-112.0706786829198
 10
104.3584879296396
 20
-112.0706786829198
 10
104.3329942230487
 20
-112.0684393708544
 10
104.1131971310898
 20
-112.0599988869156
 10
104.0622097179081
 20
-112.0579318296244
 10
103.8424126259491
 20
-112.0537977150421
 10
103.7979708941894
 20
-112.0537977150421
 10
103.7979708941894
 20
-112.0537977150421
 10
103.5819634072642
 20
-112.0537977150421
 10
103.5819634072642
 20
-112.0537977150421
 10
103.5819634072642
 20
-112.0537977150421
 10
103.5819634072642
 20
-112.1721367449604
 10
103.5819634072642
 20
-112.1721367449604
 10
103.5819634072642
 20
-112.1721367449604
 10
103.7555962197208
 20
-112.1721367449604
 10
103.7555962197208
 20
-112.1721367449604
 10
103.9185492361731
 20
-112.1721367449604
 10
104.1087185069589
 20
-112.1721367449604
 10
104.2654703515378
 20
-112.1616292037304
 10
104.2654703515378
 20
-112.1616292037304
 10
104.2654703515378
 20
-112.3330227041216
 10
104.2654703515378
 20
-112.3330227041216
 10
104.0560085460346
 20
-112.3245822201827
 10
103.8592935938268
 20
-112.3223429081173
 10
103.7555962197208
 20
-112.3223429081173
 10
103.7555962197208
 20
-112.3223429081173
 10
103.5819634072642
 20
-112.3223429081173
 10
103.5819634072642
 20
-112.3223429081173
 10
103.5819634072642
 20
-112.3223429081173
 10
103.5819634072642
 20
-112.4303466515799
 10
103.5819634072642
 20
-112.4303466515799
 10
103.5819634072642
 20
-112.4303466515799
 10
103.812784804776
 20
-112.4303466515799
 10
103.812784804776
 20
-112.4303466515799
 10
103.9457654905066
 20
-112.4303466515799
 10
104.2337754730735
 20
-112.4260402822234
 10
104.4428927690282
 20
-112.4196668555756
 10
104.4428927690282
 20
-112.4196668555756
 10
104.4428927690282
 20
-112.5974337826145
 10
104.4428927690282
 20
-112.5974337826145
 10
104.2506564409512
 20
-112.5910603559668
 10
103.937497261342
 20
-112.5867539866103
 10
103.812784804776
 20
-112.5867539866103
 97
        0
 97
        0
 92
        1
 93
        4
 72
     1
 10
103.9778048785194
 20
-112.8427245811643
 11
103.2712157944947
 21
-112.8427245811643
 72
     1
 10
103.2712157944947
 20
-112.8427245811643
 11
103.2712157944947
 21
-112.9507283246269
 72
     1
 10
103.2712157944947
 20
-112.9507283246269
 11
103.9778048785194
 21
-112.9507283246269
 72
     1
 10
103.9778048785194
 20
-112.9507283246269
 11
103.9778048785194
 21
-112.8427245811643
 97
        0
 92
        1
 93
        4
 72
     1
 10
103.9778048785194
 20
-113.075440781193
 11
103.2712157944947
 21
-113.075440781193
 72
     1
 10
103.2712157944947
 20
-113.075440781193
 11
103.2712157944947
 21
-113.1898179513032
 72
     1
 10
103.2712157944947
 20
-113.1898179513032
 11
103.9778048785194
 21
-113.1898179513032
 72
     1
 10
103.9778048785194
 20
-113.1898179513032
 11
103.9778048785194
 21
-113.075440781193
 97
        0
 92
        1
 93
        4
 72
     1
 10
103.9778048785194
 20
-113.3188367772259
 11
103.2712157944947
 21
-113.3188367772259
 72
     1
 10
103.2712157944947
 20
-113.3188367772259
 11
103.2712157944947
 21
-113.4330416925619
 72
     1
 10
103.2712157944947
 20
-113.4330416925619
 11
103.9778048785194
 21
-113.4330416925619
 72
     1
 10
103.9778048785194
 20
-113.4330416925619
 11
103.9778048785194
 21
-113.3188367772259
 97
        0
 75
     2
 76
     1
 98
        0
  0
SPLINE
  5
CD
330
AE
100
AcDbEntity
  8
_U+30EC_U+30A4_U+30E4_U+30FC 1
370
     0
100
AcDbSpline
210
0.0
220
0.0
230
1.0
 70
    11
 71
     3
 72
    47
 73
    43
 74
     0
 42
0.0000000001
 43
0.0000000001
 12
1.0
 22
0.0
 32
0.0
 13
1.0
 23
0.0
 33
0.0
 40
0.0
 40
0.0
 40
0.0
 40
0.0
 40
1.0
 40
1.0
 40
1.0
 40
2.0
 40
2.0
 40
2.0
 40
3.0
 40
3.0
 40
3.0
 40
4.0
 40
4.0
 40
4.0
 40
5.0
 40
5.0
 40
5.0
 40
6.0
 40
6.0
 40
6.0
 40
7.0
 40
7.0
 40
7.0
 40
8.0
 40
8.0
 40
8.0
 40
9.0
 40
9.0
 40
9.0
 40
10.0
 40
10.0
 40
10.0
 40
11.0
 40
11.0
 40
11.0
 40
12.0
 40
12.0
 40
12.0
 40
13.0
 40
13.0
 40
13.0
 40
14.0
 40
14.0
 40
14.0
 40
14.0
 10
105.7895805942123
 20
-112.5634995920848
 30
0.0
 10
105.7895805942123
 20
-112.5634995920848
 30
0.0
 10
105.6879502773975
 20
-112.5634995920848
 30
0.0
 10
105.6879502773975
 20
-112.5634995920848
 30
0.0
 10
105.6879502773975
 20
-112.6503159983131
 30
0.0
 10
105.6669351949374
 20
-113.0396117881463
 30
0.0
 10
105.4702202427297
 20
-113.2595811348796
 30
0.0
 10
105.3176025127331
 20
-113.4287353232053
 30
0.0
 10
105.1105522740696
 20
-113.4986707615559
 30
0.0
 10
105.0258029251324
 20
-113.5260592706636
 30
0.0
 10
105.0258029251324
 20
-113.5260592706636
 30
0.0
 10
104.8311550302158
 20
-113.358972139629
 30
0.0
 10
104.8311550302158
 20
-113.358972139629
 30
0.0
 10
104.9286512324484
 20
-113.3462252863336
 30
0.0
 10
105.1040065926476
 20
-113.3229708918082
 30
0.0
 10
105.2924533156908
 20
-113.1346964235393
 30
0.0
 10
105.3665228686236
 20
-113.0628661826718
 30
0.0
 10
105.4702202427297
 20
-112.9231675607449
 30
0.0
 10
105.4702202427297
 20
-112.5634995920848
 30
0.0
 10
105.4702202427297
 20
-112.5634995920848
 30
0.0
 10
105.2393988452179
 20
-112.5634995920848
 30
0.0
 10
105.2393988452179
 20
-112.5634995920848
 30
0.0
 10
105.0533636890144
 20
-112.5634995920848
 30
0.0
 10
104.8669840232624
 20
-112.5678059614414
 30
0.0
 10
104.6809488670589
 20
-112.582619872028
 30
0.0
 10
104.6809488670589
 20
-112.582619872028
 30
0.0
 10
104.6809488670589
 20
-112.3626505252948
 30
0.0
 10
104.6809488670589
 20
-112.3626505252948
 30
0.0
 10
104.8693955901021
 20
-112.3774644358813
 30
0.0
 10
105.1549940058293
 20
-112.3815985504636
 30
0.0
 10
105.2393988452179
 20
-112.3815985504636
 30
0.0
 10
105.2393988452179
 20
-112.3815985504636
 30
0.0
 10
105.7895805942123
 20
-112.3815985504636
 30
0.0
 10
105.7895805942123
 20
-112.3815985504636
 30
0.0
 10
105.8085286193812
 20
-112.3815985504636
 30
0.0
 10
106.1258219135727
 20
-112.3815985504636
 30
0.0
 10
106.3542317442448
 20
-112.3626505252948
 30
0.0
 10
106.3542317442448
 20
-112.3626505252948
 30
0.0
 10
106.3542317442448
 20
-112.582619872028
 30
0.0
 10
106.3542317442448
 20
-112.582619872028
 30
0.0
 10
106.1661295307501
 20
-112.5678059614414
 30
0.0
 10
105.977682807707
 20
-112.5634995920848
 30
0.0
 10
105.7895805942123
 20
-112.5634995920848
 30
0.0
  0
SPLINE
  5
CE
330
AE
100
AcDbEntity
  8
_U+30EC_U+30A4_U+30E4_U+30FC 1
370
     0
100
AcDbSpline
210
0.0
220
0.0
230
1.0
 70
    11
 71
     3
 72
    29
 73
    25
 74
     0
 42
0.0000000001
 43
0.0000000001
 12
1.0
 22
0.0
 32
0.0
 13
1.0
 23
0.0
 33
0.0
 40
0.0
 40
0.0
 40
0.0
 40
0.0
 40
1.0
 40
1.0
 40
1.0
 40
2.0
 40
2.0
 40
2.0
 40
3.0
 40
3.0
 40
3.0
 40
4.0
 40
4.0
 40
4.0
 40
5.0
 40
5.0
 40
5.0
 40
6.0
 40
6.0
 40
6.0
 40
7.0
 40
7.0
 40
7.0
 40
8.0
 40
8.0
 40
8.0
 40
8.0
 10
105.6879502773975
 20
-112.034677435099
 30
0.0
 10
105.6879502773975
 20
-112.034677435099
 30
0.0
 10
105.3344834806108
 20
-112.034677435099
 30
0.0
 10
105.3344834806108
 20
-112.034677435099
 30
0.0
 10
105.2225178773402
 20
-112.034677435099
 30
0.0
 10
105.0829915101876
 20
-112.0410508617467
 30
0.0
 10
104.9751600214993
 20
-112.0537977150421
 30
0.0
 10
104.9751600214993
 20
-112.0537977150421
 30
0.0
 10
104.9751600214993
 20
-111.8188422029481
 30
0.0
 10
104.9751600214993
 20
-111.8188422029481
 30
0.0
 10
105.0933267966433
 20
-111.8336561135346
 30
0.0
 10
105.2776394051042
 20
-111.8379624828912
 30
0.0
 10
105.3344834806108
 20
-111.8379624828912
 30
0.0
 10
105.3344834806108
 20
-111.8379624828912
 30
0.0
 10
105.6879502773975
 20
-111.8379624828912
 30
0.0
 10
105.6879502773975
 20
-111.8379624828912
 30
0.0
 10
105.7068983025663
 20
-111.8379624828912
 30
0.0
 10
105.9101589361961
 20
-111.8379624828912
 30
0.0
 10
106.0517523606398
 20
-111.8188422029481
 30
0.0
 10
106.0517523606398
 20
-111.8188422029481
 30
0.0
 10
106.0517523606398
 20
-112.0537977150421
 30
0.0
 10
106.0517523606398
 20
-112.0537977150421
 30
0.0
 10
105.8953450256095
 20
-112.034677435099
 30
0.0
 10
105.7048312452752
 20
-112.034677435099
 30
0.0
 10
105.6879502773975
 20
-112.034677435099
 30
0.0
  0
HATCH
  5
CF
330
AE
100
AcDbEntity
  8
_U+30EC_U+30A4_U+30E4_U+30FC 1
 62
   179
420
  2234388
100
AcDbHatch
 10
0.0
 20
0.0
 30
0.0
210
0.0
220
0.0
230
1.0
  2
SOLID
 70
     1
 71
     0
 91
        2
 92
        1
 93
        1
 72
     4
 94
        3
 73
     0
 74
     1
 95
       47
 96
       43
 40
0.0
 40
0.0
 40
0.0
 40
0.0
 40
1.0
 40
1.0
 40
1.0
 40
2.0
 40
2.0
 40
2.0
 40
3.0
 40
3.0
 40
3.0
 40
4.0
 40
4.0
 40
4.0
 40
5.0
 40
5.0
 40
5.0
 40
6.0
 40
6.0
 40
6.0
 40
7.0
 40
7.0
 40
7.0
 40
8.0
 40
8.0
 40
8.0
 40
9.0
 40
9.0
 40
9.0
 40
10.0
 40
10.0
 40
10.0
 40
11.0
 40
11.0
 40
11.0
 40
12.0
 40
12.0
 40
12.0
 40
13.0
 40
13.0
 40
13.0
 40
14.0
 40
14.0
 40
14.0
 40
14.0
 10
105.7895805942123
 20
-112.5634995920848
 10
105.7895805942123
 20
-112.5634995920848
 10
105.6879502773975
 20
-112.5634995920848
 10
105.6879502773975
 20
-112.5634995920848
 10
105.6879502773975
 20
-112.6503159983131
 10
105.6669351949374
 20
-113.0396117881463
 10
105.4702202427297
 20
-113.2595811348796
 10
105.3176025127331
 20
-113.4287353232053
 10
105.1105522740696
 20
-113.4986707615559
 10
105.0258029251324
 20
-113.5260592706636
 10
105.0258029251324
 20
-113.5260592706636
 10
104.8311550302158
 20
-113.358972139629
 10
104.8311550302158
 20
-113.358972139629
 10
104.9286512324484
 20
-113.3462252863336
 10
105.1040065926476
 20
-113.3229708918082
 10
105.2924533156908
 20
-113.1346964235393
 10
105.3665228686236
 20
-113.0628661826718
 10
105.4702202427297
 20
-112.9231675607449
 10
105.4702202427297
 20
-112.5634995920848
 10
105.4702202427297
 20
-112.5634995920848
 10
105.2393988452179
 20
-112.5634995920848
 10
105.2393988452179
 20
-112.5634995920848
 10
105.0533636890144
 20
-112.5634995920848
 10
104.8669840232624
 20
-112.5678059614414
 10
104.6809488670589
 20
-112.582619872028
 10
104.6809488670589
 20
-112.582619872028
 10
104.6809488670589
 20
-112.3626505252948
 10
104.6809488670589
 20
-112.3626505252948
 10
104.8693955901021
 20
-112.3774644358813
 10
105.1549940058293
 20
-112.3815985504636
 10
105.2393988452179
 20
-112.3815985504636
 10
105.2393988452179
 20
-112.3815985504636
 10
105.7895805942123
 20
-112.3815985504636
 10
105.7895805942123
 20
-112.3815985504636
 10
105.8085286193812
 20
-112.3815985504636
 10
106.1258219135727
 20
-112.3815985504636
 10
106.3542317442448
 20
-112.3626505252948
 10
106.3542317442448
 20
-112.3626505252948
 10
106.3542317442448
 20
-112.582619872028
 10
106.3542317442448
 20
-112.582619872028
 10
106.1661295307501
 20
-112.5678059614414
 10
105.977682807707
 20
-112.5634995920848
 10
105.7895805942123
 20
-112.5634995920848
 97
        0
 97
        0
 92
        1
 93
        1
 72
     4
 94
        3
 73
     0
 74
     1
 95
       29
 96
       25
 40
0.0
 40
0.0
 40
0.0
 40
0.0
 40
1.0
 40
1.0
 40
1.0
 40
2.0
 40
2.0
 40
2.0
 40
3.0
 40
3.0
 40
3.0
 40
4.0
 40
4.0
 40
4.0
 40
5.0
 40
5.0
 40
5.0
 40
6.0
 40
6.0
 40
6.0
 40
7.0
 40
7.0
 40
7.0
 40
8.0
 40
8.0
 40
8.0
 40
8.0
 10
105.6879502773975
 20
-112.034677435099
 10
105.6879502773975
 20
-112.034677435099
 10
105.3344834806108
 20
-112.034677435099
 10
105.3344834806108
 20
-112.034677435099
 10
105.2225178773402
 20
-112.034677435099
 10
105.0829915101876
 20
-112.0410508617467
 10
104.9751600214993
 20
-112.0537977150421
 10
104.9751600214993
 20
-112.0537977150421
 10
104.9751600214993
 20
-111.8188422029481
 10
104.9751600214993
 20
-111.8188422029481
 10
105.0933267966433
 20
-111.8336561135346
 10
105.2776394051042
 20
-111.8379624828912
 10
105.3344834806108
 20
-111.8379624828912
 10
105.3344834806108
 20
-111.8379624828912
 10
105.6879502773975
 20
-111.8379624828912
 10
105.6879502773975
 20
-111.8379624828912
 10
105.7068983025663
 20
-111.8379624828912
 10
105.9101589361961
 20
-111.8379624828912
 10
106.0517523606398
 20
-111.8188422029481
 10
106.0517523606398
 20
-111.8188422029481
 10
106.0517523606398
 20
-112.0537977150421
 10
106.0517523606398
 20
-112.0537977150421
 10
105.8953450256095
 20
-112.034677435099
 10
105.7048312452752
 20
-112.034677435099
 10
105.6879502773975
 20
-112.034677435099
 97
        0
 97
        0
 75
     2
 76
     1
 98
        0
  0
SPLINE
  5
D0
330
AE
100
AcDbEntity
  8
_U+30EC_U+30A4_U+30E4_U+30FC 1
370
     0
100
AcDbSpline
210
0.0
220
0.0
230
1.0
 70
    11
 71
     3
 72
    29
 73
    25
 74
     0
 42
0.0000000001
 43
0.0000000001
 12
1.0
 22
0.0
 32
0.0
 13
1.0
 23
0.0
 33
0.0
 40
0.0
 40
0.0
 40
0.0
 40
0.0
 40
1.0
 40
1.0
 40
1.0
 40
2.0
 40
2.0
 40
2.0
 40
3.0
 40
3.0
 40
3.0
 40
4.0
 40
4.0
 40
4.0
 40
5.0
 40
5.0
 40
5.0
 40
6.0
 40
6.0
 40
6.0
 40
7.0
 40
7.0
 40
7.0
 40
8.0
 40
8.0
 40
8.0
 40
8.0
 10
107.6354627552092
 20
-112.7264526085371
 30
0.0
 10
107.6354627552092
 20
-112.7264526085371
 30
0.0
 10
107.1510823299831
 20
-112.7264526085371
 30
0.0
 10
107.1510823299831
 20
-112.7264526085371
 30
0.0
 10
107.1235215661011
 20
-112.7264526085371
 30
0.0
 10
106.8062282719096
 20
-112.7264526085371
 30
0.0
 10
106.5946994091152
 20
-112.7517740603537
 30
0.0
 10
106.5946994091152
 20
-112.7517740603537
 30
0.0
 10
106.5946994091152
 20
-112.5212971723905
 30
0.0
 10
106.5946994091152
 20
-112.5212971723905
 30
0.0
 10
106.7531738014367
 20
-112.544551566916
 30
0.0
 10
106.943687581771
 20
-112.5466186242071
 30
0.0
 10
107.1510823299831
 20
-112.5466186242071
 30
0.0
 10
107.1510823299831
 20
-112.5466186242071
 30
0.0
 10
107.6354627552092
 20
-112.5466186242071
 30
0.0
 10
107.6354627552092
 20
-112.5466186242071
 30
0.0
 10
107.8214979114127
 20
-112.5466186242071
 30
0.0
 10
108.0078775771647
 20
-112.544551566916
 30
0.0
 10
108.191845676077
 20
-112.5212971723905
 30
0.0
 10
108.191845676077
 20
-112.5212971723905
 30
0.0
 10
108.191845676077
 20
-112.7517740603537
 30
0.0
 10
108.191845676077
 20
-112.7517740603537
 30
0.0
 10
108.0078775771647
 20
-112.7285196658283
 30
0.0
 10
107.7601752117752
 20
-112.7264526085371
 30
0.0
 10
107.6354627552092
 20
-112.7264526085371
 30
0.0
  0
HATCH
  5
D1
330
AE
100
AcDbEntity
  8
_U+30EC_U+30A4_U+30E4_U+30FC 1
 62
   179
420
  2234388
100
AcDbHatch
 10
0.0
 20
0.0
 30
0.0
210
0.0
220
0.0
230
1.0
  2
SOLID
 70
     1
 71
     0
 91
        1
 92
        1
 93
        1
 72
     4
 94
        3
 73
     0
 74
     1
 95
       29
 96
       25
 40
0.0
 40
0.0
 40
0.0
 40
0.0
 40
1.0
 40
1.0
 40
1.0
 40
2.0
 40
2.0
 40
2.0
 40
3.0
 40
3.0
 40
3.0
 40
4.0
 40
4.0
 40
4.0
 40
5.0
 40
5.0
 40
5.0
 40
6.0
 40
6.0
 40
6.0
 40
7.0
 40
7.0
 40
7.0
 40
8.0
 40
8.0
 40
8.0
 40
8.0
 10
107.6354627552092
 20
-112.7264526085371
 10
107.6354627552092
 20
-112.7264526085371
 10
107.1510823299831
 20
-112.7264526085371
 10
107.1510823299831
 20
-112.7264526085371
 10
107.1235215661011
 20
-112.7264526085371
 10
106.8062282719096
 20
-112.7264526085371
 10
106.5946994091152
 20
-112.7517740603537
 10
106.5946994091152
 20
-112.7517740603537
 10
106.5946994091152
 20
-112.5212971723905
 10
106.5946994091152
 20
-112.5212971723905
 10
106.7531738014367
 20
-112.544551566916
 10
106.943687581771
 20
-112.5466186242071
 10
107.1510823299831
 20
-112.5466186242071
 10
107.1510823299831
 20
-112.5466186242071
 10
107.6354627552092
 20
-112.5466186242071
 10
107.6354627552092
 20
-112.5466186242071
 10
107.8214979114127
 20
-112.5466186242071
 10
108.0078775771647
 20
-112.544551566916
 10
108.191845676077
 20
-112.5212971723905
 10
108.191845676077
 20
-112.5212971723905
 10
108.191845676077
 20
-112.7517740603537
 10
108.191845676077
 20
-112.7517740603537
 10
108.0078775771647
 20
-112.7285196658283
 10
107.7601752117752
 20
-112.7264526085371
 10
107.6354627552092
 20
-112.7264526085371
 97
        0
 97
        0
 75
     2
 76
     1
 98
        0
  0
SPLINE
  5
D2
330
AE
100
AcDbEntity
  8
_U+30EC_U+30A4_U+30E4_U+30FC 1
370
     0
100
AcDbSpline
210
0.0
220
0.0
230
1.0
 70
    11
 71
     3
 72
    44
 73
    40
 74
     0
 42
0.0000000001
 43
0.0000000001
 12
1.0
 22
0.0
 32
0.0
 13
1.0
 23
0.0
 33
0.0
 40
0.0
 40
0.0
 40
0.0
 40
0.0
 40
1.0
 40
1.0
 40
1.0
 40
2.0
 40
2.0
 40
2.0
 40
3.0
 40
3.0
 40
3.0
 40
4.0
 40
4.0
 40
4.0
 40
5.0
 40
5.0
 40
5.0
 40
6.0
 40
6.0
 40
6.0
 40
7.0
 40
7.0
 40
7.0
 40
8.0
 40
8.0
 40
8.0
 40
9.0
 40
9.0
 40
9.0
 40
10.0
 40
10.0
 40
10.0
 40
11.0
 40
11.0
 40
11.0
 40
12.0
 40
12.0
 40
12.0
 40
13.0
 40
13.0
 40
13.0
 40
13.0
 10
109.8468695471911
 20
-112.2885809723619
 30
0.0
 10
109.7349039439204
 20
-112.6566894249608
 30
0.0
 10
109.6842610402873
 20
-112.8153360720566
 30
0.0
 10
109.4875460880795
 20
-113.0649332399629
 30
0.0
 10
109.3032334796186
 20
-113.2955823827004
 30
0.0
 10
109.066555419782
 20
-113.4816175389039
 30
0.0
 10
108.7871581759282
 20
-113.5748073717799
 30
0.0
 10
108.7871581759282
 20
-113.5748073717799
 30
0.0
 10
108.5945773383028
 20
-113.3949733874499
 30
0.0
 10
108.5945773383028
 20
-113.3949733874499
 30
0.0
 10
109.2357096081077
 20
-113.2427001670018
 30
0.0
 10
109.5657497555947
 20
-112.686317246134
 30
0.0
 10
109.6291395125233
 20
-112.2462062978933
 30
0.0
 10
109.6291395125233
 20
-112.2462062978933
 30
0.0
 10
108.8632947861522
 20
-112.2462062978933
 30
0.0
 10
108.8632947861522
 20
-112.2462062978933
 30
0.0
 10
108.7702772080505
 20
-112.2462062978933
 30
0.0
 10
108.5863091091382
 20
-112.2505126672499
 30
0.0
 10
108.4295572645593
 20
-112.2694606924187
 30
0.0
 10
108.4295572645593
 20
-112.2694606924187
 30
0.0
 10
108.4295572645593
 20
-112.0494913456856
 30
0.0
 10
108.4295572645593
 20
-112.0494913456856
 30
0.0
 10
108.5163736707876
 20
-112.0706786829198
 30
0.0
 10
108.7682101507593
 20
-112.0706786829198
 30
0.0
 10
108.8674289007345
 20
-112.0706786829198
 30
0.0
 10
108.8674289007345
 20
-112.0706786829198
 30
0.0
 10
109.2990993650363
 20
-112.0706786829198
 30
0.0
 10
109.2990993650363
 20
-112.0706786829198
 30
0.0
 10
109.3414740395049
 20
-112.0706786829198
 30
0.0
 10
109.5760850420504
 20
-112.0684393708544
 30
0.0
 10
109.6143256019367
 20
-112.062238198981
 30
0.0
 10
109.6567002764053
 20
-112.0558647723333
 30
0.0
 10
109.6587673336964
 20
-112.0537977150421
 30
0.0
 10
109.7200900333339
 20
-112.0134900978647
 30
0.0
 10
109.7200900333339
 20
-112.0134900978647
 30
0.0
 10
109.9081922468285
 20
-112.1680026303781
 30
0.0
 10
109.9081922468285
 20
-112.1680026303781
 30
0.0
 10
109.8789089352039
 20
-112.1976304515513
 30
0.0
 10
109.8640950246173
 20
-112.2293253300156
 30
0.0
 10
109.8468695471911
 20
-112.2885809723619
 30
0.0
  0
SPLINE
  5
D3
330
AE
100
AcDbEntity
  8
_U+30EC_U+30A4_U+30E4_U+30FC 1
370
     0
100
AcDbSpline
210
0.0
220
0.0
230
1.0
 70
    11
 71
     3
 72
    17
 73
    13
 74
     0
 42
0.0000000001
 43
0.0000000001
 12
1.0
 22
0.0
 32
0.0
 13
1.0
 23
0.0
 33
0.0
 40
0.0
 40
0.0
 40
0.0
 40
0.0
 40
1.0
 40
1.0
 40
1.0
 40
2.0
 40
2.0
 40
2.0
 40
3.0
 40
3.0
 40
3.0
 40
4.0
 40
4.0
 40
4.0
 40
4.0
 10
110.0563313526943
 20
-112.0896267080887
 30
0.0
 10
109.9295518388371
 20
-112.0896267080887
 30
0.0
 10
109.8279215220222
 20
-111.9881686460481
 30
0.0
 10
109.8279215220222
 20
-111.8612168774167
 30
0.0
 10
109.8279215220222
 20
-111.7342651087852
 30
0.0
 10
109.9295518388371
 20
-111.6305677346792
 30
0.0
 10
110.0563313526943
 20
-111.6305677346792
 30
0.0
 10
110.1834553761
 20
-111.6305677346792
 30
0.0
 10
110.287152750206
 20
-111.7342651087852
 30
0.0
 10
110.287152750206
 20
-111.8612168774167
 30
0.0
 10
110.287152750206
 20
-111.9881686460481
 30
0.0
 10
110.1834553761
 20
-112.0896267080887
 30
0.0
 10
110.0563313526943
 20
-112.0896267080887
 30
0.0
  0
SPLINE
  5
D4
330
AE
100
AcDbEntity
  8
_U+30EC_U+30A4_U+30E4_U+30FC 1
370
     0
100
AcDbSpline
210
0.0
220
0.0
230
1.0
 70
    11
 71
     3
 72
    17
 73
    13
 74
     0
 42
0.0000000001
 43
0.0000000001
 12
1.0
 22
0.0
 32
0.0
 13
1.0
 23
0.0
 33
0.0
 40
0.0
 40
0.0
 40
0.0
 40
0.0
 40
1.0
 40
1.0
 40
1.0
 40
2.0
 40
2.0
 40
2.0
 40
3.0
 40
3.0
 40
3.0
 40
4.0
 40
4.0
 40
4.0
 40
4.0
 10
110.0542642954031
 20
-111.7595865606018
 30
0.0
 10
109.9994872771876
 20
-111.7595865606018
 30
0.0
 10
109.9550455454279
 20
-111.8040282923615
 30
0.0
 10
109.9550455454279
 20
-111.8591498201255
 30
0.0
 10
109.9550455454279
 20
-111.9161661504064
 30
0.0
 10
109.9994872771876
 20
-111.9649142515227
 30
0.0
 10
110.0583984099854
 20
-111.9649142515227
 30
0.0
 10
110.1176540523317
 20
-111.9649142515227
 30
0.0
 10
110.1579616695091
 20
-111.9140990931152
 30
0.0
 10
110.1579616695091
 20
-111.8612168774167
 30
0.0
 10
110.1579616695091
 20
-111.8040282923615
 30
0.0
 10
110.1114528804583
 20
-111.7595865606018
 30
0.0
 10
110.0542642954031
 20
-111.7595865606018
 30
0.0
  0
HATCH
  5
D5
330
AE
100
AcDbEntity
  8
_U+30EC_U+30A4_U+30E4_U+30FC 1
 62
   179
420
  2234388
100
AcDbHatch
 10
0.0
 20
0.0
 30
0.0
210
0.0
220
0.0
230
1.0
  2
SOLID
 70
     1
 71
     0
 91
        3
 92
        1
 93
        1
 72
     4
 94
        3
 73
     0
 74
     1
 95
       44
 96
       40
 40
0.0
 40
0.0
 40
0.0
 40
0.0
 40
1.0
 40
1.0
 40
1.0
 40
2.0
 40
2.0
 40
2.0
 40
3.0
 40
3.0
 40
3.0
 40
4.0
 40
4.0
 40
4.0
 40
5.0
 40
5.0
 40
5.0
 40
6.0
 40
6.0
 40
6.0
 40
7.0
 40
7.0
 40
7.0
 40
8.0
 40
8.0
 40
8.0
 40
9.0
 40
9.0
 40
9.0
 40
10.0
 40
10.0
 40
10.0
 40
11.0
 40
11.0
 40
11.0
 40
12.0
 40
12.0
 40
12.0
 40
13.0
 40
13.0
 40
13.0
 40
13.0
 10
109.8468695471911
 20
-112.2885809723619
 10
109.7349039439204
 20
-112.6566894249608
 10
109.6842610402873
 20
-112.8153360720566
 10
109.4875460880795
 20
-113.0649332399629
 10
109.3032334796186
 20
-113.2955823827004
 10
109.066555419782
 20
-113.4816175389039
 10
108.7871581759282
 20
-113.5748073717799
 10
108.7871581759282
 20
-113.5748073717799
 10
108.5945773383028
 20
-113.3949733874499
 10
108.5945773383028
 20
-113.3949733874499
 10
109.2357096081077
 20
-113.2427001670018
 10
109.5657497555947
 20
-112.686317246134
 10
109.6291395125233
 20
-112.2462062978933
 10
109.6291395125233
 20
-112.2462062978933
 10
108.8632947861522
 20
-112.2462062978933
 10
108.8632947861522
 20
-112.2462062978933
 10
108.7702772080505
 20
-112.2462062978933
 10
108.5863091091382
 20
-112.2505126672499
 10
108.4295572645593
 20
-112.2694606924187
 10
108.4295572645593
 20
-112.2694606924187
 10
108.4295572645593
 20
-112.0494913456856
 10
108.4295572645593
 20
-112.0494913456856
 10
108.5163736707876
 20
-112.0706786829198
 10
108.7682101507593
 20
-112.0706786829198
 10
108.8674289007345
 20
-112.0706786829198
 10
108.8674289007345
 20
-112.0706786829198
 10
109.2990993650363
 20
-112.0706786829198
 10
109.2990993650363
 20
-112.0706786829198
 10
109.3414740395049
 20
-112.0706786829198
 10
109.5760850420504
 20
-112.0684393708544
 10
109.6143256019367
 20
-112.062238198981
 10
109.6567002764053
 20
-112.0558647723333
 10
109.6587673336964
 20
-112.0537977150421
 10
109.7200900333339
 20
-112.0134900978647
 10
109.7200900333339
 20
-112.0134900978647
 10
109.9081922468285
 20
-112.1680026303781
 10
109.9081922468285
 20
-112.1680026303781
 10
109.8789089352039
 20
-112.1976304515513
 10
109.8640950246173
 20
-112.2293253300156
 10
109.8468695471911
 20
-112.2885809723619
 97
        0
 97
        0
 92
        1
 93
        1
 72
     4
 94
        3
 73
     0
 74
     1
 95
       17
 96
       13
 40
0.0
 40
0.0
 40
0.0
 40
0.0
 40
1.0
 40
1.0
 40
1.0
 40
2.0
 40
2.0
 40
2.0
 40
3.0
 40
3.0
 40
3.0
 40
4.0
 40
4.0
 40
4.0
 40
4.0
 10
110.0563313526943
 20
-112.0896267080887
 10
109.9295518388371
 20
-112.0896267080887
 10
109.8279215220222
 20
-111.9881686460481
 10
109.8279215220222
 20
-111.8612168774167
 10
109.8279215220222
 20
-111.7342651087852
 10
109.9295518388371
 20
-111.6305677346792
 10
110.0563313526943
 20
-111.6305677346792
 10
110.1834553761
 20
-111.6305677346792
 10
110.287152750206
 20
-111.7342651087852
 10
110.287152750206
 20
-111.8612168774167
 10
110.287152750206
 20
-111.9881686460481
 10
110.1834553761
 20
-112.0896267080887
 10
110.0563313526943
 20
-112.0896267080887
 97
        0
 97
        0
 92
        1
 93
        1
 72
     4
 94
        3
 73
     0
 74
     1
 95
       17
 96
       13
 40
0.0
 40
0.0
 40
0.0
 40
0.0
 40
1.0
 40
1.0
 40
1.0
 40
2.0
 40
2.0
 40
2.0
 40
3.0
 40
3.0
 40
3.0
 40
4.0
 40
4.0
 40
4.0
 40
4.0
 10
110.0542642954031
 20
-111.7595865606018
 10
109.9994872771876
 20
-111.7595865606018
 10
109.9550455454279
 20
-111.8040282923615
 10
109.9550455454279
 20
-111.8591498201255
 10
109.9550455454279
 20
-111.9161661504064
 10
109.9994872771876
 20
-111.9649142515227
 10
110.0583984099854
 20
-111.9649142515227
 10
110.1176540523317
 20
-111.9649142515227
 10
110.1579616695091
 20
-111.9140990931152
 10
110.1579616695091
 20
-111.8612168774167
 10
110.1579616695091
 20
-111.8040282923615
 10
110.1114528804583
 20
-111.7595865606018
 10
110.0542642954031
 20
-111.7595865606018
 97
        0
 97
        0
 75
     2
 76
     1
 98
        0
  0
ENDBLK
  5
B1
330
AE
100
AcDbEntity
  8
0
100
AcDbBlockEnd
  0
ENDSEC
  0
SECTION
  2
ENTITIES
  0
INSERT
  5
42
330
1F
100
AcDbEntity
  8
_U+30EC_U+30A4_U+30E4_U+30FC 1
100
AcDbBlockReference
  2
block 2
 10
0.0
 20
0.0
 30
0.0
  0
POLYLINE
  5
8C
330
1F
100
AcDbEntity
  8
_U+30EC_U+30A4_U+30E4_U+30FC 1
  6
AI-Linetype-1
 62
   154
420
    23468
370
    25
100
AcDb2dPolyline
 66
     1
 10
0.0
 20
0.0
 30
0.0
  0
VERTEX
  5
8D
330
8C
100
AcDbEntity
  8
_U+30EC_U+30A4_U+30E4_U+30FC 1
  6
AI-Linetype-1
 62
   154
420
    23468
370
    25
100
AcDbVertex
100
AcDb2dVertex
 10
72.28120148928626
 20
-100.8906696969996
 30
0.0
  0
VERTEX
  5
8E
330
8C
100
AcDbEntity
  8
_U+30EC_U+30A4_U+30E4_U+30FC 1
  6
AI-Linetype-1
 62
   154
420
    23468
370
    25
100
AcDbVertex
100
AcDb2dVertex
 10
72.28120148928626
 20
-115.8906044154717
 30
0.0
  0
SEQEND
  5
90
330
8C
100
AcDbEntity
  8
_U+30EC_U+30A4_U+30E4_U+30FC 1
  6
AI-Linetype-1
 62
   154
420
    23468
370
    25
  0
POLYLINE
  5
91
330
1F
100
AcDbEntity
  8
_U+30EC_U+30A4_U+30E4_U+30FC 1
  6
AI-Linetype-2
 62
   154
420
    23468
370
    25
100
AcDb2dPolyline
 66
     1
 10
0.0
 20
0.0
 30
0.0
  0
VERTEX
  5
92
330
91
100
AcDbEntity
  8
_U+30EC_U+30A4_U+30E4_U+30FC 1
  6
AI-Linetype-2
 62
   154
420
    23468
370
    25
100
AcDbVertex
100
AcDb2dVertex
 10
103.7934990186739
 20
-148.8670716294498
 30
0.0
  0
VERTEX
  5
93
330
91
100
AcDbEntity
  8
_U+30EC_U+30A4_U+30E4_U+30FC 1
  6
AI-Linetype-2
 62
   154
420
    23468
370
    25
100
AcDbVertex
100
AcDb2dVertex
 10
118.7934333582159
 20
-148.8670716294498
 30
0.0
  0
SEQEND
  5
95
330
91
100
AcDbEntity
  8
_U+30EC_U+30A4_U+30E4_U+30FC 1
  6
AI-Linetype-2
 62
   154
420
    23468
370
    25
  0
POLYLINE
  5
96
330
1F
100
AcDbEntity
  8
_U+30EC_U+30A4_U+30E4_U+30FC 1
 62
   179
420
  2234388
370
     9
100
AcDb2dPolyline
 66
     1
 10
0.0
 20
0.0
 30
0.0
  0
VERTEX
  5
97
330
96
100
AcDbEntity
  8
_U+30EC_U+30A4_U+30E4_U+30FC 1
 62
   179
420
  2234388
370
     9
100
AcDbVertex
100
AcDb2dVertex
 10
72.78073480987543
 20
-112.6863238607173
 30
0.0
  0
VERTEX
  5
98
330
96
100
AcDbEntity
  8
_U+30EC_U+30A4_U+30E4_U+30FC 1
 62
   179
420
  2234388
370
     9
100
AcDbVertex
100
AcDb2dVertex
 10
97.78110750539612
 20
-112.6863238607173
 30
0.0
  0
SEQEND
  5
99
330
96
100
AcDbEntity
  8
_U+30EC_U+30A4_U+30E4_U+30FC 1
 62
   179
420
  2234388
370
     9
  0
POLYLINE
  5
9A
330
1F
100
AcDbEntity
  8
_U+30EC_U+30A4_U+30E4_U+30FC 1
 62
   179
420
  2234388
370
     9
100
AcDb2dPolyline
 66
     1
 10
0.0
 20
0.0
 30
0.0
  0
VERTEX
  5
9B
330
9A
100
AcDbEntity
  8
_U+30EC_U+30A4_U+30E4_U+30FC 1
 62
   179
420
  2234388
370
     9
100
AcDbVertex
100
AcDb2dVertex
 10
72.78073480987543
 20
-112.6863238607173
 30
0.0
  0
VERTEX
  5
9C
330
9A
100
AcDbEntity
  8
_U+30EC_U+30A4_U+30E4_U+30FC 1
 62
   179
420
  2234388
370
     9
100
AcDbVertex
100
AcDb2dVertex
 10
73.74674617411932
 20
-112.4275966385597
 30
0.0
  0
SEQEND
  5
9D
330
9A
100
AcDbEntity
  8
_U+30EC_U+30A4_U+30E4_U+30FC 1
 62
   179
420
  2234388
370
     9
  0
POLYLINE
  5
9E
330
1F
100
AcDbEntity
  8
_U+30EC_U+30A4_U+30E4_U+30FC 1
 62
   179
420
  2234388
370
     9
100
AcDb2dPolyline
 66
     1
 10
0.0
 20
0.0
 30
0.0
  0
VERTEX
  5
9F
330
9E
100
AcDbEntity
  8
_U+30EC_U+30A4_U+30E4_U+30FC 1
 62
   179
420
  2234388
370
     9
100
AcDbVertex
100
AcDb2dVertex
 10
72.78073480987543
 20
-112.6863238607173
 30
0.0
  0
VERTEX
  5
A0
330
9E
100
AcDbEntity
  8
_U+30EC_U+30A4_U+30E4_U+30FC 1
 62
   179
420
  2234388
370
     9
100
AcDbVertex
100
AcDb2dVertex
 10
73.74674617411932
 20
-112.9454038606526
 30
0.0
  0
SEQEND
  5
A1
330
9E
100
AcDbEntity
  8
_U+30EC_U+30A4_U+30E4_U+30FC 1
 62
   179
420
  2234388
370
     9
  0
POLYLINE
  5
A2
330
1F
100
AcDbEntity
  8
_U+30EC_U+30A4_U+30E4_U+30FC 1
 62
   179
420
  2234388
370
     9
100
AcDb2dPolyline
 66
     1
 10
0.0
 20
0.0
 30
0.0
  0
VERTEX
  5
A3
330
A2
100
AcDbEntity
  8
_U+30EC_U+30A4_U+30E4_U+30FC 1
 62
   179
420
  2234388
370
     9
100
AcDbVertex
100
AcDb2dVertex
 10
107.1531428218511
 20
-148.366832740686
 30
0.0
  0
VERTEX
  5
A4
330
A2
100
AcDbEntity
  8
_U+30EC_U+30A4_U+30E4_U+30FC 1
 62
   179
420
  2234388
370
     9
100
AcDbVertex
100
AcDb2dVertex
 10
107.4115172597039
 20
-147.400821352039
 30
0.0
  0
SEQEND
  5
A5
330
A2
100
AcDbEntity
  8
_U+30EC_U+30A4_U+30E4_U+30FC 1
 62
   179
420
  2234388
370
     9
  0
POLYLINE
  5
A6
330
1F
100
AcDbEntity
  8
_U+30EC_U+30A4_U+30E4_U+30FC 1
 62
   179
420
  2234388
370
     9
100
AcDb2dPolyline
 66
     1
 10
0.0
 20
0.0
 30
0.0
  0
VERTEX
  5
A7
330
A6
100
AcDbEntity
  8
_U+30EC_U+30A4_U+30E4_U+30FC 1
 62
   179
420
  2234388
370
     9
100
AcDbVertex
100
AcDb2dVertex
 10
107.1531428218511
 20
-148.366832740686
 30
0.0
  0
VERTEX
  5
A8
330
A6
100
AcDbEntity
  8
_U+30EC_U+30A4_U+30E4_U+30FC 1
 62
   179
420
  2234388
370
     9
100
AcDbVertex
100
AcDb2dVertex
 10
107.1531428218511
 20
-116.3670660820194
 30
0.0
  0
SEQEND
  5
A9
330
A6
100
AcDbEntity
  8
_U+30EC_U+30A4_U+30E4_U+30FC 1
 62
   179
420
  2234388
370
     9
  0
POLYLINE
  5
AA
330
1F
100
AcDbEntity
  8
_U+30EC_U+30A4_U+30E4_U+30FC 1
 62
   179
420
  2234388
370
     9
100
AcDb2dPolyline
 66
     1
 10
0.0
 20
0.0
 30
0.0
  0
VERTEX
  5
AB
330
AA
100
AcDbEntity
  8
_U+30EC_U+30A4_U+30E4_U+30FC 1
 62
   179
420
  2234388
370
     9
100
AcDbVertex
100
AcDb2dVertex
 10
107.1531428218511
 20
-148.366832740686
 30
0.0
  0
VERTEX
  5
AC
330
AA
100
AcDbEntity
  8
_U+30EC_U+30A4_U+30E4_U+30FC 1
 62
   179
420
  2234388
370
     9
100
AcDbVertex
100
AcDb2dVertex
 10
106.8940628284608
 20
-147.400821352039
 30
0.0
  0
SEQEND
  5
AD
330
AA
100
AcDbEntity
  8
_U+30EC_U+30A4_U+30E4_U+30FC 1
 62
   179
420
  2234388
370
     9
  0
INSERT
  5
AF
330
1F
100
AcDbEntity
  8
_U+30EC_U+30A4_U+30E4_U+30FC 1
100
AcDbBlockReference
  2
block 5
 10
0.0
 20
0.0
 30
0.0
  0
ENDSEC
  0
SECTION
  2
OBJECTS
  0
DICTIONARY
  5
C
330
0
100
AcDbDictionary
281
     1
  3
ACAD_GROUP
350
D
  3
ACAD_LAYOUT
350
1A
  3
ACAD_MATERIAL
350
3B
  3
ACAD_MLEADERSTYLE
350
D7
  3
ACAD_MLINESTYLE
350
17
  3
ACAD_PLOTSETTINGS
350
19
  3
ACAD_PLOTSTYLENAME
350
E
  3
ACAD_TABLESTYLE
350
D6
  3
ACAD_VISUALSTYLE
350
2A
  0
SUN
  5
3F
330
29
100
AcDbSun
 90
        1
290
     0
 63
     7
421
 16777215
 40
1.0
291
     1
 91
  2455826
 92
 54000000
292
     0
 70
     2
 71
   256
280
     1
  0
DICTIONARY
  5
D
102
{ACAD_REACTORS
330
C
102
}
330
C
100
AcDbDictionary
281
     1
  0
DICTIONARY
  5
1A
102
{ACAD_REACTORS
330
C
102
}
330
C
100
AcDbDictionary
281
     1
  3
Layout1
350
1E
  3
Layout2
350
26
  3
Model
350
22
  0
DICTIONARY
  5
3B
102
{ACAD_REACTORS
330
C
102
}
330
C
100
AcDbDictionary
281
     1
  3
ByBlock
350
3D
  3
ByLayer
350
3C
  3
Global
350
3E
  0
DICTIONARY
  5
D7
102
{ACAD_REACTORS
330
C
102
}
330
C
100
AcDbDictionary
281
     1
  0
DICTIONARY
  5
17
102
{ACAD_REACTORS
330
C
102
}
330
C
100
AcDbDictionary
281
     1
  3
Standard
350
18
  0
DICTIONARY
  5
19
102
{ACAD_REACTORS
330
C
102
}
330
C
100
AcDbDictionary
281
     1
  0
ACDBDICTIONARYWDFLT
  5
E
102
{ACAD_REACTORS
330
C
102
}
330
C
100
AcDbDictionary
281
     1
  3
Normal
350
F
100
AcDbDictionaryWithDefault
340
F
  0
DICTIONARY
  5
D6
102
{ACAD_REACTORS
330
C
102
}
330
C
100
AcDbDictionary
281
     1
  0
DICTIONARY
  5
2A
102
{ACAD_REACTORS
330
C
102
}
330
C
100
AcDbDictionary
281
     1
  3
2dWireframe
350
2F
  3
3D Hidden
350
31
  3
3dWireframe
350
30
  3
Basic
350
32
  3
Brighten
350
36
  3
ColorChange
350
3A
  3
Conceptual
350
34
  3
Dim
350
35
  3
Facepattern
350
39
  3
Flat
350
2B
  3
FlatWithEdges
350
2C
  3
Gouraud
350
2D
  3
GouraudWithEdges
350
2E
  3
Linepattern
350
38
  3
Realistic
350
33
  3
Thicken
350
37
  0
LAYOUT
  5
1E
102
{ACAD_REACTORS
330
1A
102
}
330
1A
100
AcDbPlotSettings
  1

  2
none_device
  4

  6

 40
0.0
 41
0.0
 42
0.0
 43
0.0
 44
0.0
 45
0.0
 46
0.0
 47
0.0
 48
0.0
 49
0.0
140
0.0
141
0.0
142
1.0
143
1.0
 70
   688
 72
     0
 73
     0
 74
     5
  7

 75
    16
 76
     0
 77
     2
 78
   300
147
1.0
148
0.0
149
0.0
100
AcDbLayout
  1
Layout1
 70
     1
 71
     1
 10
0.0
 20
0.0
 11
12.0
 21
9.0
 12
0.0
 22
0.0
 32
0.0
 14
1.000000000000000E+20
 24
1.000000000000000E+20
 34
1.000000000000000E+20
 15
-1.000000000000000E+20
 25
-1.000000000000000E+20
 35
-1.000000000000000E+20
146
0.0
 13
0.0
 23
0.0
 33
0.0
 16
1.0
 26
0.0
 36
0.0
 17
0.0
 27
1.0
 37
0.0
 76
     0
330
1B
  0
LAYOUT
  5
26
102
{ACAD_REACTORS
330
1A
102
}
330
1A
100
AcDbPlotSettings
  1

  2
none_device
  4

  6

 40
0.0
 41
0.0
 42
0.0
 43
0.0
 44
0.0
 45
0.0
 46
0.0
 47
0.0
 48
0.0
 49
0.0
140
0.0
141
0.0
142
1.0
143
1.0
 70
   688
 72
     0
 73
     0
 74
     5
  7

 75
    16
 76
     0
 77
     2
 78
   300
147
1.0
148
0.0
149
0.0
100
AcDbLayout
  1
Layout2
 70
     1
 71
     2
 10
0.0
 20
0.0
 11
0.0
 21
0.0
 12
0.0
 22
0.0
 32
0.0
 14
0.0
 24
0.0
 34
0.0
 15
0.0
 25
0.0
 35
0.0
146
0.0
 13
0.0
 23
0.0
 33
0.0
 16
1.0
 26
0.0
 36
0.0
 17
0.0
 27
1.0
 37
0.0
 76
     0
330
23
  0
LAYOUT
  5
22
102
{ACAD_REACTORS
330
1A
102
}
330
1A
100
AcDbPlotSettings
  1

  2
none_device
  4

  6

 40
0.0
 41
0.0
 42
0.0
 43
0.0
 44
0.0
 45
0.0
 46
0.0
 47
0.0
 48
0.0
 49
0.0
140
0.0
141
0.0
142
1.0
143
1.0
 70
  1712
 72
     0
 73
     0
 74
     0
  7

 75
     0
 76
     0
 77
     2
 78
   300
147
1.0
148
0.0
149
0.0
100
AcDbLayout
  1
Model
 70
     1
 71
     0
 10
0.0
 20
0.0
 11
12.0
 21
9.0
 12
0.0
 22
0.0
 32
0.0
 14
1.000000000000000E+20
 24
1.000000000000000E+20
 34
1.000000000000000E+20
 15
-1.000000000000000E+20
 25
-1.000000000000000E+20
 35
-1.000000000000000E+20
146
0.0
 13
0.0
 23
0.0
 33
0.0
 16
1.0
 26
0.0
 36
0.0
 17
0.0
 27
1.0
 37
0.0
 76
     0
330
1F
331
29
  0
MATERIAL
  5
3D
102
{ACAD_REACTORS
330
3B
102
}
330
3B
100
AcDbMaterial
  1
ByBlock
 72
     1
 94
      127
  0
MATERIAL
  5
3C
102
{ACAD_REACTORS
330
3B
102
}
330
3B
100
AcDbMaterial
  1
ByLayer
 72
     1
 94
      127
  0
MATERIAL
  5
3E
102
{ACAD_REACTORS
330
3B
102
}
330
3B
100
AcDbMaterial
  1
Global
 72
     1
 94
      127
  0
MLINESTYLE
  5
18
102
{ACAD_REACTORS
330
17
102
}
330
17
100
AcDbMlineStyle
  2
Standard
 70
     0
  3

 62
   256
 51
90.0
 52
90.0
 71
     2
 49
0.5
 62
   256
  6
BYLAYER
 49
-0.5
 62
   256
  6
BYLAYER
  0
ACDBPLACEHOLDER
  5
F
102
{ACAD_REACTORS
330
E
102
}
330
E
  0
VISUALSTYLE
  5
2F
102
{ACAD_REACTORS
330
2A
102
}
330
2A
100
AcDbVisualStyle
  2
2dWireframe
 70
     4
177
     2
291
     0
 71
     0
176
     1
 72
     2
176
     1
 73
     0
176
     1
 90
        0
176
     1
 40
-0.6
176
     1
 41
-30.0
176
     1
 62
     5
 63
     7
421
 16777215
176
     1
 74
     1
176
     1
 91
        4
176
     1
 64
     7
176
     1
 65
   257
176
     1
 75
     1
176
     1
175
     1
176
     1
 42
1.0
176
     1
 92
        0
176
     1
 66
   257
176
     1
 43
1.0
176
     1
 76
     1
176
     1
 77
     6
176
     1
 78
     2
176
     1
 67
     7
176
     1
 79
     5
176
     1
170
     0
176
     1
171
     0
176
     1
290
     0
176
     1
 93
        1
176
     1
 44
0.0
176
     1
173
     0
176
     1
  0
VISUALSTYLE
  5
31
102
{ACAD_REACTORS
330
2A
102
}
330
2A
100
AcDbVisualStyle
  2
3D Hidden
 70
     6
177
     2
291
     0
 71
     1
176
     1
 72
     2
176
     1
 73
     2
176
     1
 90
        0
176
     1
 40
-0.6
176
     1
 41
-30.0
176
     1
 62
     5
 63
     7
421
 16777215
176
     1
 74
     2
176
     1
 91
        2
176
     1
 64
     7
176
     1
 65
   257
176
     1
 75
     2
176
     1
175
     1
176
     1
 42
40.0
176
     1
 92
        0
176
     1
 66
   257
176
     1
 43
1.0
176
     1
 76
     1
176
     1
 77
     6
176
     1
 78
     2
176
     1
 67
     7
176
     1
 79
     3
176
     1
170
     0
176
     1
171
     0
176
     1
290
     0
176
     1
 93
        1
176
     1
 44
0.0
176
     1
173
     0
176
     1
  0
VISUALSTYLE
  5
30
102
{ACAD_REACTORS
330
2A
102
}
330
2A
100
AcDbVisualStyle
  2
3dWireframe
 70
     5
177
     2
291
     0
 71
     0
176
     1
 72
     2
176
     1
 73
     0
176
     1
 90
        0
176
     1
 40
-0.6
176
     1
 41
-30.0
176
     1
 62
     5
 63
     7
421
 16777215
176
     1
 74
     1
176
     1
 91
        4
176
     1
 64
     7
176
     1
 65
   257
176
     1
 75
     1
176
     1
175
     1
176
     1
 42
1.0
176
     1
 92
        0
176
     1
 66
   257
176
     1
 43
1.0
176
     1
 76
     1
176
     1
 77
     6
176
     1
 78
     2
176
     1
 67
     7
176
     1
 79
     5
176
     1
170
     0
176
     1
171
     0
176
     1
290
     0
176
     1
 93
        1
176
     1
 44
0.0
176
     1
173
     0
176
     1
  0
VISUALSTYLE
  5
32
102
{ACAD_REACTORS
330
2A
102
}
330
2A
100
AcDbVisualStyle
  2
Basic
 70
     7
177
     2
291
     1
 71
     1
176
     1
 72
     0
176
     1
 73
     1
176
     1
 90
        0
176
     1
 40
-0.6
176
     1
 41
-30.0
176
     1
 62
     5
 63
     7
421
 16777215
176
     1
 74
     0
176
     1
 91
        4
176
     1
 64
     7
176
     1
 65
   257
176
     1
 75
     1
176
     1
175
     1
176
     1
 42
1.0
176
     1
 92
        8
176
     1
 66
     7
176
     1
 43
1.0
176
     1
 76
     1
176
     1
 77
     6
176
     1
 78
     2
176
     1
 67
     7
176
     1
 79
     5
176
     1
170
     0
176
     1
171
     0
176
     1
290
     0
176
     1
 93
        1
176
     1
 44
0.0
176
     1
173
     0
176
     1
  0
VISUALSTYLE
  5
36
102
{ACAD_REACTORS
330
2A
102
}
330
2A
100
AcDbVisualStyle
  2
Brighten
 70
    12
177
     2
291
     1
 71
     2
176
     1
 72
     2
176
     1
 73
     0
176
     1
 90
        0
176
     1
 40
-0.6
176
     1
 41
-30.0
176
     1
 62
     5
 63
     7
421
 16777215
176
     1
 74
     1
176
     1
 91
        4
176
     1
 64
     7
176
     1
 65
   257
176
     1
 75
     1
176
     1
175
     1
176
     1
 42
1.0
176
     1
 92
        8
176
     1
 66
     7
176
     1
 43
1.0
176
     1
 76
     1
176
     1
 77
     6
176
     1
 78
     2
176
     1
 67
     7
176
     1
 79
     5
176
     1
170
     0
176
     1
171
     0
176
     1
290
     0
176
     1
 93
        1
176
     1
 44
50.0
176
     1
173
     0
176
     1
  0
VISUALSTYLE
  5
3A
102
{ACAD_REACTORS
330
2A
102
}
330
2A
100
AcDbVisualStyle
  2
ColorChange
 70
    16
177
     2
291
     1
 71
     2
176
     1
 72
     2
176
     1
 73
     3
176
     1
 90
        0
176
     1
 40
-0.6
176
     1
 41
-30.0
176
     1
 62
     5
 63
     8
421
  8421504
176
     1
 74
     1
176
     1
 91
        4
176
     1
 64
     7
176
     1
 65
   257
176
     1
 75
     1
176
     1
175
     1
176
     1
 42
1.0
176
     1
 92
        8
176
     1
 66
     8
424
  8421504
176
     1
 43
1.0
176
     1
 76
     1
176
     1
 77
     6
176
     1
 78
     2
176
     1
 67
     7
176
     1
 79
     5
176
     1
170
     0
176
     1
171
     0
176
     1
290
     0
176
     1
 93
        1
176
     1
 44
0.0
176
     1
173
     0
176
     1
  0
VISUALSTYLE
  5
34
102
{ACAD_REACTORS
330
2A
102
}
330
2A
100
AcDbVisualStyle
  2
Conceptual
 70
     9
177
     2
291
     0
 71
     3
176
     1
 72
     2
176
     1
 73
     0
176
     1
 90
        0
176
     1
 40
-0.6
176
     1
 41
-30.0
176
     1
 62
     5
 63
     7
421
 16777215
176
     1
 74
     2
176
     1
 91
        2
176
     1
 64
     7
176
     1
 65
   257
176
     1
 75
     1
176
     1
175
     1
176
     1
 42
40.0
176
     1
 92
        8
176
     1
 66
     7
176
     1
 43
1.0
176
     1
 76
     1
176
     1
 77
     6
176
     1
 78
     2
176
     1
 67
     7
176
     1
 79
     3
176
     1
170
     0
176
     1
171
     0
176
     1
290
     0
176
     1
 93
        1
176
     1
 44
0.0
176
     1
173
     0
176
     1
  0
VISUALSTYLE
  5
35
102
{ACAD_REACTORS
330
2A
102
}
330
2A
100
AcDbVisualStyle
  2
Dim
 70
    11
177
     2
291
     1
 71
     2
176
     1
 72
     2
176
     1
 73
     0
176
     1
 90
        0
176
     1
 40
-0.6
176
     1
 41
-30.0
176
     1
 62
     5
 63
     7
421
 16777215
176
     1
 74
     1
176
     1
 91
        4
176
     1
 64
     7
176
     1
 65
   257
176
     1
 75
     1
176
     1
175
     1
176
     1
 42
1.0
176
     1
 92
        8
176
     1
 66
     7
176
     1
 43
1.0
176
     1
 76
     1
176
     1
 77
     6
176
     1
 78
     2
176
     1
 67
     7
176
     1
 79
     5
176
     1
170
     0
176
     1
171
     0
176
     1
290
     0
176
     1
 93
        1
176
     1
 44
-50.0
176
     1
173
     0
176
     1
  0
VISUALSTYLE
  5
39
102
{ACAD_REACTORS
330
2A
102
}
330
2A
100
AcDbVisualStyle
  2
Facepattern
 70
    15
177
     2
291
     1
 71
     2
176
     1
 72
     2
176
     1
 73
     0
176
     1
 90
        0
176
     1
 40
-0.6
176
     1
 41
-30.0
176
     1
 62
     5
 63
     7
421
 16777215
176
     1
 74
     1
176
     1
 91
        4
176
     1
 64
     7
176
     1
 65
   257
176
     1
 75
     1
176
     1
175
     1
176
     1
 42
1.0
176
     1
 92
        8
176
     1
 66
     7
176
     1
 43
1.0
176
     1
 76
     1
176
     1
 77
     6
176
     1
 78
     2
176
     1
 67
     7
176
     1
 79
     5
176
     1
170
     0
176
     1
171
     0
176
     1
290
     0
176
     1
 93
        1
176
     1
 44
0.0
176
     1
173
     0
176
     1
  0
VISUALSTYLE
  5
2B
102
{ACAD_REACTORS
330
2A
102
}
330
2A
100
AcDbVisualStyle
  2
Flat
 70
     0
177
     2
291
     1
 71
     2
176
     1
 72
     1
176
     1
 73
     1
176
     1
 90
        2
176
     1
 40
-0.6
176
     1
 41
30.0
176
     1
 62
     5
 63
     7
421
 16777215
176
     1
 74
     0
176
     1
 91
        4
176
     1
 64
     7
176
     1
 65
   257
176
     1
 75
     1
176
     1
175
     1
176
     1
 42
1.0
176
     1
 92
        8
176
     1
 66
     7
176
     1
 43
1.0
176
     1
 76
     1
176
     1
 77
     6
176
     1
 78
     2
176
     1
 67
     7
176
     1
 79
     5
176
     1
170
     0
176
     1
171
     0
176
     1
290
     0
176
     1
 93
       13
176
     1
 44
0.0
176
     1
173
     0
176
     1
  0
VISUALSTYLE
  5
2C
102
{ACAD_REACTORS
330
2A
102
}
330
2A
100
AcDbVisualStyle
  2
FlatWithEdges
 70
     1
177
     2
291
     1
 71
     2
176
     1
 72
     1
176
     1
 73
     1
176
     1
 90
        2
176
     1
 40
-0.6
176
     1
 41
30.0
176
     1
 62
     5
 63
     7
421
 16777215
176
     1
 74
     1
176
     1
 91
        4
176
     1
 64
     7
176
     1
 65
   257
176
     1
 75
     1
176
     1
175
     1
176
     1
 42
1.0
176
     1
 92
        0
176
     1
 66
   257
176
     1
 43
1.0
176
     1
 76
     1
176
     1
 77
     6
176
     1
 78
     2
176
     1
 67
     7
176
     1
 79
     5
176
     1
170
     0
176
     1
171
     0
176
     1
290
     0
176
     1
 93
       13
176
     1
 44
0.0
176
     1
173
     0
176
     1
  0
VISUALSTYLE
  5
2D
102
{ACAD_REACTORS
330
2A
102
}
330
2A
100
AcDbVisualStyle
  2
Gouraud
 70
     2
177
     2
291
     1
 71
     2
176
     1
 72
     2
176
     1
 73
     1
176
     1
 90
        2
176
     1
 40
-0.6
176
     1
 41
30.0
176
     1
 62
     5
 63
     7
421
 16777215
176
     1
 74
     0
176
     1
 91
        4
176
     1
 64
     7
176
     1
 65
   257
176
     1
 75
     1
176
     1
175
     1
176
     1
 42
1.0
176
     1
 92
        0
176
     1
 66
     7
176
     1
 43
1.0
176
     1
 76
     1
176
     1
 77
     6
176
     1
 78
     2
176
     1
 67
     7
176
     1
 79
     5
176
     1
170
     0
176
     1
171
     0
176
     1
290
     0
176
     1
 93
       13
176
     1
 44
0.0
176
     1
173
     0
176
     1
  0
VISUALSTYLE
  5
2E
102
{ACAD_REACTORS
330
2A
102
}
330
2A
100
AcDbVisualStyle
  2
GouraudWithEdges
 70
     3
177
     2
291
     1
 71
     2
176
     1
 72
     2
176
     1
 73
     1
176
     1
 90
        2
176
     1
 40
-0.6
176
     1
 41
30.0
176
     1
 62
     5
 63
     7
421
 16777215
176
     1
 74
     1
176
     1
 91
        4
176
     1
 64
     7
176
     1
 65
   257
176
     1
 75
     1
176
     1
175
     1
176
     1
 42
1.0
176
     1
 92
        0
176
     1
 66
   257
176
     1
 43
1.0
176
     1
 76
     1
176
     1
 77
     6
176
     1
 78
     2
176
     1
 67
     7
176
     1
 79
     5
176
     1
170
     0
176
     1
171
     0
176
     1
290
     0
176
     1
 93
       13
176
     1
 44
0.0
176
     1
173
     0
176
     1
  0
VISUALSTYLE
  5
38
102
{ACAD_REACTORS
330
2A
102
}
330
2A
100
AcDbVisualStyle
  2
Linepattern
 70
    14
177
     2
291
     1
 71
     2
176
     1
 72
     2
176
     1
 73
     0
176
     1
 90
        0
176
     1
 40
-0.6
176
     1
 41
-30.0
176
     1
 62
     5
 63
     7
421
 16777215
176
     1
 74
     1
176
     1
 91
        4
176
     1
 64
     7
176
     1
 65
   257
176
     1
 75
     7
176
     1
175
     7
176
     1
 42
1.0
176
     1
 92
        8
176
     1
 66
     7
176
     1
 43
1.0
176
     1
 76
     1
176
     1
 77
     6
176
     1
 78
     2
176
     1
 67
     7
176
     1
 79
     5
176
     1
170
     0
176
     1
171
     0
176
     1
290
     0
176
     1
 93
        1
176
     1
 44
0.0
176
     1
173
     0
176
     1
  0
VISUALSTYLE
  5
33
102
{ACAD_REACTORS
330
2A
102
}
330
2A
100
AcDbVisualStyle
  2
Realistic
 70
     8
177
     2
291
     0
 71
     2
176
     1
 72
     2
176
     1
 73
     0
176
     1
 90
        0
176
     1
 40
-0.6
176
     1
 41
-30.0
176
     1
 62
     5
 63
     7
421
 16777215
176
     1
 74
     1
176
     1
 91
        0
176
     1
 64
     7
176
     1
 65
   257
176
     1
 75
     1
176
     1
175
     1
176
     1
 42
1.0
176
     1
 92
        8
176
     1
 66
     8
424
  7895160
176
     1
 43
1.0
176
     1
 76
     1
176
     1
 77
     6
176
     1
 78
     2
176
     1
 67
     7
176
     1
 79
     5
176
     1
170
     0
176
     1
171
     0
176
     1
290
     0
176
     1
 93
       13
176
     1
 44
0.0
176
     1
173
     0
176
     1
  0
VISUALSTYLE
  5
37
102
{ACAD_REACTORS
330
2A
102
}
330
2A
100
AcDbVisualStyle
  2
Thicken
 70
    13
177
     2
291
     1
 71
     2
176
     1
 72
     2
176
     1
 73
     0
176
     1
 90
        0
176
     1
 40
-0.6
176
     1
 41
-30.0
176
     1
 62
     5
 63
     7
421
 16777215
176
     1
 74
     1
176
     1
 91
        4
176
     1
 64
     7
176
     1
 65
   257
176
     1
 75
     1
176
     1
175
     1
176
     1
 42
1.0
176
     1
 92
       12
176
     1
 66
     7
176
     1
 43
1.0
176
     1
 76
     1
176
     1
 77
     6
176
     1
 78
     2
176
     1
 67
     7
176
     1
 79
     5
176
     1
170
     0
176
     1
171
     0
176
     1
290
     0
176
     1
 93
        1
176
     1
 44
0.0
176
     1
173
     0
176
     1
  0
ENDSEC
  0
EOF
