  0
SECTION
  2
HEADER
  9
$ACADVER
  1
AC1024
  9
$ACADMAINTVER
 70
     6
  9
$DWGCODEPAGE
  3
UNDEFINED
  9
$INSBASE
 10
0.0
 20
0.0
 30
0.0
  9
$EXTMIN
 10
1.000000000000000E+20
 20
1.000000000000000E+20
 30
1.000000000000000E+20
  9
$EXTMAX
 10
-1.000000000000000E+20
 20
-1.000000000000000E+20
 30
-1.000000000000000E+20
  9
$LIMMIN
 10
0.0
 20
0.0
  9
$LIMMAX
 10
12.0
 20
9.0
  9
$ORTHOMODE
 70
     0
  9
$REGENMODE
 70
     1
  9
$FILLMODE
 70
     1
  9
$QTEXTMODE
 70
     0
  9
$MIRRTEXT
 70
     1
  9
$LTSCALE
 40
1.0
  9
$ATTMODE
 70
     1
  9
$TEXTSIZE
 40
0.2
  9
$TRACEWID
 40
0.05
  9
$TEXTSTYLE
  7
Standard
  9
$CLAYER
  8
0
  9
$CELTYPE
  6
ByLayer
  9
$CECOLOR
 62
   256
  9
$CELTSCALE
 40
1.0
  9
$DISPSILH
 70
     0
  9
$DIMSCALE
 40
1.0
  9
$DIMASZ
 40
0.18
  9
$DIMEXO
 40
0.0625
  9
$DIMDLI
 40
0.38
  9
$DIMRND
 40
0.0
  9
$DIMDLE
 40
0.0
  9
$DIMEXE
 40
0.18
  9
$DIMTP
 40
0.0
  9
$DIMTM
 40
0.0
  9
$DIMTXT
 40
0.18
  9
$DIMCEN
 40
0.09
  9
$DIMTSZ
 40
0.0
  9
$DIMTOL
 70
     0
  9
$DIMLIM
 70
     0
  9
$DIMTIH
 70
     1
  9
$DIMTOH
 70
     1
  9
$DIMSE1
 70
     0
  9
$DIMSE2
 70
     0
  9
$DIMTAD
 70
     0
  9
$DIMZIN
 70
     0
  9
$DIMBLK
  1

  9
$DIMASO
 70
     1
  9
$DIMSHO
 70
     1
  9
$DIMPOST
  1

  9
$DIMAPOST
  1

  9
$DIMALT
 70
     0
  9
$DIMALTD
 70
     2
  9
$DIMALTF
 40
25.4
  9
$DIMLFAC
 40
1.0
  9
$DIMTOFL
 70
     0
  9
$DIMTVP
 40
0.0
  9
$DIMTIX
 70
     0
  9
$DIMSOXD
 70
     0
  9
$DIMSAH
 70
     0
  9
$DIMBLK1
  1

  9
$DIMBLK2
  1

  9
$DIMSTYLE
  2
Standard
  9
$DIMCLRD
 70
     0
  9
$DIMCLRE
 70
     0
  9
$DIMCLRT
 70
     0
  9
$DIMTFAC
 40
1.0
  9
$DIMGAP
 40
0.09
  9
$DIMJUST
 70
     0
  9
$DIMSD1
 70
     0
  9
$DIMSD2
 70
     0
  9
$DIMTOLJ
 70
     1
  9
$DIMTZIN
 70
     0
  9
$DIMALTZ
 70
     0
  9
$DIMALTTZ
 70
     0
  9
$DIMUPT
 70
     0
  9
$DIMDEC
 70
     4
  9
$DIMTDEC
 70
     4
  9
$DIMALTU
 70
     2
  9
$DIMALTTD
 70
     2
  9
$DIMTXSTY
  7
Standard
  9
$DIMAUNIT
 70
     0
  9
$DIMADEC
 70
     0
  9
$DIMALTRND
 40
0.0
  9
$DIMAZIN
 70
     0
  9
$DIMDSEP
 70
    46
  9
$DIMATFIT
 70
     3
  9
$DIMFRAC
 70
     0
  9
$DIMLDRBLK
  1

  9
$DIMLUNIT
 70
     2
  9
$DIMLWD
 70
    -2
  9
$DIMLWE
 70
    -2
  9
$DIMTMOVE
 70
     0
  9
$DIMFXL
 40
1.0
  9
$DIMFXLON
 70
     0
  9
$DIMJOGANG
 40
0.7853981633974483
  9
$DIMTFILL
 70
     0
  9
$DIMTFILLCLR
 70
     0
  9
$DIMARCSYM
 70
     0
  9
$DIMLTYPE
  6

  9
$DIMLTEX1
  6

  9
$DIMLTEX2
  6

  9
$DIMTXTDIRECTION
 70
     0
  9
$LUNITS
 70
     2
  9
$LUPREC
 70
     4
  9
$SKETCHINC
 40
0.1
  9
$FILLETRAD
 40
0.5
  9
$AUNITS
 70
     0
  9
$AUPREC
 70
     0
  9
$MENU
  1
.
  9
$ELEVATION
 40
0.0
  9
$PELEVATION
 40
0.0
  9
$THICKNESS
 40
0.0
  9
$LIMCHECK
 70
     0
  9
$CHAMFERA
 40
0.5
  9
$CHAMFERB
 40
0.5
  9
$CHAMFERC
 40
1.0
  9
$CHAMFERD
 40
0.0
  9
$SKPOLY
 70
     0
  9
$TDCREATE
 40
2457917.585196748
  9
$TDUCREATE
 40
2457917.210196759
  9
$TDUPDATE
 40
2457917.585196748
  9
$TDUUPDATE
 40
2457917.210196759
  9
$TDINDWG
 40
0.0000000116
  9
$TDUSRTIMER
 40
0.0000000116
  9
$USRTIMER
 70
     1
  9
$ANGBASE
 50
0.0
  9
$ANGDIR
 70
     0
  9
$PDMODE
 70
     0
  9
$PDSIZE
 40
0.0
  9
$PLINEWID
 40
0.0
  9
$SPLFRAME
 70
     0
  9
$SPLINETYPE
 70
     6
  9
$SPLINESEGS
 70
     8
  9
$HANDSEED
  5
D8
  9
$SURFTAB1
 70
     6
  9
$SURFTAB2
 70
     6
  9
$SURFTYPE
 70
     6
  9
$SURFU
 70
     6
  9
$SURFV
 70
     6
  9
$UCSBASE
  2

  9
$UCSNAME
  2

  9
$UCSORG
 10
0.0
 20
0.0
 30
0.0
  9
$UCSXDIR
 10
1.0
 20
0.0
 30
0.0
  9
$UCSYDIR
 10
0.0
 20
1.0
 30
0.0
  9
$UCSORTHOREF
  2

  9
$UCSORTHOVIEW
 70
     0
  9
$UCSORGTOP
 10
0.0
 20
0.0
 30
0.0
  9
$UCSORGBOTTOM
 10
0.0
 20
0.0
 30
0.0
  9
$UCSORGLEFT
 10
0.0
 20
0.0
 30
0.0
  9
$UCSORGRIGHT
 10
0.0
 20
0.0
 30
0.0
  9
$UCSORGFRONT
 10
0.0
 20
0.0
 30
0.0
  9
$UCSORGBACK
 10
0.0
 20
0.0
 30
0.0
  9
$PUCSBASE
  2

  9
$PUCSNAME
  2

  9
$PUCSORG
 10
0.0
 20
0.0
 30
0.0
  9
$PUCSXDIR
 10
1.0
 20
0.0
 30
0.0
  9
$PUCSYDIR
 10
0.0
 20
1.0
 30
0.0
  9
$PUCSORTHOREF
  2

  9
$PUCSORTHOVIEW
 70
     0
  9
$PUCSORGTOP
 10
0.0
 20
0.0
 30
0.0
  9
$PUCSORGBOTTOM
 10
0.0
 20
0.0
 30
0.0
  9
$PUCSORGLEFT
 10
0.0
 20
0.0
 30
0.0
  9
$PUCSORGRIGHT
 10
0.0
 20
0.0
 30
0.0
  9
$PUCSORGFRONT
 10
0.0
 20
0.0
 30
0.0
  9
$PUCSORGBACK
 10
0.0
 20
0.0
 30
0.0
  9
$USERI1
 70
     0
  9
$USERI2
 70
     0
  9
$USERI3
 70
     0
  9
$USERI4
 70
     0
  9
$USERI5
 70
     0
  9
$USERR1
 40
0.0
  9
$USERR2
 40
0.0
  9
$USERR3
 40
0.0
  9
$USERR4
 40
0.0
  9
$USERR5
 40
0.0
  9
$WORLDVIEW
 70
     1
  9
$SHADEDGE
 70
     3
  9
$SHADEDIF
 70
    70
  9
$TILEMODE
 70
     1
  9
$MAXACTVP
 70
    64
  9
$PINSBASE
 10
0.0
 20
0.0
 30
0.0
  9
$PLIMCHECK
 70
     0
  9
$PEXTMIN
 10
1.000000000000000E+20
 20
1.000000000000000E+20
 30
1.000000000000000E+20
  9
$PEXTMAX
 10
-1.000000000000000E+20
 20
-1.000000000000000E+20
 30
-1.000000000000000E+20
  9
$PLIMMIN
 10
0.0
 20
0.0
  9
$PLIMMAX
 10
12.0
 20
9.0
  9
$UNITMODE
 70
     0
  9
$VISRETAIN
 70
     1
  9
$PLINEGEN
 70
     0
  9
$PSLTSCALE
 70
     1
  9
$TREEDEPTH
 70
  3020
  9
$CMLSTYLE
  2
Standard
  9
$CMLJUST
 70
     0
  9
$CMLSCALE
 40
1.0
  9
$PROXYGRAPHICS
 70
     1
  9
$MEASUREMENT
 70
     0
  9
$CELWEIGHT
370
    -1
  9
$ENDCAPS
280
     0
  9
$JOINSTYLE
280
     0
  9
$LWDISPLAY
290
     1
  9
$INSUNITS
 70
     1
  9
$HYPERLINKBASE
  1

  9
$STYLESHEET
  1

  9
$XEDIT
290
     1
  9
$CEPSNTYPE
380
     0
  9
$PSTYLEMODE
290
     1
  9
$FINGERPRINTGUID
  2
{F2604EF5-44AB-9A19-A59F-2F4946CCA104}
  9
$VERSIONGUID
  2
{FAEB1C32-E019-11D5-929B-00C0DF256EC4}
  9
$EXTNAMES
290
     1
  9
$PSVPSCALE
 40
0.0
  9
$OLESTARTUP
290
     0
  9
$SORTENTS
280
   127
  9
$INDEXCTL
280
     0
  9
$HIDETEXT
280
     1
  9
$XCLIPFRAME
280
     2
  9
$HALOGAP
280
     0
  9
$OBSCOLOR
 70
   257
  9
$OBSLTYPE
280
     0
  9
$INTERSECTIONDISPLAY
280
     0
  9
$INTERSECTIONCOLOR
 70
   257
  9
$DIMASSOC
280
     2
  9
$PROJECTNAME
  1

  9
$CAMERADISPLAY
290
     0
  9
$LENSLENGTH
 40
50.0
  9
$CAMERAHEIGHT
 40
0.0
  9
$STEPSPERSEC
 40
2.0
  9
$STEPSIZE
 40
6.0
  9
$3DDWFPREC
 40
2.0
  9
$PSOLWIDTH
 40
0.25
  9
$PSOLHEIGHT
 40
4.0
  9
$LOFTANG1
 40
1.570796326794897
  9
$LOFTANG2
 40
1.570796326794897
  9
$LOFTMAG1
 40
0.0
  9
$LOFTMAG2
 40
0.0
  9
$LOFTPARAM
 70
     7
  9
$LOFTNORMALS
280
     1
  9
$LATITUDE
 40
37.795
  9
$LONGITUDE
 40
-122.394
  9
$NORTHDIRECTION
 40
0.0
  9
$TIMEZONE
 70
 -8000
  9
$LIGHTGLYPHDISPLAY
280
     1
  9
$TILEMODELIGHTSYNCH
280
     1
  9
$CMATERIAL
347
3C
  9
$SOLIDHIST
280
     1
  9
$SHOWHIST
280
     1
  9
$DWFFRAME
280
     2
  9
$DGNFRAME
280
     2
  9
$REALWORLDSCALE
290
     1
  9
$INTERFERECOLOR
 62
   256
  9
$CSHADOW
280
     0
  9
$SHADOWPLANELOCATION
 40
0.0
  0
ENDSEC
  0
SECTION
  2
CLASSES
  0
CLASS
  1
ACDBDICTIONARYWDFLT
  2
AcDbDictionaryWithDefault
  3
ObjectDBX Classes
 90
        0
 91
        4
280
     0
281
     0
  0
CLASS
  1
VISUALSTYLE
  2
AcDbVisualStyle
  3
ObjectDBX Classes
 90
     4095
 91
        4
280
     0
281
     0
  0
CLASS
  1
MATERIAL
  2
AcDbMaterial
  3
ObjectDBX Classes
 90
     1153
 91
        4
280
     0
281
     0
  0
CLASS
  1
SUN
  2
AcDbSun
  3
SCENEOE
 90
     1024
 91
        4
280
     0
281
     0
  0
ENDSEC
  0
SECTION
  2
TABLES
  0
TABLE
  2
VPORT
  5
8
330
0
100
AcDbSymbolTable
 70
     1
  0
VPORT
  5
29
330
8
100
AcDbSymbolTableRecord
100
AcDbViewportTableRecord
  2
*Active
 70
     0
 10
0.0
 20
0.0
 11
1.0
 21
1.0
 12
0.0
 22
0.0
 13
0.0
 23
0.0
 14
0.5
 24
0.5
 15
0.5
 25
0.5
 16
0.0
 26
0.0
 36
1.0
 17
91.00082462281999
 27
-128.4993055234307
 37
0.0
 40
256.9986110468615
 41
0.7081814508812795
 42
50.0
 43
0.0
 44
0.0
 50
0.0
 51
0.0
 71
     0
 72
   100
 73
     1
 74
     3
 75
     0
 76
     0
 77
     0
 78
     0
281
     0
 65
     1
110
0.0
120
0.0
130
0.0
111
1.0
121
0.0
131
0.0
112
0.0
122
1.0
132
0.0
 79
     0
146
0.0
 60
     3
 61
     5
292
     1
282
     1
141
0.0
142
0.0
 63
   250
361
3F
  0
ENDTAB
  0
TABLE
  2
LTYPE
  5
5
330
0
100
AcDbSymbolTable
 70
     3
  0
LTYPE
  5
14
330
5
100
AcDbSymbolTableRecord
100
AcDbLinetypeTableRecord
  2
ByBlock
 70
     0
  3

 72
    65
 73
     0
 40
0.0
  0
LTYPE
  5
15
330
5
100
AcDbSymbolTableRecord
100
AcDbLinetypeTableRecord
  2
ByLayer
 70
     0
  3

 72
    65
 73
     0
 40
0.0
  0
LTYPE
  5
16
330
5
100
AcDbSymbolTableRecord
100
AcDbLinetypeTableRecord
  2
Continuous
 70
     0
  3
Solid line
 72
    65
 73
     0
 40
0.0
  0
LTYPE
  5
CE
330
5
100
AcDbSymbolTableRecord
100
AcDbLinetypeTableRecord
  2
AI-Linetype-1
 70
     0
  3
Adobe Illustrator Linetype No. 1
 72
    65
 73
     2
 40
1.411111110758333
 49
0.7055555553791667
 74
     0
 49
-0.7055555553791667
 74
     0
  0
LTYPE
  5
D4
330
5
100
AcDbSymbolTableRecord
100
AcDbLinetypeTableRecord
  2
AI-Linetype-2
 70
     0
  3
Adobe Illustrator Linetype No. 2
 72
    65
 73
     2
 40
1.411111110758333
 49
0.7055555553791667
 74
     0
 49
-0.7055555553791667
 74
     0
  0
ENDTAB
  0
TABLE
  2
LAYER
  5
2
330
0
100
AcDbSymbolTable
 70
     2
  0
LAYER
  5
10
330
2
100
AcDbSymbolTableRecord
100
AcDbLayerTableRecord
  2
0
 70
     0
 62
     7
  6
Continuous
370
    -3
390
F
347
3E
  0
LAYER
  5
40
330
2
100
AcDbSymbolTableRecord
100
AcDbLayerTableRecord
  2
_U+30EC_U+30A4_U+30E4_U+30FC 1
 70
     0
 62
     7
  6
Continuous
370
    -3
390
F
347
3E
  0
ENDTAB
  0
TABLE
  2
STYLE
  5
3
330
0
100
AcDbSymbolTable
 70
     1
  0
STYLE
  5
11
330
3
100
AcDbSymbolTableRecord
100
AcDbTextStyleTableRecord
  2
Standard
 70
     0
 40
0.0
 41
1.0
 50
0.0
 71
     0
 42
0.2
  3
txt
  4

  0
ENDTAB
  0
TABLE
  2
VIEW
  5
6
330
0
100
AcDbSymbolTable
 70
     0
  0
ENDTAB
  0
TABLE
  2
UCS
  5
7
330
0
100
AcDbSymbolTable
 70
     0
  0
ENDTAB
  0
TABLE
  2
APPID
  5
9
330
0
100
AcDbSymbolTable
 70
     1
  0
APPID
  5
12
330
9
100
AcDbSymbolTableRecord
100
AcDbRegAppTableRecord
  2
ACAD
 70
     0
  0
ENDTAB
  0
TABLE
  2
DIMSTYLE
  5
A
330
0
100
AcDbSymbolTable
 70
     1
100
AcDbDimStyleTable
  0
DIMSTYLE
105
27
330
A
100
AcDbSymbolTableRecord
100
AcDbDimStyleTableRecord
  2
Standard
 70
     0
178
     0
340
11
  0
ENDTAB
  0
TABLE
  2
BLOCK_RECORD
  5
1
330
0
100
AcDbSymbolTable
 70
     5
  0
BLOCK_RECORD
  5
1F
330
1
100
AcDbSymbolTableRecord
100
AcDbBlockTableRecord
  2
*Model_Space
340
22
 70
     0
280
     1
281
     0
  0
BLOCK_RECORD
  5
1B
330
1
100
AcDbSymbolTableRecord
100
AcDbBlockTableRecord
  2
*Paper_Space
340
1E
 70
     0
280
     1
281
     0
  0
BLOCK_RECORD
  5
23
330
1
100
AcDbSymbolTableRecord
100
AcDbBlockTableRecord
  2
*Paper_Space0
340
26
 70
     0
280
     1
281
     0
  0
BLOCK_RECORD
  5
41
330
1
100
AcDbSymbolTableRecord
100
AcDbBlockTableRecord
  2
block 2
340
0
102
{BLKREFS
331
42
102
}
 70
     0
280
     1
281
     0
  0
BLOCK_RECORD
  5
72
330
1
100
AcDbSymbolTableRecord
100
AcDbBlockTableRecord
  2
block 3
340
0
102
{BLKREFS
331
73
102
}
 70
     0
280
     1
281
     0
  0
BLOCK_RECORD
  5
81
330
1
100
AcDbSymbolTableRecord
100
AcDbBlockTableRecord
  2
block 4
340
0
102
{BLKREFS
331
82
102
}
 70
     0
280
     1
281
     0
  0
BLOCK_RECORD
  5
8D
330
1
100
AcDbSymbolTableRecord
100
AcDbBlockTableRecord
  2
block 5
340
0
102
{BLKREFS
331
8E
102
}
 70
     0
280
     1
281
     0
  0
ENDTAB
  0
ENDSEC
  0
SECTION
  2
BLOCKS
  0
BLOCK
  5
20
330
1F
100
AcDbEntity
  8
0
100
AcDbBlockBegin
  2
*Model_Space
 70
     0
 10
0.0
 20
0.0
 30
0.0
  3
*Model_Space
  1

  0
ENDBLK
  5
21
330
1F
100
AcDbEntity
  8
0
100
AcDbBlockEnd
  0
BLOCK
  5
1C
330
1B
100
AcDbEntity
 67
     1
  8
0
100
AcDbBlockBegin
  2
*Paper_Space
 70
     0
 10
0.0
 20
0.0
 30
0.0
  3
*Paper_Space
  1

  0
ENDBLK
  5
1D
330
1B
100
AcDbEntity
 67
     1
  8
0
100
AcDbBlockEnd
  0
BLOCK
  5
24
330
23
100
AcDbEntity
  8
0
100
AcDbBlockBegin
  2
*Paper_Space0
 70
     0
 10
0.0
 20
0.0
 30
0.0
  3
*Paper_Space0
  1

  0
ENDBLK
  5
25
330
23
100
AcDbEntity
  8
0
100
AcDbBlockEnd
  0
BLOCK
  5
43
330
41
100
AcDbEntity
  8
0
100
AcDbBlockBegin
  2
block 2
 70
     0
 10
0.0
 20
0.0
 30
0.0
  3
block 2
  1

  0
SPLINE
  5
45
330
41
100
AcDbEntity
  8
_U+30EC_U+30A4_U+30E4_U+30FC 1
 62
     7
420
 16777215
370
     9
100
AcDbSpline
210
0.0
220
0.0
230
1.0
 70
    11
 71
     3
 72
    17
 73
    13
 74
     0
 42
0.0000000001
 43
0.0000000001
 12
1.0
 22
0.0
 32
0.0
 13
1.0
 23
0.0
 33
0.0
 40
0.0
 40
0.0
 40
0.0
 40
0.0
 40
1.0
 40
1.0
 40
1.0
 40
2.0
 40
2.0
 40
2.0
 40
3.0
 40
3.0
 40
3.0
 40
4.0
 40
4.0
 40
4.0
 40
4.0
 10
100.3576904952176
 20
-131.1337794116611
 30
0.0
 10
100.3576904952176
 20
-131.0782874672303
 30
0.0
 10
100.3129229963597
 20
-131.0335199672417
 30
0.0
 10
100.2577838310997
 20
-131.0335199672417
 30
0.0
 10
100.2026799436167
 20
-131.0335199672417
 30
0.0
 10
100.1578771669819
 20
-131.0782874672303
 30
0.0
 10
100.1578771669819
 20
-131.1337794116611
 30
0.0
 10
100.1578771669819
 20
-131.188883300536
 30
0.0
 10
100.2026799436167
 20
-131.2336860783028
 30
0.0
 10
100.2577838310997
 20
-131.2336860783028
 30
0.0
 10
100.3129229963597
 20
-131.2336860783028
 30
0.0
 10
100.3576904952176
 20
-131.188883300536
 30
0.0
 10
100.3576904952176
 20
-131.1337794116611
 30
0.0
  0
SPLINE
  5
46
330
41
100
AcDbEntity
  8
_U+30EC_U+30A4_U+30E4_U+30FC 1
 62
     7
420
 16777215
370
     9
100
AcDbSpline
210
0.0
220
0.0
230
1.0
 70
    11
 71
     3
 72
    17
 73
    13
 74
     0
 42
0.0000000001
 43
0.0000000001
 12
1.0
 22
0.0
 32
0.0
 13
1.0
 23
0.0
 33
0.0
 40
0.0
 40
0.0
 40
0.0
 40
0.0
 40
1.0
 40
1.0
 40
1.0
 40
2.0
 40
2.0
 40
2.0
 40
3.0
 40
3.0
 40
3.0
 40
4.0
 40
4.0
 40
4.0
 40
4.0
 10
75.35802335523444
 20
-131.1337794116611
 30
0.0
 10
75.35802335523444
 20
-131.0782874672303
 30
0.0
 10
75.31322057859967
 20
-131.0335199672417
 30
0.0
 10
75.25776391334782
 20
-131.0335199672417
 30
0.0
 10
75.20266002586474
 20
-131.0335199672417
 30
0.0
 10
75.15785724922999
 20
-131.0782874672303
 30
0.0
 10
75.15785724922999
 20
-131.1337794116611
 30
0.0
 10
75.15785724922999
 20
-131.188883300536
 30
0.0
 10
75.20266002586474
 20
-131.2336860783028
 30
0.0
 10
75.25776391334782
 20
-131.2336860783028
 30
0.0
 10
75.31322057859967
 20
-131.2336860783028
 30
0.0
 10
75.35802335523444
 20
-131.188883300536
 30
0.0
 10
75.35802335523444
 20
-131.1337794116611
 30
0.0
  0
POLYLINE
  5
47
330
41
100
AcDbEntity
  8
_U+30EC_U+30A4_U+30E4_U+30FC 1
 62
     7
420
 16777215
370
     9
100
AcDb2dPolyline
 66
     1
 10
0.0
 20
0.0
 30
0.0
  0
VERTEX
  5
48
330
47
100
AcDbEntity
  8
_U+30EC_U+30A4_U+30E4_U+30FC 1
 62
     7
420
 16777215
370
     9
100
AcDbVertex
100
AcDb2dVertex
 10
75.25776391334782
 20
-131.1337794116611
 30
0.0
  0
VERTEX
  5
49
330
47
100
AcDbEntity
  8
_U+30EC_U+30A4_U+30E4_U+30FC 1
 62
     7
420
 16777215
370
     9
100
AcDbVertex
100
AcDb2dVertex
 10
100.2577838310997
 20
-131.1337794116611
 30
0.0
  0
SEQEND
  5
4A
330
47
100
AcDbEntity
  8
_U+30EC_U+30A4_U+30E4_U+30FC 1
 62
     7
420
 16777215
370
     9
  0
POLYLINE
  5
4B
330
41
100
AcDbEntity
  8
_U+30EC_U+30A4_U+30E4_U+30FC 1
 62
     7
420
 16777215
370
    25
100
AcDb2dPolyline
 66
     1
 10
0.0
 20
0.0
 30
0.0
  0
VERTEX
  5
4C
330
4B
100
AcDbEntity
  8
_U+30EC_U+30A4_U+30E4_U+30FC 1
 62
     7
420
 16777215
370
    25
100
AcDbVertex
100
AcDb2dVertex
 10
100.2577838310997
 20
-126.1335424684665
 30
0.0
  0
VERTEX
  5
4D
330
4B
100
AcDbEntity
  8
_U+30EC_U+30A4_U+30E4_U+30FC 1
 62
     7
420
 16777215
370
    25
100
AcDbVertex
100
AcDb2dVertex
 10
100.2577838310997
 20
-126.6337813572305
 30
0.0
  0
SEQEND
  5
4E
330
4B
100
AcDbEntity
  8
_U+30EC_U+30A4_U+30E4_U+30FC 1
 62
     7
420
 16777215
370
    25
  0
POLYLINE
  5
4F
330
41
100
AcDbEntity
  8
_U+30EC_U+30A4_U+30E4_U+30FC 1
 62
     7
420
 16777215
370
    25
100
AcDb2dPolyline
 66
     1
 10
0.0
 20
0.0
 30
0.0
  0
VERTEX
  5
50
330
4F
100
AcDbEntity
  8
_U+30EC_U+30A4_U+30E4_U+30FC 1
 62
     7
420
 16777215
370
    25
100
AcDbVertex
100
AcDb2dVertex
 10
76.25788888783251
 20
-126.1335424684665
 30
0.0
  0
VERTEX
  5
51
330
4F
100
AcDbEntity
  8
_U+30EC_U+30A4_U+30E4_U+30FC 1
 62
     7
420
 16777215
370
    25
100
AcDbVertex
100
AcDb2dVertex
 10
100.2577838310997
 20
-126.1335424684665
 30
0.0
  0
SEQEND
  5
52
330
4F
100
AcDbEntity
  8
_U+30EC_U+30A4_U+30E4_U+30FC 1
 62
     7
420
 16777215
370
    25
  0
POLYLINE
  5
53
330
41
100
AcDbEntity
  8
_U+30EC_U+30A4_U+30E4_U+30FC 1
 62
     7
420
 16777215
370
    25
100
AcDb2dPolyline
 66
     1
 10
0.0
 20
0.0
 30
0.0
  0
VERTEX
  5
54
330
53
100
AcDbEntity
  8
_U+30EC_U+30A4_U+30E4_U+30FC 1
 62
     7
420
 16777215
370
    25
100
AcDbVertex
100
AcDb2dVertex
 10
100.2577838310997
 20
-126.6337813572305
 30
0.0
  0
VERTEX
  5
55
330
53
100
AcDbEntity
  8
_U+30EC_U+30A4_U+30E4_U+30FC 1
 62
     7
420
 16777215
370
    25
100
AcDbVertex
100
AcDb2dVertex
 10
76.07458555917563
 20
-127.1333146904391
 30
0.0
  0
SEQEND
  5
56
330
53
100
AcDbEntity
  8
_U+30EC_U+30A4_U+30E4_U+30FC 1
 62
     7
420
 16777215
370
    25
  0
POLYLINE
  5
57
330
41
100
AcDbEntity
  8
_U+30EC_U+30A4_U+30E4_U+30FC 1
 62
     7
420
 16777215
370
    25
100
AcDb2dPolyline
 66
     1
 10
0.0
 20
0.0
 30
0.0
  0
VERTEX
  5
58
330
57
100
AcDbEntity
  8
_U+30EC_U+30A4_U+30E4_U+30FC 1
 62
     7
420
 16777215
370
    25
100
AcDbVertex
100
AcDb2dVertex
 10
76.25788888783251
 20
-121.1336935808278
 30
0.0
  0
VERTEX
  5
59
330
57
100
AcDbEntity
  8
_U+30EC_U+30A4_U+30E4_U+30FC 1
 62
     7
420
 16777215
370
    25
100
AcDbVertex
100
AcDb2dVertex
 10
76.25788888783251
 20
-126.1335424684665
 30
0.0
  0
SEQEND
  5
5A
330
57
100
AcDbEntity
  8
_U+30EC_U+30A4_U+30E4_U+30FC 1
 62
     7
420
 16777215
370
    25
  0
POLYLINE
  5
5B
330
41
100
AcDbEntity
  8
_U+30EC_U+30A4_U+30E4_U+30FC 1
 62
     7
420
 16777215
370
    25
100
AcDb2dPolyline
 66
     1
 10
0.0
 20
0.0
 30
0.0
  0
VERTEX
  5
5C
330
5B
100
AcDbEntity
  8
_U+30EC_U+30A4_U+30E4_U+30FC 1
 62
     7
420
 16777215
370
    25
100
AcDbVertex
100
AcDb2dVertex
 10
75.75765001170578
 20
-121.1336935808278
 30
0.0
  0
VERTEX
  5
5D
330
5B
100
AcDbEntity
  8
_U+30EC_U+30A4_U+30E4_U+30FC 1
 62
     7
420
 16777215
370
    25
100
AcDbVertex
100
AcDb2dVertex
 10
76.25788888783251
 20
-121.1336935808278
 30
0.0
  0
SEQEND
  5
5E
330
5B
100
AcDbEntity
  8
_U+30EC_U+30A4_U+30E4_U+30FC 1
 62
     7
420
 16777215
370
    25
  0
POLYLINE
  5
5F
330
41
100
AcDbEntity
  8
_U+30EC_U+30A4_U+30E4_U+30FC 1
 62
     7
420
 16777215
370
    25
100
AcDb2dPolyline
 66
     1
 10
0.0
 20
0.0
 30
0.0
  0
VERTEX
  5
60
330
5F
100
AcDbEntity
  8
_U+30EC_U+30A4_U+30E4_U+30FC 1
 62
     7
420
 16777215
370
    25
100
AcDbVertex
100
AcDb2dVertex
 10
75.75765001170578
 20
-121.1336935808278
 30
0.0
  0
VERTEX
  5
61
330
5F
100
AcDbEntity
  8
_U+30EC_U+30A4_U+30E4_U+30FC 1
 62
     7
420
 16777215
370
    25
100
AcDbVertex
100
AcDb2dVertex
 10
75.26153863547374
 20
-126.256556079547
 30
0.0
  0
SEQEND
  5
62
330
5F
100
AcDbEntity
  8
_U+30EC_U+30A4_U+30E4_U+30FC 1
 62
     7
420
 16777215
370
    25
  0
SPLINE
  5
63
330
41
100
AcDbEntity
  8
_U+30EC_U+30A4_U+30E4_U+30FC 1
 62
     7
420
 16777215
370
    25
100
AcDbSpline
210
0.0
220
0.0
230
1.0
 70
     8
 71
     3
 72
    11
 73
     7
 74
     0
 42
0.0000000001
 43
0.0000000001
 12
1.0
 22
0.0
 32
0.0
 13
1.0
 23
0.0
 33
0.0
 40
0.0
 40
0.0
 40
0.0
 40
0.0
 40
1.0
 40
1.0
 40
1.0
 40
2.0
 40
2.0
 40
2.0
 40
2.0
 10
75.26153863547374
 20
-126.256556079547
 30
0.0
 10
75.21885252545164
 20
-126.696469968326
 30
0.0
 10
75.54093862834566
 20
-127.087171357117
 30
0.0
 10
75.98088778378828
 20
-127.1298927459953
 30
0.0
 10
76.01189694966384
 20
-127.1329971904391
 30
0.0
 10
76.0429061155394
 20
-127.1340202459943
 30
0.0
 10
76.07458555917563
 20
-127.1333146904391
 30
0.0
  0
SPLINE
  5
64
330
41
100
AcDbEntity
  8
_U+30EC_U+30A4_U+30E4_U+30FC 1
 62
     7
420
 16777215
370
     9
100
AcDbSpline
210
0.0
220
0.0
230
1.0
 70
    11
 71
     3
 72
    17
 73
    13
 74
     0
 42
0.0000000001
 43
0.0000000001
 12
1.0
 22
0.0
 32
0.0
 13
1.0
 23
0.0
 33
0.0
 40
0.0
 40
0.0
 40
0.0
 40
0.0
 40
1.0
 40
1.0
 40
1.0
 40
2.0
 40
2.0
 40
2.0
 40
3.0
 40
3.0
 40
3.0
 40
4.0
 40
4.0
 40
4.0
 40
4.0
 10
71.35755873507257
 20
-127.1336674682165
 30
0.0
 10
71.35755873507257
 20
-127.0782108015638
 30
0.0
 10
71.31314401398346
 20
-127.0337608015748
 30
0.0
 10
71.25765207095473
 20
-127.0337608015748
 30
0.0
 10
71.2025499821993
 20
-127.0337608015748
 30
0.0
 10
71.15774720443291
 20
-127.0782108015638
 30
0.0
 10
71.15774720443291
 20
-127.1336674682165
 30
0.0
 10
71.15774720443291
 20
-127.1888066348696
 30
0.0
 10
71.2025499821993
 20
-127.2335741348581
 30
0.0
 10
71.25765207095473
 20
-127.2335741348581
 30
0.0
 10
71.31314401398346
 20
-127.2335741348581
 30
0.0
 10
71.35755873507257
 20
-127.1888066348696
 30
0.0
 10
71.35755873507257
 20
-127.1336674682165
 30
0.0
  0
SPLINE
  5
65
330
41
100
AcDbEntity
  8
_U+30EC_U+30A4_U+30E4_U+30FC 1
 62
     7
420
 16777215
370
     9
100
AcDbSpline
210
0.0
220
0.0
230
1.0
 70
    11
 71
     3
 72
    17
 73
    13
 74
     0
 42
0.0000000001
 43
0.0000000001
 12
1.0
 22
0.0
 32
0.0
 13
1.0
 23
0.0
 33
0.0
 40
0.0
 40
0.0
 40
0.0
 40
0.0
 40
1.0
 40
1.0
 40
1.0
 40
2.0
 40
2.0
 40
2.0
 40
3.0
 40
3.0
 40
3.0
 40
4.0
 40
4.0
 40
4.0
 40
4.0
 10
71.35755873507257
 20
-121.1336935808278
 30
0.0
 10
71.35755873507257
 20
-121.0782369141748
 30
0.0
 10
71.31314401398346
 20
-121.0334341364084
 30
0.0
 10
71.25765207095473
 20
-121.0334341364084
 30
0.0
 10
71.2025499821993
 20
-121.0334341364084
 30
0.0
 10
71.15774720443291
 20
-121.0782369141748
 30
0.0
 10
71.15774720443291
 20
-121.1336935808278
 30
0.0
 10
71.15774720443291
 20
-121.1891502474805
 30
0.0
 10
71.2025499821993
 20
-121.2336002474694
 30
0.0
 10
71.25765207095473
 20
-121.2336002474694
 30
0.0
 10
71.31314401398346
 20
-121.2336002474694
 30
0.0
 10
71.35755873507257
 20
-121.1891502474805
 30
0.0
 10
71.35755873507257
 20
-121.1336935808278
 30
0.0
  0
POLYLINE
  5
66
330
41
100
AcDbEntity
  8
_U+30EC_U+30A4_U+30E4_U+30FC 1
 62
     7
420
 16777215
370
     9
100
AcDb2dPolyline
 66
     1
 10
0.0
 20
0.0
 30
0.0
  0
VERTEX
  5
67
330
66
100
AcDbEntity
  8
_U+30EC_U+30A4_U+30E4_U+30FC 1
 62
     7
420
 16777215
370
     9
100
AcDbVertex
100
AcDb2dVertex
 10
71.25765207095473
 20
-121.1336935808278
 30
0.0
  0
VERTEX
  5
68
330
66
100
AcDbEntity
  8
_U+30EC_U+30A4_U+30E4_U+30FC 1
 62
     7
420
 16777215
370
     9
100
AcDbVertex
100
AcDb2dVertex
 10
71.25765207095473
 20
-127.1336674682165
 30
0.0
  0
SEQEND
  5
69
330
66
100
AcDbEntity
  8
_U+30EC_U+30A4_U+30E4_U+30FC 1
 62
     7
420
 16777215
370
     9
  0
POLYLINE
  5
6A
330
41
100
AcDbEntity
  8
_U+30EC_U+30A4_U+30E4_U+30FC 1
 62
     7
420
 16777215
370
     9
100
AcDb2dPolyline
 66
     1
 10
0.0
 20
0.0
 30
0.0
  0
VERTEX
  5
6B
330
6A
100
AcDbEntity
  8
_U+30EC_U+30A4_U+30E4_U+30FC 1
 62
     7
420
 16777215
370
     9
100
AcDbVertex
100
AcDb2dVertex
 10
73.21793229872159
 20
-121.1336935808278
 30
0.0
  0
VERTEX
  5
6C
330
6A
100
AcDbEntity
  8
_U+30EC_U+30A4_U+30E4_U+30FC 1
 62
     7
420
 16777215
370
     9
100
AcDbVertex
100
AcDb2dVertex
 10
70.2579151520157
 20
-121.1336935808278
 30
0.0
  0
SEQEND
  5
6D
330
6A
100
AcDbEntity
  8
_U+30EC_U+30A4_U+30E4_U+30FC 1
 62
     7
420
 16777215
370
     9
  0
POLYLINE
  5
6E
330
41
100
AcDbEntity
  8
_U+30EC_U+30A4_U+30E4_U+30FC 1
 62
     7
420
 16777215
370
     9
100
AcDb2dPolyline
 66
     1
 10
0.0
 20
0.0
 30
0.0
  0
VERTEX
  5
6F
330
6E
100
AcDbEntity
  8
_U+30EC_U+30A4_U+30E4_U+30FC 1
 62
     7
420
 16777215
370
     9
100
AcDbVertex
100
AcDb2dVertex
 10
73.5176522910751
 20
-127.1336674682165
 30
0.0
  0
VERTEX
  5
70
330
6E
100
AcDbEntity
  8
_U+30EC_U+30A4_U+30E4_U+30FC 1
 62
     7
420
 16777215
370
     9
100
AcDbVertex
100
AcDb2dVertex
 10
70.2579151520157
 20
-127.1336674682165
 30
0.0
  0
SEQEND
  5
71
330
6E
100
AcDbEntity
  8
_U+30EC_U+30A4_U+30E4_U+30FC 1
 62
     7
420
 16777215
370
     9
  0
INSERT
  5
73
330
41
100
AcDbEntity
  8
_U+30EC_U+30A4_U+30E4_U+30FC 1
100
AcDbBlockReference
  2
block 3
 10
0.0
 20
0.0
 30
0.0
  0
POLYLINE
  5
79
330
41
100
AcDbEntity
  8
_U+30EC_U+30A4_U+30E4_U+30FC 1
 62
     7
420
 16777215
370
     9
100
AcDb2dPolyline
 66
     1
 10
0.0
 20
0.0
 30
0.0
  0
VERTEX
  5
7A
330
79
100
AcDbEntity
  8
_U+30EC_U+30A4_U+30E4_U+30FC 1
 62
     7
420
 16777215
370
     9
100
AcDbVertex
100
AcDb2dVertex
 10
75.25776391334782
 20
-128.8737791344481
 30
0.0
  0
VERTEX
  5
7B
330
79
100
AcDbEntity
  8
_U+30EC_U+30A4_U+30E4_U+30FC 1
 62
     7
420
 16777215
370
     9
100
AcDbVertex
100
AcDb2dVertex
 10
75.25776391334782
 20
-132.133551633633
 30
0.0
  0
SEQEND
  5
7C
330
79
100
AcDbEntity
  8
_U+30EC_U+30A4_U+30E4_U+30FC 1
 62
     7
420
 16777215
370
     9
  0
POLYLINE
  5
7D
330
41
100
AcDbEntity
  8
_U+30EC_U+30A4_U+30E4_U+30FC 1
 62
     7
420
 16777215
370
     9
100
AcDb2dPolyline
 66
     1
 10
0.0
 20
0.0
 30
0.0
  0
VERTEX
  5
7E
330
7D
100
AcDbEntity
  8
_U+30EC_U+30A4_U+30E4_U+30FC 1
 62
     7
420
 16777215
370
     9
100
AcDbVertex
100
AcDb2dVertex
 10
100.2577838310997
 20
-129.1734991343731
 30
0.0
  0
VERTEX
  5
7F
330
7D
100
AcDbEntity
  8
_U+30EC_U+30A4_U+30E4_U+30FC 1
 62
     7
420
 16777215
370
     9
100
AcDbVertex
100
AcDb2dVertex
 10
100.2577838310997
 20
-132.133551633633
 30
0.0
  0
SEQEND
  5
80
330
7D
100
AcDbEntity
  8
_U+30EC_U+30A4_U+30E4_U+30FC 1
 62
     7
420
 16777215
370
     9
  0
INSERT
  5
82
330
41
100
AcDbEntity
  8
_U+30EC_U+30A4_U+30E4_U+30FC 1
100
AcDbBlockReference
  2
block 4
 10
0.0
 20
0.0
 30
0.0
  0
POLYLINE
  5
89
330
41
100
AcDbEntity
  8
_U+30EC_U+30A4_U+30E4_U+30FC 1
 62
     7
420
 16777215
370
     9
100
AcDb2dPolyline
 66
     1
 10
0.0
 20
0.0
 30
0.0
  0
VERTEX
  5
8A
330
89
100
AcDbEntity
  8
_U+30EC_U+30A4_U+30E4_U+30FC 1
 62
     7
420
 16777215
370
     9
100
AcDbVertex
100
AcDb2dVertex
 10
100.2577838310997
 20
-127.1338438571054
 30
0.0
  0
VERTEX
  5
8B
330
89
100
AcDbEntity
  8
_U+30EC_U+30A4_U+30E4_U+30FC 1
 62
     7
420
 16777215
370
     9
100
AcDbVertex
100
AcDb2dVertex
 10
103.9151015155716
 20
-130.1818791341213
 30
0.0
  0
SEQEND
  5
8C
330
89
100
AcDbEntity
  8
_U+30EC_U+30A4_U+30E4_U+30FC 1
 62
     7
420
 16777215
370
     9
  0
INSERT
  5
8E
330
41
100
AcDbEntity
  8
_U+30EC_U+30A4_U+30E4_U+30FC 1
100
AcDbBlockReference
  2
block 5
 10
0.0
 20
0.0
 30
0.0
  0
POLYLINE
  5
CB
330
41
100
AcDbEntity
  8
_U+30EC_U+30A4_U+30E4_U+30FC 1
  6
AI-Linetype-1
 62
   154
420
    23468
370
    25
100
AcDb2dPolyline
 66
     1
 10
0.0
 20
0.0
 30
0.0
  0
VERTEX
  5
CC
330
CB
100
AcDbEntity
  8
_U+30EC_U+30A4_U+30E4_U+30FC 1
  6
AI-Linetype-1
 62
   154
420
    23468
370
    25
100
AcDbVertex
100
AcDb2dVertex
 10
74.57460976410987
 20
-127.6333771903139
 30
0.0
  0
VERTEX
  5
CD
330
CB
100
AcDbEntity
  8
_U+30EC_U+30A4_U+30E4_U+30FC 1
  6
AI-Linetype-1
 62
   154
420
    23468
370
    25
100
AcDbVertex
100
AcDb2dVertex
 10
100.2577838310997
 20
-127.1338438571054
 30
0.0
  0
SEQEND
  5
CF
330
CB
100
AcDbEntity
  8
_U+30EC_U+30A4_U+30E4_U+30FC 1
  6
AI-Linetype-1
 62
   154
420
    23468
370
    25
  0
POLYLINE
  5
D0
330
41
100
AcDbEntity
  8
_U+30EC_U+30A4_U+30E4_U+30FC 1
  6
AI-Linetype-2
 62
   154
420
    23468
370
    25
100
AcDb2dPolyline
 66
     1
 10
0.0
 20
0.0
 30
0.0
  0
VERTEX
  5
D1
330
D0
100
AcDbEntity
  8
_U+30EC_U+30A4_U+30E4_U+30FC 1
  6
AI-Linetype-2
 62
   154
420
    23468
370
    25
100
AcDbVertex
100
AcDb2dVertex
 10
75.25776391334782
 20
-121.1336935808278
 30
0.0
  0
VERTEX
  5
D2
330
D0
100
AcDbEntity
  8
_U+30EC_U+30A4_U+30E4_U+30FC 1
  6
AI-Linetype-2
 62
   154
420
    23468
370
    25
100
AcDbVertex
100
AcDb2dVertex
 10
74.58388781942872
 20
-127.5467349681132
 30
0.0
  0
VERTEX
  5
D3
330
D0
100
AcDbEntity
  8
_U+30EC_U+30A4_U+30E4_U+30FC 1
  6
AI-Linetype-2
 62
   154
420
    23468
370
    25
100
AcDbVertex
100
AcDb2dVertex
 10
74.57460976410987
 20
-127.6333771903139
 30
0.0
  0
SEQEND
  5
D5
330
D0
100
AcDbEntity
  8
_U+30EC_U+30A4_U+30E4_U+30FC 1
  6
AI-Linetype-2
 62
   154
420
    23468
370
    25
  0
ENDBLK
  5
44
330
41
100
AcDbEntity
  8
0
100
AcDbBlockEnd
  0
BLOCK
  5
74
330
72
100
AcDbEntity
  8
0
100
AcDbBlockBegin
  2
block 3
 70
     0
 10
0.0
 20
0.0
 30
0.0
  3
block 3
  1

  0
SPLINE
  5
76
330
72
100
AcDbEntity
  8
_U+30EC_U+30A4_U+30E4_U+30FC 1
370
     0
100
AcDbSpline
210
0.0
220
0.0
230
1.0
 70
    11
 71
     3
 72
    32
 73
    28
 74
     0
 42
0.0000000001
 43
0.0000000001
 12
1.0
 22
0.0
 32
0.0
 13
1.0
 23
0.0
 33
0.0
 40
0.0
 40
0.0
 40
0.0
 40
0.0
 40
1.0
 40
1.0
 40
1.0
 40
2.0
 40
2.0
 40
2.0
 40
3.0
 40
3.0
 40
3.0
 40
4.0
 40
4.0
 40
4.0
 40
5.0
 40
5.0
 40
5.0
 40
6.0
 40
6.0
 40
6.0
 40
7.0
 40
7.0
 40
7.0
 40
8.0
 40
8.0
 40
8.0
 40
9.0
 40
9.0
 40
9.0
 40
9.0
 10
70.83030190286534
 20
-124.1271348431002
 30
0.0
 10
70.83030190286534
 20
-124.6433824015648
 30
0.0
 10
70.27598603928864
 20
-124.6518228855037
 30
0.0
 10
70.06239011920316
 20
-124.6518228855037
 30
0.0
 10
69.83174097646568
 20
-124.6518228855037
 30
0.0
 10
69.18440753478724
 20
-124.6327026055606
 30
0.0
 10
69.18440753478724
 20
-124.0890665379882
 30
0.0
 10
69.18440753478724
 20
-123.9156059803058
 30
0.0
 10
69.25417071836354
 20
-123.670315181756
 30
0.0
 10
69.58627792314162
 20
-123.6320746218698
 30
0.0
 10
69.58627792314162
 20
-123.6320746218698
 30
0.0
 10
69.58627792314162
 20
-123.8458427967295
 30
0.0
 10
69.58627792314162
 20
-123.8458427967295
 30
0.0
 10
69.52926159286075
 20
-123.8563503379595
 30
0.0
 10
69.381122486995
 20
-123.8880452164238
 30
0.0
 10
69.381122486995
 20
-124.0911335952793
 30
0.0
 10
69.381122486995
 20
-124.3831054376542
 30
0.0
 10
69.70909557719078
 20
-124.4234130548317
 30
0.0
 10
69.9142510133374
 20
-124.4359876533528
 30
0.0
 10
69.83604734582224
 20
-124.3429700752511
 30
0.0
 10
69.77679170347595
 20
-124.2752739489659
 30
0.0
 10
69.77679170347595
 20
-124.0933729073447
 30
0.0
 10
69.77679170347595
 20
-123.9135389230147
 30
0.0
 10
69.88462319216427
 20
-123.6110595394097
 30
0.0
 10
70.29079994987522
 20
-123.6110595394097
 30
0.0
 10
70.61033255613214
 20
-123.6110595394097
 30
0.0
 10
70.83030190286534
 20
-123.8098415489087
 30
0.0
 10
70.83030190286534
 20
-124.1271348431002
 30
0.0
  0
SPLINE
  5
77
330
72
100
AcDbEntity
  8
_U+30EC_U+30A4_U+30E4_U+30FC 1
370
     0
100
AcDbSpline
210
0.0
220
0.0
230
1.0
 70
    11
 71
     3
 72
    17
 73
    13
 74
     0
 42
0.0000000001
 43
0.0000000001
 12
1.0
 22
0.0
 32
0.0
 13
1.0
 23
0.0
 33
0.0
 40
0.0
 40
0.0
 40
0.0
 40
0.0
 40
1.0
 40
1.0
 40
1.0
 40
2.0
 40
2.0
 40
2.0
 40
3.0
 40
3.0
 40
3.0
 40
4.0
 40
4.0
 40
4.0
 40
4.0
 10
69.97143959839256
 20
-124.1102538752224
 30
0.0
 10
69.97143959839256
 20
-124.3725978964242
 30
0.0
 10
70.1829684611869
 20
-124.4106662015362
 30
0.0
 10
70.29924043381408
 20
-124.4106662015362
 30
0.0
 10
70.47494030356182
 20
-124.4106662015362
 30
0.0
 10
70.63772106523987
 20
-124.3154093113691
 30
0.0
 10
70.63772106523987
 20
-124.1314412124567
 30
0.0
 10
70.63772106523987
 20
-124.010862870473
 30
0.0
 10
70.57846542289359
 20
-123.8351630007252
 30
0.0
 10
70.29286700716636
 20
-123.8351630007252
 30
0.0
 10
70.06876354585087
 20
-123.8351630007252
 30
0.0
 10
69.97143959839256
 20
-123.9748616226521
 30
0.0
 10
69.97143959839256
 20
-124.1102538752224
 30
0.0
  0
HATCH
  5
78
330
72
100
AcDbEntity
  8
_U+30EC_U+30A4_U+30E4_U+30FC 1
 62
     7
420
 16777215
100
AcDbHatch
 10
0.0
 20
0.0
 30
0.0
210
0.0
220
0.0
230
1.0
  2
SOLID
 70
     1
 71
     0
 91
        2
 92
        1
 93
        1
 72
     4
 94
        3
 73
     0
 74
     1
 95
       32
 96
       28
 40
0.0
 40
0.0
 40
0.0
 40
0.0
 40
1.0
 40
1.0
 40
1.0
 40
2.0
 40
2.0
 40
2.0
 40
3.0
 40
3.0
 40
3.0
 40
4.0
 40
4.0
 40
4.0
 40
5.0
 40
5.0
 40
5.0
 40
6.0
 40
6.0
 40
6.0
 40
7.0
 40
7.0
 40
7.0
 40
8.0
 40
8.0
 40
8.0
 40
9.0
 40
9.0
 40
9.0
 40
9.0
 10
70.83030190286534
 20
-124.1271348431002
 10
70.83030190286534
 20
-124.6433824015648
 10
70.27598603928864
 20
-124.6518228855037
 10
70.06239011920316
 20
-124.6518228855037
 10
69.83174097646568
 20
-124.6518228855037
 10
69.18440753478724
 20
-124.6327026055606
 10
69.18440753478724
 20
-124.0890665379882
 10
69.18440753478724
 20
-123.9156059803058
 10
69.25417071836354
 20
-123.670315181756
 10
69.58627792314162
 20
-123.6320746218698
 10
69.58627792314162
 20
-123.6320746218698
 10
69.58627792314162
 20
-123.8458427967295
 10
69.58627792314162
 20
-123.8458427967295
 10
69.52926159286075
 20
-123.8563503379595
 10
69.381122486995
 20
-123.8880452164238
 10
69.381122486995
 20
-124.0911335952793
 10
69.381122486995
 20
-124.3831054376542
 10
69.70909557719078
 20
-124.4234130548317
 10
69.9142510133374
 20
-124.4359876533528
 10
69.83604734582224
 20
-124.3429700752511
 10
69.77679170347595
 20
-124.2752739489659
 10
69.77679170347595
 20
-124.0933729073447
 10
69.77679170347595
 20
-123.9135389230147
 10
69.88462319216427
 20
-123.6110595394097
 10
70.29079994987522
 20
-123.6110595394097
 10
70.61033255613214
 20
-123.6110595394097
 10
70.83030190286534
 20
-123.8098415489087
 10
70.83030190286534
 20
-124.1271348431002
 97
        0
 97
        0
 92
        1
 93
        1
 72
     4
 94
        3
 73
     0
 74
     1
 95
       17
 96
       13
 40
0.0
 40
0.0
 40
0.0
 40
0.0
 40
1.0
 40
1.0
 40
1.0
 40
2.0
 40
2.0
 40
2.0
 40
3.0
 40
3.0
 40
3.0
 40
4.0
 40
4.0
 40
4.0
 40
4.0
 10
69.97143959839256
 20
-124.1102538752224
 10
69.97143959839256
 20
-124.3725978964242
 10
70.1829684611869
 20
-124.4106662015362
 10
70.29924043381408
 20
-124.4106662015362
 10
70.47494030356182
 20
-124.4106662015362
 10
70.63772106523987
 20
-124.3154093113691
 10
70.63772106523987
 20
-124.1314412124567
 10
70.63772106523987
 20
-124.010862870473
 10
70.57846542289359
 20
-123.8351630007252
 10
70.29286700716636
 20
-123.8351630007252
 10
70.06876354585087
 20
-123.8351630007252
 10
69.97143959839256
 20
-123.9748616226521
 10
69.97143959839256
 20
-124.1102538752224
 97
        0
 97
        0
 75
     2
 76
     1
 98
        0
  0
ENDBLK
  5
75
330
72
100
AcDbEntity
  8
0
100
AcDbBlockEnd
  0
BLOCK
  5
83
330
81
100
AcDbEntity
  8
0
100
AcDbBlockBegin
  2
block 4
 70
     0
 10
0.0
 20
0.0
 30
0.0
  3
block 4
  1

  0
SPLINE
  5
85
330
81
100
AcDbEntity
  8
_U+30EC_U+30A4_U+30E4_U+30FC 1
370
     0
100
AcDbSpline
210
0.0
220
0.0
230
1.0
 70
    11
 71
     3
 72
    44
 73
    40
 74
     0
 42
0.0000000001
 43
0.0000000001
 12
1.0
 22
0.0
 32
0.0
 13
1.0
 23
0.0
 33
0.0
 40
0.0
 40
0.0
 40
0.0
 40
0.0
 40
1.0
 40
1.0
 40
1.0
 40
2.0
 40
2.0
 40
2.0
 40
3.0
 40
3.0
 40
3.0
 40
4.0
 40
4.0
 40
4.0
 40
5.0
 40
5.0
 40
5.0
 40
6.0
 40
6.0
 40
6.0
 40
7.0
 40
7.0
 40
7.0
 40
8.0
 40
8.0
 40
8.0
 40
9.0
 40
9.0
 40
9.0
 40
10.0
 40
10.0
 40
10.0
 40
11.0
 40
11.0
 40
11.0
 40
12.0
 40
12.0
 40
12.0
 40
13.0
 40
13.0
 40
13.0
 40
13.0
 10
87.18589271908895
 20
-129.8380696289988
 30
0.0
 10
86.96816268442116
 20
-129.9968885308688
 30
0.0
 10
86.87514510631941
 20
-130.0709580838017
 30
0.0
 10
86.82622475042886
 20
-130.2146185655366
 30
0.0
 10
86.82622475042886
 20
-130.2146185655366
 30
0.0
 10
87.60481633009533
 20
-130.2146185655366
 30
0.0
 10
87.60481633009533
 20
-130.2146185655366
 30
0.0
 10
87.60481633009533
 20
-130.2146185655366
 30
0.0
 10
87.60481633009533
 20
-130.4199462564575
 30
0.0
 10
87.60481633009533
 20
-130.4199462564575
 30
0.0
 10
87.60481633009533
 20
-130.4199462564575
 30
0.0
 10
86.57679983729678
 20
-130.4199462564575
 30
0.0
 10
86.57679983729678
 20
-130.4199462564575
 30
0.0
 10
86.60849471576107
 20
-130.0623453450886
 30
0.0
 10
86.67395152998083
 20
-129.9841416775734
 30
0.0
 10
87.05911320523175
 20
-129.6857964085508
 30
0.0
 10
87.31508379978581
 20
-129.4870143990519
 30
0.0
 10
87.38054061400557
 20
-129.4191460179924
 30
0.0
 10
87.38054061400557
 20
-129.281686708131
 30
0.0
 10
87.38054061400557
 20
-129.1631754234384
 30
0.0
 10
87.30853811836384
 20
-129.0322617949989
 30
0.0
 10
87.11182316615607
 20
-129.0322617949989
 30
0.0
 10
86.85171845701971
 20
-129.0322617949989
 30
0.0
 10
86.84310571830659
 20
-129.2627386829621
 30
0.0
 10
86.83897160372429
 20
-129.3791829103635
 30
0.0
 10
86.83897160372429
 20
-129.3791829103635
 30
0.0
 10
86.61469588763453
 20
-129.3791829103635
 30
0.0
 10
86.61469588763453
 20
-129.3791829103635
 30
0.0
 10
86.62330862634765
 20
-129.2520588869578
 30
0.0
 10
86.63398842235192
 20
-129.1400932836872
 30
0.0
 10
86.71425914715824
 20
-129.0215819989946
 30
0.0
 10
86.82415769313772
 20
-128.8606960398334
 30
0.0
 10
87.01053735888974
 20
-128.826934104078
 30
0.0
 10
87.12663707674265
 20
-128.826934104078
 30
0.0
 10
87.40396726330526
 20
-128.826934104078
 30
0.0
 10
87.6113620115173
 20
-129.0109022029903
 30
0.0
 10
87.6113620115173
 20
-129.2837537654221
 30
0.0
 10
87.6113620115173
 20
-129.5125081056427
 30
0.0
 10
87.49491778411586
 20
-129.6117268556179
 30
0.0
 10
87.18589271908895
 20
-129.8380696289988
 30
0.0
  0
HATCH
  5
86
330
81
100
AcDbEntity
  8
_U+30EC_U+30A4_U+30E4_U+30FC 1
 62
     7
420
 16777215
100
AcDbHatch
 10
0.0
 20
0.0
 30
0.0
210
0.0
220
0.0
230
1.0
  2
SOLID
 70
     1
 71
     0
 91
        1
 92
        1
 93
        1
 72
     4
 94
        3
 73
     0
 74
     1
 95
       44
 96
       40
 40
0.0
 40
0.0
 40
0.0
 40
0.0
 40
1.0
 40
1.0
 40
1.0
 40
2.0
 40
2.0
 40
2.0
 40
3.0
 40
3.0
 40
3.0
 40
4.0
 40
4.0
 40
4.0
 40
5.0
 40
5.0
 40
5.0
 40
6.0
 40
6.0
 40
6.0
 40
7.0
 40
7.0
 40
7.0
 40
8.0
 40
8.0
 40
8.0
 40
9.0
 40
9.0
 40
9.0
 40
10.0
 40
10.0
 40
10.0
 40
11.0
 40
11.0
 40
11.0
 40
12.0
 40
12.0
 40
12.0
 40
13.0
 40
13.0
 40
13.0
 40
13.0
 10
87.18589271908895
 20
-129.8380696289988
 10
86.96816268442116
 20
-129.9968885308688
 10
86.87514510631941
 20
-130.0709580838017
 10
86.82622475042886
 20
-130.2146185655366
 10
86.82622475042886
 20
-130.2146185655366
 10
87.60481633009533
 20
-130.2146185655366
 10
87.60481633009533
 20
-130.2146185655366
 10
87.60481633009533
 20
-130.2146185655366
 10
87.60481633009533
 20
-130.4199462564575
 10
87.60481633009533
 20
-130.4199462564575
 10
87.60481633009533
 20
-130.4199462564575
 10
86.57679983729678
 20
-130.4199462564575
 10
86.57679983729678
 20
-130.4199462564575
 10
86.60849471576107
 20
-130.0623453450886
 10
86.67395152998083
 20
-129.9841416775734
 10
87.05911320523175
 20
-129.6857964085508
 10
87.31508379978581
 20
-129.4870143990519
 10
87.38054061400557
 20
-129.4191460179924
 10
87.38054061400557
 20
-129.281686708131
 10
87.38054061400557
 20
-129.1631754234384
 10
87.30853811836384
 20
-129.0322617949989
 10
87.11182316615607
 20
-129.0322617949989
 10
86.85171845701971
 20
-129.0322617949989
 10
86.84310571830659
 20
-129.2627386829621
 10
86.83897160372429
 20
-129.3791829103635
 10
86.83897160372429
 20
-129.3791829103635
 10
86.61469588763453
 20
-129.3791829103635
 10
86.61469588763453
 20
-129.3791829103635
 10
86.62330862634765
 20
-129.2520588869578
 10
86.63398842235192
 20
-129.1400932836872
 10
86.71425914715824
 20
-129.0215819989946
 10
86.82415769313772
 20
-128.8606960398334
 10
87.01053735888974
 20
-128.826934104078
 10
87.12663707674265
 20
-128.826934104078
 10
87.40396726330526
 20
-128.826934104078
 10
87.6113620115173
 20
-129.0109022029903
 10
87.6113620115173
 20
-129.2837537654221
 10
87.6113620115173
 20
-129.5125081056427
 10
87.49491778411586
 20
-129.6117268556179
 10
87.18589271908895
 20
-129.8380696289988
 97
        0
 97
        0
 75
     2
 76
     1
 98
        0
  0
SPLINE
  5
87
330
81
100
AcDbEntity
  8
_U+30EC_U+30A4_U+30E4_U+30FC 1
370
     0
100
AcDbSpline
210
0.0
220
0.0
230
1.0
 70
    11
 71
     3
 72
    53
 73
    49
 74
     0
 42
0.0000000001
 43
0.0000000001
 12
1.0
 22
0.0
 32
0.0
 13
1.0
 23
0.0
 33
0.0
 40
0.0
 40
0.0
 40
0.0
 40
0.0
 40
1.0
 40
1.0
 40
1.0
 40
2.0
 40
2.0
 40
2.0
 40
3.0
 40
3.0
 40
3.0
 40
4.0
 40
4.0
 40
4.0
 40
5.0
 40
5.0
 40
5.0
 40
6.0
 40
6.0
 40
6.0
 40
7.0
 40
7.0
 40
7.0
 40
8.0
 40
8.0
 40
8.0
 40
9.0
 40
9.0
 40
9.0
 40
10.0
 40
10.0
 40
10.0
 40
11.0
 40
11.0
 40
11.0
 40
12.0
 40
12.0
 40
12.0
 40
13.0
 40
13.0
 40
13.0
 40
14.0
 40
14.0
 40
14.0
 40
15.0
 40
15.0
 40
15.0
 40
16.0
 40
16.0
 40
16.0
 40
16.0
 10
88.25077173357967
 20
-130.4705891600907
 30
0.0
 10
88.1725680660645
 20
-130.4705891600907
 30
0.0
 10
88.07093774924964
 20
-130.453708192213
 30
0.0
 10
87.96930743243476
 20
-130.3903184352844
 30
0.0
 10
87.7960191295267
 20
-130.2804198893049
 30
0.0
 10
87.77465953751815
 20
-130.1491617513169
 30
0.0
 10
87.75571151234927
 20
-130.0413302626285
 30
0.0
 10
87.75571151234927
 20
-130.0413302626285
 30
0.0
 10
87.97792017114789
 20
-130.0413302626285
 30
0.0
 10
87.97792017114789
 20
-130.0413302626285
 30
0.0
 10
88.03269718936336
 20
-130.2401122721275
 30
0.0
 10
88.15982121276907
 20
-130.2697400933006
 30
0.0
 10
88.25283879087083
 20
-130.2697400933006
 30
0.0
 10
88.39236515802344
 20
-130.2697400933006
 30
0.0
 10
88.54463837847149
 20
-130.1701768337769
 30
0.0
 10
88.54463837847149
 20
-129.9376328885225
 30
0.0
 10
88.54463837847149
 20
-129.6816622939685
 30
0.0
 10
88.36480439414144
 20
-129.6117268556179
 30
0.0
 10
88.2442260521577
 20
-129.6117268556179
 30
0.0
 10
88.21253117369339
 20
-129.6117268556179
 30
0.0
 10
88.07093774924964
 20
-129.6117268556179
 30
0.0
 10
87.98205428573019
 20
-129.7409179363148
 30
0.0
 10
87.98205428573019
 20
-129.7409179363148
 30
0.0
 10
87.80635441598244
 20
-129.7219699111459
 30
0.0
 10
87.80635441598244
 20
-129.7219699111459
 30
0.0
 10
87.80635441598244
 20
-129.7219699111459
 30
0.0
 10
87.92693275796618
 20
-128.87550995042
 30
0.0
 10
87.92693275796618
 20
-128.87550995042
 30
0.0
 10
87.92693275796618
 20
-128.87550995042
 30
0.0
 10
88.70552433763265
 20
-128.87550995042
 30
0.0
 10
88.70552433763265
 20
-128.87550995042
 30
0.0
 10
88.70552433763265
 20
-128.87550995042
 30
0.0
 10
88.70552433763265
 20
-129.0701578453366
 30
0.0
 10
88.70552433763265
 20
-129.0701578453366
 30
0.0
 10
88.70552433763265
 20
-129.0701578453366
 30
0.0
 10
88.0898857744185
 20
-129.0701578453366
 30
0.0
 10
88.0898857744185
 20
-129.0701578453366
 30
0.0
 10
88.0898857744185
 20
-129.0701578453366
 30
0.0
 10
88.02442896019876
 20
-129.4932155709253
 30
0.0
 10
88.02442896019876
 20
-129.4932155709253
 30
0.0
 10
88.0857516598362
 20
-129.4594536351699
 30
0.0
 10
88.16808944193367
 20
-129.4191460179924
 30
0.0
 10
88.28660072662628
 20
-129.4191460179924
 30
0.0
 10
88.54050426388919
 20
-129.4191460179924
 30
0.0
 10
88.77752683327438
 20
-129.6055256837444
 30
0.0
 10
88.77752683327438
 20
-129.9186848633537
 30
0.0
 10
88.77752683327438
 20
-130.2359781575452
 30
0.0
 10
88.5532511171846
 20
-130.4705891600907
 30
0.0
 10
88.25077173357967
 20
-130.4705891600907
 30
0.0
  0
HATCH
  5
88
330
81
100
AcDbEntity
  8
_U+30EC_U+30A4_U+30E4_U+30FC 1
 62
     7
420
 16777215
100
AcDbHatch
 10
0.0
 20
0.0
 30
0.0
210
0.0
220
0.0
230
1.0
  2
SOLID
 70
     1
 71
     0
 91
        1
 92
        1
 93
        1
 72
     4
 94
        3
 73
     0
 74
     1
 95
       53
 96
       49
 40
0.0
 40
0.0
 40
0.0
 40
0.0
 40
1.0
 40
1.0
 40
1.0
 40
2.0
 40
2.0
 40
2.0
 40
3.0
 40
3.0
 40
3.0
 40
4.0
 40
4.0
 40
4.0
 40
5.0
 40
5.0
 40
5.0
 40
6.0
 40
6.0
 40
6.0
 40
7.0
 40
7.0
 40
7.0
 40
8.0
 40
8.0
 40
8.0
 40
9.0
 40
9.0
 40
9.0
 40
10.0
 40
10.0
 40
10.0
 40
11.0
 40
11.0
 40
11.0
 40
12.0
 40
12.0
 40
12.0
 40
13.0
 40
13.0
 40
13.0
 40
14.0
 40
14.0
 40
14.0
 40
15.0
 40
15.0
 40
15.0
 40
16.0
 40
16.0
 40
16.0
 40
16.0
 10
88.25077173357967
 20
-130.4705891600907
 10
88.1725680660645
 20
-130.4705891600907
 10
88.07093774924964
 20
-130.453708192213
 10
87.96930743243476
 20
-130.3903184352844
 10
87.7960191295267
 20
-130.2804198893049
 10
87.77465953751815
 20
-130.1491617513169
 10
87.75571151234927
 20
-130.0413302626285
 10
87.75571151234927
 20
-130.0413302626285
 10
87.97792017114789
 20
-130.0413302626285
 10
87.97792017114789
 20
-130.0413302626285
 10
88.03269718936336
 20
-130.2401122721275
 10
88.15982121276907
 20
-130.2697400933006
 10
88.25283879087083
 20
-130.2697400933006
 10
88.39236515802344
 20
-130.2697400933006
 10
88.54463837847149
 20
-130.1701768337769
 10
88.54463837847149
 20
-129.9376328885225
 10
88.54463837847149
 20
-129.6816622939685
 10
88.36480439414144
 20
-129.6117268556179
 10
88.2442260521577
 20
-129.6117268556179
 10
88.21253117369339
 20
-129.6117268556179
 10
88.07093774924964
 20
-129.6117268556179
 10
87.98205428573019
 20
-129.7409179363148
 10
87.98205428573019
 20
-129.7409179363148
 10
87.80635441598244
 20
-129.7219699111459
 10
87.80635441598244
 20
-129.7219699111459
 10
87.80635441598244
 20
-129.7219699111459
 10
87.92693275796618
 20
-128.87550995042
 10
87.92693275796618
 20
-128.87550995042
 10
87.92693275796618
 20
-128.87550995042
 10
88.70552433763265
 20
-128.87550995042
 10
88.70552433763265
 20
-128.87550995042
 10
88.70552433763265
 20
-128.87550995042
 10
88.70552433763265
 20
-129.0701578453366
 10
88.70552433763265
 20
-129.0701578453366
 10
88.70552433763265
 20
-129.0701578453366
 10
88.0898857744185
 20
-129.0701578453366
 10
88.0898857744185
 20
-129.0701578453366
 10
88.0898857744185
 20
-129.0701578453366
 10
88.02442896019876
 20
-129.4932155709253
 10
88.02442896019876
 20
-129.4932155709253
 10
88.0857516598362
 20
-129.4594536351699
 10
88.16808944193367
 20
-129.4191460179924
 10
88.28660072662628
 20
-129.4191460179924
 10
88.54050426388919
 20
-129.4191460179924
 10
88.77752683327438
 20
-129.6055256837444
 10
88.77752683327438
 20
-129.9186848633537
 10
88.77752683327438
 20
-130.2359781575452
 10
88.5532511171846
 20
-130.4705891600907
 10
88.25077173357967
 20
-130.4705891600907
 97
        0
 97
        0
 75
     2
 76
     1
 98
        0
  0
ENDBLK
  5
84
330
81
100
AcDbEntity
  8
0
100
AcDbBlockEnd
  0
BLOCK
  5
8F
330
8D
100
AcDbEntity
  8
0
100
AcDbBlockBegin
  2
block 5
 70
     0
 10
0.0
 20
0.0
 30
0.0
  3
block 5
  1

  0
SPLINE
  5
91
330
8D
100
AcDbEntity
  8
_U+30EC_U+30A4_U+30E4_U+30FC 1
370
     0
100
AcDbSpline
210
0.0
220
0.0
230
1.0
 70
    11
 71
     3
 72
    17
 73
    13
 74
     0
 42
0.0000000001
 43
0.0000000001
 12
1.0
 22
0.0
 32
0.0
 13
1.0
 23
0.0
 33
0.0
 40
0.0
 40
0.0
 40
0.0
 40
0.0
 40
1.0
 40
1.0
 40
1.0
 40
2.0
 40
2.0
 40
2.0
 40
3.0
 40
3.0
 40
3.0
 40
4.0
 40
4.0
 40
4.0
 40
4.0
 10
103.5027262111035
 20
-131.2912109046772
 30
0.0
 10
103.3969617797063
 20
-131.18544647328
 30
0.0
 10
103.3163465453515
 20
-131.1475504229423
 30
0.0
 10
103.2233289672497
 20
-131.115855544478
 30
0.0
 10
103.2233289672497
 20
-131.115855544478
 30
0.0
 10
103.3335720227777
 20
-130.9508354707345
 30
0.0
 10
103.3335720227777
 20
-130.9508354707345
 30
0.0
 10
103.4307237154618
 20
-130.9932101452031
 30
0.0
 10
103.5513020574455
 20
-131.0714138127183
 30
0.0
 10
103.6043565279184
 20
-131.1261908309337
 30
0.0
 10
103.6043565279184
 20
-131.1261908309337
 30
0.0
 10
103.5027262111035
 20
-131.2912109046772
 30
0.0
 10
103.5027262111035
 20
-131.2912109046772
 30
0.0
  0
SPLINE
  5
92
330
8D
100
AcDbEntity
  8
_U+30EC_U+30A4_U+30E4_U+30FC 1
370
     0
100
AcDbSpline
210
0.0
220
0.0
230
1.0
 70
    11
 71
     3
 72
   182
 73
   178
 74
     0
 42
0.0000000001
 43
0.0000000001
 12
1.0
 22
0.0
 32
0.0
 13
1.0
 23
0.0
 33
0.0
 40
0.0
 40
0.0
 40
0.0
 40
0.0
 40
1.0
 40
1.0
 40
1.0
 40
2.0
 40
2.0
 40
2.0
 40
3.0
 40
3.0
 40
3.0
 40
4.0
 40
4.0
 40
4.0
 40
5.0
 40
5.0
 40
5.0
 40
6.0
 40
6.0
 40
6.0
 40
7.0
 40
7.0
 40
7.0
 40
8.0
 40
8.0
 40
8.0
 40
9.0
 40
9.0
 40
9.0
 40
10.0
 40
10.0
 40
10.0
 40
11.0
 40
11.0
 40
11.0
 40
12.0
 40
12.0
 40
12.0
 40
13.0
 40
13.0
 40
13.0
 40
14.0
 40
14.0
 40
14.0
 40
15.0
 40
15.0
 40
15.0
 40
16.0
 40
16.0
 40
16.0
 40
17.0
 40
17.0
 40
17.0
 40
18.0
 40
18.0
 40
18.0
 40
19.0
 40
19.0
 40
19.0
 40
20.0
 40
20.0
 40
20.0
 40
21.0
 40
21.0
 40
21.0
 40
22.0
 40
22.0
 40
22.0
 40
23.0
 40
23.0
 40
23.0
 40
24.0
 40
24.0
 40
24.0
 40
25.0
 40
25.0
 40
25.0
 40
26.0
 40
26.0
 40
26.0
 40
27.0
 40
27.0
 40
27.0
 40
28.0
 40
28.0
 40
28.0
 40
29.0
 40
29.0
 40
29.0
 40
30.0
 40
30.0
 40
30.0
 40
31.0
 40
31.0
 40
31.0
 40
32.0
 40
32.0
 40
32.0
 40
33.0
 40
33.0
 40
33.0
 40
34.0
 40
34.0
 40
34.0
 40
35.0
 40
35.0
 40
35.0
 40
36.0
 40
36.0
 40
36.0
 40
37.0
 40
37.0
 40
37.0
 40
38.0
 40
38.0
 40
38.0
 40
39.0
 40
39.0
 40
39.0
 40
40.0
 40
40.0
 40
40.0
 40
41.0
 40
41.0
 40
41.0
 40
42.0
 40
42.0
 40
42.0
 40
43.0
 40
43.0
 40
43.0
 40
44.0
 40
44.0
 40
44.0
 40
45.0
 40
45.0
 40
45.0
 40
46.0
 40
46.0
 40
46.0
 40
47.0
 40
47.0
 40
47.0
 40
48.0
 40
48.0
 40
48.0
 40
49.0
 40
49.0
 40
49.0
 40
50.0
 40
50.0
 40
50.0
 40
51.0
 40
51.0
 40
51.0
 40
52.0
 40
52.0
 40
52.0
 40
53.0
 40
53.0
 40
53.0
 40
54.0
 40
54.0
 40
54.0
 40
55.0
 40
55.0
 40
55.0
 40
56.0
 40
56.0
 40
56.0
 40
57.0
 40
57.0
 40
57.0
 40
58.0
 40
58.0
 40
58.0
 40
59.0
 40
59.0
 40
59.0
 40
59.0
 10
104.5476236717798
 20
-132.4697780701812
 30
0.0
 10
104.5476236717798
 20
-132.4697780701812
 30
0.0
 10
103.9109700261056
 20
-132.4697780701812
 30
0.0
 10
103.9109700261056
 20
-132.4697780701812
 30
0.0
 10
103.6973741060201
 20
-132.4697780701812
 30
0.0
 10
103.4813666190949
 20
-132.4739121847635
 30
0.0
 10
103.2677706990094
 20
-132.4866590380589
 30
0.0
 10
103.2677706990094
 20
-132.4866590380589
 30
0.0
 10
103.2677706990094
 20
-132.2792642898469
 30
0.0
 10
103.2677706990094
 20
-132.2792642898469
 30
0.0
 10
103.4899793578081
 20
-132.2920111431423
 30
0.0
 10
103.813473823873
 20
-132.2961452577246
 30
0.0
 10
103.9109700261056
 20
-132.2961452577246
 30
0.0
 10
103.9109700261056
 20
-132.2961452577246
 30
0.0
 10
104.1311116276131
 20
-132.2961452577246
 30
0.0
 10
104.1311116276131
 20
-132.2961452577246
 30
0.0
 10
104.1311116276131
 20
-132.2961452577246
 30
0.0
 10
104.1311116276131
 20
-132.1545518332808
 30
0.0
 10
104.1311116276131
 20
-132.1545518332808
 30
0.0
 10
104.1311116276131
 20
-132.1545518332808
 30
0.0
 10
103.9702256684519
 20
-132.1545518332808
 30
0.0
 10
103.9702256684519
 20
-132.1545518332808
 30
0.0
 10
103.8052055947084
 20
-132.1545518332808
 30
0.0
 10
103.640185520965
 20
-132.1586859478631
 30
0.0
 10
103.4751654472215
 20
-132.1734998584497
 30
0.0
 10
103.4751654472215
 20
-132.1734998584497
 30
0.0
 10
103.4751654472215
 20
-131.9640380529465
 30
0.0
 10
103.4751654472215
 20
-131.9640380529465
 30
0.0
 10
103.6463866928384
 20
-131.9788519635331
 30
0.0
 10
103.8940890582279
 20
-131.9829860781154
 30
0.0
 10
103.9702256684519
 20
-131.9829860781154
 30
0.0
 10
103.9702256684519
 20
-131.9829860781154
 30
0.0
 10
104.1311116276131
 20
-131.9829860781154
 30
0.0
 10
104.1311116276131
 20
-131.9829860781154
 30
0.0
 10
104.1266330034822
 20
-131.9113280920222
 30
0.0
 10
104.1266330034822
 20
-131.9047824106002
 30
0.0
 10
104.1204318316088
 20
-131.8520724496759
 30
0.0
 10
104.1204318316088
 20
-131.8520724496759
 30
0.0
 10
104.2599581987614
 20
-131.8668863602624
 30
0.0
 10
104.2599581987614
 20
-131.8668863602624
 30
0.0
 10
104.2599581987614
 20
-131.8668863602624
 30
0.0
 10
104.1607394487862
 20
-131.695320605097
 30
0.0
 10
104.1607394487862
 20
-131.695320605097
 30
0.0
 10
104.2072482378371
 20
-131.701866286519
 30
0.0
 10
104.2813177907699
 20
-131.7101345156836
 30
0.0
 10
104.2981987586477
 20
-131.7101345156836
 30
0.0
 10
104.3488416622808
 20
-131.7101345156836
 30
0.0
 10
104.3657226301586
 20
-131.6891194332236
 30
0.0
 10
104.3657226301586
 20
-131.6319308481684
 30
0.0
 10
104.3657226301586
 20
-131.6319308481684
 30
0.0
 10
104.3657226301586
 20
-131.494471538307
 30
0.0
 10
104.3657226301586
 20
-131.494471538307
 30
0.0
 10
104.3657226301586
 20
-131.494471538307
 30
0.0
 10
104.2599581987614
 20
-131.494471538307
 30
0.0
 10
104.2599581987614
 20
-131.494471538307
 30
0.0
 10
104.1266330034822
 20
-131.494471538307
 30
0.0
 10
103.9702256684519
 20
-131.494471538307
 30
0.0
 10
103.847580269177
 20
-131.5072183916024
 30
0.0
 10
103.847580269177
 20
-131.5072183916024
 30
0.0
 10
103.847580269177
 20
-131.3167046112681
 30
0.0
 10
103.847580269177
 20
-131.3167046112681
 30
0.0
 10
104.0146674002116
 20
-131.3335855791458
 30
0.0
 10
104.2451442881748
 20
-131.3356526364369
 30
0.0
 10
104.2599581987614
 20
-131.3356526364369
 30
0.0
 10
104.2599581987614
 20
-131.3356526364369
 30
0.0
 10
104.3657226301586
 20
-131.3356526364369
 30
0.0
 10
104.3657226301586
 20
-131.3356526364369
 30
0.0
 10
104.3657226301586
 20
-131.3356526364369
 30
0.0
 10
104.3657226301586
 20
-131.2047390079974
 30
0.0
 10
104.3657226301586
 20
-131.2047390079974
 30
0.0
 10
104.3657226301586
 20
-131.2047390079974
 30
0.0
 10
104.3278265798208
 20
-131.2047390079974
 30
0.0
 10
104.3278265798208
 20
-131.2047390079974
 30
0.0
 10
104.2833848480611
 20
-131.2047390079974
 30
0.0
 10
104.1583278819465
 20
-131.2088731225797
 30
0.0
 10
104.0694444184271
 20
-131.2171413517443
 30
0.0
 10
104.0694444184271
 20
-131.2171413517443
 30
0.0
 10
104.0694444184271
 20
-131.136870626938
 30
0.0
 10
104.0694444184271
 20
-131.136870626938
 30
0.0
 10
104.0167344575028
 20
-131.1751111868243
 30
0.0
 10
103.9912407509119
 20
-131.1899250974108
 30
0.0
 10
103.9488660764433
 20
-131.213007237162
 30
0.0
 10
103.9488660764433
 20
-131.213007237162
 30
0.0
 10
103.7607638629487
 20
-131.0841606660137
 30
0.0
 10
103.7607638629487
 20
-131.0841606660137
 30
0.0
 10
103.8389675304639
 20
-131.0500542207097
 30
0.0
 10
103.9957193750427
 20
-130.9866644637811
 30
0.0
 10
104.1521267100731
 20
-130.8430039820462
 30
0.0
 10
104.2344644921706
 20
-130.7644558049825
 30
0.0
 10
104.3130126692343
 20
-130.6800509655939
 30
0.0
 10
104.3657226301586
 20
-130.578420648779
 30
0.0
 10
104.3657226301586
 20
-130.578420648779
 30
0.0
 10
104.5772514929529
 20
-130.6397433484165
 30
0.0
 10
104.5772514929529
 20
-130.6397433484165
 30
0.0
 10
104.5965440276703
 20
-130.6459445202899
 30
0.0
 10
104.6068793141261
 20
-130.654557259003
 30
0.0
 10
104.6068793141261
 20
-130.6673041122985
 30
0.0
 10
104.6068793141261
 20
-130.6841850801762
 30
0.0
 10
104.5941324608306
 20
-130.6903862520496
 30
0.0
 10
104.5689832637883
 20
-130.703133105345
 30
0.0
 10
104.6492539885946
 20
-130.8006293075776
 30
0.0
 10
104.812207005047
 20
-130.8977810002617
 30
0.0
 10
104.8459689408024
 20
-130.9167290254306
 30
0.0
 10
104.9961751039593
 20
-131.00561248895
 30
0.0
 10
105.1105522740696
 20
-131.033173252832
 30
0.0
 10
105.1887559415848
 20
-131.0521212780009
 30
0.0
 10
105.1887559415848
 20
-131.0521212780009
 30
0.0
 10
105.0702446568922
 20
-131.2216199758751
 30
0.0
 10
105.0702446568922
 20
-131.2216199758751
 30
0.0
 10
104.985495307955
 20
-131.191992154702
 30
0.0
 10
104.9348524043218
 20
-131.1730441295331
 30
0.0
 10
104.8163411196293
 20
-131.1072428057649
 30
0.0
 10
104.8163411196293
 20
-131.1072428057649
 30
0.0
 10
104.8163411196293
 20
-131.2171413517443
 30
0.0
 10
104.8163411196293
 20
-131.2171413517443
 30
0.0
 10
104.7340033375318
 20
-131.2088731225797
 30
0.0
 10
104.6068793141261
 20
-131.2047390079974
 30
0.0
 10
104.5541693532017
 20
-131.2047390079974
 30
0.0
 10
104.5541693532017
 20
-131.2047390079974
 30
0.0
 10
104.5541693532017
 20
-131.3356526364369
 30
0.0
 10
104.5541693532017
 20
-131.3356526364369
 30
0.0
 10
104.5541693532017
 20
-131.3356526364369
 30
0.0
 10
104.6747476951855
 20
-131.3356526364369
 30
0.0
 10
104.6747476951855
 20
-131.3356526364369
 30
0.0
 10
104.6768147524766
 20
-131.3356526364369
 30
0.0
 10
104.909358697731
 20
-131.3335855791458
 30
0.0
 10
105.0871256247699
 20
-131.3167046112681
 30
0.0
 10
105.0871256247699
 20
-131.3167046112681
 30
0.0
 10
105.0871256247699
 20
-131.5072183916024
 30
0.0
 10
105.0871256247699
 20
-131.5072183916024
 30
0.0
 10
104.9582790536216
 20
-131.494471538307
 30
0.0
 10
104.8015272090427
 20
-131.494471538307
 30
0.0
 10
104.6747476951855
 20
-131.494471538307
 30
0.0
 10
104.6747476951855
 20
-131.494471538307
 30
0.0
 10
104.5541693532017
 20
-131.494471538307
 30
0.0
 10
104.5541693532017
 20
-131.494471538307
 30
0.0
 10
104.5541693532017
 20
-131.494471538307
 30
0.0
 10
104.5541693532017
 20
-131.7208143116879
 30
0.0
 10
104.5541693532017
 20
-131.7208143116879
 30
0.0
 10
104.5541693532017
 20
-131.8393255963805
 30
0.0
 10
104.5286756466109
 20
-131.875154589427
 30
0.0
 10
104.3677896874497
 20
-131.8899685000136
 30
0.0
 10
104.3722683115806
 20
-131.9089165251825
 30
0.0
 10
104.3657226301586
 20
-131.9195963211868
 30
0.0
 10
104.3278265798208
 20
-131.9430229704865
 30
0.0
 10
104.3257595225297
 20
-131.9619709956553
 30
0.0
 10
104.3257595225297
 20
-131.9681721675288
 30
0.0
 10
104.32334795569
 20
-131.9829860781154
 30
0.0
 10
104.32334795569
 20
-131.9829860781154
 30
0.0
 10
104.4608072655515
 20
-131.9829860781154
 30
0.0
 10
104.4608072655515
 20
-131.9829860781154
 30
0.0
 10
104.6258273392949
 20
-131.9829860781154
 30
0.0
 10
104.7932589798781
 20
-131.9788519635331
 30
0.0
 10
104.9603461109127
 20
-131.9640380529465
 30
0.0
 10
104.9603461109127
 20
-131.9640380529465
 30
0.0
 10
104.9603461109127
 20
-132.1714328011585
 30
0.0
 10
104.9603461109127
 20
-132.1714328011585
 30
0.0
 10
104.7443386239875
 20
-132.1545518332808
 30
0.0
 10
104.4800998002689
 20
-132.1545518332808
 30
0.0
 10
104.4608072655515
 20
-132.1545518332808
 30
0.0
 10
104.4608072655515
 20
-132.1545518332808
 30
0.0
 10
104.3212808983989
 20
-132.1545518332808
 30
0.0
 10
104.3212808983989
 20
-132.1545518332808
 30
0.0
 10
104.3212808983989
 20
-132.1545518332808
 30
0.0
 10
104.3212808983989
 20
-132.2961452577246
 30
0.0
 10
104.3212808983989
 20
-132.2961452577246
 30
0.0
 10
104.3212808983989
 20
-132.2961452577246
 30
0.0
 10
104.5476236717798
 20
-132.2961452577246
 30
0.0
 10
104.5476236717798
 20
-132.2961452577246
 30
0.0
 10
104.7636311587049
 20
-132.2961452577246
 30
0.0
 10
104.9813611933727
 20
-132.2920111431423
 30
0.0
 10
105.1970241707494
 20
-132.2792642898469
 30
0.0
 10
105.1970241707494
 20
-132.2792642898469
 30
0.0
 10
105.1970241707494
 20
-132.4866590380589
 30
0.0
 10
105.1970241707494
 20
-132.4866590380589
 30
0.0
 10
104.915904379153
 20
-132.4697780701812
 30
0.0
 10
104.5710503210795
 20
-132.4697780701812
 30
0.0
 10
104.5476236717798
 20
-132.4697780701812
 30
0.0
  0
SPLINE
  5
93
330
8D
100
AcDbEntity
  8
_U+30EC_U+30A4_U+30E4_U+30FC 1
370
     0
100
AcDbSpline
210
0.0
220
0.0
230
1.0
 70
    11
 71
     3
 72
    23
 73
    19
 74
     0
 42
0.0000000001
 43
0.0000000001
 12
1.0
 22
0.0
 32
0.0
 13
1.0
 23
0.0
 33
0.0
 40
0.0
 40
0.0
 40
0.0
 40
0.0
 40
1.0
 40
1.0
 40
1.0
 40
2.0
 40
2.0
 40
2.0
 40
3.0
 40
3.0
 40
3.0
 40
4.0
 40
4.0
 40
4.0
 40
5.0
 40
5.0
 40
5.0
 40
6.0
 40
6.0
 40
6.0
 40
6.0
 10
103.4286566581706
 20
-131.8413926536716
 30
0.0
 10
103.4286566581706
 20
-131.8624077361316
 30
0.0
 10
103.4307237154618
 20
-131.9006482960179
 30
0.0
 10
103.4052300088709
 20
-131.9006482960179
 30
0.0
 10
103.3948947224152
 20
-131.9006482960179
 30
0.0
 10
103.386281983702
 20
-131.8941026145959
 30
0.0
 10
103.3756021876978
 20
-131.8772216467182
 30
0.0
 10
103.3756021876978
 20
-131.8772216467182
 30
0.0
 10
103.2719048135917
 20
-131.695320605097
 30
0.0
 10
103.2719048135917
 20
-131.695320605097
 30
0.0
 10
103.4879123005169
 20
-131.5664740339487
 30
0.0
 10
103.6846272527247
 20
-131.289143847386
 30
0.0
 10
103.7311360417756
 20
-131.2171413517443
 30
0.0
 10
103.7311360417756
 20
-131.2171413517443
 30
0.0
 10
103.8031385374173
 20
-131.3969753360744
 30
0.0
 10
103.8031385374173
 20
-131.3969753360744
 30
0.0
 10
103.6698133421381
 20
-131.5936902882821
 30
0.0
 10
103.4941134723904
 20
-131.778002896743
 30
0.0
 10
103.4286566581706
 20
-131.8413926536716
 30
0.0
  0
SPLINE
  5
94
330
8D
100
AcDbEntity
  8
_U+30EC_U+30A4_U+30E4_U+30FC 1
370
     0
100
AcDbSpline
210
0.0
220
0.0
230
1.0
 70
    11
 71
     3
 72
    17
 73
    13
 74
     0
 42
0.0000000001
 43
0.0000000001
 12
1.0
 22
0.0
 32
0.0
 13
1.0
 23
0.0
 33
0.0
 40
0.0
 40
0.0
 40
0.0
 40
0.0
 40
1.0
 40
1.0
 40
1.0
 40
2.0
 40
2.0
 40
2.0
 40
3.0
 40
3.0
 40
3.0
 40
4.0
 40
4.0
 40
4.0
 40
4.0
 10
103.6825601954335
 20
-130.9463568466037
 30
0.0
 10
103.6212374957961
 20
-130.8702202363797
 30
0.0
 10
103.4920464150992
 20
-130.7940836261556
 30
0.0
 10
103.3883490409932
 20
-130.7644558049825
 30
0.0
 10
103.3883490409932
 20
-130.7644558049825
 30
0.0
 10
103.4837781859346
 20
-130.599435731239
 30
0.0
 10
103.4837781859346
 20
-130.599435731239
 30
0.0
 10
103.585063993201
 20
-130.6356092338341
 30
0.0
 10
103.6908284245981
 20
-130.6927978188893
 30
0.0
 10
103.7797118881176
 20
-130.7730685436956
 30
0.0
 10
103.7797118881176
 20
-130.7730685436956
 30
0.0
 10
103.6825601954335
 20
-130.9463568466037
 30
0.0
 10
103.6825601954335
 20
-130.9463568466037
 30
0.0
  0
SPLINE
  5
95
330
8D
100
AcDbEntity
  8
_U+30EC_U+30A4_U+30E4_U+30FC 1
370
     0
100
AcDbSpline
210
0.0
220
0.0
230
1.0
 70
    11
 71
     3
 72
    23
 73
    19
 74
     0
 42
0.0000000001
 43
0.0000000001
 12
1.0
 22
0.0
 32
0.0
 13
1.0
 23
0.0
 33
0.0
 40
0.0
 40
0.0
 40
0.0
 40
0.0
 40
1.0
 40
1.0
 40
1.0
 40
2.0
 40
2.0
 40
2.0
 40
3.0
 40
3.0
 40
3.0
 40
4.0
 40
4.0
 40
4.0
 40
5.0
 40
5.0
 40
5.0
 40
6.0
 40
6.0
 40
6.0
 40
6.0
 10
104.1352457421954
 20
-131.6508788733373
 30
0.0
 10
104.1138861501868
 20
-131.674305522637
 30
0.0
 10
104.0167344575028
 20
-131.7862711259076
 30
0.0
 10
103.8772080903502
 20
-131.8668863602624
 30
0.0
 10
103.8772080903502
 20
-131.8668863602624
 30
0.0
 10
103.7101209593155
 20
-131.7463080182787
 30
0.0
 10
103.7101209593155
 20
-131.7463080182787
 30
0.0
 10
103.8603271224724
 20
-131.6701714080547
 30
0.0
 10
103.9595458724476
 20
-131.5747422631133
 30
0.0
 10
104.0081217187896
 20
-131.5220323021889
 30
0.0
 10
104.0081217187896
 20
-131.5220323021889
 30
0.0
 10
104.1817545312462
 20
-131.6043700842864
 30
0.0
 10
104.1817545312462
 20
-131.6043700842864
 30
0.0
 10
104.1900227604108
 20
-131.6085041988687
 30
0.0
 10
104.198635499124
 20
-131.6150498802907
 30
0.0
 10
104.198635499124
 20
-131.625729676295
 30
0.0
 10
104.198635499124
 20
-131.6508788733373
 30
0.0
 10
104.1628065060774
 20
-131.6508788733373
 30
0.0
 10
104.1352457421954
 20
-131.6508788733373
 30
0.0
  0
SPLINE
  5
96
330
8D
100
AcDbEntity
  8
_U+30EC_U+30A4_U+30E4_U+30FC 1
370
     0
100
AcDbSpline
210
0.0
220
0.0
230
1.0
 70
    11
 71
     3
 72
    20
 73
    16
 74
     0
 42
0.0000000001
 43
0.0000000001
 12
1.0
 22
0.0
 32
0.0
 13
1.0
 23
0.0
 33
0.0
 40
0.0
 40
0.0
 40
0.0
 40
0.0
 40
1.0
 40
1.0
 40
1.0
 40
2.0
 40
2.0
 40
2.0
 40
3.0
 40
3.0
 40
3.0
 40
4.0
 40
4.0
 40
4.0
 40
5.0
 40
5.0
 40
5.0
 40
5.0
 10
104.433591011218
 20
-130.8088975367422
 30
0.0
 10
104.3953504513317
 20
-130.8578178926328
 30
0.0
 10
104.3340277516943
 20
-130.9360215601479
 30
0.0
 10
104.1945013845417
 20
-131.0459201061274
 30
0.0
 10
104.274772109348
 20
-131.0500542207097
 30
0.0
 10
104.3043999305211
 20
-131.0500542207097
 30
0.0
 10
104.3278265798208
 20
-131.0500542207097
 30
0.0
 10
104.3278265798208
 20
-131.0500542207097
 30
0.0
 10
104.5562364104929
 20
-131.0500542207097
 30
0.0
 10
104.5562364104929
 20
-131.0500542207097
 30
0.0
 10
104.5879312889572
 20
-131.0500542207097
 30
0.0
 10
104.6365071352992
 20
-131.0479871634186
 30
0.0
 10
104.7105766882321
 20
-131.0459201061274
 30
0.0
 10
104.5986110849615
 20
-130.9718505531945
 30
0.0
 10
104.5496907290709
 20
-130.9253417641437
 30
0.0
 10
104.433591011218
 20
-130.8088975367422
 30
0.0
  0
SPLINE
  5
97
330
8D
100
AcDbEntity
  8
_U+30EC_U+30A4_U+30E4_U+30FC 1
370
     0
100
AcDbSpline
210
0.0
220
0.0
230
1.0
 70
    11
 71
     3
 72
    17
 73
    13
 74
     0
 42
0.0000000001
 43
0.0000000001
 12
1.0
 22
0.0
 32
0.0
 13
1.0
 23
0.0
 33
0.0
 40
0.0
 40
0.0
 40
0.0
 40
0.0
 40
1.0
 40
1.0
 40
1.0
 40
2.0
 40
2.0
 40
2.0
 40
3.0
 40
3.0
 40
3.0
 40
4.0
 40
4.0
 40
4.0
 40
4.0
 10
104.9941080466681
 20
-131.8644747934228
 30
0.0
 10
104.8587157940978
 20
-131.7525091901522
 30
0.0
 10
104.7529513627007
 20
-131.6891194332236
 30
0.0
 10
104.6344400780081
 20
-131.625729676295
 30
0.0
 10
104.6344400780081
 20
-131.625729676295
 30
0.0
 10
104.7612195918653
 20
-131.5134195634758
 30
0.0
 10
104.7612195918653
 20
-131.5134195634758
 30
0.0
 10
104.8924777298533
 20
-131.5599283525267
 30
0.0
 10
105.0023762758327
 20
-131.6171169375818
 30
0.0
 10
105.1274332419473
 20
-131.7187472543967
 30
0.0
 10
105.1274332419473
 20
-131.7187472543967
 30
0.0
 10
104.9941080466681
 20
-131.8644747934228
 30
0.0
 10
104.9941080466681
 20
-131.8644747934228
 30
0.0
  0
HATCH
  5
98
330
8D
100
AcDbEntity
  8
_U+30EC_U+30A4_U+30E4_U+30FC 1
 62
     7
420
 16777215
100
AcDbHatch
 10
0.0
 20
0.0
 30
0.0
210
0.0
220
0.0
230
1.0
  2
SOLID
 70
     1
 71
     0
 91
        7
 92
        1
 93
        1
 72
     4
 94
        3
 73
     0
 74
     1
 95
       17
 96
       13
 40
0.0
 40
0.0
 40
0.0
 40
0.0
 40
1.0
 40
1.0
 40
1.0
 40
2.0
 40
2.0
 40
2.0
 40
3.0
 40
3.0
 40
3.0
 40
4.0
 40
4.0
 40
4.0
 40
4.0
 10
103.5027262111035
 20
-131.2912109046772
 10
103.3969617797063
 20
-131.18544647328
 10
103.3163465453515
 20
-131.1475504229423
 10
103.2233289672497
 20
-131.115855544478
 10
103.2233289672497
 20
-131.115855544478
 10
103.3335720227777
 20
-130.9508354707345
 10
103.3335720227777
 20
-130.9508354707345
 10
103.4307237154618
 20
-130.9932101452031
 10
103.5513020574455
 20
-131.0714138127183
 10
103.6043565279184
 20
-131.1261908309337
 10
103.6043565279184
 20
-131.1261908309337
 10
103.5027262111035
 20
-131.2912109046772
 10
103.5027262111035
 20
-131.2912109046772
 97
        0
 97
        0
 92
        1
 93
        1
 72
     4
 94
        3
 73
     0
 74
     1
 95
      182
 96
      178
 40
0.0
 40
0.0
 40
0.0
 40
0.0
 40
1.0
 40
1.0
 40
1.0
 40
2.0
 40
2.0
 40
2.0
 40
3.0
 40
3.0
 40
3.0
 40
4.0
 40
4.0
 40
4.0
 40
5.0
 40
5.0
 40
5.0
 40
6.0
 40
6.0
 40
6.0
 40
7.0
 40
7.0
 40
7.0
 40
8.0
 40
8.0
 40
8.0
 40
9.0
 40
9.0
 40
9.0
 40
10.0
 40
10.0
 40
10.0
 40
11.0
 40
11.0
 40
11.0
 40
12.0
 40
12.0
 40
12.0
 40
13.0
 40
13.0
 40
13.0
 40
14.0
 40
14.0
 40
14.0
 40
15.0
 40
15.0
 40
15.0
 40
16.0
 40
16.0
 40
16.0
 40
17.0
 40
17.0
 40
17.0
 40
18.0
 40
18.0
 40
18.0
 40
19.0
 40
19.0
 40
19.0
 40
20.0
 40
20.0
 40
20.0
 40
21.0
 40
21.0
 40
21.0
 40
22.0
 40
22.0
 40
22.0
 40
23.0
 40
23.0
 40
23.0
 40
24.0
 40
24.0
 40
24.0
 40
25.0
 40
25.0
 40
25.0
 40
26.0
 40
26.0
 40
26.0
 40
27.0
 40
27.0
 40
27.0
 40
28.0
 40
28.0
 40
28.0
 40
29.0
 40
29.0
 40
29.0
 40
30.0
 40
30.0
 40
30.0
 40
31.0
 40
31.0
 40
31.0
 40
32.0
 40
32.0
 40
32.0
 40
33.0
 40
33.0
 40
33.0
 40
34.0
 40
34.0
 40
34.0
 40
35.0
 40
35.0
 40
35.0
 40
36.0
 40
36.0
 40
36.0
 40
37.0
 40
37.0
 40
37.0
 40
38.0
 40
38.0
 40
38.0
 40
39.0
 40
39.0
 40
39.0
 40
40.0
 40
40.0
 40
40.0
 40
41.0
 40
41.0
 40
41.0
 40
42.0
 40
42.0
 40
42.0
 40
43.0
 40
43.0
 40
43.0
 40
44.0
 40
44.0
 40
44.0
 40
45.0
 40
45.0
 40
45.0
 40
46.0
 40
46.0
 40
46.0
 40
47.0
 40
47.0
 40
47.0
 40
48.0
 40
48.0
 40
48.0
 40
49.0
 40
49.0
 40
49.0
 40
50.0
 40
50.0
 40
50.0
 40
51.0
 40
51.0
 40
51.0
 40
52.0
 40
52.0
 40
52.0
 40
53.0
 40
53.0
 40
53.0
 40
54.0
 40
54.0
 40
54.0
 40
55.0
 40
55.0
 40
55.0
 40
56.0
 40
56.0
 40
56.0
 40
57.0
 40
57.0
 40
57.0
 40
58.0
 40
58.0
 40
58.0
 40
59.0
 40
59.0
 40
59.0
 40
59.0
 10
104.5476236717798
 20
-132.4697780701812
 10
104.5476236717798
 20
-132.4697780701812
 10
103.9109700261056
 20
-132.4697780701812
 10
103.9109700261056
 20
-132.4697780701812
 10
103.6973741060201
 20
-132.4697780701812
 10
103.4813666190949
 20
-132.4739121847635
 10
103.2677706990094
 20
-132.4866590380589
 10
103.2677706990094
 20
-132.4866590380589
 10
103.2677706990094
 20
-132.2792642898469
 10
103.2677706990094
 20
-132.2792642898469
 10
103.4899793578081
 20
-132.2920111431423
 10
103.813473823873
 20
-132.2961452577246
 10
103.9109700261056
 20
-132.2961452577246
 10
103.9109700261056
 20
-132.2961452577246
 10
104.1311116276131
 20
-132.2961452577246
 10
104.1311116276131
 20
-132.2961452577246
 10
104.1311116276131
 20
-132.2961452577246
 10
104.1311116276131
 20
-132.1545518332808
 10
104.1311116276131
 20
-132.1545518332808
 10
104.1311116276131
 20
-132.1545518332808
 10
103.9702256684519
 20
-132.1545518332808
 10
103.9702256684519
 20
-132.1545518332808
 10
103.8052055947084
 20
-132.1545518332808
 10
103.640185520965
 20
-132.1586859478631
 10
103.4751654472215
 20
-132.1734998584497
 10
103.4751654472215
 20
-132.1734998584497
 10
103.4751654472215
 20
-131.9640380529465
 10
103.4751654472215
 20
-131.9640380529465
 10
103.6463866928384
 20
-131.9788519635331
 10
103.8940890582279
 20
-131.9829860781154
 10
103.9702256684519
 20
-131.9829860781154
 10
103.9702256684519
 20
-131.9829860781154
 10
104.1311116276131
 20
-131.9829860781154
 10
104.1311116276131
 20
-131.9829860781154
 10
104.1266330034822
 20
-131.9113280920222
 10
104.1266330034822
 20
-131.9047824106002
 10
104.1204318316088
 20
-131.8520724496759
 10
104.1204318316088
 20
-131.8520724496759
 10
104.2599581987614
 20
-131.8668863602624
 10
104.2599581987614
 20
-131.8668863602624
 10
104.2599581987614
 20
-131.8668863602624
 10
104.1607394487862
 20
-131.695320605097
 10
104.1607394487862
 20
-131.695320605097
 10
104.2072482378371
 20
-131.701866286519
 10
104.2813177907699
 20
-131.7101345156836
 10
104.2981987586477
 20
-131.7101345156836
 10
104.3488416622808
 20
-131.7101345156836
 10
104.3657226301586
 20
-131.6891194332236
 10
104.3657226301586
 20
-131.6319308481684
 10
104.3657226301586
 20
-131.6319308481684
 10
104.3657226301586
 20
-131.494471538307
 10
104.3657226301586
 20
-131.494471538307
 10
104.3657226301586
 20
-131.494471538307
 10
104.2599581987614
 20
-131.494471538307
 10
104.2599581987614
 20
-131.494471538307
 10
104.1266330034822
 20
-131.494471538307
 10
103.9702256684519
 20
-131.494471538307
 10
103.847580269177
 20
-131.5072183916024
 10
103.847580269177
 20
-131.5072183916024
 10
103.847580269177
 20
-131.3167046112681
 10
103.847580269177
 20
-131.3167046112681
 10
104.0146674002116
 20
-131.3335855791458
 10
104.2451442881748
 20
-131.3356526364369
 10
104.2599581987614
 20
-131.3356526364369
 10
104.2599581987614
 20
-131.3356526364369
 10
104.3657226301586
 20
-131.3356526364369
 10
104.3657226301586
 20
-131.3356526364369
 10
104.3657226301586
 20
-131.3356526364369
 10
104.3657226301586
 20
-131.2047390079974
 10
104.3657226301586
 20
-131.2047390079974
 10
104.3657226301586
 20
-131.2047390079974
 10
104.3278265798208
 20
-131.2047390079974
 10
104.3278265798208
 20
-131.2047390079974
 10
104.2833848480611
 20
-131.2047390079974
 10
104.1583278819465
 20
-131.2088731225797
 10
104.0694444184271
 20
-131.2171413517443
 10
104.0694444184271
 20
-131.2171413517443
 10
104.0694444184271
 20
-131.136870626938
 10
104.0694444184271
 20
-131.136870626938
 10
104.0167344575028
 20
-131.1751111868243
 10
103.9912407509119
 20
-131.1899250974108
 10
103.9488660764433
 20
-131.213007237162
 10
103.9488660764433
 20
-131.213007237162
 10
103.7607638629487
 20
-131.0841606660137
 10
103.7607638629487
 20
-131.0841606660137
 10
103.8389675304639
 20
-131.0500542207097
 10
103.9957193750427
 20
-130.9866644637811
 10
104.1521267100731
 20
-130.8430039820462
 10
104.2344644921706
 20
-130.7644558049825
 10
104.3130126692343
 20
-130.6800509655939
 10
104.3657226301586
 20
-130.578420648779
 10
104.3657226301586
 20
-130.578420648779
 10
104.5772514929529
 20
-130.6397433484165
 10
104.5772514929529
 20
-130.6397433484165
 10
104.5965440276703
 20
-130.6459445202899
 10
104.6068793141261
 20
-130.654557259003
 10
104.6068793141261
 20
-130.6673041122985
 10
104.6068793141261
 20
-130.6841850801762
 10
104.5941324608306
 20
-130.6903862520496
 10
104.5689832637883
 20
-130.703133105345
 10
104.6492539885946
 20
-130.8006293075776
 10
104.812207005047
 20
-130.8977810002617
 10
104.8459689408024
 20
-130.9167290254306
 10
104.9961751039593
 20
-131.00561248895
 10
105.1105522740696
 20
-131.033173252832
 10
105.1887559415848
 20
-131.0521212780009
 10
105.1887559415848
 20
-131.0521212780009
 10
105.0702446568922
 20
-131.2216199758751
 10
105.0702446568922
 20
-131.2216199758751
 10
104.985495307955
 20
-131.191992154702
 10
104.9348524043218
 20
-131.1730441295331
 10
104.8163411196293
 20
-131.1072428057649
 10
104.8163411196293
 20
-131.1072428057649
 10
104.8163411196293
 20
-131.2171413517443
 10
104.8163411196293
 20
-131.2171413517443
 10
104.7340033375318
 20
-131.2088731225797
 10
104.6068793141261
 20
-131.2047390079974
 10
104.5541693532017
 20
-131.2047390079974
 10
104.5541693532017
 20
-131.2047390079974
 10
104.5541693532017
 20
-131.3356526364369
 10
104.5541693532017
 20
-131.3356526364369
 10
104.5541693532017
 20
-131.3356526364369
 10
104.6747476951855
 20
-131.3356526364369
 10
104.6747476951855
 20
-131.3356526364369
 10
104.6768147524766
 20
-131.3356526364369
 10
104.909358697731
 20
-131.3335855791458
 10
105.0871256247699
 20
-131.3167046112681
 10
105.0871256247699
 20
-131.3167046112681
 10
105.0871256247699
 20
-131.5072183916024
 10
105.0871256247699
 20
-131.5072183916024
 10
104.9582790536216
 20
-131.494471538307
 10
104.8015272090427
 20
-131.494471538307
 10
104.6747476951855
 20
-131.494471538307
 10
104.6747476951855
 20
-131.494471538307
 10
104.5541693532017
 20
-131.494471538307
 10
104.5541693532017
 20
-131.494471538307
 10
104.5541693532017
 20
-131.494471538307
 10
104.5541693532017
 20
-131.7208143116879
 10
104.5541693532017
 20
-131.7208143116879
 10
104.5541693532017
 20
-131.8393255963805
 10
104.5286756466109
 20
-131.875154589427
 10
104.3677896874497
 20
-131.8899685000136
 10
104.3722683115806
 20
-131.9089165251825
 10
104.3657226301586
 20
-131.9195963211868
 10
104.3278265798208
 20
-131.9430229704865
 10
104.3257595225297
 20
-131.9619709956553
 10
104.3257595225297
 20
-131.9681721675288
 10
104.32334795569
 20
-131.9829860781154
 10
104.32334795569
 20
-131.9829860781154
 10
104.4608072655515
 20
-131.9829860781154
 10
104.4608072655515
 20
-131.9829860781154
 10
104.6258273392949
 20
-131.9829860781154
 10
104.7932589798781
 20
-131.9788519635331
 10
104.9603461109127
 20
-131.9640380529465
 10
104.9603461109127
 20
-131.9640380529465
 10
104.9603461109127
 20
-132.1714328011585
 10
104.9603461109127
 20
-132.1714328011585
 10
104.7443386239875
 20
-132.1545518332808
 10
104.4800998002689
 20
-132.1545518332808
 10
104.4608072655515
 20
-132.1545518332808
 10
104.4608072655515
 20
-132.1545518332808
 10
104.3212808983989
 20
-132.1545518332808
 10
104.3212808983989
 20
-132.1545518332808
 10
104.3212808983989
 20
-132.1545518332808
 10
104.3212808983989
 20
-132.2961452577246
 10
104.3212808983989
 20
-132.2961452577246
 10
104.3212808983989
 20
-132.2961452577246
 10
104.5476236717798
 20
-132.2961452577246
 10
104.5476236717798
 20
-132.2961452577246
 10
104.7636311587049
 20
-132.2961452577246
 10
104.9813611933727
 20
-132.2920111431423
 10
105.1970241707494
 20
-132.2792642898469
 10
105.1970241707494
 20
-132.2792642898469
 10
105.1970241707494
 20
-132.4866590380589
 10
105.1970241707494
 20
-132.4866590380589
 10
104.915904379153
 20
-132.4697780701812
 10
104.5710503210795
 20
-132.4697780701812
 10
104.5476236717798
 20
-132.4697780701812
 97
        0
 97
        0
 92
        1
 93
        1
 72
     4
 94
        3
 73
     0
 74
     1
 95
       23
 96
       19
 40
0.0
 40
0.0
 40
0.0
 40
0.0
 40
1.0
 40
1.0
 40
1.0
 40
2.0
 40
2.0
 40
2.0
 40
3.0
 40
3.0
 40
3.0
 40
4.0
 40
4.0
 40
4.0
 40
5.0
 40
5.0
 40
5.0
 40
6.0
 40
6.0
 40
6.0
 40
6.0
 10
103.4286566581706
 20
-131.8413926536716
 10
103.4286566581706
 20
-131.8624077361316
 10
103.4307237154618
 20
-131.9006482960179
 10
103.4052300088709
 20
-131.9006482960179
 10
103.3948947224152
 20
-131.9006482960179
 10
103.386281983702
 20
-131.8941026145959
 10
103.3756021876978
 20
-131.8772216467182
 10
103.3756021876978
 20
-131.8772216467182
 10
103.2719048135917
 20
-131.695320605097
 10
103.2719048135917
 20
-131.695320605097
 10
103.4879123005169
 20
-131.5664740339487
 10
103.6846272527247
 20
-131.289143847386
 10
103.7311360417756
 20
-131.2171413517443
 10
103.7311360417756
 20
-131.2171413517443
 10
103.8031385374173
 20
-131.3969753360744
 10
103.8031385374173
 20
-131.3969753360744
 10
103.6698133421381
 20
-131.5936902882821
 10
103.4941134723904
 20
-131.778002896743
 10
103.4286566581706
 20
-131.8413926536716
 97
        0
 97
        0
 92
        1
 93
        1
 72
     4
 94
        3
 73
     0
 74
     1
 95
       17
 96
       13
 40
0.0
 40
0.0
 40
0.0
 40
0.0
 40
1.0
 40
1.0
 40
1.0
 40
2.0
 40
2.0
 40
2.0
 40
3.0
 40
3.0
 40
3.0
 40
4.0
 40
4.0
 40
4.0
 40
4.0
 10
103.6825601954335
 20
-130.9463568466037
 10
103.6212374957961
 20
-130.8702202363797
 10
103.4920464150992
 20
-130.7940836261556
 10
103.3883490409932
 20
-130.7644558049825
 10
103.3883490409932
 20
-130.7644558049825
 10
103.4837781859346
 20
-130.599435731239
 10
103.4837781859346
 20
-130.599435731239
 10
103.585063993201
 20
-130.6356092338341
 10
103.6908284245981
 20
-130.6927978188893
 10
103.7797118881176
 20
-130.7730685436956
 10
103.7797118881176
 20
-130.7730685436956
 10
103.6825601954335
 20
-130.9463568466037
 10
103.6825601954335
 20
-130.9463568466037
 97
        0
 97
        0
 92
        1
 93
        1
 72
     4
 94
        3
 73
     0
 74
     1
 95
       23
 96
       19
 40
0.0
 40
0.0
 40
0.0
 40
0.0
 40
1.0
 40
1.0
 40
1.0
 40
2.0
 40
2.0
 40
2.0
 40
3.0
 40
3.0
 40
3.0
 40
4.0
 40
4.0
 40
4.0
 40
5.0
 40
5.0
 40
5.0
 40
6.0
 40
6.0
 40
6.0
 40
6.0
 10
104.1352457421954
 20
-131.6508788733373
 10
104.1138861501868
 20
-131.674305522637
 10
104.0167344575028
 20
-131.7862711259076
 10
103.8772080903502
 20
-131.8668863602624
 10
103.8772080903502
 20
-131.8668863602624
 10
103.7101209593155
 20
-131.7463080182787
 10
103.7101209593155
 20
-131.7463080182787
 10
103.8603271224724
 20
-131.6701714080547
 10
103.9595458724476
 20
-131.5747422631133
 10
104.0081217187896
 20
-131.5220323021889
 10
104.0081217187896
 20
-131.5220323021889
 10
104.1817545312462
 20
-131.6043700842864
 10
104.1817545312462
 20
-131.6043700842864
 10
104.1900227604108
 20
-131.6085041988687
 10
104.198635499124
 20
-131.6150498802907
 10
104.198635499124
 20
-131.625729676295
 10
104.198635499124
 20
-131.6508788733373
 10
104.1628065060774
 20
-131.6508788733373
 10
104.1352457421954
 20
-131.6508788733373
 97
        0
 97
        0
 92
        1
 93
        1
 72
     4
 94
        3
 73
     0
 74
     1
 95
       20
 96
       16
 40
0.0
 40
0.0
 40
0.0
 40
0.0
 40
1.0
 40
1.0
 40
1.0
 40
2.0
 40
2.0
 40
2.0
 40
3.0
 40
3.0
 40
3.0
 40
4.0
 40
4.0
 40
4.0
 40
5.0
 40
5.0
 40
5.0
 40
5.0
 10
104.433591011218
 20
-130.8088975367422
 10
104.3953504513317
 20
-130.8578178926328
 10
104.3340277516943
 20
-130.9360215601479
 10
104.1945013845417
 20
-131.0459201061274
 10
104.274772109348
 20
-131.0500542207097
 10
104.3043999305211
 20
-131.0500542207097
 10
104.3278265798208
 20
-131.0500542207097
 10
104.3278265798208
 20
-131.0500542207097
 10
104.5562364104929
 20
-131.0500542207097
 10
104.5562364104929
 20
-131.0500542207097
 10
104.5879312889572
 20
-131.0500542207097
 10
104.6365071352992
 20
-131.0479871634186
 10
104.7105766882321
 20
-131.0459201061274
 10
104.5986110849615
 20
-130.9718505531945
 10
104.5496907290709
 20
-130.9253417641437
 10
104.433591011218
 20
-130.8088975367422
 97
        0
 97
        0
 92
        1
 93
        1
 72
     4
 94
        3
 73
     0
 74
     1
 95
       17
 96
       13
 40
0.0
 40
0.0
 40
0.0
 40
0.0
 40
1.0
 40
1.0
 40
1.0
 40
2.0
 40
2.0
 40
2.0
 40
3.0
 40
3.0
 40
3.0
 40
4.0
 40
4.0
 40
4.0
 40
4.0
 10
104.9941080466681
 20
-131.8644747934228
 10
104.8587157940978
 20
-131.7525091901522
 10
104.7529513627007
 20
-131.6891194332236
 10
104.6344400780081
 20
-131.625729676295
 10
104.6344400780081
 20
-131.625729676295
 10
104.7612195918653
 20
-131.5134195634758
 10
104.7612195918653
 20
-131.5134195634758
 10
104.8924777298533
 20
-131.5599283525267
 10
105.0023762758327
 20
-131.6171169375818
 10
105.1274332419473
 20
-131.7187472543967
 10
105.1274332419473
 20
-131.7187472543967
 10
104.9941080466681
 20
-131.8644747934228
 10
104.9941080466681
 20
-131.8644747934228
 97
        0
 97
        0
 75
     2
 76
     1
 98
        0
  0
SPLINE
  5
99
330
8D
100
AcDbEntity
  8
_U+30EC_U+30A4_U+30E4_U+30FC 1
370
     0
100
AcDbSpline
210
0.0
220
0.0
230
1.0
 70
    11
 71
     3
 72
   113
 73
   109
 74
     0
 42
0.0000000001
 43
0.0000000001
 12
1.0
 22
0.0
 32
0.0
 13
1.0
 23
0.0
 33
0.0
 40
0.0
 40
0.0
 40
0.0
 40
0.0
 40
1.0
 40
1.0
 40
1.0
 40
2.0
 40
2.0
 40
2.0
 40
3.0
 40
3.0
 40
3.0
 40
4.0
 40
4.0
 40
4.0
 40
5.0
 40
5.0
 40
5.0
 40
6.0
 40
6.0
 40
6.0
 40
7.0
 40
7.0
 40
7.0
 40
8.0
 40
8.0
 40
8.0
 40
9.0
 40
9.0
 40
9.0
 40
10.0
 40
10.0
 40
10.0
 40
11.0
 40
11.0
 40
11.0
 40
12.0
 40
12.0
 40
12.0
 40
13.0
 40
13.0
 40
13.0
 40
14.0
 40
14.0
 40
14.0
 40
15.0
 40
15.0
 40
15.0
 40
16.0
 40
16.0
 40
16.0
 40
17.0
 40
17.0
 40
17.0
 40
18.0
 40
18.0
 40
18.0
 40
19.0
 40
19.0
 40
19.0
 40
20.0
 40
20.0
 40
20.0
 40
21.0
 40
21.0
 40
21.0
 40
22.0
 40
22.0
 40
22.0
 40
23.0
 40
23.0
 40
23.0
 40
24.0
 40
24.0
 40
24.0
 40
25.0
 40
25.0
 40
25.0
 40
26.0
 40
26.0
 40
26.0
 40
27.0
 40
27.0
 40
27.0
 40
28.0
 40
28.0
 40
28.0
 40
29.0
 40
29.0
 40
29.0
 40
30.0
 40
30.0
 40
30.0
 40
31.0
 40
31.0
 40
31.0
 40
32.0
 40
32.0
 40
32.0
 40
33.0
 40
33.0
 40
33.0
 40
34.0
 40
34.0
 40
34.0
 40
35.0
 40
35.0
 40
35.0
 40
36.0
 40
36.0
 40
36.0
 40
36.0
 10
106.8737521434205
 20
-131.8413926536716
 30
0.0
 10
106.8737521434205
 20
-131.8413926536716
 30
0.0
 10
106.9733154029442
 20
-131.9409559131953
 30
0.0
 10
106.9733154029442
 20
-131.9409559131953
 30
0.0
 10
106.9839951989484
 20
-131.9512911996511
 30
0.0
 10
106.9943304854042
 20
-131.9640380529465
 30
0.0
 10
106.9943304854042
 20
-131.9788519635331
 30
0.0
 10
106.9943304854042
 20
-131.9809190208242
 30
0.0
 10
106.9943304854042
 20
-132.0105468419974
 30
0.0
 10
106.9564344350665
 20
-132.0105468419974
 30
0.0
 10
106.9478216963533
 20
-132.0105468419974
 30
0.0
 10
106.9075140791759
 20
-132.0064127274151
 30
0.0
 10
106.9013129073025
 20
-132.0064127274151
 30
0.0
 10
106.861005290125
 20
-132.0381076058794
 30
0.0
 10
106.8144965010742
 20
-132.0718695416348
 30
0.0
 10
106.715277751099
 20
-132.12905812669
 30
0.0
 10
106.861005290125
 20
-132.2368896153783
 30
0.0
 10
107.019824191995
 20
-132.2940782004334
 30
0.0
 10
107.2926757544268
 20
-132.3323187603197
 30
0.0
 10
107.2926757544268
 20
-132.3323187603197
 30
0.0
 10
107.1424695912699
 20
-132.5076741205189
 30
0.0
 10
107.1424695912699
 20
-132.5076741205189
 30
0.0
 10
106.8802978248424
 20
-132.4356716248772
 30
0.0
 10
106.7235459802636
 20
-132.3471326709063
 30
0.0
 10
106.6474093700395
 20
-132.2940782004334
 30
0.0
 10
106.4972032068826
 20
-132.1924478836186
 30
0.0
 10
106.3535427251477
 20
-132.0294948671662
 30
0.0
 10
106.2774061149237
 20
-131.8644747934228
 30
0.0
 10
106.2095377338643
 20
-131.9302761171911
 30
0.0
 10
106.1354681809314
 20
-131.9829860781154
 30
0.0
 10
106.0572645134162
 20
-132.0319064340059
 30
0.0
 10
106.0572645134162
 20
-132.0319064340059
 30
0.0
 10
106.0572645134162
 20
-132.2833984044292
 30
0.0
 10
106.0572645134162
 20
-132.2833984044292
 30
0.0
 10
106.2202175298686
 20
-132.2582492073868
 30
0.0
 10
106.4062526860721
 20
-132.2138074756271
 30
0.0
 10
106.4696424430007
 20
-132.1989935650405
 30
0.0
 10
106.4696424430007
 20
-132.1989935650405
 30
0.0
 10
106.4400146218275
 20
-132.3681477533663
 30
0.0
 10
106.4400146218275
 20
-132.3681477533663
 30
0.0
 10
106.4379475645363
 20
-132.3681477533663
 30
0.0
 10
106.4189995393675
 20
-132.3743489252398
 30
0.0
 10
106.4169324820763
 20
-132.3743489252398
 30
0.0
 10
106.2181504725774
 20
-132.412589485126
 30
0.0
 10
105.9008571783859
 20
-132.4780462993458
 30
0.0
 10
105.7037977166296
 20
-132.5142198019409
 30
0.0
 10
105.6934624301739
 20
-132.5311007698186
 30
0.0
 10
105.6700357808742
 20
-132.5627956482829
 30
0.0
 10
105.646953641123
 20
-132.5627956482829
 30
0.0
 10
105.619392877241
 20
-132.5627956482829
 30
0.0
 10
105.6152587626587
 20
-132.543847623114
 30
0.0
 10
105.612847195819
 20
-132.5245550883967
 30
0.0
 10
105.612847195819
 20
-132.5245550883967
 30
0.0
 10
105.5876979987767
 20
-132.3512667854886
 30
0.0
 10
105.5876979987767
 20
-132.3512667854886
 30
0.0
 10
105.6617675517096
 20
-132.3426540467755
 30
0.0
 10
105.7695990403979
 20
-132.32990719348
 30
0.0
 10
105.8774305290862
 20
-132.30889211102
 30
0.0
 10
105.8774305290862
 20
-132.30889211102
 30
0.0
 10
105.8774305290862
 20
-132.1311251839811
 30
0.0
 10
105.8774305290862
 20
-132.1311251839811
 30
0.0
 10
105.7334255378028
 20
-132.2031276796228
 30
0.0
 10
105.6383409024099
 20
-132.232755500796
 30
0.0
 10
105.4733208286664
 20
-132.2623833219691
 30
0.0
 10
105.4733208286664
 20
-132.2623833219691
 30
0.0
 10
105.3527424866827
 20
-132.0932291336434
 30
0.0
 10
105.3527424866827
 20
-132.0932291336434
 30
0.0
 10
105.6700357808742
 20
-132.0656683697614
 30
0.0
 10
105.8626166184996
 20
-131.9726507916596
 30
0.0
 10
106.0403835455385
 20
-131.8393255963805
 30
0.0
 10
105.8943114969639
 20
-131.8393255963805
 30
0.0
 10
105.5938991706501
 20
-131.8434597109627
 30
0.0
 10
105.3971842184424
 20
-131.8500053923847
 30
0.0
 10
105.3971842184424
 20
-131.8500053923847
 30
0.0
 10
105.3971842184424
 20
-131.6722384653458
 30
0.0
 10
105.3971842184424
 20
-131.6722384653458
 30
0.0
 10
105.5515244961816
 20
-131.6784396372193
 30
0.0
 10
105.8478027079131
 20
-131.6849853186413
 30
0.0
 10
106.0317708068254
 20
-131.6849853186413
 30
0.0
 10
106.0317708068254
 20
-131.6849853186413
 30
0.0
 10
106.2432996696197
 20
-131.6849853186413
 30
0.0
 10
106.2432996696197
 20
-131.6849853186413
 30
0.0
 10
106.2432996696197
 20
-131.5895561736998
 30
0.0
 10
106.2412326123286
 20
-131.5389132700667
 30
0.0
 10
106.2350314404551
 20
-131.4924044810158
 30
0.0
 10
106.2350314404551
 20
-131.4924044810158
 30
0.0
 10
106.4506944178318
 20
-131.5092854488935
 30
0.0
 10
106.4506944178318
 20
-131.5092854488935
 30
0.0
 10
106.4992702641738
 20
-131.5134195634758
 30
0.0
 10
106.5078830028869
 20
-131.5282334740624
 30
0.0
 10
106.5078830028869
 20
-131.543047384649
 30
0.0
 10
106.5078830028869
 20
-131.5685410912398
 30
0.0
 10
106.4910020350092
 20
-131.5768093204044
 30
0.0
 10
106.4400146218275
 20
-131.6023030269953
 30
0.0
 10
106.4379475645363
 20
-131.6277967335861
 30
0.0
 10
106.4379475645363
 20
-131.6339979054596
 30
0.0
 10
106.4358805072452
 20
-131.6849853186413
 30
0.0
 10
106.4358805072452
 20
-131.6849853186413
 30
0.0
 10
106.6663573952084
 20
-131.6849853186413
 30
0.0
 10
106.6663573952084
 20
-131.6849853186413
 30
0.0
 10
106.8313774689519
 20
-131.6849853186413
 30
0.0
 10
107.1235215661011
 20
-131.6784396372193
 30
0.0
 10
107.3033555504311
 20
-131.6722384653458
 30
0.0
 10
107.3033555504311
 20
-131.6722384653458
 30
0.0
 10
107.3033555504311
 20
-131.8500053923847
 30
0.0
 10
107.3033555504311
 20
-131.8500053923847
 30
0.0
 10
107.1741644697342
 20
-131.8455267682539
 30
0.0
 10
107.1510823299831
 20
-131.8455267682539
 30
0.0
 10
106.8737521434205
 20
-131.8413926536716
 30
0.0
  0
SPLINE
  5
9A
330
8D
100
AcDbEntity
  8
_U+30EC_U+30A4_U+30E4_U+30FC 1
370
     0
100
AcDbSpline
210
0.0
220
0.0
230
1.0
 70
    11
 71
     3
 72
    23
 73
    19
 74
     0
 42
0.0000000001
 43
0.0000000001
 12
1.0
 22
0.0
 32
0.0
 13
1.0
 23
0.0
 33
0.0
 40
0.0
 40
0.0
 40
0.0
 40
0.0
 40
1.0
 40
1.0
 40
1.0
 40
2.0
 40
2.0
 40
2.0
 40
3.0
 40
3.0
 40
3.0
 40
4.0
 40
4.0
 40
4.0
 40
5.0
 40
5.0
 40
5.0
 40
6.0
 40
6.0
 40
6.0
 40
6.0
 10
105.5897650560678
 20
-131.4903374237246
 30
0.0
 10
105.5728840881901
 20
-131.5303005313535
 30
0.0
 10
105.5663384067681
 20
-131.5471814992313
 30
0.0
 10
105.5453233243081
 20
-131.5471814992313
 30
0.0
 10
105.5305094137215
 20
-131.5471814992313
 30
0.0
 10
105.5198296177173
 20
-131.5303005313535
 30
0.0
 10
105.5136284458438
 20
-131.5175536780581
 30
0.0
 10
105.5136284458438
 20
-131.5175536780581
 30
0.0
 10
105.4140651863201
 20
-131.3525336043147
 30
0.0
 10
105.4140651863201
 20
-131.3525336043147
 30
0.0
 10
105.515695503135
 20
-131.3208387258504
 30
0.0
 10
105.6659016662919
 20
-131.2660617076349
 30
0.0
 10
105.8646836757908
 20
-131.1031086911826
 30
0.0
 10
105.8646836757908
 20
-131.1031086911826
 30
0.0
 10
105.9218722608459
 20
-131.2763969940906
 30
0.0
 10
105.9218722608459
 20
-131.2763969940906
 30
0.0
 10
105.8288546827442
 20
-131.3590792857366
 30
0.0
 10
105.7399712192247
 20
-131.4162678707918
 30
0.0
 10
105.5897650560678
 20
-131.4903374237246
 30
0.0
  0
SPLINE
  5
9B
330
8D
100
AcDbEntity
  8
_U+30EC_U+30A4_U+30E4_U+30FC 1
370
     0
100
AcDbSpline
210
0.0
220
0.0
230
1.0
 70
    11
 71
     3
 72
    17
 73
    13
 74
     0
 42
0.0000000001
 43
0.0000000001
 12
1.0
 22
0.0
 32
0.0
 13
1.0
 23
0.0
 33
0.0
 40
0.0
 40
0.0
 40
0.0
 40
0.0
 40
1.0
 40
1.0
 40
1.0
 40
2.0
 40
2.0
 40
2.0
 40
3.0
 40
3.0
 40
3.0
 40
4.0
 40
4.0
 40
4.0
 40
4.0
 10
105.7420382765159
 20
-131.0249050236674
 30
0.0
 10
105.7124104553427
 20
-130.98459740649
 30
0.0
 10
105.6445420742833
 20
-130.8874457138059
 30
0.0
 10
105.4626410326621
 20
-130.7772026582779
 30
0.0
 10
105.4626410326621
 20
-130.7772026582779
 30
0.0
 10
105.5897650560678
 20
-130.6438774629987
 30
0.0
 10
105.5897650560678
 20
-130.6438774629987
 30
0.0
 10
105.7758002122713
 20
-130.7455077798136
 30
0.0
 10
105.8329887973265
 20
-130.8343912433331
 30
0.0
 10
105.8605495612085
 20
-130.8767659178016
 30
0.0
 10
105.8605495612085
 20
-130.8767659178016
 30
0.0
 10
105.7420382765159
 20
-131.0249050236674
 30
0.0
 10
105.7420382765159
 20
-131.0249050236674
 30
0.0
  0
SPLINE
  5
9C
330
8D
100
AcDbEntity
  8
_U+30EC_U+30A4_U+30E4_U+30FC 1
370
     0
100
AcDbSpline
210
0.0
220
0.0
230
1.0
 70
    11
 71
     3
 72
    38
 73
    34
 74
     0
 42
0.0000000001
 43
0.0000000001
 12
1.0
 22
0.0
 32
0.0
 13
1.0
 23
0.0
 33
0.0
 40
0.0
 40
0.0
 40
0.0
 40
0.0
 40
1.0
 40
1.0
 40
1.0
 40
2.0
 40
2.0
 40
2.0
 40
3.0
 40
3.0
 40
3.0
 40
4.0
 40
4.0
 40
4.0
 40
5.0
 40
5.0
 40
5.0
 40
6.0
 40
6.0
 40
6.0
 40
7.0
 40
7.0
 40
7.0
 40
8.0
 40
8.0
 40
8.0
 40
9.0
 40
9.0
 40
9.0
 40
10.0
 40
10.0
 40
10.0
 40
11.0
 40
11.0
 40
11.0
 40
11.0
 10
106.1099744743406
 20
-130.7200140732228
 30
0.0
 10
106.1079074170494
 20
-130.7668673718222
 30
0.0
 10
106.1058403597583
 20
-130.8829670896751
 30
0.0
 10
106.1058403597583
 20
-130.9274088214348
 30
0.0
 10
106.1058403597583
 20
-130.9274088214348
 30
0.0
 10
106.1058403597583
 20
-131.2743299367995
 30
0.0
 10
106.1058403597583
 20
-131.2743299367995
 30
0.0
 10
106.1058403597583
 20
-131.3611463430278
 30
0.0
 10
106.1079074170494
 20
-131.5027397674716
 30
0.0
 10
106.1185872130537
 20
-131.6233181094553
 30
0.0
 10
106.1185872130537
 20
-131.6233181094553
 30
0.0
 10
105.9280734327194
 20
-131.6233181094553
 30
0.0
 10
105.9280734327194
 20
-131.6233181094553
 30
0.0
 10
105.9325520568502
 20
-131.5599283525267
 30
0.0
 10
105.9366861714325
 20
-131.5072183916024
 30
0.0
 10
105.9387532287237
 20
-131.4520968638384
 30
0.0
 10
105.9408202860148
 20
-131.3294514645635
 30
0.0
 10
105.942887343306
 20
-131.3146375539769
 30
0.0
 10
105.942887343306
 20
-131.2701958222172
 30
0.0
 10
105.942887343306
 20
-131.2701958222172
 30
0.0
 10
105.942887343306
 20
-130.9487684134434
 30
0.0
 10
105.942887343306
 20
-130.9487684134434
 30
0.0
 10
105.942887343306
 20
-130.8936468856794
 30
0.0
 10
105.9301404900105
 20
-130.654557259003
 30
0.0
 10
105.9280734327194
 20
-130.6039143553699
 30
0.0
 10
105.9280734327194
 20
-130.6039143553699
 30
0.0
 10
106.129267009058
 20
-130.6314751192519
 30
0.0
 10
106.129267009058
 20
-130.6314751192519
 30
0.0
 10
106.150282091518
 20
-130.633542176543
 30
0.0
 10
106.1819769699823
 20
-130.6376762911253
 30
0.0
 10
106.1819769699823
 20
-130.6631699977162
 30
0.0
 10
106.1819769699823
 20
-130.6903862520496
 30
0.0
 10
106.1313340663491
 20
-130.7117458440582
 30
0.0
 10
106.1099744743406
 20
-130.7200140732228
 30
0.0
  0
SPLINE
  5
9D
330
8D
100
AcDbEntity
  8
_U+30EC_U+30A4_U+30E4_U+30FC 1
370
     0
100
AcDbSpline
210
0.0
220
0.0
230
1.0
 70
    11
 71
     3
 72
    83
 73
    79
 74
     0
 42
0.0000000001
 43
0.0000000001
 12
1.0
 22
0.0
 32
0.0
 13
1.0
 23
0.0
 33
0.0
 40
0.0
 40
0.0
 40
0.0
 40
0.0
 40
1.0
 40
1.0
 40
1.0
 40
2.0
 40
2.0
 40
2.0
 40
3.0
 40
3.0
 40
3.0
 40
4.0
 40
4.0
 40
4.0
 40
5.0
 40
5.0
 40
5.0
 40
6.0
 40
6.0
 40
6.0
 40
7.0
 40
7.0
 40
7.0
 40
8.0
 40
8.0
 40
8.0
 40
9.0
 40
9.0
 40
9.0
 40
10.0
 40
10.0
 40
10.0
 40
11.0
 40
11.0
 40
11.0
 40
12.0
 40
12.0
 40
12.0
 40
13.0
 40
13.0
 40
13.0
 40
14.0
 40
14.0
 40
14.0
 40
15.0
 40
15.0
 40
15.0
 40
16.0
 40
16.0
 40
16.0
 40
17.0
 40
17.0
 40
17.0
 40
18.0
 40
18.0
 40
18.0
 40
19.0
 40
19.0
 40
19.0
 40
20.0
 40
20.0
 40
20.0
 40
21.0
 40
21.0
 40
21.0
 40
22.0
 40
22.0
 40
22.0
 40
23.0
 40
23.0
 40
23.0
 40
24.0
 40
24.0
 40
24.0
 40
25.0
 40
25.0
 40
25.0
 40
26.0
 40
26.0
 40
26.0
 40
26.0
 10
106.9119927033067
 20
-131.0417859915451
 30
0.0
 10
106.9119927033067
 20
-131.0417859915451
 30
0.0
 10
106.8144965010742
 20
-131.0417859915451
 30
0.0
 10
106.8144965010742
 20
-131.0417859915451
 30
0.0
 10
106.8144965010742
 20
-131.0417859915451
 30
0.0
 10
106.8144965010742
 20
-131.289143847386
 30
0.0
 10
106.8144965010742
 20
-131.289143847386
 30
0.0
 10
106.8144965010742
 20
-131.289143847386
 30
0.0
 10
106.8971787927202
 20
-131.289143847386
 30
0.0
 10
106.8971787927202
 20
-131.289143847386
 30
0.0
 10
106.9626356069399
 20
-131.289143847386
 30
0.0
 10
107.1021619740925
 20
-131.2850097328038
 30
0.0
 10
107.2017252336162
 20
-131.2763969940906
 30
0.0
 10
107.2017252336162
 20
-131.2763969940906
 30
0.0
 10
107.2017252336162
 20
-131.4562309784207
 30
0.0
 10
107.2017252336162
 20
-131.4562309784207
 30
0.0
 10
107.1087076555145
 20
-131.4479627492561
 30
0.0
 10
106.9585014923576
 20
-131.4438286346738
 30
0.0
 10
106.8971787927202
 20
-131.4438286346738
 30
0.0
 10
106.8971787927202
 20
-131.4438286346738
 30
0.0
 10
106.5922878422755
 20
-131.4438286346738
 30
0.0
 10
106.5922878422755
 20
-131.4438286346738
 30
0.0
 10
106.5395778813512
 20
-131.4438286346738
 30
0.0
 10
106.3935058327766
 20
-131.4479627492561
 30
0.0
 10
106.2877414013795
 20
-131.4562309784207
 30
0.0
 10
106.2877414013795
 20
-131.4562309784207
 30
0.0
 10
106.2877414013795
 20
-131.2763969940906
 30
0.0
 10
106.2877414013795
 20
-131.2763969940906
 30
0.0
 10
106.3873046609032
 20
-131.2850097328038
 30
0.0
 10
106.5268310280558
 20
-131.289143847386
 30
0.0
 10
106.5922878422755
 20
-131.289143847386
 30
0.0
 10
106.5922878422755
 20
-131.289143847386
 30
0.0
 10
106.6367295740353
 20
-131.289143847386
 30
0.0
 10
106.6367295740353
 20
-131.289143847386
 30
0.0
 10
106.6367295740353
 20
-131.289143847386
 30
0.0
 10
106.6367295740353
 20
-131.0417859915451
 30
0.0
 10
106.6367295740353
 20
-131.0417859915451
 30
0.0
 10
106.6367295740353
 20
-131.0417859915451
 30
0.0
 10
106.5630045306509
 20
-131.0417859915451
 30
0.0
 10
106.5630045306509
 20
-131.0417859915451
 30
0.0
 10
106.5013373214649
 20
-131.0417859915451
 30
0.0
 10
106.3342501904303
 20
-131.0459201061274
 30
0.0
 10
106.2136718484466
 20
-131.0545328448405
 30
0.0
 10
106.2136718484466
 20
-131.0545328448405
 30
0.0
 10
106.2136718484466
 20
-130.8767659178016
 30
0.0
 10
106.2136718484466
 20
-130.8767659178016
 30
0.0
 10
106.3280490185569
 20
-130.8829670896751
 30
0.0
 10
106.4865234108784
 20
-130.8874457138059
 30
0.0
 10
106.5630045306509
 20
-130.8874457138059
 30
0.0
 10
106.5630045306509
 20
-130.8874457138059
 30
0.0
 10
106.6346625167441
 20
-130.8874457138059
 30
0.0
 10
106.6346625167441
 20
-130.8874457138059
 30
0.0
 10
106.6305284021618
 20
-130.7348279838094
 30
0.0
 10
106.6284613448707
 20
-130.7010660480539
 30
0.0
 10
106.6219156634487
 20
-130.6080484699522
 30
0.0
 10
106.6219156634487
 20
-130.6080484699522
 30
0.0
 10
106.8337890357916
 20
-130.6314751192519
 30
0.0
 10
106.8337890357916
 20
-130.6314751192519
 30
0.0
 10
106.8589382328339
 20
-130.633542176543
 30
0.0
 10
106.8823648821336
 20
-130.6376762911253
 30
0.0
 10
106.8823648821336
 20
-130.6607584308765
 30
0.0
 10
106.8823648821336
 20
-130.6927978188893
 30
0.0
 10
106.8379231503739
 20
-130.709678786767
 30
0.0
 10
106.8144965010742
 20
-130.7179470159316
 30
0.0
 10
106.8144965010742
 20
-130.7179470159316
 30
0.0
 10
106.8144965010742
 20
-130.8874457138059
 30
0.0
 10
106.8144965010742
 20
-130.8874457138059
 30
0.0
 10
106.8144965010742
 20
-130.8874457138059
 30
0.0
 10
106.9119927033067
 20
-130.8874457138059
 30
0.0
 10
106.9119927033067
 20
-130.8874457138059
 30
0.0
 10
106.9881293135307
 20
-130.8874457138059
 30
0.0
 10
107.1466037058522
 20
-130.8829670896751
 30
0.0
 10
107.2630479332537
 20
-130.8767659178016
 30
0.0
 10
107.2630479332537
 20
-130.8767659178016
 30
0.0
 10
107.2630479332537
 20
-131.0545328448405
 30
0.0
 10
107.2630479332537
 20
-131.0545328448405
 30
0.0
 10
107.1552164445654
 20
-131.0479871634186
 30
0.0
 10
106.9815836321088
 20
-131.0417859915451
 30
0.0
 10
106.9119927033067
 20
-131.0417859915451
 30
0.0
  0
SPLINE
  5
9E
330
8D
100
AcDbEntity
  8
_U+30EC_U+30A4_U+30E4_U+30FC 1
370
     0
100
AcDbSpline
210
0.0
220
0.0
230
1.0
 70
    11
 71
     3
 72
    17
 73
    13
 74
     0
 42
0.0000000001
 43
0.0000000001
 12
1.0
 22
0.0
 32
0.0
 13
1.0
 23
0.0
 33
0.0
 40
0.0
 40
0.0
 40
0.0
 40
0.0
 40
1.0
 40
1.0
 40
1.0
 40
2.0
 40
2.0
 40
2.0
 40
3.0
 40
3.0
 40
3.0
 40
4.0
 40
4.0
 40
4.0
 40
4.0
 10
106.6663573952084
 20
-131.8393255963805
 30
0.0
 10
106.6663573952084
 20
-131.8393255963805
 30
0.0
 10
106.4634412711272
 20
-131.8393255963805
 30
0.0
 10
106.4634412711272
 20
-131.8393255963805
 30
0.0
 10
106.4910020350092
 20
-131.8985812387268
 30
0.0
 10
106.5457790532247
 20
-131.9705837343685
 30
0.0
 10
106.5733398171067
 20
-131.9998670459931
 30
0.0
 10
106.6009005809887
 20
-131.985397644955
 30
0.0
 10
106.715277751099
 20
-131.9216633784779
 30
0.0
 10
106.8062282719096
 20
-131.8393255963805
 30
0.0
 10
106.8062282719096
 20
-131.8393255963805
 30
0.0
 10
106.6663573952084
 20
-131.8393255963805
 30
0.0
 10
106.6663573952084
 20
-131.8393255963805
 30
0.0
  0
HATCH
  5
9F
330
8D
100
AcDbEntity
  8
_U+30EC_U+30A4_U+30E4_U+30FC 1
 62
     7
420
 16777215
100
AcDbHatch
 10
0.0
 20
0.0
 30
0.0
210
0.0
220
0.0
230
1.0
  2
SOLID
 70
     1
 71
     0
 91
        6
 92
        1
 93
        1
 72
     4
 94
        3
 73
     0
 74
     1
 95
      113
 96
      109
 40
0.0
 40
0.0
 40
0.0
 40
0.0
 40
1.0
 40
1.0
 40
1.0
 40
2.0
 40
2.0
 40
2.0
 40
3.0
 40
3.0
 40
3.0
 40
4.0
 40
4.0
 40
4.0
 40
5.0
 40
5.0
 40
5.0
 40
6.0
 40
6.0
 40
6.0
 40
7.0
 40
7.0
 40
7.0
 40
8.0
 40
8.0
 40
8.0
 40
9.0
 40
9.0
 40
9.0
 40
10.0
 40
10.0
 40
10.0
 40
11.0
 40
11.0
 40
11.0
 40
12.0
 40
12.0
 40
12.0
 40
13.0
 40
13.0
 40
13.0
 40
14.0
 40
14.0
 40
14.0
 40
15.0
 40
15.0
 40
15.0
 40
16.0
 40
16.0
 40
16.0
 40
17.0
 40
17.0
 40
17.0
 40
18.0
 40
18.0
 40
18.0
 40
19.0
 40
19.0
 40
19.0
 40
20.0
 40
20.0
 40
20.0
 40
21.0
 40
21.0
 40
21.0
 40
22.0
 40
22.0
 40
22.0
 40
23.0
 40
23.0
 40
23.0
 40
24.0
 40
24.0
 40
24.0
 40
25.0
 40
25.0
 40
25.0
 40
26.0
 40
26.0
 40
26.0
 40
27.0
 40
27.0
 40
27.0
 40
28.0
 40
28.0
 40
28.0
 40
29.0
 40
29.0
 40
29.0
 40
30.0
 40
30.0
 40
30.0
 40
31.0
 40
31.0
 40
31.0
 40
32.0
 40
32.0
 40
32.0
 40
33.0
 40
33.0
 40
33.0
 40
34.0
 40
34.0
 40
34.0
 40
35.0
 40
35.0
 40
35.0
 40
36.0
 40
36.0
 40
36.0
 40
36.0
 10
106.8737521434205
 20
-131.8413926536716
 10
106.8737521434205
 20
-131.8413926536716
 10
106.9733154029442
 20
-131.9409559131953
 10
106.9733154029442
 20
-131.9409559131953
 10
106.9839951989484
 20
-131.9512911996511
 10
106.9943304854042
 20
-131.9640380529465
 10
106.9943304854042
 20
-131.9788519635331
 10
106.9943304854042
 20
-131.9809190208242
 10
106.9943304854042
 20
-132.0105468419974
 10
106.9564344350665
 20
-132.0105468419974
 10
106.9478216963533
 20
-132.0105468419974
 10
106.9075140791759
 20
-132.0064127274151
 10
106.9013129073025
 20
-132.0064127274151
 10
106.861005290125
 20
-132.0381076058794
 10
106.8144965010742
 20
-132.0718695416348
 10
106.715277751099
 20
-132.12905812669
 10
106.861005290125
 20
-132.2368896153783
 10
107.019824191995
 20
-132.2940782004334
 10
107.2926757544268
 20
-132.3323187603197
 10
107.2926757544268
 20
-132.3323187603197
 10
107.1424695912699
 20
-132.5076741205189
 10
107.1424695912699
 20
-132.5076741205189
 10
106.8802978248424
 20
-132.4356716248772
 10
106.7235459802636
 20
-132.3471326709063
 10
106.6474093700395
 20
-132.2940782004334
 10
106.4972032068826
 20
-132.1924478836186
 10
106.3535427251477
 20
-132.0294948671662
 10
106.2774061149237
 20
-131.8644747934228
 10
106.2095377338643
 20
-131.9302761171911
 10
106.1354681809314
 20
-131.9829860781154
 10
106.0572645134162
 20
-132.0319064340059
 10
106.0572645134162
 20
-132.0319064340059
 10
106.0572645134162
 20
-132.2833984044292
 10
106.0572645134162
 20
-132.2833984044292
 10
106.2202175298686
 20
-132.2582492073868
 10
106.4062526860721
 20
-132.2138074756271
 10
106.4696424430007
 20
-132.1989935650405
 10
106.4696424430007
 20
-132.1989935650405
 10
106.4400146218275
 20
-132.3681477533663
 10
106.4400146218275
 20
-132.3681477533663
 10
106.4379475645363
 20
-132.3681477533663
 10
106.4189995393675
 20
-132.3743489252398
 10
106.4169324820763
 20
-132.3743489252398
 10
106.2181504725774
 20
-132.412589485126
 10
105.9008571783859
 20
-132.4780462993458
 10
105.7037977166296
 20
-132.5142198019409
 10
105.6934624301739
 20
-132.5311007698186
 10
105.6700357808742
 20
-132.5627956482829
 10
105.646953641123
 20
-132.5627956482829
 10
105.619392877241
 20
-132.5627956482829
 10
105.6152587626587
 20
-132.543847623114
 10
105.612847195819
 20
-132.5245550883967
 10
105.612847195819
 20
-132.5245550883967
 10
105.5876979987767
 20
-132.3512667854886
 10
105.5876979987767
 20
-132.3512667854886
 10
105.6617675517096
 20
-132.3426540467755
 10
105.7695990403979
 20
-132.32990719348
 10
105.8774305290862
 20
-132.30889211102
 10
105.8774305290862
 20
-132.30889211102
 10
105.8774305290862
 20
-132.1311251839811
 10
105.8774305290862
 20
-132.1311251839811
 10
105.7334255378028
 20
-132.2031276796228
 10
105.6383409024099
 20
-132.232755500796
 10
105.4733208286664
 20
-132.2623833219691
 10
105.4733208286664
 20
-132.2623833219691
 10
105.3527424866827
 20
-132.0932291336434
 10
105.3527424866827
 20
-132.0932291336434
 10
105.6700357808742
 20
-132.0656683697614
 10
105.8626166184996
 20
-131.9726507916596
 10
106.0403835455385
 20
-131.8393255963805
 10
105.8943114969639
 20
-131.8393255963805
 10
105.5938991706501
 20
-131.8434597109627
 10
105.3971842184424
 20
-131.8500053923847
 10
105.3971842184424
 20
-131.8500053923847
 10
105.3971842184424
 20
-131.6722384653458
 10
105.3971842184424
 20
-131.6722384653458
 10
105.5515244961816
 20
-131.6784396372193
 10
105.8478027079131
 20
-131.6849853186413
 10
106.0317708068254
 20
-131.6849853186413
 10
106.0317708068254
 20
-131.6849853186413
 10
106.2432996696197
 20
-131.6849853186413
 10
106.2432996696197
 20
-131.6849853186413
 10
106.2432996696197
 20
-131.5895561736998
 10
106.2412326123286
 20
-131.5389132700667
 10
106.2350314404551
 20
-131.4924044810158
 10
106.2350314404551
 20
-131.4924044810158
 10
106.4506944178318
 20
-131.5092854488935
 10
106.4506944178318
 20
-131.5092854488935
 10
106.4992702641738
 20
-131.5134195634758
 10
106.5078830028869
 20
-131.5282334740624
 10
106.5078830028869
 20
-131.543047384649
 10
106.5078830028869
 20
-131.5685410912398
 10
106.4910020350092
 20
-131.5768093204044
 10
106.4400146218275
 20
-131.6023030269953
 10
106.4379475645363
 20
-131.6277967335861
 10
106.4379475645363
 20
-131.6339979054596
 10
106.4358805072452
 20
-131.6849853186413
 10
106.4358805072452
 20
-131.6849853186413
 10
106.6663573952084
 20
-131.6849853186413
 10
106.6663573952084
 20
-131.6849853186413
 10
106.8313774689519
 20
-131.6849853186413
 10
107.1235215661011
 20
-131.6784396372193
 10
107.3033555504311
 20
-131.6722384653458
 10
107.3033555504311
 20
-131.6722384653458
 10
107.3033555504311
 20
-131.8500053923847
 10
107.3033555504311
 20
-131.8500053923847
 10
107.1741644697342
 20
-131.8455267682539
 10
107.1510823299831
 20
-131.8455267682539
 10
106.8737521434205
 20
-131.8413926536716
 97
        0
 97
        0
 92
        1
 93
        1
 72
     4
 94
        3
 73
     0
 74
     1
 95
       23
 96
       19
 40
0.0
 40
0.0
 40
0.0
 40
0.0
 40
1.0
 40
1.0
 40
1.0
 40
2.0
 40
2.0
 40
2.0
 40
3.0
 40
3.0
 40
3.0
 40
4.0
 40
4.0
 40
4.0
 40
5.0
 40
5.0
 40
5.0
 40
6.0
 40
6.0
 40
6.0
 40
6.0
 10
105.5897650560678
 20
-131.4903374237246
 10
105.5728840881901
 20
-131.5303005313535
 10
105.5663384067681
 20
-131.5471814992313
 10
105.5453233243081
 20
-131.5471814992313
 10
105.5305094137215
 20
-131.5471814992313
 10
105.5198296177173
 20
-131.5303005313535
 10
105.5136284458438
 20
-131.5175536780581
 10
105.5136284458438
 20
-131.5175536780581
 10
105.4140651863201
 20
-131.3525336043147
 10
105.4140651863201
 20
-131.3525336043147
 10
105.515695503135
 20
-131.3208387258504
 10
105.6659016662919
 20
-131.2660617076349
 10
105.8646836757908
 20
-131.1031086911826
 10
105.8646836757908
 20
-131.1031086911826
 10
105.9218722608459
 20
-131.2763969940906
 10
105.9218722608459
 20
-131.2763969940906
 10
105.8288546827442
 20
-131.3590792857366
 10
105.7399712192247
 20
-131.4162678707918
 10
105.5897650560678
 20
-131.4903374237246
 97
        0
 97
        0
 92
        1
 93
        1
 72
     4
 94
        3
 73
     0
 74
     1
 95
       17
 96
       13
 40
0.0
 40
0.0
 40
0.0
 40
0.0
 40
1.0
 40
1.0
 40
1.0
 40
2.0
 40
2.0
 40
2.0
 40
3.0
 40
3.0
 40
3.0
 40
4.0
 40
4.0
 40
4.0
 40
4.0
 10
105.7420382765159
 20
-131.0249050236674
 10
105.7124104553427
 20
-130.98459740649
 10
105.6445420742833
 20
-130.8874457138059
 10
105.4626410326621
 20
-130.7772026582779
 10
105.4626410326621
 20
-130.7772026582779
 10
105.5897650560678
 20
-130.6438774629987
 10
105.5897650560678
 20
-130.6438774629987
 10
105.7758002122713
 20
-130.7455077798136
 10
105.8329887973265
 20
-130.8343912433331
 10
105.8605495612085
 20
-130.8767659178016
 10
105.8605495612085
 20
-130.8767659178016
 10
105.7420382765159
 20
-131.0249050236674
 10
105.7420382765159
 20
-131.0249050236674
 97
        0
 97
        0
 92
        1
 93
        1
 72
     4
 94
        3
 73
     0
 74
     1
 95
       38
 96
       34
 40
0.0
 40
0.0
 40
0.0
 40
0.0
 40
1.0
 40
1.0
 40
1.0
 40
2.0
 40
2.0
 40
2.0
 40
3.0
 40
3.0
 40
3.0
 40
4.0
 40
4.0
 40
4.0
 40
5.0
 40
5.0
 40
5.0
 40
6.0
 40
6.0
 40
6.0
 40
7.0
 40
7.0
 40
7.0
 40
8.0
 40
8.0
 40
8.0
 40
9.0
 40
9.0
 40
9.0
 40
10.0
 40
10.0
 40
10.0
 40
11.0
 40
11.0
 40
11.0
 40
11.0
 10
106.1099744743406
 20
-130.7200140732228
 10
106.1079074170494
 20
-130.7668673718222
 10
106.1058403597583
 20
-130.8829670896751
 10
106.1058403597583
 20
-130.9274088214348
 10
106.1058403597583
 20
-130.9274088214348
 10
106.1058403597583
 20
-131.2743299367995
 10
106.1058403597583
 20
-131.2743299367995
 10
106.1058403597583
 20
-131.3611463430278
 10
106.1079074170494
 20
-131.5027397674716
 10
106.1185872130537
 20
-131.6233181094553
 10
106.1185872130537
 20
-131.6233181094553
 10
105.9280734327194
 20
-131.6233181094553
 10
105.9280734327194
 20
-131.6233181094553
 10
105.9325520568502
 20
-131.5599283525267
 10
105.9366861714325
 20
-131.5072183916024
 10
105.9387532287237
 20
-131.4520968638384
 10
105.9408202860148
 20
-131.3294514645635
 10
105.942887343306
 20
-131.3146375539769
 10
105.942887343306
 20
-131.2701958222172
 10
105.942887343306
 20
-131.2701958222172
 10
105.942887343306
 20
-130.9487684134434
 10
105.942887343306
 20
-130.9487684134434
 10
105.942887343306
 20
-130.8936468856794
 10
105.9301404900105
 20
-130.654557259003
 10
105.9280734327194
 20
-130.6039143553699
 10
105.9280734327194
 20
-130.6039143553699
 10
106.129267009058
 20
-130.6314751192519
 10
106.129267009058
 20
-130.6314751192519
 10
106.150282091518
 20
-130.633542176543
 10
106.1819769699823
 20
-130.6376762911253
 10
106.1819769699823
 20
-130.6631699977162
 10
106.1819769699823
 20
-130.6903862520496
 10
106.1313340663491
 20
-130.7117458440582
 10
106.1099744743406
 20
-130.7200140732228
 97
        0
 97
        0
 92
        1
 93
        1
 72
     4
 94
        3
 73
     0
 74
     1
 95
       83
 96
       79
 40
0.0
 40
0.0
 40
0.0
 40
0.0
 40
1.0
 40
1.0
 40
1.0
 40
2.0
 40
2.0
 40
2.0
 40
3.0
 40
3.0
 40
3.0
 40
4.0
 40
4.0
 40
4.0
 40
5.0
 40
5.0
 40
5.0
 40
6.0
 40
6.0
 40
6.0
 40
7.0
 40
7.0
 40
7.0
 40
8.0
 40
8.0
 40
8.0
 40
9.0
 40
9.0
 40
9.0
 40
10.0
 40
10.0
 40
10.0
 40
11.0
 40
11.0
 40
11.0
 40
12.0
 40
12.0
 40
12.0
 40
13.0
 40
13.0
 40
13.0
 40
14.0
 40
14.0
 40
14.0
 40
15.0
 40
15.0
 40
15.0
 40
16.0
 40
16.0
 40
16.0
 40
17.0
 40
17.0
 40
17.0
 40
18.0
 40
18.0
 40
18.0
 40
19.0
 40
19.0
 40
19.0
 40
20.0
 40
20.0
 40
20.0
 40
21.0
 40
21.0
 40
21.0
 40
22.0
 40
22.0
 40
22.0
 40
23.0
 40
23.0
 40
23.0
 40
24.0
 40
24.0
 40
24.0
 40
25.0
 40
25.0
 40
25.0
 40
26.0
 40
26.0
 40
26.0
 40
26.0
 10
106.9119927033067
 20
-131.0417859915451
 10
106.9119927033067
 20
-131.0417859915451
 10
106.8144965010742
 20
-131.0417859915451
 10
106.8144965010742
 20
-131.0417859915451
 10
106.8144965010742
 20
-131.0417859915451
 10
106.8144965010742
 20
-131.289143847386
 10
106.8144965010742
 20
-131.289143847386
 10
106.8144965010742
 20
-131.289143847386
 10
106.8971787927202
 20
-131.289143847386
 10
106.8971787927202
 20
-131.289143847386
 10
106.9626356069399
 20
-131.289143847386
 10
107.1021619740925
 20
-131.2850097328038
 10
107.2017252336162
 20
-131.2763969940906
 10
107.2017252336162
 20
-131.2763969940906
 10
107.2017252336162
 20
-131.4562309784207
 10
107.2017252336162
 20
-131.4562309784207
 10
107.1087076555145
 20
-131.4479627492561
 10
106.9585014923576
 20
-131.4438286346738
 10
106.8971787927202
 20
-131.4438286346738
 10
106.8971787927202
 20
-131.4438286346738
 10
106.5922878422755
 20
-131.4438286346738
 10
106.5922878422755
 20
-131.4438286346738
 10
106.5395778813512
 20
-131.4438286346738
 10
106.3935058327766
 20
-131.4479627492561
 10
106.2877414013795
 20
-131.4562309784207
 10
106.2877414013795
 20
-131.4562309784207
 10
106.2877414013795
 20
-131.2763969940906
 10
106.2877414013795
 20
-131.2763969940906
 10
106.3873046609032
 20
-131.2850097328038
 10
106.5268310280558
 20
-131.289143847386
 10
106.5922878422755
 20
-131.289143847386
 10
106.5922878422755
 20
-131.289143847386
 10
106.6367295740353
 20
-131.289143847386
 10
106.6367295740353
 20
-131.289143847386
 10
106.6367295740353
 20
-131.289143847386
 10
106.6367295740353
 20
-131.0417859915451
 10
106.6367295740353
 20
-131.0417859915451
 10
106.6367295740353
 20
-131.0417859915451
 10
106.5630045306509
 20
-131.0417859915451
 10
106.5630045306509
 20
-131.0417859915451
 10
106.5013373214649
 20
-131.0417859915451
 10
106.3342501904303
 20
-131.0459201061274
 10
106.2136718484466
 20
-131.0545328448405
 10
106.2136718484466
 20
-131.0545328448405
 10
106.2136718484466
 20
-130.8767659178016
 10
106.2136718484466
 20
-130.8767659178016
 10
106.3280490185569
 20
-130.8829670896751
 10
106.4865234108784
 20
-130.8874457138059
 10
106.5630045306509
 20
-130.8874457138059
 10
106.5630045306509
 20
-130.8874457138059
 10
106.6346625167441
 20
-130.8874457138059
 10
106.6346625167441
 20
-130.8874457138059
 10
106.6305284021618
 20
-130.7348279838094
 10
106.6284613448707
 20
-130.7010660480539
 10
106.6219156634487
 20
-130.6080484699522
 10
106.6219156634487
 20
-130.6080484699522
 10
106.8337890357916
 20
-130.6314751192519
 10
106.8337890357916
 20
-130.6314751192519
 10
106.8589382328339
 20
-130.633542176543
 10
106.8823648821336
 20
-130.6376762911253
 10
106.8823648821336
 20
-130.6607584308765
 10
106.8823648821336
 20
-130.6927978188893
 10
106.8379231503739
 20
-130.709678786767
 10
106.8144965010742
 20
-130.7179470159316
 10
106.8144965010742
 20
-130.7179470159316
 10
106.8144965010742
 20
-130.8874457138059
 10
106.8144965010742
 20
-130.8874457138059
 10
106.8144965010742
 20
-130.8874457138059
 10
106.9119927033067
 20
-130.8874457138059
 10
106.9119927033067
 20
-130.8874457138059
 10
106.9881293135307
 20
-130.8874457138059
 10
107.1466037058522
 20
-130.8829670896751
 10
107.2630479332537
 20
-130.8767659178016
 10
107.2630479332537
 20
-130.8767659178016
 10
107.2630479332537
 20
-131.0545328448405
 10
107.2630479332537
 20
-131.0545328448405
 10
107.1552164445654
 20
-131.0479871634186
 10
106.9815836321088
 20
-131.0417859915451
 10
106.9119927033067
 20
-131.0417859915451
 97
        0
 97
        0
 92
        1
 93
        1
 72
     4
 94
        3
 73
     0
 74
     1
 95
       17
 96
       13
 40
0.0
 40
0.0
 40
0.0
 40
0.0
 40
1.0
 40
1.0
 40
1.0
 40
2.0
 40
2.0
 40
2.0
 40
3.0
 40
3.0
 40
3.0
 40
4.0
 40
4.0
 40
4.0
 40
4.0
 10
106.6663573952084
 20
-131.8393255963805
 10
106.6663573952084
 20
-131.8393255963805
 10
106.4634412711272
 20
-131.8393255963805
 10
106.4634412711272
 20
-131.8393255963805
 10
106.4910020350092
 20
-131.8985812387268
 10
106.5457790532247
 20
-131.9705837343685
 10
106.5733398171067
 20
-131.9998670459931
 10
106.6009005809887
 20
-131.985397644955
 10
106.715277751099
 20
-131.9216633784779
 10
106.8062282719096
 20
-131.8393255963805
 10
106.8062282719096
 20
-131.8393255963805
 10
106.6663573952084
 20
-131.8393255963805
 10
106.6663573952084
 20
-131.8393255963805
 97
        0
 97
        0
 75
     2
 76
     1
 98
        0
  0
SPLINE
  5
A0
330
8D
100
AcDbEntity
  8
_U+30EC_U+30A4_U+30E4_U+30FC 1
370
     0
100
AcDbSpline
210
0.0
220
0.0
230
1.0
 70
    11
 71
     3
 72
    77
 73
    73
 74
     0
 42
0.0000000001
 43
0.0000000001
 12
1.0
 22
0.0
 32
0.0
 13
1.0
 23
0.0
 33
0.0
 40
0.0
 40
0.0
 40
0.0
 40
0.0
 40
1.0
 40
1.0
 40
1.0
 40
2.0
 40
2.0
 40
2.0
 40
3.0
 40
3.0
 40
3.0
 40
4.0
 40
4.0
 40
4.0
 40
5.0
 40
5.0
 40
5.0
 40
6.0
 40
6.0
 40
6.0
 40
7.0
 40
7.0
 40
7.0
 40
8.0
 40
8.0
 40
8.0
 40
9.0
 40
9.0
 40
9.0
 40
10.0
 40
10.0
 40
10.0
 40
11.0
 40
11.0
 40
11.0
 40
12.0
 40
12.0
 40
12.0
 40
13.0
 40
13.0
 40
13.0
 40
14.0
 40
14.0
 40
14.0
 40
15.0
 40
15.0
 40
15.0
 40
16.0
 40
16.0
 40
16.0
 40
17.0
 40
17.0
 40
17.0
 40
18.0
 40
18.0
 40
18.0
 40
19.0
 40
19.0
 40
19.0
 40
20.0
 40
20.0
 40
20.0
 40
21.0
 40
21.0
 40
21.0
 40
22.0
 40
22.0
 40
22.0
 40
23.0
 40
23.0
 40
23.0
 40
24.0
 40
24.0
 40
24.0
 40
24.0
 10
109.1575059405926
 20
-132.4697780701812
 30
0.0
 10
109.1109971515417
 20
-132.4949272672235
 30
0.0
 10
108.9862846949757
 20
-132.5076741205189
 30
0.0
 10
108.907736517912
 20
-132.5076741205189
 30
0.0
 10
108.8953341741651
 20
-132.5076741205189
 30
0.0
 10
108.8698404675742
 20
-132.5076741205189
 30
0.0
 10
108.8360785318188
 20
-132.5035400059366
 30
0.0
 10
108.8360785318188
 20
-132.5035400059366
 30
0.0
 10
108.7385823295862
 20
-132.2771972325557
 30
0.0
 10
108.7385823295862
 20
-132.2771972325557
 30
0.0
 10
108.7682101507593
 20
-132.2833984044292
 30
0.0
 10
108.8253987358145
 20
-132.2920111431423
 30
0.0
 10
108.9418429632159
 20
-132.2920111431423
 30
0.0
 10
109.0200466307311
 20
-132.2920111431423
 30
0.0
 10
109.0221136880223
 20
-132.2496364686737
 30
0.0
 10
109.0221136880223
 20
-132.1924478836186
 30
0.0
 10
109.0221136880223
 20
-132.1924478836186
 30
0.0
 10
109.0221136880223
 20
-131.8434597109627
 30
0.0
 10
109.0221136880223
 20
-131.8434597109627
 30
0.0
 10
109.0221136880223
 20
-131.8434597109627
 30
0.0
 10
108.5628824598384
 20
-131.8434597109627
 30
0.0
 10
108.5628824598384
 20
-131.8434597109627
 30
0.0
 10
108.5652940266781
 20
-131.9809190208242
 30
0.0
 10
108.5673610839693
 20
-132.1797010303231
 30
0.0
 10
108.5735622558427
 20
-132.3130262256023
 30
0.0
 10
108.5756293131339
 20
-132.3405869894843
 30
0.0
 10
108.5756293131339
 20
-132.385028721244
 30
0.0
 10
108.5883761664293
 20
-132.4463514208815
 30
0.0
 10
108.5883761664293
 20
-132.4463514208815
 30
0.0
 10
108.3472194824618
 20
-132.4463514208815
 30
0.0
 10
108.3472194824618
 20
-132.4463514208815
 30
0.0
 10
108.3727131890527
 20
-132.3216389643154
 30
0.0
 10
108.3727131890527
 20
-131.9809190208242
 30
0.0
 10
108.3727131890527
 20
-131.8434597109627
 30
0.0
 10
108.3727131890527
 20
-131.8434597109627
 30
0.0
 10
107.9303629287466
 20
-131.8434597109627
 30
0.0
 10
107.9303629287466
 20
-131.8434597109627
 30
0.0
 10
107.9072807889954
 20
-132.0508544591748
 30
0.0
 10
107.8418239747757
 20
-132.3195719070243
 30
0.0
 10
107.6447645130194
 20
-132.5035400059366
 30
0.0
 10
107.6447645130194
 20
-132.5035400059366
 30
0.0
 10
107.4566622995247
 20
-132.3808946066617
 30
0.0
 10
107.4566622995247
 20
-132.3808946066617
 30
0.0
 10
107.7105658367876
 20
-132.1607530051542
 30
0.0
 10
107.7422607152519
 20
-131.8286458003762
 30
0.0
 10
107.7422607152519
 20
-131.4965385955981
 30
0.0
 10
107.7422607152519
 20
-131.4965385955981
 30
0.0
 10
107.7422607152519
 20
-131.060734016714
 30
0.0
 10
107.7422607152519
 20
-131.060734016714
 30
0.0
 10
107.7422607152519
 20
-131.0249050236674
 30
0.0
 10
107.7401936579608
 20
-130.7920165688645
 30
0.0
 10
107.7315809192477
 20
-130.6903862520496
 30
0.0
 10
107.8714517959488
 20
-130.7010660480539
 30
0.0
 10
108.1126084799163
 20
-130.7010660480539
 30
0.0
 10
108.2562689616512
 20
-130.7010660480539
 30
0.0
 10
108.2562689616512
 20
-130.7010660480539
 30
0.0
 10
108.715500189835
 20
-130.7010660480539
 30
0.0
 10
108.715500189835
 20
-130.7010660480539
 30
0.0
 10
108.7303141004216
 20
-130.7010660480539
 30
0.0
 10
109.0793022730774
 20
-130.7010660480539
 30
0.0
 10
109.2377766653989
 20
-130.6903862520496
 30
0.0
 10
109.2357096081077
 20
-130.7434407225225
 30
0.0
 10
109.2295084362343
 20
-130.9043266816836
 30
0.0
 10
109.2295084362343
 20
-130.9549695853168
 30
0.0
 10
109.2295084362343
 20
-130.9549695853168
 30
0.0
 10
109.2295084362343
 20
-131.5619954098179
 30
0.0
 10
109.2295084362343
 20
-131.5619954098179
 30
0.0
 10
109.2295084362343
 20
-131.5812879445352
 30
0.0
 10
109.23984372269
 20
-132.1524847759896
 30
0.0
 10
109.23984372269
 20
-132.2644503792603
 30
0.0
 10
109.23984372269
 20
-132.3216389643154
 30
0.0
 10
109.23984372269
 20
-132.4232692811303
 30
0.0
 10
109.1575059405926
 20
-132.4697780701812
 30
0.0
  0
POLYLINE
  5
A1
330
8D
100
AcDbEntity
  8
_U+30EC_U+30A4_U+30E4_U+30FC 1
370
     0
100
AcDb2dPolyline
 66
     1
 10
0.0
 20
0.0
 30
0.0
  0
VERTEX
  5
A2
330
A1
100
AcDbEntity
  8
_U+30EC_U+30A4_U+30E4_U+30FC 1
370
     0
100
AcDbVertex
100
AcDb2dVertex
 10
108.3727131890527
 20
-130.8829670896751
 30
0.0
  0
VERTEX
  5
A3
330
A1
100
AcDbEntity
  8
_U+30EC_U+30A4_U+30E4_U+30FC 1
370
     0
100
AcDbVertex
100
AcDb2dVertex
 10
107.9348415528774
 20
-130.8829670896751
 30
0.0
  0
VERTEX
  5
A4
330
A1
100
AcDbEntity
  8
_U+30EC_U+30A4_U+30E4_U+30FC 1
370
     0
100
AcDbVertex
100
AcDb2dVertex
 10
107.9348415528774
 20
-131.1875135305712
 30
0.0
  0
VERTEX
  5
A5
330
A1
100
AcDbEntity
  8
_U+30EC_U+30A4_U+30E4_U+30FC 1
370
     0
100
AcDbVertex
100
AcDb2dVertex
 10
108.3727131890527
 20
-131.1875135305712
 30
0.0
  0
VERTEX
  5
A6
330
A1
100
AcDbEntity
  8
_U+30EC_U+30A4_U+30E4_U+30FC 1
370
     0
100
AcDbVertex
100
AcDb2dVertex
 10
108.3727131890527
 20
-130.8829670896751
 30
0.0
  0
SEQEND
  5
A7
330
A1
100
AcDbEntity
  8
_U+30EC_U+30A4_U+30E4_U+30FC 1
370
     0
  0
POLYLINE
  5
A8
330
8D
100
AcDbEntity
  8
_U+30EC_U+30A4_U+30E4_U+30FC 1
370
     0
100
AcDb2dPolyline
 66
     1
 10
0.0
 20
0.0
 30
0.0
  0
VERTEX
  5
A9
330
A8
100
AcDbEntity
  8
_U+30EC_U+30A4_U+30E4_U+30FC 1
370
     0
100
AcDbVertex
100
AcDb2dVertex
 10
108.3727131890527
 20
-131.3549451711543
 30
0.0
  0
VERTEX
  5
AA
330
A8
100
AcDbEntity
  8
_U+30EC_U+30A4_U+30E4_U+30FC 1
370
     0
100
AcDbVertex
100
AcDb2dVertex
 10
107.9348415528774
 20
-131.3549451711543
 30
0.0
  0
VERTEX
  5
AB
330
A8
100
AcDbEntity
  8
_U+30EC_U+30A4_U+30E4_U+30FC 1
370
     0
100
AcDbVertex
100
AcDb2dVertex
 10
107.9348415528774
 20
-131.6636257266327
 30
0.0
  0
VERTEX
  5
AC
330
A8
100
AcDbEntity
  8
_U+30EC_U+30A4_U+30E4_U+30FC 1
370
     0
100
AcDbVertex
100
AcDb2dVertex
 10
108.3727131890527
 20
-131.6636257266327
 30
0.0
  0
VERTEX
  5
AD
330
A8
100
AcDbEntity
  8
_U+30EC_U+30A4_U+30E4_U+30FC 1
370
     0
100
AcDbVertex
100
AcDb2dVertex
 10
108.3727131890527
 20
-131.3549451711543
 30
0.0
  0
SEQEND
  5
AE
330
A8
100
AcDbEntity
  8
_U+30EC_U+30A4_U+30E4_U+30FC 1
370
     0
  0
POLYLINE
  5
AF
330
8D
100
AcDbEntity
  8
_U+30EC_U+30A4_U+30E4_U+30FC 1
370
     0
100
AcDb2dPolyline
 66
     1
 10
0.0
 20
0.0
 30
0.0
  0
VERTEX
  5
B0
330
AF
100
AcDbEntity
  8
_U+30EC_U+30A4_U+30E4_U+30FC 1
370
     0
100
AcDbVertex
100
AcDb2dVertex
 10
109.0221136880223
 20
-130.8829670896751
 30
0.0
  0
VERTEX
  5
B1
330
AF
100
AcDbEntity
  8
_U+30EC_U+30A4_U+30E4_U+30FC 1
370
     0
100
AcDbVertex
100
AcDb2dVertex
 10
108.5628824598384
 20
-130.8829670896751
 30
0.0
  0
VERTEX
  5
B2
330
AF
100
AcDbEntity
  8
_U+30EC_U+30A4_U+30E4_U+30FC 1
370
     0
100
AcDbVertex
100
AcDb2dVertex
 10
108.5628824598384
 20
-131.1875135305712
 30
0.0
  0
VERTEX
  5
B3
330
AF
100
AcDbEntity
  8
_U+30EC_U+30A4_U+30E4_U+30FC 1
370
     0
100
AcDbVertex
100
AcDb2dVertex
 10
109.0221136880223
 20
-131.1875135305712
 30
0.0
  0
VERTEX
  5
B4
330
AF
100
AcDbEntity
  8
_U+30EC_U+30A4_U+30E4_U+30FC 1
370
     0
100
AcDbVertex
100
AcDb2dVertex
 10
109.0221136880223
 20
-130.8829670896751
 30
0.0
  0
SEQEND
  5
B5
330
AF
100
AcDbEntity
  8
_U+30EC_U+30A4_U+30E4_U+30FC 1
370
     0
  0
POLYLINE
  5
B6
330
8D
100
AcDbEntity
  8
_U+30EC_U+30A4_U+30E4_U+30FC 1
370
     0
100
AcDb2dPolyline
 66
     1
 10
0.0
 20
0.0
 30
0.0
  0
VERTEX
  5
B7
330
B6
100
AcDbEntity
  8
_U+30EC_U+30A4_U+30E4_U+30FC 1
370
     0
100
AcDbVertex
100
AcDb2dVertex
 10
109.0221136880223
 20
-131.3549451711543
 30
0.0
  0
VERTEX
  5
B8
330
B6
100
AcDbEntity
  8
_U+30EC_U+30A4_U+30E4_U+30FC 1
370
     0
100
AcDbVertex
100
AcDb2dVertex
 10
108.5628824598384
 20
-131.3549451711543
 30
0.0
  0
VERTEX
  5
B9
330
B6
100
AcDbEntity
  8
_U+30EC_U+30A4_U+30E4_U+30FC 1
370
     0
100
AcDbVertex
100
AcDb2dVertex
 10
108.5628824598384
 20
-131.6636257266327
 30
0.0
  0
VERTEX
  5
BA
330
B6
100
AcDbEntity
  8
_U+30EC_U+30A4_U+30E4_U+30FC 1
370
     0
100
AcDbVertex
100
AcDb2dVertex
 10
109.0221136880223
 20
-131.6636257266327
 30
0.0
  0
VERTEX
  5
BB
330
B6
100
AcDbEntity
  8
_U+30EC_U+30A4_U+30E4_U+30FC 1
370
     0
100
AcDbVertex
100
AcDb2dVertex
 10
109.0221136880223
 20
-131.3549451711543
 30
0.0
  0
SEQEND
  5
BC
330
B6
100
AcDbEntity
  8
_U+30EC_U+30A4_U+30E4_U+30FC 1
370
     0
  0
HATCH
  5
BD
330
8D
100
AcDbEntity
  8
_U+30EC_U+30A4_U+30E4_U+30FC 1
 62
     7
420
 16777215
100
AcDbHatch
 10
0.0
 20
0.0
 30
0.0
210
0.0
220
0.0
230
1.0
  2
SOLID
 70
     1
 71
     0
 91
        5
 92
        1
 93
        1
 72
     4
 94
        3
 73
     0
 74
     1
 95
       77
 96
       73
 40
0.0
 40
0.0
 40
0.0
 40
0.0
 40
1.0
 40
1.0
 40
1.0
 40
2.0
 40
2.0
 40
2.0
 40
3.0
 40
3.0
 40
3.0
 40
4.0
 40
4.0
 40
4.0
 40
5.0
 40
5.0
 40
5.0
 40
6.0
 40
6.0
 40
6.0
 40
7.0
 40
7.0
 40
7.0
 40
8.0
 40
8.0
 40
8.0
 40
9.0
 40
9.0
 40
9.0
 40
10.0
 40
10.0
 40
10.0
 40
11.0
 40
11.0
 40
11.0
 40
12.0
 40
12.0
 40
12.0
 40
13.0
 40
13.0
 40
13.0
 40
14.0
 40
14.0
 40
14.0
 40
15.0
 40
15.0
 40
15.0
 40
16.0
 40
16.0
 40
16.0
 40
17.0
 40
17.0
 40
17.0
 40
18.0
 40
18.0
 40
18.0
 40
19.0
 40
19.0
 40
19.0
 40
20.0
 40
20.0
 40
20.0
 40
21.0
 40
21.0
 40
21.0
 40
22.0
 40
22.0
 40
22.0
 40
23.0
 40
23.0
 40
23.0
 40
24.0
 40
24.0
 40
24.0
 40
24.0
 10
109.1575059405926
 20
-132.4697780701812
 10
109.1109971515417
 20
-132.4949272672235
 10
108.9862846949757
 20
-132.5076741205189
 10
108.907736517912
 20
-132.5076741205189
 10
108.8953341741651
 20
-132.5076741205189
 10
108.8698404675742
 20
-132.5076741205189
 10
108.8360785318188
 20
-132.5035400059366
 10
108.8360785318188
 20
-132.5035400059366
 10
108.7385823295862
 20
-132.2771972325557
 10
108.7385823295862
 20
-132.2771972325557
 10
108.7682101507593
 20
-132.2833984044292
 10
108.8253987358145
 20
-132.2920111431423
 10
108.9418429632159
 20
-132.2920111431423
 10
109.0200466307311
 20
-132.2920111431423
 10
109.0221136880223
 20
-132.2496364686737
 10
109.0221136880223
 20
-132.1924478836186
 10
109.0221136880223
 20
-132.1924478836186
 10
109.0221136880223
 20
-131.8434597109627
 10
109.0221136880223
 20
-131.8434597109627
 10
109.0221136880223
 20
-131.8434597109627
 10
108.5628824598384
 20
-131.8434597109627
 10
108.5628824598384
 20
-131.8434597109627
 10
108.5652940266781
 20
-131.9809190208242
 10
108.5673610839693
 20
-132.1797010303231
 10
108.5735622558427
 20
-132.3130262256023
 10
108.5756293131339
 20
-132.3405869894843
 10
108.5756293131339
 20
-132.385028721244
 10
108.5883761664293
 20
-132.4463514208815
 10
108.5883761664293
 20
-132.4463514208815
 10
108.3472194824618
 20
-132.4463514208815
 10
108.3472194824618
 20
-132.4463514208815
 10
108.3727131890527
 20
-132.3216389643154
 10
108.3727131890527
 20
-131.9809190208242
 10
108.3727131890527
 20
-131.8434597109627
 10
108.3727131890527
 20
-131.8434597109627
 10
107.9303629287466
 20
-131.8434597109627
 10
107.9303629287466
 20
-131.8434597109627
 10
107.9072807889954
 20
-132.0508544591748
 10
107.8418239747757
 20
-132.3195719070243
 10
107.6447645130194
 20
-132.5035400059366
 10
107.6447645130194
 20
-132.5035400059366
 10
107.4566622995247
 20
-132.3808946066617
 10
107.4566622995247
 20
-132.3808946066617
 10
107.7105658367876
 20
-132.1607530051542
 10
107.7422607152519
 20
-131.8286458003762
 10
107.7422607152519
 20
-131.4965385955981
 10
107.7422607152519
 20
-131.4965385955981
 10
107.7422607152519
 20
-131.060734016714
 10
107.7422607152519
 20
-131.060734016714
 10
107.7422607152519
 20
-131.0249050236674
 10
107.7401936579608
 20
-130.7920165688645
 10
107.7315809192477
 20
-130.6903862520496
 10
107.8714517959488
 20
-130.7010660480539
 10
108.1126084799163
 20
-130.7010660480539
 10
108.2562689616512
 20
-130.7010660480539
 10
108.2562689616512
 20
-130.7010660480539
 10
108.715500189835
 20
-130.7010660480539
 10
108.715500189835
 20
-130.7010660480539
 10
108.7303141004216
 20
-130.7010660480539
 10
109.0793022730774
 20
-130.7010660480539
 10
109.2377766653989
 20
-130.6903862520496
 10
109.2357096081077
 20
-130.7434407225225
 10
109.2295084362343
 20
-130.9043266816836
 10
109.2295084362343
 20
-130.9549695853168
 10
109.2295084362343
 20
-130.9549695853168
 10
109.2295084362343
 20
-131.5619954098179
 10
109.2295084362343
 20
-131.5619954098179
 10
109.2295084362343
 20
-131.5812879445352
 10
109.23984372269
 20
-132.1524847759896
 10
109.23984372269
 20
-132.2644503792603
 10
109.23984372269
 20
-132.3216389643154
 10
109.23984372269
 20
-132.4232692811303
 10
109.1575059405926
 20
-132.4697780701812
 97
        0
 97
        0
 92
        1
 93
        4
 72
     1
 10
108.3727131890527
 20
-130.8829670896751
 11
107.9348415528774
 21
-130.8829670896751
 72
     1
 10
107.9348415528774
 20
-130.8829670896751
 11
107.9348415528774
 21
-131.1875135305712
 72
     1
 10
107.9348415528774
 20
-131.1875135305712
 11
108.3727131890527
 21
-131.1875135305712
 72
     1
 10
108.3727131890527
 20
-131.1875135305712
 11
108.3727131890527
 21
-130.8829670896751
 97
        0
 92
        1
 93
        4
 72
     1
 10
108.3727131890527
 20
-131.3549451711543
 11
107.9348415528774
 21
-131.3549451711543
 72
     1
 10
107.9348415528774
 20
-131.3549451711543
 11
107.9348415528774
 21
-131.6636257266327
 72
     1
 10
107.9348415528774
 20
-131.6636257266327
 11
108.3727131890527
 21
-131.6636257266327
 72
     1
 10
108.3727131890527
 20
-131.6636257266327
 11
108.3727131890527
 21
-131.3549451711543
 97
        0
 92
        1
 93
        4
 72
     1
 10
109.0221136880223
 20
-130.8829670896751
 11
108.5628824598384
 21
-130.8829670896751
 72
     1
 10
108.5628824598384
 20
-130.8829670896751
 11
108.5628824598384
 21
-131.1875135305712
 72
     1
 10
108.5628824598384
 20
-131.1875135305712
 11
109.0221136880223
 21
-131.1875135305712
 72
     1
 10
109.0221136880223
 20
-131.1875135305712
 11
109.0221136880223
 21
-130.8829670896751
 97
        0
 92
        1
 93
        4
 72
     1
 10
109.0221136880223
 20
-131.3549451711543
 11
108.5628824598384
 21
-131.3549451711543
 72
     1
 10
108.5628824598384
 20
-131.3549451711543
 11
108.5628824598384
 21
-131.6636257266327
 72
     1
 10
108.5628824598384
 20
-131.6636257266327
 11
109.0221136880223
 21
-131.6636257266327
 72
     1
 10
109.0221136880223
 20
-131.6636257266327
 11
109.0221136880223
 21
-131.3549451711543
 97
        0
 75
     2
 76
     1
 98
        0
  0
SPLINE
  5
BE
330
8D
100
AcDbEntity
  8
_U+30EC_U+30A4_U+30E4_U+30FC 1
370
     0
100
AcDbSpline
210
0.0
220
0.0
230
1.0
 70
    11
 71
     3
 72
    44
 73
    40
 74
     0
 42
0.0000000001
 43
0.0000000001
 12
1.0
 22
0.0
 32
0.0
 13
1.0
 23
0.0
 33
0.0
 40
0.0
 40
0.0
 40
0.0
 40
0.0
 40
1.0
 40
1.0
 40
1.0
 40
2.0
 40
2.0
 40
2.0
 40
3.0
 40
3.0
 40
3.0
 40
4.0
 40
4.0
 40
4.0
 40
5.0
 40
5.0
 40
5.0
 40
6.0
 40
6.0
 40
6.0
 40
7.0
 40
7.0
 40
7.0
 40
8.0
 40
8.0
 40
8.0
 40
9.0
 40
9.0
 40
9.0
 40
10.0
 40
10.0
 40
10.0
 40
11.0
 40
11.0
 40
11.0
 40
12.0
 40
12.0
 40
12.0
 40
13.0
 40
13.0
 40
13.0
 40
13.0
 10
104.7060980641013
 20
-133.7596218198587
 30
0.0
 10
104.5941324608306
 20
-134.1275580176834
 30
0.0
 10
104.5434895571975
 20
-134.2863769195534
 30
0.0
 10
104.3467746049897
 20
-134.5358018326855
 30
0.0
 10
104.1624619965288
 20
-134.7666232301972
 30
0.0
 10
103.9257839366922
 20
-134.9526583864007
 30
0.0
 10
103.6463866928384
 20
-135.0456759645025
 30
0.0
 10
103.6463866928384
 20
-135.0456759645025
 30
0.0
 10
103.4538058552129
 20
-134.8658419801724
 30
0.0
 10
103.4538058552129
 20
-134.8658419801724
 30
0.0
 10
104.0949381250179
 20
-134.7135687597244
 30
0.0
 10
104.4249782725049
 20
-134.1571858388565
 30
0.0
 10
104.4883680294335
 20
-133.7172471453901
 30
0.0
 10
104.4883680294335
 20
-133.7172471453901
 30
0.0
 10
103.7225233030624
 20
-133.7172471453901
 30
0.0
 10
103.7225233030624
 20
-133.7172471453901
 30
0.0
 10
103.6295057249607
 20
-133.7172471453901
 30
0.0
 10
103.4455376260483
 20
-133.7213812599724
 30
0.0
 10
103.2887857814695
 20
-133.7403292851413
 30
0.0
 10
103.2887857814695
 20
-133.7403292851413
 30
0.0
 10
103.2887857814695
 20
-133.5205321931824
 30
0.0
 10
103.2887857814695
 20
-133.5205321931824
 30
0.0
 10
103.3756021876978
 20
-133.5415472756424
 30
0.0
 10
103.6274386676695
 20
-133.5415472756424
 30
0.0
 10
103.7266574176447
 20
-133.5415472756424
 30
0.0
 10
103.7266574176447
 20
-133.5415472756424
 30
0.0
 10
104.1583278819465
 20
-133.5415472756424
 30
0.0
 10
104.1583278819465
 20
-133.5415472756424
 30
0.0
 10
104.2007025564151
 20
-133.5415472756424
 30
0.0
 10
104.4353135589606
 20
-133.5394802183513
 30
0.0
 10
104.4735541188469
 20
-133.5332790464778
 30
0.0
 10
104.5159287933155
 20
-133.5267333650558
 30
0.0
 10
104.5179958506066
 20
-133.5246663077647
 30
0.0
 10
104.5793185502441
 20
-133.4843586905872
 30
0.0
 10
104.5793185502441
 20
-133.4843586905872
 30
0.0
 10
104.7674207637387
 20
-133.639043477875
 30
0.0
 10
104.7674207637387
 20
-133.639043477875
 30
0.0
 10
104.7381374521141
 20
-133.6686712990481
 30
0.0
 10
104.7233235415275
 20
-133.7003661775124
 30
0.0
 10
104.7060980641013
 20
-133.7596218198587
 30
0.0
  0
SPLINE
  5
BF
330
8D
100
AcDbEntity
  8
_U+30EC_U+30A4_U+30E4_U+30FC 1
370
     0
100
AcDbSpline
210
0.0
220
0.0
230
1.0
 70
    11
 71
     3
 72
    17
 73
    13
 74
     0
 42
0.0000000001
 43
0.0000000001
 12
1.0
 22
0.0
 32
0.0
 13
1.0
 23
0.0
 33
0.0
 40
0.0
 40
0.0
 40
0.0
 40
0.0
 40
1.0
 40
1.0
 40
1.0
 40
2.0
 40
2.0
 40
2.0
 40
3.0
 40
3.0
 40
3.0
 40
4.0
 40
4.0
 40
4.0
 40
4.0
 10
104.9155598696045
 20
-133.5604953008113
 30
0.0
 10
104.7887803557472
 20
-133.5604953008113
 30
0.0
 10
104.6871500389324
 20
-133.4592094935449
 30
0.0
 10
104.6871500389324
 20
-133.3320854701392
 30
0.0
 10
104.6871500389324
 20
-133.205305956282
 30
0.0
 10
104.7887803557472
 20
-133.101608582176
 30
0.0
 10
104.9155598696045
 20
-133.101608582176
 30
0.0
 10
105.0426838930102
 20
-133.101608582176
 30
0.0
 10
105.1463812671162
 20
-133.205305956282
 30
0.0
 10
105.1463812671162
 20
-133.3320854701392
 30
0.0
 10
105.1463812671162
 20
-133.4592094935449
 30
0.0
 10
105.0426838930102
 20
-133.5604953008113
 30
0.0
 10
104.9155598696045
 20
-133.5604953008113
 30
0.0
  0
SPLINE
  5
C0
330
8D
100
AcDbEntity
  8
_U+30EC_U+30A4_U+30E4_U+30FC 1
370
     0
100
AcDbSpline
210
0.0
220
0.0
230
1.0
 70
    11
 71
     3
 72
    17
 73
    13
 74
     0
 42
0.0000000001
 43
0.0000000001
 12
1.0
 22
0.0
 32
0.0
 13
1.0
 23
0.0
 33
0.0
 40
0.0
 40
0.0
 40
0.0
 40
0.0
 40
1.0
 40
1.0
 40
1.0
 40
2.0
 40
2.0
 40
2.0
 40
3.0
 40
3.0
 40
3.0
 40
4.0
 40
4.0
 40
4.0
 40
4.0
 10
104.9134928123133
 20
-133.2304551533243
 30
0.0
 10
104.8587157940978
 20
-133.2304551533243
 30
0.0
 10
104.8142740623381
 20
-133.274896885084
 30
0.0
 10
104.8142740623381
 20
-133.3300184128481
 30
0.0
 10
104.8142740623381
 20
-133.3872069979032
 30
0.0
 10
104.8587157940978
 20
-133.4357828442452
 30
0.0
 10
104.9176269268956
 20
-133.4357828442452
 30
0.0
 10
104.9768825692419
 20
-133.4357828442452
 30
0.0
 10
105.0171901864193
 20
-133.385139940612
 30
0.0
 10
105.0171901864193
 20
-133.3320854701392
 30
0.0
 10
105.0171901864193
 20
-133.274896885084
 30
0.0
 10
104.9706813973685
 20
-133.2304551533243
 30
0.0
 10
104.9134928123133
 20
-133.2304551533243
 30
0.0
  0
HATCH
  5
C1
330
8D
100
AcDbEntity
  8
_U+30EC_U+30A4_U+30E4_U+30FC 1
 62
     7
420
 16777215
100
AcDbHatch
 10
0.0
 20
0.0
 30
0.0
210
0.0
220
0.0
230
1.0
  2
SOLID
 70
     1
 71
     0
 91
        3
 92
        1
 93
        1
 72
     4
 94
        3
 73
     0
 74
     1
 95
       44
 96
       40
 40
0.0
 40
0.0
 40
0.0
 40
0.0
 40
1.0
 40
1.0
 40
1.0
 40
2.0
 40
2.0
 40
2.0
 40
3.0
 40
3.0
 40
3.0
 40
4.0
 40
4.0
 40
4.0
 40
5.0
 40
5.0
 40
5.0
 40
6.0
 40
6.0
 40
6.0
 40
7.0
 40
7.0
 40
7.0
 40
8.0
 40
8.0
 40
8.0
 40
9.0
 40
9.0
 40
9.0
 40
10.0
 40
10.0
 40
10.0
 40
11.0
 40
11.0
 40
11.0
 40
12.0
 40
12.0
 40
12.0
 40
13.0
 40
13.0
 40
13.0
 40
13.0
 10
104.7060980641013
 20
-133.7596218198587
 10
104.5941324608306
 20
-134.1275580176834
 10
104.5434895571975
 20
-134.2863769195534
 10
104.3467746049897
 20
-134.5358018326855
 10
104.1624619965288
 20
-134.7666232301972
 10
103.9257839366922
 20
-134.9526583864007
 10
103.6463866928384
 20
-135.0456759645025
 10
103.6463866928384
 20
-135.0456759645025
 10
103.4538058552129
 20
-134.8658419801724
 10
103.4538058552129
 20
-134.8658419801724
 10
104.0949381250179
 20
-134.7135687597244
 10
104.4249782725049
 20
-134.1571858388565
 10
104.4883680294335
 20
-133.7172471453901
 10
104.4883680294335
 20
-133.7172471453901
 10
103.7225233030624
 20
-133.7172471453901
 10
103.7225233030624
 20
-133.7172471453901
 10
103.6295057249607
 20
-133.7172471453901
 10
103.4455376260483
 20
-133.7213812599724
 10
103.2887857814695
 20
-133.7403292851413
 10
103.2887857814695
 20
-133.7403292851413
 10
103.2887857814695
 20
-133.5205321931824
 10
103.2887857814695
 20
-133.5205321931824
 10
103.3756021876978
 20
-133.5415472756424
 10
103.6274386676695
 20
-133.5415472756424
 10
103.7266574176447
 20
-133.5415472756424
 10
103.7266574176447
 20
-133.5415472756424
 10
104.1583278819465
 20
-133.5415472756424
 10
104.1583278819465
 20
-133.5415472756424
 10
104.2007025564151
 20
-133.5415472756424
 10
104.4353135589606
 20
-133.5394802183513
 10
104.4735541188469
 20
-133.5332790464778
 10
104.5159287933155
 20
-133.5267333650558
 10
104.5179958506066
 20
-133.5246663077647
 10
104.5793185502441
 20
-133.4843586905872
 10
104.5793185502441
 20
-133.4843586905872
 10
104.7674207637387
 20
-133.639043477875
 10
104.7674207637387
 20
-133.639043477875
 10
104.7381374521141
 20
-133.6686712990481
 10
104.7233235415275
 20
-133.7003661775124
 10
104.7060980641013
 20
-133.7596218198587
 97
        0
 97
        0
 92
        1
 93
        1
 72
     4
 94
        3
 73
     0
 74
     1
 95
       17
 96
       13
 40
0.0
 40
0.0
 40
0.0
 40
0.0
 40
1.0
 40
1.0
 40
1.0
 40
2.0
 40
2.0
 40
2.0
 40
3.0
 40
3.0
 40
3.0
 40
4.0
 40
4.0
 40
4.0
 40
4.0
 10
104.9155598696045
 20
-133.5604953008113
 10
104.7887803557472
 20
-133.5604953008113
 10
104.6871500389324
 20
-133.4592094935449
 10
104.6871500389324
 20
-133.3320854701392
 10
104.6871500389324
 20
-133.205305956282
 10
104.7887803557472
 20
-133.101608582176
 10
104.9155598696045
 20
-133.101608582176
 10
105.0426838930102
 20
-133.101608582176
 10
105.1463812671162
 20
-133.205305956282
 10
105.1463812671162
 20
-133.3320854701392
 10
105.1463812671162
 20
-133.4592094935449
 10
105.0426838930102
 20
-133.5604953008113
 10
104.9155598696045
 20
-133.5604953008113
 97
        0
 97
        0
 92
        1
 93
        1
 72
     4
 94
        3
 73
     0
 74
     1
 95
       17
 96
       13
 40
0.0
 40
0.0
 40
0.0
 40
0.0
 40
1.0
 40
1.0
 40
1.0
 40
2.0
 40
2.0
 40
2.0
 40
3.0
 40
3.0
 40
3.0
 40
4.0
 40
4.0
 40
4.0
 40
4.0
 10
104.9134928123133
 20
-133.2304551533243
 10
104.8587157940978
 20
-133.2304551533243
 10
104.8142740623381
 20
-133.274896885084
 10
104.8142740623381
 20
-133.3300184128481
 10
104.8142740623381
 20
-133.3872069979032
 10
104.8587157940978
 20
-133.4357828442452
 10
104.9176269268956
 20
-133.4357828442452
 10
104.9768825692419
 20
-133.4357828442452
 10
105.0171901864193
 20
-133.385139940612
 10
105.0171901864193
 20
-133.3320854701392
 10
105.0171901864193
 20
-133.274896885084
 10
104.9706813973685
 20
-133.2304551533243
 10
104.9134928123133
 20
-133.2304551533243
 97
        0
 97
        0
 75
     2
 76
     1
 98
        0
  0
SPLINE
  5
C2
330
8D
100
AcDbEntity
  8
_U+30EC_U+30A4_U+30E4_U+30FC 1
370
     0
100
AcDbSpline
210
0.0
220
0.0
230
1.0
 70
    11
 71
     3
 72
    50
 73
    46
 74
     0
 42
0.0000000001
 43
0.0000000001
 12
1.0
 22
0.0
 32
0.0
 13
1.0
 23
0.0
 33
0.0
 40
0.0
 40
0.0
 40
0.0
 40
0.0
 40
1.0
 40
1.0
 40
1.0
 40
2.0
 40
2.0
 40
2.0
 40
3.0
 40
3.0
 40
3.0
 40
4.0
 40
4.0
 40
4.0
 40
5.0
 40
5.0
 40
5.0
 40
6.0
 40
6.0
 40
6.0
 40
7.0
 40
7.0
 40
7.0
 40
8.0
 40
8.0
 40
8.0
 40
9.0
 40
9.0
 40
9.0
 40
10.0
 40
10.0
 40
10.0
 40
11.0
 40
11.0
 40
11.0
 40
12.0
 40
12.0
 40
12.0
 40
13.0
 40
13.0
 40
13.0
 40
14.0
 40
14.0
 40
14.0
 40
15.0
 40
15.0
 40
15.0
 40
15.0
 10
106.7107991269681
 20
-134.0683023753371
 30
0.0
 10
106.6322509499044
 20
-134.246069302376
 30
0.0
 10
106.4968586973341
 20
-134.453464050588
 30
0.0
 10
106.3593993874726
 20
-134.5929904177407
 30
0.0
 10
106.1902451991469
 20
-134.7642116633576
 30
0.0
 10
106.0272921826946
 20
-134.853095126877
 30
0.0
 10
105.7079318312119
 20
-134.9950330608693
 30
0.0
 10
105.7079318312119
 20
-134.9950330608693
 30
0.0
 10
105.5387776428861
 20
-134.8065863378261
 30
0.0
 10
105.5387776428861
 20
-134.8065863378261
 30
0.0
 10
105.7248127990896
 20
-134.783504198075
 30
0.0
 10
105.8960340447066
 20
-134.6966877918467
 30
0.0
 10
106.0486517747031
 20
-134.5909233604495
 30
0.0
 10
106.3108235411306
 20
-134.4090223188283
 30
0.0
 10
106.5013373214649
 20
-134.0958631392191
 30
0.0
 10
106.549913167807
 20
-133.9139620975979
 30
0.0
 10
106.549913167807
 20
-133.9139620975979
 30
0.0
 10
105.8791530768288
 20
-133.9139620975979
 30
0.0
 10
105.8791530768288
 20
-133.9139620975979
 30
0.0
 10
105.7206786845073
 20
-133.9139620975979
 30
0.0
 10
105.4285345873581
 20
-133.9222303267625
 30
0.0
 10
105.2762613669101
 20
-133.9394558041888
 30
0.0
 10
105.2762613669101
 20
-133.9394558041888
 30
0.0
 10
105.2762613669101
 20
-133.7107014639682
 30
0.0
 10
105.2762613669101
 20
-133.7107014639682
 30
0.0
 10
105.3103678122141
 20
-133.7172471453901
 30
0.0
 10
105.3355170092564
 20
-133.7234483172636
 30
0.0
 10
105.3885714797293
 20
-133.7275824318459
 30
0.0
 10
105.4898572869956
 20
-133.7341281132679
 30
0.0
 10
105.6869167487519
 20
-133.736195170559
 30
0.0
 10
105.7713215881405
 20
-133.736195170559
 30
0.0
 10
105.7713215881405
 20
-133.736195170559
 30
0.0
 10
106.2770616053752
 20
-133.736195170559
 30
0.0
 10
106.2770616053752
 20
-133.736195170559
 30
0.0
 10
106.3445854768861
 20
-133.736195170559
 30
0.0
 10
106.4906575254607
 20
-133.7320610559767
 30
0.0
 10
106.5519802250981
 20
-133.7255153745547
 30
0.0
 10
106.6239827207398
 20
-133.7172471453901
 30
0.0
 10
106.6515434846218
 20
-133.7024332348036
 30
0.0
 10
106.6853054203773
 20
-133.6790065855039
 30
0.0
 10
106.6853054203773
 20
-133.6790065855039
 30
0.0
 10
106.8503254941208
 20
-133.8460937165385
 30
0.0
 10
106.8503254941208
 20
-133.8460937165385
 30
0.0
 10
106.7803900557702
 20
-133.9139620975979
 30
0.0
 10
106.7338812667193
 20
-134.0176594717039
 30
0.0
 10
106.7107991269681
 20
-134.0683023753371
 30
0.0
  0
SPLINE
  5
C3
330
8D
100
AcDbEntity
  8
_U+30EC_U+30A4_U+30E4_U+30FC 1
370
     0
100
AcDbSpline
210
0.0
220
0.0
230
1.0
 70
    11
 71
     3
 72
    29
 73
    25
 74
     0
 42
0.0000000001
 43
0.0000000001
 12
1.0
 22
0.0
 32
0.0
 13
1.0
 23
0.0
 33
0.0
 40
0.0
 40
0.0
 40
0.0
 40
0.0
 40
1.0
 40
1.0
 40
1.0
 40
2.0
 40
2.0
 40
2.0
 40
3.0
 40
3.0
 40
3.0
 40
4.0
 40
4.0
 40
4.0
 40
5.0
 40
5.0
 40
5.0
 40
6.0
 40
6.0
 40
6.0
 40
7.0
 40
7.0
 40
7.0
 40
8.0
 40
8.0
 40
8.0
 40
8.0
 10
106.2178059630289
 20
-133.4423285256672
 30
0.0
 10
106.2178059630289
 20
-133.4423285256672
 30
0.0
 10
105.8770860195377
 20
-133.4423285256672
 30
0.0
 10
105.8770860195377
 20
-133.4423285256672
 30
0.0
 10
105.7630533589759
 20
-133.4423285256672
 30
0.0
 10
105.6466091315745
 20
-133.4464626402495
 30
0.0
 10
105.5322319614642
 20
-133.4612765508361
 30
0.0
 10
105.5322319614642
 20
-133.4612765508361
 30
0.0
 10
105.5322319614642
 20
-133.2518147453329
 30
0.0
 10
105.5322319614642
 20
-133.2518147453329
 30
0.0
 10
105.6507432461568
 20
-133.2666286559194
 30
0.0
 10
105.8243760586134
 20
-133.2707627705018
 30
0.0
 10
105.8770860195377
 20
-133.2707627705018
 30
0.0
 10
105.8770860195377
 20
-133.2707627705018
 30
0.0
 10
106.2178059630289
 20
-133.2707627705018
 30
0.0
 10
106.2178059630289
 20
-133.2707627705018
 30
0.0
 10
106.3342501904303
 20
-133.2707627705018
 30
0.0
 10
106.4503499082833
 20
-133.2666286559194
 30
0.0
 10
106.5667941356847
 20
-133.2518147453329
 30
0.0
 10
106.5667941356847
 20
-133.2518147453329
 30
0.0
 10
106.5667941356847
 20
-133.4612765508361
 30
0.0
 10
106.5667941356847
 20
-133.4612765508361
 30
0.0
 10
106.4165879725278
 20
-133.4423285256672
 30
0.0
 10
106.2326198736155
 20
-133.4423285256672
 30
0.0
 10
106.2178059630289
 20
-133.4423285256672
 30
0.0
  0
HATCH
  5
C4
330
8D
100
AcDbEntity
  8
_U+30EC_U+30A4_U+30E4_U+30FC 1
 62
     7
420
 16777215
100
AcDbHatch
 10
0.0
 20
0.0
 30
0.0
210
0.0
220
0.0
230
1.0
  2
SOLID
 70
     1
 71
     0
 91
        2
 92
        1
 93
        1
 72
     4
 94
        3
 73
     0
 74
     1
 95
       50
 96
       46
 40
0.0
 40
0.0
 40
0.0
 40
0.0
 40
1.0
 40
1.0
 40
1.0
 40
2.0
 40
2.0
 40
2.0
 40
3.0
 40
3.0
 40
3.0
 40
4.0
 40
4.0
 40
4.0
 40
5.0
 40
5.0
 40
5.0
 40
6.0
 40
6.0
 40
6.0
 40
7.0
 40
7.0
 40
7.0
 40
8.0
 40
8.0
 40
8.0
 40
9.0
 40
9.0
 40
9.0
 40
10.0
 40
10.0
 40
10.0
 40
11.0
 40
11.0
 40
11.0
 40
12.0
 40
12.0
 40
12.0
 40
13.0
 40
13.0
 40
13.0
 40
14.0
 40
14.0
 40
14.0
 40
15.0
 40
15.0
 40
15.0
 40
15.0
 10
106.7107991269681
 20
-134.0683023753371
 10
106.6322509499044
 20
-134.246069302376
 10
106.4968586973341
 20
-134.453464050588
 10
106.3593993874726
 20
-134.5929904177407
 10
106.1902451991469
 20
-134.7642116633576
 10
106.0272921826946
 20
-134.853095126877
 10
105.7079318312119
 20
-134.9950330608693
 10
105.7079318312119
 20
-134.9950330608693
 10
105.5387776428861
 20
-134.8065863378261
 10
105.5387776428861
 20
-134.8065863378261
 10
105.7248127990896
 20
-134.783504198075
 10
105.8960340447066
 20
-134.6966877918467
 10
106.0486517747031
 20
-134.5909233604495
 10
106.3108235411306
 20
-134.4090223188283
 10
106.5013373214649
 20
-134.0958631392191
 10
106.549913167807
 20
-133.9139620975979
 10
106.549913167807
 20
-133.9139620975979
 10
105.8791530768288
 20
-133.9139620975979
 10
105.8791530768288
 20
-133.9139620975979
 10
105.7206786845073
 20
-133.9139620975979
 10
105.4285345873581
 20
-133.9222303267625
 10
105.2762613669101
 20
-133.9394558041888
 10
105.2762613669101
 20
-133.9394558041888
 10
105.2762613669101
 20
-133.7107014639682
 10
105.2762613669101
 20
-133.7107014639682
 10
105.3103678122141
 20
-133.7172471453901
 10
105.3355170092564
 20
-133.7234483172636
 10
105.3885714797293
 20
-133.7275824318459
 10
105.4898572869956
 20
-133.7341281132679
 10
105.6869167487519
 20
-133.736195170559
 10
105.7713215881405
 20
-133.736195170559
 10
105.7713215881405
 20
-133.736195170559
 10
106.2770616053752
 20
-133.736195170559
 10
106.2770616053752
 20
-133.736195170559
 10
106.3445854768861
 20
-133.736195170559
 10
106.4906575254607
 20
-133.7320610559767
 10
106.5519802250981
 20
-133.7255153745547
 10
106.6239827207398
 20
-133.7172471453901
 10
106.6515434846218
 20
-133.7024332348036
 10
106.6853054203773
 20
-133.6790065855039
 10
106.6853054203773
 20
-133.6790065855039
 10
106.8503254941208
 20
-133.8460937165385
 10
106.8503254941208
 20
-133.8460937165385
 10
106.7803900557702
 20
-133.9139620975979
 10
106.7338812667193
 20
-134.0176594717039
 10
106.7107991269681
 20
-134.0683023753371
 97
        0
 97
        0
 92
        1
 93
        1
 72
     4
 94
        3
 73
     0
 74
     1
 95
       29
 96
       25
 40
0.0
 40
0.0
 40
0.0
 40
0.0
 40
1.0
 40
1.0
 40
1.0
 40
2.0
 40
2.0
 40
2.0
 40
3.0
 40
3.0
 40
3.0
 40
4.0
 40
4.0
 40
4.0
 40
5.0
 40
5.0
 40
5.0
 40
6.0
 40
6.0
 40
6.0
 40
7.0
 40
7.0
 40
7.0
 40
8.0
 40
8.0
 40
8.0
 40
8.0
 10
106.2178059630289
 20
-133.4423285256672
 10
106.2178059630289
 20
-133.4423285256672
 10
105.8770860195377
 20
-133.4423285256672
 10
105.8770860195377
 20
-133.4423285256672
 10
105.7630533589759
 20
-133.4423285256672
 10
105.6466091315745
 20
-133.4464626402495
 10
105.5322319614642
 20
-133.4612765508361
 10
105.5322319614642
 20
-133.4612765508361
 10
105.5322319614642
 20
-133.2518147453329
 10
105.5322319614642
 20
-133.2518147453329
 10
105.6507432461568
 20
-133.2666286559194
 10
105.8243760586134
 20
-133.2707627705018
 10
105.8770860195377
 20
-133.2707627705018
 10
105.8770860195377
 20
-133.2707627705018
 10
106.2178059630289
 20
-133.2707627705018
 10
106.2178059630289
 20
-133.2707627705018
 10
106.3342501904303
 20
-133.2707627705018
 10
106.4503499082833
 20
-133.2666286559194
 10
106.5667941356847
 20
-133.2518147453329
 10
106.5667941356847
 20
-133.2518147453329
 10
106.5667941356847
 20
-133.4612765508361
 10
106.5667941356847
 20
-133.4612765508361
 10
106.4165879725278
 20
-133.4423285256672
 10
106.2326198736155
 20
-133.4423285256672
 10
106.2178059630289
 20
-133.4423285256672
 97
        0
 97
        0
 75
     2
 76
     1
 98
        0
  0
SPLINE
  5
C5
330
8D
100
AcDbEntity
  8
_U+30EC_U+30A4_U+30E4_U+30FC 1
370
     0
100
AcDbSpline
210
0.0
220
0.0
230
1.0
 70
    11
 71
     3
 72
    50
 73
    46
 74
     0
 42
0.0000000001
 43
0.0000000001
 12
1.0
 22
0.0
 32
0.0
 13
1.0
 23
0.0
 33
0.0
 40
0.0
 40
0.0
 40
0.0
 40
0.0
 40
1.0
 40
1.0
 40
1.0
 40
2.0
 40
2.0
 40
2.0
 40
3.0
 40
3.0
 40
3.0
 40
4.0
 40
4.0
 40
4.0
 40
5.0
 40
5.0
 40
5.0
 40
6.0
 40
6.0
 40
6.0
 40
7.0
 40
7.0
 40
7.0
 40
8.0
 40
8.0
 40
8.0
 40
9.0
 40
9.0
 40
9.0
 40
10.0
 40
10.0
 40
10.0
 40
11.0
 40
11.0
 40
11.0
 40
12.0
 40
12.0
 40
12.0
 40
13.0
 40
13.0
 40
13.0
 40
14.0
 40
14.0
 40
14.0
 40
15.0
 40
15.0
 40
15.0
 40
15.0
 10
108.4209445258462
 20
-133.4275146150806
 30
0.0
 10
108.211482720343
 20
-133.6411105351661
 30
0.0
 10
108.1398247342498
 20
-133.7131130308078
 30
0.0
 10
107.9978868002575
 20
-133.8312798059519
 30
0.0
 10
107.9978868002575
 20
-133.8312798059519
 30
0.0
 10
107.9978868002575
 20
-134.398342522824
 30
0.0
 10
107.9978868002575
 20
-134.398342522824
 30
0.0
 10
107.9978868002575
 20
-134.5485486859809
 30
0.0
 10
108.0044324816795
 20
-134.5674967111498
 30
0.0
 10
108.0085665962618
 20
-134.7452636381887
 30
0.0
 10
108.0106336535529
 20
-134.8765217761767
 30
0.0
 10
108.0168348254264
 20
-134.9250976225187
 30
0.0
 10
108.0233805068483
 20
-134.984353264865
 30
0.0
 10
108.0233805068483
 20
-134.984353264865
 30
0.0
 10
107.7970377334674
 20
-134.984353264865
 30
0.0
 10
107.7970377334674
 20
-134.984353264865
 30
0.0
 10
107.8011718480497
 20
-134.9399115331053
 30
0.0
 10
107.805305962632
 20
-134.8934027440544
 30
0.0
 10
107.805305962632
 20
-134.8847900053413
 30
0.0
 10
107.805305962632
 20
-134.804519280535
 30
0.0
 10
107.8097845867628
 20
-134.453464050588
 30
0.0
 10
107.8097845867628
 20
-134.3814615549463
 30
0.0
 10
107.8097845867628
 20
-134.3814615549463
 30
0.0
 10
107.8097845867628
 20
-133.9752847972354
 30
0.0
 10
107.8097845867628
 20
-133.9752847972354
 30
0.0
 10
107.6278835451416
 20
-134.0999972538014
 30
0.0
 10
107.433235650225
 20
-134.2102403093294
 30
0.0
 10
107.2299750165953
 20
-134.2967122060092
 30
0.0
 10
107.2299750165953
 20
-134.2967122060092
 30
0.0
 10
107.0270588925141
 20
-134.1337591895569
 30
0.0
 10
107.0270588925141
 20
-134.1337591895569
 30
0.0
 10
107.149704291789
 20
-134.0979301965102
 30
0.0
 10
107.405674886343
 20
-134.0238606435774
 30
0.0
 10
107.7505289444165
 20
-133.7678900490233
 30
0.0
 10
107.9661919217932
 20
-133.6094156567018
 30
0.0
 10
108.1587727594186
 20
-133.4209689336587
 30
0.0
 10
108.3110459798667
 20
-133.2008273321512
 30
0.0
 10
108.3110459798667
 20
-133.2008273321512
 30
0.0
 10
108.5036268174921
 20
-133.3448323234346
 30
0.0
 10
108.5036268174921
 20
-133.3448323234346
 30
0.0
 10
108.5163736707876
 20
-133.3555121194389
 30
0.0
 10
108.5246418999522
 20
-133.3703260300255
 30
0.0
 10
108.5246418999522
 20
-133.3830728833209
 30
0.0
 10
108.5246418999522
 20
-133.4230359909498
 30
0.0
 10
108.4867458496144
 20
-133.4230359909498
 30
0.0
 10
108.4209445258462
 20
-133.4275146150806
 30
0.0
  0
HATCH
  5
C6
330
8D
100
AcDbEntity
  8
_U+30EC_U+30A4_U+30E4_U+30FC 1
 62
     7
420
 16777215
100
AcDbHatch
 10
0.0
 20
0.0
 30
0.0
210
0.0
220
0.0
230
1.0
  2
SOLID
 70
     1
 71
     0
 91
        1
 92
        1
 93
        1
 72
     4
 94
        3
 73
     0
 74
     1
 95
       50
 96
       46
 40
0.0
 40
0.0
 40
0.0
 40
0.0
 40
1.0
 40
1.0
 40
1.0
 40
2.0
 40
2.0
 40
2.0
 40
3.0
 40
3.0
 40
3.0
 40
4.0
 40
4.0
 40
4.0
 40
5.0
 40
5.0
 40
5.0
 40
6.0
 40
6.0
 40
6.0
 40
7.0
 40
7.0
 40
7.0
 40
8.0
 40
8.0
 40
8.0
 40
9.0
 40
9.0
 40
9.0
 40
10.0
 40
10.0
 40
10.0
 40
11.0
 40
11.0
 40
11.0
 40
12.0
 40
12.0
 40
12.0
 40
13.0
 40
13.0
 40
13.0
 40
14.0
 40
14.0
 40
14.0
 40
15.0
 40
15.0
 40
15.0
 40
15.0
 10
108.4209445258462
 20
-133.4275146150806
 10
108.211482720343
 20
-133.6411105351661
 10
108.1398247342498
 20
-133.7131130308078
 10
107.9978868002575
 20
-133.8312798059519
 10
107.9978868002575
 20
-133.8312798059519
 10
107.9978868002575
 20
-134.398342522824
 10
107.9978868002575
 20
-134.398342522824
 10
107.9978868002575
 20
-134.5485486859809
 10
108.0044324816795
 20
-134.5674967111498
 10
108.0085665962618
 20
-134.7452636381887
 10
108.0106336535529
 20
-134.8765217761767
 10
108.0168348254264
 20
-134.9250976225187
 10
108.0233805068483
 20
-134.984353264865
 10
108.0233805068483
 20
-134.984353264865
 10
107.7970377334674
 20
-134.984353264865
 10
107.7970377334674
 20
-134.984353264865
 10
107.8011718480497
 20
-134.9399115331053
 10
107.805305962632
 20
-134.8934027440544
 10
107.805305962632
 20
-134.8847900053413
 10
107.805305962632
 20
-134.804519280535
 10
107.8097845867628
 20
-134.453464050588
 10
107.8097845867628
 20
-134.3814615549463
 10
107.8097845867628
 20
-134.3814615549463
 10
107.8097845867628
 20
-133.9752847972354
 10
107.8097845867628
 20
-133.9752847972354
 10
107.6278835451416
 20
-134.0999972538014
 10
107.433235650225
 20
-134.2102403093294
 10
107.2299750165953
 20
-134.2967122060092
 10
107.2299750165953
 20
-134.2967122060092
 10
107.0270588925141
 20
-134.1337591895569
 10
107.0270588925141
 20
-134.1337591895569
 10
107.149704291789
 20
-134.0979301965102
 10
107.405674886343
 20
-134.0238606435774
 10
107.7505289444165
 20
-133.7678900490233
 10
107.9661919217932
 20
-133.6094156567018
 10
108.1587727594186
 20
-133.4209689336587
 10
108.3110459798667
 20
-133.2008273321512
 10
108.3110459798667
 20
-133.2008273321512
 10
108.5036268174921
 20
-133.3448323234346
 10
108.5036268174921
 20
-133.3448323234346
 10
108.5163736707876
 20
-133.3555121194389
 10
108.5246418999522
 20
-133.3703260300255
 10
108.5246418999522
 20
-133.3830728833209
 10
108.5246418999522
 20
-133.4230359909498
 10
108.4867458496144
 20
-133.4230359909498
 10
108.4209445258462
 20
-133.4275146150806
 97
        0
 97
        0
 75
     2
 76
     1
 98
        0
  0
SPLINE
  5
C7
330
8D
100
AcDbEntity
  8
_U+30EC_U+30A4_U+30E4_U+30FC 1
370
     0
100
AcDbSpline
210
0.0
220
0.0
230
1.0
 70
    11
 71
     3
 72
    50
 73
    46
 74
     0
 42
0.0000000001
 43
0.0000000001
 12
1.0
 22
0.0
 32
0.0
 13
1.0
 23
0.0
 33
0.0
 40
0.0
 40
0.0
 40
0.0
 40
0.0
 40
1.0
 40
1.0
 40
1.0
 40
2.0
 40
2.0
 40
2.0
 40
3.0
 40
3.0
 40
3.0
 40
4.0
 40
4.0
 40
4.0
 40
5.0
 40
5.0
 40
5.0
 40
6.0
 40
6.0
 40
6.0
 40
7.0
 40
7.0
 40
7.0
 40
8.0
 40
8.0
 40
8.0
 40
9.0
 40
9.0
 40
9.0
 40
10.0
 40
10.0
 40
10.0
 40
11.0
 40
11.0
 40
11.0
 40
12.0
 40
12.0
 40
12.0
 40
13.0
 40
13.0
 40
13.0
 40
14.0
 40
14.0
 40
14.0
 40
15.0
 40
15.0
 40
15.0
 40
15.0
 10
110.1293673769815
 20
-133.9542697147753
 30
0.0
 10
110.0680446773441
 20
-134.0259277008685
 30
0.0
 10
109.8075954586592
 20
-134.34322099506
 30
0.0
 10
109.7507513831526
 20
-134.4069552615371
 30
0.0
 10
109.8351562225412
 20
-134.5041069542212
 30
0.0
 10
109.8861436357229
 20
-134.5674967111498
 30
0.0
 10
109.9516004499427
 20
-134.6584472319604
 30
0.0
 10
109.9516004499427
 20
-134.6584472319604
 30
0.0
 10
109.7676323510303
 20
-134.7962510513704
 30
0.0
 10
109.7676323510303
 20
-134.7962510513704
 30
0.0
 10
109.63224009846
 20
-134.5843776790275
 30
0.0
 10
109.4606743432946
 20
-134.3604464724863
 30
0.0
 10
109.1668076984027
 20
-134.1613199534388
 30
0.0
 10
109.1668076984027
 20
-134.1613199534388
 30
0.0
 10
109.3149468042685
 20
-134.0069796756997
 30
0.0
 10
109.3149468042685
 20
-134.0069796756997
 30
0.0
 10
109.424845350248
 20
-134.087250400506
 30
0.0
 10
109.528542724354
 20
-134.1761338640254
 30
0.0
 10
109.625694417038
 20
-134.2715630089668
 30
0.0
 10
109.6935627980974
 20
-134.1954263987428
 30
0.0
 10
109.8964789221787
 20
-133.9518581479356
 30
0.0
 10
110.0298041174578
 20
-133.7234483172636
 30
0.0
 10
110.0298041174578
 20
-133.7234483172636
 30
0.0
 10
109.3569769691885
 20
-133.7234483172636
 30
0.0
 10
109.3569769691885
 20
-133.7234483172636
 30
0.0
 10
109.2322645126225
 20
-133.7234483172636
 30
0.0
 10
108.9804280326507
 20
-133.7320610559767
 30
0.0
 10
108.7709662271475
 20
-133.7423963424325
 30
0.0
 10
108.7709662271475
 20
-133.7423963424325
 30
0.0
 10
108.7709662271475
 20
-133.5225992504735
 30
0.0
 10
108.7709662271475
 20
-133.5225992504735
 30
0.0
 10
108.9552788356084
 20
-133.5415472756424
 30
0.0
 10
109.1602620169808
 20
-133.5456813902247
 30
0.0
 10
109.3487087400239
 20
-133.5456813902247
 30
0.0
 10
109.3487087400239
 20
-133.5456813902247
 30
0.0
 10
109.8520371904189
 20
-133.5456813902247
 30
0.0
 10
109.8520371904189
 20
-133.5456813902247
 30
0.0
 10
110.190690076619
 20
-133.5456813902247
 30
0.0
 10
110.2351318083787
 20
-133.5308674796381
 30
0.0
 10
110.3174695904762
 20
-133.4909043720092
 30
0.0
 10
110.3174695904762
 20
-133.4909043720092
 30
0.0
 10
110.4845567215108
 20
-133.6493787643307
 30
0.0
 10
110.4845567215108
 20
-133.6493787643307
 30
0.0
 10
110.3322835010628
 20
-133.7213812599724
 30
0.0
 10
110.1886230193278
 20
-133.8843342764248
 30
0.0
 10
110.1293673769815
 20
-133.9542697147753
 30
0.0
  0
HATCH
  5
C8
330
8D
100
AcDbEntity
  8
_U+30EC_U+30A4_U+30E4_U+30FC 1
 62
     7
420
 16777215
100
AcDbHatch
 10
0.0
 20
0.0
 30
0.0
210
0.0
220
0.0
230
1.0
  2
SOLID
 70
     1
 71
     0
 91
        1
 92
        1
 93
        1
 72
     4
 94
        3
 73
     0
 74
     1
 95
       50
 96
       46
 40
0.0
 40
0.0
 40
0.0
 40
0.0
 40
1.0
 40
1.0
 40
1.0
 40
2.0
 40
2.0
 40
2.0
 40
3.0
 40
3.0
 40
3.0
 40
4.0
 40
4.0
 40
4.0
 40
5.0
 40
5.0
 40
5.0
 40
6.0
 40
6.0
 40
6.0
 40
7.0
 40
7.0
 40
7.0
 40
8.0
 40
8.0
 40
8.0
 40
9.0
 40
9.0
 40
9.0
 40
10.0
 40
10.0
 40
10.0
 40
11.0
 40
11.0
 40
11.0
 40
12.0
 40
12.0
 40
12.0
 40
13.0
 40
13.0
 40
13.0
 40
14.0
 40
14.0
 40
14.0
 40
15.0
 40
15.0
 40
15.0
 40
15.0
 10
110.1293673769815
 20
-133.9542697147753
 10
110.0680446773441
 20
-134.0259277008685
 10
109.8075954586592
 20
-134.34322099506
 10
109.7507513831526
 20
-134.4069552615371
 10
109.8351562225412
 20
-134.5041069542212
 10
109.8861436357229
 20
-134.5674967111498
 10
109.9516004499427
 20
-134.6584472319604
 10
109.9516004499427
 20
-134.6584472319604
 10
109.7676323510303
 20
-134.7962510513704
 10
109.7676323510303
 20
-134.7962510513704
 10
109.63224009846
 20
-134.5843776790275
 10
109.4606743432946
 20
-134.3604464724863
 10
109.1668076984027
 20
-134.1613199534388
 10
109.1668076984027
 20
-134.1613199534388
 10
109.3149468042685
 20
-134.0069796756997
 10
109.3149468042685
 20
-134.0069796756997
 10
109.424845350248
 20
-134.087250400506
 10
109.528542724354
 20
-134.1761338640254
 10
109.625694417038
 20
-134.2715630089668
 10
109.6935627980974
 20
-134.1954263987428
 10
109.8964789221787
 20
-133.9518581479356
 10
110.0298041174578
 20
-133.7234483172636
 10
110.0298041174578
 20
-133.7234483172636
 10
109.3569769691885
 20
-133.7234483172636
 10
109.3569769691885
 20
-133.7234483172636
 10
109.2322645126225
 20
-133.7234483172636
 10
108.9804280326507
 20
-133.7320610559767
 10
108.7709662271475
 20
-133.7423963424325
 10
108.7709662271475
 20
-133.7423963424325
 10
108.7709662271475
 20
-133.5225992504735
 10
108.7709662271475
 20
-133.5225992504735
 10
108.9552788356084
 20
-133.5415472756424
 10
109.1602620169808
 20
-133.5456813902247
 10
109.3487087400239
 20
-133.5456813902247
 10
109.3487087400239
 20
-133.5456813902247
 10
109.8520371904189
 20
-133.5456813902247
 10
109.8520371904189
 20
-133.5456813902247
 10
110.190690076619
 20
-133.5456813902247
 10
110.2351318083787
 20
-133.5308674796381
 10
110.3174695904762
 20
-133.4909043720092
 10
110.3174695904762
 20
-133.4909043720092
 10
110.4845567215108
 20
-133.6493787643307
 10
110.4845567215108
 20
-133.6493787643307
 10
110.3322835010628
 20
-133.7213812599724
 10
110.1886230193278
 20
-133.8843342764248
 10
110.1293673769815
 20
-133.9542697147753
 97
        0
 97
        0
 75
     2
 76
     1
 98
        0
  0
SPLINE
  5
C9
330
8D
100
AcDbEntity
  8
_U+30EC_U+30A4_U+30E4_U+30FC 1
370
     0
100
AcDbSpline
210
0.0
220
0.0
230
1.0
 70
    11
 71
     3
 72
    29
 73
    25
 74
     0
 42
0.0000000001
 43
0.0000000001
 12
1.0
 22
0.0
 32
0.0
 13
1.0
 23
0.0
 33
0.0
 40
0.0
 40
0.0
 40
0.0
 40
0.0
 40
1.0
 40
1.0
 40
1.0
 40
2.0
 40
2.0
 40
2.0
 40
3.0
 40
3.0
 40
3.0
 40
4.0
 40
4.0
 40
4.0
 40
5.0
 40
5.0
 40
5.0
 40
6.0
 40
6.0
 40
6.0
 40
7.0
 40
7.0
 40
7.0
 40
8.0
 40
8.0
 40
8.0
 40
8.0
 10
111.7530408791798
 20
-134.197493456034
 30
0.0
 10
111.7530408791798
 20
-134.197493456034
 30
0.0
 10
111.2686604539537
 20
-134.197493456034
 30
0.0
 10
111.2686604539537
 20
-134.197493456034
 30
0.0
 10
111.2410996900717
 20
-134.197493456034
 30
0.0
 10
110.9238063958802
 20
-134.197493456034
 30
0.0
 10
110.7122775330858
 20
-134.2226426530763
 30
0.0
 10
110.7122775330858
 20
-134.2226426530763
 30
0.0
 10
110.7122775330858
 20
-133.9921657651131
 30
0.0
 10
110.7122775330858
 20
-133.9921657651131
 30
0.0
 10
110.8707519254073
 20
-134.0155924144128
 30
0.0
 10
111.0612657057416
 20
-134.0176594717039
 30
0.0
 10
111.2686604539537
 20
-134.0176594717039
 30
0.0
 10
111.2686604539537
 20
-134.0176594717039
 30
0.0
 10
111.7530408791798
 20
-134.0176594717039
 30
0.0
 10
111.7530408791798
 20
-134.0176594717039
 30
0.0
 10
111.9390760353833
 20
-134.0176594717039
 30
0.0
 10
112.1254557011353
 20
-134.0155924144128
 30
0.0
 10
112.3094238000477
 20
-133.9921657651131
 30
0.0
 10
112.3094238000477
 20
-133.9921657651131
 30
0.0
 10
112.3094238000477
 20
-134.2226426530763
 30
0.0
 10
112.3094238000477
 20
-134.2226426530763
 30
0.0
 10
112.1254557011353
 20
-134.1995605133251
 30
0.0
 10
111.8777533357459
 20
-134.197493456034
 30
0.0
 10
111.7530408791798
 20
-134.197493456034
 30
0.0
  0
HATCH
  5
CA
330
8D
100
AcDbEntity
  8
_U+30EC_U+30A4_U+30E4_U+30FC 1
 62
     7
420
 16777215
100
AcDbHatch
 10
0.0
 20
0.0
 30
0.0
210
0.0
220
0.0
230
1.0
  2
SOLID
 70
     1
 71
     0
 91
        1
 92
        1
 93
        1
 72
     4
 94
        3
 73
     0
 74
     1
 95
       29
 96
       25
 40
0.0
 40
0.0
 40
0.0
 40
0.0
 40
1.0
 40
1.0
 40
1.0
 40
2.0
 40
2.0
 40
2.0
 40
3.0
 40
3.0
 40
3.0
 40
4.0
 40
4.0
 40
4.0
 40
5.0
 40
5.0
 40
5.0
 40
6.0
 40
6.0
 40
6.0
 40
7.0
 40
7.0
 40
7.0
 40
8.0
 40
8.0
 40
8.0
 40
8.0
 10
111.7530408791798
 20
-134.197493456034
 10
111.7530408791798
 20
-134.197493456034
 10
111.2686604539537
 20
-134.197493456034
 10
111.2686604539537
 20
-134.197493456034
 10
111.2410996900717
 20
-134.197493456034
 10
110.9238063958802
 20
-134.197493456034
 10
110.7122775330858
 20
-134.2226426530763
 10
110.7122775330858
 20
-134.2226426530763
 10
110.7122775330858
 20
-133.9921657651131
 10
110.7122775330858
 20
-133.9921657651131
 10
110.8707519254073
 20
-134.0155924144128
 10
111.0612657057416
 20
-134.0176594717039
 10
111.2686604539537
 20
-134.0176594717039
 10
111.2686604539537
 20
-134.0176594717039
 10
111.7530408791798
 20
-134.0176594717039
 10
111.7530408791798
 20
-134.0176594717039
 10
111.9390760353833
 20
-134.0176594717039
 10
112.1254557011353
 20
-134.0155924144128
 10
112.3094238000477
 20
-133.9921657651131
 10
112.3094238000477
 20
-133.9921657651131
 10
112.3094238000477
 20
-134.2226426530763
 10
112.3094238000477
 20
-134.2226426530763
 10
112.1254557011353
 20
-134.1995605133251
 10
111.8777533357459
 20
-134.197493456034
 10
111.7530408791798
 20
-134.197493456034
 97
        0
 97
        0
 75
     2
 76
     1
 98
        0
  0
ENDBLK
  5
90
330
8D
100
AcDbEntity
  8
0
100
AcDbBlockEnd
  0
ENDSEC
  0
SECTION
  2
ENTITIES
  0
INSERT
  5
42
330
1F
100
AcDbEntity
  8
_U+30EC_U+30A4_U+30E4_U+30FC 1
100
AcDbBlockReference
  2
block 2
 10
0.0
 20
0.0
 30
0.0
  0
ENDSEC
  0
SECTION
  2
OBJECTS
  0
DICTIONARY
  5
C
330
0
100
AcDbDictionary
281
     1
  3
ACAD_GROUP
350
D
  3
ACAD_LAYOUT
350
1A
  3
ACAD_MATERIAL
350
3B
  3
ACAD_MLEADERSTYLE
350
D7
  3
ACAD_MLINESTYLE
350
17
  3
ACAD_PLOTSETTINGS
350
19
  3
ACAD_PLOTSTYLENAME
350
E
  3
ACAD_TABLESTYLE
350
D6
  3
ACAD_VISUALSTYLE
350
2A
  0
SUN
  5
3F
330
29
100
AcDbSun
 90
        1
290
     0
 63
     7
421
 16777215
 40
1.0
291
     1
 91
  2455826
 92
 54000000
292
     0
 70
     2
 71
   256
280
     1
  0
DICTIONARY
  5
D
102
{ACAD_REACTORS
330
C
102
}
330
C
100
AcDbDictionary
281
     1
  0
DICTIONARY
  5
1A
102
{ACAD_REACTORS
330
C
102
}
330
C
100
AcDbDictionary
281
     1
  3
Layout1
350
1E
  3
Layout2
350
26
  3
Model
350
22
  0
DICTIONARY
  5
3B
102
{ACAD_REACTORS
330
C
102
}
330
C
100
AcDbDictionary
281
     1
  3
ByBlock
350
3D
  3
ByLayer
350
3C
  3
Global
350
3E
  0
DICTIONARY
  5
D7
102
{ACAD_REACTORS
330
C
102
}
330
C
100
AcDbDictionary
281
     1
  0
DICTIONARY
  5
17
102
{ACAD_REACTORS
330
C
102
}
330
C
100
AcDbDictionary
281
     1
  3
Standard
350
18
  0
DICTIONARY
  5
19
102
{ACAD_REACTORS
330
C
102
}
330
C
100
AcDbDictionary
281
     1
  0
ACDBDICTIONARYWDFLT
  5
E
102
{ACAD_REACTORS
330
C
102
}
330
C
100
AcDbDictionary
281
     1
  3
Normal
350
F
100
AcDbDictionaryWithDefault
340
F
  0
DICTIONARY
  5
D6
102
{ACAD_REACTORS
330
C
102
}
330
C
100
AcDbDictionary
281
     1
  0
DICTIONARY
  5
2A
102
{ACAD_REACTORS
330
C
102
}
330
C
100
AcDbDictionary
281
     1
  3
2dWireframe
350
2F
  3
3D Hidden
350
31
  3
3dWireframe
350
30
  3
Basic
350
32
  3
Brighten
350
36
  3
ColorChange
350
3A
  3
Conceptual
350
34
  3
Dim
350
35
  3
Facepattern
350
39
  3
Flat
350
2B
  3
FlatWithEdges
350
2C
  3
Gouraud
350
2D
  3
GouraudWithEdges
350
2E
  3
Linepattern
350
38
  3
Realistic
350
33
  3
Thicken
350
37
  0
LAYOUT
  5
1E
102
{ACAD_REACTORS
330
1A
102
}
330
1A
100
AcDbPlotSettings
  1

  2
none_device
  4

  6

 40
0.0
 41
0.0
 42
0.0
 43
0.0
 44
0.0
 45
0.0
 46
0.0
 47
0.0
 48
0.0
 49
0.0
140
0.0
141
0.0
142
1.0
143
1.0
 70
   688
 72
     0
 73
     0
 74
     5
  7

 75
    16
 76
     0
 77
     2
 78
   300
147
1.0
148
0.0
149
0.0
100
AcDbLayout
  1
Layout1
 70
     1
 71
     1
 10
0.0
 20
0.0
 11
12.0
 21
9.0
 12
0.0
 22
0.0
 32
0.0
 14
1.000000000000000E+20
 24
1.000000000000000E+20
 34
1.000000000000000E+20
 15
-1.000000000000000E+20
 25
-1.000000000000000E+20
 35
-1.000000000000000E+20
146
0.0
 13
0.0
 23
0.0
 33
0.0
 16
1.0
 26
0.0
 36
0.0
 17
0.0
 27
1.0
 37
0.0
 76
     0
330
1B
  0
LAYOUT
  5
26
102
{ACAD_REACTORS
330
1A
102
}
330
1A
100
AcDbPlotSettings
  1

  2
none_device
  4

  6

 40
0.0
 41
0.0
 42
0.0
 43
0.0
 44
0.0
 45
0.0
 46
0.0
 47
0.0
 48
0.0
 49
0.0
140
0.0
141
0.0
142
1.0
143
1.0
 70
   688
 72
     0
 73
     0
 74
     5
  7

 75
    16
 76
     0
 77
     2
 78
   300
147
1.0
148
0.0
149
0.0
100
AcDbLayout
  1
Layout2
 70
     1
 71
     2
 10
0.0
 20
0.0
 11
0.0
 21
0.0
 12
0.0
 22
0.0
 32
0.0
 14
0.0
 24
0.0
 34
0.0
 15
0.0
 25
0.0
 35
0.0
146
0.0
 13
0.0
 23
0.0
 33
0.0
 16
1.0
 26
0.0
 36
0.0
 17
0.0
 27
1.0
 37
0.0
 76
     0
330
23
  0
LAYOUT
  5
22
102
{ACAD_REACTORS
330
1A
102
}
330
1A
100
AcDbPlotSettings
  1

  2
none_device
  4

  6

 40
0.0
 41
0.0
 42
0.0
 43
0.0
 44
0.0
 45
0.0
 46
0.0
 47
0.0
 48
0.0
 49
0.0
140
0.0
141
0.0
142
1.0
143
1.0
 70
  1712
 72
     0
 73
     0
 74
     0
  7

 75
     0
 76
     0
 77
     2
 78
   300
147
1.0
148
0.0
149
0.0
100
AcDbLayout
  1
Model
 70
     1
 71
     0
 10
0.0
 20
0.0
 11
12.0
 21
9.0
 12
0.0
 22
0.0
 32
0.0
 14
1.000000000000000E+20
 24
1.000000000000000E+20
 34
1.000000000000000E+20
 15
-1.000000000000000E+20
 25
-1.000000000000000E+20
 35
-1.000000000000000E+20
146
0.0
 13
0.0
 23
0.0
 33
0.0
 16
1.0
 26
0.0
 36
0.0
 17
0.0
 27
1.0
 37
0.0
 76
     0
330
1F
331
29
  0
MATERIAL
  5
3D
102
{ACAD_REACTORS
330
3B
102
}
330
3B
100
AcDbMaterial
  1
ByBlock
 72
     1
 94
      127
  0
MATERIAL
  5
3C
102
{ACAD_REACTORS
330
3B
102
}
330
3B
100
AcDbMaterial
  1
ByLayer
 72
     1
 94
      127
  0
MATERIAL
  5
3E
102
{ACAD_REACTORS
330
3B
102
}
330
3B
100
AcDbMaterial
  1
Global
 72
     1
 94
      127
  0
MLINESTYLE
  5
18
102
{ACAD_REACTORS
330
17
102
}
330
17
100
AcDbMlineStyle
  2
Standard
 70
     0
  3

 62
   256
 51
90.0
 52
90.0
 71
     2
 49
0.5
 62
   256
  6
BYLAYER
 49
-0.5
 62
   256
  6
BYLAYER
  0
ACDBPLACEHOLDER
  5
F
102
{ACAD_REACTORS
330
E
102
}
330
E
  0
VISUALSTYLE
  5
2F
102
{ACAD_REACTORS
330
2A
102
}
330
2A
100
AcDbVisualStyle
  2
2dWireframe
 70
     4
177
     2
291
     0
 71
     0
176
     1
 72
     2
176
     1
 73
     0
176
     1
 90
        0
176
     1
 40
-0.6
176
     1
 41
-30.0
176
     1
 62
     5
 63
     7
421
 16777215
176
     1
 74
     1
176
     1
 91
        4
176
     1
 64
     7
176
     1
 65
   257
176
     1
 75
     1
176
     1
175
     1
176
     1
 42
1.0
176
     1
 92
        0
176
     1
 66
   257
176
     1
 43
1.0
176
     1
 76
     1
176
     1
 77
     6
176
     1
 78
     2
176
     1
 67
     7
176
     1
 79
     5
176
     1
170
     0
176
     1
171
     0
176
     1
290
     0
176
     1
 93
        1
176
     1
 44
0.0
176
     1
173
     0
176
     1
  0
VISUALSTYLE
  5
31
102
{ACAD_REACTORS
330
2A
102
}
330
2A
100
AcDbVisualStyle
  2
3D Hidden
 70
     6
177
     2
291
     0
 71
     1
176
     1
 72
     2
176
     1
 73
     2
176
     1
 90
        0
176
     1
 40
-0.6
176
     1
 41
-30.0
176
     1
 62
     5
 63
     7
421
 16777215
176
     1
 74
     2
176
     1
 91
        2
176
     1
 64
     7
176
     1
 65
   257
176
     1
 75
     2
176
     1
175
     1
176
     1
 42
40.0
176
     1
 92
        0
176
     1
 66
   257
176
     1
 43
1.0
176
     1
 76
     1
176
     1
 77
     6
176
     1
 78
     2
176
     1
 67
     7
176
     1
 79
     3
176
     1
170
     0
176
     1
171
     0
176
     1
290
     0
176
     1
 93
        1
176
     1
 44
0.0
176
     1
173
     0
176
     1
  0
VISUALSTYLE
  5
30
102
{ACAD_REACTORS
330
2A
102
}
330
2A
100
AcDbVisualStyle
  2
3dWireframe
 70
     5
177
     2
291
     0
 71
     0
176
     1
 72
     2
176
     1
 73
     0
176
     1
 90
        0
176
     1
 40
-0.6
176
     1
 41
-30.0
176
     1
 62
     5
 63
     7
421
 16777215
176
     1
 74
     1
176
     1
 91
        4
176
     1
 64
     7
176
     1
 65
   257
176
     1
 75
     1
176
     1
175
     1
176
     1
 42
1.0
176
     1
 92
        0
176
     1
 66
   257
176
     1
 43
1.0
176
     1
 76
     1
176
     1
 77
     6
176
     1
 78
     2
176
     1
 67
     7
176
     1
 79
     5
176
     1
170
     0
176
     1
171
     0
176
     1
290
     0
176
     1
 93
        1
176
     1
 44
0.0
176
     1
173
     0
176
     1
  0
VISUALSTYLE
  5
32
102
{ACAD_REACTORS
330
2A
102
}
330
2A
100
AcDbVisualStyle
  2
Basic
 70
     7
177
     2
291
     1
 71
     1
176
     1
 72
     0
176
     1
 73
     1
176
     1
 90
        0
176
     1
 40
-0.6
176
     1
 41
-30.0
176
     1
 62
     5
 63
     7
421
 16777215
176
     1
 74
     0
176
     1
 91
        4
176
     1
 64
     7
176
     1
 65
   257
176
     1
 75
     1
176
     1
175
     1
176
     1
 42
1.0
176
     1
 92
        8
176
     1
 66
     7
176
     1
 43
1.0
176
     1
 76
     1
176
     1
 77
     6
176
     1
 78
     2
176
     1
 67
     7
176
     1
 79
     5
176
     1
170
     0
176
     1
171
     0
176
     1
290
     0
176
     1
 93
        1
176
     1
 44
0.0
176
     1
173
     0
176
     1
  0
VISUALSTYLE
  5
36
102
{ACAD_REACTORS
330
2A
102
}
330
2A
100
AcDbVisualStyle
  2
Brighten
 70
    12
177
     2
291
     1
 71
     2
176
     1
 72
     2
176
     1
 73
     0
176
     1
 90
        0
176
     1
 40
-0.6
176
     1
 41
-30.0
176
     1
 62
     5
 63
     7
421
 16777215
176
     1
 74
     1
176
     1
 91
        4
176
     1
 64
     7
176
     1
 65
   257
176
     1
 75
     1
176
     1
175
     1
176
     1
 42
1.0
176
     1
 92
        8
176
     1
 66
     7
176
     1
 43
1.0
176
     1
 76
     1
176
     1
 77
     6
176
     1
 78
     2
176
     1
 67
     7
176
     1
 79
     5
176
     1
170
     0
176
     1
171
     0
176
     1
290
     0
176
     1
 93
        1
176
     1
 44
50.0
176
     1
173
     0
176
     1
  0
VISUALSTYLE
  5
3A
102
{ACAD_REACTORS
330
2A
102
}
330
2A
100
AcDbVisualStyle
  2
ColorChange
 70
    16
177
     2
291
     1
 71
     2
176
     1
 72
     2
176
     1
 73
     3
176
     1
 90
        0
176
     1
 40
-0.6
176
     1
 41
-30.0
176
     1
 62
     5
 63
     8
421
  8421504
176
     1
 74
     1
176
     1
 91
        4
176
     1
 64
     7
176
     1
 65
   257
176
     1
 75
     1
176
     1
175
     1
176
     1
 42
1.0
176
     1
 92
        8
176
     1
 66
     8
424
  8421504
176
     1
 43
1.0
176
     1
 76
     1
176
     1
 77
     6
176
     1
 78
     2
176
     1
 67
     7
176
     1
 79
     5
176
     1
170
     0
176
     1
171
     0
176
     1
290
     0
176
     1
 93
        1
176
     1
 44
0.0
176
     1
173
     0
176
     1
  0
VISUALSTYLE
  5
34
102
{ACAD_REACTORS
330
2A
102
}
330
2A
100
AcDbVisualStyle
  2
Conceptual
 70
     9
177
     2
291
     0
 71
     3
176
     1
 72
     2
176
     1
 73
     0
176
     1
 90
        0
176
     1
 40
-0.6
176
     1
 41
-30.0
176
     1
 62
     5
 63
     7
421
 16777215
176
     1
 74
     2
176
     1
 91
        2
176
     1
 64
     7
176
     1
 65
   257
176
     1
 75
     1
176
     1
175
     1
176
     1
 42
40.0
176
     1
 92
        8
176
     1
 66
     7
176
     1
 43
1.0
176
     1
 76
     1
176
     1
 77
     6
176
     1
 78
     2
176
     1
 67
     7
176
     1
 79
     3
176
     1
170
     0
176
     1
171
     0
176
     1
290
     0
176
     1
 93
        1
176
     1
 44
0.0
176
     1
173
     0
176
     1
  0
VISUALSTYLE
  5
35
102
{ACAD_REACTORS
330
2A
102
}
330
2A
100
AcDbVisualStyle
  2
Dim
 70
    11
177
     2
291
     1
 71
     2
176
     1
 72
     2
176
     1
 73
     0
176
     1
 90
        0
176
     1
 40
-0.6
176
     1
 41
-30.0
176
     1
 62
     5
 63
     7
421
 16777215
176
     1
 74
     1
176
     1
 91
        4
176
     1
 64
     7
176
     1
 65
   257
176
     1
 75
     1
176
     1
175
     1
176
     1
 42
1.0
176
     1
 92
        8
176
     1
 66
     7
176
     1
 43
1.0
176
     1
 76
     1
176
     1
 77
     6
176
     1
 78
     2
176
     1
 67
     7
176
     1
 79
     5
176
     1
170
     0
176
     1
171
     0
176
     1
290
     0
176
     1
 93
        1
176
     1
 44
-50.0
176
     1
173
     0
176
     1
  0
VISUALSTYLE
  5
39
102
{ACAD_REACTORS
330
2A
102
}
330
2A
100
AcDbVisualStyle
  2
Facepattern
 70
    15
177
     2
291
     1
 71
     2
176
     1
 72
     2
176
     1
 73
     0
176
     1
 90
        0
176
     1
 40
-0.6
176
     1
 41
-30.0
176
     1
 62
     5
 63
     7
421
 16777215
176
     1
 74
     1
176
     1
 91
        4
176
     1
 64
     7
176
     1
 65
   257
176
     1
 75
     1
176
     1
175
     1
176
     1
 42
1.0
176
     1
 92
        8
176
     1
 66
     7
176
     1
 43
1.0
176
     1
 76
     1
176
     1
 77
     6
176
     1
 78
     2
176
     1
 67
     7
176
     1
 79
     5
176
     1
170
     0
176
     1
171
     0
176
     1
290
     0
176
     1
 93
        1
176
     1
 44
0.0
176
     1
173
     0
176
     1
  0
VISUALSTYLE
  5
2B
102
{ACAD_REACTORS
330
2A
102
}
330
2A
100
AcDbVisualStyle
  2
Flat
 70
     0
177
     2
291
     1
 71
     2
176
     1
 72
     1
176
     1
 73
     1
176
     1
 90
        2
176
     1
 40
-0.6
176
     1
 41
30.0
176
     1
 62
     5
 63
     7
421
 16777215
176
     1
 74
     0
176
     1
 91
        4
176
     1
 64
     7
176
     1
 65
   257
176
     1
 75
     1
176
     1
175
     1
176
     1
 42
1.0
176
     1
 92
        8
176
     1
 66
     7
176
     1
 43
1.0
176
     1
 76
     1
176
     1
 77
     6
176
     1
 78
     2
176
     1
 67
     7
176
     1
 79
     5
176
     1
170
     0
176
     1
171
     0
176
     1
290
     0
176
     1
 93
       13
176
     1
 44
0.0
176
     1
173
     0
176
     1
  0
VISUALSTYLE
  5
2C
102
{ACAD_REACTORS
330
2A
102
}
330
2A
100
AcDbVisualStyle
  2
FlatWithEdges
 70
     1
177
     2
291
     1
 71
     2
176
     1
 72
     1
176
     1
 73
     1
176
     1
 90
        2
176
     1
 40
-0.6
176
     1
 41
30.0
176
     1
 62
     5
 63
     7
421
 16777215
176
     1
 74
     1
176
     1
 91
        4
176
     1
 64
     7
176
     1
 65
   257
176
     1
 75
     1
176
     1
175
     1
176
     1
 42
1.0
176
     1
 92
        0
176
     1
 66
   257
176
     1
 43
1.0
176
     1
 76
     1
176
     1
 77
     6
176
     1
 78
     2
176
     1
 67
     7
176
     1
 79
     5
176
     1
170
     0
176
     1
171
     0
176
     1
290
     0
176
     1
 93
       13
176
     1
 44
0.0
176
     1
173
     0
176
     1
  0
VISUALSTYLE
  5
2D
102
{ACAD_REACTORS
330
2A
102
}
330
2A
100
AcDbVisualStyle
  2
Gouraud
 70
     2
177
     2
291
     1
 71
     2
176
     1
 72
     2
176
     1
 73
     1
176
     1
 90
        2
176
     1
 40
-0.6
176
     1
 41
30.0
176
     1
 62
     5
 63
     7
421
 16777215
176
     1
 74
     0
176
     1
 91
        4
176
     1
 64
     7
176
     1
 65
   257
176
     1
 75
     1
176
     1
175
     1
176
     1
 42
1.0
176
     1
 92
        0
176
     1
 66
     7
176
     1
 43
1.0
176
     1
 76
     1
176
     1
 77
     6
176
     1
 78
     2
176
     1
 67
     7
176
     1
 79
     5
176
     1
170
     0
176
     1
171
     0
176
     1
290
     0
176
     1
 93
       13
176
     1
 44
0.0
176
     1
173
     0
176
     1
  0
VISUALSTYLE
  5
2E
102
{ACAD_REACTORS
330
2A
102
}
330
2A
100
AcDbVisualStyle
  2
GouraudWithEdges
 70
     3
177
     2
291
     1
 71
     2
176
     1
 72
     2
176
     1
 73
     1
176
     1
 90
        2
176
     1
 40
-0.6
176
     1
 41
30.0
176
     1
 62
     5
 63
     7
421
 16777215
176
     1
 74
     1
176
     1
 91
        4
176
     1
 64
     7
176
     1
 65
   257
176
     1
 75
     1
176
     1
175
     1
176
     1
 42
1.0
176
     1
 92
        0
176
     1
 66
   257
176
     1
 43
1.0
176
     1
 76
     1
176
     1
 77
     6
176
     1
 78
     2
176
     1
 67
     7
176
     1
 79
     5
176
     1
170
     0
176
     1
171
     0
176
     1
290
     0
176
     1
 93
       13
176
     1
 44
0.0
176
     1
173
     0
176
     1
  0
VISUALSTYLE
  5
38
102
{ACAD_REACTORS
330
2A
102
}
330
2A
100
AcDbVisualStyle
  2
Linepattern
 70
    14
177
     2
291
     1
 71
     2
176
     1
 72
     2
176
     1
 73
     0
176
     1
 90
        0
176
     1
 40
-0.6
176
     1
 41
-30.0
176
     1
 62
     5
 63
     7
421
 16777215
176
     1
 74
     1
176
     1
 91
        4
176
     1
 64
     7
176
     1
 65
   257
176
     1
 75
     7
176
     1
175
     7
176
     1
 42
1.0
176
     1
 92
        8
176
     1
 66
     7
176
     1
 43
1.0
176
     1
 76
     1
176
     1
 77
     6
176
     1
 78
     2
176
     1
 67
     7
176
     1
 79
     5
176
     1
170
     0
176
     1
171
     0
176
     1
290
     0
176
     1
 93
        1
176
     1
 44
0.0
176
     1
173
     0
176
     1
  0
VISUALSTYLE
  5
33
102
{ACAD_REACTORS
330
2A
102
}
330
2A
100
AcDbVisualStyle
  2
Realistic
 70
     8
177
     2
291
     0
 71
     2
176
     1
 72
     2
176
     1
 73
     0
176
     1
 90
        0
176
     1
 40
-0.6
176
     1
 41
-30.0
176
     1
 62
     5
 63
     7
421
 16777215
176
     1
 74
     1
176
     1
 91
        0
176
     1
 64
     7
176
     1
 65
   257
176
     1
 75
     1
176
     1
175
     1
176
     1
 42
1.0
176
     1
 92
        8
176
     1
 66
     8
424
  7895160
176
     1
 43
1.0
176
     1
 76
     1
176
     1
 77
     6
176
     1
 78
     2
176
     1
 67
     7
176
     1
 79
     5
176
     1
170
     0
176
     1
171
     0
176
     1
290
     0
176
     1
 93
       13
176
     1
 44
0.0
176
     1
173
     0
176
     1
  0
VISUALSTYLE
  5
37
102
{ACAD_REACTORS
330
2A
102
}
330
2A
100
AcDbVisualStyle
  2
Thicken
 70
    13
177
     2
291
     1
 71
     2
176
     1
 72
     2
176
     1
 73
     0
176
     1
 90
        0
176
     1
 40
-0.6
176
     1
 41
-30.0
176
     1
 62
     5
 63
     7
421
 16777215
176
     1
 74
     1
176
     1
 91
        4
176
     1
 64
     7
176
     1
 65
   257
176
     1
 75
     1
176
     1
175
     1
176
     1
 42
1.0
176
     1
 92
       12
176
     1
 66
     7
176
     1
 43
1.0
176
     1
 76
     1
176
     1
 77
     6
176
     1
 78
     2
176
     1
 67
     7
176
     1
 79
     5
176
     1
170
     0
176
     1
171
     0
176
     1
290
     0
176
     1
 93
        1
176
     1
 44
0.0
176
     1
173
     0
176
     1
  0
ENDSEC
  0
EOF
