  0
SECTION
  2
HEADER
  9
$ACADVER
  1
AC1024
  9
$ACADMAINTVER
 70
     6
  9
$DWGCODEPAGE
  3
UNDEFINED
  9
$INSBASE
 10
0.0
 20
0.0
 30
0.0
  9
$EXTMIN
 10
1.000000000000000E+20
 20
1.000000000000000E+20
 30
1.000000000000000E+20
  9
$EXTMAX
 10
-1.000000000000000E+20
 20
-1.000000000000000E+20
 30
-1.000000000000000E+20
  9
$LIMMIN
 10
0.0
 20
0.0
  9
$LIMMAX
 10
12.0
 20
9.0
  9
$ORTHOMODE
 70
     0
  9
$REGENMODE
 70
     1
  9
$FILLMODE
 70
     1
  9
$QTEXTMODE
 70
     0
  9
$MIRRTEXT
 70
     1
  9
$LTSCALE
 40
1.0
  9
$ATTMODE
 70
     1
  9
$TEXTSIZE
 40
0.2
  9
$TRACEWID
 40
0.05
  9
$TEXTSTYLE
  7
Standard
  9
$CLAYER
  8
0
  9
$CELTYPE
  6
ByLayer
  9
$CECOLOR
 62
   256
  9
$CELTSCALE
 40
1.0
  9
$DISPSILH
 70
     0
  9
$DIMSCALE
 40
1.0
  9
$DIMASZ
 40
0.18
  9
$DIMEXO
 40
0.0625
  9
$DIMDLI
 40
0.38
  9
$DIMRND
 40
0.0
  9
$DIMDLE
 40
0.0
  9
$DIMEXE
 40
0.18
  9
$DIMTP
 40
0.0
  9
$DIMTM
 40
0.0
  9
$DIMTXT
 40
0.18
  9
$DIMCEN
 40
0.09
  9
$DIMTSZ
 40
0.0
  9
$DIMTOL
 70
     0
  9
$DIMLIM
 70
     0
  9
$DIMTIH
 70
     1
  9
$DIMTOH
 70
     1
  9
$DIMSE1
 70
     0
  9
$DIMSE2
 70
     0
  9
$DIMTAD
 70
     0
  9
$DIMZIN
 70
     0
  9
$DIMBLK
  1

  9
$DIMASO
 70
     1
  9
$DIMSHO
 70
     1
  9
$DIMPOST
  1

  9
$DIMAPOST
  1

  9
$DIMALT
 70
     0
  9
$DIMALTD
 70
     2
  9
$DIMALTF
 40
25.4
  9
$DIMLFAC
 40
1.0
  9
$DIMTOFL
 70
     0
  9
$DIMTVP
 40
0.0
  9
$DIMTIX
 70
     0
  9
$DIMSOXD
 70
     0
  9
$DIMSAH
 70
     0
  9
$DIMBLK1
  1

  9
$DIMBLK2
  1

  9
$DIMSTYLE
  2
Standard
  9
$DIMCLRD
 70
     0
  9
$DIMCLRE
 70
     0
  9
$DIMCLRT
 70
     0
  9
$DIMTFAC
 40
1.0
  9
$DIMGAP
 40
0.09
  9
$DIMJUST
 70
     0
  9
$DIMSD1
 70
     0
  9
$DIMSD2
 70
     0
  9
$DIMTOLJ
 70
     1
  9
$DIMTZIN
 70
     0
  9
$DIMALTZ
 70
     0
  9
$DIMALTTZ
 70
     0
  9
$DIMUPT
 70
     0
  9
$DIMDEC
 70
     4
  9
$DIMTDEC
 70
     4
  9
$DIMALTU
 70
     2
  9
$DIMALTTD
 70
     2
  9
$DIMTXSTY
  7
Standard
  9
$DIMAUNIT
 70
     0
  9
$DIMADEC
 70
     0
  9
$DIMALTRND
 40
0.0
  9
$DIMAZIN
 70
     0
  9
$DIMDSEP
 70
    46
  9
$DIMATFIT
 70
     3
  9
$DIMFRAC
 70
     0
  9
$DIMLDRBLK
  1

  9
$DIMLUNIT
 70
     2
  9
$DIMLWD
 70
    -2
  9
$DIMLWE
 70
    -2
  9
$DIMTMOVE
 70
     0
  9
$DIMFXL
 40
1.0
  9
$DIMFXLON
 70
     0
  9
$DIMJOGANG
 40
0.7853981633974483
  9
$DIMTFILL
 70
     0
  9
$DIMTFILLCLR
 70
     0
  9
$DIMARCSYM
 70
     0
  9
$DIMLTYPE
  6

  9
$DIMLTEX1
  6

  9
$DIMLTEX2
  6

  9
$DIMTXTDIRECTION
 70
     0
  9
$LUNITS
 70
     2
  9
$LUPREC
 70
     4
  9
$SKETCHINC
 40
0.1
  9
$FILLETRAD
 40
0.5
  9
$AUNITS
 70
     0
  9
$AUPREC
 70
     0
  9
$MENU
  1
.
  9
$ELEVATION
 40
0.0
  9
$PELEVATION
 40
0.0
  9
$THICKNESS
 40
0.0
  9
$LIMCHECK
 70
     0
  9
$CHAMFERA
 40
0.5
  9
$CHAMFERB
 40
0.5
  9
$CHAMFERC
 40
1.0
  9
$CHAMFERD
 40
0.0
  9
$SKPOLY
 70
     0
  9
$TDCREATE
 40
2457917.585173599
  9
$TDUCREATE
 40
2457917.210173611
  9
$TDUPDATE
 40
2457917.585173599
  9
$TDUUPDATE
 40
2457917.210173611
  9
$TDINDWG
 40
0.0000000116
  9
$TDUSRTIMER
 40
0.0000000116
  9
$USRTIMER
 70
     1
  9
$ANGBASE
 50
0.0
  9
$ANGDIR
 70
     0
  9
$PDMODE
 70
     0
  9
$PDSIZE
 40
0.0
  9
$PLINEWID
 40
0.0
  9
$SPLFRAME
 70
     0
  9
$SPLINETYPE
 70
     6
  9
$SPLINESEGS
 70
     8
  9
$HANDSEED
  5
131
  9
$SURFTAB1
 70
     6
  9
$SURFTAB2
 70
     6
  9
$SURFTYPE
 70
     6
  9
$SURFU
 70
     6
  9
$SURFV
 70
     6
  9
$UCSBASE
  2

  9
$UCSNAME
  2

  9
$UCSORG
 10
0.0
 20
0.0
 30
0.0
  9
$UCSXDIR
 10
1.0
 20
0.0
 30
0.0
  9
$UCSYDIR
 10
0.0
 20
1.0
 30
0.0
  9
$UCSORTHOREF
  2

  9
$UCSORTHOVIEW
 70
     0
  9
$UCSORGTOP
 10
0.0
 20
0.0
 30
0.0
  9
$UCSORGBOTTOM
 10
0.0
 20
0.0
 30
0.0
  9
$UCSORGLEFT
 10
0.0
 20
0.0
 30
0.0
  9
$UCSORGRIGHT
 10
0.0
 20
0.0
 30
0.0
  9
$UCSORGFRONT
 10
0.0
 20
0.0
 30
0.0
  9
$UCSORGBACK
 10
0.0
 20
0.0
 30
0.0
  9
$PUCSBASE
  2

  9
$PUCSNAME
  2

  9
$PUCSORG
 10
0.0
 20
0.0
 30
0.0
  9
$PUCSXDIR
 10
1.0
 20
0.0
 30
0.0
  9
$PUCSYDIR
 10
0.0
 20
1.0
 30
0.0
  9
$PUCSORTHOREF
  2

  9
$PUCSORTHOVIEW
 70
     0
  9
$PUCSORGTOP
 10
0.0
 20
0.0
 30
0.0
  9
$PUCSORGBOTTOM
 10
0.0
 20
0.0
 30
0.0
  9
$PUCSORGLEFT
 10
0.0
 20
0.0
 30
0.0
  9
$PUCSORGRIGHT
 10
0.0
 20
0.0
 30
0.0
  9
$PUCSORGFRONT
 10
0.0
 20
0.0
 30
0.0
  9
$PUCSORGBACK
 10
0.0
 20
0.0
 30
0.0
  9
$USERI1
 70
     0
  9
$USERI2
 70
     0
  9
$USERI3
 70
     0
  9
$USERI4
 70
     0
  9
$USERI5
 70
     0
  9
$USERR1
 40
0.0
  9
$USERR2
 40
0.0
  9
$USERR3
 40
0.0
  9
$USERR4
 40
0.0
  9
$USERR5
 40
0.0
  9
$WORLDVIEW
 70
     1
  9
$SHADEDGE
 70
     3
  9
$SHADEDIF
 70
    70
  9
$TILEMODE
 70
     1
  9
$MAXACTVP
 70
    64
  9
$PINSBASE
 10
0.0
 20
0.0
 30
0.0
  9
$PLIMCHECK
 70
     0
  9
$PEXTMIN
 10
1.000000000000000E+20
 20
1.000000000000000E+20
 30
1.000000000000000E+20
  9
$PEXTMAX
 10
-1.000000000000000E+20
 20
-1.000000000000000E+20
 30
-1.000000000000000E+20
  9
$PLIMMIN
 10
0.0
 20
0.0
  9
$PLIMMAX
 10
12.0
 20
9.0
  9
$UNITMODE
 70
     0
  9
$VISRETAIN
 70
     1
  9
$PLINEGEN
 70
     0
  9
$PSLTSCALE
 70
     1
  9
$TREEDEPTH
 70
  3020
  9
$CMLSTYLE
  2
Standard
  9
$CMLJUST
 70
     0
  9
$CMLSCALE
 40
1.0
  9
$PROXYGRAPHICS
 70
     1
  9
$MEASUREMENT
 70
     0
  9
$CELWEIGHT
370
    -1
  9
$ENDCAPS
280
     0
  9
$JOINSTYLE
280
     0
  9
$LWDISPLAY
290
     1
  9
$INSUNITS
 70
     1
  9
$HYPERLINKBASE
  1

  9
$STYLESHEET
  1

  9
$XEDIT
290
     1
  9
$CEPSNTYPE
380
     0
  9
$PSTYLEMODE
290
     1
  9
$FINGERPRINTGUID
  2
{4428A41F-0645-489F-5841-B67EDD5EDBA6}
  9
$VERSIONGUID
  2
{FAEB1C32-E019-11D5-929B-00C0DF256EC4}
  9
$EXTNAMES
290
     1
  9
$PSVPSCALE
 40
0.0
  9
$OLESTARTUP
290
     0
  9
$SORTENTS
280
   127
  9
$INDEXCTL
280
     0
  9
$HIDETEXT
280
     1
  9
$XCLIPFRAME
280
     2
  9
$HALOGAP
280
     0
  9
$OBSCOLOR
 70
   257
  9
$OBSLTYPE
280
     0
  9
$INTERSECTIONDISPLAY
280
     0
  9
$INTERSECTIONCOLOR
 70
   257
  9
$DIMASSOC
280
     2
  9
$PROJECTNAME
  1

  9
$CAMERADISPLAY
290
     0
  9
$LENSLENGTH
 40
50.0
  9
$CAMERAHEIGHT
 40
0.0
  9
$STEPSPERSEC
 40
2.0
  9
$STEPSIZE
 40
6.0
  9
$3DDWFPREC
 40
2.0
  9
$PSOLWIDTH
 40
0.25
  9
$PSOLHEIGHT
 40
4.0
  9
$LOFTANG1
 40
1.570796326794897
  9
$LOFTANG2
 40
1.570796326794897
  9
$LOFTMAG1
 40
0.0
  9
$LOFTMAG2
 40
0.0
  9
$LOFTPARAM
 70
     7
  9
$LOFTNORMALS
280
     1
  9
$LATITUDE
 40
37.795
  9
$LONGITUDE
 40
-122.394
  9
$NORTHDIRECTION
 40
0.0
  9
$TIMEZONE
 70
 -8000
  9
$LIGHTGLYPHDISPLAY
280
     1
  9
$TILEMODELIGHTSYNCH
280
     1
  9
$CMATERIAL
347
3C
  9
$SOLIDHIST
280
     1
  9
$SHOWHIST
280
     1
  9
$DWFFRAME
280
     2
  9
$DGNFRAME
280
     2
  9
$REALWORLDSCALE
290
     1
  9
$INTERFERECOLOR
 62
   256
  9
$CSHADOW
280
     0
  9
$SHADOWPLANELOCATION
 40
0.0
  0
ENDSEC
  0
SECTION
  2
CLASSES
  0
CLASS
  1
ACDBDICTIONARYWDFLT
  2
AcDbDictionaryWithDefault
  3
ObjectDBX Classes
 90
        0
 91
        4
280
     0
281
     0
  0
CLASS
  1
VISUALSTYLE
  2
AcDbVisualStyle
  3
ObjectDBX Classes
 90
     4095
 91
        4
280
     0
281
     0
  0
CLASS
  1
MATERIAL
  2
AcDbMaterial
  3
ObjectDBX Classes
 90
     1153
 91
        4
280
     0
281
     0
  0
CLASS
  1
SUN
  2
AcDbSun
  3
SCENEOE
 90
     1024
 91
        4
280
     0
281
     0
  0
ENDSEC
  0
SECTION
  2
TABLES
  0
TABLE
  2
VPORT
  5
8
330
0
100
AcDbSymbolTable
 70
     1
  0
VPORT
  5
29
330
8
100
AcDbSymbolTableRecord
100
AcDbViewportTableRecord
  2
*Active
 70
     0
 10
0.0
 20
0.0
 11
1.0
 21
1.0
 12
0.0
 22
0.0
 13
0.0
 23
0.0
 14
0.5
 24
0.5
 15
0.5
 25
0.5
 16
0.0
 26
0.0
 36
1.0
 17
91.00082462281999
 27
-128.4993055234307
 37
0.0
 40
256.9986110468615
 41
0.7081814508812795
 42
50.0
 43
0.0
 44
0.0
 50
0.0
 51
0.0
 71
     0
 72
   100
 73
     1
 74
     3
 75
     0
 76
     0
 77
     0
 78
     0
281
     0
 65
     1
110
0.0
120
0.0
130
0.0
111
1.0
121
0.0
131
0.0
112
0.0
122
1.0
132
0.0
 79
     0
146
0.0
 60
     3
 61
     5
292
     1
282
     1
141
0.0
142
0.0
 63
   250
361
3F
  0
ENDTAB
  0
TABLE
  2
LTYPE
  5
5
330
0
100
AcDbSymbolTable
 70
     2
  0
LTYPE
  5
14
330
5
100
AcDbSymbolTableRecord
100
AcDbLinetypeTableRecord
  2
ByBlock
 70
     0
  3

 72
    65
 73
     0
 40
0.0
  0
LTYPE
  5
15
330
5
100
AcDbSymbolTableRecord
100
AcDbLinetypeTableRecord
  2
ByLayer
 70
     0
  3

 72
    65
 73
     0
 40
0.0
  0
LTYPE
  5
16
330
5
100
AcDbSymbolTableRecord
100
AcDbLinetypeTableRecord
  2
Continuous
 70
     0
  3
Solid line
 72
    65
 73
     0
 40
0.0
  0
LTYPE
  5
94
330
5
100
AcDbSymbolTableRecord
100
AcDbLinetypeTableRecord
  2
AI-Linetype-1
 70
     0
  3
Adobe Illustrator Linetype No. 1
 72
    65
 73
     2
 40
1.411111110758333
 49
0.7055555553791667
 74
     0
 49
-0.7055555553791667
 74
     0
  0
ENDTAB
  0
TABLE
  2
LAYER
  5
2
330
0
100
AcDbSymbolTable
 70
     2
  0
LAYER
  5
10
330
2
100
AcDbSymbolTableRecord
100
AcDbLayerTableRecord
  2
0
 70
     0
 62
     7
  6
Continuous
370
    -3
390
F
347
3E
  0
LAYER
  5
40
330
2
100
AcDbSymbolTableRecord
100
AcDbLayerTableRecord
  2
_U+30EC_U+30A4_U+30E4_U+30FC 1
 70
     0
 62
     7
  6
Continuous
370
    -3
390
F
347
3E
  0
ENDTAB
  0
TABLE
  2
STYLE
  5
3
330
0
100
AcDbSymbolTable
 70
     1
  0
STYLE
  5
11
330
3
100
AcDbSymbolTableRecord
100
AcDbTextStyleTableRecord
  2
Standard
 70
     0
 40
0.0
 41
1.0
 50
0.0
 71
     0
 42
0.2
  3
txt
  4

  0
ENDTAB
  0
TABLE
  2
VIEW
  5
6
330
0
100
AcDbSymbolTable
 70
     0
  0
ENDTAB
  0
TABLE
  2
UCS
  5
7
330
0
100
AcDbSymbolTable
 70
     0
  0
ENDTAB
  0
TABLE
  2
APPID
  5
9
330
0
100
AcDbSymbolTable
 70
     1
  0
APPID
  5
12
330
9
100
AcDbSymbolTableRecord
100
AcDbRegAppTableRecord
  2
ACAD
 70
     0
  0
ENDTAB
  0
TABLE
  2
DIMSTYLE
  5
A
330
0
100
AcDbSymbolTable
 70
     1
100
AcDbDimStyleTable
  0
DIMSTYLE
105
27
330
A
100
AcDbSymbolTableRecord
100
AcDbDimStyleTableRecord
  2
Standard
 70
     0
178
     0
340
11
  0
ENDTAB
  0
TABLE
  2
BLOCK_RECORD
  5
1
330
0
100
AcDbSymbolTable
 70
    19
  0
BLOCK_RECORD
  5
1F
330
1
100
AcDbSymbolTableRecord
100
AcDbBlockTableRecord
  2
*Model_Space
340
22
 70
     0
280
     1
281
     0
  0
BLOCK_RECORD
  5
1B
330
1
100
AcDbSymbolTableRecord
100
AcDbBlockTableRecord
  2
*Paper_Space
340
1E
 70
     0
280
     1
281
     0
  0
BLOCK_RECORD
  5
23
330
1
100
AcDbSymbolTableRecord
100
AcDbBlockTableRecord
  2
*Paper_Space0
340
26
 70
     0
280
     1
281
     0
  0
BLOCK_RECORD
  5
41
330
1
100
AcDbSymbolTableRecord
100
AcDbBlockTableRecord
  2
block 2
340
0
102
{BLKREFS
331
42
102
}
 70
     0
280
     1
281
     0
  0
BLOCK_RECORD
  5
45
330
1
100
AcDbSymbolTableRecord
100
AcDbBlockTableRecord
  2
block 3
340
0
102
{BLKREFS
331
46
102
}
 70
     0
280
     1
281
     0
  0
BLOCK_RECORD
  5
4F
330
1
100
AcDbSymbolTableRecord
100
AcDbBlockTableRecord
  2
block 4
340
0
102
{BLKREFS
331
50
102
}
 70
     0
280
     1
281
     0
  0
BLOCK_RECORD
  5
7A
330
1
100
AcDbSymbolTableRecord
100
AcDbBlockTableRecord
  2
block 5
340
0
102
{BLKREFS
331
7B
102
}
 70
     0
280
     1
281
     0
  0
BLOCK_RECORD
  5
89
330
1
100
AcDbSymbolTableRecord
100
AcDbBlockTableRecord
  2
block 6
340
0
102
{BLKREFS
331
8A
102
}
 70
     0
280
     1
281
     0
  0
BLOCK_RECORD
  5
A2
330
1
100
AcDbSymbolTableRecord
100
AcDbBlockTableRecord
  2
block 7
340
0
102
{BLKREFS
331
A3
102
}
 70
     0
280
     1
281
     0
  0
BLOCK_RECORD
  5
CA
330
1
100
AcDbSymbolTableRecord
100
AcDbBlockTableRecord
  2
block 8
340
0
102
{BLKREFS
331
CB
102
}
 70
     0
280
     1
281
     0
  0
BLOCK_RECORD
  5
DD
330
1
100
AcDbSymbolTableRecord
100
AcDbBlockTableRecord
  2
block 9
340
0
102
{BLKREFS
331
DE
102
}
 70
     0
280
     1
281
     0
  0
BLOCK_RECORD
  5
E3
330
1
100
AcDbSymbolTableRecord
100
AcDbBlockTableRecord
  2
block 10
340
0
102
{BLKREFS
331
E4
102
}
 70
     0
280
     1
281
     0
  0
BLOCK_RECORD
  5
E9
330
1
100
AcDbSymbolTableRecord
100
AcDbBlockTableRecord
  2
block 11
340
0
102
{BLKREFS
331
EA
102
}
 70
     0
280
     1
281
     0
  0
BLOCK_RECORD
  5
EF
330
1
100
AcDbSymbolTableRecord
100
AcDbBlockTableRecord
  2
block 12
340
0
102
{BLKREFS
331
F0
102
}
 70
     0
280
     1
281
     0
  0
BLOCK_RECORD
  5
F5
330
1
100
AcDbSymbolTableRecord
100
AcDbBlockTableRecord
  2
block 13
340
0
102
{BLKREFS
331
F6
102
}
 70
     0
280
     1
281
     0
  0
BLOCK_RECORD
  5
FB
330
1
100
AcDbSymbolTableRecord
100
AcDbBlockTableRecord
  2
block 14
340
0
102
{BLKREFS
331
FC
102
}
 70
     0
280
     1
281
     0
  0
BLOCK_RECORD
  5
101
330
1
100
AcDbSymbolTableRecord
100
AcDbBlockTableRecord
  2
block 15
340
0
102
{BLKREFS
331
102
102
}
 70
     0
280
     1
281
     0
  0
BLOCK_RECORD
  5
107
330
1
100
AcDbSymbolTableRecord
100
AcDbBlockTableRecord
  2
block 16
340
0
102
{BLKREFS
331
108
102
}
 70
     0
280
     1
281
     0
  0
BLOCK_RECORD
  5
10D
330
1
100
AcDbSymbolTableRecord
100
AcDbBlockTableRecord
  2
block 17
340
0
102
{BLKREFS
331
10E
102
}
 70
     0
280
     1
281
     0
  0
BLOCK_RECORD
  5
113
330
1
100
AcDbSymbolTableRecord
100
AcDbBlockTableRecord
  2
block 18
340
0
102
{BLKREFS
331
114
102
}
 70
     0
280
     1
281
     0
  0
BLOCK_RECORD
  5
119
330
1
100
AcDbSymbolTableRecord
100
AcDbBlockTableRecord
  2
block 19
340
0
102
{BLKREFS
331
11A
102
}
 70
     0
280
     1
281
     0
  0
ENDTAB
  0
ENDSEC
  0
SECTION
  2
BLOCKS
  0
BLOCK
  5
20
330
1F
100
AcDbEntity
  8
0
100
AcDbBlockBegin
  2
*Model_Space
 70
     0
 10
0.0
 20
0.0
 30
0.0
  3
*Model_Space
  1

  0
ENDBLK
  5
21
330
1F
100
AcDbEntity
  8
0
100
AcDbBlockEnd
  0
BLOCK
  5
1C
330
1B
100
AcDbEntity
 67
     1
  8
0
100
AcDbBlockBegin
  2
*Paper_Space
 70
     0
 10
0.0
 20
0.0
 30
0.0
  3
*Paper_Space
  1

  0
ENDBLK
  5
1D
330
1B
100
AcDbEntity
 67
     1
  8
0
100
AcDbBlockEnd
  0
BLOCK
  5
24
330
23
100
AcDbEntity
  8
0
100
AcDbBlockBegin
  2
*Paper_Space0
 70
     0
 10
0.0
 20
0.0
 30
0.0
  3
*Paper_Space0
  1

  0
ENDBLK
  5
25
330
23
100
AcDbEntity
  8
0
100
AcDbBlockEnd
  0
BLOCK
  5
43
330
41
100
AcDbEntity
  8
0
100
AcDbBlockBegin
  2
block 2
 70
     0
 10
0.0
 20
0.0
 30
0.0
  3
block 2
  1

  0
INSERT
  5
46
330
41
100
AcDbEntity
  8
_U+30EC_U+30A4_U+30E4_U+30FC 1
100
AcDbBlockReference
  2
block 3
 10
0.0
 20
0.0
 30
0.0
  0
POLYLINE
  5
91
330
41
100
AcDbEntity
  8
_U+30EC_U+30A4_U+30E4_U+30FC 1
  6
AI-Linetype-1
 62
   154
420
    23468
370
    25
100
AcDb2dPolyline
 66
     1
 10
0.0
 20
0.0
 30
0.0
  0
VERTEX
  5
92
330
91
100
AcDbEntity
  8
_U+30EC_U+30A4_U+30E4_U+30FC 1
  6
AI-Linetype-1
 62
   154
420
    23468
370
    25
100
AcDbVertex
100
AcDb2dVertex
 10
84.3810556250377
 20
-131.5978233004338
 30
0.0
  0
VERTEX
  5
93
330
91
100
AcDbEntity
  8
_U+30EC_U+30A4_U+30E4_U+30FC 1
  6
AI-Linetype-1
 62
   154
420
    23468
370
    25
100
AcDbVertex
100
AcDb2dVertex
 10
94.38078842547883
 20
-131.5978233004338
 30
0.0
  0
SEQEND
  5
95
330
91
100
AcDbEntity
  8
_U+30EC_U+30A4_U+30E4_U+30FC 1
  6
AI-Linetype-1
 62
   154
420
    23468
370
    25
  0
POLYLINE
  5
96
330
41
100
AcDbEntity
  8
_U+30EC_U+30A4_U+30E4_U+30FC 1
 62
   179
420
  2234388
370
     9
100
AcDb2dPolyline
 66
     1
 10
0.0
 20
0.0
 30
0.0
  0
VERTEX
  5
97
330
96
100
AcDbEntity
  8
_U+30EC_U+30A4_U+30E4_U+30FC 1
 62
   179
420
  2234388
370
     9
100
AcDbVertex
100
AcDb2dVertex
 10
86.42540279510429
 20
-131.0975844116701
 30
0.0
  0
VERTEX
  5
98
330
96
100
AcDbEntity
  8
_U+30EC_U+30A4_U+30E4_U+30FC 1
 62
   179
420
  2234388
370
     9
100
AcDbVertex
100
AcDb2dVertex
 10
86.68377723295704
 20
-130.1316083008006
 30
0.0
  0
SEQEND
  5
99
330
96
100
AcDbEntity
  8
_U+30EC_U+30A4_U+30E4_U+30FC 1
 62
   179
420
  2234388
370
     9
  0
POLYLINE
  5
9A
330
41
100
AcDbEntity
  8
_U+30EC_U+30A4_U+30E4_U+30FC 1
 62
   179
420
  2234388
370
     9
100
AcDb2dPolyline
 66
     1
 10
0.0
 20
0.0
 30
0.0
  0
VERTEX
  5
9B
330
9A
100
AcDbEntity
  8
_U+30EC_U+30A4_U+30E4_U+30FC 1
 62
   179
420
  2234388
370
     9
100
AcDbVertex
100
AcDb2dVertex
 10
86.42540279510429
 20
-131.0975844116701
 30
0.0
  0
VERTEX
  5
9C
330
9A
100
AcDbEntity
  8
_U+30EC_U+30A4_U+30E4_U+30FC 1
 62
   179
420
  2234388
370
     9
100
AcDbVertex
100
AcDb2dVertex
 10
86.42540279510429
 20
-121.721950525125
 30
0.0
  0
SEQEND
  5
9D
330
9A
100
AcDbEntity
  8
_U+30EC_U+30A4_U+30E4_U+30FC 1
 62
   179
420
  2234388
370
     9
  0
POLYLINE
  5
9E
330
41
100
AcDbEntity
  8
_U+30EC_U+30A4_U+30E4_U+30FC 1
 62
   179
420
  2234388
370
     9
100
AcDb2dPolyline
 66
     1
 10
0.0
 20
0.0
 30
0.0
  0
VERTEX
  5
9F
330
9E
100
AcDbEntity
  8
_U+30EC_U+30A4_U+30E4_U+30FC 1
 62
   179
420
  2234388
370
     9
100
AcDbVertex
100
AcDb2dVertex
 10
86.42540279510429
 20
-131.0975844116701
 30
0.0
  0
VERTEX
  5
A0
330
9E
100
AcDbEntity
  8
_U+30EC_U+30A4_U+30E4_U+30FC 1
 62
   179
420
  2234388
370
     9
100
AcDbVertex
100
AcDb2dVertex
 10
86.16632497845849
 20
-130.1316083008006
 30
0.0
  0
SEQEND
  5
A1
330
9E
100
AcDbEntity
  8
_U+30EC_U+30A4_U+30E4_U+30FC 1
 62
   179
420
  2234388
370
     9
  0
INSERT
  5
A3
330
41
100
AcDbEntity
  8
_U+30EC_U+30A4_U+30E4_U+30FC 1
100
AcDbBlockReference
  2
block 7
 10
0.0
 20
0.0
 30
0.0
  0
INSERT
  5
CB
330
41
100
AcDbEntity
  8
_U+30EC_U+30A4_U+30E4_U+30FC 1
100
AcDbBlockReference
  2
block 8
 10
0.0
 20
0.0
 30
0.0
  0
ENDBLK
  5
44
330
41
100
AcDbEntity
  8
0
100
AcDbBlockEnd
  0
BLOCK
  5
47
330
45
100
AcDbEntity
  8
0
100
AcDbBlockBegin
  2
block 3
 70
     0
 10
0.0
 20
0.0
 30
0.0
  3
block 3
  1

  0
SPLINE
  5
49
330
45
100
AcDbEntity
  8
_U+30EC_U+30A4_U+30E4_U+30FC 1
 62
   179
420
  2234388
370
     9
100
AcDbSpline
210
0.0
220
0.0
230
1.0
 70
    11
 71
     3
 72
    17
 73
    13
 74
     0
 42
0.0000000001
 43
0.0000000001
 12
1.0
 22
0.0
 32
0.0
 13
1.0
 23
0.0
 33
0.0
 40
0.0
 40
0.0
 40
0.0
 40
0.0
 40
1.0
 40
1.0
 40
1.0
 40
2.0
 40
2.0
 40
2.0
 40
3.0
 40
3.0
 40
3.0
 40
4.0
 40
4.0
 40
4.0
 40
4.0
 10
94.51032842217398
 20
-137.2932441323434
 30
0.0
 10
94.51032842217398
 20
-137.237434687913
 30
0.0
 10
94.46556092331609
 20
-137.1926671879238
 30
0.0
 10
94.41042175805615
 20
-137.1926671879238
 30
0.0
 10
94.35531787057307
 20
-137.1926671879238
 30
0.0
 10
94.3105150939383
 20
-137.237434687913
 30
0.0
 10
94.3105150939383
 20
-137.2932441323434
 30
0.0
 10
94.3105150939383
 20
-137.3483832989965
 30
0.0
 10
94.35531787057307
 20
-137.3931507989851
 30
0.0
 10
94.41042175805615
 20
-137.3931507989851
 30
0.0
 10
94.46556092331609
 20
-137.3931507989851
 30
0.0
 10
94.51032842217398
 20
-137.3483832989965
 30
0.0
 10
94.51032842217398
 20
-137.2932441323434
 30
0.0
  0
SPLINE
  5
4A
330
45
100
AcDbEntity
  8
_U+30EC_U+30A4_U+30E4_U+30FC 1
 62
   179
420
  2234388
370
     9
100
AcDbSpline
210
0.0
220
0.0
230
1.0
 70
    11
 71
     3
 72
    17
 73
    13
 74
     0
 42
0.0000000001
 43
0.0000000001
 12
1.0
 22
0.0
 32
0.0
 13
1.0
 23
0.0
 33
0.0
 40
0.0
 40
0.0
 40
0.0
 40
0.0
 40
1.0
 40
1.0
 40
1.0
 40
2.0
 40
2.0
 40
2.0
 40
3.0
 40
3.0
 40
3.0
 40
4.0
 40
4.0
 40
4.0
 40
4.0
 10
69.51066128219085
 20
-137.2932441323434
 30
0.0
 10
69.51066128219085
 20
-137.237434687913
 30
0.0
 10
69.46585850555608
 20
-137.1926671879238
 30
0.0
 10
69.41004906253545
 20
-137.1926671879238
 30
0.0
 10
69.35494517505238
 20
-137.1926671879238
 30
0.0
 10
69.31014239841763
 20
-137.237434687913
 30
0.0
 10
69.31014239841763
 20
-137.2932441323434
 30
0.0
 10
69.31014239841763
 20
-137.3483832989965
 30
0.0
 10
69.35494517505238
 20
-137.3931507989851
 30
0.0
 10
69.41004906253545
 20
-137.3931507989851
 30
0.0
 10
69.46585850555608
 20
-137.3931507989851
 30
0.0
 10
69.51066128219085
 20
-137.3483832989965
 30
0.0
 10
69.51066128219085
 20
-137.2932441323434
 30
0.0
  0
POLYLINE
  5
4B
330
45
100
AcDbEntity
  8
_U+30EC_U+30A4_U+30E4_U+30FC 1
 62
   179
420
  2234388
370
     9
100
AcDb2dPolyline
 66
     1
 10
0.0
 20
0.0
 30
0.0
  0
VERTEX
  5
4C
330
4B
100
AcDbEntity
  8
_U+30EC_U+30A4_U+30E4_U+30FC 1
 62
   179
420
  2234388
370
     9
100
AcDbVertex
100
AcDb2dVertex
 10
69.41004906253545
 20
-137.2932441323434
 30
0.0
  0
VERTEX
  5
4D
330
4B
100
AcDbEntity
  8
_U+30EC_U+30A4_U+30E4_U+30FC 1
 62
   179
420
  2234388
370
     9
100
AcDbVertex
100
AcDb2dVertex
 10
94.41042175805615
 20
-137.2932441323434
 30
0.0
  0
SEQEND
  5
4E
330
4B
100
AcDbEntity
  8
_U+30EC_U+30A4_U+30E4_U+30FC 1
 62
   179
420
  2234388
370
     9
  0
INSERT
  5
50
330
45
100
AcDbEntity
  8
_U+30EC_U+30A4_U+30E4_U+30FC 1
100
AcDbBlockReference
  2
block 4
 10
0.0
 20
0.0
 30
0.0
  0
ENDBLK
  5
48
330
45
100
AcDbEntity
  8
0
100
AcDbBlockEnd
  0
BLOCK
  5
51
330
4F
100
AcDbEntity
  8
0
100
AcDbBlockBegin
  2
block 4
 70
     0
 10
0.0
 20
0.0
 30
0.0
  3
block 4
  1

  0
POLYLINE
  5
53
330
4F
100
AcDbEntity
  8
_U+30EC_U+30A4_U+30E4_U+30FC 1
 62
   179
420
  2234388
370
    25
100
AcDb2dPolyline
 66
     1
 10
0.0
 20
0.0
 30
0.0
  0
VERTEX
  5
54
330
53
100
AcDbEntity
  8
_U+30EC_U+30A4_U+30E4_U+30FC 1
 62
   179
420
  2234388
370
    25
100
AcDbVertex
100
AcDb2dVertex
 10
94.41042175805615
 20
-132.2930424669266
 30
0.0
  0
VERTEX
  5
55
330
53
100
AcDbEntity
  8
_U+30EC_U+30A4_U+30E4_U+30FC 1
 62
   179
420
  2234388
370
    25
100
AcDbVertex
100
AcDb2dVertex
 10
94.41042175805615
 20
-132.7932813556903
 30
0.0
  0
SEQEND
  5
56
330
53
100
AcDbEntity
  8
_U+30EC_U+30A4_U+30E4_U+30FC 1
 62
   179
420
  2234388
370
    25
  0
POLYLINE
  5
57
330
4F
100
AcDbEntity
  8
_U+30EC_U+30A4_U+30E4_U+30FC 1
 62
   179
420
  2234388
370
    25
100
AcDb2dPolyline
 66
     1
 10
0.0
 20
0.0
 30
0.0
  0
VERTEX
  5
58
330
57
100
AcDbEntity
  8
_U+30EC_U+30A4_U+30E4_U+30FC 1
 62
   179
420
  2234388
370
    25
100
AcDbVertex
100
AcDb2dVertex
 10
70.41052681478892
 20
-132.2930424669266
 30
0.0
  0
VERTEX
  5
59
330
57
100
AcDbEntity
  8
_U+30EC_U+30A4_U+30E4_U+30FC 1
 62
   179
420
  2234388
370
    25
100
AcDbVertex
100
AcDb2dVertex
 10
94.41042175805615
 20
-132.2930424669266
 30
0.0
  0
SEQEND
  5
5A
330
57
100
AcDbEntity
  8
_U+30EC_U+30A4_U+30E4_U+30FC 1
 62
   179
420
  2234388
370
    25
  0
POLYLINE
  5
5B
330
4F
100
AcDbEntity
  8
_U+30EC_U+30A4_U+30E4_U+30FC 1
 62
   179
420
  2234388
370
    25
100
AcDb2dPolyline
 66
     1
 10
0.0
 20
0.0
 30
0.0
  0
VERTEX
  5
5C
330
5B
100
AcDbEntity
  8
_U+30EC_U+30A4_U+30E4_U+30FC 1
 62
   179
420
  2234388
370
    25
100
AcDbVertex
100
AcDb2dVertex
 10
94.41042175805615
 20
-132.7932813556903
 30
0.0
  0
VERTEX
  5
5D
330
5B
100
AcDbEntity
  8
_U+30EC_U+30A4_U+30E4_U+30FC 1
 62
   179
420
  2234388
370
    25
100
AcDbVertex
100
AcDb2dVertex
 10
70.22722348613205
 20
-133.2928146888992
 30
0.0
  0
SEQEND
  5
5E
330
5B
100
AcDbEntity
  8
_U+30EC_U+30A4_U+30E4_U+30FC 1
 62
   179
420
  2234388
370
    25
  0
POLYLINE
  5
5F
330
4F
100
AcDbEntity
  8
_U+30EC_U+30A4_U+30E4_U+30FC 1
 62
   179
420
  2234388
370
    25
100
AcDb2dPolyline
 66
     1
 10
0.0
 20
0.0
 30
0.0
  0
VERTEX
  5
60
330
5F
100
AcDbEntity
  8
_U+30EC_U+30A4_U+30E4_U+30FC 1
 62
   179
420
  2234388
370
    25
100
AcDbVertex
100
AcDb2dVertex
 10
70.41052681478892
 20
-127.2930171903991
 30
0.0
  0
VERTEX
  5
61
330
5F
100
AcDbEntity
  8
_U+30EC_U+30A4_U+30E4_U+30FC 1
 62
   179
420
  2234388
370
    25
100
AcDbVertex
100
AcDb2dVertex
 10
70.41052681478892
 20
-132.2930424669266
 30
0.0
  0
SEQEND
  5
62
330
5F
100
AcDbEntity
  8
_U+30EC_U+30A4_U+30E4_U+30FC 1
 62
   179
420
  2234388
370
    25
  0
POLYLINE
  5
63
330
4F
100
AcDbEntity
  8
_U+30EC_U+30A4_U+30E4_U+30FC 1
 62
   179
420
  2234388
370
    25
100
AcDb2dPolyline
 66
     1
 10
0.0
 20
0.0
 30
0.0
  0
VERTEX
  5
64
330
63
100
AcDbEntity
  8
_U+30EC_U+30A4_U+30E4_U+30FC 1
 62
   179
420
  2234388
370
    25
100
AcDbVertex
100
AcDb2dVertex
 10
69.9102879386622
 20
-127.2930171903991
 30
0.0
  0
VERTEX
  5
65
330
63
100
AcDbEntity
  8
_U+30EC_U+30A4_U+30E4_U+30FC 1
 62
   179
420
  2234388
370
    25
100
AcDbVertex
100
AcDb2dVertex
 10
70.41052681478892
 20
-127.2930171903991
 30
0.0
  0
SEQEND
  5
66
330
63
100
AcDbEntity
  8
_U+30EC_U+30A4_U+30E4_U+30FC 1
 62
   179
420
  2234388
370
    25
  0
POLYLINE
  5
67
330
4F
100
AcDbEntity
  8
_U+30EC_U+30A4_U+30E4_U+30FC 1
 62
   179
420
  2234388
370
    25
100
AcDb2dPolyline
 66
     1
 10
0.0
 20
0.0
 30
0.0
  0
VERTEX
  5
68
330
67
100
AcDbEntity
  8
_U+30EC_U+30A4_U+30E4_U+30FC 1
 62
   179
420
  2234388
370
    25
100
AcDbVertex
100
AcDb2dVertex
 10
69.9102879386622
 20
-127.2930171903991
 30
0.0
  0
VERTEX
  5
69
330
67
100
AcDbEntity
  8
_U+30EC_U+30A4_U+30E4_U+30FC 1
 62
   179
420
  2234388
370
    25
100
AcDbVertex
100
AcDb2dVertex
 10
69.41417656243016
 20
-132.4157033002294
 30
0.0
  0
SEQEND
  5
6A
330
67
100
AcDbEntity
  8
_U+30EC_U+30A4_U+30E4_U+30FC 1
 62
   179
420
  2234388
370
    25
  0
SPLINE
  5
6B
330
4F
100
AcDbEntity
  8
_U+30EC_U+30A4_U+30E4_U+30FC 1
 62
   179
420
  2234388
370
    25
100
AcDbSpline
210
0.0
220
0.0
230
1.0
 70
     8
 71
     3
 72
    11
 73
     7
 74
     0
 42
0.0000000001
 43
0.0000000001
 12
1.0
 22
0.0
 32
0.0
 13
1.0
 23
0.0
 33
0.0
 40
0.0
 40
0.0
 40
0.0
 40
0.0
 40
1.0
 40
1.0
 40
1.0
 40
2.0
 40
2.0
 40
2.0
 40
2.0
 10
69.41417656243016
 20
-132.4157033002294
 30
0.0
 10
69.37149045240805
 20
-132.8559699667859
 30
0.0
 10
69.69325905531016
 20
-133.2466360777996
 30
0.0
 10
70.13352571074469
 20
-133.2893574666779
 30
0.0
 10
70.16453487662025
 20
-133.2921091333437
 30
0.0
 10
70.19554404249581
 20
-133.2934849666765
 30
0.0
 10
70.22722348613205
 20
-133.2928146888992
 30
0.0
  0
SPLINE
  5
6C
330
4F
100
AcDbEntity
  8
_U+30EC_U+30A4_U+30E4_U+30FC 1
 62
   179
420
  2234388
370
     9
100
AcDbSpline
210
0.0
220
0.0
230
1.0
 70
    11
 71
     3
 72
    17
 73
    13
 74
     0
 42
0.0000000001
 43
0.0000000001
 12
1.0
 22
0.0
 32
0.0
 13
1.0
 23
0.0
 33
0.0
 40
0.0
 40
0.0
 40
0.0
 40
0.0
 40
1.0
 40
1.0
 40
1.0
 40
2.0
 40
2.0
 40
2.0
 40
3.0
 40
3.0
 40
3.0
 40
4.0
 40
4.0
 40
4.0
 40
4.0
 10
65.51019666202897
 20
-133.2928146888992
 30
0.0
 10
65.51019666202897
 20
-133.2376755222461
 30
0.0
 10
65.4654291631711
 20
-133.1929080222575
 30
0.0
 10
65.41029165031408
 20
-133.1929080222575
 30
0.0
 10
65.35518611042808
 20
-133.1929080222575
 30
0.0
 10
65.31038333379331
 20
-133.2376755222461
 30
0.0
 10
65.31038333379331
 20
-133.2928146888992
 30
0.0
 10
65.31038333379331
 20
-133.3479185777741
 30
0.0
 10
65.35518611042808
 20
-133.3927213555408
 30
0.0
 10
65.41029165031408
 20
-133.3927213555408
 30
0.0
 10
65.4654291631711
 20
-133.3927213555408
 30
0.0
 10
65.51019666202897
 20
-133.3479185777741
 30
0.0
 10
65.51019666202897
 20
-133.2928146888992
 30
0.0
  0
SPLINE
  5
6D
330
4F
100
AcDbEntity
  8
_U+30EC_U+30A4_U+30E4_U+30FC 1
 62
   179
420
  2234388
370
     9
100
AcDbSpline
210
0.0
220
0.0
230
1.0
 70
    11
 71
     3
 72
    17
 73
    13
 74
     0
 42
0.0000000001
 43
0.0000000001
 12
1.0
 22
0.0
 32
0.0
 13
1.0
 23
0.0
 33
0.0
 40
0.0
 40
0.0
 40
0.0
 40
0.0
 40
1.0
 40
1.0
 40
1.0
 40
2.0
 40
2.0
 40
2.0
 40
3.0
 40
3.0
 40
3.0
 40
4.0
 40
4.0
 40
4.0
 40
4.0
 10
65.51019666202897
 20
-127.2930171903991
 30
0.0
 10
65.51019666202897
 20
-127.2375252459685
 30
0.0
 10
65.4654291631711
 20
-127.1927577459797
 30
0.0
 10
65.41029165031408
 20
-127.1927577459797
 30
0.0
 10
65.35518611042808
 20
-127.1927577459797
 30
0.0
 10
65.31038333379331
 20
-127.2375252459685
 30
0.0
 10
65.31038333379331
 20
-127.2930171903991
 30
0.0
 10
65.31038333379331
 20
-127.3484738570517
 30
0.0
 10
65.35518611042808
 20
-127.3929238570407
 30
0.0
 10
65.41029165031408
 20
-127.3929238570407
 30
0.0
 10
65.4654291631711
 20
-127.3929238570407
 30
0.0
 10
65.51019666202897
 20
-127.3484738570517
 30
0.0
 10
65.51019666202897
 20
-127.2930171903991
 30
0.0
  0
POLYLINE
  5
6E
330
4F
100
AcDbEntity
  8
_U+30EC_U+30A4_U+30E4_U+30FC 1
 62
   179
420
  2234388
370
     9
100
AcDb2dPolyline
 66
     1
 10
0.0
 20
0.0
 30
0.0
  0
VERTEX
  5
6F
330
6E
100
AcDbEntity
  8
_U+30EC_U+30A4_U+30E4_U+30FC 1
 62
   179
420
  2234388
370
     9
100
AcDbVertex
100
AcDb2dVertex
 10
65.41029165031408
 20
-127.2930171903991
 30
0.0
  0
VERTEX
  5
70
330
6E
100
AcDbEntity
  8
_U+30EC_U+30A4_U+30E4_U+30FC 1
 62
   179
420
  2234388
370
     9
100
AcDbVertex
100
AcDb2dVertex
 10
65.41029165031408
 20
-133.2928146888992
 30
0.0
  0
SEQEND
  5
71
330
6E
100
AcDbEntity
  8
_U+30EC_U+30A4_U+30E4_U+30FC 1
 62
   179
420
  2234388
370
     9
  0
POLYLINE
  5
72
330
4F
100
AcDbEntity
  8
_U+30EC_U+30A4_U+30E4_U+30FC 1
 62
   179
420
  2234388
370
     9
100
AcDb2dPolyline
 66
     1
 10
0.0
 20
0.0
 30
0.0
  0
VERTEX
  5
73
330
72
100
AcDbEntity
  8
_U+30EC_U+30A4_U+30E4_U+30FC 1
 62
   179
420
  2234388
370
     9
100
AcDbVertex
100
AcDb2dVertex
 10
67.37057022567801
 20
-127.2930171903991
 30
0.0
  0
VERTEX
  5
74
330
72
100
AcDbEntity
  8
_U+30EC_U+30A4_U+30E4_U+30FC 1
 62
   179
420
  2234388
370
     9
100
AcDbVertex
100
AcDb2dVertex
 10
64.41055307897211
 20
-127.2930171903991
 30
0.0
  0
SEQEND
  5
75
330
72
100
AcDbEntity
  8
_U+30EC_U+30A4_U+30E4_U+30FC 1
 62
   179
420
  2234388
370
     9
  0
POLYLINE
  5
76
330
4F
100
AcDbEntity
  8
_U+30EC_U+30A4_U+30E4_U+30FC 1
 62
   179
420
  2234388
370
     9
100
AcDb2dPolyline
 66
     1
 10
0.0
 20
0.0
 30
0.0
  0
VERTEX
  5
77
330
76
100
AcDbEntity
  8
_U+30EC_U+30A4_U+30E4_U+30FC 1
 62
   179
420
  2234388
370
     9
100
AcDbVertex
100
AcDb2dVertex
 10
67.67029021803151
 20
-133.2928146888992
 30
0.0
  0
VERTEX
  5
78
330
76
100
AcDbEntity
  8
_U+30EC_U+30A4_U+30E4_U+30FC 1
 62
   179
420
  2234388
370
     9
100
AcDbVertex
100
AcDb2dVertex
 10
64.41055307897211
 20
-133.2928146888992
 30
0.0
  0
SEQEND
  5
79
330
76
100
AcDbEntity
  8
_U+30EC_U+30A4_U+30E4_U+30FC 1
 62
   179
420
  2234388
370
     9
  0
INSERT
  5
7B
330
4F
100
AcDbEntity
  8
_U+30EC_U+30A4_U+30E4_U+30FC 1
100
AcDbBlockReference
  2
block 5
 10
0.0
 20
0.0
 30
0.0
  0
POLYLINE
  5
81
330
4F
100
AcDbEntity
  8
_U+30EC_U+30A4_U+30E4_U+30FC 1
 62
   179
420
  2234388
370
     9
100
AcDb2dPolyline
 66
     1
 10
0.0
 20
0.0
 30
0.0
  0
VERTEX
  5
82
330
81
100
AcDbEntity
  8
_U+30EC_U+30A4_U+30E4_U+30FC 1
 62
   179
420
  2234388
370
     9
100
AcDbVertex
100
AcDb2dVertex
 10
69.41004906253545
 20
-135.0332791329086
 30
0.0
  0
VERTEX
  5
83
330
81
100
AcDbEntity
  8
_U+30EC_U+30A4_U+30E4_U+30FC 1
 62
   179
420
  2234388
370
     9
100
AcDbVertex
100
AcDb2dVertex
 10
69.41004906253545
 20
-138.2930163543153
 30
0.0
  0
SEQEND
  5
84
330
81
100
AcDbEntity
  8
_U+30EC_U+30A4_U+30E4_U+30FC 1
 62
   179
420
  2234388
370
     9
  0
POLYLINE
  5
85
330
4F
100
AcDbEntity
  8
_U+30EC_U+30A4_U+30E4_U+30FC 1
 62
   179
420
  2234388
370
     9
100
AcDb2dPolyline
 66
     1
 10
0.0
 20
0.0
 30
0.0
  0
VERTEX
  5
86
330
85
100
AcDbEntity
  8
_U+30EC_U+30A4_U+30E4_U+30FC 1
 62
   179
420
  2234388
370
     9
100
AcDbVertex
100
AcDb2dVertex
 10
94.41042175805615
 20
-135.3329991328335
 30
0.0
  0
VERTEX
  5
87
330
85
100
AcDbEntity
  8
_U+30EC_U+30A4_U+30E4_U+30FC 1
 62
   179
420
  2234388
370
     9
100
AcDbVertex
100
AcDb2dVertex
 10
94.41042175805615
 20
-138.2930163543153
 30
0.0
  0
SEQEND
  5
88
330
85
100
AcDbEntity
  8
_U+30EC_U+30A4_U+30E4_U+30FC 1
 62
   179
420
  2234388
370
     9
  0
INSERT
  5
8A
330
4F
100
AcDbEntity
  8
_U+30EC_U+30A4_U+30E4_U+30FC 1
100
AcDbBlockReference
  2
block 6
 10
0.0
 20
0.0
 30
0.0
  0
ENDBLK
  5
52
330
4F
100
AcDbEntity
  8
0
100
AcDbBlockEnd
  0
BLOCK
  5
7C
330
7A
100
AcDbEntity
  8
0
100
AcDbBlockBegin
  2
block 5
 70
     0
 10
0.0
 20
0.0
 30
0.0
  3
block 5
  1

  0
SPLINE
  5
7E
330
7A
100
AcDbEntity
  8
_U+30EC_U+30A4_U+30E4_U+30FC 1
370
     0
100
AcDbSpline
210
0.0
220
0.0
230
1.0
 70
    11
 71
     3
 72
    32
 73
    28
 74
     0
 42
0.0000000001
 43
0.0000000001
 12
1.0
 22
0.0
 32
0.0
 13
1.0
 23
0.0
 33
0.0
 40
0.0
 40
0.0
 40
0.0
 40
0.0
 40
1.0
 40
1.0
 40
1.0
 40
2.0
 40
2.0
 40
2.0
 40
3.0
 40
3.0
 40
3.0
 40
4.0
 40
4.0
 40
4.0
 40
5.0
 40
5.0
 40
5.0
 40
6.0
 40
6.0
 40
6.0
 40
7.0
 40
7.0
 40
7.0
 40
8.0
 40
8.0
 40
8.0
 40
9.0
 40
9.0
 40
9.0
 40
9.0
 10
64.9829413357508
 20
-130.2459689344524
 30
0.0
 10
64.9829413357508
 20
-130.7975287216409
 30
0.0
 10
64.42862547217409
 20
-130.8064859699026
 30
0.0
 10
64.21502955208861
 20
-130.8064859699026
 30
0.0
 10
63.98438040935113
 20
-130.8064859699026
 30
0.0
 10
63.33704696767268
 20
-130.7861599065396
 30
0.0
 10
63.33704696767268
 20
-130.2049722981779
 30
0.0
 10
63.33704696767268
 20
-130.0196261610715
 30
0.0
 10
63.406810151249
 20
-129.757454394644
 30
0.0
 10
63.73891735602708
 20
-129.716802267918
 30
0.0
 10
63.73891735602708
 20
-129.716802267918
 30
0.0
 10
63.73891735602708
 20
-129.9452120985901
 30
0.0
 10
63.73891735602708
 20
-129.9452120985901
 30
0.0
 10
63.68190102574619
 20
-129.9565809136914
 30
0.0
 10
63.53376191988045
 20
-129.9903428494469
 30
0.0
 10
63.53376191988045
 20
-130.2073838650176
 30
0.0
 10
63.53376191988045
 20
-130.5195095159812
 30
0.0
 10
63.86173501007624
 20
-130.5622286999983
 30
0.0
 10
64.06689044622286
 20
-130.5760090819393
 30
0.0
 10
63.9886867787077
 20
-130.4764458224156
 30
0.0
 10
63.92943113636139
 20
-130.4040988172254
 30
0.0
 10
63.92943113636139
 20
-130.2094509223087
 30
0.0
 10
63.92943113636139
 20
-130.0175591037803
 30
0.0
 10
64.03726262504972
 20
-129.6940646377154
 30
0.0
 10
64.44343938276067
 20
-129.6940646377154
 30
0.0
 10
64.76297198901759
 20
-129.6940646377154
 30
0.0
 10
64.9829413357508
 20
-129.9066270291553
 30
0.0
 10
64.9829413357508
 20
-130.2459689344524
 30
0.0
  0
SPLINE
  5
7F
330
7A
100
AcDbEntity
  8
_U+30EC_U+30A4_U+30E4_U+30FC 1
370
     0
100
AcDbSpline
210
0.0
220
0.0
230
1.0
 70
    11
 71
     3
 72
    17
 73
    13
 74
     0
 42
0.0000000001
 43
0.0000000001
 12
1.0
 22
0.0
 32
0.0
 13
1.0
 23
0.0
 33
0.0
 40
0.0
 40
0.0
 40
0.0
 40
0.0
 40
1.0
 40
1.0
 40
1.0
 40
2.0
 40
2.0
 40
2.0
 40
3.0
 40
3.0
 40
3.0
 40
4.0
 40
4.0
 40
4.0
 40
4.0
 10
64.12407903127801
 20
-130.2277099283806
 30
0.0
 10
64.12407903127801
 20
-130.5081407008799
 30
0.0
 10
64.33560789407235
 20
-130.5487928276059
 30
0.0
 10
64.45187986669953
 20
-130.5487928276059
 30
0.0
 10
64.62757973644727
 20
-130.5487928276059
 30
0.0
 10
64.79036049812532
 20
-130.447162510791
 30
0.0
 10
64.79036049812532
 20
-130.2504475585832
 30
0.0
 10
64.79036049812532
 20
-130.1216009874349
 30
0.0
 10
64.73110485577904
 20
-129.9338432834888
 30
0.0
 10
64.44550644005182
 20
-129.9338432834888
 30
0.0
 10
64.22140297873632
 20
-129.9338432834888
 30
0.0
 10
64.12407903127801
 20
-130.0830159180001
 30
0.0
 10
64.12407903127801
 20
-130.2277099283806
 30
0.0
  0
HATCH
  5
80
330
7A
100
AcDbEntity
  8
_U+30EC_U+30A4_U+30E4_U+30FC 1
 62
   179
420
  2234388
100
AcDbHatch
 10
0.0
 20
0.0
 30
0.0
210
0.0
220
0.0
230
1.0
  2
SOLID
 70
     1
 71
     0
 91
        2
 92
        1
 93
        1
 72
     4
 94
        3
 73
     0
 74
     1
 95
       32
 96
       28
 40
0.0
 40
0.0
 40
0.0
 40
0.0
 40
1.0
 40
1.0
 40
1.0
 40
2.0
 40
2.0
 40
2.0
 40
3.0
 40
3.0
 40
3.0
 40
4.0
 40
4.0
 40
4.0
 40
5.0
 40
5.0
 40
5.0
 40
6.0
 40
6.0
 40
6.0
 40
7.0
 40
7.0
 40
7.0
 40
8.0
 40
8.0
 40
8.0
 40
9.0
 40
9.0
 40
9.0
 40
9.0
 10
64.9829413357508
 20
-130.2459689344524
 10
64.9829413357508
 20
-130.7975287216409
 10
64.42862547217409
 20
-130.8064859699026
 10
64.21502955208861
 20
-130.8064859699026
 10
63.98438040935113
 20
-130.8064859699026
 10
63.33704696767268
 20
-130.7861599065396
 10
63.33704696767268
 20
-130.2049722981779
 10
63.33704696767268
 20
-130.0196261610715
 10
63.406810151249
 20
-129.757454394644
 10
63.73891735602708
 20
-129.716802267918
 10
63.73891735602708
 20
-129.716802267918
 10
63.73891735602708
 20
-129.9452120985901
 10
63.73891735602708
 20
-129.9452120985901
 10
63.68190102574619
 20
-129.9565809136914
 10
63.53376191988045
 20
-129.9903428494469
 10
63.53376191988045
 20
-130.2073838650176
 10
63.53376191988045
 20
-130.5195095159812
 10
63.86173501007624
 20
-130.5622286999983
 10
64.06689044622286
 20
-130.5760090819393
 10
63.9886867787077
 20
-130.4764458224156
 10
63.92943113636139
 20
-130.4040988172254
 10
63.92943113636139
 20
-130.2094509223087
 10
63.92943113636139
 20
-130.0175591037803
 10
64.03726262504972
 20
-129.6940646377154
 10
64.44343938276067
 20
-129.6940646377154
 10
64.76297198901759
 20
-129.6940646377154
 10
64.9829413357508
 20
-129.9066270291553
 10
64.9829413357508
 20
-130.2459689344524
 97
        0
 97
        0
 92
        1
 93
        1
 72
     4
 94
        3
 73
     0
 74
     1
 95
       17
 96
       13
 40
0.0
 40
0.0
 40
0.0
 40
0.0
 40
1.0
 40
1.0
 40
1.0
 40
2.0
 40
2.0
 40
2.0
 40
3.0
 40
3.0
 40
3.0
 40
4.0
 40
4.0
 40
4.0
 40
4.0
 10
64.12407903127801
 20
-130.2277099283806
 10
64.12407903127801
 20
-130.5081407008799
 10
64.33560789407235
 20
-130.5487928276059
 10
64.45187986669953
 20
-130.5487928276059
 10
64.62757973644727
 20
-130.5487928276059
 10
64.79036049812532
 20
-130.447162510791
 10
64.79036049812532
 20
-130.2504475585832
 10
64.79036049812532
 20
-130.1216009874349
 10
64.73110485577904
 20
-129.9338432834888
 10
64.44550644005182
 20
-129.9338432834888
 10
64.22140297873632
 20
-129.9338432834888
 10
64.12407903127801
 20
-130.0830159180001
 10
64.12407903127801
 20
-130.2277099283806
 97
        0
 97
        0
 75
     2
 76
     1
 98
        0
  0
ENDBLK
  5
7D
330
7A
100
AcDbEntity
  8
0
100
AcDbBlockEnd
  0
BLOCK
  5
8B
330
89
100
AcDbEntity
  8
0
100
AcDbBlockBegin
  2
block 6
 70
     0
 10
0.0
 20
0.0
 30
0.0
  3
block 6
  1

  0
SPLINE
  5
8D
330
89
100
AcDbEntity
  8
_U+30EC_U+30A4_U+30E4_U+30FC 1
370
     0
100
AcDbSpline
210
0.0
220
0.0
230
1.0
 70
    11
 71
     3
 72
    44
 73
    40
 74
     0
 42
0.0000000001
 43
0.0000000001
 12
1.0
 22
0.0
 32
0.0
 13
1.0
 23
0.0
 33
0.0
 40
0.0
 40
0.0
 40
0.0
 40
0.0
 40
1.0
 40
1.0
 40
1.0
 40
2.0
 40
2.0
 40
2.0
 40
3.0
 40
3.0
 40
3.0
 40
4.0
 40
4.0
 40
4.0
 40
5.0
 40
5.0
 40
5.0
 40
6.0
 40
6.0
 40
6.0
 40
7.0
 40
7.0
 40
7.0
 40
8.0
 40
8.0
 40
8.0
 40
9.0
 40
9.0
 40
9.0
 40
10.0
 40
10.0
 40
10.0
 40
11.0
 40
11.0
 40
11.0
 40
12.0
 40
12.0
 40
12.0
 40
13.0
 40
13.0
 40
13.0
 40
13.0
 10
81.38538545057379
 20
-135.9979003566255
 30
0.0
 10
81.1524969957709
 20
-136.1567192584955
 30
0.0
 10
81.05293373624718
 20
-136.2307888114284
 30
0.0
 10
81.00125730396844
 20
-136.3744492931633
 30
0.0
 10
81.00125730396844
 20
-136.3744492931633
 30
0.0
 10
81.83290335410776
 20
-136.3744492931633
 30
0.0
 10
81.83290335410776
 20
-136.3744492931633
 30
0.0
 10
81.83290335410776
 20
-136.3744492931633
 30
0.0
 10
81.83290335410776
 20
-136.5797769840842
 30
0.0
 10
81.83290335410776
 20
-136.5797769840842
 30
0.0
 10
81.83290335410776
 20
-136.5797769840842
 30
0.0
 10
80.73426240386158
 20
-136.5797769840842
 30
0.0
 10
80.73426240386158
 20
-136.5797769840842
 30
0.0
 10
80.76836884916555
 20
-136.2221760727153
 30
0.0
 10
80.83830428751612
 20
-136.1439724052001
 30
0.0
 10
81.24964868845495
 20
-135.8456271361775
 30
0.0
 10
81.52318926998379
 20
-135.6468451266786
 30
0.0
 10
81.59346921788288
 20
-135.5789767456191
 30
0.0
 10
81.59346921788288
 20
-135.4415174357577
 30
0.0
 10
81.59346921788288
 20
-135.3230061510651
 30
0.0
 10
81.51664358856182
 20
-135.1920925226256
 30
0.0
 10
81.30614825441305
 20
-135.1920925226256
 30
0.0
 10
81.02812904875339
 20
-135.1920925226256
 30
0.0
 10
81.01917180049173
 20
-135.4225694105888
 30
0.0
 10
81.01469317636091
 20
-135.5390136379903
 30
0.0
 10
81.01469317636091
 20
-135.5390136379903
 30
0.0
 10
80.77491453058752
 20
-135.5390136379903
 30
0.0
 10
80.77491453058752
 20
-135.5390136379903
 30
0.0
 10
80.7842162883977
 20
-135.4118896145845
 30
0.0
 10
80.7952405939505
 20
-135.2999240113139
 30
0.0
 10
80.88136798108175
 20
-135.1814127266213
 30
0.0
 10
80.99884573712876
 20
-135.0205267674602
 30
0.0
 10
81.19762774662767
 20
-134.9867648317047
 30
0.0
 10
81.32199569364519
 20
-134.9867648317047
 30
0.0
 10
81.61827390537668
 20
-134.9867648317047
 30
0.0
 10
81.83979354507825
 20
-135.170732930617
 30
0.0
 10
81.83979354507825
 20
-135.4435844930488
 30
0.0
 10
81.83979354507825
 20
-135.6723388332694
 30
0.0
 10
81.71542559806073
 20
-135.7715575832446
 30
0.0
 10
81.38538545057379
 20
-135.9979003566255
 30
0.0
  0
HATCH
  5
8E
330
89
100
AcDbEntity
  8
_U+30EC_U+30A4_U+30E4_U+30FC 1
 62
   179
420
  2234388
100
AcDbHatch
 10
0.0
 20
0.0
 30
0.0
210
0.0
220
0.0
230
1.0
  2
SOLID
 70
     1
 71
     0
 91
        1
 92
        1
 93
        1
 72
     4
 94
        3
 73
     0
 74
     1
 95
       44
 96
       40
 40
0.0
 40
0.0
 40
0.0
 40
0.0
 40
1.0
 40
1.0
 40
1.0
 40
2.0
 40
2.0
 40
2.0
 40
3.0
 40
3.0
 40
3.0
 40
4.0
 40
4.0
 40
4.0
 40
5.0
 40
5.0
 40
5.0
 40
6.0
 40
6.0
 40
6.0
 40
7.0
 40
7.0
 40
7.0
 40
8.0
 40
8.0
 40
8.0
 40
9.0
 40
9.0
 40
9.0
 40
10.0
 40
10.0
 40
10.0
 40
11.0
 40
11.0
 40
11.0
 40
12.0
 40
12.0
 40
12.0
 40
13.0
 40
13.0
 40
13.0
 40
13.0
 10
81.38538545057379
 20
-135.9979003566255
 10
81.1524969957709
 20
-136.1567192584955
 10
81.05293373624718
 20
-136.2307888114284
 10
81.00125730396844
 20
-136.3744492931633
 10
81.00125730396844
 20
-136.3744492931633
 10
81.83290335410776
 20
-136.3744492931633
 10
81.83290335410776
 20
-136.3744492931633
 10
81.83290335410776
 20
-136.3744492931633
 10
81.83290335410776
 20
-136.5797769840842
 10
81.83290335410776
 20
-136.5797769840842
 10
81.83290335410776
 20
-136.5797769840842
 10
80.73426240386158
 20
-136.5797769840842
 10
80.73426240386158
 20
-136.5797769840842
 10
80.76836884916555
 20
-136.2221760727153
 10
80.83830428751612
 20
-136.1439724052001
 10
81.24964868845495
 20
-135.8456271361775
 10
81.52318926998379
 20
-135.6468451266786
 10
81.59346921788288
 20
-135.5789767456191
 10
81.59346921788288
 20
-135.4415174357577
 10
81.59346921788288
 20
-135.3230061510651
 10
81.51664358856182
 20
-135.1920925226256
 10
81.30614825441305
 20
-135.1920925226256
 10
81.02812904875339
 20
-135.1920925226256
 10
81.01917180049173
 20
-135.4225694105888
 10
81.01469317636091
 20
-135.5390136379903
 10
81.01469317636091
 20
-135.5390136379903
 10
80.77491453058752
 20
-135.5390136379903
 10
80.77491453058752
 20
-135.5390136379903
 10
80.7842162883977
 20
-135.4118896145845
 10
80.7952405939505
 20
-135.2999240113139
 10
80.88136798108175
 20
-135.1814127266213
 10
80.99884573712876
 20
-135.0205267674602
 10
81.19762774662767
 20
-134.9867648317047
 10
81.32199569364519
 20
-134.9867648317047
 10
81.61827390537668
 20
-134.9867648317047
 10
81.83979354507825
 20
-135.170732930617
 10
81.83979354507825
 20
-135.4435844930488
 10
81.83979354507825
 20
-135.6723388332694
 10
81.71542559806073
 20
-135.7715575832446
 10
81.38538545057379
 20
-135.9979003566255
 97
        0
 97
        0
 75
     2
 76
     1
 98
        0
  0
SPLINE
  5
8F
330
89
100
AcDbEntity
  8
_U+30EC_U+30A4_U+30E4_U+30FC 1
370
     0
100
AcDbSpline
210
0.0
220
0.0
230
1.0
 70
    11
 71
     3
 72
    53
 73
    49
 74
     0
 42
0.0000000001
 43
0.0000000001
 12
1.0
 22
0.0
 32
0.0
 13
1.0
 23
0.0
 33
0.0
 40
0.0
 40
0.0
 40
0.0
 40
0.0
 40
1.0
 40
1.0
 40
1.0
 40
2.0
 40
2.0
 40
2.0
 40
3.0
 40
3.0
 40
3.0
 40
4.0
 40
4.0
 40
4.0
 40
5.0
 40
5.0
 40
5.0
 40
6.0
 40
6.0
 40
6.0
 40
7.0
 40
7.0
 40
7.0
 40
8.0
 40
8.0
 40
8.0
 40
9.0
 40
9.0
 40
9.0
 40
10.0
 40
10.0
 40
10.0
 40
11.0
 40
11.0
 40
11.0
 40
12.0
 40
12.0
 40
12.0
 40
13.0
 40
13.0
 40
13.0
 40
14.0
 40
14.0
 40
14.0
 40
15.0
 40
15.0
 40
15.0
 40
16.0
 40
16.0
 40
16.0
 40
16.0
 10
82.52330048935181
 20
-136.6304198877174
 30
0.0
 10
82.43992917860876
 20
-136.6304198877174
 30
0.0
 10
82.33106416127488
 20
-136.6135389198397
 30
0.0
 10
82.22288816303804
 20
-136.5501491629111
 30
0.0
 10
82.03719751638306
 20
-136.4402506169316
 30
0.0
 10
82.01480439572894
 20
-136.3089924789436
 30
0.0
 10
81.99447833236597
 20
-136.2011609902553
 30
0.0
 10
81.99447833236597
 20
-136.2011609902553
 30
0.0
 10
82.23184541129969
 20
-136.2011609902553
 30
0.0
 10
82.23184541129969
 20
-136.2011609902553
 30
0.0
 10
82.29041203454892
 20
-136.3999429997542
 30
0.0
 10
82.42614879666777
 20
-136.4295708209273
 30
0.0
 10
82.5257120561915
 20
-136.4295708209273
 30
0.0
 10
82.67488469070281
 20
-136.4295708209273
 30
0.0
 10
82.8374931976066
 20
-136.3300075614036
 30
0.0
 10
82.8374931976066
 20
-136.0974636161492
 30
0.0
 10
82.8374931976066
 20
-135.8414930215952
 30
0.0
 10
82.64560137907819
 20
-135.7715575832446
 30
0.0
 10
82.51675480792984
 20
-135.7715575832446
 30
0.0
 10
82.48264836262587
 20
-135.7715575832446
 30
0.0
 10
82.33106416127488
 20
-135.7715575832446
 30
0.0
 10
82.2363240354305
 20
-135.9007486639415
 30
0.0
 10
82.2363240354305
 20
-135.9007486639415
 30
0.0
 10
82.0485663314844
 20
-135.8818006387726
 30
0.0
 10
82.0485663314844
 20
-135.8818006387726
 30
0.0
 10
82.0485663314844
 20
-135.8818006387726
 30
0.0
 10
82.17741290263274
 20
-135.0353406780467
 30
0.0
 10
82.17741290263274
 20
-135.0353406780467
 30
0.0
 10
82.17741290263274
 20
-135.0353406780467
 30
0.0
 10
83.00940346232056
 20
-135.0353406780467
 30
0.0
 10
83.00940346232056
 20
-135.0353406780467
 30
0.0
 10
83.00940346232056
 20
-135.0353406780467
 30
0.0
 10
83.00940346232056
 20
-135.2299885729634
 30
0.0
 10
83.00940346232056
 20
-135.2299885729634
 30
0.0
 10
83.00940346232056
 20
-135.2299885729634
 30
0.0
 10
82.35173473418638
 20
-135.2299885729634
 30
0.0
 10
82.35173473418638
 20
-135.2299885729634
 30
0.0
 10
82.35173473418638
 20
-135.2299885729634
 30
0.0
 10
82.28145478628728
 20
-135.653046298552
 30
0.0
 10
82.28145478628728
 20
-135.653046298552
 30
0.0
 10
82.34691160050703
 20
-135.6192843627966
 30
0.0
 10
82.43510604492943
 20
-135.5789767456191
 30
0.0
 10
82.56188555878661
 20
-135.5789767456191
 30
0.0
 10
82.83301457347578
 20
-135.5789767456191
 30
0.0
 10
83.08622909164164
 20
-135.7653564113712
 30
0.0
 10
83.08622909164164
 20
-136.0785155909804
 30
0.0
 10
83.08622909164164
 20
-136.3958088851719
 30
0.0
 10
82.84679495541678
 20
-136.6304198877174
 30
0.0
 10
82.52330048935181
 20
-136.6304198877174
 30
0.0
  0
HATCH
  5
90
330
89
100
AcDbEntity
  8
_U+30EC_U+30A4_U+30E4_U+30FC 1
 62
   179
420
  2234388
100
AcDbHatch
 10
0.0
 20
0.0
 30
0.0
210
0.0
220
0.0
230
1.0
  2
SOLID
 70
     1
 71
     0
 91
        1
 92
        1
 93
        1
 72
     4
 94
        3
 73
     0
 74
     1
 95
       53
 96
       49
 40
0.0
 40
0.0
 40
0.0
 40
0.0
 40
1.0
 40
1.0
 40
1.0
 40
2.0
 40
2.0
 40
2.0
 40
3.0
 40
3.0
 40
3.0
 40
4.0
 40
4.0
 40
4.0
 40
5.0
 40
5.0
 40
5.0
 40
6.0
 40
6.0
 40
6.0
 40
7.0
 40
7.0
 40
7.0
 40
8.0
 40
8.0
 40
8.0
 40
9.0
 40
9.0
 40
9.0
 40
10.0
 40
10.0
 40
10.0
 40
11.0
 40
11.0
 40
11.0
 40
12.0
 40
12.0
 40
12.0
 40
13.0
 40
13.0
 40
13.0
 40
14.0
 40
14.0
 40
14.0
 40
15.0
 40
15.0
 40
15.0
 40
16.0
 40
16.0
 40
16.0
 40
16.0
 10
82.52330048935181
 20
-136.6304198877174
 10
82.43992917860876
 20
-136.6304198877174
 10
82.33106416127488
 20
-136.6135389198397
 10
82.22288816303804
 20
-136.5501491629111
 10
82.03719751638306
 20
-136.4402506169316
 10
82.01480439572894
 20
-136.3089924789436
 10
81.99447833236597
 20
-136.2011609902553
 10
81.99447833236597
 20
-136.2011609902553
 10
82.23184541129969
 20
-136.2011609902553
 10
82.23184541129969
 20
-136.2011609902553
 10
82.29041203454892
 20
-136.3999429997542
 10
82.42614879666777
 20
-136.4295708209273
 10
82.5257120561915
 20
-136.4295708209273
 10
82.67488469070281
 20
-136.4295708209273
 10
82.8374931976066
 20
-136.3300075614036
 10
82.8374931976066
 20
-136.0974636161492
 10
82.8374931976066
 20
-135.8414930215952
 10
82.64560137907819
 20
-135.7715575832446
 10
82.51675480792984
 20
-135.7715575832446
 10
82.48264836262587
 20
-135.7715575832446
 10
82.33106416127488
 20
-135.7715575832446
 10
82.2363240354305
 20
-135.9007486639415
 10
82.2363240354305
 20
-135.9007486639415
 10
82.0485663314844
 20
-135.8818006387726
 10
82.0485663314844
 20
-135.8818006387726
 10
82.0485663314844
 20
-135.8818006387726
 10
82.17741290263274
 20
-135.0353406780467
 10
82.17741290263274
 20
-135.0353406780467
 10
82.17741290263274
 20
-135.0353406780467
 10
83.00940346232056
 20
-135.0353406780467
 10
83.00940346232056
 20
-135.0353406780467
 10
83.00940346232056
 20
-135.0353406780467
 10
83.00940346232056
 20
-135.2299885729634
 10
83.00940346232056
 20
-135.2299885729634
 10
83.00940346232056
 20
-135.2299885729634
 10
82.35173473418638
 20
-135.2299885729634
 10
82.35173473418638
 20
-135.2299885729634
 10
82.35173473418638
 20
-135.2299885729634
 10
82.28145478628728
 20
-135.653046298552
 10
82.28145478628728
 20
-135.653046298552
 10
82.34691160050703
 20
-135.6192843627966
 10
82.43510604492943
 20
-135.5789767456191
 10
82.56188555878661
 20
-135.5789767456191
 10
82.83301457347578
 20
-135.5789767456191
 10
83.08622909164164
 20
-135.7653564113712
 10
83.08622909164164
 20
-136.0785155909804
 10
83.08622909164164
 20
-136.3958088851719
 10
82.84679495541678
 20
-136.6304198877174
 10
82.52330048935181
 20
-136.6304198877174
 97
        0
 97
        0
 75
     2
 76
     1
 98
        0
  0
ENDBLK
  5
8C
330
89
100
AcDbEntity
  8
0
100
AcDbBlockEnd
  0
BLOCK
  5
A4
330
A2
100
AcDbEntity
  8
0
100
AcDbBlockBegin
  2
block 7
 70
     0
 10
0.0
 20
0.0
 30
0.0
  3
block 7
  1

  0
SPLINE
  5
A6
330
A2
100
AcDbEntity
  8
_U+30EC_U+30A4_U+30E4_U+30FC 1
370
     0
100
AcDbSpline
210
0.0
220
0.0
230
1.0
 70
    11
 71
     3
 72
   242
 73
   238
 74
     0
 42
0.0000000001
 43
0.0000000001
 12
1.0
 22
0.0
 32
0.0
 13
1.0
 23
0.0
 33
0.0
 40
0.0
 40
0.0
 40
0.0
 40
0.0
 40
1.0
 40
1.0
 40
1.0
 40
2.0
 40
2.0
 40
2.0
 40
3.0
 40
3.0
 40
3.0
 40
4.0
 40
4.0
 40
4.0
 40
5.0
 40
5.0
 40
5.0
 40
6.0
 40
6.0
 40
6.0
 40
7.0
 40
7.0
 40
7.0
 40
8.0
 40
8.0
 40
8.0
 40
9.0
 40
9.0
 40
9.0
 40
10.0
 40
10.0
 40
10.0
 40
11.0
 40
11.0
 40
11.0
 40
12.0
 40
12.0
 40
12.0
 40
13.0
 40
13.0
 40
13.0
 40
14.0
 40
14.0
 40
14.0
 40
15.0
 40
15.0
 40
15.0
 40
16.0
 40
16.0
 40
16.0
 40
17.0
 40
17.0
 40
17.0
 40
18.0
 40
18.0
 40
18.0
 40
19.0
 40
19.0
 40
19.0
 40
20.0
 40
20.0
 40
20.0
 40
21.0
 40
21.0
 40
21.0
 40
22.0
 40
22.0
 40
22.0
 40
23.0
 40
23.0
 40
23.0
 40
24.0
 40
24.0
 40
24.0
 40
25.0
 40
25.0
 40
25.0
 40
26.0
 40
26.0
 40
26.0
 40
27.0
 40
27.0
 40
27.0
 40
28.0
 40
28.0
 40
28.0
 40
29.0
 40
29.0
 40
29.0
 40
30.0
 40
30.0
 40
30.0
 40
31.0
 40
31.0
 40
31.0
 40
32.0
 40
32.0
 40
32.0
 40
33.0
 40
33.0
 40
33.0
 40
34.0
 40
34.0
 40
34.0
 40
35.0
 40
35.0
 40
35.0
 40
36.0
 40
36.0
 40
36.0
 40
37.0
 40
37.0
 40
37.0
 40
38.0
 40
38.0
 40
38.0
 40
39.0
 40
39.0
 40
39.0
 40
40.0
 40
40.0
 40
40.0
 40
41.0
 40
41.0
 40
41.0
 40
42.0
 40
42.0
 40
42.0
 40
43.0
 40
43.0
 40
43.0
 40
44.0
 40
44.0
 40
44.0
 40
45.0
 40
45.0
 40
45.0
 40
46.0
 40
46.0
 40
46.0
 40
47.0
 40
47.0
 40
47.0
 40
48.0
 40
48.0
 40
48.0
 40
49.0
 40
49.0
 40
49.0
 40
50.0
 40
50.0
 40
50.0
 40
51.0
 40
51.0
 40
51.0
 40
52.0
 40
52.0
 40
52.0
 40
53.0
 40
53.0
 40
53.0
 40
54.0
 40
54.0
 40
54.0
 40
55.0
 40
55.0
 40
55.0
 40
56.0
 40
56.0
 40
56.0
 40
57.0
 40
57.0
 40
57.0
 40
58.0
 40
58.0
 40
58.0
 40
59.0
 40
59.0
 40
59.0
 40
60.0
 40
60.0
 40
60.0
 40
61.0
 40
61.0
 40
61.0
 40
62.0
 40
62.0
 40
62.0
 40
63.0
 40
63.0
 40
63.0
 40
64.0
 40
64.0
 40
64.0
 40
65.0
 40
65.0
 40
65.0
 40
66.0
 40
66.0
 40
66.0
 40
67.0
 40
67.0
 40
67.0
 40
68.0
 40
68.0
 40
68.0
 40
69.0
 40
69.0
 40
69.0
 40
70.0
 40
70.0
 40
70.0
 40
71.0
 40
71.0
 40
71.0
 40
72.0
 40
72.0
 40
72.0
 40
73.0
 40
73.0
 40
73.0
 40
74.0
 40
74.0
 40
74.0
 40
75.0
 40
75.0
 40
75.0
 40
76.0
 40
76.0
 40
76.0
 40
77.0
 40
77.0
 40
77.0
 40
78.0
 40
78.0
 40
78.0
 40
79.0
 40
79.0
 40
79.0
 40
79.0
 10
85.22132701862523
 20
-119.7205132079171
 30
0.0
 10
85.22132701862523
 20
-119.7205132079171
 30
0.0
 10
84.99946286937514
 20
-119.7205132079171
 30
0.0
 10
84.99946286937514
 20
-119.7205132079171
 30
0.0
 10
84.99946286937514
 20
-119.7205132079171
 30
0.0
 10
84.75658363766503
 20
-119.7205132079171
 30
0.0
 10
84.75658363766503
 20
-119.7205132079171
 30
0.0
 10
84.75658363766503
 20
-119.7205132079171
 30
0.0
 10
84.8678602218386
 20
-119.7628878823857
 30
0.0
 10
84.8678602218386
 20
-119.7628878823857
 30
0.0
 10
84.87716197964878
 20
-119.7671942517422
 30
0.0
 10
84.88818628520157
 20
-119.7733954236157
 30
0.0
 10
84.88818628520157
 20
-119.7861422769111
 30
0.0
 10
84.88818628520157
 20
-119.8073296141454
 30
0.0
 10
84.86028101177105
 20
-119.8137030407931
 30
0.0
 10
84.84202200569922
 20
-119.8178371553754
 30
0.0
 10
84.83272024788904
 20
-119.8410915499008
 30
0.0
 10
84.80653752220115
 20
-119.9067206188949
 30
0.0
 10
84.79000106387196
 20
-119.9511623506546
 30
0.0
 10
84.79000106387196
 20
-119.9511623506546
 30
0.0
 10
85.02702363325713
 20
-119.9511623506546
 30
0.0
 10
85.02702363325713
 20
-119.9511623506546
 30
0.0
 10
85.1066053389664
 20
-119.9511623506546
 30
0.0
 10
85.2788601132289
 20
-119.946855981298
 30
0.0
 10
85.4028835506979
 20
-119.9384154973591
 30
0.0
 10
85.4028835506979
 20
-119.9384154973591
 30
0.0
 10
85.4028835506979
 20
-120.116182424398
 30
0.0
 10
85.4028835506979
 20
-120.116182424398
 30
0.0
 10
85.33088105505617
 20
-120.1118760550415
 30
0.0
 10
85.31227753943583
 20
-120.1118760550415
 30
0.0
 10
85.15483667575991
 20
-120.1077419404592
 30
0.0
 10
85.12693140232938
 20
-120.2620822181984
 30
0.0
 10
85.08834633289459
 20
-120.342525197779
 30
0.0
 10
85.04941675391126
 20
-120.4122883813553
 30
0.0
 10
85.15483667575991
 20
-120.4715440237016
 30
0.0
 10
85.24750974431312
 20
-120.5392401499867
 30
0.0
 10
85.3381157555752
 20
-120.6217501868585
 30
0.0
 10
85.3381157555752
 20
-120.6217501868585
 30
0.0
 10
85.23441838146918
 20
-120.7888373178931
 30
0.0
 10
85.23441838146918
 20
-120.7888373178931
 30
0.0
 10
85.2140923181062
 20
-120.7698892927242
 30
0.0
 10
85.2030680125534
 20
-120.7614488087853
 30
0.0
 10
85.10488279122379
 20
-120.6766994598482
 30
0.0
 10
85.06216360720668
 20
-120.6386311547362
 30
0.0
 10
85.01048717492793
 20
-120.6028021616896
 30
0.0
 10
84.94020722702884
 20
-120.5583604299299
 30
0.0
 10
84.7548610899224
 20
-120.7445678409076
 30
0.0
 10
84.57537161514088
 20
-120.767822235433
 30
0.0
 10
84.32146807787797
 20
-120.7974500566062
 30
0.0
 10
84.32146807787797
 20
-120.7974500566062
 30
0.0
 10
84.2308620666159
 20
-120.6176160722762
 30
0.0
 10
84.2308620666159
 20
-120.6176160722762
 30
0.0
 10
84.50853676272703
 20
-120.6133097029196
 30
0.0
 10
84.66218802136918
 20
-120.587988251103
 30
0.0
 10
84.79551321664835
 20
-120.4779174503493
 30
0.0
 10
84.69181584254233
 20
-120.4271022919418
 30
0.0
 10
84.61430119412421
 20
-120.3997137828341
 30
0.0
 10
84.5826063156599
 20
-120.3869669295387
 30
0.0
 10
84.5660698573307
 20
-120.4145276934207
 30
0.0
 10
84.55297849448677
 20
-120.4334757185895
 30
0.0
 10
84.52886282609
 20
-120.4674099091193
 30
0.0
 10
84.52886282609
 20
-120.4674099091193
 30
0.0
 10
84.35660805182752
 20
-120.3848998722475
 30
0.0
 10
84.35660805182752
 20
-120.3848998722475
 30
0.0
 10
84.42895505701776
 20
-120.3044568926669
 30
0.0
 10
84.48269854658766
 20
-120.2092000024998
 30
0.0
 10
84.53265243112378
 20
-120.1077419404592
 30
0.0
 10
84.3659098096377
 20
-120.1118760550415
 30
0.0
 10
84.34765080356587
 20
-120.1118760550415
 30
0.0
 10
84.27530379837562
 20
-120.116182424398
 30
0.0
 10
84.27530379837562
 20
-120.116182424398
 30
0.0
 10
84.27530379837562
 20
-119.9384154973591
 30
0.0
 10
84.27530379837562
 20
-119.9384154973591
 30
0.0
 10
84.39760468810199
 20
-119.9447889240069
 30
0.0
 10
84.58088376791729
 20
-119.9490952933634
 30
0.0
 10
84.60293237902289
 20
-119.9490952933634
 30
0.0
 10
84.61774628960946
 20
-119.9151611028337
 30
0.0
 10
84.66597762640295
 20
-119.79458276085
 30
0.0
 10
84.68251408473215
 20
-119.7205132079171
 30
0.0
 10
84.66597762640295
 20
-119.7205132079171
 30
0.0
 10
84.51025931046966
 20
-119.7268866345648
 30
0.0
 10
84.34007159349832
 20
-119.7396334878602
 30
0.0
 10
84.34007159349832
 20
-119.7396334878602
 30
0.0
 10
84.34007159349832
 20
-119.8729586831394
 30
0.0
 10
84.34007159349832
 20
-119.8729586831394
 30
0.0
 10
84.29735240948122
 20
-119.898280134956
 30
0.0
 10
84.24567597720247
 20
-119.9299750134203
 30
0.0
 10
84.12888724025251
 20
-119.9956040824143
 30
0.0
 10
84.12888724025251
 20
-119.9956040824143
 30
0.0
 10
84.12888724025251
 20
-120.1415038762146
 30
0.0
 10
84.12888724025251
 20
-120.1415038762146
 30
0.0
 10
84.12888724025251
 20
-120.1415038762146
 30
0.0
 10
84.12888724025251
 20
-120.6091755883373
 30
0.0
 10
84.12888724025251
 20
-120.6091755883373
 30
0.0
 10
84.12888724025251
 20
-120.7359551021945
 30
0.0
 10
84.09753687133673
 20
-120.7952107445408
 30
0.0
 10
83.84948999639875
 20
-120.7867702606019
 30
0.0
 10
83.84948999639875
 20
-120.7867702606019
 30
0.0
 10
83.75853947558815
 20
-120.5795477671641
 30
0.0
 10
83.75853947558815
 20
-120.5795477671641
 30
0.0
 10
83.81435002244919
 20
-120.5921223656853
 30
0.0
 10
83.85672469691777
 20
-120.5964287350419
 30
0.0
 10
83.89186467086732
 20
-120.5964287350419
 30
0.0
 10
83.95869952328117
 20
-120.5964287350419
 30
0.0
 10
83.96800128109133
 20
-120.5731743405164
 30
0.0
 10
83.96800128109133
 20
-120.5075452715224
 30
0.0
 10
83.96800128109133
 20
-120.5075452715224
 30
0.0
 10
83.96800128109133
 20
-120.078114119286
 30
0.0
 10
83.96800128109133
 20
-120.078114119286
 30
0.0
 10
83.88256291305714
 20
-120.1182494816892
 30
0.0
 10
83.86774900247056
 20
-120.1246229083369
 30
0.0
 10
83.82709687574462
 20
-120.14374318828
 30
0.0
 10
83.82330727071084
 20
-120.1647582707401
 30
0.0
 10
83.8198621752256
 20
-120.1943860919132
 30
0.0
 10
83.80298120734787
 20
-120.1943860919132
 30
0.0
 10
83.79574650682885
 20
-120.1943860919132
 30
0.0
 10
83.78644474901867
 20
-120.1902519773309
 30
0.0
 10
83.78093259624227
 20
-120.1669975828055
 30
0.0
 10
83.78093259624227
 20
-120.1669975828055
 30
0.0
 10
83.7344238071914
 20
-119.97441674518
 30
0.0
 10
83.7344238071914
 20
-119.97441674518
 30
0.0
 10
83.86223684969417
 20
-119.9279079561291
 30
0.0
 10
83.91976994429784
 20
-119.9046535616037
 30
0.0
 10
83.96800128109133
 20
-119.8834662243694
 30
0.0
 10
83.96800128109133
 20
-119.8834662243694
 30
0.0
 10
83.96800128109133
 20
-119.4709160400107
 30
0.0
 10
83.96800128109133
 20
-119.4709160400107
 30
0.0
 10
83.96800128109133
 20
-119.4709160400107
 30
0.0
 10
83.92149249204046
 20
-119.4709160400107
 30
0.0
 10
83.92149249204046
 20
-119.4709160400107
 30
0.0
 10
83.92149249204046
 20
-119.4709160400107
 30
0.0
 10
83.85293509188399
 20
-119.4709160400107
 30
0.0
 10
83.85293509188399
 20
-119.4709160400107
 30
0.0
 10
83.79367944953769
 20
-119.4709160400107
 30
0.0
 10
83.78644474901867
 20
-119.4709160400107
 30
0.0
 10
83.7550943801029
 20
-119.4772894666585
 30
0.0
 10
83.7550943801029
 20
-119.4772894666585
 30
0.0
 10
83.7550943801029
 20
-119.2826415717418
 30
0.0
 10
83.7550943801029
 20
-119.2826415717418
 30
0.0
 10
83.77886553895112
 20
-119.2890149983896
 30
0.0
 10
83.78644474901867
 20
-119.2890149983896
 30
0.0
 10
83.84742293910759
 20
-119.2890149983896
 30
0.0
 10
83.84742293910759
 20
-119.2890149983896
 30
0.0
 10
83.96421167605756
 20
-119.2890149983896
 30
0.0
 10
83.96421167605756
 20
-119.2890149983896
 30
0.0
 10
83.96421167605756
 20
-119.2192518148132
 30
0.0
 10
83.96421167605756
 20
-119.1367417779415
 30
0.0
 10
83.96248912831494
 20
-119.132435408585
 30
0.0
 10
83.95490991824738
 20
-118.9526014242549
 30
0.0
 10
83.95490991824738
 20
-118.933653399086
 30
0.0
 10
83.95318737050476
 20
-118.8871446100352
 30
0.0
 10
83.95318737050476
 20
-118.8871446100352
 30
0.0
 10
84.14197860309645
 20
-118.895585093974
 30
0.0
 10
84.14197860309645
 20
-118.895585093974
 30
0.0
 10
84.15128036090663
 20
-118.895585093974
 30
0.0
 10
84.16988387652698
 20
-118.8976521512652
 30
0.0
 10
84.16988387652698
 20
-118.9145331191429
 30
0.0
 10
84.16988387652698
 20
-118.933653399086
 30
0.0
 10
84.15679251368303
 20
-118.9441609403161
 30
0.0
 10
84.1343993930289
 20
-118.9632812202592
 30
0.0
 10
84.1343993930289
 20
-119.0139241238924
 30
0.0
 10
84.12888724025251
 20
-119.2425062093387
 30
0.0
 10
84.13095429754365
 20
-119.2890149983896
 30
0.0
 10
84.24360891991132
 20
-119.2890149983896
 30
0.0
 10
84.25497773501264
 20
-119.2890149983896
 30
0.0
 10
84.34007159349832
 20
-119.2805745144507
 30
0.0
 10
84.34007159349832
 20
-119.2805745144507
 30
0.0
 10
84.34007159349832
 20
-119.4752224093673
 30
0.0
 10
84.34007159349832
 20
-119.4752224093673
 30
0.0
 10
84.3066541672914
 20
-119.4729830973019
 30
0.0
 10
84.2473985249451
 20
-119.4688489827196
 30
0.0
 10
84.12888724025251
 20
-119.4709160400107
 30
0.0
 10
84.12888724025251
 20
-119.4709160400107
 30
0.0
 10
84.12888724025251
 20
-119.8093966714365
 30
0.0
 10
84.12888724025251
 20
-119.8093966714365
 30
0.0
 10
84.177118577046
 20
-119.7861422769111
 30
0.0
 10
84.23465167164967
 20
-119.7585815130291
 30
0.0
 10
84.27702634611825
 20
-119.7353271185037
 30
0.0
 10
84.27702634611825
 20
-119.7353271185037
 30
0.0
 10
84.27702634611825
 20
-119.557732446239
 30
0.0
 10
84.27702634611825
 20
-119.557732446239
 30
0.0
 10
84.37727862473902
 20
-119.5703070447602
 30
0.0
 10
84.48063148929651
 20
-119.5703070447602
 30
0.0
 10
84.5826063156599
 20
-119.5703070447602
 30
0.0
 10
84.56228025229693
 20
-119.4752224093673
 30
0.0
 10
84.53816458390018
 20
-119.3927123724956
 30
0.0
 10
84.48269854658766
 20
-119.2593871772164
 30
0.0
 10
84.44376896760434
 20
-119.2614542345076
 30
0.0
 10
84.37142196241409
 20
-119.2657606038641
 30
0.0
 10
84.33834904575569
 20
-119.2678276611553
 30
0.0
 10
84.33834904575569
 20
-119.2678276611553
 30
0.0
 10
84.33834904575569
 20
-119.0879936768252
 30
0.0
 10
84.33834904575569
 20
-119.0879936768252
 30
0.0
 10
84.44755857263812
 20
-119.0964341607641
 30
0.0
 10
84.5991427739891
 20
-119.1007405301207
 30
0.0
 10
84.67148977917935
 20
-119.1007405301207
 30
0.0
 10
84.67148977917935
 20
-119.1007405301207
 30
0.0
 10
84.7438367843696
 20
-119.1007405301207
 30
0.0
 10
84.7438367843696
 20
-119.1007405301207
 30
0.0
 10
84.7438367843696
 20
-118.9377875136683
 30
0.0
 10
84.7438367843696
 20
-118.9272799724383
 30
0.0
 10
84.74176972707845
 20
-118.8723306994486
 30
0.0
 10
84.74176972707845
 20
-118.8723306994486
 30
0.0
 10
84.9381401697377
 20
-118.8976521512652
 30
0.0
 10
84.9381401697377
 20
-118.8976521512652
 30
0.0
 10
84.94192977477147
 20
-118.8976521512652
 30
0.0
 10
84.96053329039181
 20
-118.8997192085563
 30
0.0
 10
84.96053329039181
 20
-118.916600176434
 30
0.0
 10
84.96053329039181
 20
-118.9314140870206
 30
0.0
 10
84.95123153258164
 20
-118.9400268257338
 30
0.0
 10
84.9271158641849
 20
-118.9548407363203
 30
0.0
 10
84.9216037114085
 20
-119.0202975505401
 30
0.0
 10
84.91953665411734
 20
-119.0414848877744
 30
0.0
 10
84.91953665411734
 20
-119.1007405301207
 30
0.0
 10
84.91953665411734
 20
-119.1007405301207
 30
0.0
 10
85.00290796486038
 20
-119.1007405301207
 30
0.0
 10
85.00290796486038
 20
-119.1007405301207
 30
0.0
 10
85.07525497005064
 20
-119.1007405301207
 30
0.0
 10
85.22718368095015
 20
-119.0964341607641
 30
0.0
 10
85.33639320783257
 20
-119.0879936768252
 30
0.0
 10
85.33639320783257
 20
-119.0879936768252
 30
0.0
 10
85.33639320783257
 20
-119.2678276611553
 30
0.0
 10
85.33639320783257
 20
-119.2678276611553
 30
0.0
 10
85.31021048214467
 20
-119.2657606038641
 30
0.0
 10
85.20685761758718
 20
-119.2614542345076
 30
0.0
 10
85.17137313408911
 20
-119.2593871772164
 30
0.0
 10
85.15862628079368
 20
-119.3102023356238
 30
0.0
 10
85.12899845962053
 20
-119.4223401936687
 30
0.0
 10
85.07146536501686
 20
-119.5618665608213
 30
0.0
 10
85.10867239625756
 20
-119.5618665608213
 30
0.0
 10
85.35120711841914
 20
-119.5429185356525
 30
0.0
 10
85.40495060798905
 20
-119.5406792235871
 30
0.0
 10
85.40495060798905
 20
-119.5406792235871
 30
0.0
 10
85.40495060798905
 20
-119.7248195772737
 30
0.0
 10
85.40495060798905
 20
-119.7248195772737
 30
0.0
 10
85.37876788230115
 20
-119.7248195772737
 30
0.0
 10
85.36395397171457
 20
-119.7205132079171
 30
0.0
 10
85.22132701862523
 20
-119.7205132079171
 30
0.0
  0
SPLINE
  5
A7
330
A2
100
AcDbEntity
  8
_U+30EC_U+30A4_U+30E4_U+30FC 1
370
     0
100
AcDbSpline
210
0.0
220
0.0
230
1.0
 70
    11
 71
     3
 72
    20
 73
    16
 74
     0
 42
0.0000000001
 43
0.0000000001
 12
1.0
 22
0.0
 32
0.0
 13
1.0
 23
0.0
 33
0.0
 40
0.0
 40
0.0
 40
0.0
 40
0.0
 40
1.0
 40
1.0
 40
1.0
 40
2.0
 40
2.0
 40
2.0
 40
3.0
 40
3.0
 40
3.0
 40
4.0
 40
4.0
 40
4.0
 40
5.0
 40
5.0
 40
5.0
 40
5.0
 10
84.67148977917935
 20
-119.2552530626341
 30
0.0
 10
84.67148977917935
 20
-119.2552530626341
 30
0.0
 10
84.64392901529736
 20
-119.2552530626341
 30
0.0
 10
84.64392901529736
 20
-119.2552530626341
 30
0.0
 10
84.6845811420233
 20
-119.3546440673836
 30
0.0
 10
84.7121419059053
 20
-119.4349147921899
 30
0.0
 10
84.74176972707845
 20
-119.5618665608213
 30
0.0
 10
84.74176972707845
 20
-119.5618665608213
 30
0.0
 10
84.92332625915111
 20
-119.5618665608213
 30
0.0
 10
84.92332625915111
 20
-119.5618665608213
 30
0.0
 10
84.95123153258164
 20
-119.4688489827196
 30
0.0
 10
84.97155759594462
 20
-119.3842718885567
 30
0.0
 10
84.99188365930759
 20
-119.2552530626341
 30
0.0
 10
84.99188365930759
 20
-119.2552530626341
 30
0.0
 10
84.67148977917935
 20
-119.2552530626341
 30
0.0
 10
84.67148977917935
 20
-119.2552530626341
 30
0.0
  0
SPLINE
  5
A8
330
A2
100
AcDbEntity
  8
_U+30EC_U+30A4_U+30E4_U+30FC 1
370
     0
100
AcDbSpline
210
0.0
220
0.0
230
1.0
 70
    11
 71
     3
 72
    17
 73
    13
 74
     0
 42
0.0000000001
 43
0.0000000001
 12
1.0
 22
0.0
 32
0.0
 13
1.0
 23
0.0
 33
0.0
 40
0.0
 40
0.0
 40
0.0
 40
0.0
 40
1.0
 40
1.0
 40
1.0
 40
2.0
 40
2.0
 40
2.0
 40
3.0
 40
3.0
 40
3.0
 40
4.0
 40
4.0
 40
4.0
 40
4.0
 10
84.72695581649188
 20
-120.105674883168
 30
0.0
 10
84.7121419059053
 20
-120.1351304495669
 30
0.0
 10
84.66770017414558
 20
-120.2283202824429
 30
0.0
 10
84.6583984163354
 20
-120.2472683076118
 30
0.0
 10
84.8251410378215
 20
-120.3065239499581
 30
0.0
 10
84.84374455344185
 20
-120.3128973766058
 30
0.0
 10
84.90678980082191
 20
-120.3404581404878
 30
0.0
 10
84.95467662806689
 20
-120.2536417342595
 30
0.0
 10
84.97534720097839
 20
-120.1795721813266
 30
0.0
 10
84.98809405427382
 20
-120.105674883168
 30
0.0
 10
84.98809405427382
 20
-120.105674883168
 30
0.0
 10
84.72695581649188
 20
-120.105674883168
 30
0.0
 10
84.72695581649188
 20
-120.105674883168
 30
0.0
  0
HATCH
  5
A9
330
A2
100
AcDbEntity
  8
_U+30EC_U+30A4_U+30E4_U+30FC 1
 62
   179
420
  2234388
100
AcDbHatch
 10
0.0
 20
0.0
 30
0.0
210
0.0
220
0.0
230
1.0
  2
SOLID
 70
     1
 71
     0
 91
        3
 92
        1
 93
        1
 72
     4
 94
        3
 73
     0
 74
     1
 95
      242
 96
      238
 40
0.0
 40
0.0
 40
0.0
 40
0.0
 40
1.0
 40
1.0
 40
1.0
 40
2.0
 40
2.0
 40
2.0
 40
3.0
 40
3.0
 40
3.0
 40
4.0
 40
4.0
 40
4.0
 40
5.0
 40
5.0
 40
5.0
 40
6.0
 40
6.0
 40
6.0
 40
7.0
 40
7.0
 40
7.0
 40
8.0
 40
8.0
 40
8.0
 40
9.0
 40
9.0
 40
9.0
 40
10.0
 40
10.0
 40
10.0
 40
11.0
 40
11.0
 40
11.0
 40
12.0
 40
12.0
 40
12.0
 40
13.0
 40
13.0
 40
13.0
 40
14.0
 40
14.0
 40
14.0
 40
15.0
 40
15.0
 40
15.0
 40
16.0
 40
16.0
 40
16.0
 40
17.0
 40
17.0
 40
17.0
 40
18.0
 40
18.0
 40
18.0
 40
19.0
 40
19.0
 40
19.0
 40
20.0
 40
20.0
 40
20.0
 40
21.0
 40
21.0
 40
21.0
 40
22.0
 40
22.0
 40
22.0
 40
23.0
 40
23.0
 40
23.0
 40
24.0
 40
24.0
 40
24.0
 40
25.0
 40
25.0
 40
25.0
 40
26.0
 40
26.0
 40
26.0
 40
27.0
 40
27.0
 40
27.0
 40
28.0
 40
28.0
 40
28.0
 40
29.0
 40
29.0
 40
29.0
 40
30.0
 40
30.0
 40
30.0
 40
31.0
 40
31.0
 40
31.0
 40
32.0
 40
32.0
 40
32.0
 40
33.0
 40
33.0
 40
33.0
 40
34.0
 40
34.0
 40
34.0
 40
35.0
 40
35.0
 40
35.0
 40
36.0
 40
36.0
 40
36.0
 40
37.0
 40
37.0
 40
37.0
 40
38.0
 40
38.0
 40
38.0
 40
39.0
 40
39.0
 40
39.0
 40
40.0
 40
40.0
 40
40.0
 40
41.0
 40
41.0
 40
41.0
 40
42.0
 40
42.0
 40
42.0
 40
43.0
 40
43.0
 40
43.0
 40
44.0
 40
44.0
 40
44.0
 40
45.0
 40
45.0
 40
45.0
 40
46.0
 40
46.0
 40
46.0
 40
47.0
 40
47.0
 40
47.0
 40
48.0
 40
48.0
 40
48.0
 40
49.0
 40
49.0
 40
49.0
 40
50.0
 40
50.0
 40
50.0
 40
51.0
 40
51.0
 40
51.0
 40
52.0
 40
52.0
 40
52.0
 40
53.0
 40
53.0
 40
53.0
 40
54.0
 40
54.0
 40
54.0
 40
55.0
 40
55.0
 40
55.0
 40
56.0
 40
56.0
 40
56.0
 40
57.0
 40
57.0
 40
57.0
 40
58.0
 40
58.0
 40
58.0
 40
59.0
 40
59.0
 40
59.0
 40
60.0
 40
60.0
 40
60.0
 40
61.0
 40
61.0
 40
61.0
 40
62.0
 40
62.0
 40
62.0
 40
63.0
 40
63.0
 40
63.0
 40
64.0
 40
64.0
 40
64.0
 40
65.0
 40
65.0
 40
65.0
 40
66.0
 40
66.0
 40
66.0
 40
67.0
 40
67.0
 40
67.0
 40
68.0
 40
68.0
 40
68.0
 40
69.0
 40
69.0
 40
69.0
 40
70.0
 40
70.0
 40
70.0
 40
71.0
 40
71.0
 40
71.0
 40
72.0
 40
72.0
 40
72.0
 40
73.0
 40
73.0
 40
73.0
 40
74.0
 40
74.0
 40
74.0
 40
75.0
 40
75.0
 40
75.0
 40
76.0
 40
76.0
 40
76.0
 40
77.0
 40
77.0
 40
77.0
 40
78.0
 40
78.0
 40
78.0
 40
79.0
 40
79.0
 40
79.0
 40
79.0
 10
85.22132701862523
 20
-119.7205132079171
 10
85.22132701862523
 20
-119.7205132079171
 10
84.99946286937514
 20
-119.7205132079171
 10
84.99946286937514
 20
-119.7205132079171
 10
84.99946286937514
 20
-119.7205132079171
 10
84.75658363766503
 20
-119.7205132079171
 10
84.75658363766503
 20
-119.7205132079171
 10
84.75658363766503
 20
-119.7205132079171
 10
84.8678602218386
 20
-119.7628878823857
 10
84.8678602218386
 20
-119.7628878823857
 10
84.87716197964878
 20
-119.7671942517422
 10
84.88818628520157
 20
-119.7733954236157
 10
84.88818628520157
 20
-119.7861422769111
 10
84.88818628520157
 20
-119.8073296141454
 10
84.86028101177105
 20
-119.8137030407931
 10
84.84202200569922
 20
-119.8178371553754
 10
84.83272024788904
 20
-119.8410915499008
 10
84.80653752220115
 20
-119.9067206188949
 10
84.79000106387196
 20
-119.9511623506546
 10
84.79000106387196
 20
-119.9511623506546
 10
85.02702363325713
 20
-119.9511623506546
 10
85.02702363325713
 20
-119.9511623506546
 10
85.1066053389664
 20
-119.9511623506546
 10
85.2788601132289
 20
-119.946855981298
 10
85.4028835506979
 20
-119.9384154973591
 10
85.4028835506979
 20
-119.9384154973591
 10
85.4028835506979
 20
-120.116182424398
 10
85.4028835506979
 20
-120.116182424398
 10
85.33088105505617
 20
-120.1118760550415
 10
85.31227753943583
 20
-120.1118760550415
 10
85.15483667575991
 20
-120.1077419404592
 10
85.12693140232938
 20
-120.2620822181984
 10
85.08834633289459
 20
-120.342525197779
 10
85.04941675391126
 20
-120.4122883813553
 10
85.15483667575991
 20
-120.4715440237016
 10
85.24750974431312
 20
-120.5392401499867
 10
85.3381157555752
 20
-120.6217501868585
 10
85.3381157555752
 20
-120.6217501868585
 10
85.23441838146918
 20
-120.7888373178931
 10
85.23441838146918
 20
-120.7888373178931
 10
85.2140923181062
 20
-120.7698892927242
 10
85.2030680125534
 20
-120.7614488087853
 10
85.10488279122379
 20
-120.6766994598482
 10
85.06216360720668
 20
-120.6386311547362
 10
85.01048717492793
 20
-120.6028021616896
 10
84.94020722702884
 20
-120.5583604299299
 10
84.7548610899224
 20
-120.7445678409076
 10
84.57537161514088
 20
-120.767822235433
 10
84.32146807787797
 20
-120.7974500566062
 10
84.32146807787797
 20
-120.7974500566062
 10
84.2308620666159
 20
-120.6176160722762
 10
84.2308620666159
 20
-120.6176160722762
 10
84.50853676272703
 20
-120.6133097029196
 10
84.66218802136918
 20
-120.587988251103
 10
84.79551321664835
 20
-120.4779174503493
 10
84.69181584254233
 20
-120.4271022919418
 10
84.61430119412421
 20
-120.3997137828341
 10
84.5826063156599
 20
-120.3869669295387
 10
84.5660698573307
 20
-120.4145276934207
 10
84.55297849448677
 20
-120.4334757185895
 10
84.52886282609
 20
-120.4674099091193
 10
84.52886282609
 20
-120.4674099091193
 10
84.35660805182752
 20
-120.3848998722475
 10
84.35660805182752
 20
-120.3848998722475
 10
84.42895505701776
 20
-120.3044568926669
 10
84.48269854658766
 20
-120.2092000024998
 10
84.53265243112378
 20
-120.1077419404592
 10
84.3659098096377
 20
-120.1118760550415
 10
84.34765080356587
 20
-120.1118760550415
 10
84.27530379837562
 20
-120.116182424398
 10
84.27530379837562
 20
-120.116182424398
 10
84.27530379837562
 20
-119.9384154973591
 10
84.27530379837562
 20
-119.9384154973591
 10
84.39760468810199
 20
-119.9447889240069
 10
84.58088376791729
 20
-119.9490952933634
 10
84.60293237902289
 20
-119.9490952933634
 10
84.61774628960946
 20
-119.9151611028337
 10
84.66597762640295
 20
-119.79458276085
 10
84.68251408473215
 20
-119.7205132079171
 10
84.66597762640295
 20
-119.7205132079171
 10
84.51025931046966
 20
-119.7268866345648
 10
84.34007159349832
 20
-119.7396334878602
 10
84.34007159349832
 20
-119.7396334878602
 10
84.34007159349832
 20
-119.8729586831394
 10
84.34007159349832
 20
-119.8729586831394
 10
84.29735240948122
 20
-119.898280134956
 10
84.24567597720247
 20
-119.9299750134203
 10
84.12888724025251
 20
-119.9956040824143
 10
84.12888724025251
 20
-119.9956040824143
 10
84.12888724025251
 20
-120.1415038762146
 10
84.12888724025251
 20
-120.1415038762146
 10
84.12888724025251
 20
-120.1415038762146
 10
84.12888724025251
 20
-120.6091755883373
 10
84.12888724025251
 20
-120.6091755883373
 10
84.12888724025251
 20
-120.7359551021945
 10
84.09753687133673
 20
-120.7952107445408
 10
83.84948999639875
 20
-120.7867702606019
 10
83.84948999639875
 20
-120.7867702606019
 10
83.75853947558815
 20
-120.5795477671641
 10
83.75853947558815
 20
-120.5795477671641
 10
83.81435002244919
 20
-120.5921223656853
 10
83.85672469691777
 20
-120.5964287350419
 10
83.89186467086732
 20
-120.5964287350419
 10
83.95869952328117
 20
-120.5964287350419
 10
83.96800128109133
 20
-120.5731743405164
 10
83.96800128109133
 20
-120.5075452715224
 10
83.96800128109133
 20
-120.5075452715224
 10
83.96800128109133
 20
-120.078114119286
 10
83.96800128109133
 20
-120.078114119286
 10
83.88256291305714
 20
-120.1182494816892
 10
83.86774900247056
 20
-120.1246229083369
 10
83.82709687574462
 20
-120.14374318828
 10
83.82330727071084
 20
-120.1647582707401
 10
83.8198621752256
 20
-120.1943860919132
 10
83.80298120734787
 20
-120.1943860919132
 10
83.79574650682885
 20
-120.1943860919132
 10
83.78644474901867
 20
-120.1902519773309
 10
83.78093259624227
 20
-120.1669975828055
 10
83.78093259624227
 20
-120.1669975828055
 10
83.7344238071914
 20
-119.97441674518
 10
83.7344238071914
 20
-119.97441674518
 10
83.86223684969417
 20
-119.9279079561291
 10
83.91976994429784
 20
-119.9046535616037
 10
83.96800128109133
 20
-119.8834662243694
 10
83.96800128109133
 20
-119.8834662243694
 10
83.96800128109133
 20
-119.4709160400107
 10
83.96800128109133
 20
-119.4709160400107
 10
83.96800128109133
 20
-119.4709160400107
 10
83.92149249204046
 20
-119.4709160400107
 10
83.92149249204046
 20
-119.4709160400107
 10
83.92149249204046
 20
-119.4709160400107
 10
83.85293509188399
 20
-119.4709160400107
 10
83.85293509188399
 20
-119.4709160400107
 10
83.79367944953769
 20
-119.4709160400107
 10
83.78644474901867
 20
-119.4709160400107
 10
83.7550943801029
 20
-119.4772894666585
 10
83.7550943801029
 20
-119.4772894666585
 10
83.7550943801029
 20
-119.2826415717418
 10
83.7550943801029
 20
-119.2826415717418
 10
83.77886553895112
 20
-119.2890149983896
 10
83.78644474901867
 20
-119.2890149983896
 10
83.84742293910759
 20
-119.2890149983896
 10
83.84742293910759
 20
-119.2890149983896
 10
83.96421167605756
 20
-119.2890149983896
 10
83.96421167605756
 20
-119.2890149983896
 10
83.96421167605756
 20
-119.2192518148132
 10
83.96421167605756
 20
-119.1367417779415
 10
83.96248912831494
 20
-119.132435408585
 10
83.95490991824738
 20
-118.9526014242549
 10
83.95490991824738
 20
-118.933653399086
 10
83.95318737050476
 20
-118.8871446100352
 10
83.95318737050476
 20
-118.8871446100352
 10
84.14197860309645
 20
-118.895585093974
 10
84.14197860309645
 20
-118.895585093974
 10
84.15128036090663
 20
-118.895585093974
 10
84.16988387652698
 20
-118.8976521512652
 10
84.16988387652698
 20
-118.9145331191429
 10
84.16988387652698
 20
-118.933653399086
 10
84.15679251368303
 20
-118.9441609403161
 10
84.1343993930289
 20
-118.9632812202592
 10
84.1343993930289
 20
-119.0139241238924
 10
84.12888724025251
 20
-119.2425062093387
 10
84.13095429754365
 20
-119.2890149983896
 10
84.24360891991132
 20
-119.2890149983896
 10
84.25497773501264
 20
-119.2890149983896
 10
84.34007159349832
 20
-119.2805745144507
 10
84.34007159349832
 20
-119.2805745144507
 10
84.34007159349832
 20
-119.4752224093673
 10
84.34007159349832
 20
-119.4752224093673
 10
84.3066541672914
 20
-119.4729830973019
 10
84.2473985249451
 20
-119.4688489827196
 10
84.12888724025251
 20
-119.4709160400107
 10
84.12888724025251
 20
-119.4709160400107
 10
84.12888724025251
 20
-119.8093966714365
 10
84.12888724025251
 20
-119.8093966714365
 10
84.177118577046
 20
-119.7861422769111
 10
84.23465167164967
 20
-119.7585815130291
 10
84.27702634611825
 20
-119.7353271185037
 10
84.27702634611825
 20
-119.7353271185037
 10
84.27702634611825
 20
-119.557732446239
 10
84.27702634611825
 20
-119.557732446239
 10
84.37727862473902
 20
-119.5703070447602
 10
84.48063148929651
 20
-119.5703070447602
 10
84.5826063156599
 20
-119.5703070447602
 10
84.56228025229693
 20
-119.4752224093673
 10
84.53816458390018
 20
-119.3927123724956
 10
84.48269854658766
 20
-119.2593871772164
 10
84.44376896760434
 20
-119.2614542345076
 10
84.37142196241409
 20
-119.2657606038641
 10
84.33834904575569
 20
-119.2678276611553
 10
84.33834904575569
 20
-119.2678276611553
 10
84.33834904575569
 20
-119.0879936768252
 10
84.33834904575569
 20
-119.0879936768252
 10
84.44755857263812
 20
-119.0964341607641
 10
84.5991427739891
 20
-119.1007405301207
 10
84.67148977917935
 20
-119.1007405301207
 10
84.67148977917935
 20
-119.1007405301207
 10
84.7438367843696
 20
-119.1007405301207
 10
84.7438367843696
 20
-119.1007405301207
 10
84.7438367843696
 20
-118.9377875136683
 10
84.7438367843696
 20
-118.9272799724383
 10
84.74176972707845
 20
-118.8723306994486
 10
84.74176972707845
 20
-118.8723306994486
 10
84.9381401697377
 20
-118.8976521512652
 10
84.9381401697377
 20
-118.8976521512652
 10
84.94192977477147
 20
-118.8976521512652
 10
84.96053329039181
 20
-118.8997192085563
 10
84.96053329039181
 20
-118.916600176434
 10
84.96053329039181
 20
-118.9314140870206
 10
84.95123153258164
 20
-118.9400268257338
 10
84.9271158641849
 20
-118.9548407363203
 10
84.9216037114085
 20
-119.0202975505401
 10
84.91953665411734
 20
-119.0414848877744
 10
84.91953665411734
 20
-119.1007405301207
 10
84.91953665411734
 20
-119.1007405301207
 10
85.00290796486038
 20
-119.1007405301207
 10
85.00290796486038
 20
-119.1007405301207
 10
85.07525497005064
 20
-119.1007405301207
 10
85.22718368095015
 20
-119.0964341607641
 10
85.33639320783257
 20
-119.0879936768252
 10
85.33639320783257
 20
-119.0879936768252
 10
85.33639320783257
 20
-119.2678276611553
 10
85.33639320783257
 20
-119.2678276611553
 10
85.31021048214467
 20
-119.2657606038641
 10
85.20685761758718
 20
-119.2614542345076
 10
85.17137313408911
 20
-119.2593871772164
 10
85.15862628079368
 20
-119.3102023356238
 10
85.12899845962053
 20
-119.4223401936687
 10
85.07146536501686
 20
-119.5618665608213
 10
85.10867239625756
 20
-119.5618665608213
 10
85.35120711841914
 20
-119.5429185356525
 10
85.40495060798905
 20
-119.5406792235871
 10
85.40495060798905
 20
-119.5406792235871
 10
85.40495060798905
 20
-119.7248195772737
 10
85.40495060798905
 20
-119.7248195772737
 10
85.37876788230115
 20
-119.7248195772737
 10
85.36395397171457
 20
-119.7205132079171
 10
85.22132701862523
 20
-119.7205132079171
 97
        0
 97
        0
 92
        1
 93
        1
 72
     4
 94
        3
 73
     0
 74
     1
 95
       20
 96
       16
 40
0.0
 40
0.0
 40
0.0
 40
0.0
 40
1.0
 40
1.0
 40
1.0
 40
2.0
 40
2.0
 40
2.0
 40
3.0
 40
3.0
 40
3.0
 40
4.0
 40
4.0
 40
4.0
 40
5.0
 40
5.0
 40
5.0
 40
5.0
 10
84.67148977917935
 20
-119.2552530626341
 10
84.67148977917935
 20
-119.2552530626341
 10
84.64392901529736
 20
-119.2552530626341
 10
84.64392901529736
 20
-119.2552530626341
 10
84.6845811420233
 20
-119.3546440673836
 10
84.7121419059053
 20
-119.4349147921899
 10
84.74176972707845
 20
-119.5618665608213
 10
84.74176972707845
 20
-119.5618665608213
 10
84.92332625915111
 20
-119.5618665608213
 10
84.92332625915111
 20
-119.5618665608213
 10
84.95123153258164
 20
-119.4688489827196
 10
84.97155759594462
 20
-119.3842718885567
 10
84.99188365930759
 20
-119.2552530626341
 10
84.99188365930759
 20
-119.2552530626341
 10
84.67148977917935
 20
-119.2552530626341
 10
84.67148977917935
 20
-119.2552530626341
 97
        0
 97
        0
 92
        1
 93
        1
 72
     4
 94
        3
 73
     0
 74
     1
 95
       17
 96
       13
 40
0.0
 40
0.0
 40
0.0
 40
0.0
 40
1.0
 40
1.0
 40
1.0
 40
2.0
 40
2.0
 40
2.0
 40
3.0
 40
3.0
 40
3.0
 40
4.0
 40
4.0
 40
4.0
 40
4.0
 10
84.72695581649188
 20
-120.105674883168
 10
84.7121419059053
 20
-120.1351304495669
 10
84.66770017414558
 20
-120.2283202824429
 10
84.6583984163354
 20
-120.2472683076118
 10
84.8251410378215
 20
-120.3065239499581
 10
84.84374455344185
 20
-120.3128973766058
 10
84.90678980082191
 20
-120.3404581404878
 10
84.95467662806689
 20
-120.2536417342595
 10
84.97534720097839
 20
-120.1795721813266
 10
84.98809405427382
 20
-120.105674883168
 10
84.98809405427382
 20
-120.105674883168
 10
84.72695581649188
 20
-120.105674883168
 10
84.72695581649188
 20
-120.105674883168
 97
        0
 97
        0
 75
     2
 76
     1
 98
        0
  0
SPLINE
  5
AA
330
A2
100
AcDbEntity
  8
_U+30EC_U+30A4_U+30E4_U+30FC 1
370
     0
100
AcDbSpline
210
0.0
220
0.0
230
1.0
 70
    11
 71
     3
 72
   203
 73
   199
 74
     0
 42
0.0000000001
 43
0.0000000001
 12
1.0
 22
0.0
 32
0.0
 13
1.0
 23
0.0
 33
0.0
 40
0.0
 40
0.0
 40
0.0
 40
0.0
 40
1.0
 40
1.0
 40
1.0
 40
2.0
 40
2.0
 40
2.0
 40
3.0
 40
3.0
 40
3.0
 40
4.0
 40
4.0
 40
4.0
 40
5.0
 40
5.0
 40
5.0
 40
6.0
 40
6.0
 40
6.0
 40
7.0
 40
7.0
 40
7.0
 40
8.0
 40
8.0
 40
8.0
 40
9.0
 40
9.0
 40
9.0
 40
10.0
 40
10.0
 40
10.0
 40
11.0
 40
11.0
 40
11.0
 40
12.0
 40
12.0
 40
12.0
 40
13.0
 40
13.0
 40
13.0
 40
14.0
 40
14.0
 40
14.0
 40
15.0
 40
15.0
 40
15.0
 40
16.0
 40
16.0
 40
16.0
 40
17.0
 40
17.0
 40
17.0
 40
18.0
 40
18.0
 40
18.0
 40
19.0
 40
19.0
 40
19.0
 40
20.0
 40
20.0
 40
20.0
 40
21.0
 40
21.0
 40
21.0
 40
22.0
 40
22.0
 40
22.0
 40
23.0
 40
23.0
 40
23.0
 40
24.0
 40
24.0
 40
24.0
 40
25.0
 40
25.0
 40
25.0
 40
26.0
 40
26.0
 40
26.0
 40
27.0
 40
27.0
 40
27.0
 40
28.0
 40
28.0
 40
28.0
 40
29.0
 40
29.0
 40
29.0
 40
30.0
 40
30.0
 40
30.0
 40
31.0
 40
31.0
 40
31.0
 40
32.0
 40
32.0
 40
32.0
 40
33.0
 40
33.0
 40
33.0
 40
34.0
 40
34.0
 40
34.0
 40
35.0
 40
35.0
 40
35.0
 40
36.0
 40
36.0
 40
36.0
 40
37.0
 40
37.0
 40
37.0
 40
38.0
 40
38.0
 40
38.0
 40
39.0
 40
39.0
 40
39.0
 40
40.0
 40
40.0
 40
40.0
 40
41.0
 40
41.0
 40
41.0
 40
42.0
 40
42.0
 40
42.0
 40
43.0
 40
43.0
 40
43.0
 40
44.0
 40
44.0
 40
44.0
 40
45.0
 40
45.0
 40
45.0
 40
46.0
 40
46.0
 40
46.0
 40
47.0
 40
47.0
 40
47.0
 40
48.0
 40
48.0
 40
48.0
 40
49.0
 40
49.0
 40
49.0
 40
50.0
 40
50.0
 40
50.0
 40
51.0
 40
51.0
 40
51.0
 40
52.0
 40
52.0
 40
52.0
 40
53.0
 40
53.0
 40
53.0
 40
54.0
 40
54.0
 40
54.0
 40
55.0
 40
55.0
 40
55.0
 40
56.0
 40
56.0
 40
56.0
 40
57.0
 40
57.0
 40
57.0
 40
58.0
 40
58.0
 40
58.0
 40
59.0
 40
59.0
 40
59.0
 40
60.0
 40
60.0
 40
60.0
 40
61.0
 40
61.0
 40
61.0
 40
62.0
 40
62.0
 40
62.0
 40
63.0
 40
63.0
 40
63.0
 40
64.0
 40
64.0
 40
64.0
 40
65.0
 40
65.0
 40
65.0
 40
66.0
 40
66.0
 40
66.0
 40
66.0
 10
86.7034070963797
 20
-119.7882093342023
 30
0.0
 10
86.7034070963797
 20
-119.7882093342023
 30
0.0
 10
86.21454804702276
 20
-119.7882093342023
 30
0.0
 10
86.21454804702276
 20
-119.7882093342023
 30
0.0
 10
86.20524628921258
 20
-119.832651065962
 30
0.0
 10
86.19801158869356
 20
-119.8643459444263
 30
0.0
 10
86.18664277359223
 20
-119.9025865043126
 30
0.0
 10
86.20903589424636
 20
-119.9025865043126
 30
0.0
 10
86.2221272570903
 20
-119.9046535616037
 30
0.0
 10
86.22763940986671
 20
-119.9046535616037
 30
0.0
 10
86.22763940986671
 20
-119.9046535616037
 30
0.0
 10
86.39231497406165
 20
-119.9046535616037
 30
0.0
 10
86.39231497406165
 20
-119.9046535616037
 30
0.0
 10
86.39231497406165
 20
-119.9046535616037
 30
0.0
 10
86.7199435547089
 20
-119.9046535616037
 30
0.0
 10
86.7199435547089
 20
-119.9046535616037
 30
0.0
 10
86.76472979601715
 20
-119.9046535616037
 30
0.0
 10
87.01277667095515
 20
-119.8919067083083
 30
0.0
 10
87.04033743483714
 20
-119.8919067083083
 30
0.0
 10
87.03861488709451
 20
-119.9194674721903
 30
0.0
 10
87.0368923393519
 20
-119.9384154973591
 30
0.0
 10
87.0368923393519
 20
-119.9680433185323
 30
0.0
 10
87.03482528206074
 20
-119.9997381969966
 30
0.0
 10
87.03482528206074
 20
-120.1351304495669
 30
0.0
 10
87.03482528206074
 20
-120.1626912134489
 30
0.0
 10
87.03482528206074
 20
-120.1626912134489
 30
0.0
 10
87.03482528206074
 20
-120.408154266773
 30
0.0
 10
87.03482528206074
 20
-120.408154266773
 30
0.0
 10
87.03482528206074
 20
-120.4525959985327
 30
0.0
 10
87.03861488709451
 20
-120.6493109507405
 30
0.0
 10
87.0424044921283
 20
-120.8015841711885
 30
0.0
 10
87.0424044921283
 20
-120.8015841711885
 30
0.0
 10
86.84431150172642
 20
-120.8015841711885
 30
0.0
 10
86.84431150172642
 20
-120.8015841711885
 30
0.0
 10
86.84431150172642
 20
-120.8015841711885
 30
0.0
 10
86.84603404946905
 20
-120.767822235433
 30
0.0
 10
86.84603404946905
 20
-120.767822235433
 30
0.0
 10
86.84603404946905
 20
-120.767822235433
 30
0.0
 10
86.23142901490048
 20
-120.767822235433
 30
0.0
 10
86.23142901490048
 20
-120.767822235433
 30
0.0
 10
86.23142901490048
 20
-120.767822235433
 30
0.0
 10
86.2331515626431
 20
-120.8015841711885
 30
0.0
 10
86.2331515626431
 20
-120.8015841711885
 30
0.0
 10
86.2331515626431
 20
-120.8015841711885
 30
0.0
 10
86.04229327276026
 20
-120.8015841711885
 30
0.0
 10
86.04229327276026
 20
-120.8015841711885
 30
0.0
 10
86.04608287779403
 20
-120.7466348981988
 30
0.0
 10
86.04608287779403
 20
-120.7338880449033
 30
0.0
 10
86.05159503057044
 20
-120.6196831295673
 30
0.0
 10
86.05366208786158
 20
-120.5921223656853
 30
0.0
 10
86.05538463560421
 20
-120.4589694251804
 30
0.0
 10
86.05538463560421
 20
-120.4398491452373
 30
0.0
 10
86.05538463560421
 20
-120.4398491452373
 30
0.0
 10
86.05538463560421
 20
-120.2367607663818
 30
0.0
 10
86.05538463560421
 20
-120.2367607663818
 30
0.0
 10
85.93308374587784
 20
-120.4863579342881
 30
0.0
 10
85.7849446400121
 20
-120.6176160722762
 30
0.0
 10
85.69227157145887
 20
-120.6830728864959
 30
0.0
 10
85.69227157145887
 20
-120.6830728864959
 30
0.0
 10
85.54068737010789
 20
-120.5435465193433
 30
0.0
 10
85.54068737010789
 20
-120.5435465193433
 30
0.0
 10
85.618202018526
 20
-120.4927313609358
 30
0.0
 10
85.74429251328615
 20
-120.4059149547076
 30
0.0
 10
85.86452634572137
 20
-120.2114393145652
 30
0.0
 10
85.94410805143065
 20
-120.0844875459337
 30
0.0
 10
86.00164114603432
 20
-119.9406548094246
 30
0.0
 10
86.03126896720747
 20
-119.7882093342023
 30
0.0
 10
85.83110891951445
 20
-119.7904486462677
 30
0.0
 10
85.67401256538706
 20
-119.7968220729154
 30
0.0
 10
85.59064125464401
 20
-119.7988891302065
 30
0.0
 10
85.59064125464401
 20
-119.7988891302065
 30
0.0
 10
85.59064125464401
 20
-119.6211222031676
 30
0.0
 10
85.59064125464401
 20
-119.6211222031676
 30
0.0
 10
85.7628960289065
 20
-119.6274956298154
 30
0.0
 10
86.0109429038445
 20
-119.6318019991719
 30
0.0
 10
86.14254555138103
 20
-119.6318019991719
 30
0.0
 10
86.14254555138103
 20
-119.6318019991719
 30
0.0
 10
86.32926972668157
 20
-119.6318019991719
 30
0.0
 10
86.32926972668157
 20
-119.6318019991719
 30
0.0
 10
86.32926972668157
 20
-119.6318019991719
 30
0.0
 10
86.32926972668157
 20
-119.5237982557093
 30
0.0
 10
86.32926972668157
 20
-119.5237982557093
 30
0.0
 10
86.32926972668157
 20
-119.5237982557093
 30
0.0
 10
86.20180119372733
 20
-119.5237982557093
 30
0.0
 10
86.20180119372733
 20
-119.5237982557093
 30
0.0
 10
86.05366208786158
 20
-119.5237982557093
 30
0.0
 10
85.90552298199584
 20
-119.5281046250659
 30
0.0
 10
85.75910642387272
 20
-119.5344780517136
 30
0.0
 10
85.75910642387272
 20
-119.5344780517136
 30
0.0
 10
85.75910642387272
 20
-119.3630845513224
 30
0.0
 10
85.75910642387272
 20
-119.3630845513224
 30
0.0
 10
85.89415416689452
 20
-119.3735920925524
 30
0.0
 10
86.05710718334684
 20
-119.3735920925524
 30
0.0
 10
86.20180119372733
 20
-119.3735920925524
 30
0.0
 10
86.20180119372733
 20
-119.3735920925524
 30
0.0
 10
86.32926972668157
 20
-119.3735920925524
 30
0.0
 10
86.32926972668157
 20
-119.3735920925524
 30
0.0
 10
86.32926972668157
 20
-119.3735920925524
 30
0.0
 10
86.32926972668157
 20
-119.2552530626341
 30
0.0
 10
86.32926972668157
 20
-119.2552530626341
 30
0.0
 10
86.32926972668157
 20
-119.2552530626341
 30
0.0
 10
86.21454804702276
 20
-119.2552530626341
 30
0.0
 10
86.21454804702276
 20
-119.2552530626341
 30
0.0
 10
86.17389592029681
 20
-119.2552530626341
 30
0.0
 10
85.99612899325791
 20
-119.263693546573
 30
0.0
 10
85.95892196201721
 20
-119.263693546573
 30
0.0
 10
85.78115503497833
 20
-119.2678276611553
 30
0.0
 10
85.714664692113
 20
-119.2698947184464
 30
0.0
 10
85.64610729195654
 20
-119.2721340305118
 30
0.0
 10
85.64610729195654
 20
-119.2721340305118
 30
0.0
 10
85.64610729195654
 20
-119.0879936768252
 30
0.0
 10
85.64610729195654
 20
-119.0879936768252
 30
0.0
 10
85.74601506102877
 20
-119.0964341607641
 30
0.0
 10
85.7849446400121
 20
-119.0964341607641
 30
0.0
 10
86.1201524307269
 20
-119.1050468994772
 30
0.0
 10
86.06468639341439
 20
-119.0097900093101
 30
0.0
 10
86.04057072501764
 20
-118.9822292454281
 30
0.0
 10
86.00887584655334
 20
-118.9462279976072
 30
0.0
 10
86.00887584655334
 20
-118.9462279976072
 30
0.0
 10
86.162871614744
 20
-118.8637179607355
 30
0.0
 10
86.162871614744
 20
-118.8637179607355
 30
0.0
 10
86.19801158869356
 20
-118.8997192085563
 30
0.0
 10
86.23694116767687
 20
-118.9420938830249
 30
0.0
 10
86.30170896279958
 20
-119.0519924290044
 30
0.0
 10
86.30170896279958
 20
-119.0519924290044
 30
0.0
 10
86.20180119372733
 20
-119.1071139567684
 30
0.0
 10
86.20180119372733
 20
-119.1071139567684
 30
0.0
 10
86.20180119372733
 20
-119.1071139567684
 30
0.0
 10
86.21075844198899
 20
-119.1071139567684
 30
0.0
 10
86.21075844198899
 20
-119.1071139567684
 30
0.0
 10
86.21075844198899
 20
-119.1071139567684
 30
0.0
 10
86.66826712243017
 20
-119.1071139567684
 30
0.0
 10
86.66826712243017
 20
-119.1071139567684
 30
0.0
 10
86.66826712243017
 20
-119.1071139567684
 30
0.0
 10
86.58489581168712
 20
-119.0626722250086
 30
0.0
 10
86.58489581168712
 20
-119.0626722250086
 30
0.0
 10
86.60901148008386
 20
-119.0246039198966
 30
0.0
 10
86.65896536461999
 20
-118.9441609403161
 30
0.0
 10
86.67205672746394
 20
-118.8700913873832
 30
0.0
 10
86.67205672746394
 20
-118.8700913873832
 30
0.0
 10
86.859125412313
 20
-118.933653399086
 30
0.0
 10
86.859125412313
 20
-118.933653399086
 30
0.0
 10
86.86636011283203
 20
-118.9357204563772
 30
0.0
 10
86.88496362845237
 20
-118.9462279976072
 30
0.0
 10
86.88496362845237
 20
-118.9674153348415
 30
0.0
 10
86.88496362845237
 20
-119.0054836399535
 30
0.0
 10
86.8274305338487
 20
-119.0054836399535
 30
0.0
 10
86.8108940755195
 20
-119.0054836399535
 30
0.0
 10
86.80159231770932
 20
-119.0246039198966
 30
0.0
 10
86.78126625434635
 20
-119.0647392822998
 30
0.0
 10
86.75542803820699
 20
-119.1050468994772
 30
0.0
 10
87.10510522995983
 20
-119.0986734728295
 30
0.0
 10
87.13128795564774
 20
-119.0964341607641
 30
0.0
 10
87.19777829851306
 20
-119.0902329888906
 30
0.0
 10
87.19777829851306
 20
-119.0902329888906
 30
0.0
 10
87.19777829851306
 20
-119.2721340305118
 30
0.0
 10
87.19777829851306
 20
-119.2721340305118
 30
0.0
 10
87.18124184018386
 20
-119.2721340305118
 30
0.0
 10
87.15884871952974
 20
-119.2698947184464
 30
0.0
 10
86.96626788190427
 20
-119.2614542345076
 30
0.0
 10
86.92182615014455
 20
-119.2593871772164
 30
0.0
 10
86.72924531251908
 20
-119.2552530626341
 30
0.0
 10
86.69031573353575
 20
-119.2552530626341
 30
0.0
 10
86.69031573353575
 20
-119.2552530626341
 30
0.0
 10
86.50152450094407
 20
-119.2552530626341
 30
0.0
 10
86.50152450094407
 20
-119.2552530626341
 30
0.0
 10
86.50152450094407
 20
-119.2552530626341
 30
0.0
 10
86.50152450094407
 20
-119.3735920925524
 30
0.0
 10
86.50152450094407
 20
-119.3735920925524
 30
0.0
 10
86.50152450094407
 20
-119.3735920925524
 30
0.0
 10
86.65345321184358
 20
-119.3735920925524
 30
0.0
 10
86.65345321184358
 20
-119.3735920925524
 30
0.0
 10
86.79608016493293
 20
-119.3735920925524
 30
0.0
 10
86.96282278641903
 20
-119.3735920925524
 30
0.0
 10
87.09959307718344
 20
-119.3630845513224
 30
0.0
 10
87.09959307718344
 20
-119.3630845513224
 30
0.0
 10
87.09959307718344
 20
-119.5344780517136
 30
0.0
 10
87.09959307718344
 20
-119.5344780517136
 30
0.0
 10
86.91631399736815
 20
-119.5260375677748
 30
0.0
 10
86.74405922310565
 20
-119.5237982557093
 30
0.0
 10
86.65345321184358
 20
-119.5237982557093
 30
0.0
 10
86.65345321184358
 20
-119.5237982557093
 30
0.0
 10
86.50152450094407
 20
-119.5237982557093
 30
0.0
 10
86.50152450094407
 20
-119.5237982557093
 30
0.0
 10
86.50152450094407
 20
-119.5237982557093
 30
0.0
 10
86.50152450094407
 20
-119.6318019991719
 30
0.0
 10
86.50152450094407
 20
-119.6318019991719
 30
0.0
 10
86.50152450094407
 20
-119.6318019991719
 30
0.0
 10
86.7034070963797
 20
-119.6318019991719
 30
0.0
 10
86.7034070963797
 20
-119.6318019991719
 30
0.0
 10
86.82019583332968
 20
-119.6318019991719
 30
0.0
 10
87.07203231330143
 20
-119.6274956298154
 30
0.0
 10
87.25531139311673
 20
-119.6211222031676
 30
0.0
 10
87.25531139311673
 20
-119.6211222031676
 30
0.0
 10
87.25531139311673
 20
-119.7988891302065
 30
0.0
 10
87.25531139311673
 20
-119.7988891302065
 30
0.0
 10
87.08684622388802
 20
-119.7925157035588
 30
0.0
 10
86.81261662326213
 20
-119.7882093342023
 30
0.0
 10
86.7034070963797
 20
-119.7882093342023
 30
0.0
  0
POLYLINE
  5
AB
330
A2
100
AcDbEntity
  8
_U+30EC_U+30A4_U+30E4_U+30FC 1
370
     0
100
AcDb2dPolyline
 66
     1
 10
0.0
 20
0.0
 30
0.0
  0
VERTEX
  5
AC
330
AB
100
AcDbEntity
  8
_U+30EC_U+30A4_U+30E4_U+30FC 1
370
     0
100
AcDbVertex
100
AcDb2dVertex
 10
86.84775659721167
 20
-120.0441799287563
 30
0.0
  0
VERTEX
  5
AD
330
AB
100
AcDbEntity
  8
_U+30EC_U+30A4_U+30E4_U+30FC 1
370
     0
100
AcDbVertex
100
AcDb2dVertex
 10
86.22936195760933
 20
-120.0441799287563
 30
0.0
  0
VERTEX
  5
AE
330
AB
100
AcDbEntity
  8
_U+30EC_U+30A4_U+30E4_U+30FC 1
370
     0
100
AcDbVertex
100
AcDb2dVertex
 10
86.22936195760933
 20
-120.1521836722189
 30
0.0
  0
VERTEX
  5
AF
330
AB
100
AcDbEntity
  8
_U+30EC_U+30A4_U+30E4_U+30FC 1
370
     0
100
AcDbVertex
100
AcDb2dVertex
 10
86.84775659721167
 20
-120.1521836722189
 30
0.0
  0
VERTEX
  5
B0
330
AB
100
AcDbEntity
  8
_U+30EC_U+30A4_U+30E4_U+30FC 1
370
     0
100
AcDbVertex
100
AcDb2dVertex
 10
86.84775659721167
 20
-120.0441799287563
 30
0.0
  0
SEQEND
  5
B1
330
AB
100
AcDbEntity
  8
_U+30EC_U+30A4_U+30E4_U+30FC 1
370
     0
  0
POLYLINE
  5
B2
330
A2
100
AcDbEntity
  8
_U+30EC_U+30A4_U+30E4_U+30FC 1
370
     0
100
AcDb2dPolyline
 66
     1
 10
0.0
 20
0.0
 30
0.0
  0
VERTEX
  5
B3
330
B2
100
AcDbEntity
  8
_U+30EC_U+30A4_U+30E4_U+30FC 1
370
     0
100
AcDbVertex
100
AcDb2dVertex
 10
86.84775659721167
 20
-120.276896128785
 30
0.0
  0
VERTEX
  5
B4
330
B2
100
AcDbEntity
  8
_U+30EC_U+30A4_U+30E4_U+30FC 1
370
     0
100
AcDbVertex
100
AcDb2dVertex
 10
86.22936195760933
 20
-120.276896128785
 30
0.0
  0
VERTEX
  5
B5
330
B2
100
AcDbEntity
  8
_U+30EC_U+30A4_U+30E4_U+30FC 1
370
     0
100
AcDbVertex
100
AcDb2dVertex
 10
86.22936195760933
 20
-120.3912732988952
 30
0.0
  0
VERTEX
  5
B6
330
B2
100
AcDbEntity
  8
_U+30EC_U+30A4_U+30E4_U+30FC 1
370
     0
100
AcDbVertex
100
AcDb2dVertex
 10
86.84775659721167
 20
-120.3912732988952
 30
0.0
  0
VERTEX
  5
B7
330
B2
100
AcDbEntity
  8
_U+30EC_U+30A4_U+30E4_U+30FC 1
370
     0
100
AcDbVertex
100
AcDb2dVertex
 10
86.84775659721167
 20
-120.276896128785
 30
0.0
  0
SEQEND
  5
B8
330
B2
100
AcDbEntity
  8
_U+30EC_U+30A4_U+30E4_U+30FC 1
370
     0
  0
POLYLINE
  5
B9
330
A2
100
AcDbEntity
  8
_U+30EC_U+30A4_U+30E4_U+30FC 1
370
     0
100
AcDb2dPolyline
 66
     1
 10
0.0
 20
0.0
 30
0.0
  0
VERTEX
  5
BA
330
B9
100
AcDbEntity
  8
_U+30EC_U+30A4_U+30E4_U+30FC 1
370
     0
100
AcDbVertex
100
AcDb2dVertex
 10
86.84775659721167
 20
-120.5202921248178
 30
0.0
  0
VERTEX
  5
BB
330
B9
100
AcDbEntity
  8
_U+30EC_U+30A4_U+30E4_U+30FC 1
370
     0
100
AcDbVertex
100
AcDb2dVertex
 10
86.22936195760933
 20
-120.5202921248178
 30
0.0
  0
VERTEX
  5
BC
330
B9
100
AcDbEntity
  8
_U+30EC_U+30A4_U+30E4_U+30FC 1
370
     0
100
AcDbVertex
100
AcDb2dVertex
 10
86.22936195760933
 20
-120.6344970401539
 30
0.0
  0
VERTEX
  5
BD
330
B9
100
AcDbEntity
  8
_U+30EC_U+30A4_U+30E4_U+30FC 1
370
     0
100
AcDbVertex
100
AcDb2dVertex
 10
86.84775659721167
 20
-120.6344970401539
 30
0.0
  0
VERTEX
  5
BE
330
B9
100
AcDbEntity
  8
_U+30EC_U+30A4_U+30E4_U+30FC 1
370
     0
100
AcDbVertex
100
AcDb2dVertex
 10
86.84775659721167
 20
-120.5202921248178
 30
0.0
  0
SEQEND
  5
BF
330
B9
100
AcDbEntity
  8
_U+30EC_U+30A4_U+30E4_U+30FC 1
370
     0
  0
HATCH
  5
C0
330
A2
100
AcDbEntity
  8
_U+30EC_U+30A4_U+30E4_U+30FC 1
 62
   179
420
  2234388
100
AcDbHatch
 10
0.0
 20
0.0
 30
0.0
210
0.0
220
0.0
230
1.0
  2
SOLID
 70
     1
 71
     0
 91
        4
 92
        1
 93
        1
 72
     4
 94
        3
 73
     0
 74
     1
 95
      203
 96
      199
 40
0.0
 40
0.0
 40
0.0
 40
0.0
 40
1.0
 40
1.0
 40
1.0
 40
2.0
 40
2.0
 40
2.0
 40
3.0
 40
3.0
 40
3.0
 40
4.0
 40
4.0
 40
4.0
 40
5.0
 40
5.0
 40
5.0
 40
6.0
 40
6.0
 40
6.0
 40
7.0
 40
7.0
 40
7.0
 40
8.0
 40
8.0
 40
8.0
 40
9.0
 40
9.0
 40
9.0
 40
10.0
 40
10.0
 40
10.0
 40
11.0
 40
11.0
 40
11.0
 40
12.0
 40
12.0
 40
12.0
 40
13.0
 40
13.0
 40
13.0
 40
14.0
 40
14.0
 40
14.0
 40
15.0
 40
15.0
 40
15.0
 40
16.0
 40
16.0
 40
16.0
 40
17.0
 40
17.0
 40
17.0
 40
18.0
 40
18.0
 40
18.0
 40
19.0
 40
19.0
 40
19.0
 40
20.0
 40
20.0
 40
20.0
 40
21.0
 40
21.0
 40
21.0
 40
22.0
 40
22.0
 40
22.0
 40
23.0
 40
23.0
 40
23.0
 40
24.0
 40
24.0
 40
24.0
 40
25.0
 40
25.0
 40
25.0
 40
26.0
 40
26.0
 40
26.0
 40
27.0
 40
27.0
 40
27.0
 40
28.0
 40
28.0
 40
28.0
 40
29.0
 40
29.0
 40
29.0
 40
30.0
 40
30.0
 40
30.0
 40
31.0
 40
31.0
 40
31.0
 40
32.0
 40
32.0
 40
32.0
 40
33.0
 40
33.0
 40
33.0
 40
34.0
 40
34.0
 40
34.0
 40
35.0
 40
35.0
 40
35.0
 40
36.0
 40
36.0
 40
36.0
 40
37.0
 40
37.0
 40
37.0
 40
38.0
 40
38.0
 40
38.0
 40
39.0
 40
39.0
 40
39.0
 40
40.0
 40
40.0
 40
40.0
 40
41.0
 40
41.0
 40
41.0
 40
42.0
 40
42.0
 40
42.0
 40
43.0
 40
43.0
 40
43.0
 40
44.0
 40
44.0
 40
44.0
 40
45.0
 40
45.0
 40
45.0
 40
46.0
 40
46.0
 40
46.0
 40
47.0
 40
47.0
 40
47.0
 40
48.0
 40
48.0
 40
48.0
 40
49.0
 40
49.0
 40
49.0
 40
50.0
 40
50.0
 40
50.0
 40
51.0
 40
51.0
 40
51.0
 40
52.0
 40
52.0
 40
52.0
 40
53.0
 40
53.0
 40
53.0
 40
54.0
 40
54.0
 40
54.0
 40
55.0
 40
55.0
 40
55.0
 40
56.0
 40
56.0
 40
56.0
 40
57.0
 40
57.0
 40
57.0
 40
58.0
 40
58.0
 40
58.0
 40
59.0
 40
59.0
 40
59.0
 40
60.0
 40
60.0
 40
60.0
 40
61.0
 40
61.0
 40
61.0
 40
62.0
 40
62.0
 40
62.0
 40
63.0
 40
63.0
 40
63.0
 40
64.0
 40
64.0
 40
64.0
 40
65.0
 40
65.0
 40
65.0
 40
66.0
 40
66.0
 40
66.0
 40
66.0
 10
86.7034070963797
 20
-119.7882093342023
 10
86.7034070963797
 20
-119.7882093342023
 10
86.21454804702276
 20
-119.7882093342023
 10
86.21454804702276
 20
-119.7882093342023
 10
86.20524628921258
 20
-119.832651065962
 10
86.19801158869356
 20
-119.8643459444263
 10
86.18664277359223
 20
-119.9025865043126
 10
86.20903589424636
 20
-119.9025865043126
 10
86.2221272570903
 20
-119.9046535616037
 10
86.22763940986671
 20
-119.9046535616037
 10
86.22763940986671
 20
-119.9046535616037
 10
86.39231497406165
 20
-119.9046535616037
 10
86.39231497406165
 20
-119.9046535616037
 10
86.39231497406165
 20
-119.9046535616037
 10
86.7199435547089
 20
-119.9046535616037
 10
86.7199435547089
 20
-119.9046535616037
 10
86.76472979601715
 20
-119.9046535616037
 10
87.01277667095515
 20
-119.8919067083083
 10
87.04033743483714
 20
-119.8919067083083
 10
87.03861488709451
 20
-119.9194674721903
 10
87.0368923393519
 20
-119.9384154973591
 10
87.0368923393519
 20
-119.9680433185323
 10
87.03482528206074
 20
-119.9997381969966
 10
87.03482528206074
 20
-120.1351304495669
 10
87.03482528206074
 20
-120.1626912134489
 10
87.03482528206074
 20
-120.1626912134489
 10
87.03482528206074
 20
-120.408154266773
 10
87.03482528206074
 20
-120.408154266773
 10
87.03482528206074
 20
-120.4525959985327
 10
87.03861488709451
 20
-120.6493109507405
 10
87.0424044921283
 20
-120.8015841711885
 10
87.0424044921283
 20
-120.8015841711885
 10
86.84431150172642
 20
-120.8015841711885
 10
86.84431150172642
 20
-120.8015841711885
 10
86.84431150172642
 20
-120.8015841711885
 10
86.84603404946905
 20
-120.767822235433
 10
86.84603404946905
 20
-120.767822235433
 10
86.84603404946905
 20
-120.767822235433
 10
86.23142901490048
 20
-120.767822235433
 10
86.23142901490048
 20
-120.767822235433
 10
86.23142901490048
 20
-120.767822235433
 10
86.2331515626431
 20
-120.8015841711885
 10
86.2331515626431
 20
-120.8015841711885
 10
86.2331515626431
 20
-120.8015841711885
 10
86.04229327276026
 20
-120.8015841711885
 10
86.04229327276026
 20
-120.8015841711885
 10
86.04608287779403
 20
-120.7466348981988
 10
86.04608287779403
 20
-120.7338880449033
 10
86.05159503057044
 20
-120.6196831295673
 10
86.05366208786158
 20
-120.5921223656853
 10
86.05538463560421
 20
-120.4589694251804
 10
86.05538463560421
 20
-120.4398491452373
 10
86.05538463560421
 20
-120.4398491452373
 10
86.05538463560421
 20
-120.2367607663818
 10
86.05538463560421
 20
-120.2367607663818
 10
85.93308374587784
 20
-120.4863579342881
 10
85.7849446400121
 20
-120.6176160722762
 10
85.69227157145887
 20
-120.6830728864959
 10
85.69227157145887
 20
-120.6830728864959
 10
85.54068737010789
 20
-120.5435465193433
 10
85.54068737010789
 20
-120.5435465193433
 10
85.618202018526
 20
-120.4927313609358
 10
85.74429251328615
 20
-120.4059149547076
 10
85.86452634572137
 20
-120.2114393145652
 10
85.94410805143065
 20
-120.0844875459337
 10
86.00164114603432
 20
-119.9406548094246
 10
86.03126896720747
 20
-119.7882093342023
 10
85.83110891951445
 20
-119.7904486462677
 10
85.67401256538706
 20
-119.7968220729154
 10
85.59064125464401
 20
-119.7988891302065
 10
85.59064125464401
 20
-119.7988891302065
 10
85.59064125464401
 20
-119.6211222031676
 10
85.59064125464401
 20
-119.6211222031676
 10
85.7628960289065
 20
-119.6274956298154
 10
86.0109429038445
 20
-119.6318019991719
 10
86.14254555138103
 20
-119.6318019991719
 10
86.14254555138103
 20
-119.6318019991719
 10
86.32926972668157
 20
-119.6318019991719
 10
86.32926972668157
 20
-119.6318019991719
 10
86.32926972668157
 20
-119.6318019991719
 10
86.32926972668157
 20
-119.5237982557093
 10
86.32926972668157
 20
-119.5237982557093
 10
86.32926972668157
 20
-119.5237982557093
 10
86.20180119372733
 20
-119.5237982557093
 10
86.20180119372733
 20
-119.5237982557093
 10
86.05366208786158
 20
-119.5237982557093
 10
85.90552298199584
 20
-119.5281046250659
 10
85.75910642387272
 20
-119.5344780517136
 10
85.75910642387272
 20
-119.5344780517136
 10
85.75910642387272
 20
-119.3630845513224
 10
85.75910642387272
 20
-119.3630845513224
 10
85.89415416689452
 20
-119.3735920925524
 10
86.05710718334684
 20
-119.3735920925524
 10
86.20180119372733
 20
-119.3735920925524
 10
86.20180119372733
 20
-119.3735920925524
 10
86.32926972668157
 20
-119.3735920925524
 10
86.32926972668157
 20
-119.3735920925524
 10
86.32926972668157
 20
-119.3735920925524
 10
86.32926972668157
 20
-119.2552530626341
 10
86.32926972668157
 20
-119.2552530626341
 10
86.32926972668157
 20
-119.2552530626341
 10
86.21454804702276
 20
-119.2552530626341
 10
86.21454804702276
 20
-119.2552530626341
 10
86.17389592029681
 20
-119.2552530626341
 10
85.99612899325791
 20
-119.263693546573
 10
85.95892196201721
 20
-119.263693546573
 10
85.78115503497833
 20
-119.2678276611553
 10
85.714664692113
 20
-119.2698947184464
 10
85.64610729195654
 20
-119.2721340305118
 10
85.64610729195654
 20
-119.2721340305118
 10
85.64610729195654
 20
-119.0879936768252
 10
85.64610729195654
 20
-119.0879936768252
 10
85.74601506102877
 20
-119.0964341607641
 10
85.7849446400121
 20
-119.0964341607641
 10
86.1201524307269
 20
-119.1050468994772
 10
86.06468639341439
 20
-119.0097900093101
 10
86.04057072501764
 20
-118.9822292454281
 10
86.00887584655334
 20
-118.9462279976072
 10
86.00887584655334
 20
-118.9462279976072
 10
86.162871614744
 20
-118.8637179607355
 10
86.162871614744
 20
-118.8637179607355
 10
86.19801158869356
 20
-118.8997192085563
 10
86.23694116767687
 20
-118.9420938830249
 10
86.30170896279958
 20
-119.0519924290044
 10
86.30170896279958
 20
-119.0519924290044
 10
86.20180119372733
 20
-119.1071139567684
 10
86.20180119372733
 20
-119.1071139567684
 10
86.20180119372733
 20
-119.1071139567684
 10
86.21075844198899
 20
-119.1071139567684
 10
86.21075844198899
 20
-119.1071139567684
 10
86.21075844198899
 20
-119.1071139567684
 10
86.66826712243017
 20
-119.1071139567684
 10
86.66826712243017
 20
-119.1071139567684
 10
86.66826712243017
 20
-119.1071139567684
 10
86.58489581168712
 20
-119.0626722250086
 10
86.58489581168712
 20
-119.0626722250086
 10
86.60901148008386
 20
-119.0246039198966
 10
86.65896536461999
 20
-118.9441609403161
 10
86.67205672746394
 20
-118.8700913873832
 10
86.67205672746394
 20
-118.8700913873832
 10
86.859125412313
 20
-118.933653399086
 10
86.859125412313
 20
-118.933653399086
 10
86.86636011283203
 20
-118.9357204563772
 10
86.88496362845237
 20
-118.9462279976072
 10
86.88496362845237
 20
-118.9674153348415
 10
86.88496362845237
 20
-119.0054836399535
 10
86.8274305338487
 20
-119.0054836399535
 10
86.8108940755195
 20
-119.0054836399535
 10
86.80159231770932
 20
-119.0246039198966
 10
86.78126625434635
 20
-119.0647392822998
 10
86.75542803820699
 20
-119.1050468994772
 10
87.10510522995983
 20
-119.0986734728295
 10
87.13128795564774
 20
-119.0964341607641
 10
87.19777829851306
 20
-119.0902329888906
 10
87.19777829851306
 20
-119.0902329888906
 10
87.19777829851306
 20
-119.2721340305118
 10
87.19777829851306
 20
-119.2721340305118
 10
87.18124184018386
 20
-119.2721340305118
 10
87.15884871952974
 20
-119.2698947184464
 10
86.96626788190427
 20
-119.2614542345076
 10
86.92182615014455
 20
-119.2593871772164
 10
86.72924531251908
 20
-119.2552530626341
 10
86.69031573353575
 20
-119.2552530626341
 10
86.69031573353575
 20
-119.2552530626341
 10
86.50152450094407
 20
-119.2552530626341
 10
86.50152450094407
 20
-119.2552530626341
 10
86.50152450094407
 20
-119.2552530626341
 10
86.50152450094407
 20
-119.3735920925524
 10
86.50152450094407
 20
-119.3735920925524
 10
86.50152450094407
 20
-119.3735920925524
 10
86.65345321184358
 20
-119.3735920925524
 10
86.65345321184358
 20
-119.3735920925524
 10
86.79608016493293
 20
-119.3735920925524
 10
86.96282278641903
 20
-119.3735920925524
 10
87.09959307718344
 20
-119.3630845513224
 10
87.09959307718344
 20
-119.3630845513224
 10
87.09959307718344
 20
-119.5344780517136
 10
87.09959307718344
 20
-119.5344780517136
 10
86.91631399736815
 20
-119.5260375677748
 10
86.74405922310565
 20
-119.5237982557093
 10
86.65345321184358
 20
-119.5237982557093
 10
86.65345321184358
 20
-119.5237982557093
 10
86.50152450094407
 20
-119.5237982557093
 10
86.50152450094407
 20
-119.5237982557093
 10
86.50152450094407
 20
-119.5237982557093
 10
86.50152450094407
 20
-119.6318019991719
 10
86.50152450094407
 20
-119.6318019991719
 10
86.50152450094407
 20
-119.6318019991719
 10
86.7034070963797
 20
-119.6318019991719
 10
86.7034070963797
 20
-119.6318019991719
 10
86.82019583332968
 20
-119.6318019991719
 10
87.07203231330143
 20
-119.6274956298154
 10
87.25531139311673
 20
-119.6211222031676
 10
87.25531139311673
 20
-119.6211222031676
 10
87.25531139311673
 20
-119.7988891302065
 10
87.25531139311673
 20
-119.7988891302065
 10
87.08684622388802
 20
-119.7925157035588
 10
86.81261662326213
 20
-119.7882093342023
 10
86.7034070963797
 20
-119.7882093342023
 97
        0
 97
        0
 92
        1
 93
        4
 72
     1
 10
86.84775659721167
 20
-120.0441799287563
 11
86.22936195760933
 21
-120.0441799287563
 72
     1
 10
86.22936195760933
 20
-120.0441799287563
 11
86.22936195760933
 21
-120.1521836722189
 72
     1
 10
86.22936195760933
 20
-120.1521836722189
 11
86.84775659721167
 21
-120.1521836722189
 72
     1
 10
86.84775659721167
 20
-120.1521836722189
 11
86.84775659721167
 21
-120.0441799287563
 97
        0
 92
        1
 93
        4
 72
     1
 10
86.84775659721167
 20
-120.276896128785
 11
86.22936195760933
 21
-120.276896128785
 72
     1
 10
86.22936195760933
 20
-120.276896128785
 11
86.22936195760933
 21
-120.3912732988952
 72
     1
 10
86.22936195760933
 20
-120.3912732988952
 11
86.84775659721167
 21
-120.3912732988952
 72
     1
 10
86.84775659721167
 20
-120.3912732988952
 11
86.84775659721167
 21
-120.276896128785
 97
        0
 92
        1
 93
        4
 72
     1
 10
86.84775659721167
 20
-120.5202921248178
 11
86.22936195760933
 21
-120.5202921248178
 72
     1
 10
86.22936195760933
 20
-120.5202921248178
 11
86.22936195760933
 21
-120.6344970401539
 72
     1
 10
86.22936195760933
 20
-120.6344970401539
 11
86.84775659721167
 21
-120.6344970401539
 72
     1
 10
86.84775659721167
 20
-120.6344970401539
 11
86.84775659721167
 21
-120.5202921248178
 97
        0
 75
     2
 76
     1
 98
        0
  0
SPLINE
  5
C1
330
A2
100
AcDbEntity
  8
_U+30EC_U+30A4_U+30E4_U+30FC 1
370
     0
100
AcDbSpline
210
0.0
220
0.0
230
1.0
 70
    11
 71
     3
 72
    47
 73
    43
 74
     0
 42
0.0000000001
 43
0.0000000001
 12
1.0
 22
0.0
 32
0.0
 13
1.0
 23
0.0
 33
0.0
 40
0.0
 40
0.0
 40
0.0
 40
0.0
 40
1.0
 40
1.0
 40
1.0
 40
2.0
 40
2.0
 40
2.0
 40
3.0
 40
3.0
 40
3.0
 40
4.0
 40
4.0
 40
4.0
 40
5.0
 40
5.0
 40
5.0
 40
6.0
 40
6.0
 40
6.0
 40
7.0
 40
7.0
 40
7.0
 40
8.0
 40
8.0
 40
8.0
 40
9.0
 40
9.0
 40
9.0
 40
10.0
 40
10.0
 40
10.0
 40
11.0
 40
11.0
 40
11.0
 40
12.0
 40
12.0
 40
12.0
 40
13.0
 40
13.0
 40
13.0
 40
14.0
 40
14.0
 40
14.0
 40
14.0
 10
88.4352565968148
 20
-119.7649549396768
 30
0.0
 10
88.4352565968148
 20
-119.7649549396768
 30
0.0
 10
88.34637313329536
 20
-119.7649549396768
 30
0.0
 10
88.34637313329536
 20
-119.7649549396768
 30
0.0
 10
88.34637313329536
 20
-119.8517713459051
 30
0.0
 10
88.327769617675
 20
-120.2410671357383
 30
0.0
 10
88.15551484341252
 20
-120.4610364824716
 30
0.0
 10
88.02218964813335
 20
-120.6301906707973
 30
0.0
 10
87.84063311606067
 20
-120.7001261091479
 30
0.0
 10
87.7665635631278
 20
-120.7275146182556
 30
0.0
 10
87.7665635631278
 20
-120.7275146182556
 30
0.0
 10
87.59637584615646
 20
-120.560427487221
 30
0.0
 10
87.59637584615646
 20
-120.560427487221
 30
0.0
 10
87.68146970464214
 20
-120.5476806339256
 30
0.0
 10
87.83512096328428
 20
-120.5244262394001
 30
0.0
 10
88.00014103702775
 20
-120.3361517711312
 30
0.0
 10
88.06490883215044
 20
-120.2643215302638
 30
0.0
 10
88.15551484341252
 20
-120.1246229083369
 30
0.0
 10
88.15551484341252
 20
-119.7649549396768
 30
0.0
 10
88.15551484341252
 20
-119.7649549396768
 30
0.0
 10
87.95363224797687
 20
-119.7649549396768
 30
0.0
 10
87.95363224797687
 20
-119.7649549396768
 30
0.0
 10
87.79067923152455
 20
-119.7649549396768
 30
0.0
 10
87.62772621507224
 20
-119.7692613090334
 30
0.0
 10
87.46477319861992
 20
-119.78407521962
 30
0.0
 10
87.46477319861992
 20
-119.78407521962
 30
0.0
 10
87.46477319861992
 20
-119.5641058728868
 30
0.0
 10
87.46477319861992
 20
-119.5641058728868
 30
0.0
 10
87.62944876281486
 20
-119.5789197834733
 30
0.0
 10
87.879562695044
 20
-119.5830538980556
 30
0.0
 10
87.95363224797687
 20
-119.5830538980556
 30
0.0
 10
87.95363224797687
 20
-119.5830538980556
 30
0.0
 10
88.4352565968148
 20
-119.5830538980556
 30
0.0
 10
88.4352565968148
 20
-119.5830538980556
 30
0.0
 10
88.451793055144
 20
-119.5830538980556
 30
0.0
 10
88.72946775125514
 20
-119.5830538980556
 30
0.0
 10
88.92962779894815
 20
-119.5641058728868
 30
0.0
 10
88.92962779894815
 20
-119.5641058728868
 30
0.0
 10
88.92962779894815
 20
-119.78407521962
 30
0.0
 10
88.92962779894815
 20
-119.78407521962
 30
0.0
 10
88.76460772520468
 20
-119.7692613090334
 30
0.0
 10
88.59993216100975
 20
-119.7649549396768
 30
0.0
 10
88.4352565968148
 20
-119.7649549396768
 30
0.0
  0
SPLINE
  5
C2
330
A2
100
AcDbEntity
  8
_U+30EC_U+30A4_U+30E4_U+30FC 1
370
     0
100
AcDbSpline
210
0.0
220
0.0
230
1.0
 70
    11
 71
     3
 72
    29
 73
    25
 74
     0
 42
0.0000000001
 43
0.0000000001
 12
1.0
 22
0.0
 32
0.0
 13
1.0
 23
0.0
 33
0.0
 40
0.0
 40
0.0
 40
0.0
 40
0.0
 40
1.0
 40
1.0
 40
1.0
 40
2.0
 40
2.0
 40
2.0
 40
3.0
 40
3.0
 40
3.0
 40
4.0
 40
4.0
 40
4.0
 40
5.0
 40
5.0
 40
5.0
 40
6.0
 40
6.0
 40
6.0
 40
7.0
 40
7.0
 40
7.0
 40
8.0
 40
8.0
 40
8.0
 40
8.0
 10
88.34637313329536
 20
-119.236132782691
 30
0.0
 10
88.34637313329536
 20
-119.236132782691
 30
0.0
 10
88.03700355871992
 20
-119.236132782691
 30
0.0
 10
88.03700355871992
 20
-119.236132782691
 30
0.0
 10
87.9388183373903
 20
-119.236132782691
 30
0.0
 10
87.81651744766393
 20
-119.2425062093387
 30
0.0
 10
87.72212183136809
 20
-119.2552530626341
 30
0.0
 10
87.72212183136809
 20
-119.2552530626341
 30
0.0
 10
87.72212183136809
 20
-119.0202975505401
 30
0.0
 10
87.72212183136809
 20
-119.0202975505401
 30
0.0
 10
87.8258192054741
 20
-119.0351114611266
 30
0.0
 10
87.9870496741838
 20
-119.0394178304832
 30
0.0
 10
88.03700355871992
 20
-119.0394178304832
 30
0.0
 10
88.03700355871992
 20
-119.0394178304832
 30
0.0
 10
88.34637313329536
 20
-119.0394178304832
 30
0.0
 10
88.34637313329536
 20
-119.0394178304832
 30
0.0
 10
88.36290959162456
 20
-119.0394178304832
 30
0.0
 10
88.54067651866345
 20
-119.0394178304832
 30
0.0
 10
88.66469995613244
 20
-119.0202975505401
 30
0.0
 10
88.66469995613244
 20
-119.0202975505401
 30
0.0
 10
88.66469995613244
 20
-119.2552530626341
 30
0.0
 10
88.66469995613244
 20
-119.2552530626341
 30
0.0
 10
88.5275851558195
 20
-119.236132782691
 30
0.0
 10
88.36118704388193
 20
-119.236132782691
 30
0.0
 10
88.34637313329536
 20
-119.236132782691
 30
0.0
  0
HATCH
  5
C3
330
A2
100
AcDbEntity
  8
_U+30EC_U+30A4_U+30E4_U+30FC 1
 62
   179
420
  2234388
100
AcDbHatch
 10
0.0
 20
0.0
 30
0.0
210
0.0
220
0.0
230
1.0
  2
SOLID
 70
     1
 71
     0
 91
        2
 92
        1
 93
        1
 72
     4
 94
        3
 73
     0
 74
     1
 95
       47
 96
       43
 40
0.0
 40
0.0
 40
0.0
 40
0.0
 40
1.0
 40
1.0
 40
1.0
 40
2.0
 40
2.0
 40
2.0
 40
3.0
 40
3.0
 40
3.0
 40
4.0
 40
4.0
 40
4.0
 40
5.0
 40
5.0
 40
5.0
 40
6.0
 40
6.0
 40
6.0
 40
7.0
 40
7.0
 40
7.0
 40
8.0
 40
8.0
 40
8.0
 40
9.0
 40
9.0
 40
9.0
 40
10.0
 40
10.0
 40
10.0
 40
11.0
 40
11.0
 40
11.0
 40
12.0
 40
12.0
 40
12.0
 40
13.0
 40
13.0
 40
13.0
 40
14.0
 40
14.0
 40
14.0
 40
14.0
 10
88.4352565968148
 20
-119.7649549396768
 10
88.4352565968148
 20
-119.7649549396768
 10
88.34637313329536
 20
-119.7649549396768
 10
88.34637313329536
 20
-119.7649549396768
 10
88.34637313329536
 20
-119.8517713459051
 10
88.327769617675
 20
-120.2410671357383
 10
88.15551484341252
 20
-120.4610364824716
 10
88.02218964813335
 20
-120.6301906707973
 10
87.84063311606067
 20
-120.7001261091479
 10
87.7665635631278
 20
-120.7275146182556
 10
87.7665635631278
 20
-120.7275146182556
 10
87.59637584615646
 20
-120.560427487221
 10
87.59637584615646
 20
-120.560427487221
 10
87.68146970464214
 20
-120.5476806339256
 10
87.83512096328428
 20
-120.5244262394001
 10
88.00014103702775
 20
-120.3361517711312
 10
88.06490883215044
 20
-120.2643215302638
 10
88.15551484341252
 20
-120.1246229083369
 10
88.15551484341252
 20
-119.7649549396768
 10
88.15551484341252
 20
-119.7649549396768
 10
87.95363224797687
 20
-119.7649549396768
 10
87.95363224797687
 20
-119.7649549396768
 10
87.79067923152455
 20
-119.7649549396768
 10
87.62772621507224
 20
-119.7692613090334
 10
87.46477319861992
 20
-119.78407521962
 10
87.46477319861992
 20
-119.78407521962
 10
87.46477319861992
 20
-119.5641058728868
 10
87.46477319861992
 20
-119.5641058728868
 10
87.62944876281486
 20
-119.5789197834733
 10
87.879562695044
 20
-119.5830538980556
 10
87.95363224797687
 20
-119.5830538980556
 10
87.95363224797687
 20
-119.5830538980556
 10
88.4352565968148
 20
-119.5830538980556
 10
88.4352565968148
 20
-119.5830538980556
 10
88.451793055144
 20
-119.5830538980556
 10
88.72946775125514
 20
-119.5830538980556
 10
88.92962779894815
 20
-119.5641058728868
 10
88.92962779894815
 20
-119.5641058728868
 10
88.92962779894815
 20
-119.78407521962
 10
88.92962779894815
 20
-119.78407521962
 10
88.76460772520468
 20
-119.7692613090334
 10
88.59993216100975
 20
-119.7649549396768
 10
88.4352565968148
 20
-119.7649549396768
 97
        0
 97
        0
 92
        1
 93
        1
 72
     4
 94
        3
 73
     0
 74
     1
 95
       29
 96
       25
 40
0.0
 40
0.0
 40
0.0
 40
0.0
 40
1.0
 40
1.0
 40
1.0
 40
2.0
 40
2.0
 40
2.0
 40
3.0
 40
3.0
 40
3.0
 40
4.0
 40
4.0
 40
4.0
 40
5.0
 40
5.0
 40
5.0
 40
6.0
 40
6.0
 40
6.0
 40
7.0
 40
7.0
 40
7.0
 40
8.0
 40
8.0
 40
8.0
 40
8.0
 10
88.34637313329536
 20
-119.236132782691
 10
88.34637313329536
 20
-119.236132782691
 10
88.03700355871992
 20
-119.236132782691
 10
88.03700355871992
 20
-119.236132782691
 10
87.9388183373903
 20
-119.236132782691
 10
87.81651744766393
 20
-119.2425062093387
 10
87.72212183136809
 20
-119.2552530626341
 10
87.72212183136809
 20
-119.2552530626341
 10
87.72212183136809
 20
-119.0202975505401
 10
87.72212183136809
 20
-119.0202975505401
 10
87.8258192054741
 20
-119.0351114611266
 10
87.9870496741838
 20
-119.0394178304832
 10
88.03700355871992
 20
-119.0394178304832
 10
88.03700355871992
 20
-119.0394178304832
 10
88.34637313329536
 20
-119.0394178304832
 10
88.34637313329536
 20
-119.0394178304832
 10
88.36290959162456
 20
-119.0394178304832
 10
88.54067651866345
 20
-119.0394178304832
 10
88.66469995613244
 20
-119.0202975505401
 10
88.66469995613244
 20
-119.0202975505401
 10
88.66469995613244
 20
-119.2552530626341
 10
88.66469995613244
 20
-119.2552530626341
 10
88.5275851558195
 20
-119.236132782691
 10
88.36118704388193
 20
-119.236132782691
 10
88.34637313329536
 20
-119.236132782691
 97
        0
 97
        0
 75
     2
 76
     1
 98
        0
  0
SPLINE
  5
C4
330
A2
100
AcDbEntity
  8
_U+30EC_U+30A4_U+30E4_U+30FC 1
370
     0
100
AcDbSpline
210
0.0
220
0.0
230
1.0
 70
    11
 71
     3
 72
    29
 73
    25
 74
     0
 42
0.0000000001
 43
0.0000000001
 12
1.0
 22
0.0
 32
0.0
 13
1.0
 23
0.0
 33
0.0
 40
0.0
 40
0.0
 40
0.0
 40
0.0
 40
1.0
 40
1.0
 40
1.0
 40
2.0
 40
2.0
 40
2.0
 40
3.0
 40
3.0
 40
3.0
 40
4.0
 40
4.0
 40
4.0
 40
5.0
 40
5.0
 40
5.0
 40
6.0
 40
6.0
 40
6.0
 40
7.0
 40
7.0
 40
7.0
 40
8.0
 40
8.0
 40
8.0
 40
8.0
 10
90.05203990804254
 20
-119.9279079561291
 30
0.0
 10
90.05203990804254
 20
-119.9279079561291
 30
0.0
 10
89.62794865380829
 20
-119.9279079561291
 30
0.0
 10
89.62794865380829
 20
-119.9279079561291
 30
0.0
 10
89.60383298541154
 20
-119.9279079561291
 30
0.0
 10
89.32581377975188
 20
-119.9279079561291
 30
0.0
 10
89.14081215219397
 20
-119.9532294079457
 30
0.0
 10
89.14081215219397
 20
-119.9532294079457
 30
0.0
 10
89.14081215219397
 20
-119.7227525199825
 30
0.0
 10
89.14081215219397
 20
-119.7227525199825
 30
0.0
 10
89.27964950024953
 20
-119.7460069145079
 30
0.0
 10
89.44639212173563
 20
-119.7480739717991
 30
0.0
 10
89.62794865380829
 20
-119.7480739717991
 30
0.0
 10
89.62794865380829
 20
-119.7480739717991
 30
0.0
 10
90.05203990804254
 20
-119.7480739717991
 30
0.0
 10
90.05203990804254
 20
-119.7480739717991
 30
0.0
 10
90.21464841494634
 20
-119.7480739717991
 30
0.0
 10
90.37794594094719
 20
-119.7460069145079
 30
0.0
 10
90.53883190010835
 20
-119.7227525199825
 30
0.0
 10
90.53883190010835
 20
-119.7227525199825
 30
0.0
 10
90.53883190010835
 20
-119.9532294079457
 30
0.0
 10
90.53883190010835
 20
-119.9532294079457
 30
0.0
 10
90.37794594094719
 20
-119.9299750134203
 30
0.0
 10
90.16124943492497
 20
-119.9279079561291
 30
0.0
 10
90.05203990804254
 20
-119.9279079561291
 30
0.0
  0
HATCH
  5
C5
330
A2
100
AcDbEntity
  8
_U+30EC_U+30A4_U+30E4_U+30FC 1
 62
   179
420
  2234388
100
AcDbHatch
 10
0.0
 20
0.0
 30
0.0
210
0.0
220
0.0
230
1.0
  2
SOLID
 70
     1
 71
     0
 91
        1
 92
        1
 93
        1
 72
     4
 94
        3
 73
     0
 74
     1
 95
       29
 96
       25
 40
0.0
 40
0.0
 40
0.0
 40
0.0
 40
1.0
 40
1.0
 40
1.0
 40
2.0
 40
2.0
 40
2.0
 40
3.0
 40
3.0
 40
3.0
 40
4.0
 40
4.0
 40
4.0
 40
5.0
 40
5.0
 40
5.0
 40
6.0
 40
6.0
 40
6.0
 40
7.0
 40
7.0
 40
7.0
 40
8.0
 40
8.0
 40
8.0
 40
8.0
 10
90.05203990804254
 20
-119.9279079561291
 10
90.05203990804254
 20
-119.9279079561291
 10
89.62794865380829
 20
-119.9279079561291
 10
89.62794865380829
 20
-119.9279079561291
 10
89.60383298541154
 20
-119.9279079561291
 10
89.32581377975188
 20
-119.9279079561291
 10
89.14081215219397
 20
-119.9532294079457
 10
89.14081215219397
 20
-119.9532294079457
 10
89.14081215219397
 20
-119.7227525199825
 10
89.14081215219397
 20
-119.7227525199825
 10
89.27964950024953
 20
-119.7460069145079
 10
89.44639212173563
 20
-119.7480739717991
 10
89.62794865380829
 20
-119.7480739717991
 10
89.62794865380829
 20
-119.7480739717991
 10
90.05203990804254
 20
-119.7480739717991
 10
90.05203990804254
 20
-119.7480739717991
 10
90.21464841494634
 20
-119.7480739717991
 10
90.37794594094719
 20
-119.7460069145079
 10
90.53883190010835
 20
-119.7227525199825
 10
90.53883190010835
 20
-119.7227525199825
 10
90.53883190010835
 20
-119.9532294079457
 10
90.53883190010835
 20
-119.9532294079457
 10
90.37794594094719
 20
-119.9299750134203
 10
90.16124943492497
 20
-119.9279079561291
 10
90.05203990804254
 20
-119.9279079561291
 97
        0
 97
        0
 75
     2
 76
     1
 98
        0
  0
SPLINE
  5
C6
330
A2
100
AcDbEntity
  8
_U+30EC_U+30A4_U+30E4_U+30FC 1
370
     0
100
AcDbSpline
210
0.0
220
0.0
230
1.0
 70
    11
 71
     3
 72
    44
 73
    40
 74
     0
 42
0.0000000001
 43
0.0000000001
 12
1.0
 22
0.0
 32
0.0
 13
1.0
 23
0.0
 33
0.0
 40
0.0
 40
0.0
 40
0.0
 40
0.0
 40
1.0
 40
1.0
 40
1.0
 40
2.0
 40
2.0
 40
2.0
 40
3.0
 40
3.0
 40
3.0
 40
4.0
 40
4.0
 40
4.0
 40
5.0
 40
5.0
 40
5.0
 40
6.0
 40
6.0
 40
6.0
 40
7.0
 40
7.0
 40
7.0
 40
8.0
 40
8.0
 40
8.0
 40
9.0
 40
9.0
 40
9.0
 40
10.0
 40
10.0
 40
10.0
 40
11.0
 40
11.0
 40
11.0
 40
12.0
 40
12.0
 40
12.0
 40
13.0
 40
13.0
 40
13.0
 40
13.0
 10
91.98887258985
 20
-119.4900363199539
 30
0.0
 10
91.89068736852039
 20
-119.8581447725528
 30
0.0
 10
91.84624563676067
 20
-120.0167914196486
 30
0.0
 10
91.67399086249817
 20
-120.2663885875549
 30
0.0
 10
91.51310490333701
 20
-120.4970377302924
 30
0.0
 10
91.30571015512497
 20
-120.6830728864959
 30
0.0
 10
91.06110837567223
 20
-120.7762627193719
 30
0.0
 10
91.06110837567223
 20
-120.7762627193719
 30
0.0
 10
90.89264320644351
 20
-120.5964287350419
 30
0.0
 10
90.89264320644351
 20
-120.5964287350419
 30
0.0
 10
91.45384926099071
 20
-120.4441555145938
 30
0.0
 10
91.74254826265465
 20
-119.887772593726
 30
0.0
 10
91.79801429996716
 20
-119.4476616454853
 30
0.0
 10
91.79801429996716
 20
-119.4476616454853
 30
0.0
 10
91.12794322808607
 20
-119.4476616454853
 30
0.0
 10
91.12794322808607
 20
-119.4476616454853
 30
0.0
 10
91.04629446508565
 20
-119.4476616454853
 30
0.0
 10
90.88540850592449
 20
-119.4519680148419
 30
0.0
 10
90.74829370561154
 20
-119.4709160400107
 30
0.0
 10
90.74829370561154
 20
-119.4709160400107
 30
0.0
 10
90.74829370561154
 20
-119.2509466932775
 30
0.0
 10
90.74829370561154
 20
-119.2509466932775
 30
0.0
 10
90.82408580628704
 20
-119.2721340305118
 30
0.0
 10
91.04457191734303
 20
-119.2721340305118
 30
0.0
 10
91.13173283311986
 20
-119.2721340305118
 30
0.0
 10
91.13173283311986
 20
-119.2721340305118
 30
0.0
 10
91.50931529830324
 20
-119.2721340305118
 30
0.0
 10
91.50931529830324
 20
-119.2721340305118
 30
0.0
 10
91.54652232954393
 20
-119.2721340305118
 30
0.0
 10
91.75185002046481
 20
-119.2698947184464
 30
0.0
 10
91.78526744667174
 20
-119.263693546573
 30
0.0
 10
91.82212996836391
 20
-119.2573201199253
 30
0.0
 10
91.82419702565507
 20
-119.2552530626341
 30
0.0
 10
91.87794051522496
 20
-119.2149454454567
 30
0.0
 10
91.87794051522496
 20
-119.2149454454567
 30
0.0
 10
92.0426160794199
 20
-119.3694579779701
 30
0.0
 10
92.0426160794199
 20
-119.3694579779701
 30
0.0
 10
92.01677786328054
 20
-119.3990857991433
 30
0.0
 10
92.00368650043659
 20
-119.4307806776076
 30
0.0
 10
91.98887258985
 20
-119.4900363199539
 30
0.0
  0
SPLINE
  5
C7
330
A2
100
AcDbEntity
  8
_U+30EC_U+30A4_U+30E4_U+30FC 1
370
     0
100
AcDbSpline
210
0.0
220
0.0
230
1.0
 70
    11
 71
     3
 72
    17
 73
    13
 74
     0
 42
0.0000000001
 43
0.0000000001
 12
1.0
 22
0.0
 32
0.0
 13
1.0
 23
0.0
 33
0.0
 40
0.0
 40
0.0
 40
0.0
 40
0.0
 40
1.0
 40
1.0
 40
1.0
 40
2.0
 40
2.0
 40
2.0
 40
3.0
 40
3.0
 40
3.0
 40
4.0
 40
4.0
 40
4.0
 40
4.0
 10
92.1721516696653
 20
-119.2910820556807
 30
0.0
 10
92.06121959504026
 20
-119.2910820556807
 30
0.0
 10
91.9723361315208
 20
-119.1896239936401
 30
0.0
 10
91.9723361315208
 20
-119.0626722250086
 30
0.0
 10
91.9723361315208
 20
-118.9357204563772
 30
0.0
 10
92.06121959504026
 20
-118.8320230822712
 30
0.0
 10
92.1721516696653
 20
-118.8320230822712
 30
0.0
 10
92.28342825383886
 20
-118.8320230822712
 30
0.0
 10
92.37403426510095
 20
-118.9357204563772
 30
0.0
 10
92.37403426510095
 20
-119.0626722250086
 30
0.0
 10
92.37403426510095
 20
-119.1896239936401
 30
0.0
 10
92.28342825383886
 20
-119.2910820556807
 30
0.0
 10
92.1721516696653
 20
-119.2910820556807
 30
0.0
  0
SPLINE
  5
C8
330
A2
100
AcDbEntity
  8
_U+30EC_U+30A4_U+30E4_U+30FC 1
370
     0
100
AcDbSpline
210
0.0
220
0.0
230
1.0
 70
    11
 71
     3
 72
    17
 73
    13
 74
     0
 42
0.0000000001
 43
0.0000000001
 12
1.0
 22
0.0
 32
0.0
 13
1.0
 23
0.0
 33
0.0
 40
0.0
 40
0.0
 40
0.0
 40
0.0
 40
1.0
 40
1.0
 40
1.0
 40
2.0
 40
2.0
 40
2.0
 40
3.0
 40
3.0
 40
3.0
 40
4.0
 40
4.0
 40
4.0
 40
4.0
 10
92.17042912192268
 20
-118.9610419081938
 30
0.0
 10
92.12219778512917
 20
-118.9610419081938
 30
0.0
 10
92.08326820614586
 20
-119.0054836399535
 30
0.0
 10
92.08326820614586
 20
-119.0606051677175
 30
0.0
 10
92.08326820614586
 20
-119.1176214979984
 30
0.0
 10
92.12219778512917
 20
-119.1663695991147
 30
0.0
 10
92.17421872695645
 20
-119.1663695991147
 30
0.0
 10
92.2258951592352
 20
-119.1663695991147
 30
0.0
 10
92.26103513318475
 20
-119.1155544407072
 30
0.0
 10
92.26103513318475
 20
-119.0626722250086
 30
0.0
 10
92.26103513318475
 20
-119.0054836399535
 30
0.0
 10
92.2203830064588
 20
-118.9610419081938
 30
0.0
 10
92.17042912192268
 20
-118.9610419081938
 30
0.0
  0
HATCH
  5
C9
330
A2
100
AcDbEntity
  8
_U+30EC_U+30A4_U+30E4_U+30FC 1
 62
   179
420
  2234388
100
AcDbHatch
 10
0.0
 20
0.0
 30
0.0
210
0.0
220
0.0
230
1.0
  2
SOLID
 70
     1
 71
     0
 91
        3
 92
        1
 93
        1
 72
     4
 94
        3
 73
     0
 74
     1
 95
       44
 96
       40
 40
0.0
 40
0.0
 40
0.0
 40
0.0
 40
1.0
 40
1.0
 40
1.0
 40
2.0
 40
2.0
 40
2.0
 40
3.0
 40
3.0
 40
3.0
 40
4.0
 40
4.0
 40
4.0
 40
5.0
 40
5.0
 40
5.0
 40
6.0
 40
6.0
 40
6.0
 40
7.0
 40
7.0
 40
7.0
 40
8.0
 40
8.0
 40
8.0
 40
9.0
 40
9.0
 40
9.0
 40
10.0
 40
10.0
 40
10.0
 40
11.0
 40
11.0
 40
11.0
 40
12.0
 40
12.0
 40
12.0
 40
13.0
 40
13.0
 40
13.0
 40
13.0
 10
91.98887258985
 20
-119.4900363199539
 10
91.89068736852039
 20
-119.8581447725528
 10
91.84624563676067
 20
-120.0167914196486
 10
91.67399086249817
 20
-120.2663885875549
 10
91.51310490333701
 20
-120.4970377302924
 10
91.30571015512497
 20
-120.6830728864959
 10
91.06110837567223
 20
-120.7762627193719
 10
91.06110837567223
 20
-120.7762627193719
 10
90.89264320644351
 20
-120.5964287350419
 10
90.89264320644351
 20
-120.5964287350419
 10
91.45384926099071
 20
-120.4441555145938
 10
91.74254826265465
 20
-119.887772593726
 10
91.79801429996716
 20
-119.4476616454853
 10
91.79801429996716
 20
-119.4476616454853
 10
91.12794322808607
 20
-119.4476616454853
 10
91.12794322808607
 20
-119.4476616454853
 10
91.04629446508565
 20
-119.4476616454853
 10
90.88540850592449
 20
-119.4519680148419
 10
90.74829370561154
 20
-119.4709160400107
 10
90.74829370561154
 20
-119.4709160400107
 10
90.74829370561154
 20
-119.2509466932775
 10
90.74829370561154
 20
-119.2509466932775
 10
90.82408580628704
 20
-119.2721340305118
 10
91.04457191734303
 20
-119.2721340305118
 10
91.13173283311986
 20
-119.2721340305118
 10
91.13173283311986
 20
-119.2721340305118
 10
91.50931529830324
 20
-119.2721340305118
 10
91.50931529830324
 20
-119.2721340305118
 10
91.54652232954393
 20
-119.2721340305118
 10
91.75185002046481
 20
-119.2698947184464
 10
91.78526744667174
 20
-119.263693546573
 10
91.82212996836391
 20
-119.2573201199253
 10
91.82419702565507
 20
-119.2552530626341
 10
91.87794051522496
 20
-119.2149454454567
 10
91.87794051522496
 20
-119.2149454454567
 10
92.0426160794199
 20
-119.3694579779701
 10
92.0426160794199
 20
-119.3694579779701
 10
92.01677786328054
 20
-119.3990857991433
 10
92.00368650043659
 20
-119.4307806776076
 10
91.98887258985
 20
-119.4900363199539
 97
        0
 97
        0
 92
        1
 93
        1
 72
     4
 94
        3
 73
     0
 74
     1
 95
       17
 96
       13
 40
0.0
 40
0.0
 40
0.0
 40
0.0
 40
1.0
 40
1.0
 40
1.0
 40
2.0
 40
2.0
 40
2.0
 40
3.0
 40
3.0
 40
3.0
 40
4.0
 40
4.0
 40
4.0
 40
4.0
 10
92.1721516696653
 20
-119.2910820556807
 10
92.06121959504026
 20
-119.2910820556807
 10
91.9723361315208
 20
-119.1896239936401
 10
91.9723361315208
 20
-119.0626722250086
 10
91.9723361315208
 20
-118.9357204563772
 10
92.06121959504026
 20
-118.8320230822712
 10
92.1721516696653
 20
-118.8320230822712
 10
92.28342825383886
 20
-118.8320230822712
 10
92.37403426510095
 20
-118.9357204563772
 10
92.37403426510095
 20
-119.0626722250086
 10
92.37403426510095
 20
-119.1896239936401
 10
92.28342825383886
 20
-119.2910820556807
 10
92.1721516696653
 20
-119.2910820556807
 97
        0
 97
        0
 92
        1
 93
        1
 72
     4
 94
        3
 73
     0
 74
     1
 95
       17
 96
       13
 40
0.0
 40
0.0
 40
0.0
 40
0.0
 40
1.0
 40
1.0
 40
1.0
 40
2.0
 40
2.0
 40
2.0
 40
3.0
 40
3.0
 40
3.0
 40
4.0
 40
4.0
 40
4.0
 40
4.0
 10
92.17042912192268
 20
-118.9610419081938
 10
92.12219778512917
 20
-118.9610419081938
 10
92.08326820614586
 20
-119.0054836399535
 10
92.08326820614586
 20
-119.0606051677175
 10
92.08326820614586
 20
-119.1176214979984
 10
92.12219778512917
 20
-119.1663695991147
 10
92.17421872695645
 20
-119.1663695991147
 10
92.2258951592352
 20
-119.1663695991147
 10
92.26103513318475
 20
-119.1155544407072
 10
92.26103513318475
 20
-119.0626722250086
 10
92.26103513318475
 20
-119.0054836399535
 10
92.2203830064588
 20
-118.9610419081938
 10
92.17042912192268
 20
-118.9610419081938
 97
        0
 97
        0
 75
     2
 76
     1
 98
        0
  0
ENDBLK
  5
A5
330
A2
100
AcDbEntity
  8
0
100
AcDbBlockEnd
  0
BLOCK
  5
CC
330
CA
100
AcDbEntity
  8
0
100
AcDbBlockBegin
  2
block 8
 70
     0
 10
0.0
 20
0.0
 30
0.0
  3
block 8
  1

  0
POLYLINE
  5
CE
330
CA
100
AcDbEntity
  8
_U+30EC_U+30A4_U+30E4_U+30FC 1
 62
     7
420
 16777215
370
     9
100
AcDb2dPolyline
 66
     1
 10
0.0
 20
0.0
 30
0.0
  0
VERTEX
  5
CF
330
CE
100
AcDbEntity
  8
_U+30EC_U+30A4_U+30E4_U+30FC 1
 62
     7
420
 16777215
370
     9
100
AcDbVertex
100
AcDb2dVertex
 10
119.4927800070408
 20
-131.0486894116823
 30
0.0
  0
VERTEX
  5
12E
330
CE
100
AcDbEntity
  8
0
100
AcDbVertex
100
AcDb2dVertex
 10
119.4927800070408
 20
-131.0486894116823
 30
0.0
  0
SEQEND
  5
D0
330
CE
100
AcDbEntity
  8
_U+30EC_U+30A4_U+30E4_U+30FC 1
 62
     7
420
 16777215
370
     9
  0
POLYLINE
  5
D1
330
CA
100
AcDbEntity
  8
_U+30EC_U+30A4_U+30E4_U+30FC 1
 62
     7
420
 16777215
370
     9
100
AcDb2dPolyline
 66
     1
 10
0.0
 20
0.0
 30
0.0
  0
VERTEX
  5
D2
330
D1
100
AcDbEntity
  8
_U+30EC_U+30A4_U+30E4_U+30FC 1
 62
     7
420
 16777215
370
     9
100
AcDbVertex
100
AcDb2dVertex
 10
119.2065008476777
 20
-131.2588391338519
 30
0.0
  0
VERTEX
  5
D3
330
D1
100
AcDbEntity
  8
_U+30EC_U+30A4_U+30E4_U+30FC 1
 62
     7
420
 16777215
370
     9
100
AcDbVertex
100
AcDb2dVertex
 10
110.2241085768376
 20
-135.0539519106807
 30
0.0
  0
VERTEX
  5
D4
330
D1
100
AcDbEntity
  8
_U+30EC_U+30A4_U+30E4_U+30FC 1
 62
     7
420
 16777215
370
     9
100
AcDbVertex
100
AcDb2dVertex
 10
110.2165238548089
 20
-134.8141688551855
 30
0.0
  0
VERTEX
  5
D5
330
D1
100
AcDbEntity
  8
_U+30EC_U+30A4_U+30E4_U+30FC 1
 62
     7
420
 16777215
370
     9
100
AcDbVertex
100
AcDb2dVertex
 10
119.2137327919376
 20
-131.0486894116823
 30
0.0
  0
SEQEND
  5
D6
330
D1
100
AcDbEntity
  8
_U+30EC_U+30A4_U+30E4_U+30FC 1
 62
     7
420
 16777215
370
     9
  0
POLYLINE
  5
D7
330
CA
100
AcDbEntity
  8
_U+30EC_U+30A4_U+30E4_U+30FC 1
 62
     7
420
 16777215
370
     9
100
AcDb2dPolyline
 66
     1
 10
0.0
 20
0.0
 30
0.0
  0
VERTEX
  5
D8
330
D7
100
AcDbEntity
  8
_U+30EC_U+30A4_U+30E4_U+30FC 1
 62
     7
420
 16777215
370
     9
100
AcDbVertex
100
AcDb2dVertex
 10
113.8917626499346
 20
-125.8240152463219
 30
0.0
  0
VERTEX
  5
D9
330
D7
100
AcDbEntity
  8
_U+30EC_U+30A4_U+30E4_U+30FC 1
 62
     7
420
 16777215
370
     9
100
AcDbVertex
100
AcDb2dVertex
 10
104.4294515024494
 20
-129.793294411996
 30
0.0
  0
VERTEX
  5
DA
330
D7
100
AcDbEntity
  8
_U+30EC_U+30A4_U+30E4_U+30FC 1
 62
     7
420
 16777215
370
     9
100
AcDbVertex
100
AcDb2dVertex
 10
104.4204909471224
 20
-132.341972744692
 30
0.0
  0
VERTEX
  5
DB
330
D7
100
AcDbEntity
  8
_U+30EC_U+30A4_U+30E4_U+30FC 1
 62
     7
420
 16777215
370
     9
100
AcDbVertex
100
AcDb2dVertex
 10
114.2338512523183
 20
-128.205618023504
 30
0.0
  0
SEQEND
  5
DC
330
D7
100
AcDbEntity
  8
_U+30EC_U+30A4_U+30E4_U+30FC 1
 62
     7
420
 16777215
370
     9
  0
INSERT
  5
DE
330
CA
100
AcDbEntity
  8
_U+30EC_U+30A4_U+30E4_U+30FC 1
100
AcDbBlockReference
  2
block 9
 10
0.0
 20
0.0
 30
0.0
  0
INSERT
  5
E4
330
CA
100
AcDbEntity
  8
_U+30EC_U+30A4_U+30E4_U+30FC 1
100
AcDbBlockReference
  2
block 10
 10
0.0
 20
0.0
 30
0.0
  0
INSERT
  5
EA
330
CA
100
AcDbEntity
  8
_U+30EC_U+30A4_U+30E4_U+30FC 1
100
AcDbBlockReference
  2
block 11
 10
0.0
 20
0.0
 30
0.0
  0
INSERT
  5
F0
330
CA
100
AcDbEntity
  8
_U+30EC_U+30A4_U+30E4_U+30FC 1
100
AcDbBlockReference
  2
block 12
 10
0.0
 20
0.0
 30
0.0
  0
INSERT
  5
F6
330
CA
100
AcDbEntity
  8
_U+30EC_U+30A4_U+30E4_U+30FC 1
100
AcDbBlockReference
  2
block 13
 10
0.0
 20
0.0
 30
0.0
  0
INSERT
  5
FC
330
CA
100
AcDbEntity
  8
_U+30EC_U+30A4_U+30E4_U+30FC 1
100
AcDbBlockReference
  2
block 14
 10
0.0
 20
0.0
 30
0.0
  0
INSERT
  5
102
330
CA
100
AcDbEntity
  8
_U+30EC_U+30A4_U+30E4_U+30FC 1
100
AcDbBlockReference
  2
block 15
 10
0.0
 20
0.0
 30
0.0
  0
INSERT
  5
108
330
CA
100
AcDbEntity
  8
_U+30EC_U+30A4_U+30E4_U+30FC 1
100
AcDbBlockReference
  2
block 16
 10
0.0
 20
0.0
 30
0.0
  0
INSERT
  5
10E
330
CA
100
AcDbEntity
  8
_U+30EC_U+30A4_U+30E4_U+30FC 1
100
AcDbBlockReference
  2
block 17
 10
0.0
 20
0.0
 30
0.0
  0
INSERT
  5
114
330
CA
100
AcDbEntity
  8
_U+30EC_U+30A4_U+30E4_U+30FC 1
100
AcDbBlockReference
  2
block 18
 10
0.0
 20
0.0
 30
0.0
  0
INSERT
  5
11A
330
CA
100
AcDbEntity
  8
_U+30EC_U+30A4_U+30E4_U+30FC 1
100
AcDbBlockReference
  2
block 19
 10
0.0
 20
0.0
 30
0.0
  0
POLYLINE
  5
11F
330
CA
100
AcDbEntity
  8
_U+30EC_U+30A4_U+30E4_U+30FC 1
 62
     7
420
 16777215
370
     9
100
AcDb2dPolyline
 66
     1
 10
0.0
 20
0.0
 30
0.0
  0
VERTEX
  5
120
330
11F
100
AcDbEntity
  8
_U+30EC_U+30A4_U+30E4_U+30FC 1
 62
     7
420
 16777215
370
     9
100
AcDbVertex
100
AcDb2dVertex
 10
119.2065008476777
 20
-131.2588391338519
 30
0.0
  0
VERTEX
  5
121
330
11F
100
AcDbEntity
  8
_U+30EC_U+30A4_U+30E4_U+30FC 1
 62
     7
420
 16777215
370
     9
100
AcDbVertex
100
AcDb2dVertex
 10
119.2137327919376
 20
-131.0486894116823
 30
0.0
  0
SEQEND
  5
122
330
11F
100
AcDbEntity
  8
_U+30EC_U+30A4_U+30E4_U+30FC 1
 62
     7
420
 16777215
370
     9
  0
POLYLINE
  5
123
330
CA
100
AcDbEntity
  8
_U+30EC_U+30A4_U+30E4_U+30FC 1
 62
     7
420
 16777215
370
     9
100
AcDb2dPolyline
 66
     1
 10
0.0
 20
0.0
 30
0.0
  0
VERTEX
  5
124
330
123
100
AcDbEntity
  8
_U+30EC_U+30A4_U+30E4_U+30FC 1
 62
     7
420
 16777215
370
     9
100
AcDbVertex
100
AcDb2dVertex
 10
110.2165238548089
 20
-134.8141688551855
 30
0.0
  0
VERTEX
  5
125
330
123
100
AcDbEntity
  8
_U+30EC_U+30A4_U+30E4_U+30FC 1
 62
     7
420
 16777215
370
     9
100
AcDbVertex
100
AcDb2dVertex
 10
104.4204909471224
 20
-132.341972744692
 30
0.0
  0
VERTEX
  5
126
330
123
100
AcDbEntity
  8
_U+30EC_U+30A4_U+30E4_U+30FC 1
 62
     7
420
 16777215
370
     9
100
AcDbVertex
100
AcDb2dVertex
 10
104.0932190110274
 20
-132.8600974667852
 30
0.0
  0
VERTEX
  5
127
330
123
100
AcDbEntity
  8
_U+30EC_U+30A4_U+30E4_U+30FC 1
 62
     7
420
 16777215
370
     9
100
AcDbVertex
100
AcDb2dVertex
 10
110.2241085768376
 20
-135.0539519106807
 30
0.0
  0
SEQEND
  5
128
330
123
100
AcDbEntity
  8
_U+30EC_U+30A4_U+30E4_U+30FC 1
 62
     7
420
 16777215
370
     9
  0
POLYLINE
  5
129
330
CA
100
AcDbEntity
  8
_U+30EC_U+30A4_U+30E4_U+30FC 1
 62
     7
420
 16777215
370
     9
100
AcDb2dPolyline
 66
     1
 10
0.0
 20
0.0
 30
0.0
  0
VERTEX
  5
12A
330
129
100
AcDbEntity
  8
_U+30EC_U+30A4_U+30E4_U+30FC 1
 62
     7
420
 16777215
370
     9
100
AcDbVertex
100
AcDb2dVertex
 10
104.4294515024494
 20
-129.793294411996
 30
0.0
  0
VERTEX
  5
12B
330
129
100
AcDbEntity
  8
_U+30EC_U+30A4_U+30E4_U+30FC 1
 62
     7
420
 16777215
370
     9
100
AcDbVertex
100
AcDb2dVertex
 10
104.2826959506379
 20
-129.8814888564184
 30
0.0
  0
VERTEX
  5
12C
330
129
100
AcDbEntity
  8
_U+30EC_U+30A4_U+30E4_U+30FC 1
 62
     7
420
 16777215
370
     9
100
AcDbVertex
100
AcDb2dVertex
 10
104.0932190110274
 20
-132.8600974667852
 30
0.0
  0
SEQEND
  5
12D
330
129
100
AcDbEntity
  8
_U+30EC_U+30A4_U+30E4_U+30FC 1
 62
     7
420
 16777215
370
     9
  0
ENDBLK
  5
CD
330
CA
100
AcDbEntity
  8
0
100
AcDbBlockEnd
  0
BLOCK
  5
DF
330
DD
100
AcDbEntity
  8
0
100
AcDbBlockBegin
  2
block 9
 70
     0
 10
0.0
 20
0.0
 30
0.0
  3
block 9
  1

  0
SPLINE
  5
E1
330
DD
100
AcDbEntity
  8
_U+30EC_U+30A4_U+30E4_U+30FC 1
 62
     7
420
 16777215
370
     9
100
AcDbSpline
210
0.0
220
0.0
230
1.0
 70
    11
 71
     3
 72
    17
 73
    13
 74
     0
 42
0.0000000001
 43
0.0000000001
 12
1.0
 22
0.0
 32
0.0
 13
1.0
 23
0.0
 33
0.0
 40
0.0
 40
0.0
 40
0.0
 40
0.0
 40
1.0
 40
1.0
 40
1.0
 40
2.0
 40
2.0
 40
2.0
 40
3.0
 40
3.0
 40
3.0
 40
4.0
 40
4.0
 40
4.0
 40
4.0
 10
108.3623591798903
 20
-132.6775349668308
 30
0.0
 10
108.3623591798903
 20
-132.8848977445565
 30
0.0
 10
108.0715997428638
 20
-133.0537371889589
 30
0.0
 10
107.7133186408932
 20
-133.0537371889589
 30
0.0
 10
107.3536617056244
 20
-133.0537371889589
 30
0.0
 10
107.0635725463585
 20
-132.8848977445565
 30
0.0
 10
107.0635725463585
 20
-132.6775349668308
 30
0.0
 10
107.0635725463585
 20
-132.4687610779941
 30
0.0
 10
107.3536617056244
 20
-132.2999216335917
 30
0.0
 10
107.7133186408932
 20
-132.2999216335917
 30
0.0
 10
108.0715997428638
 20
-132.2999216335917
 30
0.0
 10
108.3623591798903
 20
-132.4687610779941
 30
0.0
 10
108.3623591798903
 20
-132.6775349668308
 30
0.0
  0
SPLINE
  5
E2
330
DD
100
AcDbEntity
  8
_U+30EC_U+30A4_U+30E4_U+30FC 1
 62
     7
420
 16777215
370
     9
100
AcDbSpline
210
0.0
220
0.0
230
1.0
 70
     8
 71
     3
 72
    11
 73
     7
 74
     0
 42
0.0000000001
 43
0.0000000001
 12
1.0
 22
0.0
 32
0.0
 13
1.0
 23
0.0
 33
0.0
 40
0.0
 40
0.0
 40
0.0
 40
0.0
 40
1.0
 40
1.0
 40
1.0
 40
2.0
 40
2.0
 40
2.0
 40
2.0
 10
107.1758969879373
 20
-132.8835219112236
 30
0.0
 10
107.1758969879373
 20
-132.8835219112236
 30
0.0
 10
107.1572703217458
 20
-132.4322133002253
 30
0.0
 10
107.8910860841385
 20
-132.4694313557714
 30
0.0
 10
107.8910860841385
 20
-132.4694313557714
 30
0.0
 10
108.3251764030612
 20
-132.5259463557574
 30
0.0
 10
108.2493644605509
 20
-132.8649305223393
 30
0.0
  0
ENDBLK
  5
E0
330
DD
100
AcDbEntity
  8
0
100
AcDbBlockEnd
  0
BLOCK
  5
E5
330
E3
100
AcDbEntity
  8
0
100
AcDbBlockBegin
  2
block 10
 70
     0
 10
0.0
 20
0.0
 30
0.0
  3
block 10
  1

  0
SPLINE
  5
E7
330
E3
100
AcDbEntity
  8
_U+30EC_U+30A4_U+30E4_U+30FC 1
 62
     7
420
 16777215
370
     9
100
AcDbSpline
210
0.0
220
0.0
230
1.0
 70
    11
 71
     3
 72
    17
 73
    13
 74
     0
 42
0.0000000001
 43
0.0000000001
 12
1.0
 22
0.0
 32
0.0
 13
1.0
 23
0.0
 33
0.0
 40
0.0
 40
0.0
 40
0.0
 40
0.0
 40
1.0
 40
1.0
 40
1.0
 40
2.0
 40
2.0
 40
2.0
 40
3.0
 40
3.0
 40
3.0
 40
4.0
 40
4.0
 40
4.0
 40
4.0
 10
113.3129601647011
 20
-132.6775349668308
 30
0.0
 10
113.3129601647011
 20
-132.8848977445565
 30
0.0
 10
113.0222007276745
 20
-133.0537371889589
 30
0.0
 10
112.6632493479433
 20
-133.0537371889589
 30
0.0
 10
112.3052857459646
 20
-133.0537371889589
 30
0.0
 10
112.0138207534005
 20
-132.8848977445565
 30
0.0
 10
112.0138207534005
 20
-132.6775349668308
 30
0.0
 10
112.0138207534005
 20
-132.4687610779941
 30
0.0
 10
112.3052857459646
 20
-132.2999216335917
 30
0.0
 10
112.6632493479433
 20
-132.2999216335917
 30
0.0
 10
113.0222007276745
 20
-132.2999216335917
 30
0.0
 10
113.3129601647011
 20
-132.4687610779941
 30
0.0
 10
113.3129601647011
 20
-132.6775349668308
 30
0.0
  0
SPLINE
  5
E8
330
E3
100
AcDbEntity
  8
_U+30EC_U+30A4_U+30E4_U+30FC 1
 62
     7
420
 16777215
370
     9
100
AcDbSpline
210
0.0
220
0.0
230
1.0
 70
     8
 71
     3
 72
    11
 73
     7
 74
     0
 42
0.0000000001
 43
0.0000000001
 12
1.0
 22
0.0
 32
0.0
 13
1.0
 23
0.0
 33
0.0
 40
0.0
 40
0.0
 40
0.0
 40
0.0
 40
1.0
 40
1.0
 40
1.0
 40
2.0
 40
2.0
 40
2.0
 40
2.0
 10
112.1268154727399
 20
-132.8835219112236
 30
0.0
 10
112.1268154727399
 20
-132.8835219112236
 30
0.0
 10
112.1082240843254
 20
-132.4322133002253
 30
0.0
 10
112.841684343391
 20
-132.4694313557714
 30
0.0
 10
112.841684343391
 20
-132.4694313557714
 30
0.0
 10
113.2757773878719
 20
-132.5259463557574
 30
0.0
 10
113.1999654453616
 20
-132.8649305223393
 30
0.0
  0
ENDBLK
  5
E6
330
E3
100
AcDbEntity
  8
0
100
AcDbBlockEnd
  0
BLOCK
  5
EB
330
E9
100
AcDbEntity
  8
0
100
AcDbBlockBegin
  2
block 11
 70
     0
 10
0.0
 20
0.0
 30
0.0
  3
block 11
  1

  0
SPLINE
  5
ED
330
E9
100
AcDbEntity
  8
_U+30EC_U+30A4_U+30E4_U+30FC 1
 62
     7
420
 16777215
370
     9
100
AcDbSpline
210
0.0
220
0.0
230
1.0
 70
    11
 71
     3
 72
    17
 73
    13
 74
     0
 42
0.0000000001
 43
0.0000000001
 12
1.0
 22
0.0
 32
0.0
 13
1.0
 23
0.0
 33
0.0
 40
0.0
 40
0.0
 40
0.0
 40
0.0
 40
1.0
 40
1.0
 40
1.0
 40
2.0
 40
2.0
 40
2.0
 40
3.0
 40
3.0
 40
3.0
 40
4.0
 40
4.0
 40
4.0
 40
4.0
 10
110.6898810649548
 20
-133.8371507998741
 30
0.0
 10
110.6898810649548
 20
-134.0452191331553
 30
0.0
 10
110.3991216279282
 20
-134.2133530220022
 30
0.0
 10
110.0401349704201
 20
-134.2133530220022
 30
0.0
 10
109.6811483129119
 20
-134.2133530220022
 30
0.0
 10
109.3903916393193
 20
-134.0452191331553
 30
0.0
 10
109.3903916393193
 20
-133.8371507998741
 30
0.0
 10
109.3903916393193
 20
-133.6283769110373
 30
0.0
 10
109.6811483129119
 20
-133.4602430221905
 30
0.0
 10
110.0401349704201
 20
-133.4602430221905
 30
0.0
 10
110.3991216279282
 20
-133.4602430221905
 30
0.0
 10
110.6898810649548
 20
-133.6283769110373
 30
0.0
 10
110.6898810649548
 20
-133.8371507998741
 30
0.0
  0
SPLINE
  5
EE
330
E9
100
AcDbEntity
  8
_U+30EC_U+30A4_U+30E4_U+30FC 1
 62
     7
420
 16777215
370
     9
100
AcDbSpline
210
0.0
220
0.0
230
1.0
 70
     8
 71
     3
 72
    11
 73
     7
 74
     0
 42
0.0000000001
 43
0.0000000001
 12
1.0
 22
0.0
 32
0.0
 13
1.0
 23
0.0
 33
0.0
 40
0.0
 40
0.0
 40
0.0
 40
0.0
 40
1.0
 40
1.0
 40
1.0
 40
2.0
 40
2.0
 40
2.0
 40
2.0
 10
109.5033835952248
 20
-134.0438432998224
 30
0.0
 10
109.5033835952248
 20
-134.0438432998224
 30
0.0
 10
109.4840866512727
 20
-133.5925346888241
 30
0.0
 10
110.2192755214054
 20
-133.6290471888147
 30
0.0
 10
110.2192755214054
 20
-133.6290471888147
 30
0.0
 10
110.651992732588
 20
-133.6855621888007
 30
0.0
 10
110.5768863456153
 20
-134.0252519109381
 30
0.0
  0
ENDBLK
  5
EC
330
E9
100
AcDbEntity
  8
0
100
AcDbBlockEnd
  0
BLOCK
  5
F1
330
EF
100
AcDbEntity
  8
0
100
AcDbBlockBegin
  2
block 12
 70
     0
 10
0.0
 20
0.0
 30
0.0
  3
block 12
  1

  0
SPLINE
  5
F3
330
EF
100
AcDbEntity
  8
_U+30EC_U+30A4_U+30E4_U+30FC 1
 62
     7
420
 16777215
370
     9
100
AcDbSpline
210
0.0
220
0.0
230
1.0
 70
    11
 71
     3
 72
    17
 73
    13
 74
     0
 42
0.0000000001
 43
0.0000000001
 12
1.0
 22
0.0
 32
0.0
 13
1.0
 23
0.0
 33
0.0
 40
0.0
 40
0.0
 40
0.0
 40
0.0
 40
1.0
 40
1.0
 40
1.0
 40
2.0
 40
2.0
 40
2.0
 40
3.0
 40
3.0
 40
3.0
 40
4.0
 40
4.0
 40
4.0
 40
4.0
 10
110.6898810649548
 20
-132.8029121890212
 30
0.0
 10
110.6898810649548
 20
-133.0096399667477
 30
0.0
 10
110.3991216279282
 20
-133.1791144111499
 30
0.0
 10
110.0401349704201
 20
-133.1791144111499
 30
0.0
 10
109.6811483129119
 20
-133.1791144111499
 30
0.0
 10
109.3903916393193
 20
-133.0096399667477
 30
0.0
 10
109.3903916393193
 20
-132.8029121890212
 30
0.0
 10
109.3903916393193
 20
-132.5941383001851
 30
0.0
 10
109.6811483129119
 20
-132.4253341335602
 30
0.0
 10
110.0401349704201
 20
-132.4253341335602
 30
0.0
 10
110.3991216279282
 20
-132.4253341335602
 30
0.0
 10
110.6898810649548
 20
-132.5941383001851
 30
0.0
 10
110.6898810649548
 20
-132.8029121890212
 30
0.0
  0
SPLINE
  5
F4
330
EF
100
AcDbEntity
  8
_U+30EC_U+30A4_U+30E4_U+30FC 1
 62
     7
420
 16777215
370
     9
100
AcDbSpline
210
0.0
220
0.0
230
1.0
 70
     8
 71
     3
 72
    11
 73
     7
 74
     0
 42
0.0000000001
 43
0.0000000001
 12
1.0
 22
0.0
 32
0.0
 13
1.0
 23
0.0
 33
0.0
 40
0.0
 40
0.0
 40
0.0
 40
0.0
 40
1.0
 40
1.0
 40
1.0
 40
2.0
 40
2.0
 40
2.0
 40
2.0
 10
109.5033835952248
 20
-133.0089344111922
 30
0.0
 10
109.5033835952248
 20
-133.0089344111922
 30
0.0
 10
109.4840866512727
 20
-132.5569555224165
 30
0.0
 10
110.2192755214054
 20
-132.59484385574
 30
0.0
 10
110.2192755214054
 20
-132.59484385574
 30
0.0
 10
110.651992732588
 20
-132.6506533001704
 30
0.0
 10
110.5768863456153
 20
-132.9903430223079
 30
0.0
  0
ENDBLK
  5
F2
330
EF
100
AcDbEntity
  8
0
100
AcDbBlockEnd
  0
BLOCK
  5
F7
330
F5
100
AcDbEntity
  8
0
100
AcDbBlockBegin
  2
block 13
 70
     0
 10
0.0
 20
0.0
 30
0.0
  3
block 13
  1

  0
SPLINE
  5
F9
330
F5
100
AcDbEntity
  8
_U+30EC_U+30A4_U+30E4_U+30FC 1
 62
     7
420
 16777215
370
     9
100
AcDbSpline
210
0.0
220
0.0
230
1.0
 70
    11
 71
     3
 72
    17
 73
    13
 74
     0
 42
0.0000000001
 43
0.0000000001
 12
1.0
 22
0.0
 32
0.0
 13
1.0
 23
0.0
 33
0.0
 40
0.0
 40
0.0
 40
0.0
 40
0.0
 40
1.0
 40
1.0
 40
1.0
 40
2.0
 40
2.0
 40
2.0
 40
3.0
 40
3.0
 40
3.0
 40
4.0
 40
4.0
 40
4.0
 40
4.0
 10
110.6898810649548
 20
-131.635711633758
 30
0.0
 10
110.6898810649548
 20
-131.8431096892612
 30
0.0
 10
110.3991216279282
 20
-132.011913855886
 30
0.0
 10
110.0401349704201
 20
-132.011913855886
 30
0.0
 10
109.6811483129119
 20
-132.011913855886
 30
0.0
 10
109.3903916393193
 20
-131.8431096892612
 30
0.0
 10
109.3903916393193
 20
-131.635711633758
 30
0.0
 10
109.3903916393193
 20
-131.4269377449212
 30
0.0
 10
109.6811483129119
 20
-131.2581335782964
 30
0.0
 10
110.0401349704201
 20
-131.2581335782964
 30
0.0
 10
110.3991216279282
 20
-131.2581335782964
 30
0.0
 10
110.6898810649548
 20
-131.4269377449212
 30
0.0
 10
110.6898810649548
 20
-131.635711633758
 30
0.0
  0
SPLINE
  5
FA
330
F5
100
AcDbEntity
  8
_U+30EC_U+30A4_U+30E4_U+30FC 1
 62
     7
420
 16777215
370
     9
100
AcDbSpline
210
0.0
220
0.0
230
1.0
 70
     8
 71
     3
 72
    11
 73
     7
 74
     0
 42
0.0000000001
 43
0.0000000001
 12
1.0
 22
0.0
 32
0.0
 13
1.0
 23
0.0
 33
0.0
 40
0.0
 40
0.0
 40
0.0
 40
0.0
 40
1.0
 40
1.0
 40
1.0
 40
2.0
 40
2.0
 40
2.0
 40
2.0
 10
109.5033835952248
 20
-131.8424394114838
 30
0.0
 10
109.5033835952248
 20
-131.8424394114838
 30
0.0
 10
109.4840866512727
 20
-131.39042524493
 30
0.0
 10
110.2192755214054
 20
-131.4276433004767
 30
0.0
 10
110.2192755214054
 20
-131.4276433004767
 30
0.0
 10
110.651992732588
 20
-131.4841230226845
 30
0.0
 10
110.5768863456153
 20
-131.823142467044
 30
0.0
  0
ENDBLK
  5
F8
330
F5
100
AcDbEntity
  8
0
100
AcDbBlockEnd
  0
BLOCK
  5
FD
330
FB
100
AcDbEntity
  8
0
100
AcDbBlockBegin
  2
block 14
 70
     0
 10
0.0
 20
0.0
 30
0.0
  3
block 14
  1

  0
SPLINE
  5
FF
330
FB
100
AcDbEntity
  8
_U+30EC_U+30A4_U+30E4_U+30FC 1
 62
     7
420
 16777215
370
     9
100
AcDbSpline
210
0.0
220
0.0
230
1.0
 70
    11
 71
     3
 72
    17
 73
    13
 74
     0
 42
0.0000000001
 43
0.0000000001
 12
1.0
 22
0.0
 32
0.0
 13
1.0
 23
0.0
 33
0.0
 40
0.0
 40
0.0
 40
0.0
 40
0.0
 40
1.0
 40
1.0
 40
1.0
 40
2.0
 40
2.0
 40
2.0
 40
3.0
 40
3.0
 40
3.0
 40
4.0
 40
4.0
 40
4.0
 40
4.0
 10
117.4650133921067
 20
-131.1113780227778
 30
0.0
 10
117.4650133921067
 20
-131.3187760782816
 30
0.0
 10
117.1749242328409
 20
-131.4875802449058
 30
0.0
 10
116.8159375753327
 20
-131.4875802449058
 30
0.0
 10
116.4569861956014
 20
-131.4875802449058
 30
0.0
 10
116.1655212030373
 20
-131.3187760782816
 30
0.0
 10
116.1655212030373
 20
-131.1113780227778
 30
0.0
 10
116.1655212030373
 20
-130.902604133941
 30
0.0
 10
116.4569861956014
 20
-130.7337999673168
 30
0.0
 10
116.8159375753327
 20
-130.7337999673168
 30
0.0
 10
117.1749242328409
 20
-130.7337999673168
 30
0.0
 10
117.4650133921067
 20
-130.902604133941
 30
0.0
 10
117.4650133921067
 20
-131.1113780227778
 30
0.0
  0
SPLINE
  5
100
330
FB
100
AcDbEntity
  8
_U+30EC_U+30A4_U+30E4_U+30FC 1
 62
     7
420
 16777215
370
     9
100
AcDbSpline
210
0.0
220
0.0
230
1.0
 70
     8
 71
     3
 72
    11
 73
     7
 74
     0
 42
0.0000000001
 43
0.0000000001
 12
1.0
 22
0.0
 32
0.0
 13
1.0
 23
0.0
 33
0.0
 40
0.0
 40
0.0
 40
0.0
 40
0.0
 40
1.0
 40
1.0
 40
1.0
 40
2.0
 40
2.0
 40
2.0
 40
2.0
 10
116.2785159223768
 20
-131.3174002449487
 30
0.0
 10
116.2785159223768
 20
-131.3174002449487
 30
0.0
 10
116.2605948117229
 20
-130.8660916339504
 30
0.0
 10
116.9944078485573
 20
-130.9033096894966
 30
0.0
 10
116.9944078485573
 20
-130.9033096894966
 30
0.0
 10
117.4277953375007
 20
-130.9597894117043
 30
0.0
 10
117.3520186727672
 20
-131.2987735782863
 30
0.0
  0
ENDBLK
  5
FE
330
FB
100
AcDbEntity
  8
0
100
AcDbBlockEnd
  0
BLOCK
  5
103
330
101
100
AcDbEntity
  8
0
100
AcDbBlockBegin
  2
block 15
 70
     0
 10
0.0
 20
0.0
 30
0.0
  3
block 15
  1

  0
SPLINE
  5
105
330
101
100
AcDbEntity
  8
_U+30EC_U+30A4_U+30E4_U+30FC 1
 62
     7
420
 16777215
370
     9
100
AcDbSpline
210
0.0
220
0.0
230
1.0
 70
    11
 71
     3
 72
    17
 73
    13
 74
     0
 42
0.0000000001
 43
0.0000000001
 12
1.0
 22
0.0
 32
0.0
 13
1.0
 23
0.0
 33
0.0
 40
0.0
 40
0.0
 40
0.0
 40
0.0
 40
1.0
 40
1.0
 40
1.0
 40
2.0
 40
2.0
 40
2.0
 40
3.0
 40
3.0
 40
3.0
 40
4.0
 40
4.0
 40
4.0
 40
4.0
 10
112.9726001733844
 20
-130.785481911748
 30
0.0
 10
112.9726001733844
 20
-130.9942558005847
 30
0.0
 10
112.6825138607186
 20
-131.162354411654
 30
0.0
 10
112.3235596343873
 20
-131.162354411654
 30
0.0
 10
111.9645729768791
 20
-131.162354411654
 30
0.0
 10
111.6741310398445
 20
-130.9942558005847
 30
0.0
 10
111.6741310398445
 20
-130.785481911748
 30
0.0
 10
111.6741310398445
 20
-130.5780838562441
 30
0.0
 10
111.9645729768791
 20
-130.4092796896199
 30
0.0
 10
112.3235596343873
 20
-130.4092796896199
 30
0.0
 10
112.6825138607186
 20
-130.4092796896199
 30
0.0
 10
112.9726001733844
 20
-130.5780838562441
 30
0.0
 10
112.9726001733844
 20
-130.785481911748
 30
0.0
  0
SPLINE
  5
106
330
101
100
AcDbEntity
  8
_U+30EC_U+30A4_U+30E4_U+30FC 1
 62
     7
420
 16777215
370
     9
100
AcDbSpline
210
0.0
220
0.0
230
1.0
 70
     8
 71
     3
 72
    11
 73
     7
 74
     0
 42
0.0000000001
 43
0.0000000001
 12
1.0
 22
0.0
 32
0.0
 13
1.0
 23
0.0
 33
0.0
 40
0.0
 40
0.0
 40
0.0
 40
0.0
 40
1.0
 40
1.0
 40
1.0
 40
2.0
 40
2.0
 40
2.0
 40
2.0
 10
111.7864583053867
 20
-130.9928799672518
 30
0.0
 10
111.7864583053867
 20
-130.9928799672518
 30
0.0
 10
111.7685343707694
 20
-130.5415713562535
 30
0.0
 10
112.501994629835
 20
-130.5787541340221
 30
0.0
 10
112.501994629835
 20
-130.5787541340221
 30
0.0
 10
112.9360876743159
 20
-130.6345635784525
 30
0.0
 10
112.8596083051182
 20
-130.97425330059
 30
0.0
  0
ENDBLK
  5
104
330
101
100
AcDbEntity
  8
0
100
AcDbBlockEnd
  0
BLOCK
  5
109
330
107
100
AcDbEntity
  8
0
100
AcDbBlockBegin
  2
block 16
 70
     0
 10
0.0
 20
0.0
 30
0.0
  3
block 16
  1

  0
SPLINE
  5
10B
330
107
100
AcDbEntity
  8
_U+30EC_U+30A4_U+30E4_U+30FC 1
 62
     7
420
 16777215
370
     9
100
AcDbSpline
210
0.0
220
0.0
230
1.0
 70
    11
 71
     3
 72
    17
 73
    13
 74
     0
 42
0.0000000001
 43
0.0000000001
 12
1.0
 22
0.0
 32
0.0
 13
1.0
 23
0.0
 33
0.0
 40
0.0
 40
0.0
 40
0.0
 40
0.0
 40
1.0
 40
1.0
 40
1.0
 40
2.0
 40
2.0
 40
2.0
 40
3.0
 40
3.0
 40
3.0
 40
4.0
 40
4.0
 40
4.0
 40
4.0
 10
115.1299067850136
 20
-132.0863499669783
 30
0.0
 10
115.1299067850136
 20
-132.2937480224822
 30
0.0
 10
114.8384770702264
 20
-132.4625521891064
 30
0.0
 10
114.4801606904789
 20
-132.4625521891064
 30
0.0
 10
114.1212093107476
 20
-132.4625521891064
 30
0.0
 10
113.8304145959442
 20
-132.2937480224822
 30
0.0
 10
113.8304145959442
 20
-132.0863499669783
 30
0.0
 10
113.8304145959442
 20
-131.8775760781415
 30
0.0
 10
114.1212093107476
 20
-131.7094421892947
 30
0.0
 10
114.4801606904789
 20
-131.7094421892947
 30
0.0
 10
114.8384770702264
 20
-131.7094421892947
 30
0.0
 10
115.1299067850136
 20
-131.8775760781415
 30
0.0
 10
115.1299067850136
 20
-132.0863499669783
 30
0.0
  0
SPLINE
  5
10C
330
107
100
AcDbEntity
  8
_U+30EC_U+30A4_U+30E4_U+30FC 1
 62
     7
420
 16777215
370
     9
100
AcDbSpline
210
0.0
220
0.0
230
1.0
 70
     8
 71
     3
 72
    11
 73
     7
 74
     0
 42
0.0000000001
 43
0.0000000001
 12
1.0
 22
0.0
 32
0.0
 13
1.0
 23
0.0
 33
0.0
 40
0.0
 40
0.0
 40
0.0
 40
0.0
 40
1.0
 40
1.0
 40
1.0
 40
2.0
 40
2.0
 40
2.0
 40
2.0
 10
113.942739037523
 20
-132.2923721891493
 30
0.0
 10
113.942739037523
 20
-132.2923721891493
 30
0.0
 10
113.9248179268691
 20
-131.8410635781509
 30
0.0
 10
114.6586309637035
 20
-131.8782463559195
 30
0.0
 10
114.6586309637035
 20
-131.8782463559195
 30
0.0
 10
115.0920184526469
 20
-131.9347613559055
 30
0.0
 10
115.0162417879134
 20
-132.2737455224868
 30
0.0
  0
ENDBLK
  5
10A
330
107
100
AcDbEntity
  8
0
100
AcDbBlockEnd
  0
BLOCK
  5
10F
330
10D
100
AcDbEntity
  8
0
100
AcDbBlockBegin
  2
block 17
 70
     0
 10
0.0
 20
0.0
 30
0.0
  3
block 17
  1

  0
SPLINE
  5
111
330
10D
100
AcDbEntity
  8
_U+30EC_U+30A4_U+30E4_U+30FC 1
 62
     7
420
 16777215
370
     9
100
AcDbSpline
210
0.0
220
0.0
230
1.0
 70
    11
 71
     3
 72
    17
 73
    13
 74
     0
 42
0.0000000001
 43
0.0000000001
 12
1.0
 22
0.0
 32
0.0
 13
1.0
 23
0.0
 33
0.0
 40
0.0
 40
0.0
 40
0.0
 40
0.0
 40
1.0
 40
1.0
 40
1.0
 40
2.0
 40
2.0
 40
2.0
 40
3.0
 40
3.0
 40
3.0
 40
4.0
 40
4.0
 40
4.0
 40
4.0
 10
115.1299067850136
 20
-131.052111356126
 30
0.0
 10
115.1299067850136
 20
-131.2608852449628
 30
0.0
 10
114.8384770702264
 20
-131.4290191338096
 30
0.0
 10
114.4801606904789
 20
-131.4290191338096
 30
0.0
 10
114.1212093107476
 20
-131.4290191338096
 30
0.0
 10
113.8304145959442
 20
-131.2608852449628
 30
0.0
 10
113.8304145959442
 20
-131.052111356126
 30
0.0
 10
113.8304145959442
 20
-130.8440430228448
 30
0.0
 10
114.1212093107476
 20
-130.67523885622
 30
0.0
 10
114.4801606904789
 20
-130.67523885622
 30
0.0
 10
114.8384770702264
 20
-130.67523885622
 30
0.0
 10
115.1299067850136
 20
-130.8440430228448
 30
0.0
 10
115.1299067850136
 20
-131.052111356126
 30
0.0
  0
SPLINE
  5
112
330
10D
100
AcDbEntity
  8
_U+30EC_U+30A4_U+30E4_U+30FC 1
 62
     7
420
 16777215
370
     9
100
AcDbSpline
210
0.0
220
0.0
230
1.0
 70
     8
 71
     3
 72
    11
 73
     7
 74
     0
 42
0.0000000001
 43
0.0000000001
 12
1.0
 22
0.0
 32
0.0
 13
1.0
 23
0.0
 33
0.0
 40
0.0
 40
0.0
 40
0.0
 40
0.0
 40
1.0
 40
1.0
 40
1.0
 40
2.0
 40
2.0
 40
2.0
 40
2.0
 10
113.942739037523
 20
-131.2588391338519
 30
0.0
 10
113.942739037523
 20
-131.2588391338519
 30
0.0
 10
113.9248179268691
 20
-130.8075305228536
 30
0.0
 10
114.6586309637035
 20
-130.8447133006222
 30
0.0
 10
114.6586309637035
 20
-130.8447133006222
 30
0.0
 10
115.0920184526469
 20
-130.9012283006081
 30
0.0
 10
115.0162417879134
 20
-131.2409180227456
 30
0.0
  0
ENDBLK
  5
110
330
10D
100
AcDbEntity
  8
0
100
AcDbBlockEnd
  0
BLOCK
  5
115
330
113
100
AcDbEntity
  8
0
100
AcDbBlockBegin
  2
block 18
 70
     0
 10
0.0
 20
0.0
 30
0.0
  3
block 18
  1

  0
SPLINE
  5
117
330
113
100
AcDbEntity
  8
_U+30EC_U+30A4_U+30E4_U+30FC 1
 62
     7
420
 16777215
370
     9
100
AcDbSpline
210
0.0
220
0.0
230
1.0
 70
    11
 71
     3
 72
    17
 73
    13
 74
     0
 42
0.0000000001
 43
0.0000000001
 12
1.0
 22
0.0
 32
0.0
 13
1.0
 23
0.0
 33
0.0
 40
0.0
 40
0.0
 40
0.0
 40
0.0
 40
1.0
 40
1.0
 40
1.0
 40
2.0
 40
2.0
 40
2.0
 40
3.0
 40
3.0
 40
3.0
 40
4.0
 40
4.0
 40
4.0
 40
4.0
 10
113.0849246149632
 20
-131.7342424670667
 30
0.0
 10
113.0849246149632
 20
-131.9423460781255
 30
0.0
 10
112.7934596223991
 20
-132.1104446891948
 30
0.0
 10
112.4351785204285
 20
-132.1104446891948
 30
0.0
 10
112.0772149184498
 20
-132.1104446891948
 30
0.0
 10
111.7857527498312
 20
-131.9423460781255
 30
0.0
 10
111.7857527498312
 20
-131.7342424670667
 30
0.0
 10
111.7857527498312
 20
-131.52546857823
 30
0.0
 10
112.0772149184498
 20
-131.3573699671607
 30
0.0
 10
112.4351785204285
 20
-131.3573699671607
 30
0.0
 10
112.7934596223991
 20
-131.3573699671607
 30
0.0
 10
113.0849246149632
 20
-131.52546857823
 30
0.0
 10
113.0849246149632
 20
-131.7342424670667
 30
0.0
  0
SPLINE
  5
118
330
113
100
AcDbEntity
  8
_U+30EC_U+30A4_U+30E4_U+30FC 1
 62
     7
420
 16777215
370
     9
100
AcDbSpline
210
0.0
220
0.0
230
1.0
 70
     8
 71
     3
 72
    11
 73
     7
 74
     0
 42
0.0000000001
 43
0.0000000001
 12
1.0
 22
0.0
 32
0.0
 13
1.0
 23
0.0
 33
0.0
 40
0.0
 40
0.0
 40
0.0
 40
0.0
 40
1.0
 40
1.0
 40
1.0
 40
2.0
 40
2.0
 40
2.0
 40
2.0
 10
111.8987799230021
 20
-131.9409702447926
 30
0.0
 10
111.8987799230021
 20
-131.9409702447926
 30
0.0
 10
111.8801532568106
 20
-131.4889560782387
 30
0.0
 10
112.6136135158763
 20
-131.5261741337848
 30
0.0
 10
112.6136135158763
 20
-131.5261741337848
 30
0.0
 10
113.0483768381178
 20
-131.5826538559933
 30
0.0
 10
112.9719298956237
 20
-131.9223435781308
 30
0.0
  0
ENDBLK
  5
116
330
113
100
AcDbEntity
  8
0
100
AcDbBlockEnd
  0
BLOCK
  5
11B
330
119
100
AcDbEntity
  8
0
100
AcDbBlockBegin
  2
block 19
 70
     0
 10
0.0
 20
0.0
 30
0.0
  3
block 19
  1

  0
SPLINE
  5
11D
330
119
100
AcDbEntity
  8
_U+30EC_U+30A4_U+30E4_U+30FC 1
 62
     7
420
 16777215
370
     9
100
AcDbSpline
210
0.0
220
0.0
230
1.0
 70
    11
 71
     3
 72
    17
 73
    13
 74
     0
 42
0.0000000001
 43
0.0000000001
 12
1.0
 22
0.0
 32
0.0
 13
1.0
 23
0.0
 33
0.0
 40
0.0
 40
0.0
 40
0.0
 40
0.0
 40
1.0
 40
1.0
 40
1.0
 40
2.0
 40
2.0
 40
2.0
 40
3.0
 40
3.0
 40
3.0
 40
4.0
 40
4.0
 40
4.0
 40
4.0
 10
115.1299067850136
 20
-129.8849108008622
 30
0.0
 10
115.1299067850136
 20
-130.0930144119209
 30
0.0
 10
114.8384770702264
 20
-130.2611130229902
 30
0.0
 10
114.4801606904789
 20
-130.2611130229902
 30
0.0
 10
114.1212093107476
 20
-130.2611130229902
 30
0.0
 10
113.8304145959442
 20
-130.0930144119209
 30
0.0
 10
113.8304145959442
 20
-129.8849108008622
 30
0.0
 10
113.8304145959442
 20
-129.6768424675809
 30
0.0
 10
114.1212093107476
 20
-129.5087085787341
 30
0.0
 10
114.4801606904789
 20
-129.5087085787341
 30
0.0
 10
114.8384770702264
 20
-129.5087085787341
 30
0.0
 10
115.1299067850136
 20
-129.6768424675809
 30
0.0
 10
115.1299067850136
 20
-129.8849108008622
 30
0.0
  0
SPLINE
  5
11E
330
119
100
AcDbEntity
  8
_U+30EC_U+30A4_U+30E4_U+30FC 1
 62
     7
420
 16777215
370
     9
100
AcDbSpline
210
0.0
220
0.0
230
1.0
 70
     8
 71
     3
 72
    11
 73
     7
 74
     0
 42
0.0000000001
 43
0.0000000001
 12
1.0
 22
0.0
 32
0.0
 13
1.0
 23
0.0
 33
0.0
 40
0.0
 40
0.0
 40
0.0
 40
0.0
 40
1.0
 40
1.0
 40
1.0
 40
2.0
 40
2.0
 40
2.0
 40
2.0
 10
113.942739037523
 20
-130.091638578588
 30
0.0
 10
113.942739037523
 20
-130.091638578588
 30
0.0
 10
113.9248179268691
 20
-129.6403299675897
 30
0.0
 10
114.6586309637035
 20
-129.6775127453583
 30
0.0
 10
114.6586309637035
 20
-129.6775127453583
 30
0.0
 10
115.0920184526469
 20
-129.7340277453443
 30
0.0
 10
115.0162417879134
 20
-130.0730119119262
 30
0.0
  0
ENDBLK
  5
11C
330
119
100
AcDbEntity
  8
0
100
AcDbBlockEnd
  0
ENDSEC
  0
SECTION
  2
ENTITIES
  0
INSERT
  5
42
330
1F
100
AcDbEntity
  8
_U+30EC_U+30A4_U+30E4_U+30FC 1
100
AcDbBlockReference
  2
block 2
 10
0.0
 20
0.0
 30
0.0
  0
ENDSEC
  0
SECTION
  2
OBJECTS
  0
DICTIONARY
  5
C
330
0
100
AcDbDictionary
281
     1
  3
ACAD_GROUP
350
D
  3
ACAD_LAYOUT
350
1A
  3
ACAD_MATERIAL
350
3B
  3
ACAD_MLEADERSTYLE
350
130
  3
ACAD_MLINESTYLE
350
17
  3
ACAD_PLOTSETTINGS
350
19
  3
ACAD_PLOTSTYLENAME
350
E
  3
ACAD_TABLESTYLE
350
12F
  3
ACAD_VISUALSTYLE
350
2A
  0
SUN
  5
3F
330
29
100
AcDbSun
 90
        1
290
     0
 63
     7
421
 16777215
 40
1.0
291
     1
 91
  2455826
 92
 54000000
292
     0
 70
     2
 71
   256
280
     1
  0
DICTIONARY
  5
D
102
{ACAD_REACTORS
330
C
102
}
330
C
100
AcDbDictionary
281
     1
  0
DICTIONARY
  5
1A
102
{ACAD_REACTORS
330
C
102
}
330
C
100
AcDbDictionary
281
     1
  3
Layout1
350
1E
  3
Layout2
350
26
  3
Model
350
22
  0
DICTIONARY
  5
3B
102
{ACAD_REACTORS
330
C
102
}
330
C
100
AcDbDictionary
281
     1
  3
ByBlock
350
3D
  3
ByLayer
350
3C
  3
Global
350
3E
  0
DICTIONARY
  5
130
102
{ACAD_REACTORS
330
C
102
}
330
C
100
AcDbDictionary
281
     1
  0
DICTIONARY
  5
17
102
{ACAD_REACTORS
330
C
102
}
330
C
100
AcDbDictionary
281
     1
  3
Standard
350
18
  0
DICTIONARY
  5
19
102
{ACAD_REACTORS
330
C
102
}
330
C
100
AcDbDictionary
281
     1
  0
ACDBDICTIONARYWDFLT
  5
E
102
{ACAD_REACTORS
330
C
102
}
330
C
100
AcDbDictionary
281
     1
  3
Normal
350
F
100
AcDbDictionaryWithDefault
340
F
  0
DICTIONARY
  5
12F
102
{ACAD_REACTORS
330
C
102
}
330
C
100
AcDbDictionary
281
     1
  0
DICTIONARY
  5
2A
102
{ACAD_REACTORS
330
C
102
}
330
C
100
AcDbDictionary
281
     1
  3
2dWireframe
350
2F
  3
3D Hidden
350
31
  3
3dWireframe
350
30
  3
Basic
350
32
  3
Brighten
350
36
  3
ColorChange
350
3A
  3
Conceptual
350
34
  3
Dim
350
35
  3
Facepattern
350
39
  3
Flat
350
2B
  3
FlatWithEdges
350
2C
  3
Gouraud
350
2D
  3
GouraudWithEdges
350
2E
  3
Linepattern
350
38
  3
Realistic
350
33
  3
Thicken
350
37
  0
LAYOUT
  5
1E
102
{ACAD_REACTORS
330
1A
102
}
330
1A
100
AcDbPlotSettings
  1

  2
none_device
  4

  6

 40
0.0
 41
0.0
 42
0.0
 43
0.0
 44
0.0
 45
0.0
 46
0.0
 47
0.0
 48
0.0
 49
0.0
140
0.0
141
0.0
142
1.0
143
1.0
 70
   688
 72
     0
 73
     0
 74
     5
  7

 75
    16
 76
     0
 77
     2
 78
   300
147
1.0
148
0.0
149
0.0
100
AcDbLayout
  1
Layout1
 70
     1
 71
     1
 10
0.0
 20
0.0
 11
12.0
 21
9.0
 12
0.0
 22
0.0
 32
0.0
 14
1.000000000000000E+20
 24
1.000000000000000E+20
 34
1.000000000000000E+20
 15
-1.000000000000000E+20
 25
-1.000000000000000E+20
 35
-1.000000000000000E+20
146
0.0
 13
0.0
 23
0.0
 33
0.0
 16
1.0
 26
0.0
 36
0.0
 17
0.0
 27
1.0
 37
0.0
 76
     0
330
1B
  0
LAYOUT
  5
26
102
{ACAD_REACTORS
330
1A
102
}
330
1A
100
AcDbPlotSettings
  1

  2
none_device
  4

  6

 40
0.0
 41
0.0
 42
0.0
 43
0.0
 44
0.0
 45
0.0
 46
0.0
 47
0.0
 48
0.0
 49
0.0
140
0.0
141
0.0
142
1.0
143
1.0
 70
   688
 72
     0
 73
     0
 74
     5
  7

 75
    16
 76
     0
 77
     2
 78
   300
147
1.0
148
0.0
149
0.0
100
AcDbLayout
  1
Layout2
 70
     1
 71
     2
 10
0.0
 20
0.0
 11
0.0
 21
0.0
 12
0.0
 22
0.0
 32
0.0
 14
0.0
 24
0.0
 34
0.0
 15
0.0
 25
0.0
 35
0.0
146
0.0
 13
0.0
 23
0.0
 33
0.0
 16
1.0
 26
0.0
 36
0.0
 17
0.0
 27
1.0
 37
0.0
 76
     0
330
23
  0
LAYOUT
  5
22
102
{ACAD_REACTORS
330
1A
102
}
330
1A
100
AcDbPlotSettings
  1

  2
none_device
  4

  6

 40
0.0
 41
0.0
 42
0.0
 43
0.0
 44
0.0
 45
0.0
 46
0.0
 47
0.0
 48
0.0
 49
0.0
140
0.0
141
0.0
142
1.0
143
1.0
 70
  1712
 72
     0
 73
     0
 74
     0
  7

 75
     0
 76
     0
 77
     2
 78
   300
147
1.0
148
0.0
149
0.0
100
AcDbLayout
  1
Model
 70
     1
 71
     0
 10
0.0
 20
0.0
 11
12.0
 21
9.0
 12
0.0
 22
0.0
 32
0.0
 14
1.000000000000000E+20
 24
1.000000000000000E+20
 34
1.000000000000000E+20
 15
-1.000000000000000E+20
 25
-1.000000000000000E+20
 35
-1.000000000000000E+20
146
0.0
 13
0.0
 23
0.0
 33
0.0
 16
1.0
 26
0.0
 36
0.0
 17
0.0
 27
1.0
 37
0.0
 76
     0
330
1F
331
29
  0
MATERIAL
  5
3D
102
{ACAD_REACTORS
330
3B
102
}
330
3B
100
AcDbMaterial
  1
ByBlock
 72
     1
 94
      127
  0
MATERIAL
  5
3C
102
{ACAD_REACTORS
330
3B
102
}
330
3B
100
AcDbMaterial
  1
ByLayer
 72
     1
 94
      127
  0
MATERIAL
  5
3E
102
{ACAD_REACTORS
330
3B
102
}
330
3B
100
AcDbMaterial
  1
Global
 72
     1
 94
      127
  0
MLINESTYLE
  5
18
102
{ACAD_REACTORS
330
17
102
}
330
17
100
AcDbMlineStyle
  2
Standard
 70
     0
  3

 62
   256
 51
90.0
 52
90.0
 71
     2
 49
0.5
 62
   256
  6
BYLAYER
 49
-0.5
 62
   256
  6
BYLAYER
  0
ACDBPLACEHOLDER
  5
F
102
{ACAD_REACTORS
330
E
102
}
330
E
  0
VISUALSTYLE
  5
2F
102
{ACAD_REACTORS
330
2A
102
}
330
2A
100
AcDbVisualStyle
  2
2dWireframe
 70
     4
177
     2
291
     0
 71
     0
176
     1
 72
     2
176
     1
 73
     0
176
     1
 90
        0
176
     1
 40
-0.6
176
     1
 41
-30.0
176
     1
 62
     5
 63
     7
421
 16777215
176
     1
 74
     1
176
     1
 91
        4
176
     1
 64
     7
176
     1
 65
   257
176
     1
 75
     1
176
     1
175
     1
176
     1
 42
1.0
176
     1
 92
        0
176
     1
 66
   257
176
     1
 43
1.0
176
     1
 76
     1
176
     1
 77
     6
176
     1
 78
     2
176
     1
 67
     7
176
     1
 79
     5
176
     1
170
     0
176
     1
171
     0
176
     1
290
     0
176
     1
 93
        1
176
     1
 44
0.0
176
     1
173
     0
176
     1
  0
VISUALSTYLE
  5
31
102
{ACAD_REACTORS
330
2A
102
}
330
2A
100
AcDbVisualStyle
  2
3D Hidden
 70
     6
177
     2
291
     0
 71
     1
176
     1
 72
     2
176
     1
 73
     2
176
     1
 90
        0
176
     1
 40
-0.6
176
     1
 41
-30.0
176
     1
 62
     5
 63
     7
421
 16777215
176
     1
 74
     2
176
     1
 91
        2
176
     1
 64
     7
176
     1
 65
   257
176
     1
 75
     2
176
     1
175
     1
176
     1
 42
40.0
176
     1
 92
        0
176
     1
 66
   257
176
     1
 43
1.0
176
     1
 76
     1
176
     1
 77
     6
176
     1
 78
     2
176
     1
 67
     7
176
     1
 79
     3
176
     1
170
     0
176
     1
171
     0
176
     1
290
     0
176
     1
 93
        1
176
     1
 44
0.0
176
     1
173
     0
176
     1
  0
VISUALSTYLE
  5
30
102
{ACAD_REACTORS
330
2A
102
}
330
2A
100
AcDbVisualStyle
  2
3dWireframe
 70
     5
177
     2
291
     0
 71
     0
176
     1
 72
     2
176
     1
 73
     0
176
     1
 90
        0
176
     1
 40
-0.6
176
     1
 41
-30.0
176
     1
 62
     5
 63
     7
421
 16777215
176
     1
 74
     1
176
     1
 91
        4
176
     1
 64
     7
176
     1
 65
   257
176
     1
 75
     1
176
     1
175
     1
176
     1
 42
1.0
176
     1
 92
        0
176
     1
 66
   257
176
     1
 43
1.0
176
     1
 76
     1
176
     1
 77
     6
176
     1
 78
     2
176
     1
 67
     7
176
     1
 79
     5
176
     1
170
     0
176
     1
171
     0
176
     1
290
     0
176
     1
 93
        1
176
     1
 44
0.0
176
     1
173
     0
176
     1
  0
VISUALSTYLE
  5
32
102
{ACAD_REACTORS
330
2A
102
}
330
2A
100
AcDbVisualStyle
  2
Basic
 70
     7
177
     2
291
     1
 71
     1
176
     1
 72
     0
176
     1
 73
     1
176
     1
 90
        0
176
     1
 40
-0.6
176
     1
 41
-30.0
176
     1
 62
     5
 63
     7
421
 16777215
176
     1
 74
     0
176
     1
 91
        4
176
     1
 64
     7
176
     1
 65
   257
176
     1
 75
     1
176
     1
175
     1
176
     1
 42
1.0
176
     1
 92
        8
176
     1
 66
     7
176
     1
 43
1.0
176
     1
 76
     1
176
     1
 77
     6
176
     1
 78
     2
176
     1
 67
     7
176
     1
 79
     5
176
     1
170
     0
176
     1
171
     0
176
     1
290
     0
176
     1
 93
        1
176
     1
 44
0.0
176
     1
173
     0
176
     1
  0
VISUALSTYLE
  5
36
102
{ACAD_REACTORS
330
2A
102
}
330
2A
100
AcDbVisualStyle
  2
Brighten
 70
    12
177
     2
291
     1
 71
     2
176
     1
 72
     2
176
     1
 73
     0
176
     1
 90
        0
176
     1
 40
-0.6
176
     1
 41
-30.0
176
     1
 62
     5
 63
     7
421
 16777215
176
     1
 74
     1
176
     1
 91
        4
176
     1
 64
     7
176
     1
 65
   257
176
     1
 75
     1
176
     1
175
     1
176
     1
 42
1.0
176
     1
 92
        8
176
     1
 66
     7
176
     1
 43
1.0
176
     1
 76
     1
176
     1
 77
     6
176
     1
 78
     2
176
     1
 67
     7
176
     1
 79
     5
176
     1
170
     0
176
     1
171
     0
176
     1
290
     0
176
     1
 93
        1
176
     1
 44
50.0
176
     1
173
     0
176
     1
  0
VISUALSTYLE
  5
3A
102
{ACAD_REACTORS
330
2A
102
}
330
2A
100
AcDbVisualStyle
  2
ColorChange
 70
    16
177
     2
291
     1
 71
     2
176
     1
 72
     2
176
     1
 73
     3
176
     1
 90
        0
176
     1
 40
-0.6
176
     1
 41
-30.0
176
     1
 62
     5
 63
     8
421
  8421504
176
     1
 74
     1
176
     1
 91
        4
176
     1
 64
     7
176
     1
 65
   257
176
     1
 75
     1
176
     1
175
     1
176
     1
 42
1.0
176
     1
 92
        8
176
     1
 66
     8
424
  8421504
176
     1
 43
1.0
176
     1
 76
     1
176
     1
 77
     6
176
     1
 78
     2
176
     1
 67
     7
176
     1
 79
     5
176
     1
170
     0
176
     1
171
     0
176
     1
290
     0
176
     1
 93
        1
176
     1
 44
0.0
176
     1
173
     0
176
     1
  0
VISUALSTYLE
  5
34
102
{ACAD_REACTORS
330
2A
102
}
330
2A
100
AcDbVisualStyle
  2
Conceptual
 70
     9
177
     2
291
     0
 71
     3
176
     1
 72
     2
176
     1
 73
     0
176
     1
 90
        0
176
     1
 40
-0.6
176
     1
 41
-30.0
176
     1
 62
     5
 63
     7
421
 16777215
176
     1
 74
     2
176
     1
 91
        2
176
     1
 64
     7
176
     1
 65
   257
176
     1
 75
     1
176
     1
175
     1
176
     1
 42
40.0
176
     1
 92
        8
176
     1
 66
     7
176
     1
 43
1.0
176
     1
 76
     1
176
     1
 77
     6
176
     1
 78
     2
176
     1
 67
     7
176
     1
 79
     3
176
     1
170
     0
176
     1
171
     0
176
     1
290
     0
176
     1
 93
        1
176
     1
 44
0.0
176
     1
173
     0
176
     1
  0
VISUALSTYLE
  5
35
102
{ACAD_REACTORS
330
2A
102
}
330
2A
100
AcDbVisualStyle
  2
Dim
 70
    11
177
     2
291
     1
 71
     2
176
     1
 72
     2
176
     1
 73
     0
176
     1
 90
        0
176
     1
 40
-0.6
176
     1
 41
-30.0
176
     1
 62
     5
 63
     7
421
 16777215
176
     1
 74
     1
176
     1
 91
        4
176
     1
 64
     7
176
     1
 65
   257
176
     1
 75
     1
176
     1
175
     1
176
     1
 42
1.0
176
     1
 92
        8
176
     1
 66
     7
176
     1
 43
1.0
176
     1
 76
     1
176
     1
 77
     6
176
     1
 78
     2
176
     1
 67
     7
176
     1
 79
     5
176
     1
170
     0
176
     1
171
     0
176
     1
290
     0
176
     1
 93
        1
176
     1
 44
-50.0
176
     1
173
     0
176
     1
  0
VISUALSTYLE
  5
39
102
{ACAD_REACTORS
330
2A
102
}
330
2A
100
AcDbVisualStyle
  2
Facepattern
 70
    15
177
     2
291
     1
 71
     2
176
     1
 72
     2
176
     1
 73
     0
176
     1
 90
        0
176
     1
 40
-0.6
176
     1
 41
-30.0
176
     1
 62
     5
 63
     7
421
 16777215
176
     1
 74
     1
176
     1
 91
        4
176
     1
 64
     7
176
     1
 65
   257
176
     1
 75
     1
176
     1
175
     1
176
     1
 42
1.0
176
     1
 92
        8
176
     1
 66
     7
176
     1
 43
1.0
176
     1
 76
     1
176
     1
 77
     6
176
     1
 78
     2
176
     1
 67
     7
176
     1
 79
     5
176
     1
170
     0
176
     1
171
     0
176
     1
290
     0
176
     1
 93
        1
176
     1
 44
0.0
176
     1
173
     0
176
     1
  0
VISUALSTYLE
  5
2B
102
{ACAD_REACTORS
330
2A
102
}
330
2A
100
AcDbVisualStyle
  2
Flat
 70
     0
177
     2
291
     1
 71
     2
176
     1
 72
     1
176
     1
 73
     1
176
     1
 90
        2
176
     1
 40
-0.6
176
     1
 41
30.0
176
     1
 62
     5
 63
     7
421
 16777215
176
     1
 74
     0
176
     1
 91
        4
176
     1
 64
     7
176
     1
 65
   257
176
     1
 75
     1
176
     1
175
     1
176
     1
 42
1.0
176
     1
 92
        8
176
     1
 66
     7
176
     1
 43
1.0
176
     1
 76
     1
176
     1
 77
     6
176
     1
 78
     2
176
     1
 67
     7
176
     1
 79
     5
176
     1
170
     0
176
     1
171
     0
176
     1
290
     0
176
     1
 93
       13
176
     1
 44
0.0
176
     1
173
     0
176
     1
  0
VISUALSTYLE
  5
2C
102
{ACAD_REACTORS
330
2A
102
}
330
2A
100
AcDbVisualStyle
  2
FlatWithEdges
 70
     1
177
     2
291
     1
 71
     2
176
     1
 72
     1
176
     1
 73
     1
176
     1
 90
        2
176
     1
 40
-0.6
176
     1
 41
30.0
176
     1
 62
     5
 63
     7
421
 16777215
176
     1
 74
     1
176
     1
 91
        4
176
     1
 64
     7
176
     1
 65
   257
176
     1
 75
     1
176
     1
175
     1
176
     1
 42
1.0
176
     1
 92
        0
176
     1
 66
   257
176
     1
 43
1.0
176
     1
 76
     1
176
     1
 77
     6
176
     1
 78
     2
176
     1
 67
     7
176
     1
 79
     5
176
     1
170
     0
176
     1
171
     0
176
     1
290
     0
176
     1
 93
       13
176
     1
 44
0.0
176
     1
173
     0
176
     1
  0
VISUALSTYLE
  5
2D
102
{ACAD_REACTORS
330
2A
102
}
330
2A
100
AcDbVisualStyle
  2
Gouraud
 70
     2
177
     2
291
     1
 71
     2
176
     1
 72
     2
176
     1
 73
     1
176
     1
 90
        2
176
     1
 40
-0.6
176
     1
 41
30.0
176
     1
 62
     5
 63
     7
421
 16777215
176
     1
 74
     0
176
     1
 91
        4
176
     1
 64
     7
176
     1
 65
   257
176
     1
 75
     1
176
     1
175
     1
176
     1
 42
1.0
176
     1
 92
        0
176
     1
 66
     7
176
     1
 43
1.0
176
     1
 76
     1
176
     1
 77
     6
176
     1
 78
     2
176
     1
 67
     7
176
     1
 79
     5
176
     1
170
     0
176
     1
171
     0
176
     1
290
     0
176
     1
 93
       13
176
     1
 44
0.0
176
     1
173
     0
176
     1
  0
VISUALSTYLE
  5
2E
102
{ACAD_REACTORS
330
2A
102
}
330
2A
100
AcDbVisualStyle
  2
GouraudWithEdges
 70
     3
177
     2
291
     1
 71
     2
176
     1
 72
     2
176
     1
 73
     1
176
     1
 90
        2
176
     1
 40
-0.6
176
     1
 41
30.0
176
     1
 62
     5
 63
     7
421
 16777215
176
     1
 74
     1
176
     1
 91
        4
176
     1
 64
     7
176
     1
 65
   257
176
     1
 75
     1
176
     1
175
     1
176
     1
 42
1.0
176
     1
 92
        0
176
     1
 66
   257
176
     1
 43
1.0
176
     1
 76
     1
176
     1
 77
     6
176
     1
 78
     2
176
     1
 67
     7
176
     1
 79
     5
176
     1
170
     0
176
     1
171
     0
176
     1
290
     0
176
     1
 93
       13
176
     1
 44
0.0
176
     1
173
     0
176
     1
  0
VISUALSTYLE
  5
38
102
{ACAD_REACTORS
330
2A
102
}
330
2A
100
AcDbVisualStyle
  2
Linepattern
 70
    14
177
     2
291
     1
 71
     2
176
     1
 72
     2
176
     1
 73
     0
176
     1
 90
        0
176
     1
 40
-0.6
176
     1
 41
-30.0
176
     1
 62
     5
 63
     7
421
 16777215
176
     1
 74
     1
176
     1
 91
        4
176
     1
 64
     7
176
     1
 65
   257
176
     1
 75
     7
176
     1
175
     7
176
     1
 42
1.0
176
     1
 92
        8
176
     1
 66
     7
176
     1
 43
1.0
176
     1
 76
     1
176
     1
 77
     6
176
     1
 78
     2
176
     1
 67
     7
176
     1
 79
     5
176
     1
170
     0
176
     1
171
     0
176
     1
290
     0
176
     1
 93
        1
176
     1
 44
0.0
176
     1
173
     0
176
     1
  0
VISUALSTYLE
  5
33
102
{ACAD_REACTORS
330
2A
102
}
330
2A
100
AcDbVisualStyle
  2
Realistic
 70
     8
177
     2
291
     0
 71
     2
176
     1
 72
     2
176
     1
 73
     0
176
     1
 90
        0
176
     1
 40
-0.6
176
     1
 41
-30.0
176
     1
 62
     5
 63
     7
421
 16777215
176
     1
 74
     1
176
     1
 91
        0
176
     1
 64
     7
176
     1
 65
   257
176
     1
 75
     1
176
     1
175
     1
176
     1
 42
1.0
176
     1
 92
        8
176
     1
 66
     8
424
  7895160
176
     1
 43
1.0
176
     1
 76
     1
176
     1
 77
     6
176
     1
 78
     2
176
     1
 67
     7
176
     1
 79
     5
176
     1
170
     0
176
     1
171
     0
176
     1
290
     0
176
     1
 93
       13
176
     1
 44
0.0
176
     1
173
     0
176
     1
  0
VISUALSTYLE
  5
37
102
{ACAD_REACTORS
330
2A
102
}
330
2A
100
AcDbVisualStyle
  2
Thicken
 70
    13
177
     2
291
     1
 71
     2
176
     1
 72
     2
176
     1
 73
     0
176
     1
 90
        0
176
     1
 40
-0.6
176
     1
 41
-30.0
176
     1
 62
     5
 63
     7
421
 16777215
176
     1
 74
     1
176
     1
 91
        4
176
     1
 64
     7
176
     1
 65
   257
176
     1
 75
     1
176
     1
175
     1
176
     1
 42
1.0
176
     1
 92
       12
176
     1
 66
     7
176
     1
 43
1.0
176
     1
 76
     1
176
     1
 77
     6
176
     1
 78
     2
176
     1
 67
     7
176
     1
 79
     5
176
     1
170
     0
176
     1
171
     0
176
     1
290
     0
176
     1
 93
        1
176
     1
 44
0.0
176
     1
173
     0
176
     1
  0
ENDSEC
  0
EOF
