  0
SECTION
  2
HEADER
  9
$ACADVER
  1
AC1024
  9
$ACADMAINTVER
 70
     6
  9
$DWGCODEPAGE
  3
UNDEFINED
  9
$INSBASE
 10
0.0
 20
0.0
 30
0.0
  9
$EXTMIN
 10
1.000000000000000E+20
 20
1.000000000000000E+20
 30
1.000000000000000E+20
  9
$EXTMAX
 10
-1.000000000000000E+20
 20
-1.000000000000000E+20
 30
-1.000000000000000E+20
  9
$LIMMIN
 10
0.0
 20
0.0
  9
$LIMMAX
 10
12.0
 20
9.0
  9
$ORTHOMODE
 70
     0
  9
$REGENMODE
 70
     1
  9
$FILLMODE
 70
     1
  9
$QTEXTMODE
 70
     0
  9
$MIRRTEXT
 70
     1
  9
$LTSCALE
 40
1.0
  9
$ATTMODE
 70
     1
  9
$TEXTSIZE
 40
0.2
  9
$TRACEWID
 40
0.05
  9
$TEXTSTYLE
  7
Standard
  9
$CLAYER
  8
0
  9
$CELTYPE
  6
ByLayer
  9
$CECOLOR
 62
   256
  9
$CELTSCALE
 40
1.0
  9
$DISPSILH
 70
     0
  9
$DIMSCALE
 40
1.0
  9
$DIMASZ
 40
0.18
  9
$DIMEXO
 40
0.0625
  9
$DIMDLI
 40
0.38
  9
$DIMRND
 40
0.0
  9
$DIMDLE
 40
0.0
  9
$DIMEXE
 40
0.18
  9
$DIMTP
 40
0.0
  9
$DIMTM
 40
0.0
  9
$DIMTXT
 40
0.18
  9
$DIMCEN
 40
0.09
  9
$DIMTSZ
 40
0.0
  9
$DIMTOL
 70
     0
  9
$DIMLIM
 70
     0
  9
$DIMTIH
 70
     1
  9
$DIMTOH
 70
     1
  9
$DIMSE1
 70
     0
  9
$DIMSE2
 70
     0
  9
$DIMTAD
 70
     0
  9
$DIMZIN
 70
     0
  9
$DIMBLK
  1

  9
$DIMASO
 70
     1
  9
$DIMSHO
 70
     1
  9
$DIMPOST
  1

  9
$DIMAPOST
  1

  9
$DIMALT
 70
     0
  9
$DIMALTD
 70
     2
  9
$DIMALTF
 40
25.4
  9
$DIMLFAC
 40
1.0
  9
$DIMTOFL
 70
     0
  9
$DIMTVP
 40
0.0
  9
$DIMTIX
 70
     0
  9
$DIMSOXD
 70
     0
  9
$DIMSAH
 70
     0
  9
$DIMBLK1
  1

  9
$DIMBLK2
  1

  9
$DIMSTYLE
  2
Standard
  9
$DIMCLRD
 70
     0
  9
$DIMCLRE
 70
     0
  9
$DIMCLRT
 70
     0
  9
$DIMTFAC
 40
1.0
  9
$DIMGAP
 40
0.09
  9
$DIMJUST
 70
     0
  9
$DIMSD1
 70
     0
  9
$DIMSD2
 70
     0
  9
$DIMTOLJ
 70
     1
  9
$DIMTZIN
 70
     0
  9
$DIMALTZ
 70
     0
  9
$DIMALTTZ
 70
     0
  9
$DIMUPT
 70
     0
  9
$DIMDEC
 70
     4
  9
$DIMTDEC
 70
     4
  9
$DIMALTU
 70
     2
  9
$DIMALTTD
 70
     2
  9
$DIMTXSTY
  7
Standard
  9
$DIMAUNIT
 70
     0
  9
$DIMADEC
 70
     0
  9
$DIMALTRND
 40
0.0
  9
$DIMAZIN
 70
     0
  9
$DIMDSEP
 70
    46
  9
$DIMATFIT
 70
     3
  9
$DIMFRAC
 70
     0
  9
$DIMLDRBLK
  1

  9
$DIMLUNIT
 70
     2
  9
$DIMLWD
 70
    -2
  9
$DIMLWE
 70
    -2
  9
$DIMTMOVE
 70
     0
  9
$DIMFXL
 40
1.0
  9
$DIMFXLON
 70
     0
  9
$DIMJOGANG
 40
0.7853981633974483
  9
$DIMTFILL
 70
     0
  9
$DIMTFILLCLR
 70
     0
  9
$DIMARCSYM
 70
     0
  9
$DIMLTYPE
  6

  9
$DIMLTEX1
  6

  9
$DIMLTEX2
  6

  9
$DIMTXTDIRECTION
 70
     0
  9
$LUNITS
 70
     2
  9
$LUPREC
 70
     4
  9
$SKETCHINC
 40
0.1
  9
$FILLETRAD
 40
0.5
  9
$AUNITS
 70
     0
  9
$AUPREC
 70
     0
  9
$MENU
  1
.
  9
$ELEVATION
 40
0.0
  9
$PELEVATION
 40
0.0
  9
$THICKNESS
 40
0.0
  9
$LIMCHECK
 70
     0
  9
$CHAMFERA
 40
0.5
  9
$CHAMFERB
 40
0.5
  9
$CHAMFERC
 40
1.0
  9
$CHAMFERD
 40
0.0
  9
$SKPOLY
 70
     0
  9
$TDCREATE
 40
2457917.585138889
  9
$TDUCREATE
 40
2457917.210138889
  9
$TDUPDATE
 40
2457917.585138889
  9
$TDUUPDATE
 40
2457917.210138889
  9
$TDINDWG
 40
0.0000000116
  9
$TDUSRTIMER
 40
0.0000000116
  9
$USRTIMER
 70
     1
  9
$ANGBASE
 50
0.0
  9
$ANGDIR
 70
     0
  9
$PDMODE
 70
     0
  9
$PDSIZE
 40
0.0
  9
$PLINEWID
 40
0.0
  9
$SPLFRAME
 70
     0
  9
$SPLINETYPE
 70
     6
  9
$SPLINESEGS
 70
     8
  9
$HANDSEED
  5
CC
  9
$SURFTAB1
 70
     6
  9
$SURFTAB2
 70
     6
  9
$SURFTYPE
 70
     6
  9
$SURFU
 70
     6
  9
$SURFV
 70
     6
  9
$UCSBASE
  2

  9
$UCSNAME
  2

  9
$UCSORG
 10
0.0
 20
0.0
 30
0.0
  9
$UCSXDIR
 10
1.0
 20
0.0
 30
0.0
  9
$UCSYDIR
 10
0.0
 20
1.0
 30
0.0
  9
$UCSORTHOREF
  2

  9
$UCSORTHOVIEW
 70
     0
  9
$UCSORGTOP
 10
0.0
 20
0.0
 30
0.0
  9
$UCSORGBOTTOM
 10
0.0
 20
0.0
 30
0.0
  9
$UCSORGLEFT
 10
0.0
 20
0.0
 30
0.0
  9
$UCSORGRIGHT
 10
0.0
 20
0.0
 30
0.0
  9
$UCSORGFRONT
 10
0.0
 20
0.0
 30
0.0
  9
$UCSORGBACK
 10
0.0
 20
0.0
 30
0.0
  9
$PUCSBASE
  2

  9
$PUCSNAME
  2

  9
$PUCSORG
 10
0.0
 20
0.0
 30
0.0
  9
$PUCSXDIR
 10
1.0
 20
0.0
 30
0.0
  9
$PUCSYDIR
 10
0.0
 20
1.0
 30
0.0
  9
$PUCSORTHOREF
  2

  9
$PUCSORTHOVIEW
 70
     0
  9
$PUCSORGTOP
 10
0.0
 20
0.0
 30
0.0
  9
$PUCSORGBOTTOM
 10
0.0
 20
0.0
 30
0.0
  9
$PUCSORGLEFT
 10
0.0
 20
0.0
 30
0.0
  9
$PUCSORGRIGHT
 10
0.0
 20
0.0
 30
0.0
  9
$PUCSORGFRONT
 10
0.0
 20
0.0
 30
0.0
  9
$PUCSORGBACK
 10
0.0
 20
0.0
 30
0.0
  9
$USERI1
 70
     0
  9
$USERI2
 70
     0
  9
$USERI3
 70
     0
  9
$USERI4
 70
     0
  9
$USERI5
 70
     0
  9
$USERR1
 40
0.0
  9
$USERR2
 40
0.0
  9
$USERR3
 40
0.0
  9
$USERR4
 40
0.0
  9
$USERR5
 40
0.0
  9
$WORLDVIEW
 70
     1
  9
$SHADEDGE
 70
     3
  9
$SHADEDIF
 70
    70
  9
$TILEMODE
 70
     1
  9
$MAXACTVP
 70
    64
  9
$PINSBASE
 10
0.0
 20
0.0
 30
0.0
  9
$PLIMCHECK
 70
     0
  9
$PEXTMIN
 10
1.000000000000000E+20
 20
1.000000000000000E+20
 30
1.000000000000000E+20
  9
$PEXTMAX
 10
-1.000000000000000E+20
 20
-1.000000000000000E+20
 30
-1.000000000000000E+20
  9
$PLIMMIN
 10
0.0
 20
0.0
  9
$PLIMMAX
 10
12.0
 20
9.0
  9
$UNITMODE
 70
     0
  9
$VISRETAIN
 70
     1
  9
$PLINEGEN
 70
     0
  9
$PSLTSCALE
 70
     1
  9
$TREEDEPTH
 70
  3020
  9
$CMLSTYLE
  2
Standard
  9
$CMLJUST
 70
     0
  9
$CMLSCALE
 40
1.0
  9
$PROXYGRAPHICS
 70
     1
  9
$MEASUREMENT
 70
     0
  9
$CELWEIGHT
370
    -1
  9
$ENDCAPS
280
     0
  9
$JOINSTYLE
280
     0
  9
$LWDISPLAY
290
     1
  9
$INSUNITS
 70
     1
  9
$HYPERLINKBASE
  1

  9
$STYLESHEET
  1

  9
$XEDIT
290
     1
  9
$CEPSNTYPE
380
     0
  9
$PSTYLEMODE
290
     1
  9
$FINGERPRINTGUID
  2
{81AAED44-9FC7-1E36-676C-F8534391BD35}
  9
$VERSIONGUID
  2
{FAEB1C32-E019-11D5-929B-00C0DF256EC4}
  9
$EXTNAMES
290
     1
  9
$PSVPSCALE
 40
0.0
  9
$OLESTARTUP
290
     0
  9
$SORTENTS
280
   127
  9
$INDEXCTL
280
     0
  9
$HIDETEXT
280
     1
  9
$XCLIPFRAME
280
     2
  9
$HALOGAP
280
     0
  9
$OBSCOLOR
 70
   257
  9
$OBSLTYPE
280
     0
  9
$INTERSECTIONDISPLAY
280
     0
  9
$INTERSECTIONCOLOR
 70
   257
  9
$DIMASSOC
280
     2
  9
$PROJECTNAME
  1

  9
$CAMERADISPLAY
290
     0
  9
$LENSLENGTH
 40
50.0
  9
$CAMERAHEIGHT
 40
0.0
  9
$STEPSPERSEC
 40
2.0
  9
$STEPSIZE
 40
6.0
  9
$3DDWFPREC
 40
2.0
  9
$PSOLWIDTH
 40
0.25
  9
$PSOLHEIGHT
 40
4.0
  9
$LOFTANG1
 40
1.570796326794897
  9
$LOFTANG2
 40
1.570796326794897
  9
$LOFTMAG1
 40
0.0
  9
$LOFTMAG2
 40
0.0
  9
$LOFTPARAM
 70
     7
  9
$LOFTNORMALS
280
     1
  9
$LATITUDE
 40
37.795
  9
$LONGITUDE
 40
-122.394
  9
$NORTHDIRECTION
 40
0.0
  9
$TIMEZONE
 70
 -8000
  9
$LIGHTGLYPHDISPLAY
280
     1
  9
$TILEMODELIGHTSYNCH
280
     1
  9
$CMATERIAL
347
3C
  9
$SOLIDHIST
280
     1
  9
$SHOWHIST
280
     1
  9
$DWFFRAME
280
     2
  9
$DGNFRAME
280
     2
  9
$REALWORLDSCALE
290
     1
  9
$INTERFERECOLOR
 62
   256
  9
$CSHADOW
280
     0
  9
$SHADOWPLANELOCATION
 40
0.0
  0
ENDSEC
  0
SECTION
  2
CLASSES
  0
CLASS
  1
ACDBDICTIONARYWDFLT
  2
AcDbDictionaryWithDefault
  3
ObjectDBX Classes
 90
        0
 91
        4
280
     0
281
     0
  0
CLASS
  1
VISUALSTYLE
  2
AcDbVisualStyle
  3
ObjectDBX Classes
 90
     4095
 91
        4
280
     0
281
     0
  0
CLASS
  1
MATERIAL
  2
AcDbMaterial
  3
ObjectDBX Classes
 90
     1153
 91
        4
280
     0
281
     0
  0
CLASS
  1
SUN
  2
AcDbSun
  3
SCENEOE
 90
     1024
 91
        4
280
     0
281
     0
  0
ENDSEC
  0
SECTION
  2
TABLES
  0
TABLE
  2
VPORT
  5
8
330
0
100
AcDbSymbolTable
 70
     1
  0
VPORT
  5
29
330
8
100
AcDbSymbolTableRecord
100
AcDbViewportTableRecord
  2
*Active
 70
     0
 10
0.0
 20
0.0
 11
1.0
 21
1.0
 12
0.0
 22
0.0
 13
0.0
 23
0.0
 14
0.5
 24
0.5
 15
0.5
 25
0.5
 16
0.0
 26
0.0
 36
1.0
 17
91.00082462281999
 27
-128.4993055234307
 37
0.0
 40
256.9986110468615
 41
0.7081814508812795
 42
50.0
 43
0.0
 44
0.0
 50
0.0
 51
0.0
 71
     0
 72
   100
 73
     1
 74
     3
 75
     0
 76
     0
 77
     0
 78
     0
281
     0
 65
     1
110
0.0
120
0.0
130
0.0
111
1.0
121
0.0
131
0.0
112
0.0
122
1.0
132
0.0
 79
     0
146
0.0
 60
     3
 61
     5
292
     1
282
     1
141
0.0
142
0.0
 63
   250
361
3F
  0
ENDTAB
  0
TABLE
  2
LTYPE
  5
5
330
0
100
AcDbSymbolTable
 70
     2
  0
LTYPE
  5
14
330
5
100
AcDbSymbolTableRecord
100
AcDbLinetypeTableRecord
  2
ByBlock
 70
     0
  3

 72
    65
 73
     0
 40
0.0
  0
LTYPE
  5
15
330
5
100
AcDbSymbolTableRecord
100
AcDbLinetypeTableRecord
  2
ByLayer
 70
     0
  3

 72
    65
 73
     0
 40
0.0
  0
LTYPE
  5
16
330
5
100
AcDbSymbolTableRecord
100
AcDbLinetypeTableRecord
  2
Continuous
 70
     0
  3
Solid line
 72
    65
 73
     0
 40
0.0
  0
LTYPE
  5
94
330
5
100
AcDbSymbolTableRecord
100
AcDbLinetypeTableRecord
  2
AI-Linetype-1
 70
     0
  3
Adobe Illustrator Linetype No. 1
 72
    65
 73
     2
 40
1.411111110758333
 49
0.7055555553791667
 74
     0
 49
-0.7055555553791667
 74
     0
  0
ENDTAB
  0
TABLE
  2
LAYER
  5
2
330
0
100
AcDbSymbolTable
 70
     2
  0
LAYER
  5
10
330
2
100
AcDbSymbolTableRecord
100
AcDbLayerTableRecord
  2
0
 70
     0
 62
     7
  6
Continuous
370
    -3
390
F
347
3E
  0
LAYER
  5
40
330
2
100
AcDbSymbolTableRecord
100
AcDbLayerTableRecord
  2
_U+30EC_U+30A4_U+30E4_U+30FC 1
 70
     0
 62
     7
  6
Continuous
370
    -3
390
F
347
3E
  0
ENDTAB
  0
TABLE
  2
STYLE
  5
3
330
0
100
AcDbSymbolTable
 70
     1
  0
STYLE
  5
11
330
3
100
AcDbSymbolTableRecord
100
AcDbTextStyleTableRecord
  2
Standard
 70
     0
 40
0.0
 41
1.0
 50
0.0
 71
     0
 42
0.2
  3
txt
  4

  0
ENDTAB
  0
TABLE
  2
VIEW
  5
6
330
0
100
AcDbSymbolTable
 70
     0
  0
ENDTAB
  0
TABLE
  2
UCS
  5
7
330
0
100
AcDbSymbolTable
 70
     0
  0
ENDTAB
  0
TABLE
  2
APPID
  5
9
330
0
100
AcDbSymbolTable
 70
     1
  0
APPID
  5
12
330
9
100
AcDbSymbolTableRecord
100
AcDbRegAppTableRecord
  2
ACAD
 70
     0
  0
ENDTAB
  0
TABLE
  2
DIMSTYLE
  5
A
330
0
100
AcDbSymbolTable
 70
     1
100
AcDbDimStyleTable
  0
DIMSTYLE
105
27
330
A
100
AcDbSymbolTableRecord
100
AcDbDimStyleTableRecord
  2
Standard
 70
     0
178
     0
340
11
  0
ENDTAB
  0
TABLE
  2
BLOCK_RECORD
  5
1
330
0
100
AcDbSymbolTable
 70
     7
  0
BLOCK_RECORD
  5
1F
330
1
100
AcDbSymbolTableRecord
100
AcDbBlockTableRecord
  2
*Model_Space
340
22
 70
     0
280
     1
281
     0
  0
BLOCK_RECORD
  5
1B
330
1
100
AcDbSymbolTableRecord
100
AcDbBlockTableRecord
  2
*Paper_Space
340
1E
 70
     0
280
     1
281
     0
  0
BLOCK_RECORD
  5
23
330
1
100
AcDbSymbolTableRecord
100
AcDbBlockTableRecord
  2
*Paper_Space0
340
26
 70
     0
280
     1
281
     0
  0
BLOCK_RECORD
  5
41
330
1
100
AcDbSymbolTableRecord
100
AcDbBlockTableRecord
  2
block 2
340
0
102
{BLKREFS
331
42
102
}
 70
     0
280
     1
281
     0
  0
BLOCK_RECORD
  5
45
330
1
100
AcDbSymbolTableRecord
100
AcDbBlockTableRecord
  2
block 3
340
0
102
{BLKREFS
331
46
102
}
 70
     0
280
     1
281
     0
  0
BLOCK_RECORD
  5
4F
330
1
100
AcDbSymbolTableRecord
100
AcDbBlockTableRecord
  2
block 4
340
0
102
{BLKREFS
331
50
102
}
 70
     0
280
     1
281
     0
  0
BLOCK_RECORD
  5
7A
330
1
100
AcDbSymbolTableRecord
100
AcDbBlockTableRecord
  2
block 5
340
0
102
{BLKREFS
331
7B
102
}
 70
     0
280
     1
281
     0
  0
BLOCK_RECORD
  5
89
330
1
100
AcDbSymbolTableRecord
100
AcDbBlockTableRecord
  2
block 6
340
0
102
{BLKREFS
331
8A
102
}
 70
     0
280
     1
281
     0
  0
BLOCK_RECORD
  5
A2
330
1
100
AcDbSymbolTableRecord
100
AcDbBlockTableRecord
  2
block 7
340
0
102
{BLKREFS
331
A3
102
}
 70
     0
280
     1
281
     0
  0
ENDTAB
  0
ENDSEC
  0
SECTION
  2
BLOCKS
  0
BLOCK
  5
20
330
1F
100
AcDbEntity
  8
0
100
AcDbBlockBegin
  2
*Model_Space
 70
     0
 10
0.0
 20
0.0
 30
0.0
  3
*Model_Space
  1

  0
ENDBLK
  5
21
330
1F
100
AcDbEntity
  8
0
100
AcDbBlockEnd
  0
BLOCK
  5
1C
330
1B
100
AcDbEntity
 67
     1
  8
0
100
AcDbBlockBegin
  2
*Paper_Space
 70
     0
 10
0.0
 20
0.0
 30
0.0
  3
*Paper_Space
  1

  0
ENDBLK
  5
1D
330
1B
100
AcDbEntity
 67
     1
  8
0
100
AcDbBlockEnd
  0
BLOCK
  5
24
330
23
100
AcDbEntity
  8
0
100
AcDbBlockBegin
  2
*Paper_Space0
 70
     0
 10
0.0
 20
0.0
 30
0.0
  3
*Paper_Space0
  1

  0
ENDBLK
  5
25
330
23
100
AcDbEntity
  8
0
100
AcDbBlockEnd
  0
BLOCK
  5
43
330
41
100
AcDbEntity
  8
0
100
AcDbBlockBegin
  2
block 2
 70
     0
 10
0.0
 20
0.0
 30
0.0
  3
block 2
  1

  0
INSERT
  5
46
330
41
100
AcDbEntity
  8
_U+30EC_U+30A4_U+30E4_U+30FC 1
100
AcDbBlockReference
  2
block 3
 10
0.0
 20
0.0
 30
0.0
  0
POLYLINE
  5
91
330
41
100
AcDbEntity
  8
_U+30EC_U+30A4_U+30E4_U+30FC 1
  6
AI-Linetype-1
 62
   154
420
    23468
370
    25
100
AcDb2dPolyline
 66
     1
 10
0.0
 20
0.0
 30
0.0
  0
VERTEX
  5
92
330
91
100
AcDbEntity
  8
_U+30EC_U+30A4_U+30E4_U+30FC 1
  6
AI-Linetype-1
 62
   154
420
    23468
370
    25
100
AcDbVertex
100
AcDb2dVertex
 10
96.72827753225604
 20
-131.6977299670755
 30
0.0
  0
VERTEX
  5
93
330
91
100
AcDbEntity
  8
_U+30EC_U+30A4_U+30E4_U+30FC 1
  6
AI-Linetype-1
 62
   154
420
    23468
370
    25
100
AcDbVertex
100
AcDb2dVertex
 10
106.7280103326972
 20
-131.6977299670755
 30
0.0
  0
SEQEND
  5
95
330
91
100
AcDbEntity
  8
_U+30EC_U+30A4_U+30E4_U+30FC 1
  6
AI-Linetype-1
 62
   154
420
    23468
370
    25
  0
POLYLINE
  5
96
330
41
100
AcDbEntity
  8
_U+30EC_U+30A4_U+30E4_U+30FC 1
 62
   179
420
  2234388
370
     9
100
AcDb2dPolyline
 66
     1
 10
0.0
 20
0.0
 30
0.0
  0
VERTEX
  5
97
330
96
100
AcDbEntity
  8
_U+30EC_U+30A4_U+30E4_U+30FC 1
 62
   179
420
  2234388
370
     9
100
AcDbVertex
100
AcDb2dVertex
 10
98.77262470232263
 20
-131.1974910783118
 30
0.0
  0
VERTEX
  5
98
330
96
100
AcDbEntity
  8
_U+30EC_U+30A4_U+30E4_U+30FC 1
 62
   179
420
  2234388
370
     9
100
AcDbVertex
100
AcDb2dVertex
 10
99.0309991401754
 20
-130.2315149674422
 30
0.0
  0
SEQEND
  5
99
330
96
100
AcDbEntity
  8
_U+30EC_U+30A4_U+30E4_U+30FC 1
 62
   179
420
  2234388
370
     9
  0
POLYLINE
  5
9A
330
41
100
AcDbEntity
  8
_U+30EC_U+30A4_U+30E4_U+30FC 1
 62
   179
420
  2234388
370
     9
100
AcDb2dPolyline
 66
     1
 10
0.0
 20
0.0
 30
0.0
  0
VERTEX
  5
9B
330
9A
100
AcDbEntity
  8
_U+30EC_U+30A4_U+30E4_U+30FC 1
 62
   179
420
  2234388
370
     9
100
AcDbVertex
100
AcDb2dVertex
 10
98.77262470232263
 20
-131.1974910783118
 30
0.0
  0
VERTEX
  5
9C
330
9A
100
AcDbEntity
  8
_U+30EC_U+30A4_U+30E4_U+30FC 1
 62
   179
420
  2234388
370
     9
100
AcDbVertex
100
AcDb2dVertex
 10
98.77262470232263
 20
-121.8220335806555
 30
0.0
  0
SEQEND
  5
9D
330
9A
100
AcDbEntity
  8
_U+30EC_U+30A4_U+30E4_U+30FC 1
 62
   179
420
  2234388
370
     9
  0
POLYLINE
  5
9E
330
41
100
AcDbEntity
  8
_U+30EC_U+30A4_U+30E4_U+30FC 1
 62
   179
420
  2234388
370
     9
100
AcDb2dPolyline
 66
     1
 10
0.0
 20
0.0
 30
0.0
  0
VERTEX
  5
9F
330
9E
100
AcDbEntity
  8
_U+30EC_U+30A4_U+30E4_U+30FC 1
 62
   179
420
  2234388
370
     9
100
AcDbVertex
100
AcDb2dVertex
 10
98.77262470232263
 20
-131.1974910783118
 30
0.0
  0
VERTEX
  5
A0
330
9E
100
AcDbEntity
  8
_U+30EC_U+30A4_U+30E4_U+30FC 1
 62
   179
420
  2234388
370
     9
100
AcDbVertex
100
AcDb2dVertex
 10
98.51354719759391
 20
-130.2315149674422
 30
0.0
  0
SEQEND
  5
A1
330
9E
100
AcDbEntity
  8
_U+30EC_U+30A4_U+30E4_U+30FC 1
 62
   179
420
  2234388
370
     9
  0
INSERT
  5
A3
330
41
100
AcDbEntity
  8
_U+30EC_U+30A4_U+30E4_U+30FC 1
100
AcDbBlockReference
  2
block 7
 10
0.0
 20
0.0
 30
0.0
  0
ENDBLK
  5
44
330
41
100
AcDbEntity
  8
0
100
AcDbBlockEnd
  0
BLOCK
  5
47
330
45
100
AcDbEntity
  8
0
100
AcDbBlockBegin
  2
block 3
 70
     0
 10
0.0
 20
0.0
 30
0.0
  3
block 3
  1

  0
SPLINE
  5
49
330
45
100
AcDbEntity
  8
_U+30EC_U+30A4_U+30E4_U+30FC 1
 62
   179
420
  2234388
370
     9
100
AcDbSpline
210
0.0
220
0.0
230
1.0
 70
    11
 71
     3
 72
    17
 73
    13
 74
     0
 42
0.0000000001
 43
0.0000000001
 12
1.0
 22
0.0
 32
0.0
 13
1.0
 23
0.0
 33
0.0
 40
0.0
 40
0.0
 40
0.0
 40
0.0
 40
1.0
 40
1.0
 40
1.0
 40
2.0
 40
2.0
 40
2.0
 40
3.0
 40
3.0
 40
3.0
 40
4.0
 40
4.0
 40
4.0
 40
4.0
 10
106.8575503293923
 20
-137.3931507989851
 30
0.0
 10
106.8575503293923
 20
-137.3376941323324
 30
0.0
 10
106.8127828305344
 20
-137.2929266323432
 30
0.0
 10
106.7576436652745
 20
-137.2929266323432
 30
0.0
 10
106.7025397777914
 20
-137.2929266323432
 30
0.0
 10
106.6577370011567
 20
-137.3376941323324
 30
0.0
 10
106.6577370011567
 20
-137.3931507989851
 30
0.0
 10
106.6577370011567
 20
-137.4482899656381
 30
0.0
 10
106.7025397777914
 20
-137.4930574656267
 30
0.0
 10
106.7576436652745
 20
-137.4930574656267
 30
0.0
 10
106.8127828305344
 20
-137.4930574656267
 30
0.0
 10
106.8575503293923
 20
-137.4482899656381
 30
0.0
 10
106.8575503293923
 20
-137.3931507989851
 30
0.0
  0
SPLINE
  5
4A
330
45
100
AcDbEntity
  8
_U+30EC_U+30A4_U+30E4_U+30FC 1
 62
   179
420
  2234388
370
     9
100
AcDbSpline
210
0.0
220
0.0
230
1.0
 70
    11
 71
     3
 72
    17
 73
    13
 74
     0
 42
0.0000000001
 43
0.0000000001
 12
1.0
 22
0.0
 32
0.0
 13
1.0
 23
0.0
 33
0.0
 40
0.0
 40
0.0
 40
0.0
 40
0.0
 40
1.0
 40
1.0
 40
1.0
 40
2.0
 40
2.0
 40
2.0
 40
3.0
 40
3.0
 40
3.0
 40
4.0
 40
4.0
 40
4.0
 40
4.0
 10
81.8578831894092
 20
-137.3931507989851
 30
0.0
 10
81.8578831894092
 20
-137.3376941323324
 30
0.0
 10
81.81308041277443
 20
-137.2929266323432
 30
0.0
 10
81.7572709697538
 20
-137.2929266323432
 30
0.0
 10
81.70216708227073
 20
-137.2929266323432
 30
0.0
 10
81.65736430563597
 20
-137.3376941323324
 30
0.0
 10
81.65736430563597
 20
-137.3931507989851
 30
0.0
 10
81.65736430563597
 20
-137.4482899656381
 30
0.0
 10
81.70216708227073
 20
-137.4930574656267
 30
0.0
 10
81.7572709697538
 20
-137.4930574656267
 30
0.0
 10
81.81308041277443
 20
-137.4930574656267
 30
0.0
 10
81.8578831894092
 20
-137.4482899656381
 30
0.0
 10
81.8578831894092
 20
-137.3931507989851
 30
0.0
  0
POLYLINE
  5
4B
330
45
100
AcDbEntity
  8
_U+30EC_U+30A4_U+30E4_U+30FC 1
 62
   179
420
  2234388
370
     9
100
AcDb2dPolyline
 66
     1
 10
0.0
 20
0.0
 30
0.0
  0
VERTEX
  5
4C
330
4B
100
AcDbEntity
  8
_U+30EC_U+30A4_U+30E4_U+30FC 1
 62
   179
420
  2234388
370
     9
100
AcDbVertex
100
AcDb2dVertex
 10
81.7572709697538
 20
-137.3931507989851
 30
0.0
  0
VERTEX
  5
4D
330
4B
100
AcDbEntity
  8
_U+30EC_U+30A4_U+30E4_U+30FC 1
 62
   179
420
  2234388
370
     9
100
AcDbVertex
100
AcDb2dVertex
 10
106.7576436652745
 20
-137.3931507989851
 30
0.0
  0
SEQEND
  5
4E
330
4B
100
AcDbEntity
  8
_U+30EC_U+30A4_U+30E4_U+30FC 1
 62
   179
420
  2234388
370
     9
  0
INSERT
  5
50
330
45
100
AcDbEntity
  8
_U+30EC_U+30A4_U+30E4_U+30FC 1
100
AcDbBlockReference
  2
block 4
 10
0.0
 20
0.0
 30
0.0
  0
ENDBLK
  5
48
330
45
100
AcDbEntity
  8
0
100
AcDbBlockEnd
  0
BLOCK
  5
51
330
4F
100
AcDbEntity
  8
0
100
AcDbBlockBegin
  2
block 4
 70
     0
 10
0.0
 20
0.0
 30
0.0
  3
block 4
  1

  0
POLYLINE
  5
53
330
4F
100
AcDbEntity
  8
_U+30EC_U+30A4_U+30E4_U+30FC 1
 62
   179
420
  2234388
370
    25
100
AcDb2dPolyline
 66
     1
 10
0.0
 20
0.0
 30
0.0
  0
VERTEX
  5
54
330
53
100
AcDbEntity
  8
_U+30EC_U+30A4_U+30E4_U+30FC 1
 62
   179
420
  2234388
370
    25
100
AcDbVertex
100
AcDb2dVertex
 10
106.7576436652745
 20
-132.3929491335683
 30
0.0
  0
VERTEX
  5
55
330
53
100
AcDbEntity
  8
_U+30EC_U+30A4_U+30E4_U+30FC 1
 62
   179
420
  2234388
370
    25
100
AcDbVertex
100
AcDb2dVertex
 10
106.7576436652745
 20
-132.893188022332
 30
0.0
  0
SEQEND
  5
56
330
53
100
AcDbEntity
  8
_U+30EC_U+30A4_U+30E4_U+30FC 1
 62
   179
420
  2234388
370
    25
  0
POLYLINE
  5
57
330
4F
100
AcDbEntity
  8
_U+30EC_U+30A4_U+30E4_U+30FC 1
 62
   179
420
  2234388
370
    25
100
AcDb2dPolyline
 66
     1
 10
0.0
 20
0.0
 30
0.0
  0
VERTEX
  5
58
330
57
100
AcDbEntity
  8
_U+30EC_U+30A4_U+30E4_U+30FC 1
 62
   179
420
  2234388
370
    25
100
AcDbVertex
100
AcDb2dVertex
 10
82.75774872200726
 20
-132.3929491335683
 30
0.0
  0
VERTEX
  5
59
330
57
100
AcDbEntity
  8
_U+30EC_U+30A4_U+30E4_U+30FC 1
 62
   179
420
  2234388
370
    25
100
AcDbVertex
100
AcDb2dVertex
 10
106.7576436652745
 20
-132.3929491335683
 30
0.0
  0
SEQEND
  5
5A
330
57
100
AcDbEntity
  8
_U+30EC_U+30A4_U+30E4_U+30FC 1
 62
   179
420
  2234388
370
    25
  0
POLYLINE
  5
5B
330
4F
100
AcDbEntity
  8
_U+30EC_U+30A4_U+30E4_U+30FC 1
 62
   179
420
  2234388
370
    25
100
AcDb2dPolyline
 66
     1
 10
0.0
 20
0.0
 30
0.0
  0
VERTEX
  5
5C
330
5B
100
AcDbEntity
  8
_U+30EC_U+30A4_U+30E4_U+30FC 1
 62
   179
420
  2234388
370
    25
100
AcDbVertex
100
AcDb2dVertex
 10
106.7576436652745
 20
-132.893188022332
 30
0.0
  0
VERTEX
  5
5D
330
5B
100
AcDbEntity
  8
_U+30EC_U+30A4_U+30E4_U+30FC 1
 62
   179
420
  2234388
370
    25
100
AcDbVertex
100
AcDb2dVertex
 10
82.57444539335039
 20
-133.3927213555408
 30
0.0
  0
SEQEND
  5
5E
330
5B
100
AcDbEntity
  8
_U+30EC_U+30A4_U+30E4_U+30FC 1
 62
   179
420
  2234388
370
    25
  0
POLYLINE
  5
5F
330
4F
100
AcDbEntity
  8
_U+30EC_U+30A4_U+30E4_U+30FC 1
 62
   179
420
  2234388
370
    25
100
AcDb2dPolyline
 66
     1
 10
0.0
 20
0.0
 30
0.0
  0
VERTEX
  5
60
330
5F
100
AcDbEntity
  8
_U+30EC_U+30A4_U+30E4_U+30FC 1
 62
   179
420
  2234388
370
    25
100
AcDbVertex
100
AcDb2dVertex
 10
82.75774872200726
 20
-127.3931002459296
 30
0.0
  0
VERTEX
  5
61
330
5F
100
AcDbEntity
  8
_U+30EC_U+30A4_U+30E4_U+30FC 1
 62
   179
420
  2234388
370
    25
100
AcDbVertex
100
AcDb2dVertex
 10
82.75774872200726
 20
-132.3929491335683
 30
0.0
  0
SEQEND
  5
62
330
5F
100
AcDbEntity
  8
_U+30EC_U+30A4_U+30E4_U+30FC 1
 62
   179
420
  2234388
370
    25
  0
POLYLINE
  5
63
330
4F
100
AcDbEntity
  8
_U+30EC_U+30A4_U+30E4_U+30FC 1
 62
   179
420
  2234388
370
    25
100
AcDb2dPolyline
 66
     1
 10
0.0
 20
0.0
 30
0.0
  0
VERTEX
  5
64
330
63
100
AcDbEntity
  8
_U+30EC_U+30A4_U+30E4_U+30FC 1
 62
   179
420
  2234388
370
    25
100
AcDbVertex
100
AcDb2dVertex
 10
82.25750984588053
 20
-127.3931002459296
 30
0.0
  0
VERTEX
  5
65
330
63
100
AcDbEntity
  8
_U+30EC_U+30A4_U+30E4_U+30FC 1
 62
   179
420
  2234388
370
    25
100
AcDbVertex
100
AcDb2dVertex
 10
82.75774872200726
 20
-127.3931002459296
 30
0.0
  0
SEQEND
  5
66
330
63
100
AcDbEntity
  8
_U+30EC_U+30A4_U+30E4_U+30FC 1
 62
   179
420
  2234388
370
    25
  0
POLYLINE
  5
67
330
4F
100
AcDbEntity
  8
_U+30EC_U+30A4_U+30E4_U+30FC 1
 62
   179
420
  2234388
370
    25
100
AcDb2dPolyline
 66
     1
 10
0.0
 20
0.0
 30
0.0
  0
VERTEX
  5
68
330
67
100
AcDbEntity
  8
_U+30EC_U+30A4_U+30E4_U+30FC 1
 62
   179
420
  2234388
370
    25
100
AcDbVertex
100
AcDb2dVertex
 10
82.25750984588053
 20
-127.3931002459296
 30
0.0
  0
VERTEX
  5
69
330
67
100
AcDbEntity
  8
_U+30EC_U+30A4_U+30E4_U+30FC 1
 62
   179
420
  2234388
370
    25
100
AcDbVertex
100
AcDb2dVertex
 10
81.7613984696485
 20
-132.5159274668713
 30
0.0
  0
SEQEND
  5
6A
330
67
100
AcDbEntity
  8
_U+30EC_U+30A4_U+30E4_U+30FC 1
 62
   179
420
  2234388
370
    25
  0
SPLINE
  5
6B
330
4F
100
AcDbEntity
  8
_U+30EC_U+30A4_U+30E4_U+30FC 1
 62
   179
420
  2234388
370
    25
100
AcDbSpline
210
0.0
220
0.0
230
1.0
 70
     8
 71
     3
 72
    11
 73
     7
 74
     0
 42
0.0000000001
 43
0.0000000001
 12
1.0
 22
0.0
 32
0.0
 13
1.0
 23
0.0
 33
0.0
 40
0.0
 40
0.0
 40
0.0
 40
0.0
 40
1.0
 40
1.0
 40
1.0
 40
2.0
 40
2.0
 40
2.0
 40
2.0
 10
81.7613984696485
 20
-132.5159274668713
 30
0.0
 10
81.71871235962641
 20
-132.9558766334275
 30
0.0
 10
82.04048096252852
 20
-133.3465427444412
 30
0.0
 10
82.48074761796305
 20
-133.3892641333195
 30
0.0
 10
82.5117567838386
 20
-133.3923685777631
 30
0.0
 10
82.54276594971415
 20
-133.3933916333182
 30
0.0
 10
82.57444539335039
 20
-133.3927213555408
 30
0.0
  0
SPLINE
  5
6C
330
4F
100
AcDbEntity
  8
_U+30EC_U+30A4_U+30E4_U+30FC 1
 62
   179
420
  2234388
370
     9
100
AcDbSpline
210
0.0
220
0.0
230
1.0
 70
    11
 71
     3
 72
    17
 73
    13
 74
     0
 42
0.0000000001
 43
0.0000000001
 12
1.0
 22
0.0
 32
0.0
 13
1.0
 23
0.0
 33
0.0
 40
0.0
 40
0.0
 40
0.0
 40
0.0
 40
1.0
 40
1.0
 40
1.0
 40
2.0
 40
2.0
 40
2.0
 40
3.0
 40
3.0
 40
3.0
 40
4.0
 40
4.0
 40
4.0
 40
4.0
 10
77.85741856924733
 20
-133.3930741333186
 30
0.0
 10
77.85741856924733
 20
-133.3375821888878
 30
0.0
 10
77.81265107038944
 20
-133.2931674666769
 30
0.0
 10
77.7575138694495
 20
-133.2931674666769
 30
0.0
 10
77.70240801764642
 20
-133.2931674666769
 30
0.0
 10
77.65760524101165
 20
-133.3375821888878
 30
0.0
 10
77.65760524101165
 20
-133.3930741333186
 30
0.0
 10
77.65760524101165
 20
-133.4481780221935
 30
0.0
 10
77.70240801764642
 20
-133.4929807999602
 30
0.0
 10
77.7575138694495
 20
-133.4929807999602
 30
0.0
 10
77.81265107038944
 20
-133.4929807999602
 30
0.0
 10
77.85741856924733
 20
-133.4481780221935
 30
0.0
 10
77.85741856924733
 20
-133.3930741333186
 30
0.0
  0
SPLINE
  5
6D
330
4F
100
AcDbEntity
  8
_U+30EC_U+30A4_U+30E4_U+30FC 1
 62
   179
420
  2234388
370
     9
100
AcDbSpline
210
0.0
220
0.0
230
1.0
 70
    11
 71
     3
 72
    17
 73
    13
 74
     0
 42
0.0000000001
 43
0.0000000001
 12
1.0
 22
0.0
 32
0.0
 13
1.0
 23
0.0
 33
0.0
 40
0.0
 40
0.0
 40
0.0
 40
0.0
 40
1.0
 40
1.0
 40
1.0
 40
2.0
 40
2.0
 40
2.0
 40
3.0
 40
3.0
 40
3.0
 40
4.0
 40
4.0
 40
4.0
 40
4.0
 10
77.85741856924733
 20
-127.3931002459296
 30
0.0
 10
77.85741856924733
 20
-127.3376083014991
 30
0.0
 10
77.81265107038944
 20
-127.2928408015102
 30
0.0
 10
77.7575138694495
 20
-127.2928408015102
 30
0.0
 10
77.70240801764642
 20
-127.2928408015102
 30
0.0
 10
77.65760524101165
 20
-127.3376083014991
 30
0.0
 10
77.65760524101165
 20
-127.3931002459296
 30
0.0
 10
77.65760524101165
 20
-127.4485569125822
 30
0.0
 10
77.70240801764642
 20
-127.4930069125712
 30
0.0
 10
77.7575138694495
 20
-127.4930069125712
 30
0.0
 10
77.81265107038944
 20
-127.4930069125712
 30
0.0
 10
77.85741856924733
 20
-127.4485569125822
 30
0.0
 10
77.85741856924733
 20
-127.3931002459296
 30
0.0
  0
POLYLINE
  5
6E
330
4F
100
AcDbEntity
  8
_U+30EC_U+30A4_U+30E4_U+30FC 1
 62
   179
420
  2234388
370
     9
100
AcDb2dPolyline
 66
     1
 10
0.0
 20
0.0
 30
0.0
  0
VERTEX
  5
6F
330
6E
100
AcDbEntity
  8
_U+30EC_U+30A4_U+30E4_U+30FC 1
 62
   179
420
  2234388
370
     9
100
AcDbVertex
100
AcDb2dVertex
 10
77.7575138694495
 20
-127.3931002459296
 30
0.0
  0
VERTEX
  5
70
330
6E
100
AcDbEntity
  8
_U+30EC_U+30A4_U+30E4_U+30FC 1
 62
   179
420
  2234388
370
     9
100
AcDbVertex
100
AcDb2dVertex
 10
77.7575138694495
 20
-133.3930741333186
 30
0.0
  0
SEQEND
  5
71
330
6E
100
AcDbEntity
  8
_U+30EC_U+30A4_U+30E4_U+30FC 1
 62
   179
420
  2234388
370
     9
  0
POLYLINE
  5
72
330
4F
100
AcDbEntity
  8
_U+30EC_U+30A4_U+30E4_U+30FC 1
 62
   179
420
  2234388
370
     9
100
AcDb2dPolyline
 66
     1
 10
0.0
 20
0.0
 30
0.0
  0
VERTEX
  5
73
330
72
100
AcDbEntity
  8
_U+30EC_U+30A4_U+30E4_U+30FC 1
 62
   179
420
  2234388
370
     9
100
AcDbVertex
100
AcDb2dVertex
 10
79.71779213289635
 20
-127.3931002459296
 30
0.0
  0
VERTEX
  5
74
330
72
100
AcDbEntity
  8
_U+30EC_U+30A4_U+30E4_U+30FC 1
 62
   179
420
  2234388
370
     9
100
AcDbVertex
100
AcDb2dVertex
 10
76.75777498619046
 20
-127.3931002459296
 30
0.0
  0
SEQEND
  5
75
330
72
100
AcDbEntity
  8
_U+30EC_U+30A4_U+30E4_U+30FC 1
 62
   179
420
  2234388
370
     9
  0
POLYLINE
  5
76
330
4F
100
AcDbEntity
  8
_U+30EC_U+30A4_U+30E4_U+30FC 1
 62
   179
420
  2234388
370
     9
100
AcDb2dPolyline
 66
     1
 10
0.0
 20
0.0
 30
0.0
  0
VERTEX
  5
77
330
76
100
AcDbEntity
  8
_U+30EC_U+30A4_U+30E4_U+30FC 1
 62
   179
420
  2234388
370
     9
100
AcDbVertex
100
AcDb2dVertex
 10
80.01751212524987
 20
-133.3930741333186
 30
0.0
  0
VERTEX
  5
78
330
76
100
AcDbEntity
  8
_U+30EC_U+30A4_U+30E4_U+30FC 1
 62
   179
420
  2234388
370
     9
100
AcDbVertex
100
AcDb2dVertex
 10
76.75777498619046
 20
-133.3930741333186
 30
0.0
  0
SEQEND
  5
79
330
76
100
AcDbEntity
  8
_U+30EC_U+30A4_U+30E4_U+30FC 1
 62
   179
420
  2234388
370
     9
  0
INSERT
  5
7B
330
4F
100
AcDbEntity
  8
_U+30EC_U+30A4_U+30E4_U+30FC 1
100
AcDbBlockReference
  2
block 5
 10
0.0
 20
0.0
 30
0.0
  0
POLYLINE
  5
81
330
4F
100
AcDbEntity
  8
_U+30EC_U+30A4_U+30E4_U+30FC 1
 62
   179
420
  2234388
370
     9
100
AcDb2dPolyline
 66
     1
 10
0.0
 20
0.0
 30
0.0
  0
VERTEX
  5
82
330
81
100
AcDbEntity
  8
_U+30EC_U+30A4_U+30E4_U+30FC 1
 62
   179
420
  2234388
370
     9
100
AcDbVertex
100
AcDb2dVertex
 10
81.7572709697538
 20
-135.1331857995503
 30
0.0
  0
VERTEX
  5
83
330
81
100
AcDbEntity
  8
_U+30EC_U+30A4_U+30E4_U+30FC 1
 62
   179
420
  2234388
370
     9
100
AcDbVertex
100
AcDb2dVertex
 10
81.7572709697538
 20
-138.3929230209576
 30
0.0
  0
SEQEND
  5
84
330
81
100
AcDbEntity
  8
_U+30EC_U+30A4_U+30E4_U+30FC 1
 62
   179
420
  2234388
370
     9
  0
POLYLINE
  5
85
330
4F
100
AcDbEntity
  8
_U+30EC_U+30A4_U+30E4_U+30FC 1
 62
   179
420
  2234388
370
     9
100
AcDb2dPolyline
 66
     1
 10
0.0
 20
0.0
 30
0.0
  0
VERTEX
  5
86
330
85
100
AcDbEntity
  8
_U+30EC_U+30A4_U+30E4_U+30FC 1
 62
   179
420
  2234388
370
     9
100
AcDbVertex
100
AcDb2dVertex
 10
106.7576436652745
 20
-135.4329057994752
 30
0.0
  0
VERTEX
  5
87
330
85
100
AcDbEntity
  8
_U+30EC_U+30A4_U+30E4_U+30FC 1
 62
   179
420
  2234388
370
     9
100
AcDbVertex
100
AcDb2dVertex
 10
106.7576436652745
 20
-138.3929230209576
 30
0.0
  0
SEQEND
  5
88
330
85
100
AcDbEntity
  8
_U+30EC_U+30A4_U+30E4_U+30FC 1
 62
   179
420
  2234388
370
     9
  0
INSERT
  5
8A
330
4F
100
AcDbEntity
  8
_U+30EC_U+30A4_U+30E4_U+30FC 1
100
AcDbBlockReference
  2
block 6
 10
0.0
 20
0.0
 30
0.0
  0
ENDBLK
  5
52
330
4F
100
AcDbEntity
  8
0
100
AcDbBlockEnd
  0
BLOCK
  5
7C
330
7A
100
AcDbEntity
  8
0
100
AcDbBlockBegin
  2
block 5
 70
     0
 10
0.0
 20
0.0
 30
0.0
  3
block 5
  1

  0
SPLINE
  5
7E
330
7A
100
AcDbEntity
  8
_U+30EC_U+30A4_U+30E4_U+30FC 1
370
     0
100
AcDbSpline
210
0.0
220
0.0
230
1.0
 70
    11
 71
     3
 72
    32
 73
    28
 74
     0
 42
0.0000000001
 43
0.0000000001
 12
1.0
 22
0.0
 32
0.0
 13
1.0
 23
0.0
 33
0.0
 40
0.0
 40
0.0
 40
0.0
 40
0.0
 40
1.0
 40
1.0
 40
1.0
 40
2.0
 40
2.0
 40
2.0
 40
3.0
 40
3.0
 40
3.0
 40
4.0
 40
4.0
 40
4.0
 40
5.0
 40
5.0
 40
5.0
 40
6.0
 40
6.0
 40
6.0
 40
7.0
 40
7.0
 40
7.0
 40
8.0
 40
8.0
 40
8.0
 40
9.0
 40
9.0
 40
9.0
 40
9.0
 10
77.33016355488621
 20
-130.3458767035247
 30
0.0
 10
77.33016355488621
 20
-130.8977810002617
 30
0.0
 10
76.77584769130951
 20
-130.9067382485233
 30
0.0
 10
76.56225177122403
 20
-130.9067382485233
 30
0.0
 10
76.33160262848655
 20
-130.9067382485233
 30
0.0
 10
75.68426918680811
 20
-130.8864121851603
 30
0.0
 10
75.68426918680811
 20
-130.3052245767987
 30
0.0
 10
75.68426918680811
 20
-130.1198784396923
 30
0.0
 10
75.75403237038441
 20
-129.8577066732647
 30
0.0
 10
76.08613957516249
 20
-129.8170545465388
 30
0.0
 10
76.08613957516249
 20
-129.8170545465388
 30
0.0
 10
76.08613957516249
 20
-130.0454643772109
 30
0.0
 10
76.08613957516249
 20
-130.0454643772109
 30
0.0
 10
76.02912324488162
 20
-130.0564886827637
 30
0.0
 10
75.88098413901587
 20
-130.0905951280676
 30
0.0
 10
75.88098413901587
 20
-130.3076361436384
 30
0.0
 10
75.88098413901587
 20
-130.619761794602
 30
0.0
 10
76.20895722921165
 20
-130.6624809786191
 30
0.0
 10
76.41411266535827
 20
-130.6762613605601
 30
0.0
 10
76.3359089978431
 20
-130.5766981010364
 30
0.0
 10
76.27665335549682
 20
-130.5043510958461
 30
0.0
 10
76.27665335549682
 20
-130.310047710478
 30
0.0
 10
76.27665335549682
 20
-130.1178113824011
 30
0.0
 10
76.38448484418514
 20
-129.7943169163362
 30
0.0
 10
76.79066160189609
 20
-129.7943169163362
 30
0.0
 10
77.110194208153
 20
-129.7943169163362
 30
0.0
 10
77.33016355488621
 20
-130.0068793077761
 30
0.0
 10
77.33016355488621
 20
-130.3458767035247
 30
0.0
  0
SPLINE
  5
7F
330
7A
100
AcDbEntity
  8
_U+30EC_U+30A4_U+30E4_U+30FC 1
370
     0
100
AcDbSpline
210
0.0
220
0.0
230
1.0
 70
    11
 71
     3
 72
    17
 73
    13
 74
     0
 42
0.0000000001
 43
0.0000000001
 12
1.0
 22
0.0
 32
0.0
 13
1.0
 23
0.0
 33
0.0
 40
0.0
 40
0.0
 40
0.0
 40
0.0
 40
1.0
 40
1.0
 40
1.0
 40
2.0
 40
2.0
 40
2.0
 40
3.0
 40
3.0
 40
3.0
 40
4.0
 40
4.0
 40
4.0
 40
4.0
 10
76.47130125041343
 20
-130.3279622070013
 30
0.0
 10
76.47130125041343
 20
-130.6083929795007
 30
0.0
 10
76.68283011320777
 20
-130.6490451062266
 30
0.0
 10
76.79910208583495
 20
-130.6490451062266
 30
0.0
 10
76.97480195558269
 20
-130.6490451062266
 30
0.0
 10
77.13758271726074
 20
-130.5474147894118
 30
0.0
 10
77.13758271726074
 20
-130.350699837204
 30
0.0
 10
77.13758271726074
 20
-130.2218532660557
 30
0.0
 10
77.07832707491445
 20
-130.0340955621095
 30
0.0
 10
76.79272865918723
 20
-130.0340955621095
 30
0.0
 10
76.56862519787174
 20
-130.0340955621095
 30
0.0
 10
76.47130125041343
 20
-130.1832681966208
 30
0.0
 10
76.47130125041343
 20
-130.3279622070013
 30
0.0
  0
HATCH
  5
80
330
7A
100
AcDbEntity
  8
_U+30EC_U+30A4_U+30E4_U+30FC 1
 62
   179
420
  2234388
100
AcDbHatch
 10
0.0
 20
0.0
 30
0.0
210
0.0
220
0.0
230
1.0
  2
SOLID
 70
     1
 71
     0
 91
        2
 92
        1
 93
        1
 72
     4
 94
        3
 73
     0
 74
     1
 95
       32
 96
       28
 40
0.0
 40
0.0
 40
0.0
 40
0.0
 40
1.0
 40
1.0
 40
1.0
 40
2.0
 40
2.0
 40
2.0
 40
3.0
 40
3.0
 40
3.0
 40
4.0
 40
4.0
 40
4.0
 40
5.0
 40
5.0
 40
5.0
 40
6.0
 40
6.0
 40
6.0
 40
7.0
 40
7.0
 40
7.0
 40
8.0
 40
8.0
 40
8.0
 40
9.0
 40
9.0
 40
9.0
 40
9.0
 10
77.33016355488621
 20
-130.3458767035247
 10
77.33016355488621
 20
-130.8977810002617
 10
76.77584769130951
 20
-130.9067382485233
 10
76.56225177122403
 20
-130.9067382485233
 10
76.33160262848655
 20
-130.9067382485233
 10
75.68426918680811
 20
-130.8864121851603
 10
75.68426918680811
 20
-130.3052245767987
 10
75.68426918680811
 20
-130.1198784396923
 10
75.75403237038441
 20
-129.8577066732647
 10
76.08613957516249
 20
-129.8170545465388
 10
76.08613957516249
 20
-129.8170545465388
 10
76.08613957516249
 20
-130.0454643772109
 10
76.08613957516249
 20
-130.0454643772109
 10
76.02912324488162
 20
-130.0564886827637
 10
75.88098413901587
 20
-130.0905951280676
 10
75.88098413901587
 20
-130.3076361436384
 10
75.88098413901587
 20
-130.619761794602
 10
76.20895722921165
 20
-130.6624809786191
 10
76.41411266535827
 20
-130.6762613605601
 10
76.3359089978431
 20
-130.5766981010364
 10
76.27665335549682
 20
-130.5043510958461
 10
76.27665335549682
 20
-130.310047710478
 10
76.27665335549682
 20
-130.1178113824011
 10
76.38448484418514
 20
-129.7943169163362
 10
76.79066160189609
 20
-129.7943169163362
 10
77.110194208153
 20
-129.7943169163362
 10
77.33016355488621
 20
-130.0068793077761
 10
77.33016355488621
 20
-130.3458767035247
 97
        0
 97
        0
 92
        1
 93
        1
 72
     4
 94
        3
 73
     0
 74
     1
 95
       17
 96
       13
 40
0.0
 40
0.0
 40
0.0
 40
0.0
 40
1.0
 40
1.0
 40
1.0
 40
2.0
 40
2.0
 40
2.0
 40
3.0
 40
3.0
 40
3.0
 40
4.0
 40
4.0
 40
4.0
 40
4.0
 10
76.47130125041343
 20
-130.3279622070013
 10
76.47130125041343
 20
-130.6083929795007
 10
76.68283011320777
 20
-130.6490451062266
 10
76.79910208583495
 20
-130.6490451062266
 10
76.97480195558269
 20
-130.6490451062266
 10
77.13758271726074
 20
-130.5474147894118
 10
77.13758271726074
 20
-130.350699837204
 10
77.13758271726074
 20
-130.2218532660557
 10
77.07832707491445
 20
-130.0340955621095
 10
76.79272865918723
 20
-130.0340955621095
 10
76.56862519787174
 20
-130.0340955621095
 10
76.47130125041343
 20
-130.1832681966208
 10
76.47130125041343
 20
-130.3279622070013
 97
        0
 97
        0
 75
     2
 76
     1
 98
        0
  0
ENDBLK
  5
7D
330
7A
100
AcDbEntity
  8
0
100
AcDbBlockEnd
  0
BLOCK
  5
8B
330
89
100
AcDbEntity
  8
0
100
AcDbBlockBegin
  2
block 6
 70
     0
 10
0.0
 20
0.0
 30
0.0
  3
block 6
  1

  0
SPLINE
  5
8D
330
89
100
AcDbEntity
  8
_U+30EC_U+30A4_U+30E4_U+30FC 1
370
     0
100
AcDbSpline
210
0.0
220
0.0
230
1.0
 70
    11
 71
     3
 72
    44
 73
    40
 74
     0
 42
0.0000000001
 43
0.0000000001
 12
1.0
 22
0.0
 32
0.0
 13
1.0
 23
0.0
 33
0.0
 40
0.0
 40
0.0
 40
0.0
 40
0.0
 40
1.0
 40
1.0
 40
1.0
 40
2.0
 40
2.0
 40
2.0
 40
3.0
 40
3.0
 40
3.0
 40
4.0
 40
4.0
 40
4.0
 40
5.0
 40
5.0
 40
5.0
 40
6.0
 40
6.0
 40
6.0
 40
7.0
 40
7.0
 40
7.0
 40
8.0
 40
8.0
 40
8.0
 40
9.0
 40
9.0
 40
9.0
 40
10.0
 40
10.0
 40
10.0
 40
11.0
 40
11.0
 40
11.0
 40
12.0
 40
12.0
 40
12.0
 40
13.0
 40
13.0
 40
13.0
 40
13.0
 10
93.73277992448348
 20
-136.0978081256978
 30
0.0
 10
93.49989146968059
 20
-136.2566270275678
 30
0.0
 10
93.40032821015687
 20
-136.3306965805007
 30
0.0
 10
93.34865177787812
 20
-136.4743570622356
 30
0.0
 10
93.34865177787812
 20
-136.4743570622356
 30
0.0
 10
94.18029782801743
 20
-136.4743570622356
 30
0.0
 10
94.18029782801743
 20
-136.4743570622356
 30
0.0
 10
94.18029782801743
 20
-136.4743570622356
 30
0.0
 10
94.18029782801743
 20
-136.6796847531565
 30
0.0
 10
94.18029782801743
 20
-136.6796847531565
 30
0.0
 10
94.18029782801743
 20
-136.6796847531565
 30
0.0
 10
93.08165687777125
 20
-136.6796847531565
 30
0.0
 10
93.08165687777125
 20
-136.6796847531565
 30
0.0
 10
93.11576332307523
 20
-136.3220838417875
 30
0.0
 10
93.1856987614258
 20
-136.2438801742724
 30
0.0
 10
93.59704316236463
 20
-135.9455349052497
 30
0.0
 10
93.87058374389348
 20
-135.7467528957508
 30
0.0
 10
93.94086369179257
 20
-135.6788845146914
 30
0.0
 10
93.94086369179257
 20
-135.5414252048299
 30
0.0
 10
93.94086369179257
 20
-135.4229139201373
 30
0.0
 10
93.8640380624715
 20
-135.2920002916978
 30
0.0
 10
93.65354272832273
 20
-135.2920002916978
 30
0.0
 10
93.37552352266307
 20
-135.2920002916978
 30
0.0
 10
93.36656627440142
 20
-135.5224771796611
 30
0.0
 10
93.3620876502706
 20
-135.6389214070625
 30
0.0
 10
93.3620876502706
 20
-135.6389214070625
 30
0.0
 10
93.12230900449721
 20
-135.6389214070625
 30
0.0
 10
93.12230900449721
 20
-135.6389214070625
 30
0.0
 10
93.13161076230737
 20
-135.5117973836568
 30
0.0
 10
93.14263506786018
 20
-135.3998317803862
 30
0.0
 10
93.22876245499143
 20
-135.2813204956936
 30
0.0
 10
93.34624021103845
 20
-135.1204345365324
 30
0.0
 10
93.54502222053736
 20
-135.086672600777
 30
0.0
 10
93.66939016755488
 20
-135.086672600777
 30
0.0
 10
93.96566837928637
 20
-135.086672600777
 30
0.0
 10
94.18718801898792
 20
-135.2706406996893
 30
0.0
 10
94.18718801898792
 20
-135.5434922621211
 30
0.0
 10
94.18718801898792
 20
-135.7722466023417
 30
0.0
 10
94.0628200719704
 20
-135.8714653523169
 30
0.0
 10
93.73277992448348
 20
-136.0978081256978
 30
0.0
  0
HATCH
  5
8E
330
89
100
AcDbEntity
  8
_U+30EC_U+30A4_U+30E4_U+30FC 1
 62
   179
420
  2234388
100
AcDbHatch
 10
0.0
 20
0.0
 30
0.0
210
0.0
220
0.0
230
1.0
  2
SOLID
 70
     1
 71
     0
 91
        1
 92
        1
 93
        1
 72
     4
 94
        3
 73
     0
 74
     1
 95
       44
 96
       40
 40
0.0
 40
0.0
 40
0.0
 40
0.0
 40
1.0
 40
1.0
 40
1.0
 40
2.0
 40
2.0
 40
2.0
 40
3.0
 40
3.0
 40
3.0
 40
4.0
 40
4.0
 40
4.0
 40
5.0
 40
5.0
 40
5.0
 40
6.0
 40
6.0
 40
6.0
 40
7.0
 40
7.0
 40
7.0
 40
8.0
 40
8.0
 40
8.0
 40
9.0
 40
9.0
 40
9.0
 40
10.0
 40
10.0
 40
10.0
 40
11.0
 40
11.0
 40
11.0
 40
12.0
 40
12.0
 40
12.0
 40
13.0
 40
13.0
 40
13.0
 40
13.0
 10
93.73277992448348
 20
-136.0978081256978
 10
93.49989146968059
 20
-136.2566270275678
 10
93.40032821015687
 20
-136.3306965805007
 10
93.34865177787812
 20
-136.4743570622356
 10
93.34865177787812
 20
-136.4743570622356
 10
94.18029782801743
 20
-136.4743570622356
 10
94.18029782801743
 20
-136.4743570622356
 10
94.18029782801743
 20
-136.4743570622356
 10
94.18029782801743
 20
-136.6796847531565
 10
94.18029782801743
 20
-136.6796847531565
 10
94.18029782801743
 20
-136.6796847531565
 10
93.08165687777125
 20
-136.6796847531565
 10
93.08165687777125
 20
-136.6796847531565
 10
93.11576332307523
 20
-136.3220838417875
 10
93.1856987614258
 20
-136.2438801742724
 10
93.59704316236463
 20
-135.9455349052497
 10
93.87058374389348
 20
-135.7467528957508
 10
93.94086369179257
 20
-135.6788845146914
 10
93.94086369179257
 20
-135.5414252048299
 10
93.94086369179257
 20
-135.4229139201373
 10
93.8640380624715
 20
-135.2920002916978
 10
93.65354272832273
 20
-135.2920002916978
 10
93.37552352266307
 20
-135.2920002916978
 10
93.36656627440142
 20
-135.5224771796611
 10
93.3620876502706
 20
-135.6389214070625
 10
93.3620876502706
 20
-135.6389214070625
 10
93.12230900449721
 20
-135.6389214070625
 10
93.12230900449721
 20
-135.6389214070625
 10
93.13161076230737
 20
-135.5117973836568
 10
93.14263506786018
 20
-135.3998317803862
 10
93.22876245499143
 20
-135.2813204956936
 10
93.34624021103845
 20
-135.1204345365324
 10
93.54502222053736
 20
-135.086672600777
 10
93.66939016755488
 20
-135.086672600777
 10
93.96566837928637
 20
-135.086672600777
 10
94.18718801898792
 20
-135.2706406996893
 10
94.18718801898792
 20
-135.5434922621211
 10
94.18718801898792
 20
-135.7722466023417
 10
94.0628200719704
 20
-135.8714653523169
 10
93.73277992448348
 20
-136.0978081256978
 97
        0
 97
        0
 75
     2
 76
     1
 98
        0
  0
SPLINE
  5
8F
330
89
100
AcDbEntity
  8
_U+30EC_U+30A4_U+30E4_U+30FC 1
370
     0
100
AcDbSpline
210
0.0
220
0.0
230
1.0
 70
    11
 71
     3
 72
    53
 73
    49
 74
     0
 42
0.0000000001
 43
0.0000000001
 12
1.0
 22
0.0
 32
0.0
 13
1.0
 23
0.0
 33
0.0
 40
0.0
 40
0.0
 40
0.0
 40
0.0
 40
1.0
 40
1.0
 40
1.0
 40
2.0
 40
2.0
 40
2.0
 40
3.0
 40
3.0
 40
3.0
 40
4.0
 40
4.0
 40
4.0
 40
5.0
 40
5.0
 40
5.0
 40
6.0
 40
6.0
 40
6.0
 40
7.0
 40
7.0
 40
7.0
 40
8.0
 40
8.0
 40
8.0
 40
9.0
 40
9.0
 40
9.0
 40
10.0
 40
10.0
 40
10.0
 40
11.0
 40
11.0
 40
11.0
 40
12.0
 40
12.0
 40
12.0
 40
13.0
 40
13.0
 40
13.0
 40
14.0
 40
14.0
 40
14.0
 40
15.0
 40
15.0
 40
15.0
 40
16.0
 40
16.0
 40
16.0
 40
16.0
 10
94.8706949632615
 20
-136.7303276567897
 30
0.0
 10
94.78732365251845
 20
-136.7303276567897
 30
0.0
 10
94.67845863518455
 20
-136.7134466889119
 30
0.0
 10
94.57028263694771
 20
-136.6500569319833
 30
0.0
 10
94.38459199029275
 20
-136.5401583860039
 30
0.0
 10
94.36219886963862
 20
-136.4089002480158
 30
0.0
 10
94.34187280627565
 20
-136.3010687593275
 30
0.0
 10
94.34187280627565
 20
-136.3010687593275
 30
0.0
 10
94.57923988520936
 20
-136.3010687593275
 30
0.0
 10
94.57923988520936
 20
-136.3010687593275
 30
0.0
 10
94.63780650845861
 20
-136.4998507688264
 30
0.0
 10
94.77354327057745
 20
-136.5294785899996
 30
0.0
 10
94.87310653010117
 20
-136.5294785899996
 30
0.0
 10
95.02227916461248
 20
-136.5294785899996
 30
0.0
 10
95.18488767151628
 20
-136.4299153304759
 30
0.0
 10
95.18488767151628
 20
-136.1973713852215
 30
0.0
 10
95.18488767151628
 20
-135.9414007906674
 30
0.0
 10
94.99299585298786
 20
-135.8714653523169
 30
0.0
 10
94.86414928183952
 20
-135.8714653523169
 30
0.0
 10
94.83004283653555
 20
-135.8714653523169
 30
0.0
 10
94.67845863518455
 20
-135.8714653523169
 30
0.0
 10
94.58371850934019
 20
-136.0006564330137
 30
0.0
 10
94.58371850934019
 20
-136.0006564330137
 30
0.0
 10
94.39596080539407
 20
-135.9817084078448
 30
0.0
 10
94.39596080539407
 20
-135.9817084078448
 30
0.0
 10
94.39596080539407
 20
-135.9817084078448
 30
0.0
 10
94.52480737654241
 20
-135.135248447119
 30
0.0
 10
94.52480737654241
 20
-135.135248447119
 30
0.0
 10
94.52480737654241
 20
-135.135248447119
 30
0.0
 10
95.35679793623025
 20
-135.135248447119
 30
0.0
 10
95.35679793623025
 20
-135.135248447119
 30
0.0
 10
95.35679793623025
 20
-135.135248447119
 30
0.0
 10
95.35679793623025
 20
-135.3298963420356
 30
0.0
 10
95.35679793623025
 20
-135.3298963420356
 30
0.0
 10
95.35679793623025
 20
-135.3298963420356
 30
0.0
 10
94.69912920809605
 20
-135.3298963420356
 30
0.0
 10
94.69912920809605
 20
-135.3298963420356
 30
0.0
 10
94.69912920809605
 20
-135.3298963420356
 30
0.0
 10
94.62884926019696
 20
-135.7529540676243
 30
0.0
 10
94.62884926019696
 20
-135.7529540676243
 30
0.0
 10
94.6943060744167
 20
-135.7191921318688
 30
0.0
 10
94.7825005188391
 20
-135.6788845146914
 30
0.0
 10
94.9092800326963
 20
-135.6788845146914
 30
0.0
 10
95.18040904738545
 20
-135.6788845146914
 30
0.0
 10
95.43362356555131
 20
-135.8652641804434
 30
0.0
 10
95.43362356555131
 20
-136.1784233600526
 30
0.0
 10
95.43362356555131
 20
-136.4957166542441
 30
0.0
 10
95.19418942932646
 20
-136.7303276567897
 30
0.0
 10
94.8706949632615
 20
-136.7303276567897
 30
0.0
  0
HATCH
  5
90
330
89
100
AcDbEntity
  8
_U+30EC_U+30A4_U+30E4_U+30FC 1
 62
   179
420
  2234388
100
AcDbHatch
 10
0.0
 20
0.0
 30
0.0
210
0.0
220
0.0
230
1.0
  2
SOLID
 70
     1
 71
     0
 91
        1
 92
        1
 93
        1
 72
     4
 94
        3
 73
     0
 74
     1
 95
       53
 96
       49
 40
0.0
 40
0.0
 40
0.0
 40
0.0
 40
1.0
 40
1.0
 40
1.0
 40
2.0
 40
2.0
 40
2.0
 40
3.0
 40
3.0
 40
3.0
 40
4.0
 40
4.0
 40
4.0
 40
5.0
 40
5.0
 40
5.0
 40
6.0
 40
6.0
 40
6.0
 40
7.0
 40
7.0
 40
7.0
 40
8.0
 40
8.0
 40
8.0
 40
9.0
 40
9.0
 40
9.0
 40
10.0
 40
10.0
 40
10.0
 40
11.0
 40
11.0
 40
11.0
 40
12.0
 40
12.0
 40
12.0
 40
13.0
 40
13.0
 40
13.0
 40
14.0
 40
14.0
 40
14.0
 40
15.0
 40
15.0
 40
15.0
 40
16.0
 40
16.0
 40
16.0
 40
16.0
 10
94.8706949632615
 20
-136.7303276567897
 10
94.78732365251845
 20
-136.7303276567897
 10
94.67845863518455
 20
-136.7134466889119
 10
94.57028263694771
 20
-136.6500569319833
 10
94.38459199029275
 20
-136.5401583860039
 10
94.36219886963862
 20
-136.4089002480158
 10
94.34187280627565
 20
-136.3010687593275
 10
94.34187280627565
 20
-136.3010687593275
 10
94.57923988520936
 20
-136.3010687593275
 10
94.57923988520936
 20
-136.3010687593275
 10
94.63780650845861
 20
-136.4998507688264
 10
94.77354327057745
 20
-136.5294785899996
 10
94.87310653010117
 20
-136.5294785899996
 10
95.02227916461248
 20
-136.5294785899996
 10
95.18488767151628
 20
-136.4299153304759
 10
95.18488767151628
 20
-136.1973713852215
 10
95.18488767151628
 20
-135.9414007906674
 10
94.99299585298786
 20
-135.8714653523169
 10
94.86414928183952
 20
-135.8714653523169
 10
94.83004283653555
 20
-135.8714653523169
 10
94.67845863518455
 20
-135.8714653523169
 10
94.58371850934019
 20
-136.0006564330137
 10
94.58371850934019
 20
-136.0006564330137
 10
94.39596080539407
 20
-135.9817084078448
 10
94.39596080539407
 20
-135.9817084078448
 10
94.39596080539407
 20
-135.9817084078448
 10
94.52480737654241
 20
-135.135248447119
 10
94.52480737654241
 20
-135.135248447119
 10
94.52480737654241
 20
-135.135248447119
 10
95.35679793623025
 20
-135.135248447119
 10
95.35679793623025
 20
-135.135248447119
 10
95.35679793623025
 20
-135.135248447119
 10
95.35679793623025
 20
-135.3298963420356
 10
95.35679793623025
 20
-135.3298963420356
 10
95.35679793623025
 20
-135.3298963420356
 10
94.69912920809605
 20
-135.3298963420356
 10
94.69912920809605
 20
-135.3298963420356
 10
94.69912920809605
 20
-135.3298963420356
 10
94.62884926019696
 20
-135.7529540676243
 10
94.62884926019696
 20
-135.7529540676243
 10
94.6943060744167
 20
-135.7191921318688
 10
94.7825005188391
 20
-135.6788845146914
 10
94.9092800326963
 20
-135.6788845146914
 10
95.18040904738545
 20
-135.6788845146914
 10
95.43362356555131
 20
-135.8652641804434
 10
95.43362356555131
 20
-136.1784233600526
 10
95.43362356555131
 20
-136.4957166542441
 10
95.19418942932646
 20
-136.7303276567897
 10
94.8706949632615
 20
-136.7303276567897
 97
        0
 97
        0
 75
     2
 76
     1
 98
        0
  0
ENDBLK
  5
8C
330
89
100
AcDbEntity
  8
0
100
AcDbBlockEnd
  0
BLOCK
  5
A4
330
A2
100
AcDbEntity
  8
0
100
AcDbBlockBegin
  2
block 7
 70
     0
 10
0.0
 20
0.0
 30
0.0
  3
block 7
  1

  0
SPLINE
  5
A6
330
A2
100
AcDbEntity
  8
_U+30EC_U+30A4_U+30E4_U+30FC 1
370
     0
100
AcDbSpline
210
0.0
220
0.0
230
1.0
 70
    11
 71
     3
 72
   242
 73
   238
 74
     0
 42
0.0000000001
 43
0.0000000001
 12
1.0
 22
0.0
 32
0.0
 13
1.0
 23
0.0
 33
0.0
 40
0.0
 40
0.0
 40
0.0
 40
0.0
 40
1.0
 40
1.0
 40
1.0
 40
2.0
 40
2.0
 40
2.0
 40
3.0
 40
3.0
 40
3.0
 40
4.0
 40
4.0
 40
4.0
 40
5.0
 40
5.0
 40
5.0
 40
6.0
 40
6.0
 40
6.0
 40
7.0
 40
7.0
 40
7.0
 40
8.0
 40
8.0
 40
8.0
 40
9.0
 40
9.0
 40
9.0
 40
10.0
 40
10.0
 40
10.0
 40
11.0
 40
11.0
 40
11.0
 40
12.0
 40
12.0
 40
12.0
 40
13.0
 40
13.0
 40
13.0
 40
14.0
 40
14.0
 40
14.0
 40
15.0
 40
15.0
 40
15.0
 40
16.0
 40
16.0
 40
16.0
 40
17.0
 40
17.0
 40
17.0
 40
18.0
 40
18.0
 40
18.0
 40
19.0
 40
19.0
 40
19.0
 40
20.0
 40
20.0
 40
20.0
 40
21.0
 40
21.0
 40
21.0
 40
22.0
 40
22.0
 40
22.0
 40
23.0
 40
23.0
 40
23.0
 40
24.0
 40
24.0
 40
24.0
 40
25.0
 40
25.0
 40
25.0
 40
26.0
 40
26.0
 40
26.0
 40
27.0
 40
27.0
 40
27.0
 40
28.0
 40
28.0
 40
28.0
 40
29.0
 40
29.0
 40
29.0
 40
30.0
 40
30.0
 40
30.0
 40
31.0
 40
31.0
 40
31.0
 40
32.0
 40
32.0
 40
32.0
 40
33.0
 40
33.0
 40
33.0
 40
34.0
 40
34.0
 40
34.0
 40
35.0
 40
35.0
 40
35.0
 40
36.0
 40
36.0
 40
36.0
 40
37.0
 40
37.0
 40
37.0
 40
38.0
 40
38.0
 40
38.0
 40
39.0
 40
39.0
 40
39.0
 40
40.0
 40
40.0
 40
40.0
 40
41.0
 40
41.0
 40
41.0
 40
42.0
 40
42.0
 40
42.0
 40
43.0
 40
43.0
 40
43.0
 40
44.0
 40
44.0
 40
44.0
 40
45.0
 40
45.0
 40
45.0
 40
46.0
 40
46.0
 40
46.0
 40
47.0
 40
47.0
 40
47.0
 40
48.0
 40
48.0
 40
48.0
 40
49.0
 40
49.0
 40
49.0
 40
50.0
 40
50.0
 40
50.0
 40
51.0
 40
51.0
 40
51.0
 40
52.0
 40
52.0
 40
52.0
 40
53.0
 40
53.0
 40
53.0
 40
54.0
 40
54.0
 40
54.0
 40
55.0
 40
55.0
 40
55.0
 40
56.0
 40
56.0
 40
56.0
 40
57.0
 40
57.0
 40
57.0
 40
58.0
 40
58.0
 40
58.0
 40
59.0
 40
59.0
 40
59.0
 40
60.0
 40
60.0
 40
60.0
 40
61.0
 40
61.0
 40
61.0
 40
62.0
 40
62.0
 40
62.0
 40
63.0
 40
63.0
 40
63.0
 40
64.0
 40
64.0
 40
64.0
 40
65.0
 40
65.0
 40
65.0
 40
66.0
 40
66.0
 40
66.0
 40
67.0
 40
67.0
 40
67.0
 40
68.0
 40
68.0
 40
68.0
 40
69.0
 40
69.0
 40
69.0
 40
70.0
 40
70.0
 40
70.0
 40
71.0
 40
71.0
 40
71.0
 40
72.0
 40
72.0
 40
72.0
 40
73.0
 40
73.0
 40
73.0
 40
74.0
 40
74.0
 40
74.0
 40
75.0
 40
75.0
 40
75.0
 40
76.0
 40
76.0
 40
76.0
 40
77.0
 40
77.0
 40
77.0
 40
78.0
 40
78.0
 40
78.0
 40
79.0
 40
79.0
 40
79.0
 40
79.0
 10
97.56854923776065
 20
-119.8204209769893
 30
0.0
 10
97.56854923776065
 20
-119.8204209769893
 30
0.0
 10
97.34668508851055
 20
-119.8204209769893
 30
0.0
 10
97.34668508851055
 20
-119.8204209769893
 30
0.0
 10
97.34668508851055
 20
-119.8204209769893
 30
0.0
 10
97.10380585680045
 20
-119.8204209769893
 30
0.0
 10
97.10380585680045
 20
-119.8204209769893
 30
0.0
 10
97.10380585680045
 20
-119.8204209769893
 30
0.0
 10
97.21508244097402
 20
-119.8627956514579
 30
0.0
 10
97.21508244097402
 20
-119.8627956514579
 30
0.0
 10
97.2243841987842
 20
-119.8671020208145
 30
0.0
 10
97.23540850433699
 20
-119.8733031926879
 30
0.0
 10
97.23540850433699
 20
-119.8860500459834
 30
0.0
 10
97.23540850433699
 20
-119.9072373832176
 30
0.0
 10
97.20750323090647
 20
-119.9136108098653
 30
0.0
 10
97.18924422483464
 20
-119.9177449244476
 30
0.0
 10
97.17994246702446
 20
-119.9409993189731
 30
0.0
 10
97.15375974133656
 20
-120.0066283879671
 30
0.0
 10
97.13722328300736
 20
-120.0510701197268
 30
0.0
 10
97.13722328300736
 20
-120.0510701197268
 30
0.0
 10
97.37424585239255
 20
-120.0510701197268
 30
0.0
 10
97.37424585239255
 20
-120.0510701197268
 30
0.0
 10
97.45382755810182
 20
-120.0510701197268
 30
0.0
 10
97.62608233236432
 20
-120.0467637503703
 30
0.0
 10
97.75010576983331
 20
-120.0383232664314
 30
0.0
 10
97.75010576983331
 20
-120.0383232664314
 30
0.0
 10
97.75010576983331
 20
-120.2160901934703
 30
0.0
 10
97.75010576983331
 20
-120.2160901934703
 30
0.0
 10
97.67810327419159
 20
-120.2117838241137
 30
0.0
 10
97.65949975857124
 20
-120.2117838241137
 30
0.0
 10
97.50205889489533
 20
-120.2076497095314
 30
0.0
 10
97.4741536214648
 20
-120.3619899872706
 30
0.0
 10
97.43556855203
 20
-120.4424329668512
 30
0.0
 10
97.39663897304668
 20
-120.5121961504275
 30
0.0
 10
97.50205889489533
 20
-120.5714517927738
 30
0.0
 10
97.59473196344854
 20
-120.639147919059
 30
0.0
 10
97.68533797471062
 20
-120.7216579559307
 30
0.0
 10
97.68533797471062
 20
-120.7216579559307
 30
0.0
 10
97.5816406006046
 20
-120.8887450869653
 30
0.0
 10
97.5816406006046
 20
-120.8887450869653
 30
0.0
 10
97.56131453724161
 20
-120.8697970617964
 30
0.0
 10
97.55029023168882
 20
-120.8613565778576
 30
0.0
 10
97.4521050103592
 20
-120.7766072289204
 30
0.0
 10
97.4093858263421
 20
-120.7385389238084
 30
0.0
 10
97.35770939406335
 20
-120.7027099307618
 30
0.0
 10
97.28742944616425
 20
-120.6582681990021
 30
0.0
 10
97.10208330905782
 20
-120.8444756099799
 30
0.0
 10
96.9225938342763
 20
-120.8677300045053
 30
0.0
 10
96.66869029701338
 20
-120.8973578256784
 30
0.0
 10
96.66869029701338
 20
-120.8973578256784
 30
0.0
 10
96.57808428575132
 20
-120.7175238413484
 30
0.0
 10
96.57808428575132
 20
-120.7175238413484
 30
0.0
 10
96.85575898186245
 20
-120.7132174719918
 30
0.0
 10
97.0094102405046
 20
-120.6878960201753
 30
0.0
 10
97.14273543578376
 20
-120.5778252194215
 30
0.0
 10
97.03903806167774
 20
-120.5270100610141
 30
0.0
 10
96.96152341325963
 20
-120.4996215519063
 30
0.0
 10
96.92982853479532
 20
-120.4868746986109
 30
0.0
 10
96.91329207646612
 20
-120.5144354624929
 30
0.0
 10
96.90020071362218
 20
-120.5333834876618
 30
0.0
 10
96.87608504522542
 20
-120.5673176781915
 30
0.0
 10
96.87608504522542
 20
-120.5673176781915
 30
0.0
 10
96.70383027096294
 20
-120.4848076413198
 30
0.0
 10
96.70383027096294
 20
-120.4848076413198
 30
0.0
 10
96.77617727615318
 20
-120.4043646617392
 30
0.0
 10
96.82992076572307
 20
-120.309107771572
 30
0.0
 10
96.8798746502592
 20
-120.2076497095314
 30
0.0
 10
96.71313202877312
 20
-120.2117838241137
 30
0.0
 10
96.69487302270129
 20
-120.2117838241137
 30
0.0
 10
96.62252601751103
 20
-120.2160901934703
 30
0.0
 10
96.62252601751103
 20
-120.2160901934703
 30
0.0
 10
96.62252601751103
 20
-120.0383232664314
 30
0.0
 10
96.62252601751103
 20
-120.0383232664314
 30
0.0
 10
96.74482690723741
 20
-120.0446966930791
 30
0.0
 10
96.9281059870527
 20
-120.0490030624357
 30
0.0
 10
96.95015459815829
 20
-120.0490030624357
 30
0.0
 10
96.96496850874487
 20
-120.015068871906
 30
0.0
 10
97.01319984553837
 20
-119.8944905299222
 30
0.0
 10
97.02973630386757
 20
-119.8204209769893
 30
0.0
 10
97.01319984553837
 20
-119.8204209769893
 30
0.0
 10
96.85748152960508
 20
-119.8267944036371
 30
0.0
 10
96.68729381263374
 20
-119.8395412569325
 30
0.0
 10
96.68729381263374
 20
-119.8395412569325
 30
0.0
 10
96.68729381263374
 20
-119.9728664522116
 30
0.0
 10
96.68729381263374
 20
-119.9728664522116
 30
0.0
 10
96.64457462861664
 20
-119.9981879040282
 30
0.0
 10
96.59289819633788
 20
-120.0298827824925
 30
0.0
 10
96.47610945938793
 20
-120.0955118514865
 30
0.0
 10
96.47610945938793
 20
-120.0955118514865
 30
0.0
 10
96.47610945938793
 20
-120.2414116452869
 30
0.0
 10
96.47610945938793
 20
-120.2414116452869
 30
0.0
 10
96.47610945938793
 20
-120.2414116452869
 30
0.0
 10
96.47610945938793
 20
-120.7090833574095
 30
0.0
 10
96.47610945938793
 20
-120.7090833574095
 30
0.0
 10
96.47610945938793
 20
-120.8358628712667
 30
0.0
 10
96.44475909047215
 20
-120.895118513613
 30
0.0
 10
96.19671221553416
 20
-120.8866780296742
 30
0.0
 10
96.19671221553416
 20
-120.8866780296742
 30
0.0
 10
96.10576169472357
 20
-120.6794555362364
 30
0.0
 10
96.10576169472357
 20
-120.6794555362364
 30
0.0
 10
96.16157224158461
 20
-120.6920301347576
 30
0.0
 10
96.20394691605318
 20
-120.6963365041141
 30
0.0
 10
96.23908689000274
 20
-120.6963365041141
 30
0.0
 10
96.30592174241659
 20
-120.6963365041141
 30
0.0
 10
96.31522350022675
 20
-120.6730821095887
 30
0.0
 10
96.31522350022675
 20
-120.6074530405947
 30
0.0
 10
96.31522350022675
 20
-120.6074530405947
 30
0.0
 10
96.31522350022675
 20
-120.1780218883583
 30
0.0
 10
96.31522350022675
 20
-120.1780218883583
 30
0.0
 10
96.22978513219256
 20
-120.2181572507614
 30
0.0
 10
96.21497122160598
 20
-120.2245306774091
 30
0.0
 10
96.17431909488003
 20
-120.2436509573523
 30
0.0
 10
96.17052948984626
 20
-120.2646660398123
 30
0.0
 10
96.16708439436101
 20
-120.2942938609855
 30
0.0
 10
96.15020342648329
 20
-120.2942938609855
 30
0.0
 10
96.14296872596427
 20
-120.2942938609855
 30
0.0
 10
96.13366696815409
 20
-120.2901597464032
 30
0.0
 10
96.12815481537768
 20
-120.2669053518777
 30
0.0
 10
96.12815481537768
 20
-120.2669053518777
 30
0.0
 10
96.08164602632681
 20
-120.0743245142523
 30
0.0
 10
96.08164602632681
 20
-120.0743245142523
 30
0.0
 10
96.20945906882959
 20
-120.0278157252014
 30
0.0
 10
96.26699216343326
 20
-120.004561330676
 30
0.0
 10
96.31522350022675
 20
-119.9833739934417
 30
0.0
 10
96.31522350022675
 20
-119.9833739934417
 30
0.0
 10
96.31522350022675
 20
-119.570823809083
 30
0.0
 10
96.31522350022675
 20
-119.570823809083
 30
0.0
 10
96.31522350022675
 20
-119.570823809083
 30
0.0
 10
96.26871471117587
 20
-119.570823809083
 30
0.0
 10
96.26871471117587
 20
-119.570823809083
 30
0.0
 10
96.26871471117587
 20
-119.570823809083
 30
0.0
 10
96.20015731101941
 20
-119.570823809083
 30
0.0
 10
96.20015731101941
 20
-119.570823809083
 30
0.0
 10
96.14090166867311
 20
-119.570823809083
 30
0.0
 10
96.13366696815409
 20
-119.570823809083
 30
0.0
 10
96.1023165992383
 20
-119.5771972357307
 30
0.0
 10
96.1023165992383
 20
-119.5771972357307
 30
0.0
 10
96.1023165992383
 20
-119.3825493408141
 30
0.0
 10
96.1023165992383
 20
-119.3825493408141
 30
0.0
 10
96.12608775808654
 20
-119.3889227674618
 30
0.0
 10
96.13366696815409
 20
-119.3889227674618
 30
0.0
 10
96.194645158243
 20
-119.3889227674618
 30
0.0
 10
96.194645158243
 20
-119.3889227674618
 30
0.0
 10
96.31143389519298
 20
-119.3889227674618
 30
0.0
 10
96.31143389519298
 20
-119.3889227674618
 30
0.0
 10
96.31143389519298
 20
-119.3191595838855
 30
0.0
 10
96.31143389519298
 20
-119.2366495470138
 30
0.0
 10
96.30971134745036
 20
-119.2323431776572
 30
0.0
 10
96.3021321373828
 20
-119.0525091933272
 30
0.0
 10
96.3021321373828
 20
-119.0335611681583
 30
0.0
 10
96.30040958964018
 20
-118.9870523791074
 30
0.0
 10
96.30040958964018
 20
-118.9870523791074
 30
0.0
 10
96.48920082223187
 20
-118.9954928630463
 30
0.0
 10
96.48920082223187
 20
-118.9954928630463
 30
0.0
 10
96.49850258004204
 20
-118.9954928630463
 30
0.0
 10
96.5171060956624
 20
-118.9975599203374
 30
0.0
 10
96.5171060956624
 20
-119.0144408882151
 30
0.0
 10
96.5171060956624
 20
-119.0335611681583
 30
0.0
 10
96.50401473281845
 20
-119.0440687093883
 30
0.0
 10
96.48162161216432
 20
-119.0631889893314
 30
0.0
 10
96.48162161216432
 20
-119.1138318929646
 30
0.0
 10
96.47610945938793
 20
-119.3424139784109
 30
0.0
 10
96.47817651667907
 20
-119.3889227674618
 30
0.0
 10
96.59083113904674
 20
-119.3889227674618
 30
0.0
 10
96.60219995414806
 20
-119.3889227674618
 30
0.0
 10
96.68729381263374
 20
-119.3804822835229
 30
0.0
 10
96.68729381263374
 20
-119.3804822835229
 30
0.0
 10
96.68729381263374
 20
-119.5751301784396
 30
0.0
 10
96.68729381263374
 20
-119.5751301784396
 30
0.0
 10
96.65387638642682
 20
-119.5728908663741
 30
0.0
 10
96.59462074408052
 20
-119.5687567517918
 30
0.0
 10
96.47610945938793
 20
-119.570823809083
 30
0.0
 10
96.47610945938793
 20
-119.570823809083
 30
0.0
 10
96.47610945938793
 20
-119.9093044405088
 30
0.0
 10
96.47610945938793
 20
-119.9093044405088
 30
0.0
 10
96.52434079618142
 20
-119.8860500459834
 30
0.0
 10
96.58187389078509
 20
-119.8584892821014
 30
0.0
 10
96.62424856525367
 20
-119.8352348875759
 30
0.0
 10
96.62424856525367
 20
-119.8352348875759
 30
0.0
 10
96.62424856525367
 20
-119.6576402153113
 30
0.0
 10
96.62424856525367
 20
-119.6576402153113
 30
0.0
 10
96.72450084387444
 20
-119.6702148138325
 30
0.0
 10
96.82785370843193
 20
-119.6702148138325
 30
0.0
 10
96.92982853479532
 20
-119.6702148138325
 30
0.0
 10
96.90950247143235
 20
-119.5751301784396
 30
0.0
 10
96.8853868030356
 20
-119.4926201415678
 30
0.0
 10
96.82992076572307
 20
-119.3592949462887
 30
0.0
 10
96.79099118673976
 20
-119.3613620035798
 30
0.0
 10
96.71864418154951
 20
-119.3656683729364
 30
0.0
 10
96.68557126489111
 20
-119.3677354302275
 30
0.0
 10
96.68557126489111
 20
-119.3677354302275
 30
0.0
 10
96.68557126489111
 20
-119.1879014458975
 30
0.0
 10
96.68557126489111
 20
-119.1879014458975
 30
0.0
 10
96.79478079177353
 20
-119.1963419298363
 30
0.0
 10
96.94636499312452
 20
-119.2006482991929
 30
0.0
 10
97.01871199831477
 20
-119.2006482991929
 30
0.0
 10
97.01871199831477
 20
-119.2006482991929
 30
0.0
 10
97.09105900350502
 20
-119.2006482991929
 30
0.0
 10
97.09105900350502
 20
-119.2006482991929
 30
0.0
 10
97.09105900350502
 20
-119.0376952827406
 30
0.0
 10
97.09105900350502
 20
-119.0271877415106
 30
0.0
 10
97.08899194621387
 20
-118.9722384685208
 30
0.0
 10
97.08899194621387
 20
-118.9722384685208
 30
0.0
 10
97.28536238887311
 20
-118.9975599203374
 30
0.0
 10
97.28536238887311
 20
-118.9975599203374
 30
0.0
 10
97.28915199390688
 20
-118.9975599203374
 30
0.0
 10
97.30775550952723
 20
-118.9996269776286
 30
0.0
 10
97.30775550952723
 20
-119.0165079455063
 30
0.0
 10
97.30775550952723
 20
-119.0313218560929
 30
0.0
 10
97.29845375171706
 20
-119.039934594806
 30
0.0
 10
97.2743380833203
 20
-119.0547485053926
 30
0.0
 10
97.26882593054391
 20
-119.1202053196123
 30
0.0
 10
97.26675887325275
 20
-119.1413926568466
 30
0.0
 10
97.26675887325275
 20
-119.2006482991929
 30
0.0
 10
97.26675887325275
 20
-119.2006482991929
 30
0.0
 10
97.3501301839958
 20
-119.2006482991929
 30
0.0
 10
97.3501301839958
 20
-119.2006482991929
 30
0.0
 10
97.42247718918605
 20
-119.2006482991929
 30
0.0
 10
97.57440590008557
 20
-119.1963419298363
 30
0.0
 10
97.68361542696799
 20
-119.1879014458975
 30
0.0
 10
97.68361542696799
 20
-119.1879014458975
 30
0.0
 10
97.68361542696799
 20
-119.3677354302275
 30
0.0
 10
97.68361542696799
 20
-119.3677354302275
 30
0.0
 10
97.65743270128009
 20
-119.3656683729364
 30
0.0
 10
97.5540798367226
 20
-119.3613620035798
 30
0.0
 10
97.51859535322453
 20
-119.3592949462887
 30
0.0
 10
97.5058484999291
 20
-119.4101101046961
 30
0.0
 10
97.47622067875595
 20
-119.522247962741
 30
0.0
 10
97.41868758415228
 20
-119.6617743298936
 30
0.0
 10
97.45589461539298
 20
-119.6617743298936
 30
0.0
 10
97.69842933755456
 20
-119.6428263047247
 30
0.0
 10
97.75217282712447
 20
-119.6405869926593
 30
0.0
 10
97.75217282712447
 20
-119.6405869926593
 30
0.0
 10
97.75217282712447
 20
-119.8247273463459
 30
0.0
 10
97.75217282712447
 20
-119.8247273463459
 30
0.0
 10
97.72599010143657
 20
-119.8247273463459
 30
0.0
 10
97.71117619084998
 20
-119.8204209769893
 30
0.0
 10
97.56854923776065
 20
-119.8204209769893
 30
0.0
  0
SPLINE
  5
A7
330
A2
100
AcDbEntity
  8
_U+30EC_U+30A4_U+30E4_U+30FC 1
370
     0
100
AcDbSpline
210
0.0
220
0.0
230
1.0
 70
    11
 71
     3
 72
    20
 73
    16
 74
     0
 42
0.0000000001
 43
0.0000000001
 12
1.0
 22
0.0
 32
0.0
 13
1.0
 23
0.0
 33
0.0
 40
0.0
 40
0.0
 40
0.0
 40
0.0
 40
1.0
 40
1.0
 40
1.0
 40
2.0
 40
2.0
 40
2.0
 40
3.0
 40
3.0
 40
3.0
 40
4.0
 40
4.0
 40
4.0
 40
5.0
 40
5.0
 40
5.0
 40
5.0
 10
97.01871199831477
 20
-119.3551608317064
 30
0.0
 10
97.01871199831477
 20
-119.3551608317064
 30
0.0
 10
96.99115123443278
 20
-119.3551608317064
 30
0.0
 10
96.99115123443278
 20
-119.3551608317064
 30
0.0
 10
97.03180336115872
 20
-119.4545518364558
 30
0.0
 10
97.05936412504072
 20
-119.5348225612621
 30
0.0
 10
97.08899194621387
 20
-119.6617743298936
 30
0.0
 10
97.08899194621387
 20
-119.6617743298936
 30
0.0
 10
97.27054847828653
 20
-119.6617743298936
 30
0.0
 10
97.27054847828653
 20
-119.6617743298936
 30
0.0
 10
97.29845375171706
 20
-119.5687567517918
 30
0.0
 10
97.31877981508003
 20
-119.484179657629
 30
0.0
 10
97.33910587844301
 20
-119.3551608317064
 30
0.0
 10
97.33910587844301
 20
-119.3551608317064
 30
0.0
 10
97.01871199831477
 20
-119.3551608317064
 30
0.0
 10
97.01871199831477
 20
-119.3551608317064
 30
0.0
  0
SPLINE
  5
A8
330
A2
100
AcDbEntity
  8
_U+30EC_U+30A4_U+30E4_U+30FC 1
370
     0
100
AcDbSpline
210
0.0
220
0.0
230
1.0
 70
    11
 71
     3
 72
    17
 73
    13
 74
     0
 42
0.0000000001
 43
0.0000000001
 12
1.0
 22
0.0
 32
0.0
 13
1.0
 23
0.0
 33
0.0
 40
0.0
 40
0.0
 40
0.0
 40
0.0
 40
1.0
 40
1.0
 40
1.0
 40
2.0
 40
2.0
 40
2.0
 40
3.0
 40
3.0
 40
3.0
 40
4.0
 40
4.0
 40
4.0
 40
4.0
 10
97.0741780356273
 20
-120.2055826522403
 30
0.0
 10
97.05936412504072
 20
-120.2350382186392
 30
0.0
 10
97.014922393281
 20
-120.3282280515152
 30
0.0
 10
97.00562063547082
 20
-120.3471760766841
 30
0.0
 10
97.17236325695691
 20
-120.4064317190303
 30
0.0
 10
97.19096677257727
 20
-120.412805145678
 30
0.0
 10
97.25401201995733
 20
-120.4403659095601
 30
0.0
 10
97.30189884720231
 20
-120.3535495033318
 30
0.0
 10
97.32256942011381
 20
-120.2794799503989
 30
0.0
 10
97.33531627340923
 20
-120.2055826522403
 30
0.0
 10
97.33531627340923
 20
-120.2055826522403
 30
0.0
 10
97.0741780356273
 20
-120.2055826522403
 30
0.0
 10
97.0741780356273
 20
-120.2055826522403
 30
0.0
  0
HATCH
  5
A9
330
A2
100
AcDbEntity
  8
_U+30EC_U+30A4_U+30E4_U+30FC 1
 62
   179
420
  2234388
100
AcDbHatch
 10
0.0
 20
0.0
 30
0.0
210
0.0
220
0.0
230
1.0
  2
SOLID
 70
     1
 71
     0
 91
        3
 92
        1
 93
        1
 72
     4
 94
        3
 73
     0
 74
     1
 95
      242
 96
      238
 40
0.0
 40
0.0
 40
0.0
 40
0.0
 40
1.0
 40
1.0
 40
1.0
 40
2.0
 40
2.0
 40
2.0
 40
3.0
 40
3.0
 40
3.0
 40
4.0
 40
4.0
 40
4.0
 40
5.0
 40
5.0
 40
5.0
 40
6.0
 40
6.0
 40
6.0
 40
7.0
 40
7.0
 40
7.0
 40
8.0
 40
8.0
 40
8.0
 40
9.0
 40
9.0
 40
9.0
 40
10.0
 40
10.0
 40
10.0
 40
11.0
 40
11.0
 40
11.0
 40
12.0
 40
12.0
 40
12.0
 40
13.0
 40
13.0
 40
13.0
 40
14.0
 40
14.0
 40
14.0
 40
15.0
 40
15.0
 40
15.0
 40
16.0
 40
16.0
 40
16.0
 40
17.0
 40
17.0
 40
17.0
 40
18.0
 40
18.0
 40
18.0
 40
19.0
 40
19.0
 40
19.0
 40
20.0
 40
20.0
 40
20.0
 40
21.0
 40
21.0
 40
21.0
 40
22.0
 40
22.0
 40
22.0
 40
23.0
 40
23.0
 40
23.0
 40
24.0
 40
24.0
 40
24.0
 40
25.0
 40
25.0
 40
25.0
 40
26.0
 40
26.0
 40
26.0
 40
27.0
 40
27.0
 40
27.0
 40
28.0
 40
28.0
 40
28.0
 40
29.0
 40
29.0
 40
29.0
 40
30.0
 40
30.0
 40
30.0
 40
31.0
 40
31.0
 40
31.0
 40
32.0
 40
32.0
 40
32.0
 40
33.0
 40
33.0
 40
33.0
 40
34.0
 40
34.0
 40
34.0
 40
35.0
 40
35.0
 40
35.0
 40
36.0
 40
36.0
 40
36.0
 40
37.0
 40
37.0
 40
37.0
 40
38.0
 40
38.0
 40
38.0
 40
39.0
 40
39.0
 40
39.0
 40
40.0
 40
40.0
 40
40.0
 40
41.0
 40
41.0
 40
41.0
 40
42.0
 40
42.0
 40
42.0
 40
43.0
 40
43.0
 40
43.0
 40
44.0
 40
44.0
 40
44.0
 40
45.0
 40
45.0
 40
45.0
 40
46.0
 40
46.0
 40
46.0
 40
47.0
 40
47.0
 40
47.0
 40
48.0
 40
48.0
 40
48.0
 40
49.0
 40
49.0
 40
49.0
 40
50.0
 40
50.0
 40
50.0
 40
51.0
 40
51.0
 40
51.0
 40
52.0
 40
52.0
 40
52.0
 40
53.0
 40
53.0
 40
53.0
 40
54.0
 40
54.0
 40
54.0
 40
55.0
 40
55.0
 40
55.0
 40
56.0
 40
56.0
 40
56.0
 40
57.0
 40
57.0
 40
57.0
 40
58.0
 40
58.0
 40
58.0
 40
59.0
 40
59.0
 40
59.0
 40
60.0
 40
60.0
 40
60.0
 40
61.0
 40
61.0
 40
61.0
 40
62.0
 40
62.0
 40
62.0
 40
63.0
 40
63.0
 40
63.0
 40
64.0
 40
64.0
 40
64.0
 40
65.0
 40
65.0
 40
65.0
 40
66.0
 40
66.0
 40
66.0
 40
67.0
 40
67.0
 40
67.0
 40
68.0
 40
68.0
 40
68.0
 40
69.0
 40
69.0
 40
69.0
 40
70.0
 40
70.0
 40
70.0
 40
71.0
 40
71.0
 40
71.0
 40
72.0
 40
72.0
 40
72.0
 40
73.0
 40
73.0
 40
73.0
 40
74.0
 40
74.0
 40
74.0
 40
75.0
 40
75.0
 40
75.0
 40
76.0
 40
76.0
 40
76.0
 40
77.0
 40
77.0
 40
77.0
 40
78.0
 40
78.0
 40
78.0
 40
79.0
 40
79.0
 40
79.0
 40
79.0
 10
97.56854923776065
 20
-119.8204209769893
 10
97.56854923776065
 20
-119.8204209769893
 10
97.34668508851055
 20
-119.8204209769893
 10
97.34668508851055
 20
-119.8204209769893
 10
97.34668508851055
 20
-119.8204209769893
 10
97.10380585680045
 20
-119.8204209769893
 10
97.10380585680045
 20
-119.8204209769893
 10
97.10380585680045
 20
-119.8204209769893
 10
97.21508244097402
 20
-119.8627956514579
 10
97.21508244097402
 20
-119.8627956514579
 10
97.2243841987842
 20
-119.8671020208145
 10
97.23540850433699
 20
-119.8733031926879
 10
97.23540850433699
 20
-119.8860500459834
 10
97.23540850433699
 20
-119.9072373832176
 10
97.20750323090647
 20
-119.9136108098653
 10
97.18924422483464
 20
-119.9177449244476
 10
97.17994246702446
 20
-119.9409993189731
 10
97.15375974133656
 20
-120.0066283879671
 10
97.13722328300736
 20
-120.0510701197268
 10
97.13722328300736
 20
-120.0510701197268
 10
97.37424585239255
 20
-120.0510701197268
 10
97.37424585239255
 20
-120.0510701197268
 10
97.45382755810182
 20
-120.0510701197268
 10
97.62608233236432
 20
-120.0467637503703
 10
97.75010576983331
 20
-120.0383232664314
 10
97.75010576983331
 20
-120.0383232664314
 10
97.75010576983331
 20
-120.2160901934703
 10
97.75010576983331
 20
-120.2160901934703
 10
97.67810327419159
 20
-120.2117838241137
 10
97.65949975857124
 20
-120.2117838241137
 10
97.50205889489533
 20
-120.2076497095314
 10
97.4741536214648
 20
-120.3619899872706
 10
97.43556855203
 20
-120.4424329668512
 10
97.39663897304668
 20
-120.5121961504275
 10
97.50205889489533
 20
-120.5714517927738
 10
97.59473196344854
 20
-120.639147919059
 10
97.68533797471062
 20
-120.7216579559307
 10
97.68533797471062
 20
-120.7216579559307
 10
97.5816406006046
 20
-120.8887450869653
 10
97.5816406006046
 20
-120.8887450869653
 10
97.56131453724161
 20
-120.8697970617964
 10
97.55029023168882
 20
-120.8613565778576
 10
97.4521050103592
 20
-120.7766072289204
 10
97.4093858263421
 20
-120.7385389238084
 10
97.35770939406335
 20
-120.7027099307618
 10
97.28742944616425
 20
-120.6582681990021
 10
97.10208330905782
 20
-120.8444756099799
 10
96.9225938342763
 20
-120.8677300045053
 10
96.66869029701338
 20
-120.8973578256784
 10
96.66869029701338
 20
-120.8973578256784
 10
96.57808428575132
 20
-120.7175238413484
 10
96.57808428575132
 20
-120.7175238413484
 10
96.85575898186245
 20
-120.7132174719918
 10
97.0094102405046
 20
-120.6878960201753
 10
97.14273543578376
 20
-120.5778252194215
 10
97.03903806167774
 20
-120.5270100610141
 10
96.96152341325963
 20
-120.4996215519063
 10
96.92982853479532
 20
-120.4868746986109
 10
96.91329207646612
 20
-120.5144354624929
 10
96.90020071362218
 20
-120.5333834876618
 10
96.87608504522542
 20
-120.5673176781915
 10
96.87608504522542
 20
-120.5673176781915
 10
96.70383027096294
 20
-120.4848076413198
 10
96.70383027096294
 20
-120.4848076413198
 10
96.77617727615318
 20
-120.4043646617392
 10
96.82992076572307
 20
-120.309107771572
 10
96.8798746502592
 20
-120.2076497095314
 10
96.71313202877312
 20
-120.2117838241137
 10
96.69487302270129
 20
-120.2117838241137
 10
96.62252601751103
 20
-120.2160901934703
 10
96.62252601751103
 20
-120.2160901934703
 10
96.62252601751103
 20
-120.0383232664314
 10
96.62252601751103
 20
-120.0383232664314
 10
96.74482690723741
 20
-120.0446966930791
 10
96.9281059870527
 20
-120.0490030624357
 10
96.95015459815829
 20
-120.0490030624357
 10
96.96496850874487
 20
-120.015068871906
 10
97.01319984553837
 20
-119.8944905299222
 10
97.02973630386757
 20
-119.8204209769893
 10
97.01319984553837
 20
-119.8204209769893
 10
96.85748152960508
 20
-119.8267944036371
 10
96.68729381263374
 20
-119.8395412569325
 10
96.68729381263374
 20
-119.8395412569325
 10
96.68729381263374
 20
-119.9728664522116
 10
96.68729381263374
 20
-119.9728664522116
 10
96.64457462861664
 20
-119.9981879040282
 10
96.59289819633788
 20
-120.0298827824925
 10
96.47610945938793
 20
-120.0955118514865
 10
96.47610945938793
 20
-120.0955118514865
 10
96.47610945938793
 20
-120.2414116452869
 10
96.47610945938793
 20
-120.2414116452869
 10
96.47610945938793
 20
-120.2414116452869
 10
96.47610945938793
 20
-120.7090833574095
 10
96.47610945938793
 20
-120.7090833574095
 10
96.47610945938793
 20
-120.8358628712667
 10
96.44475909047215
 20
-120.895118513613
 10
96.19671221553416
 20
-120.8866780296742
 10
96.19671221553416
 20
-120.8866780296742
 10
96.10576169472357
 20
-120.6794555362364
 10
96.10576169472357
 20
-120.6794555362364
 10
96.16157224158461
 20
-120.6920301347576
 10
96.20394691605318
 20
-120.6963365041141
 10
96.23908689000274
 20
-120.6963365041141
 10
96.30592174241659
 20
-120.6963365041141
 10
96.31522350022675
 20
-120.6730821095887
 10
96.31522350022675
 20
-120.6074530405947
 10
96.31522350022675
 20
-120.6074530405947
 10
96.31522350022675
 20
-120.1780218883583
 10
96.31522350022675
 20
-120.1780218883583
 10
96.22978513219256
 20
-120.2181572507614
 10
96.21497122160598
 20
-120.2245306774091
 10
96.17431909488003
 20
-120.2436509573523
 10
96.17052948984626
 20
-120.2646660398123
 10
96.16708439436101
 20
-120.2942938609855
 10
96.15020342648329
 20
-120.2942938609855
 10
96.14296872596427
 20
-120.2942938609855
 10
96.13366696815409
 20
-120.2901597464032
 10
96.12815481537768
 20
-120.2669053518777
 10
96.12815481537768
 20
-120.2669053518777
 10
96.08164602632681
 20
-120.0743245142523
 10
96.08164602632681
 20
-120.0743245142523
 10
96.20945906882959
 20
-120.0278157252014
 10
96.26699216343326
 20
-120.004561330676
 10
96.31522350022675
 20
-119.9833739934417
 10
96.31522350022675
 20
-119.9833739934417
 10
96.31522350022675
 20
-119.570823809083
 10
96.31522350022675
 20
-119.570823809083
 10
96.31522350022675
 20
-119.570823809083
 10
96.26871471117587
 20
-119.570823809083
 10
96.26871471117587
 20
-119.570823809083
 10
96.26871471117587
 20
-119.570823809083
 10
96.20015731101941
 20
-119.570823809083
 10
96.20015731101941
 20
-119.570823809083
 10
96.14090166867311
 20
-119.570823809083
 10
96.13366696815409
 20
-119.570823809083
 10
96.1023165992383
 20
-119.5771972357307
 10
96.1023165992383
 20
-119.5771972357307
 10
96.1023165992383
 20
-119.3825493408141
 10
96.1023165992383
 20
-119.3825493408141
 10
96.12608775808654
 20
-119.3889227674618
 10
96.13366696815409
 20
-119.3889227674618
 10
96.194645158243
 20
-119.3889227674618
 10
96.194645158243
 20
-119.3889227674618
 10
96.31143389519298
 20
-119.3889227674618
 10
96.31143389519298
 20
-119.3889227674618
 10
96.31143389519298
 20
-119.3191595838855
 10
96.31143389519298
 20
-119.2366495470138
 10
96.30971134745036
 20
-119.2323431776572
 10
96.3021321373828
 20
-119.0525091933272
 10
96.3021321373828
 20
-119.0335611681583
 10
96.30040958964018
 20
-118.9870523791074
 10
96.30040958964018
 20
-118.9870523791074
 10
96.48920082223187
 20
-118.9954928630463
 10
96.48920082223187
 20
-118.9954928630463
 10
96.49850258004204
 20
-118.9954928630463
 10
96.5171060956624
 20
-118.9975599203374
 10
96.5171060956624
 20
-119.0144408882151
 10
96.5171060956624
 20
-119.0335611681583
 10
96.50401473281845
 20
-119.0440687093883
 10
96.48162161216432
 20
-119.0631889893314
 10
96.48162161216432
 20
-119.1138318929646
 10
96.47610945938793
 20
-119.3424139784109
 10
96.47817651667907
 20
-119.3889227674618
 10
96.59083113904674
 20
-119.3889227674618
 10
96.60219995414806
 20
-119.3889227674618
 10
96.68729381263374
 20
-119.3804822835229
 10
96.68729381263374
 20
-119.3804822835229
 10
96.68729381263374
 20
-119.5751301784396
 10
96.68729381263374
 20
-119.5751301784396
 10
96.65387638642682
 20
-119.5728908663741
 10
96.59462074408052
 20
-119.5687567517918
 10
96.47610945938793
 20
-119.570823809083
 10
96.47610945938793
 20
-119.570823809083
 10
96.47610945938793
 20
-119.9093044405088
 10
96.47610945938793
 20
-119.9093044405088
 10
96.52434079618142
 20
-119.8860500459834
 10
96.58187389078509
 20
-119.8584892821014
 10
96.62424856525367
 20
-119.8352348875759
 10
96.62424856525367
 20
-119.8352348875759
 10
96.62424856525367
 20
-119.6576402153113
 10
96.62424856525367
 20
-119.6576402153113
 10
96.72450084387444
 20
-119.6702148138325
 10
96.82785370843193
 20
-119.6702148138325
 10
96.92982853479532
 20
-119.6702148138325
 10
96.90950247143235
 20
-119.5751301784396
 10
96.8853868030356
 20
-119.4926201415678
 10
96.82992076572307
 20
-119.3592949462887
 10
96.79099118673976
 20
-119.3613620035798
 10
96.71864418154951
 20
-119.3656683729364
 10
96.68557126489111
 20
-119.3677354302275
 10
96.68557126489111
 20
-119.3677354302275
 10
96.68557126489111
 20
-119.1879014458975
 10
96.68557126489111
 20
-119.1879014458975
 10
96.79478079177353
 20
-119.1963419298363
 10
96.94636499312452
 20
-119.2006482991929
 10
97.01871199831477
 20
-119.2006482991929
 10
97.01871199831477
 20
-119.2006482991929
 10
97.09105900350502
 20
-119.2006482991929
 10
97.09105900350502
 20
-119.2006482991929
 10
97.09105900350502
 20
-119.0376952827406
 10
97.09105900350502
 20
-119.0271877415106
 10
97.08899194621387
 20
-118.9722384685208
 10
97.08899194621387
 20
-118.9722384685208
 10
97.28536238887311
 20
-118.9975599203374
 10
97.28536238887311
 20
-118.9975599203374
 10
97.28915199390688
 20
-118.9975599203374
 10
97.30775550952723
 20
-118.9996269776286
 10
97.30775550952723
 20
-119.0165079455063
 10
97.30775550952723
 20
-119.0313218560929
 10
97.29845375171706
 20
-119.039934594806
 10
97.2743380833203
 20
-119.0547485053926
 10
97.26882593054391
 20
-119.1202053196123
 10
97.26675887325275
 20
-119.1413926568466
 10
97.26675887325275
 20
-119.2006482991929
 10
97.26675887325275
 20
-119.2006482991929
 10
97.3501301839958
 20
-119.2006482991929
 10
97.3501301839958
 20
-119.2006482991929
 10
97.42247718918605
 20
-119.2006482991929
 10
97.57440590008557
 20
-119.1963419298363
 10
97.68361542696799
 20
-119.1879014458975
 10
97.68361542696799
 20
-119.1879014458975
 10
97.68361542696799
 20
-119.3677354302275
 10
97.68361542696799
 20
-119.3677354302275
 10
97.65743270128009
 20
-119.3656683729364
 10
97.5540798367226
 20
-119.3613620035798
 10
97.51859535322453
 20
-119.3592949462887
 10
97.5058484999291
 20
-119.4101101046961
 10
97.47622067875595
 20
-119.522247962741
 10
97.41868758415228
 20
-119.6617743298936
 10
97.45589461539298
 20
-119.6617743298936
 10
97.69842933755456
 20
-119.6428263047247
 10
97.75217282712447
 20
-119.6405869926593
 10
97.75217282712447
 20
-119.6405869926593
 10
97.75217282712447
 20
-119.8247273463459
 10
97.75217282712447
 20
-119.8247273463459
 10
97.72599010143657
 20
-119.8247273463459
 10
97.71117619084998
 20
-119.8204209769893
 10
97.56854923776065
 20
-119.8204209769893
 97
        0
 97
        0
 92
        1
 93
        1
 72
     4
 94
        3
 73
     0
 74
     1
 95
       20
 96
       16
 40
0.0
 40
0.0
 40
0.0
 40
0.0
 40
1.0
 40
1.0
 40
1.0
 40
2.0
 40
2.0
 40
2.0
 40
3.0
 40
3.0
 40
3.0
 40
4.0
 40
4.0
 40
4.0
 40
5.0
 40
5.0
 40
5.0
 40
5.0
 10
97.01871199831477
 20
-119.3551608317064
 10
97.01871199831477
 20
-119.3551608317064
 10
96.99115123443278
 20
-119.3551608317064
 10
96.99115123443278
 20
-119.3551608317064
 10
97.03180336115872
 20
-119.4545518364558
 10
97.05936412504072
 20
-119.5348225612621
 10
97.08899194621387
 20
-119.6617743298936
 10
97.08899194621387
 20
-119.6617743298936
 10
97.27054847828653
 20
-119.6617743298936
 10
97.27054847828653
 20
-119.6617743298936
 10
97.29845375171706
 20
-119.5687567517918
 10
97.31877981508003
 20
-119.484179657629
 10
97.33910587844301
 20
-119.3551608317064
 10
97.33910587844301
 20
-119.3551608317064
 10
97.01871199831477
 20
-119.3551608317064
 10
97.01871199831477
 20
-119.3551608317064
 97
        0
 97
        0
 92
        1
 93
        1
 72
     4
 94
        3
 73
     0
 74
     1
 95
       17
 96
       13
 40
0.0
 40
0.0
 40
0.0
 40
0.0
 40
1.0
 40
1.0
 40
1.0
 40
2.0
 40
2.0
 40
2.0
 40
3.0
 40
3.0
 40
3.0
 40
4.0
 40
4.0
 40
4.0
 40
4.0
 10
97.0741780356273
 20
-120.2055826522403
 10
97.05936412504072
 20
-120.2350382186392
 10
97.014922393281
 20
-120.3282280515152
 10
97.00562063547082
 20
-120.3471760766841
 10
97.17236325695691
 20
-120.4064317190303
 10
97.19096677257727
 20
-120.412805145678
 10
97.25401201995733
 20
-120.4403659095601
 10
97.30189884720231
 20
-120.3535495033318
 10
97.32256942011381
 20
-120.2794799503989
 10
97.33531627340923
 20
-120.2055826522403
 10
97.33531627340923
 20
-120.2055826522403
 10
97.0741780356273
 20
-120.2055826522403
 10
97.0741780356273
 20
-120.2055826522403
 97
        0
 97
        0
 75
     2
 76
     1
 98
        0
  0
SPLINE
  5
AA
330
A2
100
AcDbEntity
  8
_U+30EC_U+30A4_U+30E4_U+30FC 1
370
     0
100
AcDbSpline
210
0.0
220
0.0
230
1.0
 70
    11
 71
     3
 72
   203
 73
   199
 74
     0
 42
0.0000000001
 43
0.0000000001
 12
1.0
 22
0.0
 32
0.0
 13
1.0
 23
0.0
 33
0.0
 40
0.0
 40
0.0
 40
0.0
 40
0.0
 40
1.0
 40
1.0
 40
1.0
 40
2.0
 40
2.0
 40
2.0
 40
3.0
 40
3.0
 40
3.0
 40
4.0
 40
4.0
 40
4.0
 40
5.0
 40
5.0
 40
5.0
 40
6.0
 40
6.0
 40
6.0
 40
7.0
 40
7.0
 40
7.0
 40
8.0
 40
8.0
 40
8.0
 40
9.0
 40
9.0
 40
9.0
 40
10.0
 40
10.0
 40
10.0
 40
11.0
 40
11.0
 40
11.0
 40
12.0
 40
12.0
 40
12.0
 40
13.0
 40
13.0
 40
13.0
 40
14.0
 40
14.0
 40
14.0
 40
15.0
 40
15.0
 40
15.0
 40
16.0
 40
16.0
 40
16.0
 40
17.0
 40
17.0
 40
17.0
 40
18.0
 40
18.0
 40
18.0
 40
19.0
 40
19.0
 40
19.0
 40
20.0
 40
20.0
 40
20.0
 40
21.0
 40
21.0
 40
21.0
 40
22.0
 40
22.0
 40
22.0
 40
23.0
 40
23.0
 40
23.0
 40
24.0
 40
24.0
 40
24.0
 40
25.0
 40
25.0
 40
25.0
 40
26.0
 40
26.0
 40
26.0
 40
27.0
 40
27.0
 40
27.0
 40
28.0
 40
28.0
 40
28.0
 40
29.0
 40
29.0
 40
29.0
 40
30.0
 40
30.0
 40
30.0
 40
31.0
 40
31.0
 40
31.0
 40
32.0
 40
32.0
 40
32.0
 40
33.0
 40
33.0
 40
33.0
 40
34.0
 40
34.0
 40
34.0
 40
35.0
 40
35.0
 40
35.0
 40
36.0
 40
36.0
 40
36.0
 40
37.0
 40
37.0
 40
37.0
 40
38.0
 40
38.0
 40
38.0
 40
39.0
 40
39.0
 40
39.0
 40
40.0
 40
40.0
 40
40.0
 40
41.0
 40
41.0
 40
41.0
 40
42.0
 40
42.0
 40
42.0
 40
43.0
 40
43.0
 40
43.0
 40
44.0
 40
44.0
 40
44.0
 40
45.0
 40
45.0
 40
45.0
 40
46.0
 40
46.0
 40
46.0
 40
47.0
 40
47.0
 40
47.0
 40
48.0
 40
48.0
 40
48.0
 40
49.0
 40
49.0
 40
49.0
 40
50.0
 40
50.0
 40
50.0
 40
51.0
 40
51.0
 40
51.0
 40
52.0
 40
52.0
 40
52.0
 40
53.0
 40
53.0
 40
53.0
 40
54.0
 40
54.0
 40
54.0
 40
55.0
 40
55.0
 40
55.0
 40
56.0
 40
56.0
 40
56.0
 40
57.0
 40
57.0
 40
57.0
 40
58.0
 40
58.0
 40
58.0
 40
59.0
 40
59.0
 40
59.0
 40
60.0
 40
60.0
 40
60.0
 40
61.0
 40
61.0
 40
61.0
 40
62.0
 40
62.0
 40
62.0
 40
63.0
 40
63.0
 40
63.0
 40
64.0
 40
64.0
 40
64.0
 40
65.0
 40
65.0
 40
65.0
 40
66.0
 40
66.0
 40
66.0
 40
66.0
 10
99.05062931551512
 20
-119.8881171032745
 30
0.0
 10
99.05062931551512
 20
-119.8881171032745
 30
0.0
 10
98.56177026615818
 20
-119.8881171032745
 30
0.0
 10
98.56177026615818
 20
-119.8881171032745
 30
0.0
 10
98.552468508348
 20
-119.9325588350342
 30
0.0
 10
98.54523380782898
 20
-119.9642537134985
 30
0.0
 10
98.53386499272764
 20
-120.0024942733848
 30
0.0
 10
98.55625811338177
 20
-120.0024942733848
 30
0.0
 10
98.56934947622572
 20
-120.004561330676
 30
0.0
 10
98.57486162900213
 20
-120.004561330676
 30
0.0
 10
98.57486162900213
 20
-120.004561330676
 30
0.0
 10
98.73953719319707
 20
-120.004561330676
 30
0.0
 10
98.73953719319707
 20
-120.004561330676
 30
0.0
 10
98.73953719319707
 20
-120.004561330676
 30
0.0
 10
99.06716577384432
 20
-120.004561330676
 30
0.0
 10
99.06716577384432
 20
-120.004561330676
 30
0.0
 10
99.11195201515257
 20
-120.004561330676
 30
0.0
 10
99.35999889009057
 20
-119.9918144773805
 30
0.0
 10
99.38755965397256
 20
-119.9918144773805
 30
0.0
 10
99.38583710622993
 20
-120.0193752412625
 30
0.0
 10
99.38411455848731
 20
-120.0383232664314
 30
0.0
 10
99.38411455848731
 20
-120.0679510876045
 30
0.0
 10
99.38204750119615
 20
-120.0996459660688
 30
0.0
 10
99.38204750119615
 20
-120.2350382186392
 30
0.0
 10
99.38204750119615
 20
-120.2625989825212
 30
0.0
 10
99.38204750119615
 20
-120.2625989825212
 30
0.0
 10
99.38204750119615
 20
-120.5080620358452
 30
0.0
 10
99.38204750119615
 20
-120.5080620358452
 30
0.0
 10
99.38204750119615
 20
-120.5525037676049
 30
0.0
 10
99.38583710622993
 20
-120.7492187198127
 30
0.0
 10
99.3896267112637
 20
-120.9014919402607
 30
0.0
 10
99.3896267112637
 20
-120.9014919402607
 30
0.0
 10
99.19153372086184
 20
-120.9014919402607
 30
0.0
 10
99.19153372086184
 20
-120.9014919402607
 30
0.0
 10
99.19153372086184
 20
-120.9014919402607
 30
0.0
 10
99.19325626860447
 20
-120.8677300045053
 30
0.0
 10
99.19325626860447
 20
-120.8677300045053
 30
0.0
 10
99.19325626860447
 20
-120.8677300045053
 30
0.0
 10
98.5786512340359
 20
-120.8677300045053
 30
0.0
 10
98.5786512340359
 20
-120.8677300045053
 30
0.0
 10
98.5786512340359
 20
-120.8677300045053
 30
0.0
 10
98.58037378177852
 20
-120.9014919402607
 30
0.0
 10
98.58037378177852
 20
-120.9014919402607
 30
0.0
 10
98.58037378177852
 20
-120.9014919402607
 30
0.0
 10
98.38951549189568
 20
-120.9014919402607
 30
0.0
 10
98.38951549189568
 20
-120.9014919402607
 30
0.0
 10
98.39330509692945
 20
-120.846542667271
 30
0.0
 10
98.39330509692945
 20
-120.8337958139756
 30
0.0
 10
98.39881724970586
 20
-120.7195908986396
 30
0.0
 10
98.400884306997
 20
-120.6920301347576
 30
0.0
 10
98.40260685473963
 20
-120.5588771942526
 30
0.0
 10
98.40260685473963
 20
-120.5397569143095
 30
0.0
 10
98.40260685473963
 20
-120.5397569143095
 30
0.0
 10
98.40260685473963
 20
-120.336668535454
 30
0.0
 10
98.40260685473963
 20
-120.336668535454
 30
0.0
 10
98.28030596501326
 20
-120.5862657033604
 30
0.0
 10
98.13216685914752
 20
-120.7175238413484
 30
0.0
 10
98.03949379059429
 20
-120.7829806555682
 30
0.0
 10
98.03949379059429
 20
-120.7829806555682
 30
0.0
 10
97.8879095892433
 20
-120.6434542884155
 30
0.0
 10
97.8879095892433
 20
-120.6434542884155
 30
0.0
 10
97.96542423766142
 20
-120.5926391300081
 30
0.0
 10
98.09151473242157
 20
-120.5058227237798
 30
0.0
 10
98.21174856485679
 20
-120.3113470836374
 30
0.0
 10
98.29133027056606
 20
-120.184395315006
 30
0.0
 10
98.34886336516973
 20
-120.0405625784968
 30
0.0
 10
98.37849118634288
 20
-119.8881171032745
 30
0.0
 10
98.17833113864987
 20
-119.8903564153399
 30
0.0
 10
98.02123478452248
 20
-119.8967298419876
 30
0.0
 10
97.93786347377943
 20
-119.8987968992788
 30
0.0
 10
97.93786347377943
 20
-119.8987968992788
 30
0.0
 10
97.93786347377943
 20
-119.7210299722399
 30
0.0
 10
97.93786347377943
 20
-119.7210299722399
 30
0.0
 10
98.11011824804191
 20
-119.7274033988876
 30
0.0
 10
98.35816512297991
 20
-119.7317097682442
 30
0.0
 10
98.48976777051645
 20
-119.7317097682442
 30
0.0
 10
98.48976777051645
 20
-119.7317097682442
 30
0.0
 10
98.67649194581699
 20
-119.7317097682442
 30
0.0
 10
98.67649194581699
 20
-119.7317097682442
 30
0.0
 10
98.67649194581699
 20
-119.7317097682442
 30
0.0
 10
98.67649194581699
 20
-119.6237060247816
 30
0.0
 10
98.67649194581699
 20
-119.6237060247816
 30
0.0
 10
98.67649194581699
 20
-119.6237060247816
 30
0.0
 10
98.54902341286275
 20
-119.6237060247816
 30
0.0
 10
98.54902341286275
 20
-119.6237060247816
 30
0.0
 10
98.400884306997
 20
-119.6237060247816
 30
0.0
 10
98.25274520113126
 20
-119.6280123941381
 30
0.0
 10
98.10632864300814
 20
-119.6343858207859
 30
0.0
 10
98.10632864300814
 20
-119.6343858207859
 30
0.0
 10
98.10632864300814
 20
-119.4629923203947
 30
0.0
 10
98.10632864300814
 20
-119.4629923203947
 30
0.0
 10
98.24137638602994
 20
-119.4734998616247
 30
0.0
 10
98.40432940248226
 20
-119.4734998616247
 30
0.0
 10
98.54902341286275
 20
-119.4734998616247
 30
0.0
 10
98.54902341286275
 20
-119.4734998616247
 30
0.0
 10
98.67649194581699
 20
-119.4734998616247
 30
0.0
 10
98.67649194581699
 20
-119.4734998616247
 30
0.0
 10
98.67649194581699
 20
-119.4734998616247
 30
0.0
 10
98.67649194581699
 20
-119.3551608317064
 30
0.0
 10
98.67649194581699
 20
-119.3551608317064
 30
0.0
 10
98.67649194581699
 20
-119.3551608317064
 30
0.0
 10
98.56177026615818
 20
-119.3551608317064
 30
0.0
 10
98.56177026615818
 20
-119.3551608317064
 30
0.0
 10
98.52111813943222
 20
-119.3551608317064
 30
0.0
 10
98.34335121239333
 20
-119.3636013156452
 30
0.0
 10
98.30614418115263
 20
-119.3636013156452
 30
0.0
 10
98.12837725411374
 20
-119.3677354302275
 30
0.0
 10
98.06188691124842
 20
-119.3698024875187
 30
0.0
 10
97.99332951109194
 20
-119.3720417995841
 30
0.0
 10
97.99332951109194
 20
-119.3720417995841
 30
0.0
 10
97.99332951109194
 20
-119.1879014458975
 30
0.0
 10
97.99332951109194
 20
-119.1879014458975
 30
0.0
 10
98.09323728016419
 20
-119.1963419298363
 30
0.0
 10
98.13216685914752
 20
-119.1963419298363
 30
0.0
 10
98.46737464986232
 20
-119.2049546685495
 30
0.0
 10
98.41190861254981
 20
-119.1096977783823
 30
0.0
 10
98.38779294415306
 20
-119.0821370145003
 30
0.0
 10
98.35609806568876
 20
-119.0461357666794
 30
0.0
 10
98.35609806568876
 20
-119.0461357666794
 30
0.0
 10
98.51009383387942
 20
-118.9636257298077
 30
0.0
 10
98.51009383387942
 20
-118.9636257298077
 30
0.0
 10
98.54523380782898
 20
-118.9996269776286
 30
0.0
 10
98.58416338681229
 20
-119.0420016520971
 30
0.0
 10
98.648931181935
 20
-119.1519001980766
 30
0.0
 10
98.648931181935
 20
-119.1519001980766
 30
0.0
 10
98.54902341286275
 20
-119.2070217258406
 30
0.0
 10
98.54902341286275
 20
-119.2070217258406
 30
0.0
 10
98.54902341286275
 20
-119.2070217258406
 30
0.0
 10
98.5579806611244
 20
-119.2070217258406
 30
0.0
 10
98.5579806611244
 20
-119.2070217258406
 30
0.0
 10
98.5579806611244
 20
-119.2070217258406
 30
0.0
 10
99.01548934156558
 20
-119.2070217258406
 30
0.0
 10
99.01548934156558
 20
-119.2070217258406
 30
0.0
 10
99.01548934156558
 20
-119.2070217258406
 30
0.0
 10
98.93211803082254
 20
-119.1625799940809
 30
0.0
 10
98.93211803082254
 20
-119.1625799940809
 30
0.0
 10
98.95623369921928
 20
-119.1245116889689
 30
0.0
 10
99.0061875837554
 20
-119.0440687093883
 30
0.0
 10
99.01927894659936
 20
-118.9699991564554
 30
0.0
 10
99.01927894659936
 20
-118.9699991564554
 30
0.0
 10
99.20634763144842
 20
-119.0335611681583
 30
0.0
 10
99.20634763144842
 20
-119.0335611681583
 30
0.0
 10
99.21358233196744
 20
-119.0356282254494
 30
0.0
 10
99.23218584758779
 20
-119.0461357666794
 30
0.0
 10
99.23218584758779
 20
-119.0673231039137
 30
0.0
 10
99.23218584758779
 20
-119.1053914090257
 30
0.0
 10
99.17465275298412
 20
-119.1053914090257
 30
0.0
 10
99.15811629465492
 20
-119.1053914090257
 30
0.0
 10
99.14881453684474
 20
-119.1245116889689
 30
0.0
 10
99.12848847348177
 20
-119.164647051372
 30
0.0
 10
99.1026502573424
 20
-119.2049546685495
 30
0.0
 10
99.45232744909525
 20
-119.1985812419017
 30
0.0
 10
99.47851017478315
 20
-119.1963419298363
 30
0.0
 10
99.54500051764848
 20
-119.1901407579629
 30
0.0
 10
99.54500051764848
 20
-119.1901407579629
 30
0.0
 10
99.54500051764848
 20
-119.3720417995841
 30
0.0
 10
99.54500051764848
 20
-119.3720417995841
 30
0.0
 10
99.52846405931928
 20
-119.3720417995841
 30
0.0
 10
99.50607093866515
 20
-119.3698024875187
 30
0.0
 10
99.31349010103969
 20
-119.3613620035798
 30
0.0
 10
99.26904836927997
 20
-119.3592949462887
 30
0.0
 10
99.0764675316545
 20
-119.3551608317064
 30
0.0
 10
99.03753795267117
 20
-119.3551608317064
 30
0.0
 10
99.03753795267117
 20
-119.3551608317064
 30
0.0
 10
98.84874672007949
 20
-119.3551608317064
 30
0.0
 10
98.84874672007949
 20
-119.3551608317064
 30
0.0
 10
98.84874672007949
 20
-119.3551608317064
 30
0.0
 10
98.84874672007949
 20
-119.4734998616247
 30
0.0
 10
98.84874672007949
 20
-119.4734998616247
 30
0.0
 10
98.84874672007949
 20
-119.4734998616247
 30
0.0
 10
99.000675430979
 20
-119.4734998616247
 30
0.0
 10
99.000675430979
 20
-119.4734998616247
 30
0.0
 10
99.14330238406835
 20
-119.4734998616247
 30
0.0
 10
99.31004500555444
 20
-119.4734998616247
 30
0.0
 10
99.44681529631886
 20
-119.4629923203947
 30
0.0
 10
99.44681529631886
 20
-119.4629923203947
 30
0.0
 10
99.44681529631886
 20
-119.6343858207859
 30
0.0
 10
99.44681529631886
 20
-119.6343858207859
 30
0.0
 10
99.26353621650357
 20
-119.625945336847
 30
0.0
 10
99.09128144224107
 20
-119.6237060247816
 30
0.0
 10
99.000675430979
 20
-119.6237060247816
 30
0.0
 10
99.000675430979
 20
-119.6237060247816
 30
0.0
 10
98.84874672007949
 20
-119.6237060247816
 30
0.0
 10
98.84874672007949
 20
-119.6237060247816
 30
0.0
 10
98.84874672007949
 20
-119.6237060247816
 30
0.0
 10
98.84874672007949
 20
-119.7317097682442
 30
0.0
 10
98.84874672007949
 20
-119.7317097682442
 30
0.0
 10
98.84874672007949
 20
-119.7317097682442
 30
0.0
 10
99.05062931551512
 20
-119.7317097682442
 30
0.0
 10
99.05062931551512
 20
-119.7317097682442
 30
0.0
 10
99.1674180524651
 20
-119.7317097682442
 30
0.0
 10
99.41925453243685
 20
-119.7274033988876
 30
0.0
 10
99.60253361225215
 20
-119.7210299722399
 30
0.0
 10
99.60253361225215
 20
-119.7210299722399
 30
0.0
 10
99.60253361225215
 20
-119.8987968992788
 30
0.0
 10
99.60253361225215
 20
-119.8987968992788
 30
0.0
 10
99.43406844302343
 20
-119.8924234726311
 30
0.0
 10
99.15983884239755
 20
-119.8881171032745
 30
0.0
 10
99.05062931551512
 20
-119.8881171032745
 30
0.0
  0
POLYLINE
  5
AB
330
A2
100
AcDbEntity
  8
_U+30EC_U+30A4_U+30E4_U+30FC 1
370
     0
100
AcDb2dPolyline
 66
     1
 10
0.0
 20
0.0
 30
0.0
  0
VERTEX
  5
AC
330
AB
100
AcDbEntity
  8
_U+30EC_U+30A4_U+30E4_U+30FC 1
370
     0
100
AcDbVertex
100
AcDb2dVertex
 10
99.19497881634709
 20
-120.1440876978286
 30
0.0
  0
VERTEX
  5
AD
330
AB
100
AcDbEntity
  8
_U+30EC_U+30A4_U+30E4_U+30FC 1
370
     0
100
AcDbVertex
100
AcDb2dVertex
 10
98.57658417674475
 20
-120.1440876978286
 30
0.0
  0
VERTEX
  5
AE
330
AB
100
AcDbEntity
  8
_U+30EC_U+30A4_U+30E4_U+30FC 1
370
     0
100
AcDbVertex
100
AcDb2dVertex
 10
98.57658417674475
 20
-120.2520914412911
 30
0.0
  0
VERTEX
  5
AF
330
AB
100
AcDbEntity
  8
_U+30EC_U+30A4_U+30E4_U+30FC 1
370
     0
100
AcDbVertex
100
AcDb2dVertex
 10
99.19497881634709
 20
-120.2520914412911
 30
0.0
  0
VERTEX
  5
B0
330
AB
100
AcDbEntity
  8
_U+30EC_U+30A4_U+30E4_U+30FC 1
370
     0
100
AcDbVertex
100
AcDb2dVertex
 10
99.19497881634709
 20
-120.1440876978286
 30
0.0
  0
SEQEND
  5
B1
330
AB
100
AcDbEntity
  8
_U+30EC_U+30A4_U+30E4_U+30FC 1
370
     0
  0
POLYLINE
  5
B2
330
A2
100
AcDbEntity
  8
_U+30EC_U+30A4_U+30E4_U+30FC 1
370
     0
100
AcDb2dPolyline
 66
     1
 10
0.0
 20
0.0
 30
0.0
  0
VERTEX
  5
B3
330
B2
100
AcDbEntity
  8
_U+30EC_U+30A4_U+30E4_U+30FC 1
370
     0
100
AcDbVertex
100
AcDb2dVertex
 10
99.19497881634709
 20
-120.3768038978572
 30
0.0
  0
VERTEX
  5
B4
330
B2
100
AcDbEntity
  8
_U+30EC_U+30A4_U+30E4_U+30FC 1
370
     0
100
AcDbVertex
100
AcDb2dVertex
 10
98.57658417674475
 20
-120.3768038978572
 30
0.0
  0
VERTEX
  5
B5
330
B2
100
AcDbEntity
  8
_U+30EC_U+30A4_U+30E4_U+30FC 1
370
     0
100
AcDbVertex
100
AcDb2dVertex
 10
98.57658417674475
 20
-120.4911810679675
 30
0.0
  0
VERTEX
  5
B6
330
B2
100
AcDbEntity
  8
_U+30EC_U+30A4_U+30E4_U+30FC 1
370
     0
100
AcDbVertex
100
AcDb2dVertex
 10
99.19497881634709
 20
-120.4911810679675
 30
0.0
  0
VERTEX
  5
B7
330
B2
100
AcDbEntity
  8
_U+30EC_U+30A4_U+30E4_U+30FC 1
370
     0
100
AcDbVertex
100
AcDb2dVertex
 10
99.19497881634709
 20
-120.3768038978572
 30
0.0
  0
SEQEND
  5
B8
330
B2
100
AcDbEntity
  8
_U+30EC_U+30A4_U+30E4_U+30FC 1
370
     0
  0
POLYLINE
  5
B9
330
A2
100
AcDbEntity
  8
_U+30EC_U+30A4_U+30E4_U+30FC 1
370
     0
100
AcDb2dPolyline
 66
     1
 10
0.0
 20
0.0
 30
0.0
  0
VERTEX
  5
BA
330
B9
100
AcDbEntity
  8
_U+30EC_U+30A4_U+30E4_U+30FC 1
370
     0
100
AcDbVertex
100
AcDb2dVertex
 10
99.19497881634709
 20
-120.6201998938901
 30
0.0
  0
VERTEX
  5
BB
330
B9
100
AcDbEntity
  8
_U+30EC_U+30A4_U+30E4_U+30FC 1
370
     0
100
AcDbVertex
100
AcDb2dVertex
 10
98.57658417674475
 20
-120.6201998938901
 30
0.0
  0
VERTEX
  5
BC
330
B9
100
AcDbEntity
  8
_U+30EC_U+30A4_U+30E4_U+30FC 1
370
     0
100
AcDbVertex
100
AcDb2dVertex
 10
98.57658417674475
 20
-120.7344048092261
 30
0.0
  0
VERTEX
  5
BD
330
B9
100
AcDbEntity
  8
_U+30EC_U+30A4_U+30E4_U+30FC 1
370
     0
100
AcDbVertex
100
AcDb2dVertex
 10
99.19497881634709
 20
-120.7344048092261
 30
0.0
  0
VERTEX
  5
BE
330
B9
100
AcDbEntity
  8
_U+30EC_U+30A4_U+30E4_U+30FC 1
370
     0
100
AcDbVertex
100
AcDb2dVertex
 10
99.19497881634709
 20
-120.6201998938901
 30
0.0
  0
SEQEND
  5
BF
330
B9
100
AcDbEntity
  8
_U+30EC_U+30A4_U+30E4_U+30FC 1
370
     0
  0
HATCH
  5
C0
330
A2
100
AcDbEntity
  8
_U+30EC_U+30A4_U+30E4_U+30FC 1
 62
   179
420
  2234388
100
AcDbHatch
 10
0.0
 20
0.0
 30
0.0
210
0.0
220
0.0
230
1.0
  2
SOLID
 70
     1
 71
     0
 91
        4
 92
        1
 93
        1
 72
     4
 94
        3
 73
     0
 74
     1
 95
      203
 96
      199
 40
0.0
 40
0.0
 40
0.0
 40
0.0
 40
1.0
 40
1.0
 40
1.0
 40
2.0
 40
2.0
 40
2.0
 40
3.0
 40
3.0
 40
3.0
 40
4.0
 40
4.0
 40
4.0
 40
5.0
 40
5.0
 40
5.0
 40
6.0
 40
6.0
 40
6.0
 40
7.0
 40
7.0
 40
7.0
 40
8.0
 40
8.0
 40
8.0
 40
9.0
 40
9.0
 40
9.0
 40
10.0
 40
10.0
 40
10.0
 40
11.0
 40
11.0
 40
11.0
 40
12.0
 40
12.0
 40
12.0
 40
13.0
 40
13.0
 40
13.0
 40
14.0
 40
14.0
 40
14.0
 40
15.0
 40
15.0
 40
15.0
 40
16.0
 40
16.0
 40
16.0
 40
17.0
 40
17.0
 40
17.0
 40
18.0
 40
18.0
 40
18.0
 40
19.0
 40
19.0
 40
19.0
 40
20.0
 40
20.0
 40
20.0
 40
21.0
 40
21.0
 40
21.0
 40
22.0
 40
22.0
 40
22.0
 40
23.0
 40
23.0
 40
23.0
 40
24.0
 40
24.0
 40
24.0
 40
25.0
 40
25.0
 40
25.0
 40
26.0
 40
26.0
 40
26.0
 40
27.0
 40
27.0
 40
27.0
 40
28.0
 40
28.0
 40
28.0
 40
29.0
 40
29.0
 40
29.0
 40
30.0
 40
30.0
 40
30.0
 40
31.0
 40
31.0
 40
31.0
 40
32.0
 40
32.0
 40
32.0
 40
33.0
 40
33.0
 40
33.0
 40
34.0
 40
34.0
 40
34.0
 40
35.0
 40
35.0
 40
35.0
 40
36.0
 40
36.0
 40
36.0
 40
37.0
 40
37.0
 40
37.0
 40
38.0
 40
38.0
 40
38.0
 40
39.0
 40
39.0
 40
39.0
 40
40.0
 40
40.0
 40
40.0
 40
41.0
 40
41.0
 40
41.0
 40
42.0
 40
42.0
 40
42.0
 40
43.0
 40
43.0
 40
43.0
 40
44.0
 40
44.0
 40
44.0
 40
45.0
 40
45.0
 40
45.0
 40
46.0
 40
46.0
 40
46.0
 40
47.0
 40
47.0
 40
47.0
 40
48.0
 40
48.0
 40
48.0
 40
49.0
 40
49.0
 40
49.0
 40
50.0
 40
50.0
 40
50.0
 40
51.0
 40
51.0
 40
51.0
 40
52.0
 40
52.0
 40
52.0
 40
53.0
 40
53.0
 40
53.0
 40
54.0
 40
54.0
 40
54.0
 40
55.0
 40
55.0
 40
55.0
 40
56.0
 40
56.0
 40
56.0
 40
57.0
 40
57.0
 40
57.0
 40
58.0
 40
58.0
 40
58.0
 40
59.0
 40
59.0
 40
59.0
 40
60.0
 40
60.0
 40
60.0
 40
61.0
 40
61.0
 40
61.0
 40
62.0
 40
62.0
 40
62.0
 40
63.0
 40
63.0
 40
63.0
 40
64.0
 40
64.0
 40
64.0
 40
65.0
 40
65.0
 40
65.0
 40
66.0
 40
66.0
 40
66.0
 40
66.0
 10
99.05062931551512
 20
-119.8881171032745
 10
99.05062931551512
 20
-119.8881171032745
 10
98.56177026615818
 20
-119.8881171032745
 10
98.56177026615818
 20
-119.8881171032745
 10
98.552468508348
 20
-119.9325588350342
 10
98.54523380782898
 20
-119.9642537134985
 10
98.53386499272764
 20
-120.0024942733848
 10
98.55625811338177
 20
-120.0024942733848
 10
98.56934947622572
 20
-120.004561330676
 10
98.57486162900213
 20
-120.004561330676
 10
98.57486162900213
 20
-120.004561330676
 10
98.73953719319707
 20
-120.004561330676
 10
98.73953719319707
 20
-120.004561330676
 10
98.73953719319707
 20
-120.004561330676
 10
99.06716577384432
 20
-120.004561330676
 10
99.06716577384432
 20
-120.004561330676
 10
99.11195201515257
 20
-120.004561330676
 10
99.35999889009057
 20
-119.9918144773805
 10
99.38755965397256
 20
-119.9918144773805
 10
99.38583710622993
 20
-120.0193752412625
 10
99.38411455848731
 20
-120.0383232664314
 10
99.38411455848731
 20
-120.0679510876045
 10
99.38204750119615
 20
-120.0996459660688
 10
99.38204750119615
 20
-120.2350382186392
 10
99.38204750119615
 20
-120.2625989825212
 10
99.38204750119615
 20
-120.2625989825212
 10
99.38204750119615
 20
-120.5080620358452
 10
99.38204750119615
 20
-120.5080620358452
 10
99.38204750119615
 20
-120.5525037676049
 10
99.38583710622993
 20
-120.7492187198127
 10
99.3896267112637
 20
-120.9014919402607
 10
99.3896267112637
 20
-120.9014919402607
 10
99.19153372086184
 20
-120.9014919402607
 10
99.19153372086184
 20
-120.9014919402607
 10
99.19153372086184
 20
-120.9014919402607
 10
99.19325626860447
 20
-120.8677300045053
 10
99.19325626860447
 20
-120.8677300045053
 10
99.19325626860447
 20
-120.8677300045053
 10
98.5786512340359
 20
-120.8677300045053
 10
98.5786512340359
 20
-120.8677300045053
 10
98.5786512340359
 20
-120.8677300045053
 10
98.58037378177852
 20
-120.9014919402607
 10
98.58037378177852
 20
-120.9014919402607
 10
98.58037378177852
 20
-120.9014919402607
 10
98.38951549189568
 20
-120.9014919402607
 10
98.38951549189568
 20
-120.9014919402607
 10
98.39330509692945
 20
-120.846542667271
 10
98.39330509692945
 20
-120.8337958139756
 10
98.39881724970586
 20
-120.7195908986396
 10
98.400884306997
 20
-120.6920301347576
 10
98.40260685473963
 20
-120.5588771942526
 10
98.40260685473963
 20
-120.5397569143095
 10
98.40260685473963
 20
-120.5397569143095
 10
98.40260685473963
 20
-120.336668535454
 10
98.40260685473963
 20
-120.336668535454
 10
98.28030596501326
 20
-120.5862657033604
 10
98.13216685914752
 20
-120.7175238413484
 10
98.03949379059429
 20
-120.7829806555682
 10
98.03949379059429
 20
-120.7829806555682
 10
97.8879095892433
 20
-120.6434542884155
 10
97.8879095892433
 20
-120.6434542884155
 10
97.96542423766142
 20
-120.5926391300081
 10
98.09151473242157
 20
-120.5058227237798
 10
98.21174856485679
 20
-120.3113470836374
 10
98.29133027056606
 20
-120.184395315006
 10
98.34886336516973
 20
-120.0405625784968
 10
98.37849118634288
 20
-119.8881171032745
 10
98.17833113864987
 20
-119.8903564153399
 10
98.02123478452248
 20
-119.8967298419876
 10
97.93786347377943
 20
-119.8987968992788
 10
97.93786347377943
 20
-119.8987968992788
 10
97.93786347377943
 20
-119.7210299722399
 10
97.93786347377943
 20
-119.7210299722399
 10
98.11011824804191
 20
-119.7274033988876
 10
98.35816512297991
 20
-119.7317097682442
 10
98.48976777051645
 20
-119.7317097682442
 10
98.48976777051645
 20
-119.7317097682442
 10
98.67649194581699
 20
-119.7317097682442
 10
98.67649194581699
 20
-119.7317097682442
 10
98.67649194581699
 20
-119.7317097682442
 10
98.67649194581699
 20
-119.6237060247816
 10
98.67649194581699
 20
-119.6237060247816
 10
98.67649194581699
 20
-119.6237060247816
 10
98.54902341286275
 20
-119.6237060247816
 10
98.54902341286275
 20
-119.6237060247816
 10
98.400884306997
 20
-119.6237060247816
 10
98.25274520113126
 20
-119.6280123941381
 10
98.10632864300814
 20
-119.6343858207859
 10
98.10632864300814
 20
-119.6343858207859
 10
98.10632864300814
 20
-119.4629923203947
 10
98.10632864300814
 20
-119.4629923203947
 10
98.24137638602994
 20
-119.4734998616247
 10
98.40432940248226
 20
-119.4734998616247
 10
98.54902341286275
 20
-119.4734998616247
 10
98.54902341286275
 20
-119.4734998616247
 10
98.67649194581699
 20
-119.4734998616247
 10
98.67649194581699
 20
-119.4734998616247
 10
98.67649194581699
 20
-119.4734998616247
 10
98.67649194581699
 20
-119.3551608317064
 10
98.67649194581699
 20
-119.3551608317064
 10
98.67649194581699
 20
-119.3551608317064
 10
98.56177026615818
 20
-119.3551608317064
 10
98.56177026615818
 20
-119.3551608317064
 10
98.52111813943222
 20
-119.3551608317064
 10
98.34335121239333
 20
-119.3636013156452
 10
98.30614418115263
 20
-119.3636013156452
 10
98.12837725411374
 20
-119.3677354302275
 10
98.06188691124842
 20
-119.3698024875187
 10
97.99332951109194
 20
-119.3720417995841
 10
97.99332951109194
 20
-119.3720417995841
 10
97.99332951109194
 20
-119.1879014458975
 10
97.99332951109194
 20
-119.1879014458975
 10
98.09323728016419
 20
-119.1963419298363
 10
98.13216685914752
 20
-119.1963419298363
 10
98.46737464986232
 20
-119.2049546685495
 10
98.41190861254981
 20
-119.1096977783823
 10
98.38779294415306
 20
-119.0821370145003
 10
98.35609806568876
 20
-119.0461357666794
 10
98.35609806568876
 20
-119.0461357666794
 10
98.51009383387942
 20
-118.9636257298077
 10
98.51009383387942
 20
-118.9636257298077
 10
98.54523380782898
 20
-118.9996269776286
 10
98.58416338681229
 20
-119.0420016520971
 10
98.648931181935
 20
-119.1519001980766
 10
98.648931181935
 20
-119.1519001980766
 10
98.54902341286275
 20
-119.2070217258406
 10
98.54902341286275
 20
-119.2070217258406
 10
98.54902341286275
 20
-119.2070217258406
 10
98.5579806611244
 20
-119.2070217258406
 10
98.5579806611244
 20
-119.2070217258406
 10
98.5579806611244
 20
-119.2070217258406
 10
99.01548934156558
 20
-119.2070217258406
 10
99.01548934156558
 20
-119.2070217258406
 10
99.01548934156558
 20
-119.2070217258406
 10
98.93211803082254
 20
-119.1625799940809
 10
98.93211803082254
 20
-119.1625799940809
 10
98.95623369921928
 20
-119.1245116889689
 10
99.0061875837554
 20
-119.0440687093883
 10
99.01927894659936
 20
-118.9699991564554
 10
99.01927894659936
 20
-118.9699991564554
 10
99.20634763144842
 20
-119.0335611681583
 10
99.20634763144842
 20
-119.0335611681583
 10
99.21358233196744
 20
-119.0356282254494
 10
99.23218584758779
 20
-119.0461357666794
 10
99.23218584758779
 20
-119.0673231039137
 10
99.23218584758779
 20
-119.1053914090257
 10
99.17465275298412
 20
-119.1053914090257
 10
99.15811629465492
 20
-119.1053914090257
 10
99.14881453684474
 20
-119.1245116889689
 10
99.12848847348177
 20
-119.164647051372
 10
99.1026502573424
 20
-119.2049546685495
 10
99.45232744909525
 20
-119.1985812419017
 10
99.47851017478315
 20
-119.1963419298363
 10
99.54500051764848
 20
-119.1901407579629
 10
99.54500051764848
 20
-119.1901407579629
 10
99.54500051764848
 20
-119.3720417995841
 10
99.54500051764848
 20
-119.3720417995841
 10
99.52846405931928
 20
-119.3720417995841
 10
99.50607093866515
 20
-119.3698024875187
 10
99.31349010103969
 20
-119.3613620035798
 10
99.26904836927997
 20
-119.3592949462887
 10
99.0764675316545
 20
-119.3551608317064
 10
99.03753795267117
 20
-119.3551608317064
 10
99.03753795267117
 20
-119.3551608317064
 10
98.84874672007949
 20
-119.3551608317064
 10
98.84874672007949
 20
-119.3551608317064
 10
98.84874672007949
 20
-119.3551608317064
 10
98.84874672007949
 20
-119.4734998616247
 10
98.84874672007949
 20
-119.4734998616247
 10
98.84874672007949
 20
-119.4734998616247
 10
99.000675430979
 20
-119.4734998616247
 10
99.000675430979
 20
-119.4734998616247
 10
99.14330238406835
 20
-119.4734998616247
 10
99.31004500555444
 20
-119.4734998616247
 10
99.44681529631886
 20
-119.4629923203947
 10
99.44681529631886
 20
-119.4629923203947
 10
99.44681529631886
 20
-119.6343858207859
 10
99.44681529631886
 20
-119.6343858207859
 10
99.26353621650357
 20
-119.625945336847
 10
99.09128144224107
 20
-119.6237060247816
 10
99.000675430979
 20
-119.6237060247816
 10
99.000675430979
 20
-119.6237060247816
 10
98.84874672007949
 20
-119.6237060247816
 10
98.84874672007949
 20
-119.6237060247816
 10
98.84874672007949
 20
-119.6237060247816
 10
98.84874672007949
 20
-119.7317097682442
 10
98.84874672007949
 20
-119.7317097682442
 10
98.84874672007949
 20
-119.7317097682442
 10
99.05062931551512
 20
-119.7317097682442
 10
99.05062931551512
 20
-119.7317097682442
 10
99.1674180524651
 20
-119.7317097682442
 10
99.41925453243685
 20
-119.7274033988876
 10
99.60253361225215
 20
-119.7210299722399
 10
99.60253361225215
 20
-119.7210299722399
 10
99.60253361225215
 20
-119.8987968992788
 10
99.60253361225215
 20
-119.8987968992788
 10
99.43406844302343
 20
-119.8924234726311
 10
99.15983884239755
 20
-119.8881171032745
 10
99.05062931551512
 20
-119.8881171032745
 97
        0
 97
        0
 92
        1
 93
        4
 72
     1
 10
99.19497881634709
 20
-120.1440876978286
 11
98.57658417674475
 21
-120.1440876978286
 72
     1
 10
98.57658417674475
 20
-120.1440876978286
 11
98.57658417674475
 21
-120.2520914412911
 72
     1
 10
98.57658417674475
 20
-120.2520914412911
 11
99.19497881634709
 21
-120.2520914412911
 72
     1
 10
99.19497881634709
 20
-120.2520914412911
 11
99.19497881634709
 21
-120.1440876978286
 97
        0
 92
        1
 93
        4
 72
     1
 10
99.19497881634709
 20
-120.3768038978572
 11
98.57658417674475
 21
-120.3768038978572
 72
     1
 10
98.57658417674475
 20
-120.3768038978572
 11
98.57658417674475
 21
-120.4911810679675
 72
     1
 10
98.57658417674475
 20
-120.4911810679675
 11
99.19497881634709
 21
-120.4911810679675
 72
     1
 10
99.19497881634709
 20
-120.4911810679675
 11
99.19497881634709
 21
-120.3768038978572
 97
        0
 92
        1
 93
        4
 72
     1
 10
99.19497881634709
 20
-120.6201998938901
 11
98.57658417674475
 21
-120.6201998938901
 72
     1
 10
98.57658417674475
 20
-120.6201998938901
 11
98.57658417674475
 21
-120.7344048092261
 72
     1
 10
98.57658417674475
 20
-120.7344048092261
 11
99.19497881634709
 21
-120.7344048092261
 72
     1
 10
99.19497881634709
 20
-120.7344048092261
 11
99.19497881634709
 21
-120.6201998938901
 97
        0
 75
     2
 76
     1
 98
        0
  0
SPLINE
  5
C1
330
A2
100
AcDbEntity
  8
_U+30EC_U+30A4_U+30E4_U+30FC 1
370
     0
100
AcDbSpline
210
0.0
220
0.0
230
1.0
 70
    11
 71
     3
 72
    47
 73
    43
 74
     0
 42
0.0000000001
 43
0.0000000001
 12
1.0
 22
0.0
 32
0.0
 13
1.0
 23
0.0
 33
0.0
 40
0.0
 40
0.0
 40
0.0
 40
0.0
 40
1.0
 40
1.0
 40
1.0
 40
2.0
 40
2.0
 40
2.0
 40
3.0
 40
3.0
 40
3.0
 40
4.0
 40
4.0
 40
4.0
 40
5.0
 40
5.0
 40
5.0
 40
6.0
 40
6.0
 40
6.0
 40
7.0
 40
7.0
 40
7.0
 40
8.0
 40
8.0
 40
8.0
 40
9.0
 40
9.0
 40
9.0
 40
10.0
 40
10.0
 40
10.0
 40
11.0
 40
11.0
 40
11.0
 40
12.0
 40
12.0
 40
12.0
 40
13.0
 40
13.0
 40
13.0
 40
14.0
 40
14.0
 40
14.0
 40
14.0
 10
100.7824788159502
 20
-119.8648627087491
 30
0.0
 10
100.7824788159502
 20
-119.8648627087491
 30
0.0
 10
100.6935953524308
 20
-119.8648627087491
 30
0.0
 10
100.6935953524308
 20
-119.8648627087491
 30
0.0
 10
100.6935953524308
 20
-119.9516791149774
 30
0.0
 10
100.6749918368104
 20
-120.3409749048106
 30
0.0
 10
100.5027370625479
 20
-120.5609442515438
 30
0.0
 10
100.3694118672688
 20
-120.7300984398696
 30
0.0
 10
100.1878553351961
 20
-120.8000338782201
 30
0.0
 10
100.1137857822632
 20
-120.8274223873279
 30
0.0
 10
100.1137857822632
 20
-120.8274223873279
 30
0.0
 10
99.94359806529188
 20
-120.6603352562933
 30
0.0
 10
99.94359806529188
 20
-120.6603352562933
 30
0.0
 10
100.0286919237776
 20
-120.6475884029978
 30
0.0
 10
100.1823431824197
 20
-120.6243340084724
 30
0.0
 10
100.3473632561632
 20
-120.4360595402035
 30
0.0
 10
100.4121310512859
 20
-120.364229299336
 30
0.0
 10
100.5027370625479
 20
-120.2245306774091
 30
0.0
 10
100.5027370625479
 20
-119.8648627087491
 30
0.0
 10
100.5027370625479
 20
-119.8648627087491
 30
0.0
 10
100.3008544671123
 20
-119.8648627087491
 30
0.0
 10
100.3008544671123
 20
-119.8648627087491
 30
0.0
 10
100.13790145066
 20
-119.8648627087491
 30
0.0
 10
99.97494843420766
 20
-119.8691690781056
 30
0.0
 10
99.81199541775534
 20
-119.8839829886922
 30
0.0
 10
99.81199541775534
 20
-119.8839829886922
 30
0.0
 10
99.81199541775534
 20
-119.664013641959
 30
0.0
 10
99.81199541775534
 20
-119.664013641959
 30
0.0
 10
99.97667098195028
 20
-119.6788275525456
 30
0.0
 10
100.2267849141794
 20
-119.6829616671279
 30
0.0
 10
100.3008544671123
 20
-119.6829616671279
 30
0.0
 10
100.3008544671123
 20
-119.6829616671279
 30
0.0
 10
100.7824788159502
 20
-119.6829616671279
 30
0.0
 10
100.7824788159502
 20
-119.6829616671279
 30
0.0
 10
100.7990152742794
 20
-119.6829616671279
 30
0.0
 10
101.0766899703906
 20
-119.6829616671279
 30
0.0
 10
101.2768500180836
 20
-119.664013641959
 30
0.0
 10
101.2768500180836
 20
-119.664013641959
 30
0.0
 10
101.2768500180836
 20
-119.8839829886922
 30
0.0
 10
101.2768500180836
 20
-119.8839829886922
 30
0.0
 10
101.1118299443401
 20
-119.8691690781056
 30
0.0
 10
100.9471543801452
 20
-119.8648627087491
 30
0.0
 10
100.7824788159502
 20
-119.8648627087491
 30
0.0
  0
SPLINE
  5
C2
330
A2
100
AcDbEntity
  8
_U+30EC_U+30A4_U+30E4_U+30FC 1
370
     0
100
AcDbSpline
210
0.0
220
0.0
230
1.0
 70
    11
 71
     3
 72
    29
 73
    25
 74
     0
 42
0.0000000001
 43
0.0000000001
 12
1.0
 22
0.0
 32
0.0
 13
1.0
 23
0.0
 33
0.0
 40
0.0
 40
0.0
 40
0.0
 40
0.0
 40
1.0
 40
1.0
 40
1.0
 40
2.0
 40
2.0
 40
2.0
 40
3.0
 40
3.0
 40
3.0
 40
4.0
 40
4.0
 40
4.0
 40
5.0
 40
5.0
 40
5.0
 40
6.0
 40
6.0
 40
6.0
 40
7.0
 40
7.0
 40
7.0
 40
8.0
 40
8.0
 40
8.0
 40
8.0
 10
100.6935953524308
 20
-119.3360405517632
 30
0.0
 10
100.6935953524308
 20
-119.3360405517632
 30
0.0
 10
100.3842257778553
 20
-119.3360405517632
 30
0.0
 10
100.3842257778553
 20
-119.3360405517632
 30
0.0
 10
100.2860405565257
 20
-119.3360405517632
 30
0.0
 10
100.1637396667993
 20
-119.3424139784109
 30
0.0
 10
100.0693440505035
 20
-119.3551608317064
 30
0.0
 10
100.0693440505035
 20
-119.3551608317064
 30
0.0
 10
100.0693440505035
 20
-119.1202053196123
 30
0.0
 10
100.0693440505035
 20
-119.1202053196123
 30
0.0
 10
100.1730414246095
 20
-119.1350192301989
 30
0.0
 10
100.3342718933192
 20
-119.1393255995554
 30
0.0
 10
100.3842257778553
 20
-119.1393255995554
 30
0.0
 10
100.3842257778553
 20
-119.1393255995554
 30
0.0
 10
100.6935953524308
 20
-119.1393255995554
 30
0.0
 10
100.6935953524308
 20
-119.1393255995554
 30
0.0
 10
100.71013181076
 20
-119.1393255995554
 30
0.0
 10
100.8878987377989
 20
-119.1393255995554
 30
0.0
 10
101.0119221752679
 20
-119.1202053196123
 30
0.0
 10
101.0119221752679
 20
-119.1202053196123
 30
0.0
 10
101.0119221752679
 20
-119.3551608317064
 30
0.0
 10
101.0119221752679
 20
-119.3551608317064
 30
0.0
 10
100.8748073749549
 20
-119.3360405517632
 30
0.0
 10
100.7084092630173
 20
-119.3360405517632
 30
0.0
 10
100.6935953524308
 20
-119.3360405517632
 30
0.0
  0
HATCH
  5
C3
330
A2
100
AcDbEntity
  8
_U+30EC_U+30A4_U+30E4_U+30FC 1
 62
   179
420
  2234388
100
AcDbHatch
 10
0.0
 20
0.0
 30
0.0
210
0.0
220
0.0
230
1.0
  2
SOLID
 70
     1
 71
     0
 91
        2
 92
        1
 93
        1
 72
     4
 94
        3
 73
     0
 74
     1
 95
       47
 96
       43
 40
0.0
 40
0.0
 40
0.0
 40
0.0
 40
1.0
 40
1.0
 40
1.0
 40
2.0
 40
2.0
 40
2.0
 40
3.0
 40
3.0
 40
3.0
 40
4.0
 40
4.0
 40
4.0
 40
5.0
 40
5.0
 40
5.0
 40
6.0
 40
6.0
 40
6.0
 40
7.0
 40
7.0
 40
7.0
 40
8.0
 40
8.0
 40
8.0
 40
9.0
 40
9.0
 40
9.0
 40
10.0
 40
10.0
 40
10.0
 40
11.0
 40
11.0
 40
11.0
 40
12.0
 40
12.0
 40
12.0
 40
13.0
 40
13.0
 40
13.0
 40
14.0
 40
14.0
 40
14.0
 40
14.0
 10
100.7824788159502
 20
-119.8648627087491
 10
100.7824788159502
 20
-119.8648627087491
 10
100.6935953524308
 20
-119.8648627087491
 10
100.6935953524308
 20
-119.8648627087491
 10
100.6935953524308
 20
-119.9516791149774
 10
100.6749918368104
 20
-120.3409749048106
 10
100.5027370625479
 20
-120.5609442515438
 10
100.3694118672688
 20
-120.7300984398696
 10
100.1878553351961
 20
-120.8000338782201
 10
100.1137857822632
 20
-120.8274223873279
 10
100.1137857822632
 20
-120.8274223873279
 10
99.94359806529188
 20
-120.6603352562933
 10
99.94359806529188
 20
-120.6603352562933
 10
100.0286919237776
 20
-120.6475884029978
 10
100.1823431824197
 20
-120.6243340084724
 10
100.3473632561632
 20
-120.4360595402035
 10
100.4121310512859
 20
-120.364229299336
 10
100.5027370625479
 20
-120.2245306774091
 10
100.5027370625479
 20
-119.8648627087491
 10
100.5027370625479
 20
-119.8648627087491
 10
100.3008544671123
 20
-119.8648627087491
 10
100.3008544671123
 20
-119.8648627087491
 10
100.13790145066
 20
-119.8648627087491
 10
99.97494843420766
 20
-119.8691690781056
 10
99.81199541775534
 20
-119.8839829886922
 10
99.81199541775534
 20
-119.8839829886922
 10
99.81199541775534
 20
-119.664013641959
 10
99.81199541775534
 20
-119.664013641959
 10
99.97667098195028
 20
-119.6788275525456
 10
100.2267849141794
 20
-119.6829616671279
 10
100.3008544671123
 20
-119.6829616671279
 10
100.3008544671123
 20
-119.6829616671279
 10
100.7824788159502
 20
-119.6829616671279
 10
100.7824788159502
 20
-119.6829616671279
 10
100.7990152742794
 20
-119.6829616671279
 10
101.0766899703906
 20
-119.6829616671279
 10
101.2768500180836
 20
-119.664013641959
 10
101.2768500180836
 20
-119.664013641959
 10
101.2768500180836
 20
-119.8839829886922
 10
101.2768500180836
 20
-119.8839829886922
 10
101.1118299443401
 20
-119.8691690781056
 10
100.9471543801452
 20
-119.8648627087491
 10
100.7824788159502
 20
-119.8648627087491
 97
        0
 97
        0
 92
        1
 93
        1
 72
     4
 94
        3
 73
     0
 74
     1
 95
       29
 96
       25
 40
0.0
 40
0.0
 40
0.0
 40
0.0
 40
1.0
 40
1.0
 40
1.0
 40
2.0
 40
2.0
 40
2.0
 40
3.0
 40
3.0
 40
3.0
 40
4.0
 40
4.0
 40
4.0
 40
5.0
 40
5.0
 40
5.0
 40
6.0
 40
6.0
 40
6.0
 40
7.0
 40
7.0
 40
7.0
 40
8.0
 40
8.0
 40
8.0
 40
8.0
 10
100.6935953524308
 20
-119.3360405517632
 10
100.6935953524308
 20
-119.3360405517632
 10
100.3842257778553
 20
-119.3360405517632
 10
100.3842257778553
 20
-119.3360405517632
 10
100.2860405565257
 20
-119.3360405517632
 10
100.1637396667993
 20
-119.3424139784109
 10
100.0693440505035
 20
-119.3551608317064
 10
100.0693440505035
 20
-119.3551608317064
 10
100.0693440505035
 20
-119.1202053196123
 10
100.0693440505035
 20
-119.1202053196123
 10
100.1730414246095
 20
-119.1350192301989
 10
100.3342718933192
 20
-119.1393255995554
 10
100.3842257778553
 20
-119.1393255995554
 10
100.3842257778553
 20
-119.1393255995554
 10
100.6935953524308
 20
-119.1393255995554
 10
100.6935953524308
 20
-119.1393255995554
 10
100.71013181076
 20
-119.1393255995554
 10
100.8878987377989
 20
-119.1393255995554
 10
101.0119221752679
 20
-119.1202053196123
 10
101.0119221752679
 20
-119.1202053196123
 10
101.0119221752679
 20
-119.3551608317064
 10
101.0119221752679
 20
-119.3551608317064
 10
100.8748073749549
 20
-119.3360405517632
 10
100.7084092630173
 20
-119.3360405517632
 10
100.6935953524308
 20
-119.3360405517632
 97
        0
 97
        0
 75
     2
 76
     1
 98
        0
  0
SPLINE
  5
C4
330
A2
100
AcDbEntity
  8
_U+30EC_U+30A4_U+30E4_U+30FC 1
370
     0
100
AcDbSpline
210
0.0
220
0.0
230
1.0
 70
    11
 71
     3
 72
    29
 73
    25
 74
     0
 42
0.0000000001
 43
0.0000000001
 12
1.0
 22
0.0
 32
0.0
 13
1.0
 23
0.0
 33
0.0
 40
0.0
 40
0.0
 40
0.0
 40
0.0
 40
1.0
 40
1.0
 40
1.0
 40
2.0
 40
2.0
 40
2.0
 40
3.0
 40
3.0
 40
3.0
 40
4.0
 40
4.0
 40
4.0
 40
5.0
 40
5.0
 40
5.0
 40
6.0
 40
6.0
 40
6.0
 40
7.0
 40
7.0
 40
7.0
 40
8.0
 40
8.0
 40
8.0
 40
8.0
 10
102.399262127178
 20
-120.0278157252014
 30
0.0
 10
102.399262127178
 20
-120.0278157252014
 30
0.0
 10
101.9751708729437
 20
-120.0278157252014
 30
0.0
 10
101.9751708729437
 20
-120.0278157252014
 30
0.0
 10
101.951055204547
 20
-120.0278157252014
 30
0.0
 10
101.6730359988873
 20
-120.0278157252014
 30
0.0
 10
101.4880343713294
 20
-120.053137177018
 30
0.0
 10
101.4880343713294
 20
-120.053137177018
 30
0.0
 10
101.4880343713294
 20
-119.8226602890548
 30
0.0
 10
101.4880343713294
 20
-119.8226602890548
 30
0.0
 10
101.626871719385
 20
-119.8459146835802
 30
0.0
 10
101.793614340871
 20
-119.8479817408713
 30
0.0
 10
101.9751708729437
 20
-119.8479817408713
 30
0.0
 10
101.9751708729437
 20
-119.8479817408713
 30
0.0
 10
102.399262127178
 20
-119.8479817408713
 30
0.0
 10
102.399262127178
 20
-119.8479817408713
 30
0.0
 10
102.5618706340818
 20
-119.8479817408713
 30
0.0
 10
102.7251681600826
 20
-119.8459146835802
 30
0.0
 10
102.8860541192438
 20
-119.8226602890548
 30
0.0
 10
102.8860541192438
 20
-119.8226602890548
 30
0.0
 10
102.8860541192438
 20
-120.053137177018
 30
0.0
 10
102.8860541192438
 20
-120.053137177018
 30
0.0
 10
102.7251681600826
 20
-120.0298827824925
 30
0.0
 10
102.5084716540604
 20
-120.0278157252014
 30
0.0
 10
102.399262127178
 20
-120.0278157252014
 30
0.0
  0
HATCH
  5
C5
330
A2
100
AcDbEntity
  8
_U+30EC_U+30A4_U+30E4_U+30FC 1
 62
   179
420
  2234388
100
AcDbHatch
 10
0.0
 20
0.0
 30
0.0
210
0.0
220
0.0
230
1.0
  2
SOLID
 70
     1
 71
     0
 91
        1
 92
        1
 93
        1
 72
     4
 94
        3
 73
     0
 74
     1
 95
       29
 96
       25
 40
0.0
 40
0.0
 40
0.0
 40
0.0
 40
1.0
 40
1.0
 40
1.0
 40
2.0
 40
2.0
 40
2.0
 40
3.0
 40
3.0
 40
3.0
 40
4.0
 40
4.0
 40
4.0
 40
5.0
 40
5.0
 40
5.0
 40
6.0
 40
6.0
 40
6.0
 40
7.0
 40
7.0
 40
7.0
 40
8.0
 40
8.0
 40
8.0
 40
8.0
 10
102.399262127178
 20
-120.0278157252014
 10
102.399262127178
 20
-120.0278157252014
 10
101.9751708729437
 20
-120.0278157252014
 10
101.9751708729437
 20
-120.0278157252014
 10
101.951055204547
 20
-120.0278157252014
 10
101.6730359988873
 20
-120.0278157252014
 10
101.4880343713294
 20
-120.053137177018
 10
101.4880343713294
 20
-120.053137177018
 10
101.4880343713294
 20
-119.8226602890548
 10
101.4880343713294
 20
-119.8226602890548
 10
101.626871719385
 20
-119.8459146835802
 10
101.793614340871
 20
-119.8479817408713
 10
101.9751708729437
 20
-119.8479817408713
 10
101.9751708729437
 20
-119.8479817408713
 10
102.399262127178
 20
-119.8479817408713
 10
102.399262127178
 20
-119.8479817408713
 10
102.5618706340818
 20
-119.8479817408713
 10
102.7251681600826
 20
-119.8459146835802
 10
102.8860541192438
 20
-119.8226602890548
 10
102.8860541192438
 20
-119.8226602890548
 10
102.8860541192438
 20
-120.053137177018
 10
102.8860541192438
 20
-120.053137177018
 10
102.7251681600826
 20
-120.0298827824925
 10
102.5084716540604
 20
-120.0278157252014
 10
102.399262127178
 20
-120.0278157252014
 97
        0
 97
        0
 75
     2
 76
     1
 98
        0
  0
SPLINE
  5
C6
330
A2
100
AcDbEntity
  8
_U+30EC_U+30A4_U+30E4_U+30FC 1
370
     0
100
AcDbSpline
210
0.0
220
0.0
230
1.0
 70
    11
 71
     3
 72
    44
 73
    40
 74
     0
 42
0.0000000001
 43
0.0000000001
 12
1.0
 22
0.0
 32
0.0
 13
1.0
 23
0.0
 33
0.0
 40
0.0
 40
0.0
 40
0.0
 40
0.0
 40
1.0
 40
1.0
 40
1.0
 40
2.0
 40
2.0
 40
2.0
 40
3.0
 40
3.0
 40
3.0
 40
4.0
 40
4.0
 40
4.0
 40
5.0
 40
5.0
 40
5.0
 40
6.0
 40
6.0
 40
6.0
 40
7.0
 40
7.0
 40
7.0
 40
8.0
 40
8.0
 40
8.0
 40
9.0
 40
9.0
 40
9.0
 40
10.0
 40
10.0
 40
10.0
 40
11.0
 40
11.0
 40
11.0
 40
12.0
 40
12.0
 40
12.0
 40
13.0
 40
13.0
 40
13.0
 40
13.0
 10
104.3360948089854
 20
-119.5899440890261
 30
0.0
 10
104.2379095876558
 20
-119.9580525416251
 30
0.0
 10
104.1934678558961
 20
-120.1166991887208
 30
0.0
 10
104.0212130816336
 20
-120.3662963566272
 30
0.0
 10
103.8603271224724
 20
-120.5969454993647
 30
0.0
 10
103.6529323742604
 20
-120.7829806555682
 30
0.0
 10
103.4083305948076
 20
-120.8761704884442
 30
0.0
 10
103.4083305948076
 20
-120.8761704884442
 30
0.0
 10
103.2398654255789
 20
-120.6963365041141
 30
0.0
 10
103.2398654255789
 20
-120.6963365041141
 30
0.0
 10
103.8010714801261
 20
-120.5440632836661
 30
0.0
 10
104.0897704817901
 20
-119.9876803627982
 30
0.0
 10
104.1452365191026
 20
-119.5475694145576
 30
0.0
 10
104.1452365191026
 20
-119.5475694145576
 30
0.0
 10
103.4751654472215
 20
-119.5475694145576
 30
0.0
 10
103.4751654472215
 20
-119.5475694145576
 30
0.0
 10
103.3935166842211
 20
-119.5475694145576
 30
0.0
 10
103.2326307250599
 20
-119.5518757839141
 30
0.0
 10
103.095515924747
 20
-119.570823809083
 30
0.0
 10
103.095515924747
 20
-119.570823809083
 30
0.0
 10
103.095515924747
 20
-119.3508544623498
 30
0.0
 10
103.095515924747
 20
-119.3508544623498
 30
0.0
 10
103.1713080254225
 20
-119.3720417995841
 30
0.0
 10
103.3917941364784
 20
-119.3720417995841
 30
0.0
 10
103.4789550522553
 20
-119.3720417995841
 30
0.0
 10
103.4789550522553
 20
-119.3720417995841
 30
0.0
 10
103.8565375174387
 20
-119.3720417995841
 30
0.0
 10
103.8565375174387
 20
-119.3720417995841
 30
0.0
 10
103.8937445486794
 20
-119.3720417995841
 30
0.0
 10
104.0990722396002
 20
-119.3698024875187
 30
0.0
 10
104.1324896658072
 20
-119.3636013156452
 30
0.0
 10
104.1693521874993
 20
-119.3572278889975
 30
0.0
 10
104.1714192447905
 20
-119.3551608317064
 30
0.0
 10
104.2251627343604
 20
-119.3148532145289
 30
0.0
 10
104.2251627343604
 20
-119.3148532145289
 30
0.0
 10
104.3898382985553
 20
-119.4693657470424
 30
0.0
 10
104.3898382985553
 20
-119.4693657470424
 30
0.0
 10
104.364000082416
 20
-119.4989935682155
 30
0.0
 10
104.350908719572
 20
-119.5306884466798
 30
0.0
 10
104.3360948089854
 20
-119.5899440890261
 30
0.0
  0
SPLINE
  5
C7
330
A2
100
AcDbEntity
  8
_U+30EC_U+30A4_U+30E4_U+30FC 1
370
     0
100
AcDbSpline
210
0.0
220
0.0
230
1.0
 70
    11
 71
     3
 72
    17
 73
    13
 74
     0
 42
0.0000000001
 43
0.0000000001
 12
1.0
 22
0.0
 32
0.0
 13
1.0
 23
0.0
 33
0.0
 40
0.0
 40
0.0
 40
0.0
 40
0.0
 40
1.0
 40
1.0
 40
1.0
 40
2.0
 40
2.0
 40
2.0
 40
3.0
 40
3.0
 40
3.0
 40
4.0
 40
4.0
 40
4.0
 40
4.0
 10
104.5193738888007
 20
-119.3909898247529
 30
0.0
 10
104.4084418141757
 20
-119.3909898247529
 30
0.0
 10
104.3195583506562
 20
-119.2895317627123
 30
0.0
 10
104.3195583506562
 20
-119.1625799940809
 30
0.0
 10
104.3195583506562
 20
-119.0356282254494
 30
0.0
 10
104.4084418141757
 20
-118.9319308513434
 30
0.0
 10
104.5193738888007
 20
-118.9319308513434
 30
0.0
 10
104.6306504729743
 20
-118.9319308513434
 30
0.0
 10
104.7212564842364
 20
-119.0356282254494
 30
0.0
 10
104.7212564842364
 20
-119.1625799940809
 30
0.0
 10
104.7212564842364
 20
-119.2895317627123
 30
0.0
 10
104.6306504729743
 20
-119.3909898247529
 30
0.0
 10
104.5193738888007
 20
-119.3909898247529
 30
0.0
  0
SPLINE
  5
C8
330
A2
100
AcDbEntity
  8
_U+30EC_U+30A4_U+30E4_U+30FC 1
370
     0
100
AcDbSpline
210
0.0
220
0.0
230
1.0
 70
    11
 71
     3
 72
    17
 73
    13
 74
     0
 42
0.0000000001
 43
0.0000000001
 12
1.0
 22
0.0
 32
0.0
 13
1.0
 23
0.0
 33
0.0
 40
0.0
 40
0.0
 40
0.0
 40
0.0
 40
1.0
 40
1.0
 40
1.0
 40
2.0
 40
2.0
 40
2.0
 40
3.0
 40
3.0
 40
3.0
 40
4.0
 40
4.0
 40
4.0
 40
4.0
 10
104.5176513410581
 20
-119.060949677266
 30
0.0
 10
104.4694200042646
 20
-119.060949677266
 30
0.0
 10
104.4304904252813
 20
-119.1053914090257
 30
0.0
 10
104.4304904252813
 20
-119.1605129367897
 30
0.0
 10
104.4304904252813
 20
-119.2175292670706
 30
0.0
 10
104.4694200042646
 20
-119.2662773681869
 30
0.0
 10
104.5214409460919
 20
-119.2662773681869
 30
0.0
 10
104.5731173783706
 20
-119.2662773681869
 30
0.0
 10
104.6082573523202
 20
-119.2154622097795
 30
0.0
 10
104.6082573523202
 20
-119.1625799940809
 30
0.0
 10
104.6082573523202
 20
-119.1053914090257
 30
0.0
 10
104.5676052255942
 20
-119.060949677266
 30
0.0
 10
104.5176513410581
 20
-119.060949677266
 30
0.0
  0
HATCH
  5
C9
330
A2
100
AcDbEntity
  8
_U+30EC_U+30A4_U+30E4_U+30FC 1
 62
   179
420
  2234388
100
AcDbHatch
 10
0.0
 20
0.0
 30
0.0
210
0.0
220
0.0
230
1.0
  2
SOLID
 70
     1
 71
     0
 91
        3
 92
        1
 93
        1
 72
     4
 94
        3
 73
     0
 74
     1
 95
       44
 96
       40
 40
0.0
 40
0.0
 40
0.0
 40
0.0
 40
1.0
 40
1.0
 40
1.0
 40
2.0
 40
2.0
 40
2.0
 40
3.0
 40
3.0
 40
3.0
 40
4.0
 40
4.0
 40
4.0
 40
5.0
 40
5.0
 40
5.0
 40
6.0
 40
6.0
 40
6.0
 40
7.0
 40
7.0
 40
7.0
 40
8.0
 40
8.0
 40
8.0
 40
9.0
 40
9.0
 40
9.0
 40
10.0
 40
10.0
 40
10.0
 40
11.0
 40
11.0
 40
11.0
 40
12.0
 40
12.0
 40
12.0
 40
13.0
 40
13.0
 40
13.0
 40
13.0
 10
104.3360948089854
 20
-119.5899440890261
 10
104.2379095876558
 20
-119.9580525416251
 10
104.1934678558961
 20
-120.1166991887208
 10
104.0212130816336
 20
-120.3662963566272
 10
103.8603271224724
 20
-120.5969454993647
 10
103.6529323742604
 20
-120.7829806555682
 10
103.4083305948076
 20
-120.8761704884442
 10
103.4083305948076
 20
-120.8761704884442
 10
103.2398654255789
 20
-120.6963365041141
 10
103.2398654255789
 20
-120.6963365041141
 10
103.8010714801261
 20
-120.5440632836661
 10
104.0897704817901
 20
-119.9876803627982
 10
104.1452365191026
 20
-119.5475694145576
 10
104.1452365191026
 20
-119.5475694145576
 10
103.4751654472215
 20
-119.5475694145576
 10
103.4751654472215
 20
-119.5475694145576
 10
103.3935166842211
 20
-119.5475694145576
 10
103.2326307250599
 20
-119.5518757839141
 10
103.095515924747
 20
-119.570823809083
 10
103.095515924747
 20
-119.570823809083
 10
103.095515924747
 20
-119.3508544623498
 10
103.095515924747
 20
-119.3508544623498
 10
103.1713080254225
 20
-119.3720417995841
 10
103.3917941364784
 20
-119.3720417995841
 10
103.4789550522553
 20
-119.3720417995841
 10
103.4789550522553
 20
-119.3720417995841
 10
103.8565375174387
 20
-119.3720417995841
 10
103.8565375174387
 20
-119.3720417995841
 10
103.8937445486794
 20
-119.3720417995841
 10
104.0990722396002
 20
-119.3698024875187
 10
104.1324896658072
 20
-119.3636013156452
 10
104.1693521874993
 20
-119.3572278889975
 10
104.1714192447905
 20
-119.3551608317064
 10
104.2251627343604
 20
-119.3148532145289
 10
104.2251627343604
 20
-119.3148532145289
 10
104.3898382985553
 20
-119.4693657470424
 10
104.3898382985553
 20
-119.4693657470424
 10
104.364000082416
 20
-119.4989935682155
 10
104.350908719572
 20
-119.5306884466798
 10
104.3360948089854
 20
-119.5899440890261
 97
        0
 97
        0
 92
        1
 93
        1
 72
     4
 94
        3
 73
     0
 74
     1
 95
       17
 96
       13
 40
0.0
 40
0.0
 40
0.0
 40
0.0
 40
1.0
 40
1.0
 40
1.0
 40
2.0
 40
2.0
 40
2.0
 40
3.0
 40
3.0
 40
3.0
 40
4.0
 40
4.0
 40
4.0
 40
4.0
 10
104.5193738888007
 20
-119.3909898247529
 10
104.4084418141757
 20
-119.3909898247529
 10
104.3195583506562
 20
-119.2895317627123
 10
104.3195583506562
 20
-119.1625799940809
 10
104.3195583506562
 20
-119.0356282254494
 10
104.4084418141757
 20
-118.9319308513434
 10
104.5193738888007
 20
-118.9319308513434
 10
104.6306504729743
 20
-118.9319308513434
 10
104.7212564842364
 20
-119.0356282254494
 10
104.7212564842364
 20
-119.1625799940809
 10
104.7212564842364
 20
-119.2895317627123
 10
104.6306504729743
 20
-119.3909898247529
 10
104.5193738888007
 20
-119.3909898247529
 97
        0
 97
        0
 92
        1
 93
        1
 72
     4
 94
        3
 73
     0
 74
     1
 95
       17
 96
       13
 40
0.0
 40
0.0
 40
0.0
 40
0.0
 40
1.0
 40
1.0
 40
1.0
 40
2.0
 40
2.0
 40
2.0
 40
3.0
 40
3.0
 40
3.0
 40
4.0
 40
4.0
 40
4.0
 40
4.0
 10
104.5176513410581
 20
-119.060949677266
 10
104.4694200042646
 20
-119.060949677266
 10
104.4304904252813
 20
-119.1053914090257
 10
104.4304904252813
 20
-119.1605129367897
 10
104.4304904252813
 20
-119.2175292670706
 10
104.4694200042646
 20
-119.2662773681869
 10
104.5214409460919
 20
-119.2662773681869
 10
104.5731173783706
 20
-119.2662773681869
 10
104.6082573523202
 20
-119.2154622097795
 10
104.6082573523202
 20
-119.1625799940809
 10
104.6082573523202
 20
-119.1053914090257
 10
104.5676052255942
 20
-119.060949677266
 10
104.5176513410581
 20
-119.060949677266
 97
        0
 97
        0
 75
     2
 76
     1
 98
        0
  0
ENDBLK
  5
A5
330
A2
100
AcDbEntity
  8
0
100
AcDbBlockEnd
  0
ENDSEC
  0
SECTION
  2
ENTITIES
  0
INSERT
  5
42
330
1F
100
AcDbEntity
  8
_U+30EC_U+30A4_U+30E4_U+30FC 1
100
AcDbBlockReference
  2
block 2
 10
0.0
 20
0.0
 30
0.0
  0
ENDSEC
  0
SECTION
  2
OBJECTS
  0
DICTIONARY
  5
C
330
0
100
AcDbDictionary
281
     1
  3
ACAD_GROUP
350
D
  3
ACAD_LAYOUT
350
1A
  3
ACAD_MATERIAL
350
3B
  3
ACAD_MLEADERSTYLE
350
CB
  3
ACAD_MLINESTYLE
350
17
  3
ACAD_PLOTSETTINGS
350
19
  3
ACAD_PLOTSTYLENAME
350
E
  3
ACAD_TABLESTYLE
350
CA
  3
ACAD_VISUALSTYLE
350
2A
  0
SUN
  5
3F
330
29
100
AcDbSun
 90
        1
290
     0
 63
     7
421
 16777215
 40
1.0
291
     1
 91
  2455826
 92
 54000000
292
     0
 70
     2
 71
   256
280
     1
  0
DICTIONARY
  5
D
102
{ACAD_REACTORS
330
C
102
}
330
C
100
AcDbDictionary
281
     1
  0
DICTIONARY
  5
1A
102
{ACAD_REACTORS
330
C
102
}
330
C
100
AcDbDictionary
281
     1
  3
Layout1
350
1E
  3
Layout2
350
26
  3
Model
350
22
  0
DICTIONARY
  5
3B
102
{ACAD_REACTORS
330
C
102
}
330
C
100
AcDbDictionary
281
     1
  3
ByBlock
350
3D
  3
ByLayer
350
3C
  3
Global
350
3E
  0
DICTIONARY
  5
CB
102
{ACAD_REACTORS
330
C
102
}
330
C
100
AcDbDictionary
281
     1
  0
DICTIONARY
  5
17
102
{ACAD_REACTORS
330
C
102
}
330
C
100
AcDbDictionary
281
     1
  3
Standard
350
18
  0
DICTIONARY
  5
19
102
{ACAD_REACTORS
330
C
102
}
330
C
100
AcDbDictionary
281
     1
  0
ACDBDICTIONARYWDFLT
  5
E
102
{ACAD_REACTORS
330
C
102
}
330
C
100
AcDbDictionary
281
     1
  3
Normal
350
F
100
AcDbDictionaryWithDefault
340
F
  0
DICTIONARY
  5
CA
102
{ACAD_REACTORS
330
C
102
}
330
C
100
AcDbDictionary
281
     1
  0
DICTIONARY
  5
2A
102
{ACAD_REACTORS
330
C
102
}
330
C
100
AcDbDictionary
281
     1
  3
2dWireframe
350
2F
  3
3D Hidden
350
31
  3
3dWireframe
350
30
  3
Basic
350
32
  3
Brighten
350
36
  3
ColorChange
350
3A
  3
Conceptual
350
34
  3
Dim
350
35
  3
Facepattern
350
39
  3
Flat
350
2B
  3
FlatWithEdges
350
2C
  3
Gouraud
350
2D
  3
GouraudWithEdges
350
2E
  3
Linepattern
350
38
  3
Realistic
350
33
  3
Thicken
350
37
  0
LAYOUT
  5
1E
102
{ACAD_REACTORS
330
1A
102
}
330
1A
100
AcDbPlotSettings
  1

  2
none_device
  4

  6

 40
0.0
 41
0.0
 42
0.0
 43
0.0
 44
0.0
 45
0.0
 46
0.0
 47
0.0
 48
0.0
 49
0.0
140
0.0
141
0.0
142
1.0
143
1.0
 70
   688
 72
     0
 73
     0
 74
     5
  7

 75
    16
 76
     0
 77
     2
 78
   300
147
1.0
148
0.0
149
0.0
100
AcDbLayout
  1
Layout1
 70
     1
 71
     1
 10
0.0
 20
0.0
 11
12.0
 21
9.0
 12
0.0
 22
0.0
 32
0.0
 14
1.000000000000000E+20
 24
1.000000000000000E+20
 34
1.000000000000000E+20
 15
-1.000000000000000E+20
 25
-1.000000000000000E+20
 35
-1.000000000000000E+20
146
0.0
 13
0.0
 23
0.0
 33
0.0
 16
1.0
 26
0.0
 36
0.0
 17
0.0
 27
1.0
 37
0.0
 76
     0
330
1B
  0
LAYOUT
  5
26
102
{ACAD_REACTORS
330
1A
102
}
330
1A
100
AcDbPlotSettings
  1

  2
none_device
  4

  6

 40
0.0
 41
0.0
 42
0.0
 43
0.0
 44
0.0
 45
0.0
 46
0.0
 47
0.0
 48
0.0
 49
0.0
140
0.0
141
0.0
142
1.0
143
1.0
 70
   688
 72
     0
 73
     0
 74
     5
  7

 75
    16
 76
     0
 77
     2
 78
   300
147
1.0
148
0.0
149
0.0
100
AcDbLayout
  1
Layout2
 70
     1
 71
     2
 10
0.0
 20
0.0
 11
0.0
 21
0.0
 12
0.0
 22
0.0
 32
0.0
 14
0.0
 24
0.0
 34
0.0
 15
0.0
 25
0.0
 35
0.0
146
0.0
 13
0.0
 23
0.0
 33
0.0
 16
1.0
 26
0.0
 36
0.0
 17
0.0
 27
1.0
 37
0.0
 76
     0
330
23
  0
LAYOUT
  5
22
102
{ACAD_REACTORS
330
1A
102
}
330
1A
100
AcDbPlotSettings
  1

  2
none_device
  4

  6

 40
0.0
 41
0.0
 42
0.0
 43
0.0
 44
0.0
 45
0.0
 46
0.0
 47
0.0
 48
0.0
 49
0.0
140
0.0
141
0.0
142
1.0
143
1.0
 70
  1712
 72
     0
 73
     0
 74
     0
  7

 75
     0
 76
     0
 77
     2
 78
   300
147
1.0
148
0.0
149
0.0
100
AcDbLayout
  1
Model
 70
     1
 71
     0
 10
0.0
 20
0.0
 11
12.0
 21
9.0
 12
0.0
 22
0.0
 32
0.0
 14
1.000000000000000E+20
 24
1.000000000000000E+20
 34
1.000000000000000E+20
 15
-1.000000000000000E+20
 25
-1.000000000000000E+20
 35
-1.000000000000000E+20
146
0.0
 13
0.0
 23
0.0
 33
0.0
 16
1.0
 26
0.0
 36
0.0
 17
0.0
 27
1.0
 37
0.0
 76
     0
330
1F
331
29
  0
MATERIAL
  5
3D
102
{ACAD_REACTORS
330
3B
102
}
330
3B
100
AcDbMaterial
  1
ByBlock
 72
     1
 94
      127
  0
MATERIAL
  5
3C
102
{ACAD_REACTORS
330
3B
102
}
330
3B
100
AcDbMaterial
  1
ByLayer
 72
     1
 94
      127
  0
MATERIAL
  5
3E
102
{ACAD_REACTORS
330
3B
102
}
330
3B
100
AcDbMaterial
  1
Global
 72
     1
 94
      127
  0
MLINESTYLE
  5
18
102
{ACAD_REACTORS
330
17
102
}
330
17
100
AcDbMlineStyle
  2
Standard
 70
     0
  3

 62
   256
 51
90.0
 52
90.0
 71
     2
 49
0.5
 62
   256
  6
BYLAYER
 49
-0.5
 62
   256
  6
BYLAYER
  0
ACDBPLACEHOLDER
  5
F
102
{ACAD_REACTORS
330
E
102
}
330
E
  0
VISUALSTYLE
  5
2F
102
{ACAD_REACTORS
330
2A
102
}
330
2A
100
AcDbVisualStyle
  2
2dWireframe
 70
     4
177
     2
291
     0
 71
     0
176
     1
 72
     2
176
     1
 73
     0
176
     1
 90
        0
176
     1
 40
-0.6
176
     1
 41
-30.0
176
     1
 62
     5
 63
     7
421
 16777215
176
     1
 74
     1
176
     1
 91
        4
176
     1
 64
     7
176
     1
 65
   257
176
     1
 75
     1
176
     1
175
     1
176
     1
 42
1.0
176
     1
 92
        0
176
     1
 66
   257
176
     1
 43
1.0
176
     1
 76
     1
176
     1
 77
     6
176
     1
 78
     2
176
     1
 67
     7
176
     1
 79
     5
176
     1
170
     0
176
     1
171
     0
176
     1
290
     0
176
     1
 93
        1
176
     1
 44
0.0
176
     1
173
     0
176
     1
  0
VISUALSTYLE
  5
31
102
{ACAD_REACTORS
330
2A
102
}
330
2A
100
AcDbVisualStyle
  2
3D Hidden
 70
     6
177
     2
291
     0
 71
     1
176
     1
 72
     2
176
     1
 73
     2
176
     1
 90
        0
176
     1
 40
-0.6
176
     1
 41
-30.0
176
     1
 62
     5
 63
     7
421
 16777215
176
     1
 74
     2
176
     1
 91
        2
176
     1
 64
     7
176
     1
 65
   257
176
     1
 75
     2
176
     1
175
     1
176
     1
 42
40.0
176
     1
 92
        0
176
     1
 66
   257
176
     1
 43
1.0
176
     1
 76
     1
176
     1
 77
     6
176
     1
 78
     2
176
     1
 67
     7
176
     1
 79
     3
176
     1
170
     0
176
     1
171
     0
176
     1
290
     0
176
     1
 93
        1
176
     1
 44
0.0
176
     1
173
     0
176
     1
  0
VISUALSTYLE
  5
30
102
{ACAD_REACTORS
330
2A
102
}
330
2A
100
AcDbVisualStyle
  2
3dWireframe
 70
     5
177
     2
291
     0
 71
     0
176
     1
 72
     2
176
     1
 73
     0
176
     1
 90
        0
176
     1
 40
-0.6
176
     1
 41
-30.0
176
     1
 62
     5
 63
     7
421
 16777215
176
     1
 74
     1
176
     1
 91
        4
176
     1
 64
     7
176
     1
 65
   257
176
     1
 75
     1
176
     1
175
     1
176
     1
 42
1.0
176
     1
 92
        0
176
     1
 66
   257
176
     1
 43
1.0
176
     1
 76
     1
176
     1
 77
     6
176
     1
 78
     2
176
     1
 67
     7
176
     1
 79
     5
176
     1
170
     0
176
     1
171
     0
176
     1
290
     0
176
     1
 93
        1
176
     1
 44
0.0
176
     1
173
     0
176
     1
  0
VISUALSTYLE
  5
32
102
{ACAD_REACTORS
330
2A
102
}
330
2A
100
AcDbVisualStyle
  2
Basic
 70
     7
177
     2
291
     1
 71
     1
176
     1
 72
     0
176
     1
 73
     1
176
     1
 90
        0
176
     1
 40
-0.6
176
     1
 41
-30.0
176
     1
 62
     5
 63
     7
421
 16777215
176
     1
 74
     0
176
     1
 91
        4
176
     1
 64
     7
176
     1
 65
   257
176
     1
 75
     1
176
     1
175
     1
176
     1
 42
1.0
176
     1
 92
        8
176
     1
 66
     7
176
     1
 43
1.0
176
     1
 76
     1
176
     1
 77
     6
176
     1
 78
     2
176
     1
 67
     7
176
     1
 79
     5
176
     1
170
     0
176
     1
171
     0
176
     1
290
     0
176
     1
 93
        1
176
     1
 44
0.0
176
     1
173
     0
176
     1
  0
VISUALSTYLE
  5
36
102
{ACAD_REACTORS
330
2A
102
}
330
2A
100
AcDbVisualStyle
  2
Brighten
 70
    12
177
     2
291
     1
 71
     2
176
     1
 72
     2
176
     1
 73
     0
176
     1
 90
        0
176
     1
 40
-0.6
176
     1
 41
-30.0
176
     1
 62
     5
 63
     7
421
 16777215
176
     1
 74
     1
176
     1
 91
        4
176
     1
 64
     7
176
     1
 65
   257
176
     1
 75
     1
176
     1
175
     1
176
     1
 42
1.0
176
     1
 92
        8
176
     1
 66
     7
176
     1
 43
1.0
176
     1
 76
     1
176
     1
 77
     6
176
     1
 78
     2
176
     1
 67
     7
176
     1
 79
     5
176
     1
170
     0
176
     1
171
     0
176
     1
290
     0
176
     1
 93
        1
176
     1
 44
50.0
176
     1
173
     0
176
     1
  0
VISUALSTYLE
  5
3A
102
{ACAD_REACTORS
330
2A
102
}
330
2A
100
AcDbVisualStyle
  2
ColorChange
 70
    16
177
     2
291
     1
 71
     2
176
     1
 72
     2
176
     1
 73
     3
176
     1
 90
        0
176
     1
 40
-0.6
176
     1
 41
-30.0
176
     1
 62
     5
 63
     8
421
  8421504
176
     1
 74
     1
176
     1
 91
        4
176
     1
 64
     7
176
     1
 65
   257
176
     1
 75
     1
176
     1
175
     1
176
     1
 42
1.0
176
     1
 92
        8
176
     1
 66
     8
424
  8421504
176
     1
 43
1.0
176
     1
 76
     1
176
     1
 77
     6
176
     1
 78
     2
176
     1
 67
     7
176
     1
 79
     5
176
     1
170
     0
176
     1
171
     0
176
     1
290
     0
176
     1
 93
        1
176
     1
 44
0.0
176
     1
173
     0
176
     1
  0
VISUALSTYLE
  5
34
102
{ACAD_REACTORS
330
2A
102
}
330
2A
100
AcDbVisualStyle
  2
Conceptual
 70
     9
177
     2
291
     0
 71
     3
176
     1
 72
     2
176
     1
 73
     0
176
     1
 90
        0
176
     1
 40
-0.6
176
     1
 41
-30.0
176
     1
 62
     5
 63
     7
421
 16777215
176
     1
 74
     2
176
     1
 91
        2
176
     1
 64
     7
176
     1
 65
   257
176
     1
 75
     1
176
     1
175
     1
176
     1
 42
40.0
176
     1
 92
        8
176
     1
 66
     7
176
     1
 43
1.0
176
     1
 76
     1
176
     1
 77
     6
176
     1
 78
     2
176
     1
 67
     7
176
     1
 79
     3
176
     1
170
     0
176
     1
171
     0
176
     1
290
     0
176
     1
 93
        1
176
     1
 44
0.0
176
     1
173
     0
176
     1
  0
VISUALSTYLE
  5
35
102
{ACAD_REACTORS
330
2A
102
}
330
2A
100
AcDbVisualStyle
  2
Dim
 70
    11
177
     2
291
     1
 71
     2
176
     1
 72
     2
176
     1
 73
     0
176
     1
 90
        0
176
     1
 40
-0.6
176
     1
 41
-30.0
176
     1
 62
     5
 63
     7
421
 16777215
176
     1
 74
     1
176
     1
 91
        4
176
     1
 64
     7
176
     1
 65
   257
176
     1
 75
     1
176
     1
175
     1
176
     1
 42
1.0
176
     1
 92
        8
176
     1
 66
     7
176
     1
 43
1.0
176
     1
 76
     1
176
     1
 77
     6
176
     1
 78
     2
176
     1
 67
     7
176
     1
 79
     5
176
     1
170
     0
176
     1
171
     0
176
     1
290
     0
176
     1
 93
        1
176
     1
 44
-50.0
176
     1
173
     0
176
     1
  0
VISUALSTYLE
  5
39
102
{ACAD_REACTORS
330
2A
102
}
330
2A
100
AcDbVisualStyle
  2
Facepattern
 70
    15
177
     2
291
     1
 71
     2
176
     1
 72
     2
176
     1
 73
     0
176
     1
 90
        0
176
     1
 40
-0.6
176
     1
 41
-30.0
176
     1
 62
     5
 63
     7
421
 16777215
176
     1
 74
     1
176
     1
 91
        4
176
     1
 64
     7
176
     1
 65
   257
176
     1
 75
     1
176
     1
175
     1
176
     1
 42
1.0
176
     1
 92
        8
176
     1
 66
     7
176
     1
 43
1.0
176
     1
 76
     1
176
     1
 77
     6
176
     1
 78
     2
176
     1
 67
     7
176
     1
 79
     5
176
     1
170
     0
176
     1
171
     0
176
     1
290
     0
176
     1
 93
        1
176
     1
 44
0.0
176
     1
173
     0
176
     1
  0
VISUALSTYLE
  5
2B
102
{ACAD_REACTORS
330
2A
102
}
330
2A
100
AcDbVisualStyle
  2
Flat
 70
     0
177
     2
291
     1
 71
     2
176
     1
 72
     1
176
     1
 73
     1
176
     1
 90
        2
176
     1
 40
-0.6
176
     1
 41
30.0
176
     1
 62
     5
 63
     7
421
 16777215
176
     1
 74
     0
176
     1
 91
        4
176
     1
 64
     7
176
     1
 65
   257
176
     1
 75
     1
176
     1
175
     1
176
     1
 42
1.0
176
     1
 92
        8
176
     1
 66
     7
176
     1
 43
1.0
176
     1
 76
     1
176
     1
 77
     6
176
     1
 78
     2
176
     1
 67
     7
176
     1
 79
     5
176
     1
170
     0
176
     1
171
     0
176
     1
290
     0
176
     1
 93
       13
176
     1
 44
0.0
176
     1
173
     0
176
     1
  0
VISUALSTYLE
  5
2C
102
{ACAD_REACTORS
330
2A
102
}
330
2A
100
AcDbVisualStyle
  2
FlatWithEdges
 70
     1
177
     2
291
     1
 71
     2
176
     1
 72
     1
176
     1
 73
     1
176
     1
 90
        2
176
     1
 40
-0.6
176
     1
 41
30.0
176
     1
 62
     5
 63
     7
421
 16777215
176
     1
 74
     1
176
     1
 91
        4
176
     1
 64
     7
176
     1
 65
   257
176
     1
 75
     1
176
     1
175
     1
176
     1
 42
1.0
176
     1
 92
        0
176
     1
 66
   257
176
     1
 43
1.0
176
     1
 76
     1
176
     1
 77
     6
176
     1
 78
     2
176
     1
 67
     7
176
     1
 79
     5
176
     1
170
     0
176
     1
171
     0
176
     1
290
     0
176
     1
 93
       13
176
     1
 44
0.0
176
     1
173
     0
176
     1
  0
VISUALSTYLE
  5
2D
102
{ACAD_REACTORS
330
2A
102
}
330
2A
100
AcDbVisualStyle
  2
Gouraud
 70
     2
177
     2
291
     1
 71
     2
176
     1
 72
     2
176
     1
 73
     1
176
     1
 90
        2
176
     1
 40
-0.6
176
     1
 41
30.0
176
     1
 62
     5
 63
     7
421
 16777215
176
     1
 74
     0
176
     1
 91
        4
176
     1
 64
     7
176
     1
 65
   257
176
     1
 75
     1
176
     1
175
     1
176
     1
 42
1.0
176
     1
 92
        0
176
     1
 66
     7
176
     1
 43
1.0
176
     1
 76
     1
176
     1
 77
     6
176
     1
 78
     2
176
     1
 67
     7
176
     1
 79
     5
176
     1
170
     0
176
     1
171
     0
176
     1
290
     0
176
     1
 93
       13
176
     1
 44
0.0
176
     1
173
     0
176
     1
  0
VISUALSTYLE
  5
2E
102
{ACAD_REACTORS
330
2A
102
}
330
2A
100
AcDbVisualStyle
  2
GouraudWithEdges
 70
     3
177
     2
291
     1
 71
     2
176
     1
 72
     2
176
     1
 73
     1
176
     1
 90
        2
176
     1
 40
-0.6
176
     1
 41
30.0
176
     1
 62
     5
 63
     7
421
 16777215
176
     1
 74
     1
176
     1
 91
        4
176
     1
 64
     7
176
     1
 65
   257
176
     1
 75
     1
176
     1
175
     1
176
     1
 42
1.0
176
     1
 92
        0
176
     1
 66
   257
176
     1
 43
1.0
176
     1
 76
     1
176
     1
 77
     6
176
     1
 78
     2
176
     1
 67
     7
176
     1
 79
     5
176
     1
170
     0
176
     1
171
     0
176
     1
290
     0
176
     1
 93
       13
176
     1
 44
0.0
176
     1
173
     0
176
     1
  0
VISUALSTYLE
  5
38
102
{ACAD_REACTORS
330
2A
102
}
330
2A
100
AcDbVisualStyle
  2
Linepattern
 70
    14
177
     2
291
     1
 71
     2
176
     1
 72
     2
176
     1
 73
     0
176
     1
 90
        0
176
     1
 40
-0.6
176
     1
 41
-30.0
176
     1
 62
     5
 63
     7
421
 16777215
176
     1
 74
     1
176
     1
 91
        4
176
     1
 64
     7
176
     1
 65
   257
176
     1
 75
     7
176
     1
175
     7
176
     1
 42
1.0
176
     1
 92
        8
176
     1
 66
     7
176
     1
 43
1.0
176
     1
 76
     1
176
     1
 77
     6
176
     1
 78
     2
176
     1
 67
     7
176
     1
 79
     5
176
     1
170
     0
176
     1
171
     0
176
     1
290
     0
176
     1
 93
        1
176
     1
 44
0.0
176
     1
173
     0
176
     1
  0
VISUALSTYLE
  5
33
102
{ACAD_REACTORS
330
2A
102
}
330
2A
100
AcDbVisualStyle
  2
Realistic
 70
     8
177
     2
291
     0
 71
     2
176
     1
 72
     2
176
     1
 73
     0
176
     1
 90
        0
176
     1
 40
-0.6
176
     1
 41
-30.0
176
     1
 62
     5
 63
     7
421
 16777215
176
     1
 74
     1
176
     1
 91
        0
176
     1
 64
     7
176
     1
 65
   257
176
     1
 75
     1
176
     1
175
     1
176
     1
 42
1.0
176
     1
 92
        8
176
     1
 66
     8
424
  7895160
176
     1
 43
1.0
176
     1
 76
     1
176
     1
 77
     6
176
     1
 78
     2
176
     1
 67
     7
176
     1
 79
     5
176
     1
170
     0
176
     1
171
     0
176
     1
290
     0
176
     1
 93
       13
176
     1
 44
0.0
176
     1
173
     0
176
     1
  0
VISUALSTYLE
  5
37
102
{ACAD_REACTORS
330
2A
102
}
330
2A
100
AcDbVisualStyle
  2
Thicken
 70
    13
177
     2
291
     1
 71
     2
176
     1
 72
     2
176
     1
 73
     0
176
     1
 90
        0
176
     1
 40
-0.6
176
     1
 41
-30.0
176
     1
 62
     5
 63
     7
421
 16777215
176
     1
 74
     1
176
     1
 91
        4
176
     1
 64
     7
176
     1
 65
   257
176
     1
 75
     1
176
     1
175
     1
176
     1
 42
1.0
176
     1
 92
       12
176
     1
 66
     7
176
     1
 43
1.0
176
     1
 76
     1
176
     1
 77
     6
176
     1
 78
     2
176
     1
 67
     7
176
     1
 79
     5
176
     1
170
     0
176
     1
171
     0
176
     1
290
     0
176
     1
 93
        1
176
     1
 44
0.0
176
     1
173
     0
176
     1
  0
ENDSEC
  0
EOF
