  0
SECTION
  2
HEADER
  9
$ACADVER
  1
AC1024
  9
$ACADMAINTVER
 70
     6
  9
$DWGCODEPAGE
  3
UNDEFINED
  9
$INSBASE
 10
0.0
 20
0.0
 30
0.0
  9
$EXTMIN
 10
1.000000000000000E+20
 20
1.000000000000000E+20
 30
1.000000000000000E+20
  9
$EXTMAX
 10
-1.000000000000000E+20
 20
-1.000000000000000E+20
 30
-1.000000000000000E+20
  9
$LIMMIN
 10
0.0
 20
0.0
  9
$LIMMAX
 10
12.0
 20
9.0
  9
$ORTHOMODE
 70
     0
  9
$REGENMODE
 70
     1
  9
$FILLMODE
 70
     1
  9
$QTEXTMODE
 70
     0
  9
$MIRRTEXT
 70
     1
  9
$LTSCALE
 40
1.0
  9
$ATTMODE
 70
     1
  9
$TEXTSIZE
 40
0.2
  9
$TRACEWID
 40
0.05
  9
$TEXTSTYLE
  7
Standard
  9
$CLAYER
  8
0
  9
$CELTYPE
  6
ByLayer
  9
$CECOLOR
 62
   256
  9
$CELTSCALE
 40
1.0
  9
$DISPSILH
 70
     0
  9
$DIMSCALE
 40
1.0
  9
$DIMASZ
 40
0.18
  9
$DIMEXO
 40
0.0625
  9
$DIMDLI
 40
0.38
  9
$DIMRND
 40
0.0
  9
$DIMDLE
 40
0.0
  9
$DIMEXE
 40
0.18
  9
$DIMTP
 40
0.0
  9
$DIMTM
 40
0.0
  9
$DIMTXT
 40
0.18
  9
$DIMCEN
 40
0.09
  9
$DIMTSZ
 40
0.0
  9
$DIMTOL
 70
     0
  9
$DIMLIM
 70
     0
  9
$DIMTIH
 70
     1
  9
$DIMTOH
 70
     1
  9
$DIMSE1
 70
     0
  9
$DIMSE2
 70
     0
  9
$DIMTAD
 70
     0
  9
$DIMZIN
 70
     0
  9
$DIMBLK
  1

  9
$DIMASO
 70
     1
  9
$DIMSHO
 70
     1
  9
$DIMPOST
  1

  9
$DIMAPOST
  1

  9
$DIMALT
 70
     0
  9
$DIMALTD
 70
     2
  9
$DIMALTF
 40
25.4
  9
$DIMLFAC
 40
1.0
  9
$DIMTOFL
 70
     0
  9
$DIMTVP
 40
0.0
  9
$DIMTIX
 70
     0
  9
$DIMSOXD
 70
     0
  9
$DIMSAH
 70
     0
  9
$DIMBLK1
  1

  9
$DIMBLK2
  1

  9
$DIMSTYLE
  2
Standard
  9
$DIMCLRD
 70
     0
  9
$DIMCLRE
 70
     0
  9
$DIMCLRT
 70
     0
  9
$DIMTFAC
 40
1.0
  9
$DIMGAP
 40
0.09
  9
$DIMJUST
 70
     0
  9
$DIMSD1
 70
     0
  9
$DIMSD2
 70
     0
  9
$DIMTOLJ
 70
     1
  9
$DIMTZIN
 70
     0
  9
$DIMALTZ
 70
     0
  9
$DIMALTTZ
 70
     0
  9
$DIMUPT
 70
     0
  9
$DIMDEC
 70
     4
  9
$DIMTDEC
 70
     4
  9
$DIMALTU
 70
     2
  9
$DIMALTTD
 70
     2
  9
$DIMTXSTY
  7
Standard
  9
$DIMAUNIT
 70
     0
  9
$DIMADEC
 70
     0
  9
$DIMALTRND
 40
0.0
  9
$DIMAZIN
 70
     0
  9
$DIMDSEP
 70
    46
  9
$DIMATFIT
 70
     3
  9
$DIMFRAC
 70
     0
  9
$DIMLDRBLK
  1

  9
$DIMLUNIT
 70
     2
  9
$DIMLWD
 70
    -2
  9
$DIMLWE
 70
    -2
  9
$DIMTMOVE
 70
     0
  9
$DIMFXL
 40
1.0
  9
$DIMFXLON
 70
     0
  9
$DIMJOGANG
 40
0.7853981633974483
  9
$DIMTFILL
 70
     0
  9
$DIMTFILLCLR
 70
     0
  9
$DIMARCSYM
 70
     0
  9
$DIMLTYPE
  6

  9
$DIMLTEX1
  6

  9
$DIMLTEX2
  6

  9
$DIMTXTDIRECTION
 70
     0
  9
$LUNITS
 70
     2
  9
$LUPREC
 70
     4
  9
$SKETCHINC
 40
0.1
  9
$FILLETRAD
 40
0.5
  9
$AUNITS
 70
     0
  9
$AUPREC
 70
     0
  9
$MENU
  1
.
  9
$ELEVATION
 40
0.0
  9
$PELEVATION
 40
0.0
  9
$THICKNESS
 40
0.0
  9
$LIMCHECK
 70
     0
  9
$CHAMFERA
 40
0.5
  9
$CHAMFERB
 40
0.5
  9
$CHAMFERC
 40
1.0
  9
$CHAMFERD
 40
0.0
  9
$SKPOLY
 70
     0
  9
$TDCREATE
 40
2458263.574189803
  9
$TDUCREATE
 40
2458263.199189815
  9
$TDUPDATE
 40
2458263.574189803
  9
$TDUUPDATE
 40
2458263.199189815
  9
$TDINDWG
 40
0.0000000116
  9
$TDUSRTIMER
 40
0.0000000116
  9
$USRTIMER
 70
     1
  9
$ANGBASE
 50
0.0
  9
$ANGDIR
 70
     0
  9
$PDMODE
 70
     0
  9
$PDSIZE
 40
0.0
  9
$PLINEWID
 40
0.0
  9
$SPLFRAME
 70
     0
  9
$SPLINETYPE
 70
     6
  9
$SPLINESEGS
 70
     8
  9
$HANDSEED
  5
14E
  9
$SURFTAB1
 70
     6
  9
$SURFTAB2
 70
     6
  9
$SURFTYPE
 70
     6
  9
$SURFU
 70
     6
  9
$SURFV
 70
     6
  9
$UCSBASE
  2

  9
$UCSNAME
  2

  9
$UCSORG
 10
0.0
 20
0.0
 30
0.0
  9
$UCSXDIR
 10
1.0
 20
0.0
 30
0.0
  9
$UCSYDIR
 10
0.0
 20
1.0
 30
0.0
  9
$UCSORTHOREF
  2

  9
$UCSORTHOVIEW
 70
     0
  9
$UCSORGTOP
 10
0.0
 20
0.0
 30
0.0
  9
$UCSORGBOTTOM
 10
0.0
 20
0.0
 30
0.0
  9
$UCSORGLEFT
 10
0.0
 20
0.0
 30
0.0
  9
$UCSORGRIGHT
 10
0.0
 20
0.0
 30
0.0
  9
$UCSORGFRONT
 10
0.0
 20
0.0
 30
0.0
  9
$UCSORGBACK
 10
0.0
 20
0.0
 30
0.0
  9
$PUCSBASE
  2

  9
$PUCSNAME
  2

  9
$PUCSORG
 10
0.0
 20
0.0
 30
0.0
  9
$PUCSXDIR
 10
1.0
 20
0.0
 30
0.0
  9
$PUCSYDIR
 10
0.0
 20
1.0
 30
0.0
  9
$PUCSORTHOREF
  2

  9
$PUCSORTHOVIEW
 70
     0
  9
$PUCSORGTOP
 10
0.0
 20
0.0
 30
0.0
  9
$PUCSORGBOTTOM
 10
0.0
 20
0.0
 30
0.0
  9
$PUCSORGLEFT
 10
0.0
 20
0.0
 30
0.0
  9
$PUCSORGRIGHT
 10
0.0
 20
0.0
 30
0.0
  9
$PUCSORGFRONT
 10
0.0
 20
0.0
 30
0.0
  9
$PUCSORGBACK
 10
0.0
 20
0.0
 30
0.0
  9
$USERI1
 70
     0
  9
$USERI2
 70
     0
  9
$USERI3
 70
     0
  9
$USERI4
 70
     0
  9
$USERI5
 70
     0
  9
$USERR1
 40
0.0
  9
$USERR2
 40
0.0
  9
$USERR3
 40
0.0
  9
$USERR4
 40
0.0
  9
$USERR5
 40
0.0
  9
$WORLDVIEW
 70
     1
  9
$SHADEDGE
 70
     3
  9
$SHADEDIF
 70
    70
  9
$TILEMODE
 70
     1
  9
$MAXACTVP
 70
    64
  9
$PINSBASE
 10
0.0
 20
0.0
 30
0.0
  9
$PLIMCHECK
 70
     0
  9
$PEXTMIN
 10
1.000000000000000E+20
 20
1.000000000000000E+20
 30
1.000000000000000E+20
  9
$PEXTMAX
 10
-1.000000000000000E+20
 20
-1.000000000000000E+20
 30
-1.000000000000000E+20
  9
$PLIMMIN
 10
0.0
 20
0.0
  9
$PLIMMAX
 10
12.0
 20
9.0
  9
$UNITMODE
 70
     0
  9
$VISRETAIN
 70
     1
  9
$PLINEGEN
 70
     0
  9
$PSLTSCALE
 70
     1
  9
$TREEDEPTH
 70
  3020
  9
$CMLSTYLE
  2
Standard
  9
$CMLJUST
 70
     0
  9
$CMLSCALE
 40
1.0
  9
$PROXYGRAPHICS
 70
     1
  9
$MEASUREMENT
 70
     0
  9
$CELWEIGHT
370
    -1
  9
$ENDCAPS
280
     0
  9
$JOINSTYLE
280
     0
  9
$LWDISPLAY
290
     1
  9
$INSUNITS
 70
     1
  9
$HYPERLINKBASE
  1

  9
$STYLESHEET
  1

  9
$XEDIT
290
     1
  9
$CEPSNTYPE
380
     0
  9
$PSTYLEMODE
290
     1
  9
$FINGERPRINTGUID
  2
{64455999-E162-0839-EE8A-8D74B6FF2FBF}
  9
$VERSIONGUID
  2
{FAEB1C32-E019-11D5-929B-00C0DF256EC4}
  9
$EXTNAMES
290
     1
  9
$PSVPSCALE
 40
0.0
  9
$OLESTARTUP
290
     0
  9
$SORTENTS
280
   127
  9
$INDEXCTL
280
     0
  9
$HIDETEXT
280
     1
  9
$XCLIPFRAME
280
     2
  9
$HALOGAP
280
     0
  9
$OBSCOLOR
 70
   257
  9
$OBSLTYPE
280
     0
  9
$INTERSECTIONDISPLAY
280
     0
  9
$INTERSECTIONCOLOR
 70
   257
  9
$DIMASSOC
280
     2
  9
$PROJECTNAME
  1

  9
$CAMERADISPLAY
290
     0
  9
$LENSLENGTH
 40
50.0
  9
$CAMERAHEIGHT
 40
0.0
  9
$STEPSPERSEC
 40
2.0
  9
$STEPSIZE
 40
6.0
  9
$3DDWFPREC
 40
2.0
  9
$PSOLWIDTH
 40
0.25
  9
$PSOLHEIGHT
 40
4.0
  9
$LOFTANG1
 40
1.570796326794897
  9
$LOFTANG2
 40
1.570796326794897
  9
$LOFTMAG1
 40
0.0
  9
$LOFTMAG2
 40
0.0
  9
$LOFTPARAM
 70
     7
  9
$LOFTNORMALS
280
     1
  9
$LATITUDE
 40
37.795
  9
$LONGITUDE
 40
-122.394
  9
$NORTHDIRECTION
 40
0.0
  9
$TIMEZONE
 70
 -8000
  9
$LIGHTGLYPHDISPLAY
280
     1
  9
$TILEMODELIGHTSYNCH
280
     1
  9
$CMATERIAL
347
3C
  9
$SOLIDHIST
280
     1
  9
$SHOWHIST
280
     1
  9
$DWFFRAME
280
     2
  9
$DGNFRAME
280
     2
  9
$REALWORLDSCALE
290
     1
  9
$INTERFERECOLOR
 62
   256
  9
$CSHADOW
280
     0
  9
$SHADOWPLANELOCATION
 40
0.0
  0
ENDSEC
  0
SECTION
  2
CLASSES
  0
CLASS
  1
ACDBDICTIONARYWDFLT
  2
AcDbDictionaryWithDefault
  3
ObjectDBX Classes
 90
        0
 91
        4
280
     0
281
     0
  0
CLASS
  1
VISUALSTYLE
  2
AcDbVisualStyle
  3
ObjectDBX Classes
 90
     4095
 91
        4
280
     0
281
     0
  0
CLASS
  1
MATERIAL
  2
AcDbMaterial
  3
ObjectDBX Classes
 90
     1153
 91
        4
280
     0
281
     0
  0
CLASS
  1
SUN
  2
AcDbSun
  3
SCENEOE
 90
     1024
 91
        4
280
     0
281
     0
  0
ENDSEC
  0
SECTION
  2
TABLES
  0
TABLE
  2
VPORT
  5
8
330
0
100
AcDbSymbolTable
 70
     1
  0
VPORT
  5
29
330
8
100
AcDbSymbolTableRecord
100
AcDbViewportTableRecord
  2
*Active
 70
     0
 10
0.0
 20
0.0
 11
1.0
 21
1.0
 12
0.0
 22
0.0
 13
0.0
 23
0.0
 14
0.5
 24
0.5
 15
0.5
 25
0.5
 16
0.0
 26
0.0
 36
1.0
 17
105.0007777515277
 27
-148.5000416295416
 37
0.0
 40
297.0000832590831
 41
0.7070757462376333
 42
50.0
 43
0.0
 44
0.0
 50
0.0
 51
0.0
 71
     0
 72
   100
 73
     1
 74
     3
 75
     0
 76
     0
 77
     0
 78
     0
281
     0
 65
     1
110
0.0
120
0.0
130
0.0
111
1.0
121
0.0
131
0.0
112
0.0
122
1.0
132
0.0
 79
     0
146
0.0
 60
     3
 61
     5
292
     1
282
     1
141
0.0
142
0.0
 63
   250
361
3F
  0
ENDTAB
  0
TABLE
  2
LTYPE
  5
5
330
0
100
AcDbSymbolTable
 70
     5
  0
LTYPE
  5
14
330
5
100
AcDbSymbolTableRecord
100
AcDbLinetypeTableRecord
  2
ByBlock
 70
     0
  3

 72
    65
 73
     0
 40
0.0
  0
LTYPE
  5
15
330
5
100
AcDbSymbolTableRecord
100
AcDbLinetypeTableRecord
  2
ByLayer
 70
     0
  3

 72
    65
 73
     0
 40
0.0
  0
LTYPE
  5
16
330
5
100
AcDbSymbolTableRecord
100
AcDbLinetypeTableRecord
  2
Continuous
 70
     0
  3
Solid line
 72
    65
 73
     0
 40
0.0
  0
LTYPE
  5
145
330
5
100
AcDbSymbolTableRecord
100
AcDbLinetypeTableRecord
  2
AI-Linetype-1
 70
     0
  3
Adobe Illustrator Linetype No. 1
 72
    65
 73
     2
 40
1.411111110758333
 49
0.7055555553791667
 74
     0
 49
-0.7055555553791667
 74
     0
  0
LTYPE
  5
147
330
5
100
AcDbSymbolTableRecord
100
AcDbLinetypeTableRecord
  2
AI-Linetype-2
 70
     0
  3
Adobe Illustrator Linetype No. 2
 72
    65
 73
     2
 40
1.411111110758333
 49
0.7055555553791667
 74
     0
 49
-0.7055555553791667
 74
     0
  0
LTYPE
  5
149
330
5
100
AcDbSymbolTableRecord
100
AcDbLinetypeTableRecord
  2
AI-Linetype-3
 70
     0
  3
Adobe Illustrator Linetype No. 3
 72
    65
 73
     2
 40
1.411111110758333
 49
0.7055555553791667
 74
     0
 49
-0.7055555553791667
 74
     0
  0
LTYPE
  5
14B
330
5
100
AcDbSymbolTableRecord
100
AcDbLinetypeTableRecord
  2
AI-Linetype-4
 70
     0
  3
Adobe Illustrator Linetype No. 4
 72
    65
 73
     2
 40
1.411111110758333
 49
0.7055555553791667
 74
     0
 49
-0.7055555553791667
 74
     0
  0
ENDTAB
  0
TABLE
  2
LAYER
  5
2
330
0
100
AcDbSymbolTable
 70
     2
  0
LAYER
  5
10
330
2
100
AcDbSymbolTableRecord
100
AcDbLayerTableRecord
  2
0
 70
     0
 62
     7
  6
Continuous
370
    -3
390
F
347
3E
  0
LAYER
  5
40
330
2
100
AcDbSymbolTableRecord
100
AcDbLayerTableRecord
  2
_U+30EC_U+30A4_U+30E4_U+30FC 1
 70
     0
 62
     7
  6
Continuous
370
    -3
390
F
347
3E
  0
ENDTAB
  0
TABLE
  2
STYLE
  5
3
330
0
100
AcDbSymbolTable
 70
     1
  0
STYLE
  5
11
330
3
100
AcDbSymbolTableRecord
100
AcDbTextStyleTableRecord
  2
Standard
 70
     0
 40
0.0
 41
1.0
 50
0.0
 71
     0
 42
0.2
  3
txt
  4

  0
ENDTAB
  0
TABLE
  2
VIEW
  5
6
330
0
100
AcDbSymbolTable
 70
     0
  0
ENDTAB
  0
TABLE
  2
UCS
  5
7
330
0
100
AcDbSymbolTable
 70
     0
  0
ENDTAB
  0
TABLE
  2
APPID
  5
9
330
0
100
AcDbSymbolTable
 70
     1
  0
APPID
  5
12
330
9
100
AcDbSymbolTableRecord
100
AcDbRegAppTableRecord
  2
ACAD
 70
     0
  0
ENDTAB
  0
TABLE
  2
DIMSTYLE
  5
A
330
0
100
AcDbSymbolTable
 70
     1
100
AcDbDimStyleTable
  0
DIMSTYLE
105
27
330
A
100
AcDbSymbolTableRecord
100
AcDbDimStyleTableRecord
  2
Standard
 70
     0
178
     0
340
11
  0
ENDTAB
  0
TABLE
  2
BLOCK_RECORD
  5
1
330
0
100
AcDbSymbolTable
 70
     4
  0
BLOCK_RECORD
  5
1F
330
1
100
AcDbSymbolTableRecord
100
AcDbBlockTableRecord
  2
*Model_Space
340
22
 70
     0
280
     1
281
     0
  0
BLOCK_RECORD
  5
1B
330
1
100
AcDbSymbolTableRecord
100
AcDbBlockTableRecord
  2
*Paper_Space
340
1E
 70
     0
280
     1
281
     0
  0
BLOCK_RECORD
  5
23
330
1
100
AcDbSymbolTableRecord
100
AcDbBlockTableRecord
  2
*Paper_Space0
340
26
 70
     0
280
     1
281
     0
  0
BLOCK_RECORD
  5
55
330
1
100
AcDbSymbolTableRecord
100
AcDbBlockTableRecord
  2
block 2
340
0
102
{BLKREFS
331
56
102
}
 70
     0
280
     1
281
     0
  0
BLOCK_RECORD
  5
93
330
1
100
AcDbSymbolTableRecord
100
AcDbBlockTableRecord
  2
block 3
340
0
102
{BLKREFS
331
94
102
}
 70
     0
280
     1
281
     0
  0
BLOCK_RECORD
  5
B6
330
1
100
AcDbSymbolTableRecord
100
AcDbBlockTableRecord
  2
block 4
340
0
102
{BLKREFS
331
B7
102
}
 70
     0
280
     1
281
     0
  0
ENDTAB
  0
ENDSEC
  0
SECTION
  2
BLOCKS
  0
BLOCK
  5
20
330
1F
100
AcDbEntity
  8
0
100
AcDbBlockBegin
  2
*Model_Space
 70
     0
 10
0.0
 20
0.0
 30
0.0
  3
*Model_Space
  1

  0
ENDBLK
  5
21
330
1F
100
AcDbEntity
  8
0
100
AcDbBlockEnd
  0
BLOCK
  5
1C
330
1B
100
AcDbEntity
 67
     1
  8
0
100
AcDbBlockBegin
  2
*Paper_Space
 70
     0
 10
0.0
 20
0.0
 30
0.0
  3
*Paper_Space
  1

  0
ENDBLK
  5
1D
330
1B
100
AcDbEntity
 67
     1
  8
0
100
AcDbBlockEnd
  0
BLOCK
  5
24
330
23
100
AcDbEntity
  8
0
100
AcDbBlockBegin
  2
*Paper_Space0
 70
     0
 10
0.0
 20
0.0
 30
0.0
  3
*Paper_Space0
  1

  0
ENDBLK
  5
25
330
23
100
AcDbEntity
  8
0
100
AcDbBlockEnd
  0
BLOCK
  5
57
330
55
100
AcDbEntity
  8
0
100
AcDbBlockBegin
  2
block 2
 70
     0
 10
0.0
 20
0.0
 30
0.0
  3
block 2
  1

  0
POLYLINE
  5
59
330
55
100
AcDbEntity
  8
_U+30EC_U+30A4_U+30E4_U+30FC 1
370
     0
100
AcDb2dPolyline
 66
     1
 10
0.0
 20
0.0
 30
0.0
  0
VERTEX
  5
5A
330
59
100
AcDbEntity
  8
_U+30EC_U+30A4_U+30E4_U+30FC 1
370
     0
100
AcDbVertex
100
AcDb2dVertex
 10
120.6758381859769
 20
-180.7955104799748
 30
0.0
  0
VERTEX
  5
5B
330
59
100
AcDbEntity
  8
_U+30EC_U+30A4_U+30E4_U+30FC 1
370
     0
100
AcDbVertex
100
AcDb2dVertex
 10
120.6758381859769
 20
-181.1424315953394
 30
0.0
  0
VERTEX
  5
5C
330
59
100
AcDbEntity
  8
_U+30EC_U+30A4_U+30E4_U+30FC 1
370
     0
100
AcDbVertex
100
AcDb2dVertex
 10
120.4581081513091
 20
-181.1424315953394
 30
0.0
  0
VERTEX
  5
5D
330
59
100
AcDbEntity
  8
_U+30EC_U+30A4_U+30E4_U+30FC 1
370
     0
100
AcDbVertex
100
AcDb2dVertex
 10
120.4581081513091
 20
-180.7955104799748
 30
0.0
  0
VERTEX
  5
5E
330
59
100
AcDbEntity
  8
_U+30EC_U+30A4_U+30E4_U+30FC 1
370
     0
100
AcDbVertex
100
AcDb2dVertex
 10
119.8021619709175
 20
-180.7955104799748
 30
0.0
  0
VERTEX
  5
5F
330
59
100
AcDbEntity
  8
_U+30EC_U+30A4_U+30E4_U+30FC 1
370
     0
100
AcDbVertex
100
AcDb2dVertex
 10
119.8021619709175
 20
-180.571234763885
 30
0.0
  0
VERTEX
  5
60
330
59
100
AcDbEntity
  8
_U+30EC_U+30A4_U+30E4_U+30FC 1
370
     0
100
AcDbVertex
100
AcDb2dVertex
 10
120.4811902910603
 20
-179.5979952893019
 30
0.0
  0
VERTEX
  5
61
330
59
100
AcDbEntity
  8
_U+30EC_U+30A4_U+30E4_U+30FC 1
370
     0
100
AcDbVertex
100
AcDb2dVertex
 10
120.6758381859769
 20
-179.5979952893019
 30
0.0
  0
VERTEX
  5
62
330
59
100
AcDbEntity
  8
_U+30EC_U+30A4_U+30E4_U+30FC 1
370
     0
100
AcDbVertex
100
AcDb2dVertex
 10
120.6758381859769
 20
-180.5967284704758
 30
0.0
  0
VERTEX
  5
63
330
59
100
AcDbEntity
  8
_U+30EC_U+30A4_U+30E4_U+30FC 1
370
     0
100
AcDbVertex
100
AcDb2dVertex
 10
120.8832329341889
 20
-180.5967284704758
 30
0.0
  0
VERTEX
  5
64
330
59
100
AcDbEntity
  8
_U+30EC_U+30A4_U+30E4_U+30FC 1
370
     0
100
AcDbVertex
100
AcDb2dVertex
 10
120.8832329341889
 20
-180.7955104799748
 30
0.0
  0
VERTEX
  5
65
330
59
100
AcDbEntity
  8
_U+30EC_U+30A4_U+30E4_U+30FC 1
370
     0
100
AcDbVertex
100
AcDb2dVertex
 10
120.6758381859769
 20
-180.7955104799748
 30
0.0
  0
SEQEND
  5
66
330
59
100
AcDbEntity
  8
_U+30EC_U+30A4_U+30E4_U+30FC 1
370
     0
  0
POLYLINE
  5
67
330
55
100
AcDbEntity
  8
_U+30EC_U+30A4_U+30E4_U+30FC 1
370
     0
100
AcDb2dPolyline
 66
     1
 10
0.0
 20
0.0
 30
0.0
  0
VERTEX
  5
68
330
67
100
AcDbEntity
  8
_U+30EC_U+30A4_U+30E4_U+30FC 1
370
     0
100
AcDbVertex
100
AcDb2dVertex
 10
120.4581081513091
 20
-179.9407822900843
 30
0.0
  0
VERTEX
  5
69
330
67
100
AcDbEntity
  8
_U+30EC_U+30A4_U+30E4_U+30FC 1
370
     0
100
AcDbVertex
100
AcDb2dVertex
 10
120.0009439804164
 20
-180.5967284704758
 30
0.0
  0
VERTEX
  5
6A
330
67
100
AcDbEntity
  8
_U+30EC_U+30A4_U+30E4_U+30FC 1
370
     0
100
AcDbVertex
100
AcDb2dVertex
 10
120.4581081513091
 20
-180.5967284704758
 30
0.0
  0
VERTEX
  5
6B
330
67
100
AcDbEntity
  8
_U+30EC_U+30A4_U+30E4_U+30FC 1
370
     0
100
AcDbVertex
100
AcDb2dVertex
 10
120.4581081513091
 20
-179.9407822900843
 30
0.0
  0
SEQEND
  5
6C
330
67
100
AcDbEntity
  8
_U+30EC_U+30A4_U+30E4_U+30FC 1
370
     0
  0
HATCH
  5
6D
330
55
100
AcDbEntity
  8
_U+30EC_U+30A4_U+30E4_U+30FC 1
 62
   179
420
  2234388
100
AcDbHatch
 10
0.0
 20
0.0
 30
0.0
210
0.0
220
0.0
230
1.0
  2
SOLID
 70
     1
 71
     0
 91
        2
 92
        1
 93
       11
 72
     1
 10
120.6758381859769
 20
-180.7955104799748
 11
120.6758381859769
 21
-181.1424315953394
 72
     1
 10
120.6758381859769
 20
-181.1424315953394
 11
120.4581081513091
 21
-181.1424315953394
 72
     1
 10
120.4581081513091
 20
-181.1424315953394
 11
120.4581081513091
 21
-180.7955104799748
 72
     1
 10
120.4581081513091
 20
-180.7955104799748
 11
119.8021619709175
 21
-180.7955104799748
 72
     1
 10
119.8021619709175
 20
-180.7955104799748
 11
119.8021619709175
 21
-180.571234763885
 72
     1
 10
119.8021619709175
 20
-180.571234763885
 11
120.4811902910603
 21
-179.5979952893019
 72
     1
 10
120.4811902910603
 20
-179.5979952893019
 11
120.6758381859769
 21
-179.5979952893019
 72
     1
 10
120.6758381859769
 20
-179.5979952893019
 11
120.6758381859769
 21
-180.5967284704758
 72
     1
 10
120.6758381859769
 20
-180.5967284704758
 11
120.8832329341889
 21
-180.5967284704758
 72
     1
 10
120.8832329341889
 20
-180.5967284704758
 11
120.8832329341889
 21
-180.7955104799748
 72
     1
 10
120.8832329341889
 20
-180.7955104799748
 11
120.6758381859769
 21
-180.7955104799748
 97
        0
 92
        1
 93
        3
 72
     1
 10
120.4581081513091
 20
-179.9407822900843
 11
120.0009439804164
 21
-180.5967284704758
 72
     1
 10
120.0009439804164
 20
-180.5967284704758
 11
120.4581081513091
 21
-180.5967284704758
 72
     1
 10
120.4581081513091
 20
-180.5967284704758
 11
120.4581081513091
 21
-179.9407822900843
 97
        0
 75
     2
 76
     1
 98
        0
  0
SPLINE
  5
6E
330
55
100
AcDbEntity
  8
_U+30EC_U+30A4_U+30E4_U+30FC 1
370
     0
100
AcDbSpline
210
0.0
220
0.0
230
1.0
 70
    11
 71
     3
 72
    29
 73
    25
 74
     0
 42
0.0000000001
 43
0.0000000001
 12
1.0
 22
0.0
 32
0.0
 13
1.0
 23
0.0
 33
0.0
 40
0.0
 40
0.0
 40
0.0
 40
0.0
 40
1.0
 40
1.0
 40
1.0
 40
2.0
 40
2.0
 40
2.0
 40
3.0
 40
3.0
 40
3.0
 40
4.0
 40
4.0
 40
4.0
 40
5.0
 40
5.0
 40
5.0
 40
6.0
 40
6.0
 40
6.0
 40
7.0
 40
7.0
 40
7.0
 40
8.0
 40
8.0
 40
8.0
 40
8.0
 10
121.9184841275065
 20
-180.9646646683005
 30
0.0
 10
121.8103081292697
 20
-181.1741264738037
 30
0.0
 10
121.6370198263616
 20
-181.1930744989726
 30
0.0
 10
121.5205755989601
 20
-181.1930744989726
 30
0.0
 10
121.359689639799
 20
-181.1930744989726
 30
0.0
 10
121.2180962153552
 20
-181.1465657099217
 30
0.0
 10
121.1230115799623
 20
-180.9646646683005
 30
0.0
 10
121.0193142058563
 20
-180.7700167733839
 30
0.0
 10
121.0000216711389
 20
-180.5333387135472
 30
0.0
 10
121.0000216711389
 20
-180.3703856970949
 30
0.0
 10
121.0000216711389
 20
-180.2263807058115
 30
0.0
 10
121.0172471485651
 20
-179.9745442258397
 30
0.0
 10
121.1230115799623
 20
-179.7757622163408
 30
0.0
 10
121.2308430686506
 20
-179.5728460922596
 30
0.0
 10
121.3917290278118
 20
-179.5494194429599
 30
0.0
 10
121.5205755989601
 20
-179.5494194429599
 30
0.0
 10
121.6793945008302
 20
-179.5494194429599
 30
0.0
 10
121.8230549825651
 20
-179.5938611747196
 30
0.0
 10
121.9184841275065
 20
-179.7757622163408
 30
0.0
 10
122.0177028774817
 20
-179.9683430539663
 30
0.0
 10
122.0411295267814
 20
-180.1967528846383
 30
0.0
 10
122.0411295267814
 20
-180.3703856970949
 30
0.0
 10
122.0411295267814
 20
-180.5416069427118
 30
0.0
 10
122.0197699347728
 20
-180.772083830675
 30
0.0
 10
121.9184841275065
 20
-180.9646646683005
 30
0.0
  0
SPLINE
  5
6F
330
55
100
AcDbEntity
  8
_U+30EC_U+30A4_U+30E4_U+30FC 1
370
     0
100
AcDbSpline
210
0.0
220
0.0
230
1.0
 70
    11
 71
     3
 72
    17
 73
    13
 74
     0
 42
0.0000000001
 43
0.0000000001
 12
1.0
 22
0.0
 32
0.0
 13
1.0
 23
0.0
 33
0.0
 40
0.0
 40
0.0
 40
0.0
 40
0.0
 40
1.0
 40
1.0
 40
1.0
 40
2.0
 40
2.0
 40
2.0
 40
3.0
 40
3.0
 40
3.0
 40
4.0
 40
4.0
 40
4.0
 40
4.0
 10
121.5205755989601
 20
-179.7420002805853
 30
0.0
 10
121.2708061762795
 20
-179.7420002805853
 30
0.0
 10
121.2242973872287
 20
-180.0255316390214
 30
0.0
 10
121.2242973872287
 20
-180.3703856970949
 30
0.0
 10
121.2242973872287
 20
-180.6897460485776
 30
0.0
 10
121.2604708898238
 20
-180.998426604056
 30
0.0
 10
121.5205755989601
 20
-180.998426604056
 30
0.0
 10
121.7682779643496
 20
-180.998426604056
 30
0.0
 10
121.8168538106916
 20
-180.7173068124596
 30
0.0
 10
121.8168538106916
 20
-180.3703856970949
 30
0.0
 10
121.8168538106916
 20
-180.0506808360637
 30
0.0
 10
121.7786132508053
 20
-179.7420002805853
 30
0.0
 10
121.5205755989601
 20
-179.7420002805853
 30
0.0
  0
HATCH
  5
70
330
55
100
AcDbEntity
  8
_U+30EC_U+30A4_U+30E4_U+30FC 1
 62
   179
420
  2234388
100
AcDbHatch
 10
0.0
 20
0.0
 30
0.0
210
0.0
220
0.0
230
1.0
  2
SOLID
 70
     1
 71
     0
 91
        2
 92
        1
 93
        1
 72
     4
 94
        3
 73
     0
 74
     1
 95
       29
 96
       25
 40
0.0
 40
0.0
 40
0.0
 40
0.0
 40
1.0
 40
1.0
 40
1.0
 40
2.0
 40
2.0
 40
2.0
 40
3.0
 40
3.0
 40
3.0
 40
4.0
 40
4.0
 40
4.0
 40
5.0
 40
5.0
 40
5.0
 40
6.0
 40
6.0
 40
6.0
 40
7.0
 40
7.0
 40
7.0
 40
8.0
 40
8.0
 40
8.0
 40
8.0
 10
121.9184841275065
 20
-180.9646646683005
 10
121.8103081292697
 20
-181.1741264738037
 10
121.6370198263616
 20
-181.1930744989726
 10
121.5205755989601
 20
-181.1930744989726
 10
121.359689639799
 20
-181.1930744989726
 10
121.2180962153552
 20
-181.1465657099217
 10
121.1230115799623
 20
-180.9646646683005
 10
121.0193142058563
 20
-180.7700167733839
 10
121.0000216711389
 20
-180.5333387135472
 10
121.0000216711389
 20
-180.3703856970949
 10
121.0000216711389
 20
-180.2263807058115
 10
121.0172471485651
 20
-179.9745442258397
 10
121.1230115799623
 20
-179.7757622163408
 10
121.2308430686506
 20
-179.5728460922596
 10
121.3917290278118
 20
-179.5494194429599
 10
121.5205755989601
 20
-179.5494194429599
 10
121.6793945008302
 20
-179.5494194429599
 10
121.8230549825651
 20
-179.5938611747196
 10
121.9184841275065
 20
-179.7757622163408
 10
122.0177028774817
 20
-179.9683430539663
 10
122.0411295267814
 20
-180.1967528846383
 10
122.0411295267814
 20
-180.3703856970949
 10
122.0411295267814
 20
-180.5416069427118
 10
122.0197699347728
 20
-180.772083830675
 10
121.9184841275065
 20
-180.9646646683005
 97
        0
 97
        0
 92
        1
 93
        1
 72
     4
 94
        3
 73
     0
 74
     1
 95
       17
 96
       13
 40
0.0
 40
0.0
 40
0.0
 40
0.0
 40
1.0
 40
1.0
 40
1.0
 40
2.0
 40
2.0
 40
2.0
 40
3.0
 40
3.0
 40
3.0
 40
4.0
 40
4.0
 40
4.0
 40
4.0
 10
121.5205755989601
 20
-179.7420002805853
 10
121.2708061762795
 20
-179.7420002805853
 10
121.2242973872287
 20
-180.0255316390214
 10
121.2242973872287
 20
-180.3703856970949
 10
121.2242973872287
 20
-180.6897460485776
 10
121.2604708898238
 20
-180.998426604056
 10
121.5205755989601
 20
-180.998426604056
 10
121.7682779643496
 20
-180.998426604056
 10
121.8168538106916
 20
-180.7173068124596
 10
121.8168538106916
 20
-180.3703856970949
 10
121.8168538106916
 20
-180.0506808360637
 10
121.7786132508053
 20
-179.7420002805853
 10
121.5205755989601
 20
-179.7420002805853
 97
        0
 97
        0
 75
     2
 76
     1
 98
        0
  0
ENDBLK
  5
58
330
55
100
AcDbEntity
  8
0
100
AcDbBlockEnd
  0
BLOCK
  5
95
330
93
100
AcDbEntity
  8
0
100
AcDbBlockBegin
  2
block 3
 70
     0
 10
0.0
 20
0.0
 30
0.0
  3
block 3
  1

  0
POLYLINE
  5
97
330
93
100
AcDbEntity
  8
_U+30EC_U+30A4_U+30E4_U+30FC 1
370
     0
100
AcDb2dPolyline
 66
     1
 10
0.0
 20
0.0
 30
0.0
  0
VERTEX
  5
98
330
97
100
AcDbEntity
  8
_U+30EC_U+30A4_U+30E4_U+30FC 1
370
     0
100
AcDbVertex
100
AcDb2dVertex
 10
105.3003770353069
 20
-178.4128824423759
 30
0.0
  0
VERTEX
  5
99
330
97
100
AcDbEntity
  8
_U+30EC_U+30A4_U+30E4_U+30FC 1
370
     0
100
AcDbVertex
100
AcDb2dVertex
 10
105.3003770353069
 20
-178.7598035577406
 30
0.0
  0
VERTEX
  5
9A
330
97
100
AcDbEntity
  8
_U+30EC_U+30A4_U+30E4_U+30FC 1
370
     0
100
AcDbVertex
100
AcDb2dVertex
 10
105.0823024910905
 20
-178.7598035577406
 30
0.0
  0
VERTEX
  5
9B
330
97
100
AcDbEntity
  8
_U+30EC_U+30A4_U+30E4_U+30FC 1
370
     0
100
AcDbVertex
100
AcDb2dVertex
 10
105.0823024910905
 20
-178.4128824423759
 30
0.0
  0
VERTEX
  5
9C
330
97
100
AcDbEntity
  8
_U+30EC_U+30A4_U+30E4_U+30FC 1
370
     0
100
AcDbVertex
100
AcDb2dVertex
 10
104.4267008202475
 20
-178.4128824423759
 30
0.0
  0
VERTEX
  5
9D
330
97
100
AcDbEntity
  8
_U+30EC_U+30A4_U+30E4_U+30FC 1
370
     0
100
AcDbVertex
100
AcDb2dVertex
 10
104.4267008202475
 20
-178.1886067262862
 30
0.0
  0
VERTEX
  5
9E
330
97
100
AcDbEntity
  8
_U+30EC_U+30A4_U+30E4_U+30FC 1
370
     0
100
AcDbVertex
100
AcDb2dVertex
 10
105.1057291403902
 20
-177.2153672517031
 30
0.0
  0
VERTEX
  5
9F
330
97
100
AcDbEntity
  8
_U+30EC_U+30A4_U+30E4_U+30FC 1
370
     0
100
AcDbVertex
100
AcDb2dVertex
 10
105.3003770353069
 20
-177.2153672517031
 30
0.0
  0
VERTEX
  5
A0
330
97
100
AcDbEntity
  8
_U+30EC_U+30A4_U+30E4_U+30FC 1
370
     0
100
AcDbVertex
100
AcDb2dVertex
 10
105.3003770353069
 20
-178.214100432877
 30
0.0
  0
VERTEX
  5
A1
330
97
100
AcDbEntity
  8
_U+30EC_U+30A4_U+30E4_U+30FC 1
370
     0
100
AcDbVertex
100
AcDb2dVertex
 10
105.5074272739704
 20
-178.214100432877
 30
0.0
  0
VERTEX
  5
A2
330
97
100
AcDbEntity
  8
_U+30EC_U+30A4_U+30E4_U+30FC 1
370
     0
100
AcDbVertex
100
AcDb2dVertex
 10
105.5074272739704
 20
-178.4128824423759
 30
0.0
  0
VERTEX
  5
A3
330
97
100
AcDbEntity
  8
_U+30EC_U+30A4_U+30E4_U+30FC 1
370
     0
100
AcDbVertex
100
AcDb2dVertex
 10
105.3003770353069
 20
-178.4128824423759
 30
0.0
  0
SEQEND
  5
A4
330
97
100
AcDbEntity
  8
_U+30EC_U+30A4_U+30E4_U+30FC 1
370
     0
  0
POLYLINE
  5
A5
330
93
100
AcDbEntity
  8
_U+30EC_U+30A4_U+30E4_U+30FC 1
370
     0
100
AcDb2dPolyline
 66
     1
 10
0.0
 20
0.0
 30
0.0
  0
VERTEX
  5
A6
330
A5
100
AcDbEntity
  8
_U+30EC_U+30A4_U+30E4_U+30FC 1
370
     0
100
AcDbVertex
100
AcDb2dVertex
 10
105.0823024910905
 20
-177.5581542524855
 30
0.0
  0
VERTEX
  5
A7
330
A5
100
AcDbEntity
  8
_U+30EC_U+30A4_U+30E4_U+30FC 1
370
     0
100
AcDbVertex
100
AcDb2dVertex
 10
104.6254828297464
 20
-178.214100432877
 30
0.0
  0
VERTEX
  5
A8
330
A5
100
AcDbEntity
  8
_U+30EC_U+30A4_U+30E4_U+30FC 1
370
     0
100
AcDbVertex
100
AcDb2dVertex
 10
105.0823024910905
 20
-178.214100432877
 30
0.0
  0
VERTEX
  5
A9
330
A5
100
AcDbEntity
  8
_U+30EC_U+30A4_U+30E4_U+30FC 1
370
     0
100
AcDbVertex
100
AcDb2dVertex
 10
105.0823024910905
 20
-177.5581542524855
 30
0.0
  0
SEQEND
  5
AA
330
A5
100
AcDbEntity
  8
_U+30EC_U+30A4_U+30E4_U+30FC 1
370
     0
  0
HATCH
  5
AB
330
93
100
AcDbEntity
  8
_U+30EC_U+30A4_U+30E4_U+30FC 1
 62
   179
420
  2234388
100
AcDbHatch
 10
0.0
 20
0.0
 30
0.0
210
0.0
220
0.0
230
1.0
  2
SOLID
 70
     1
 71
     0
 91
        2
 92
        1
 93
       11
 72
     1
 10
105.3003770353069
 20
-178.4128824423759
 11
105.3003770353069
 21
-178.7598035577406
 72
     1
 10
105.3003770353069
 20
-178.7598035577406
 11
105.0823024910905
 21
-178.7598035577406
 72
     1
 10
105.0823024910905
 20
-178.7598035577406
 11
105.0823024910905
 21
-178.4128824423759
 72
     1
 10
105.0823024910905
 20
-178.4128824423759
 11
104.4267008202475
 21
-178.4128824423759
 72
     1
 10
104.4267008202475
 20
-178.4128824423759
 11
104.4267008202475
 21
-178.1886067262862
 72
     1
 10
104.4267008202475
 20
-178.1886067262862
 11
105.1057291403902
 21
-177.2153672517031
 72
     1
 10
105.1057291403902
 20
-177.2153672517031
 11
105.3003770353069
 21
-177.2153672517031
 72
     1
 10
105.3003770353069
 20
-177.2153672517031
 11
105.3003770353069
 21
-178.214100432877
 72
     1
 10
105.3003770353069
 20
-178.214100432877
 11
105.5074272739704
 21
-178.214100432877
 72
     1
 10
105.5074272739704
 20
-178.214100432877
 11
105.5074272739704
 21
-178.4128824423759
 72
     1
 10
105.5074272739704
 20
-178.4128824423759
 11
105.3003770353069
 21
-178.4128824423759
 97
        0
 92
        1
 93
        3
 72
     1
 10
105.0823024910905
 20
-177.5581542524855
 11
104.6254828297464
 21
-178.214100432877
 72
     1
 10
104.6254828297464
 20
-178.214100432877
 11
105.0823024910905
 21
-178.214100432877
 72
     1
 10
105.0823024910905
 20
-178.214100432877
 11
105.0823024910905
 21
-177.5581542524855
 97
        0
 75
     2
 76
     1
 98
        0
  0
SPLINE
  5
AC
330
93
100
AcDbEntity
  8
_U+30EC_U+30A4_U+30E4_U+30FC 1
370
     0
100
AcDbSpline
210
0.0
220
0.0
230
1.0
 70
    11
 71
     3
 72
    26
 73
    22
 74
     0
 42
0.0000000001
 43
0.0000000001
 12
1.0
 22
0.0
 32
0.0
 13
1.0
 23
0.0
 33
0.0
 40
0.0
 40
0.0
 40
0.0
 40
0.0
 40
1.0
 40
1.0
 40
1.0
 40
2.0
 40
2.0
 40
2.0
 40
3.0
 40
3.0
 40
3.0
 40
4.0
 40
4.0
 40
4.0
 40
5.0
 40
5.0
 40
5.0
 40
6.0
 40
6.0
 40
6.0
 40
7.0
 40
7.0
 40
7.0
 40
7.0
 10
106.0965386019481
 20
-178.7598035577406
 30
0.0
 10
106.0965386019481
 20
-178.7598035577406
 30
0.0
 10
106.0965386019481
 20
-177.655650454718
 30
0.0
 10
106.0965386019481
 20
-177.655650454718
 30
0.0
 10
106.0965386019481
 20
-177.655650454718
 30
0.0
 10
105.7664984544612
 20
-177.655650454718
 30
0.0
 10
105.7664984544612
 20
-177.655650454718
 30
0.0
 10
105.7664984544612
 20
-177.655650454718
 30
0.0
 10
105.7664984544612
 20
-177.5075113488523
 30
0.0
 10
105.7664984544612
 20
-177.5075113488523
 30
0.0
 10
106.0986056592392
 20
-177.4926974382657
 30
0.0
 10
106.1451144482901
 20
-177.3297444218134
 30
0.0
 10
106.1747422694633
 20
-177.2153672517031
 30
0.0
 10
106.1747422694633
 20
-177.2153672517031
 30
0.0
 10
106.3208143180379
 20
-177.2153672517031
 30
0.0
 10
106.3208143180379
 20
-177.2153672517031
 30
0.0
 10
106.3208143180379
 20
-177.2153672517031
 30
0.0
 10
106.3208143180379
 20
-178.7598035577406
 30
0.0
 10
106.3208143180379
 20
-178.7598035577406
 30
0.0
 10
106.3208143180379
 20
-178.7598035577406
 30
0.0
 10
106.0965386019481
 20
-178.7598035577406
 30
0.0
 10
106.0965386019481
 20
-178.7598035577406
 30
0.0
  0
HATCH
  5
AD
330
93
100
AcDbEntity
  8
_U+30EC_U+30A4_U+30E4_U+30FC 1
 62
   179
420
  2234388
100
AcDbHatch
 10
0.0
 20
0.0
 30
0.0
210
0.0
220
0.0
230
1.0
  2
SOLID
 70
     1
 71
     0
 91
        1
 92
        1
 93
        1
 72
     4
 94
        3
 73
     0
 74
     1
 95
       26
 96
       22
 40
0.0
 40
0.0
 40
0.0
 40
0.0
 40
1.0
 40
1.0
 40
1.0
 40
2.0
 40
2.0
 40
2.0
 40
3.0
 40
3.0
 40
3.0
 40
4.0
 40
4.0
 40
4.0
 40
5.0
 40
5.0
 40
5.0
 40
6.0
 40
6.0
 40
6.0
 40
7.0
 40
7.0
 40
7.0
 40
7.0
 10
106.0965386019481
 20
-178.7598035577406
 10
106.0965386019481
 20
-178.7598035577406
 10
106.0965386019481
 20
-177.655650454718
 10
106.0965386019481
 20
-177.655650454718
 10
106.0965386019481
 20
-177.655650454718
 10
105.7664984544612
 20
-177.655650454718
 10
105.7664984544612
 20
-177.655650454718
 10
105.7664984544612
 20
-177.655650454718
 10
105.7664984544612
 20
-177.5075113488523
 10
105.7664984544612
 20
-177.5075113488523
 10
106.0986056592392
 20
-177.4926974382657
 10
106.1451144482901
 20
-177.3297444218134
 10
106.1747422694633
 20
-177.2153672517031
 10
106.1747422694633
 20
-177.2153672517031
 10
106.3208143180379
 20
-177.2153672517031
 10
106.3208143180379
 20
-177.2153672517031
 10
106.3208143180379
 20
-177.2153672517031
 10
106.3208143180379
 20
-178.7598035577406
 10
106.3208143180379
 20
-178.7598035577406
 10
106.3208143180379
 20
-178.7598035577406
 10
106.0965386019481
 20
-178.7598035577406
 10
106.0965386019481
 20
-178.7598035577406
 97
        0
 97
        0
 75
     2
 76
     1
 98
        0
  0
ENDBLK
  5
96
330
93
100
AcDbEntity
  8
0
100
AcDbBlockEnd
  0
BLOCK
  5
B8
330
B6
100
AcDbEntity
  8
0
100
AcDbBlockBegin
  2
block 4
 70
     0
 10
0.0
 20
0.0
 30
0.0
  3
block 4
  1

  0
SPLINE
  5
BA
330
B6
100
AcDbEntity
  8
_U+30EC_U+30A4_U+30E4_U+30FC 1
370
     0
100
AcDbSpline
210
0.0
220
0.0
230
1.0
 70
    11
 71
     3
 72
    17
 73
    13
 74
     0
 42
0.0000000001
 43
0.0000000001
 12
1.0
 22
0.0
 32
0.0
 13
1.0
 23
0.0
 33
0.0
 40
0.0
 40
0.0
 40
0.0
 40
0.0
 40
1.0
 40
1.0
 40
1.0
 40
2.0
 40
2.0
 40
2.0
 40
3.0
 40
3.0
 40
3.0
 40
4.0
 40
4.0
 40
4.0
 40
4.0
 10
82.62251923932702
 20
-166.7371093333157
 30
0.0
 10
82.51675480792984
 20
-166.6313449019186
 30
0.0
 10
82.43631182834926
 20
-166.5934488515808
 30
0.0
 10
82.34312199547325
 20
-166.561409463568
 30
0.0
 10
82.34312199547325
 20
-166.561409463568
 30
0.0
 10
82.45319279622699
 20
-166.396733899373
 30
0.0
 10
82.45319279622699
 20
-166.396733899373
 30
0.0
 10
82.5505167436853
 20
-166.4387640642931
 30
0.0
 10
82.67109508566904
 20
-166.5173122413568
 30
0.0
 10
82.72397730136763
 20
-166.5720892595723
 30
0.0
 10
82.72397730136763
 20
-166.5720892595723
 30
0.0
 10
82.62251923932702
 20
-166.7371093333157
 30
0.0
 10
82.62251923932702
 20
-166.7371093333157
 30
0.0
  0
SPLINE
  5
BB
330
B6
100
AcDbEntity
  8
_U+30EC_U+30A4_U+30E4_U+30FC 1
370
     0
100
AcDbSpline
210
0.0
220
0.0
230
1.0
 70
    11
 71
     3
 72
   182
 73
   178
 74
     0
 42
0.0000000001
 43
0.0000000001
 12
1.0
 22
0.0
 32
0.0
 13
1.0
 23
0.0
 33
0.0
 40
0.0
 40
0.0
 40
0.0
 40
0.0
 40
1.0
 40
1.0
 40
1.0
 40
2.0
 40
2.0
 40
2.0
 40
3.0
 40
3.0
 40
3.0
 40
4.0
 40
4.0
 40
4.0
 40
5.0
 40
5.0
 40
5.0
 40
6.0
 40
6.0
 40
6.0
 40
7.0
 40
7.0
 40
7.0
 40
8.0
 40
8.0
 40
8.0
 40
9.0
 40
9.0
 40
9.0
 40
10.0
 40
10.0
 40
10.0
 40
11.0
 40
11.0
 40
11.0
 40
12.0
 40
12.0
 40
12.0
 40
13.0
 40
13.0
 40
13.0
 40
14.0
 40
14.0
 40
14.0
 40
15.0
 40
15.0
 40
15.0
 40
16.0
 40
16.0
 40
16.0
 40
17.0
 40
17.0
 40
17.0
 40
18.0
 40
18.0
 40
18.0
 40
19.0
 40
19.0
 40
19.0
 40
20.0
 40
20.0
 40
20.0
 40
21.0
 40
21.0
 40
21.0
 40
22.0
 40
22.0
 40
22.0
 40
23.0
 40
23.0
 40
23.0
 40
24.0
 40
24.0
 40
24.0
 40
25.0
 40
25.0
 40
25.0
 40
26.0
 40
26.0
 40
26.0
 40
27.0
 40
27.0
 40
27.0
 40
28.0
 40
28.0
 40
28.0
 40
29.0
 40
29.0
 40
29.0
 40
30.0
 40
30.0
 40
30.0
 40
31.0
 40
31.0
 40
31.0
 40
32.0
 40
32.0
 40
32.0
 40
33.0
 40
33.0
 40
33.0
 40
34.0
 40
34.0
 40
34.0
 40
35.0
 40
35.0
 40
35.0
 40
36.0
 40
36.0
 40
36.0
 40
37.0
 40
37.0
 40
37.0
 40
38.0
 40
38.0
 40
38.0
 40
39.0
 40
39.0
 40
39.0
 40
40.0
 40
40.0
 40
40.0
 40
41.0
 40
41.0
 40
41.0
 40
42.0
 40
42.0
 40
42.0
 40
43.0
 40
43.0
 40
43.0
 40
44.0
 40
44.0
 40
44.0
 40
45.0
 40
45.0
 40
45.0
 40
46.0
 40
46.0
 40
46.0
 40
47.0
 40
47.0
 40
47.0
 40
48.0
 40
48.0
 40
48.0
 40
49.0
 40
49.0
 40
49.0
 40
50.0
 40
50.0
 40
50.0
 40
51.0
 40
51.0
 40
51.0
 40
52.0
 40
52.0
 40
52.0
 40
53.0
 40
53.0
 40
53.0
 40
54.0
 40
54.0
 40
54.0
 40
55.0
 40
55.0
 40
55.0
 40
56.0
 40
56.0
 40
56.0
 40
57.0
 40
57.0
 40
57.0
 40
58.0
 40
58.0
 40
58.0
 40
59.0
 40
59.0
 40
59.0
 40
59.0
 10
83.66758895477756
 20
-167.9153319892712
 30
0.0
 10
83.66758895477756
 20
-167.9153319892712
 30
0.0
 10
83.03076305432911
 20
-167.9153319892712
 30
0.0
 10
83.03076305432911
 20
-167.9153319892712
 30
0.0
 10
82.81699487946936
 20
-167.9153319892712
 30
0.0
 10
82.60133190209272
 20
-167.919810613402
 30
0.0
 10
82.38756372723297
 20
-167.9325574666974
 30
0.0
 10
82.38756372723297
 20
-167.9325574666974
 30
0.0
 10
82.38756372723297
 20
-167.7251627184854
 30
0.0
 10
82.38756372723297
 20
-167.7251627184854
 30
0.0
 10
82.6097723860316
 20
-167.7379095717808
 30
0.0
 10
82.93343910687081
 20
-167.7420436863631
 30
0.0
 10
83.03076305432911
 20
-167.7420436863631
 30
0.0
 10
83.03076305432911
 20
-167.7420436863631
 30
0.0
 10
83.25073240106232
 20
-167.7420436863631
 30
0.0
 10
83.25073240106232
 20
-167.7420436863631
 30
0.0
 10
83.25073240106232
 20
-167.7420436863631
 30
0.0
 10
83.25073240106232
 20
-167.6004502619193
 30
0.0
 10
83.25073240106232
 20
-167.6004502619193
 30
0.0
 10
83.25073240106232
 20
-167.6004502619193
 30
0.0
 10
83.09001869667541
 20
-167.6004502619193
 30
0.0
 10
83.09001869667541
 20
-167.6004502619193
 30
0.0
 10
82.92499862293195
 20
-167.6004502619193
 30
0.0
 10
82.75997854918847
 20
-167.6045843765016
 30
0.0
 10
82.59495847544501
 20
-167.6193982870882
 30
0.0
 10
82.59495847544501
 20
-167.6193982870882
 30
0.0
 10
82.59495847544501
 20
-167.409936481585
 30
0.0
 10
82.59495847544501
 20
-167.409936481585
 30
0.0
 10
82.76635197583619
 20
-167.4247503921716
 30
0.0
 10
83.01388208645139
 20
-167.4288845067539
 30
0.0
 10
83.09001869667541
 20
-167.4288845067539
 30
0.0
 10
83.09001869667541
 20
-167.4288845067539
 30
0.0
 10
83.25073240106232
 20
-167.4288845067539
 30
0.0
 10
83.25073240106232
 20
-167.4288845067539
 30
0.0
 10
83.24659828648002
 20
-167.3568820111122
 30
0.0
 10
83.24659828648002
 20
-167.3506808392387
 30
0.0
 10
83.24022485983231
 20
-167.2976263687659
 30
0.0
 10
83.24022485983231
 20
-167.2976263687659
 30
0.0
 10
83.37975122698492
 20
-167.3124402793524
 30
0.0
 10
83.37975122698492
 20
-167.3124402793524
 30
0.0
 10
83.37975122698492
 20
-167.3124402793524
 30
0.0
 10
83.28036022223547
 20
-167.1412190337355
 30
0.0
 10
83.28036022223547
 20
-167.1412190337355
 30
0.0
 10
83.32686901128635
 20
-167.147420205609
 30
0.0
 10
83.40093856421922
 20
-167.1560329443221
 30
0.0
 10
83.41781953209694
 20
-167.1560329443221
 30
0.0
 10
83.46863469050437
 20
-167.1560329443221
 30
0.0
 10
83.4855156583821
 20
-167.1350178618621
 30
0.0
 10
83.4855156583821
 20
-167.0778292768069
 30
0.0
 10
83.4855156583821
 20
-167.0778292768069
 30
0.0
 10
83.4855156583821
 20
-166.9403699669455
 30
0.0
 10
83.4855156583821
 20
-166.9403699669455
 30
0.0
 10
83.4855156583821
 20
-166.9403699669455
 30
0.0
 10
83.37975122698492
 20
-166.9403699669455
 30
0.0
 10
83.37975122698492
 20
-166.9403699669455
 30
0.0
 10
83.24659828648002
 20
-166.9403699669455
 30
0.0
 10
83.09001869667541
 20
-166.9403699669455
 30
0.0
 10
82.96720104262626
 20
-166.9527723106924
 30
0.0
 10
82.96720104262626
 20
-166.9527723106924
 30
0.0
 10
82.96720104262626
 20
-166.7626030399066
 30
0.0
 10
82.96720104262626
 20
-166.7626030399066
 30
0.0
 10
83.13446042843513
 20
-166.7794840077843
 30
0.0
 10
83.36493731639835
 20
-166.7815510650755
 30
0.0
 10
83.37975122698492
 20
-166.7815510650755
 30
0.0
 10
83.37975122698492
 20
-166.7815510650755
 30
0.0
 10
83.4855156583821
 20
-166.7815510650755
 30
0.0
 10
83.4855156583821
 20
-166.7815510650755
 30
0.0
 10
83.4855156583821
 20
-166.7815510650755
 30
0.0
 10
83.4855156583821
 20
-166.6502929270874
 30
0.0
 10
83.4855156583821
 20
-166.6502929270874
 30
0.0
 10
83.4855156583821
 20
-166.6502929270874
 30
0.0
 10
83.44744735327009
 20
-166.6502929270874
 30
0.0
 10
83.44744735327009
 20
-166.6502929270874
 30
0.0
 10
83.40300562151036
 20
-166.6502929270874
 30
0.0
 10
83.27829316494432
 20
-166.6547715512183
 30
0.0
 10
83.18940970142488
 20
-166.6630397803829
 30
0.0
 10
83.18940970142488
 20
-166.6630397803829
 30
0.0
 10
83.18940970142488
 20
-166.5827690555765
 30
0.0
 10
83.18940970142488
 20
-166.5827690555765
 30
0.0
 10
83.13652748572629
 20
-166.6206651059143
 30
0.0
 10
83.1112060339097
 20
-166.6354790165009
 30
0.0
 10
83.06883135944113
 20
-166.6589056658005
 30
0.0
 10
83.06883135944113
 20
-166.6589056658005
 30
0.0
 10
82.88055689117222
 20
-166.5297145851037
 30
0.0
 10
82.88055689117222
 20
-166.5297145851037
 30
0.0
 10
82.9587605586874
 20
-166.4959526493483
 30
0.0
 10
83.115340148492
 20
-166.4325628924196
 30
0.0
 10
83.2719197382966
 20
-166.2885579011362
 30
0.0
 10
83.35442977516834
 20
-166.210354233621
 30
0.0
 10
83.43263344268351
 20
-166.1259493942324
 30
0.0
 10
83.4855156583821
 20
-166.0243190774175
 30
0.0
 10
83.4855156583821
 20
-166.0243190774175
 30
0.0
 10
83.69704452117644
 20
-166.085641777055
 30
0.0
 10
83.69704452117644
 20
-166.085641777055
 30
0.0
 10
83.71616480111958
 20
-166.0918429489284
 30
0.0
 10
83.72667234234959
 20
-166.1004556876416
 30
0.0
 10
83.72667234234959
 20
-166.113202540937
 30
0.0
 10
83.72667234234959
 20
-166.1300835088147
 30
0.0
 10
83.71409774382842
 20
-166.1362846806882
 30
0.0
 10
83.68860403723758
 20
-166.1490315339836
 30
0.0
 10
83.76904701681816
 20
-166.2465277362162
 30
0.0
 10
83.93200003327047
 20
-166.3436794289002
 30
0.0
 10
83.96576196902592
 20
-166.3626274540691
 30
0.0
 10
84.11596813218281
 20
-166.4515109175885
 30
0.0
 10
84.23017304751885
 20
-166.4790716814705
 30
0.0
 10
84.30854896980829
 20
-166.4980197066394
 30
0.0
 10
84.30854896980829
 20
-166.4980197066394
 30
0.0
 10
84.19003768511568
 20
-166.6675184045137
 30
0.0
 10
84.19003768511568
 20
-166.6675184045137
 30
0.0
 10
84.1054605909528
 20
-166.6378905833405
 30
0.0
 10
84.05464543254537
 20
-166.6185980486231
 30
0.0
 10
83.93613414785277
 20
-166.5531412344034
 30
0.0
 10
83.93613414785277
 20
-166.5531412344034
 30
0.0
 10
83.93613414785277
 20
-166.6630397803829
 30
0.0
 10
83.93613414785277
 20
-166.6630397803829
 30
0.0
 10
83.85362411098104
 20
-166.6547715512183
 30
0.0
 10
83.72667234234959
 20
-166.6502929270874
 30
0.0
 10
83.673790126651
 20
-166.6502929270874
 30
0.0
 10
83.673790126651
 20
-166.6502929270874
 30
0.0
 10
83.673790126651
 20
-166.7815510650755
 30
0.0
 10
83.673790126651
 20
-166.7815510650755
 30
0.0
 10
83.673790126651
 20
-166.7815510650755
 30
0.0
 10
83.79436846863474
 20
-166.7815510650755
 30
0.0
 10
83.79436846863474
 20
-166.7815510650755
 30
0.0
 10
83.79660778070016
 20
-166.7815510650755
 30
0.0
 10
84.02932398072879
 20
-166.7794840077843
 30
0.0
 10
84.20691865299341
 20
-166.7626030399066
 30
0.0
 10
84.20691865299341
 20
-166.7626030399066
 30
0.0
 10
84.20691865299341
 20
-166.9527723106924
 30
0.0
 10
84.20691865299341
 20
-166.9527723106924
 30
0.0
 10
84.07789982707081
 20
-166.9403699669455
 30
0.0
 10
83.9213202372662
 20
-166.9403699669455
 30
0.0
 10
83.79436846863474
 20
-166.9403699669455
 30
0.0
 10
83.79436846863474
 20
-166.9403699669455
 30
0.0
 10
83.673790126651
 20
-166.9403699669455
 30
0.0
 10
83.673790126651
 20
-166.9403699669455
 30
0.0
 10
83.673790126651
 20
-166.9403699669455
 30
0.0
 10
83.673790126651
 20
-167.1667127403264
 30
0.0
 10
83.673790126651
 20
-167.1667127403264
 30
0.0
 10
83.673790126651
 20
-167.285224025019
 30
0.0
 10
83.64846867483442
 20
-167.3210530180656
 30
0.0
 10
83.48775497044751
 20
-167.3358669286522
 30
0.0
 10
83.49188908502981
 20
-167.354814953821
 30
0.0
 10
83.4855156583821
 20
-167.3654947498253
 30
0.0
 10
83.44744735327009
 20
-167.3885768895765
 30
0.0
 10
83.44538029597894
 20
-167.4078694242939
 30
0.0
 10
83.44538029597894
 20
-167.4140705961673
 30
0.0
 10
83.4433132386878
 20
-167.4288845067539
 30
0.0
 10
83.4433132386878
 20
-167.4288845067539
 30
0.0
 10
83.58077254854925
 20
-167.4288845067539
 30
0.0
 10
83.58077254854925
 20
-167.4288845067539
 30
0.0
 10
83.74579262229273
 20
-167.4288845067539
 30
0.0
 10
83.91287975332735
 20
-167.4247503921716
 30
0.0
 10
84.07996688436195
 20
-167.409936481585
 30
0.0
 10
84.07996688436195
 20
-167.409936481585
 30
0.0
 10
84.07996688436195
 20
-167.6173312297971
 30
0.0
 10
84.07996688436195
 20
-167.6173312297971
 30
0.0
 10
83.86430390698531
 20
-167.6004502619193
 30
0.0
 10
83.59989282849239
 20
-167.6004502619193
 30
0.0
 10
83.58077254854925
 20
-167.6004502619193
 30
0.0
 10
83.58077254854925
 20
-167.6004502619193
 30
0.0
 10
83.44107392662238
 20
-167.6004502619193
 30
0.0
 10
83.44107392662238
 20
-167.6004502619193
 30
0.0
 10
83.44107392662238
 20
-167.6004502619193
 30
0.0
 10
83.44107392662238
 20
-167.7420436863631
 30
0.0
 10
83.44107392662238
 20
-167.7420436863631
 30
0.0
 10
83.44107392662238
 20
-167.7420436863631
 30
0.0
 10
83.66758895477756
 20
-167.7420436863631
 30
0.0
 10
83.66758895477756
 20
-167.7420436863631
 30
0.0
 10
83.8832519321542
 20
-167.7420436863631
 30
0.0
 10
84.10115422159625
 20
-167.7379095717808
 30
0.0
 10
84.31698945374714
 20
-167.7251627184854
 30
0.0
 10
84.31698945374714
 20
-167.7251627184854
 30
0.0
 10
84.31698945374714
 20
-167.9325574666974
 30
0.0
 10
84.31698945374714
 20
-167.9325574666974
 30
0.0
 10
84.03552515260223
 20
-167.9153319892712
 30
0.0
 10
83.69084334930298
 20
-167.9153319892712
 30
0.0
 10
83.66758895477756
 20
-167.9153319892712
 30
0.0
  0
SPLINE
  5
BC
330
B6
100
AcDbEntity
  8
_U+30EC_U+30A4_U+30E4_U+30FC 1
370
     0
100
AcDbSpline
210
0.0
220
0.0
230
1.0
 70
    11
 71
     3
 72
    23
 73
    19
 74
     0
 42
0.0000000001
 43
0.0000000001
 12
1.0
 22
0.0
 32
0.0
 13
1.0
 23
0.0
 33
0.0
 40
0.0
 40
0.0
 40
0.0
 40
0.0
 40
1.0
 40
1.0
 40
1.0
 40
2.0
 40
2.0
 40
2.0
 40
3.0
 40
3.0
 40
3.0
 40
4.0
 40
4.0
 40
4.0
 40
5.0
 40
5.0
 40
5.0
 40
6.0
 40
6.0
 40
6.0
 40
6.0
 10
82.54844968639414
 20
-167.2872910823101
 30
0.0
 10
82.54844968639414
 20
-167.3083061647702
 30
0.0
 10
82.5505167436853
 20
-167.3465467246564
 30
0.0
 10
82.5251952918687
 20
-167.3465467246564
 30
0.0
 10
82.51451549586443
 20
-167.3465467246564
 30
0.0
 10
82.50607501192557
 20
-167.3400010432345
 30
0.0
 10
82.49556747069556
 20
-167.3231200753567
 30
0.0
 10
82.49556747069556
 20
-167.3231200753567
 30
0.0
 10
82.39187009658954
 20
-167.1412190337355
 30
0.0
 10
82.39187009658954
 20
-167.1412190337355
 30
0.0
 10
82.60770532874044
 20
-167.0120279530387
 30
0.0
 10
82.80442028094821
 20
-166.7350422760246
 30
0.0
 10
82.85092906999908
 20
-166.6630397803829
 30
0.0
 10
82.85092906999908
 20
-166.6630397803829
 30
0.0
 10
82.9229315656408
 20
-166.8428737647129
 30
0.0
 10
82.9229315656408
 20
-166.8428737647129
 30
0.0
 10
82.78960637036162
 20
-167.0395887169207
 30
0.0
 10
82.6139065006139
 20
-167.223556815833
 30
0.0
 10
82.54844968639414
 20
-167.2872910823101
 30
0.0
  0
SPLINE
  5
BD
330
B6
100
AcDbEntity
  8
_U+30EC_U+30A4_U+30E4_U+30FC 1
370
     0
100
AcDbSpline
210
0.0
220
0.0
230
1.0
 70
    11
 71
     3
 72
    17
 73
    13
 74
     0
 42
0.0000000001
 43
0.0000000001
 12
1.0
 22
0.0
 32
0.0
 13
1.0
 23
0.0
 33
0.0
 40
0.0
 40
0.0
 40
0.0
 40
0.0
 40
1.0
 40
1.0
 40
1.0
 40
2.0
 40
2.0
 40
2.0
 40
3.0
 40
3.0
 40
3.0
 40
4.0
 40
4.0
 40
4.0
 40
4.0
 10
82.8021809688828
 20
-166.3922552752422
 30
0.0
 10
82.74085826924535
 20
-166.3161186650182
 30
0.0
 10
82.61183944332274
 20
-166.2399820547942
 30
0.0
 10
82.50814206921672
 20
-166.210354233621
 30
0.0
 10
82.50814206921672
 20
-166.210354233621
 30
0.0
 10
82.60339895938388
 20
-166.0453341598776
 30
0.0
 10
82.60339895938388
 20
-166.0453341598776
 30
0.0
 10
82.70502927619874
 20
-166.0815076624727
 30
0.0
 10
82.81079370759592
 20
-166.1383517379793
 30
0.0
 10
82.8995049163411
 20
-166.2189669723342
 30
0.0
 10
82.8995049163411
 20
-166.2189669723342
 30
0.0
 10
82.8021809688828
 20
-166.3922552752422
 30
0.0
 10
82.8021809688828
 20
-166.3922552752422
 30
0.0
  0
SPLINE
  5
BE
330
B6
100
AcDbEntity
  8
_U+30EC_U+30A4_U+30E4_U+30FC 1
370
     0
100
AcDbSpline
210
0.0
220
0.0
230
1.0
 70
    11
 71
     3
 72
    23
 73
    19
 74
     0
 42
0.0000000001
 43
0.0000000001
 12
1.0
 22
0.0
 32
0.0
 13
1.0
 23
0.0
 33
0.0
 40
0.0
 40
0.0
 40
0.0
 40
0.0
 40
1.0
 40
1.0
 40
1.0
 40
2.0
 40
2.0
 40
2.0
 40
3.0
 40
3.0
 40
3.0
 40
4.0
 40
4.0
 40
4.0
 40
5.0
 40
5.0
 40
5.0
 40
6.0
 40
6.0
 40
6.0
 40
6.0
 10
83.25503877041888
 20
-167.0967773019758
 30
0.0
 10
83.2338514331846
 20
-167.1202039512755
 30
0.0
 10
83.13652748572629
 20
-167.2321695545461
 30
0.0
 10
82.99682886379941
 20
-167.3124402793524
 30
0.0
 10
82.99682886379941
 20
-167.3124402793524
 30
0.0
 10
82.82974173276479
 20
-167.1918619373687
 30
0.0
 10
82.82974173276479
 20
-167.1918619373687
 30
0.0
 10
82.97994789592168
 20
-167.1157253271447
 30
0.0
 10
83.07933890067115
 20
-167.0206406917518
 30
0.0
 10
83.12808700178742
 20
-166.9675862212789
 30
0.0
 10
83.12808700178742
 20
-166.9675862212789
 30
0.0
 10
83.30154755946975
 20
-167.0502685129249
 30
0.0
 10
83.30154755946975
 20
-167.0502685129249
 30
0.0
 10
83.30998804340862
 20
-167.0544026275072
 30
0.0
 10
83.31842852734748
 20
-167.0609483089292
 30
0.0
 10
83.31842852734748
 20
-167.071283595385
 30
0.0
 10
83.31842852734748
 20
-167.0967773019758
 30
0.0
 10
83.28242727952662
 20
-167.0967773019758
 30
0.0
 10
83.25503877041888
 20
-167.0967773019758
 30
0.0
  0
SPLINE
  5
BF
330
B6
100
AcDbEntity
  8
_U+30EC_U+30A4_U+30E4_U+30FC 1
370
     0
100
AcDbSpline
210
0.0
220
0.0
230
1.0
 70
    11
 71
     3
 72
    20
 73
    16
 74
     0
 42
0.0000000001
 43
0.0000000001
 12
1.0
 22
0.0
 32
0.0
 13
1.0
 23
0.0
 33
0.0
 40
0.0
 40
0.0
 40
0.0
 40
0.0
 40
1.0
 40
1.0
 40
1.0
 40
2.0
 40
2.0
 40
2.0
 40
3.0
 40
3.0
 40
3.0
 40
4.0
 40
4.0
 40
4.0
 40
5.0
 40
5.0
 40
5.0
 40
5.0
 10
83.55321178466725
 20
-166.2547959653808
 30
0.0
 10
83.51514347955525
 20
-166.3033718117228
 30
0.0
 10
83.4538207799178
 20
-166.3819199887865
 30
0.0
 10
83.31429441276518
 20
-166.4918185347659
 30
0.0
 10
83.3945651375715
 20
-166.4959526493483
 30
0.0
 10
83.42419295874465
 20
-166.4959526493483
 30
0.0
 10
83.44744735327009
 20
-166.4959526493483
 30
0.0
 10
83.44744735327009
 20
-166.4959526493483
 30
0.0
 10
83.67602943871641
 20
-166.4959526493483
 30
0.0
 10
83.67602943871641
 20
-166.4959526493483
 30
0.0
 10
83.7077243171807
 20
-166.4959526493483
 30
0.0
 10
83.75630016352274
 20
-166.4938855920571
 30
0.0
 10
83.8303697164556
 20
-166.4918185347659
 30
0.0
 10
83.71823185841072
 20
-166.4177489818331
 30
0.0
 10
83.6696560120687
 20
-166.3712401927822
 30
0.0
 10
83.55321178466725
 20
-166.2547959653808
 30
0.0
  0
SPLINE
  5
C0
330
B6
100
AcDbEntity
  8
_U+30EC_U+30A4_U+30E4_U+30FC 1
370
     0
100
AcDbSpline
210
0.0
220
0.0
230
1.0
 70
    11
 71
     3
 72
    17
 73
    13
 74
     0
 42
0.0000000001
 43
0.0000000001
 12
1.0
 22
0.0
 32
0.0
 13
1.0
 23
0.0
 33
0.0
 40
0.0
 40
0.0
 40
0.0
 40
0.0
 40
1.0
 40
1.0
 40
1.0
 40
2.0
 40
2.0
 40
2.0
 40
3.0
 40
3.0
 40
3.0
 40
4.0
 40
4.0
 40
4.0
 40
4.0
 10
84.11390107489167
 20
-167.3103732220613
 30
0.0
 10
83.97850882232134
 20
-167.1984076187907
 30
0.0
 10
83.87274439092418
 20
-167.1350178618621
 30
0.0
 10
83.75423310623158
 20
-167.071283595385
 30
0.0
 10
83.75423310623158
 20
-167.071283595385
 30
0.0
 10
83.88118487486304
 20
-166.9593179921143
 30
0.0
 10
83.88118487486304
 20
-166.9593179921143
 30
0.0
 10
84.0122707580768
 20
-167.0058267811652
 30
0.0
 10
84.12234155883053
 20
-167.0630153662204
 30
0.0
 10
84.24722627017084
 20
-167.1646456830352
 30
0.0
 10
84.24722627017084
 20
-167.1646456830352
 30
0.0
 10
84.11390107489167
 20
-167.3103732220613
 30
0.0
 10
84.11390107489167
 20
-167.3103732220613
 30
0.0
  0
HATCH
  5
C1
330
B6
100
AcDbEntity
  8
_U+30EC_U+30A4_U+30E4_U+30FC 1
 62
   179
420
  2234388
100
AcDbHatch
 10
0.0
 20
0.0
 30
0.0
210
0.0
220
0.0
230
1.0
  2
SOLID
 70
     1
 71
     0
 91
        7
 92
        1
 93
        1
 72
     4
 94
        3
 73
     0
 74
     1
 95
       17
 96
       13
 40
0.0
 40
0.0
 40
0.0
 40
0.0
 40
1.0
 40
1.0
 40
1.0
 40
2.0
 40
2.0
 40
2.0
 40
3.0
 40
3.0
 40
3.0
 40
4.0
 40
4.0
 40
4.0
 40
4.0
 10
82.62251923932702
 20
-166.7371093333157
 10
82.51675480792984
 20
-166.6313449019186
 10
82.43631182834926
 20
-166.5934488515808
 10
82.34312199547325
 20
-166.561409463568
 10
82.34312199547325
 20
-166.561409463568
 10
82.45319279622699
 20
-166.396733899373
 10
82.45319279622699
 20
-166.396733899373
 10
82.5505167436853
 20
-166.4387640642931
 10
82.67109508566904
 20
-166.5173122413568
 10
82.72397730136763
 20
-166.5720892595723
 10
82.72397730136763
 20
-166.5720892595723
 10
82.62251923932702
 20
-166.7371093333157
 10
82.62251923932702
 20
-166.7371093333157
 97
        0
 97
        0
 92
        1
 93
        1
 72
     4
 94
        3
 73
     0
 74
     1
 95
      182
 96
      178
 40
0.0
 40
0.0
 40
0.0
 40
0.0
 40
1.0
 40
1.0
 40
1.0
 40
2.0
 40
2.0
 40
2.0
 40
3.0
 40
3.0
 40
3.0
 40
4.0
 40
4.0
 40
4.0
 40
5.0
 40
5.0
 40
5.0
 40
6.0
 40
6.0
 40
6.0
 40
7.0
 40
7.0
 40
7.0
 40
8.0
 40
8.0
 40
8.0
 40
9.0
 40
9.0
 40
9.0
 40
10.0
 40
10.0
 40
10.0
 40
11.0
 40
11.0
 40
11.0
 40
12.0
 40
12.0
 40
12.0
 40
13.0
 40
13.0
 40
13.0
 40
14.0
 40
14.0
 40
14.0
 40
15.0
 40
15.0
 40
15.0
 40
16.0
 40
16.0
 40
16.0
 40
17.0
 40
17.0
 40
17.0
 40
18.0
 40
18.0
 40
18.0
 40
19.0
 40
19.0
 40
19.0
 40
20.0
 40
20.0
 40
20.0
 40
21.0
 40
21.0
 40
21.0
 40
22.0
 40
22.0
 40
22.0
 40
23.0
 40
23.0
 40
23.0
 40
24.0
 40
24.0
 40
24.0
 40
25.0
 40
25.0
 40
25.0
 40
26.0
 40
26.0
 40
26.0
 40
27.0
 40
27.0
 40
27.0
 40
28.0
 40
28.0
 40
28.0
 40
29.0
 40
29.0
 40
29.0
 40
30.0
 40
30.0
 40
30.0
 40
31.0
 40
31.0
 40
31.0
 40
32.0
 40
32.0
 40
32.0
 40
33.0
 40
33.0
 40
33.0
 40
34.0
 40
34.0
 40
34.0
 40
35.0
 40
35.0
 40
35.0
 40
36.0
 40
36.0
 40
36.0
 40
37.0
 40
37.0
 40
37.0
 40
38.0
 40
38.0
 40
38.0
 40
39.0
 40
39.0
 40
39.0
 40
40.0
 40
40.0
 40
40.0
 40
41.0
 40
41.0
 40
41.0
 40
42.0
 40
42.0
 40
42.0
 40
43.0
 40
43.0
 40
43.0
 40
44.0
 40
44.0
 40
44.0
 40
45.0
 40
45.0
 40
45.0
 40
46.0
 40
46.0
 40
46.0
 40
47.0
 40
47.0
 40
47.0
 40
48.0
 40
48.0
 40
48.0
 40
49.0
 40
49.0
 40
49.0
 40
50.0
 40
50.0
 40
50.0
 40
51.0
 40
51.0
 40
51.0
 40
52.0
 40
52.0
 40
52.0
 40
53.0
 40
53.0
 40
53.0
 40
54.0
 40
54.0
 40
54.0
 40
55.0
 40
55.0
 40
55.0
 40
56.0
 40
56.0
 40
56.0
 40
57.0
 40
57.0
 40
57.0
 40
58.0
 40
58.0
 40
58.0
 40
59.0
 40
59.0
 40
59.0
 40
59.0
 10
83.66758895477756
 20
-167.9153319892712
 10
83.66758895477756
 20
-167.9153319892712
 10
83.03076305432911
 20
-167.9153319892712
 10
83.03076305432911
 20
-167.9153319892712
 10
82.81699487946936
 20
-167.9153319892712
 10
82.60133190209272
 20
-167.919810613402
 10
82.38756372723297
 20
-167.9325574666974
 10
82.38756372723297
 20
-167.9325574666974
 10
82.38756372723297
 20
-167.7251627184854
 10
82.38756372723297
 20
-167.7251627184854
 10
82.6097723860316
 20
-167.7379095717808
 10
82.93343910687081
 20
-167.7420436863631
 10
83.03076305432911
 20
-167.7420436863631
 10
83.03076305432911
 20
-167.7420436863631
 10
83.25073240106232
 20
-167.7420436863631
 10
83.25073240106232
 20
-167.7420436863631
 10
83.25073240106232
 20
-167.7420436863631
 10
83.25073240106232
 20
-167.6004502619193
 10
83.25073240106232
 20
-167.6004502619193
 10
83.25073240106232
 20
-167.6004502619193
 10
83.09001869667541
 20
-167.6004502619193
 10
83.09001869667541
 20
-167.6004502619193
 10
82.92499862293195
 20
-167.6004502619193
 10
82.75997854918847
 20
-167.6045843765016
 10
82.59495847544501
 20
-167.6193982870882
 10
82.59495847544501
 20
-167.6193982870882
 10
82.59495847544501
 20
-167.409936481585
 10
82.59495847544501
 20
-167.409936481585
 10
82.76635197583619
 20
-167.4247503921716
 10
83.01388208645139
 20
-167.4288845067539
 10
83.09001869667541
 20
-167.4288845067539
 10
83.09001869667541
 20
-167.4288845067539
 10
83.25073240106232
 20
-167.4288845067539
 10
83.25073240106232
 20
-167.4288845067539
 10
83.24659828648002
 20
-167.3568820111122
 10
83.24659828648002
 20
-167.3506808392387
 10
83.24022485983231
 20
-167.2976263687659
 10
83.24022485983231
 20
-167.2976263687659
 10
83.37975122698492
 20
-167.3124402793524
 10
83.37975122698492
 20
-167.3124402793524
 10
83.37975122698492
 20
-167.3124402793524
 10
83.28036022223547
 20
-167.1412190337355
 10
83.28036022223547
 20
-167.1412190337355
 10
83.32686901128635
 20
-167.147420205609
 10
83.40093856421922
 20
-167.1560329443221
 10
83.41781953209694
 20
-167.1560329443221
 10
83.46863469050437
 20
-167.1560329443221
 10
83.4855156583821
 20
-167.1350178618621
 10
83.4855156583821
 20
-167.0778292768069
 10
83.4855156583821
 20
-167.0778292768069
 10
83.4855156583821
 20
-166.9403699669455
 10
83.4855156583821
 20
-166.9403699669455
 10
83.4855156583821
 20
-166.9403699669455
 10
83.37975122698492
 20
-166.9403699669455
 10
83.37975122698492
 20
-166.9403699669455
 10
83.24659828648002
 20
-166.9403699669455
 10
83.09001869667541
 20
-166.9403699669455
 10
82.96720104262626
 20
-166.9527723106924
 10
82.96720104262626
 20
-166.9527723106924
 10
82.96720104262626
 20
-166.7626030399066
 10
82.96720104262626
 20
-166.7626030399066
 10
83.13446042843513
 20
-166.7794840077843
 10
83.36493731639835
 20
-166.7815510650755
 10
83.37975122698492
 20
-166.7815510650755
 10
83.37975122698492
 20
-166.7815510650755
 10
83.4855156583821
 20
-166.7815510650755
 10
83.4855156583821
 20
-166.7815510650755
 10
83.4855156583821
 20
-166.7815510650755
 10
83.4855156583821
 20
-166.6502929270874
 10
83.4855156583821
 20
-166.6502929270874
 10
83.4855156583821
 20
-166.6502929270874
 10
83.44744735327009
 20
-166.6502929270874
 10
83.44744735327009
 20
-166.6502929270874
 10
83.40300562151036
 20
-166.6502929270874
 10
83.27829316494432
 20
-166.6547715512183
 10
83.18940970142488
 20
-166.6630397803829
 10
83.18940970142488
 20
-166.6630397803829
 10
83.18940970142488
 20
-166.5827690555765
 10
83.18940970142488
 20
-166.5827690555765
 10
83.13652748572629
 20
-166.6206651059143
 10
83.1112060339097
 20
-166.6354790165009
 10
83.06883135944113
 20
-166.6589056658005
 10
83.06883135944113
 20
-166.6589056658005
 10
82.88055689117222
 20
-166.5297145851037
 10
82.88055689117222
 20
-166.5297145851037
 10
82.9587605586874
 20
-166.4959526493483
 10
83.115340148492
 20
-166.4325628924196
 10
83.2719197382966
 20
-166.2885579011362
 10
83.35442977516834
 20
-166.210354233621
 10
83.43263344268351
 20
-166.1259493942324
 10
83.4855156583821
 20
-166.0243190774175
 10
83.4855156583821
 20
-166.0243190774175
 10
83.69704452117644
 20
-166.085641777055
 10
83.69704452117644
 20
-166.085641777055
 10
83.71616480111958
 20
-166.0918429489284
 10
83.72667234234959
 20
-166.1004556876416
 10
83.72667234234959
 20
-166.113202540937
 10
83.72667234234959
 20
-166.1300835088147
 10
83.71409774382842
 20
-166.1362846806882
 10
83.68860403723758
 20
-166.1490315339836
 10
83.76904701681816
 20
-166.2465277362162
 10
83.93200003327047
 20
-166.3436794289002
 10
83.96576196902592
 20
-166.3626274540691
 10
84.11596813218281
 20
-166.4515109175885
 10
84.23017304751885
 20
-166.4790716814705
 10
84.30854896980829
 20
-166.4980197066394
 10
84.30854896980829
 20
-166.4980197066394
 10
84.19003768511568
 20
-166.6675184045137
 10
84.19003768511568
 20
-166.6675184045137
 10
84.1054605909528
 20
-166.6378905833405
 10
84.05464543254537
 20
-166.6185980486231
 10
83.93613414785277
 20
-166.5531412344034
 10
83.93613414785277
 20
-166.5531412344034
 10
83.93613414785277
 20
-166.6630397803829
 10
83.93613414785277
 20
-166.6630397803829
 10
83.85362411098104
 20
-166.6547715512183
 10
83.72667234234959
 20
-166.6502929270874
 10
83.673790126651
 20
-166.6502929270874
 10
83.673790126651
 20
-166.6502929270874
 10
83.673790126651
 20
-166.7815510650755
 10
83.673790126651
 20
-166.7815510650755
 10
83.673790126651
 20
-166.7815510650755
 10
83.79436846863474
 20
-166.7815510650755
 10
83.79436846863474
 20
-166.7815510650755
 10
83.79660778070016
 20
-166.7815510650755
 10
84.02932398072879
 20
-166.7794840077843
 10
84.20691865299341
 20
-166.7626030399066
 10
84.20691865299341
 20
-166.7626030399066
 10
84.20691865299341
 20
-166.9527723106924
 10
84.20691865299341
 20
-166.9527723106924
 10
84.07789982707081
 20
-166.9403699669455
 10
83.9213202372662
 20
-166.9403699669455
 10
83.79436846863474
 20
-166.9403699669455
 10
83.79436846863474
 20
-166.9403699669455
 10
83.673790126651
 20
-166.9403699669455
 10
83.673790126651
 20
-166.9403699669455
 10
83.673790126651
 20
-166.9403699669455
 10
83.673790126651
 20
-167.1667127403264
 10
83.673790126651
 20
-167.1667127403264
 10
83.673790126651
 20
-167.285224025019
 10
83.64846867483442
 20
-167.3210530180656
 10
83.48775497044751
 20
-167.3358669286522
 10
83.49188908502981
 20
-167.354814953821
 10
83.4855156583821
 20
-167.3654947498253
 10
83.44744735327009
 20
-167.3885768895765
 10
83.44538029597894
 20
-167.4078694242939
 10
83.44538029597894
 20
-167.4140705961673
 10
83.4433132386878
 20
-167.4288845067539
 10
83.4433132386878
 20
-167.4288845067539
 10
83.58077254854925
 20
-167.4288845067539
 10
83.58077254854925
 20
-167.4288845067539
 10
83.74579262229273
 20
-167.4288845067539
 10
83.91287975332735
 20
-167.4247503921716
 10
84.07996688436195
 20
-167.409936481585
 10
84.07996688436195
 20
-167.409936481585
 10
84.07996688436195
 20
-167.6173312297971
 10
84.07996688436195
 20
-167.6173312297971
 10
83.86430390698531
 20
-167.6004502619193
 10
83.59989282849239
 20
-167.6004502619193
 10
83.58077254854925
 20
-167.6004502619193
 10
83.58077254854925
 20
-167.6004502619193
 10
83.44107392662238
 20
-167.6004502619193
 10
83.44107392662238
 20
-167.6004502619193
 10
83.44107392662238
 20
-167.6004502619193
 10
83.44107392662238
 20
-167.7420436863631
 10
83.44107392662238
 20
-167.7420436863631
 10
83.44107392662238
 20
-167.7420436863631
 10
83.66758895477756
 20
-167.7420436863631
 10
83.66758895477756
 20
-167.7420436863631
 10
83.8832519321542
 20
-167.7420436863631
 10
84.10115422159625
 20
-167.7379095717808
 10
84.31698945374714
 20
-167.7251627184854
 10
84.31698945374714
 20
-167.7251627184854
 10
84.31698945374714
 20
-167.9325574666974
 10
84.31698945374714
 20
-167.9325574666974
 10
84.03552515260223
 20
-167.9153319892712
 10
83.69084334930298
 20
-167.9153319892712
 10
83.66758895477756
 20
-167.9153319892712
 97
        0
 97
        0
 92
        1
 93
        1
 72
     4
 94
        3
 73
     0
 74
     1
 95
       23
 96
       19
 40
0.0
 40
0.0
 40
0.0
 40
0.0
 40
1.0
 40
1.0
 40
1.0
 40
2.0
 40
2.0
 40
2.0
 40
3.0
 40
3.0
 40
3.0
 40
4.0
 40
4.0
 40
4.0
 40
5.0
 40
5.0
 40
5.0
 40
6.0
 40
6.0
 40
6.0
 40
6.0
 10
82.54844968639414
 20
-167.2872910823101
 10
82.54844968639414
 20
-167.3083061647702
 10
82.5505167436853
 20
-167.3465467246564
 10
82.5251952918687
 20
-167.3465467246564
 10
82.51451549586443
 20
-167.3465467246564
 10
82.50607501192557
 20
-167.3400010432345
 10
82.49556747069556
 20
-167.3231200753567
 10
82.49556747069556
 20
-167.3231200753567
 10
82.39187009658954
 20
-167.1412190337355
 10
82.39187009658954
 20
-167.1412190337355
 10
82.60770532874044
 20
-167.0120279530387
 10
82.80442028094821
 20
-166.7350422760246
 10
82.85092906999908
 20
-166.6630397803829
 10
82.85092906999908
 20
-166.6630397803829
 10
82.9229315656408
 20
-166.8428737647129
 10
82.9229315656408
 20
-166.8428737647129
 10
82.78960637036162
 20
-167.0395887169207
 10
82.6139065006139
 20
-167.223556815833
 10
82.54844968639414
 20
-167.2872910823101
 97
        0
 97
        0
 92
        1
 93
        1
 72
     4
 94
        3
 73
     0
 74
     1
 95
       17
 96
       13
 40
0.0
 40
0.0
 40
0.0
 40
0.0
 40
1.0
 40
1.0
 40
1.0
 40
2.0
 40
2.0
 40
2.0
 40
3.0
 40
3.0
 40
3.0
 40
4.0
 40
4.0
 40
4.0
 40
4.0
 10
82.8021809688828
 20
-166.3922552752422
 10
82.74085826924535
 20
-166.3161186650182
 10
82.61183944332274
 20
-166.2399820547942
 10
82.50814206921672
 20
-166.210354233621
 10
82.50814206921672
 20
-166.210354233621
 10
82.60339895938388
 20
-166.0453341598776
 10
82.60339895938388
 20
-166.0453341598776
 10
82.70502927619874
 20
-166.0815076624727
 10
82.81079370759592
 20
-166.1383517379793
 10
82.8995049163411
 20
-166.2189669723342
 10
82.8995049163411
 20
-166.2189669723342
 10
82.8021809688828
 20
-166.3922552752422
 10
82.8021809688828
 20
-166.3922552752422
 97
        0
 97
        0
 92
        1
 93
        1
 72
     4
 94
        3
 73
     0
 74
     1
 95
       23
 96
       19
 40
0.0
 40
0.0
 40
0.0
 40
0.0
 40
1.0
 40
1.0
 40
1.0
 40
2.0
 40
2.0
 40
2.0
 40
3.0
 40
3.0
 40
3.0
 40
4.0
 40
4.0
 40
4.0
 40
5.0
 40
5.0
 40
5.0
 40
6.0
 40
6.0
 40
6.0
 40
6.0
 10
83.25503877041888
 20
-167.0967773019758
 10
83.2338514331846
 20
-167.1202039512755
 10
83.13652748572629
 20
-167.2321695545461
 10
82.99682886379941
 20
-167.3124402793524
 10
82.99682886379941
 20
-167.3124402793524
 10
82.82974173276479
 20
-167.1918619373687
 10
82.82974173276479
 20
-167.1918619373687
 10
82.97994789592168
 20
-167.1157253271447
 10
83.07933890067115
 20
-167.0206406917518
 10
83.12808700178742
 20
-166.9675862212789
 10
83.12808700178742
 20
-166.9675862212789
 10
83.30154755946975
 20
-167.0502685129249
 10
83.30154755946975
 20
-167.0502685129249
 10
83.30998804340862
 20
-167.0544026275072
 10
83.31842852734748
 20
-167.0609483089292
 10
83.31842852734748
 20
-167.071283595385
 10
83.31842852734748
 20
-167.0967773019758
 10
83.28242727952662
 20
-167.0967773019758
 10
83.25503877041888
 20
-167.0967773019758
 97
        0
 97
        0
 92
        1
 93
        1
 72
     4
 94
        3
 73
     0
 74
     1
 95
       20
 96
       16
 40
0.0
 40
0.0
 40
0.0
 40
0.0
 40
1.0
 40
1.0
 40
1.0
 40
2.0
 40
2.0
 40
2.0
 40
3.0
 40
3.0
 40
3.0
 40
4.0
 40
4.0
 40
4.0
 40
5.0
 40
5.0
 40
5.0
 40
5.0
 10
83.55321178466725
 20
-166.2547959653808
 10
83.51514347955525
 20
-166.3033718117228
 10
83.4538207799178
 20
-166.3819199887865
 10
83.31429441276518
 20
-166.4918185347659
 10
83.3945651375715
 20
-166.4959526493483
 10
83.42419295874465
 20
-166.4959526493483
 10
83.44744735327009
 20
-166.4959526493483
 10
83.44744735327009
 20
-166.4959526493483
 10
83.67602943871641
 20
-166.4959526493483
 10
83.67602943871641
 20
-166.4959526493483
 10
83.7077243171807
 20
-166.4959526493483
 10
83.75630016352274
 20
-166.4938855920571
 10
83.8303697164556
 20
-166.4918185347659
 10
83.71823185841072
 20
-166.4177489818331
 10
83.6696560120687
 20
-166.3712401927822
 10
83.55321178466725
 20
-166.2547959653808
 97
        0
 97
        0
 92
        1
 93
        1
 72
     4
 94
        3
 73
     0
 74
     1
 95
       17
 96
       13
 40
0.0
 40
0.0
 40
0.0
 40
0.0
 40
1.0
 40
1.0
 40
1.0
 40
2.0
 40
2.0
 40
2.0
 40
3.0
 40
3.0
 40
3.0
 40
4.0
 40
4.0
 40
4.0
 40
4.0
 10
84.11390107489167
 20
-167.3103732220613
 10
83.97850882232134
 20
-167.1984076187907
 10
83.87274439092418
 20
-167.1350178618621
 10
83.75423310623158
 20
-167.071283595385
 10
83.75423310623158
 20
-167.071283595385
 10
83.88118487486304
 20
-166.9593179921143
 10
83.88118487486304
 20
-166.9593179921143
 10
84.0122707580768
 20
-167.0058267811652
 10
84.12234155883053
 20
-167.0630153662204
 10
84.24722627017084
 20
-167.1646456830352
 10
84.24722627017084
 20
-167.1646456830352
 10
84.11390107489167
 20
-167.3103732220613
 10
84.11390107489167
 20
-167.3103732220613
 97
        0
 97
        0
 75
     2
 76
     1
 98
        0
  0
SPLINE
  5
C2
330
B6
100
AcDbEntity
  8
_U+30EC_U+30A4_U+30E4_U+30FC 1
370
     0
100
AcDbSpline
210
0.0
220
0.0
230
1.0
 70
    11
 71
     3
 72
   113
 73
   109
 74
     0
 42
0.0000000001
 43
0.0000000001
 12
1.0
 22
0.0
 32
0.0
 13
1.0
 23
0.0
 33
0.0
 40
0.0
 40
0.0
 40
0.0
 40
0.0
 40
1.0
 40
1.0
 40
1.0
 40
2.0
 40
2.0
 40
2.0
 40
3.0
 40
3.0
 40
3.0
 40
4.0
 40
4.0
 40
4.0
 40
5.0
 40
5.0
 40
5.0
 40
6.0
 40
6.0
 40
6.0
 40
7.0
 40
7.0
 40
7.0
 40
8.0
 40
8.0
 40
8.0
 40
9.0
 40
9.0
 40
9.0
 40
10.0
 40
10.0
 40
10.0
 40
11.0
 40
11.0
 40
11.0
 40
12.0
 40
12.0
 40
12.0
 40
13.0
 40
13.0
 40
13.0
 40
14.0
 40
14.0
 40
14.0
 40
15.0
 40
15.0
 40
15.0
 40
16.0
 40
16.0
 40
16.0
 40
17.0
 40
17.0
 40
17.0
 40
18.0
 40
18.0
 40
18.0
 40
19.0
 40
19.0
 40
19.0
 40
20.0
 40
20.0
 40
20.0
 40
21.0
 40
21.0
 40
21.0
 40
22.0
 40
22.0
 40
22.0
 40
23.0
 40
23.0
 40
23.0
 40
24.0
 40
24.0
 40
24.0
 40
25.0
 40
25.0
 40
25.0
 40
26.0
 40
26.0
 40
26.0
 40
27.0
 40
27.0
 40
27.0
 40
28.0
 40
28.0
 40
28.0
 40
29.0
 40
29.0
 40
29.0
 40
30.0
 40
30.0
 40
30.0
 40
31.0
 40
31.0
 40
31.0
 40
32.0
 40
32.0
 40
32.0
 40
33.0
 40
33.0
 40
33.0
 40
34.0
 40
34.0
 40
34.0
 40
35.0
 40
35.0
 40
35.0
 40
36.0
 40
36.0
 40
36.0
 40
36.0
 10
85.99354517164397
 20
-167.2872910823101
 30
0.0
 10
85.99354517164397
 20
-167.2872910823101
 30
0.0
 10
86.09310843116769
 20
-167.3865098322853
 30
0.0
 10
86.09310843116769
 20
-167.3865098322853
 30
0.0
 10
86.1036159723977
 20
-167.3971896282896
 30
0.0
 10
86.11412351362772
 20
-167.409936481585
 30
0.0
 10
86.11412351362772
 20
-167.4247503921716
 30
0.0
 10
86.11412351362772
 20
-167.4268174494628
 30
0.0
 10
86.11412351362772
 20
-167.4564452706359
 30
0.0
 10
86.07605520851571
 20
-167.4564452706359
 30
0.0
 10
86.06761472457686
 20
-167.4564452706359
 30
0.0
 10
86.0274793621737
 20
-167.4523111560536
 30
0.0
 10
86.02110593552598
 20
-167.4523111560536
 30
0.0
 10
85.98097057312282
 20
-167.4840060345179
 30
0.0
 10
85.93446178407194
 20
-167.5177679702734
 30
0.0
 10
85.83489852454822
 20
-167.5749565553285
 30
0.0
 10
85.98097057312282
 20
-167.6827880440168
 30
0.0
 10
86.13961722021857
 20
-167.7399766290719
 30
0.0
 10
86.41246878265036
 20
-167.7778726794097
 30
0.0
 10
86.41246878265036
 20
-167.7778726794097
 30
0.0
 10
86.26226261949347
 20
-167.9535725491575
 30
0.0
 10
86.26226261949347
 20
-167.9535725491575
 30
0.0
 10
85.99991859829169
 20
-167.8815700535157
 30
0.0
 10
85.84333900848709
 20
-167.7926865899963
 30
0.0
 10
85.76720239826307
 20
-167.7399766290719
 30
0.0
 10
85.61699623510617
 20
-167.6383463122571
 30
0.0
 10
85.47316349859699
 20
-167.4753932958048
 30
0.0
 10
85.39702688837296
 20
-167.3103732220613
 30
0.0
 10
85.3293307620878
 20
-167.3761745458296
 30
0.0
 10
85.25526120915494
 20
-167.4288845067539
 30
0.0
 10
85.17705754163977
 20
-167.4774603530959
 30
0.0
 10
85.17705754163977
 20
-167.4774603530959
 30
0.0
 10
85.17705754163977
 20
-167.7292968330677
 30
0.0
 10
85.17705754163977
 20
-167.7292968330677
 30
0.0
 10
85.33983830331782
 20
-167.7038031264768
 30
0.0
 10
85.52604571429558
 20
-167.6593613947171
 30
0.0
 10
85.58960772599843
 20
-167.6445474841305
 30
0.0
 10
85.58960772599843
 20
-167.6445474841305
 30
0.0
 10
85.55997990482528
 20
-167.8140461820048
 30
0.0
 10
85.55997990482528
 20
-167.8140461820048
 30
0.0
 10
85.55774059275987
 20
-167.8140461820048
 30
0.0
 10
85.538792567591
 20
-167.8202473538783
 30
0.0
 10
85.53672551029985
 20
-167.8202473538783
 30
0.0
 10
85.33777124602668
 20
-167.8584879137645
 30
0.0
 10
85.02047795183516
 20
-167.9239447279843
 30
0.0
 10
84.82376299962739
 20
-167.9597737210309
 30
0.0
 10
84.81308320362312
 20
-167.9769991984572
 30
0.0
 10
84.78982880909768
 20
-168.0086940769214
 30
0.0
 10
84.76657441457225
 20
-168.0086940769214
 30
0.0
 10
84.73918590546451
 20
-168.0086940769214
 30
0.0
 10
84.73487953610795
 20
-167.989401542204
 30
0.0
 10
84.7328124788168
 20
-167.9704535170352
 30
0.0
 10
84.7328124788168
 20
-167.9704535170352
 30
0.0
 10
84.70731877222595
 20
-167.7971652141271
 30
0.0
 10
84.70731877222595
 20
-167.7971652141271
 30
0.0
 10
84.78138832515883
 20
-167.788552475414
 30
0.0
 10
84.8893920686214
 20
-167.7758056221186
 30
0.0
 10
84.99722355730972
 20
-167.7547905396585
 30
0.0
 10
84.99722355730972
 20
-167.7547905396585
 30
0.0
 10
84.99722355730972
 20
-167.5770236126196
 30
0.0
 10
84.99722355730972
 20
-167.5770236126196
 30
0.0
 10
84.85339082080054
 20
-167.6490261082614
 30
0.0
 10
84.75813393063339
 20
-167.6786539294345
 30
0.0
 10
84.59311385688991
 20
-167.7082817506077
 30
0.0
 10
84.59311385688991
 20
-167.7082817506077
 30
0.0
 10
84.47253551490617
 20
-167.5387830527334
 30
0.0
 10
84.47253551490617
 20
-167.5387830527334
 30
0.0
 10
84.78982880909768
 20
-167.5115667983999
 30
0.0
 10
84.98240964672316
 20
-167.4182047107496
 30
0.0
 10
85.16017657376204
 20
-167.285224025019
 30
0.0
 10
85.01410452518745
 20
-167.285224025019
 30
0.0
 10
84.71369219887366
 20
-167.2893581396013
 30
0.0
 10
84.5169772466659
 20
-167.2955593114747
 30
0.0
 10
84.5169772466659
 20
-167.2955593114747
 30
0.0
 10
84.5169772466659
 20
-167.1177923844358
 30
0.0
 10
84.5169772466659
 20
-167.1177923844358
 30
0.0
 10
84.67148977917935
 20
-167.1243380658578
 30
0.0
 10
84.96759573613657
 20
-167.1305392377313
 30
0.0
 10
85.15156383504892
 20
-167.1305392377313
 30
0.0
 10
85.15156383504892
 20
-167.1305392377313
 30
0.0
 10
85.36326495261753
 20
-167.1305392377313
 30
0.0
 10
85.36326495261753
 20
-167.1305392377313
 30
0.0
 10
85.36326495261753
 20
-167.0354546023384
 30
0.0
 10
85.36102564055211
 20
-166.9848116987052
 30
0.0
 10
85.3546522139044
 20
-166.9383029096543
 30
0.0
 10
85.3546522139044
 20
-166.9383029096543
 30
0.0
 10
85.5704874460553
 20
-166.9551838775321
 30
0.0
 10
85.5704874460553
 20
-166.9551838775321
 30
0.0
 10
85.61923554717158
 20
-166.9593179921143
 30
0.0
 10
85.62767603111044
 20
-166.9741319027009
 30
0.0
 10
85.62767603111044
 20
-166.9889458132875
 30
0.0
 10
85.62767603111044
 20
-167.0144395198784
 30
0.0
 10
85.61062280845846
 20
-167.022707749043
 30
0.0
 10
85.55997990482528
 20
-167.0482014556338
 30
0.0
 10
85.55774059275987
 20
-167.0733506526761
 30
0.0
 10
85.55774059275987
 20
-167.0798963340981
 30
0.0
 10
85.55567353546873
 20
-167.1305392377313
 30
0.0
 10
85.55567353546873
 20
-167.1305392377313
 30
0.0
 10
85.7863226782062
 20
-167.1305392377313
 30
0.0
 10
85.7863226782062
 20
-167.1305392377313
 30
0.0
 10
85.95134275194967
 20
-167.1305392377313
 30
0.0
 10
86.24331459432459
 20
-167.1243380658578
 30
0.0
 10
86.42297632388038
 20
-167.1177923844358
 30
0.0
 10
86.42297632388038
 20
-167.1177923844358
 30
0.0
 10
86.42297632388038
 20
-167.2955593114747
 30
0.0
 10
86.42297632388038
 20
-167.2955593114747
 30
0.0
 10
86.29395749795776
 20
-167.2914251968924
 30
0.0
 10
86.27070310343233
 20
-167.2914251968924
 30
0.0
 10
85.99354517164397
 20
-167.2872910823101
 30
0.0
  0
SPLINE
  5
C3
330
B6
100
AcDbEntity
  8
_U+30EC_U+30A4_U+30E4_U+30FC 1
370
     0
100
AcDbSpline
210
0.0
220
0.0
230
1.0
 70
    11
 71
     3
 72
    23
 73
    19
 74
     0
 42
0.0000000001
 43
0.0000000001
 12
1.0
 22
0.0
 32
0.0
 13
1.0
 23
0.0
 33
0.0
 40
0.0
 40
0.0
 40
0.0
 40
0.0
 40
1.0
 40
1.0
 40
1.0
 40
2.0
 40
2.0
 40
2.0
 40
3.0
 40
3.0
 40
3.0
 40
4.0
 40
4.0
 40
4.0
 40
5.0
 40
5.0
 40
5.0
 40
6.0
 40
6.0
 40
6.0
 40
6.0
 10
84.70955808429136
 20
-166.9358913428146
 30
0.0
 10
84.69250486163938
 20
-166.9761989599921
 30
0.0
 10
84.68630368976592
 20
-166.9930799278698
 30
0.0
 10
84.66511635253164
 20
-166.9930799278698
 30
0.0
 10
84.65030244194507
 20
-166.9930799278698
 30
0.0
 10
84.63962264594079
 20
-166.9761989599921
 30
0.0
 10
84.63342147406735
 20
-166.9634521066966
 30
0.0
 10
84.63342147406735
 20
-166.9634521066966
 30
0.0
 10
84.53385821454363
 20
-166.7984320329532
 30
0.0
 10
84.53385821454363
 20
-166.7984320329532
 30
0.0
 10
84.63548853135849
 20
-166.7667371544889
 30
0.0
 10
84.78569469451539
 20
-166.7116156267249
 30
0.0
 10
84.9844767040143
 20
-166.5490071198211
 30
0.0
 10
84.9844767040143
 20
-166.5490071198211
 30
0.0
 10
85.04166528906944
 20
-166.7222954227292
 30
0.0
 10
85.04166528906944
 20
-166.7222954227292
 30
0.0
 10
84.94847545619344
 20
-166.8049777143752
 30
0.0
 10
84.85976424744825
 20
-166.8618217898818
 30
0.0
 10
84.70955808429136
 20
-166.9358913428146
 30
0.0
  0
SPLINE
  5
C4
330
B6
100
AcDbEntity
  8
_U+30EC_U+30A4_U+30E4_U+30FC 1
370
     0
100
AcDbSpline
210
0.0
220
0.0
230
1.0
 70
    11
 71
     3
 72
    17
 73
    13
 74
     0
 42
0.0000000001
 43
0.0000000001
 12
1.0
 22
0.0
 32
0.0
 13
1.0
 23
0.0
 33
0.0
 40
0.0
 40
0.0
 40
0.0
 40
0.0
 40
1.0
 40
1.0
 40
1.0
 40
2.0
 40
2.0
 40
2.0
 40
3.0
 40
3.0
 40
3.0
 40
4.0
 40
4.0
 40
4.0
 40
4.0
 10
84.86183130473941
 20
-166.4704589427574
 30
0.0
 10
84.83220348356626
 20
-166.4304958351285
 30
0.0
 10
84.7645073572811
 20
-166.3329996328959
 30
0.0
 10
84.5826063156599
 20
-166.2231010869164
 30
0.0
 10
84.5826063156599
 20
-166.2231010869164
 30
0.0
 10
84.70955808429136
 20
-166.0897758916373
 30
0.0
 10
84.70955808429136
 20
-166.0897758916373
 30
0.0
 10
84.89559324049486
 20
-166.1914062084522
 30
0.0
 10
84.95278182555
 20
-166.2802896719716
 30
0.0
 10
84.980342589432
 20
-166.3226643464402
 30
0.0
 10
84.980342589432
 20
-166.3226643464402
 30
0.0
 10
84.86183130473941
 20
-166.4704589427574
 30
0.0
 10
84.86183130473941
 20
-166.4704589427574
 30
0.0
  0
SPLINE
  5
C5
330
B6
100
AcDbEntity
  8
_U+30EC_U+30A4_U+30E4_U+30FC 1
370
     0
100
AcDbSpline
210
0.0
220
0.0
230
1.0
 70
    11
 71
     3
 72
    38
 73
    34
 74
     0
 42
0.0000000001
 43
0.0000000001
 12
1.0
 22
0.0
 32
0.0
 13
1.0
 23
0.0
 33
0.0
 40
0.0
 40
0.0
 40
0.0
 40
0.0
 40
1.0
 40
1.0
 40
1.0
 40
2.0
 40
2.0
 40
2.0
 40
3.0
 40
3.0
 40
3.0
 40
4.0
 40
4.0
 40
4.0
 40
5.0
 40
5.0
 40
5.0
 40
6.0
 40
6.0
 40
6.0
 40
7.0
 40
7.0
 40
7.0
 40
8.0
 40
8.0
 40
8.0
 40
9.0
 40
9.0
 40
9.0
 40
10.0
 40
10.0
 40
10.0
 40
11.0
 40
11.0
 40
11.0
 40
11.0
 10
85.22993975733836
 20
-166.1659125018613
 30
0.0
 10
85.2278727000472
 20
-166.2124212909122
 30
0.0
 10
85.22563338798179
 20
-166.3288655183136
 30
0.0
 10
85.22563338798179
 20
-166.3733072500733
 30
0.0
 10
85.22563338798179
 20
-166.3733072500733
 30
0.0
 10
85.22563338798179
 20
-166.720228365438
 30
0.0
 10
85.22563338798179
 20
-166.720228365438
 30
0.0
 10
85.22563338798179
 20
-166.8070447716663
 30
0.0
 10
85.2278727000472
 20
-166.9486381961101
 30
0.0
 10
85.23838024127721
 20
-167.0692165380938
 30
0.0
 10
85.23838024127721
 20
-167.0692165380938
 30
0.0
 10
85.04803871571715
 20
-167.0692165380938
 30
0.0
 10
85.04803871571715
 20
-167.0692165380938
 30
0.0
 10
85.05217283029945
 20
-167.0058267811652
 30
0.0
 10
85.05647919965602
 20
-166.9527723106924
 30
0.0
 10
85.05854625694717
 20
-166.8979952924769
 30
0.0
 10
85.06061331423832
 20
-166.775349893202
 30
0.0
 10
85.06285262630374
 20
-166.7605359826154
 30
0.0
 10
85.06285262630374
 20
-166.7160942508557
 30
0.0
 10
85.06285262630374
 20
-166.7160942508557
 30
0.0
 10
85.06285262630374
 20
-166.3943223325334
 30
0.0
 10
85.06285262630374
 20
-166.3943223325334
 30
0.0
 10
85.06285262630374
 20
-166.3395453143179
 30
0.0
 10
85.05010577300831
 20
-166.1004556876416
 30
0.0
 10
85.04803871571715
 20
-166.0494682744599
 30
0.0
 10
85.04803871571715
 20
-166.0494682744599
 30
0.0
 10
85.24888778250723
 20
-166.0770290383419
 30
0.0
 10
85.24888778250723
 20
-166.0770290383419
 30
0.0
 10
85.2700751197415
 20
-166.079096095633
 30
0.0
 10
85.30176999820581
 20
-166.0835747197638
 30
0.0
 10
85.30176999820581
 20
-166.1087239168062
 30
0.0
 10
85.30176999820581
 20
-166.1362846806882
 30
0.0
 10
85.25112709457264
 20
-166.1576442726967
 30
0.0
 10
85.22993975733836
 20
-166.1659125018613
 30
0.0
  0
SPLINE
  5
C6
330
B6
100
AcDbEntity
  8
_U+30EC_U+30A4_U+30E4_U+30FC 1
370
     0
100
AcDbSpline
210
0.0
220
0.0
230
1.0
 70
    11
 71
     3
 72
    83
 73
    79
 74
     0
 42
0.0000000001
 43
0.0000000001
 12
1.0
 22
0.0
 32
0.0
 13
1.0
 23
0.0
 33
0.0
 40
0.0
 40
0.0
 40
0.0
 40
0.0
 40
1.0
 40
1.0
 40
1.0
 40
2.0
 40
2.0
 40
2.0
 40
3.0
 40
3.0
 40
3.0
 40
4.0
 40
4.0
 40
4.0
 40
5.0
 40
5.0
 40
5.0
 40
6.0
 40
6.0
 40
6.0
 40
7.0
 40
7.0
 40
7.0
 40
8.0
 40
8.0
 40
8.0
 40
9.0
 40
9.0
 40
9.0
 40
10.0
 40
10.0
 40
10.0
 40
11.0
 40
11.0
 40
11.0
 40
12.0
 40
12.0
 40
12.0
 40
13.0
 40
13.0
 40
13.0
 40
14.0
 40
14.0
 40
14.0
 40
15.0
 40
15.0
 40
15.0
 40
16.0
 40
16.0
 40
16.0
 40
17.0
 40
17.0
 40
17.0
 40
18.0
 40
18.0
 40
18.0
 40
19.0
 40
19.0
 40
19.0
 40
20.0
 40
20.0
 40
20.0
 40
21.0
 40
21.0
 40
21.0
 40
22.0
 40
22.0
 40
22.0
 40
23.0
 40
23.0
 40
23.0
 40
24.0
 40
24.0
 40
24.0
 40
25.0
 40
25.0
 40
25.0
 40
26.0
 40
26.0
 40
26.0
 40
26.0
 10
86.031613476756
 20
-166.4876844201837
 30
0.0
 10
86.031613476756
 20
-166.4876844201837
 30
0.0
 10
85.93446178407194
 20
-166.4876844201837
 30
0.0
 10
85.93446178407194
 20
-166.4876844201837
 30
0.0
 10
85.93446178407194
 20
-166.4876844201837
 30
0.0
 10
85.93446178407194
 20
-166.7350422760246
 30
0.0
 10
85.93446178407194
 20
-166.7350422760246
 30
0.0
 10
85.93446178407194
 20
-166.7350422760246
 30
0.0
 10
86.01679956616941
 20
-166.7350422760246
 30
0.0
 10
86.01679956616941
 20
-166.7350422760246
 30
0.0
 10
86.08242863516342
 20
-166.7350422760246
 30
0.0
 10
86.2221272570903
 20
-166.7309081614423
 30
0.0
 10
86.32151826183976
 20
-166.7222954227292
 30
0.0
 10
86.32151826183976
 20
-166.7222954227292
 30
0.0
 10
86.32151826183976
 20
-166.9021294070592
 30
0.0
 10
86.32151826183976
 20
-166.9021294070592
 30
0.0
 10
86.22850068373802
 20
-166.8938611778946
 30
0.0
 10
86.07829452058112
 20
-166.8893825537638
 30
0.0
 10
86.01679956616941
 20
-166.8893825537638
 30
0.0
 10
86.01679956616941
 20
-166.8893825537638
 30
0.0
 10
85.71225312527334
 20
-166.8893825537638
 30
0.0
 10
85.71225312527334
 20
-166.8893825537638
 30
0.0
 10
85.65937090957475
 20
-166.8893825537638
 30
0.0
 10
85.51347111577441
 20
-166.8938611778946
 30
0.0
 10
85.40753442960298
 20
-166.9021294070592
 30
0.0
 10
85.40753442960298
 20
-166.9021294070592
 30
0.0
 10
85.40753442960298
 20
-166.7222954227292
 30
0.0
 10
85.40753442960298
 20
-166.7222954227292
 30
0.0
 10
85.5070976891267
 20
-166.7309081614423
 30
0.0
 10
85.64662405627932
 20
-166.7350422760246
 30
0.0
 10
85.71225312527334
 20
-166.7350422760246
 30
0.0
 10
85.71225312527334
 20
-166.7350422760246
 30
0.0
 10
85.75669485703305
 20
-166.7350422760246
 30
0.0
 10
85.75669485703305
 20
-166.7350422760246
 30
0.0
 10
85.75669485703305
 20
-166.7350422760246
 30
0.0
 10
85.75669485703305
 20
-166.4876844201837
 30
0.0
 10
85.75669485703305
 20
-166.4876844201837
 30
0.0
 10
85.75669485703305
 20
-166.4876844201837
 30
0.0
 10
85.68262530410018
 20
-166.4876844201837
 30
0.0
 10
85.68262530410018
 20
-166.4876844201837
 30
0.0
 10
85.62130260446273
 20
-166.4876844201837
 30
0.0
 10
85.45421547342812
 20
-166.4918185347659
 30
0.0
 10
85.33363713144438
 20
-166.5000867639305
 30
0.0
 10
85.33363713144438
 20
-166.5000867639305
 30
0.0
 10
85.33363713144438
 20
-166.3226643464402
 30
0.0
 10
85.33363713144438
 20
-166.3226643464402
 30
0.0
 10
85.44784204678041
 20
-166.3288655183136
 30
0.0
 10
85.60648869387616
 20
-166.3329996328959
 30
0.0
 10
85.68262530410018
 20
-166.3329996328959
 30
0.0
 10
85.68262530410018
 20
-166.3329996328959
 30
0.0
 10
85.7546277997419
 20
-166.3329996328959
 30
0.0
 10
85.7546277997419
 20
-166.3329996328959
 30
0.0
 10
85.75032143038534
 20
-166.1807264124479
 30
0.0
 10
85.74825437309418
 20
-166.1469644766924
 30
0.0
 10
85.74188094644647
 20
-166.0539468985907
 30
0.0
 10
85.74188094644647
 20
-166.0539468985907
 30
0.0
 10
85.95340980924082
 20
-166.0770290383419
 30
0.0
 10
85.95340980924082
 20
-166.0770290383419
 30
0.0
 10
85.9787312610574
 20
-166.079096095633
 30
0.0
 10
86.00198565558284
 20
-166.0835747197638
 30
0.0
 10
86.00198565558284
 20
-166.106656859515
 30
0.0
 10
86.00198565558284
 20
-166.1383517379793
 30
0.0
 10
85.95771617859738
 20
-166.155232705857
 30
0.0
 10
85.93446178407194
 20
-166.1638454445702
 30
0.0
 10
85.93446178407194
 20
-166.1638454445702
 30
0.0
 10
85.93446178407194
 20
-166.3329996328959
 30
0.0
 10
85.93446178407194
 20
-166.3329996328959
 30
0.0
 10
85.93446178407194
 20
-166.3329996328959
 30
0.0
 10
86.031613476756
 20
-166.3329996328959
 30
0.0
 10
86.031613476756
 20
-166.3329996328959
 30
0.0
 10
86.10792234175427
 20
-166.3329996328959
 30
0.0
 10
86.26656898885003
 20
-166.3288655183136
 30
0.0
 10
86.38284096147721
 20
-166.3226643464402
 30
0.0
 10
86.38284096147721
 20
-166.3226643464402
 30
0.0
 10
86.38284096147721
 20
-166.5000867639305
 30
0.0
 10
86.38284096147721
 20
-166.5000867639305
 30
0.0
 10
86.2750094727889
 20
-166.4938855920571
 30
0.0
 10
86.10154891510656
 20
-166.4876844201837
 30
0.0
 10
86.031613476756
 20
-166.4876844201837
 30
0.0
  0
SPLINE
  5
C7
330
B6
100
AcDbEntity
  8
_U+30EC_U+30A4_U+30E4_U+30FC 1
370
     0
100
AcDbSpline
210
0.0
220
0.0
230
1.0
 70
    11
 71
     3
 72
    17
 73
    13
 74
     0
 42
0.0000000001
 43
0.0000000001
 12
1.0
 22
0.0
 32
0.0
 13
1.0
 23
0.0
 33
0.0
 40
0.0
 40
0.0
 40
0.0
 40
0.0
 40
1.0
 40
1.0
 40
1.0
 40
2.0
 40
2.0
 40
2.0
 40
3.0
 40
3.0
 40
3.0
 40
4.0
 40
4.0
 40
4.0
 40
4.0
 10
85.7863226782062
 20
-167.285224025019
 30
0.0
 10
85.7863226782062
 20
-167.285224025019
 30
0.0
 10
85.58323429935072
 20
-167.285224025019
 30
0.0
 10
85.58323429935072
 20
-167.285224025019
 30
0.0
 10
85.61062280845846
 20
-167.3441351578168
 30
0.0
 10
85.66574433622246
 20
-167.4161376534585
 30
0.0
 10
85.6931328453302
 20
-167.4457654746316
 30
0.0
 10
85.72069360921219
 20
-167.430951564045
 30
0.0
 10
85.83489852454822
 20
-167.3675618071165
 30
0.0
 10
85.92584904535882
 20
-167.285224025019
 30
0.0
 10
85.92584904535882
 20
-167.285224025019
 30
0.0
 10
85.7863226782062
 20
-167.285224025019
 30
0.0
 10
85.7863226782062
 20
-167.285224025019
 30
0.0
  0
HATCH
  5
C8
330
B6
100
AcDbEntity
  8
_U+30EC_U+30A4_U+30E4_U+30FC 1
 62
   179
420
  2234388
100
AcDbHatch
 10
0.0
 20
0.0
 30
0.0
210
0.0
220
0.0
230
1.0
  2
SOLID
 70
     1
 71
     0
 91
        6
 92
        1
 93
        1
 72
     4
 94
        3
 73
     0
 74
     1
 95
      113
 96
      109
 40
0.0
 40
0.0
 40
0.0
 40
0.0
 40
1.0
 40
1.0
 40
1.0
 40
2.0
 40
2.0
 40
2.0
 40
3.0
 40
3.0
 40
3.0
 40
4.0
 40
4.0
 40
4.0
 40
5.0
 40
5.0
 40
5.0
 40
6.0
 40
6.0
 40
6.0
 40
7.0
 40
7.0
 40
7.0
 40
8.0
 40
8.0
 40
8.0
 40
9.0
 40
9.0
 40
9.0
 40
10.0
 40
10.0
 40
10.0
 40
11.0
 40
11.0
 40
11.0
 40
12.0
 40
12.0
 40
12.0
 40
13.0
 40
13.0
 40
13.0
 40
14.0
 40
14.0
 40
14.0
 40
15.0
 40
15.0
 40
15.0
 40
16.0
 40
16.0
 40
16.0
 40
17.0
 40
17.0
 40
17.0
 40
18.0
 40
18.0
 40
18.0
 40
19.0
 40
19.0
 40
19.0
 40
20.0
 40
20.0
 40
20.0
 40
21.0
 40
21.0
 40
21.0
 40
22.0
 40
22.0
 40
22.0
 40
23.0
 40
23.0
 40
23.0
 40
24.0
 40
24.0
 40
24.0
 40
25.0
 40
25.0
 40
25.0
 40
26.0
 40
26.0
 40
26.0
 40
27.0
 40
27.0
 40
27.0
 40
28.0
 40
28.0
 40
28.0
 40
29.0
 40
29.0
 40
29.0
 40
30.0
 40
30.0
 40
30.0
 40
31.0
 40
31.0
 40
31.0
 40
32.0
 40
32.0
 40
32.0
 40
33.0
 40
33.0
 40
33.0
 40
34.0
 40
34.0
 40
34.0
 40
35.0
 40
35.0
 40
35.0
 40
36.0
 40
36.0
 40
36.0
 40
36.0
 10
85.99354517164397
 20
-167.2872910823101
 10
85.99354517164397
 20
-167.2872910823101
 10
86.09310843116769
 20
-167.3865098322853
 10
86.09310843116769
 20
-167.3865098322853
 10
86.1036159723977
 20
-167.3971896282896
 10
86.11412351362772
 20
-167.409936481585
 10
86.11412351362772
 20
-167.4247503921716
 10
86.11412351362772
 20
-167.4268174494628
 10
86.11412351362772
 20
-167.4564452706359
 10
86.07605520851571
 20
-167.4564452706359
 10
86.06761472457686
 20
-167.4564452706359
 10
86.0274793621737
 20
-167.4523111560536
 10
86.02110593552598
 20
-167.4523111560536
 10
85.98097057312282
 20
-167.4840060345179
 10
85.93446178407194
 20
-167.5177679702734
 10
85.83489852454822
 20
-167.5749565553285
 10
85.98097057312282
 20
-167.6827880440168
 10
86.13961722021857
 20
-167.7399766290719
 10
86.41246878265036
 20
-167.7778726794097
 10
86.41246878265036
 20
-167.7778726794097
 10
86.26226261949347
 20
-167.9535725491575
 10
86.26226261949347
 20
-167.9535725491575
 10
85.99991859829169
 20
-167.8815700535157
 10
85.84333900848709
 20
-167.7926865899963
 10
85.76720239826307
 20
-167.7399766290719
 10
85.61699623510617
 20
-167.6383463122571
 10
85.47316349859699
 20
-167.4753932958048
 10
85.39702688837296
 20
-167.3103732220613
 10
85.3293307620878
 20
-167.3761745458296
 10
85.25526120915494
 20
-167.4288845067539
 10
85.17705754163977
 20
-167.4774603530959
 10
85.17705754163977
 20
-167.4774603530959
 10
85.17705754163977
 20
-167.7292968330677
 10
85.17705754163977
 20
-167.7292968330677
 10
85.33983830331782
 20
-167.7038031264768
 10
85.52604571429558
 20
-167.6593613947171
 10
85.58960772599843
 20
-167.6445474841305
 10
85.58960772599843
 20
-167.6445474841305
 10
85.55997990482528
 20
-167.8140461820048
 10
85.55997990482528
 20
-167.8140461820048
 10
85.55774059275987
 20
-167.8140461820048
 10
85.538792567591
 20
-167.8202473538783
 10
85.53672551029985
 20
-167.8202473538783
 10
85.33777124602668
 20
-167.8584879137645
 10
85.02047795183516
 20
-167.9239447279843
 10
84.82376299962739
 20
-167.9597737210309
 10
84.81308320362312
 20
-167.9769991984572
 10
84.78982880909768
 20
-168.0086940769214
 10
84.76657441457225
 20
-168.0086940769214
 10
84.73918590546451
 20
-168.0086940769214
 10
84.73487953610795
 20
-167.989401542204
 10
84.7328124788168
 20
-167.9704535170352
 10
84.7328124788168
 20
-167.9704535170352
 10
84.70731877222595
 20
-167.7971652141271
 10
84.70731877222595
 20
-167.7971652141271
 10
84.78138832515883
 20
-167.788552475414
 10
84.8893920686214
 20
-167.7758056221186
 10
84.99722355730972
 20
-167.7547905396585
 10
84.99722355730972
 20
-167.7547905396585
 10
84.99722355730972
 20
-167.5770236126196
 10
84.99722355730972
 20
-167.5770236126196
 10
84.85339082080054
 20
-167.6490261082614
 10
84.75813393063339
 20
-167.6786539294345
 10
84.59311385688991
 20
-167.7082817506077
 10
84.59311385688991
 20
-167.7082817506077
 10
84.47253551490617
 20
-167.5387830527334
 10
84.47253551490617
 20
-167.5387830527334
 10
84.78982880909768
 20
-167.5115667983999
 10
84.98240964672316
 20
-167.4182047107496
 10
85.16017657376204
 20
-167.285224025019
 10
85.01410452518745
 20
-167.285224025019
 10
84.71369219887366
 20
-167.2893581396013
 10
84.5169772466659
 20
-167.2955593114747
 10
84.5169772466659
 20
-167.2955593114747
 10
84.5169772466659
 20
-167.1177923844358
 10
84.5169772466659
 20
-167.1177923844358
 10
84.67148977917935
 20
-167.1243380658578
 10
84.96759573613657
 20
-167.1305392377313
 10
85.15156383504892
 20
-167.1305392377313
 10
85.15156383504892
 20
-167.1305392377313
 10
85.36326495261753
 20
-167.1305392377313
 10
85.36326495261753
 20
-167.1305392377313
 10
85.36326495261753
 20
-167.0354546023384
 10
85.36102564055211
 20
-166.9848116987052
 10
85.3546522139044
 20
-166.9383029096543
 10
85.3546522139044
 20
-166.9383029096543
 10
85.5704874460553
 20
-166.9551838775321
 10
85.5704874460553
 20
-166.9551838775321
 10
85.61923554717158
 20
-166.9593179921143
 10
85.62767603111044
 20
-166.9741319027009
 10
85.62767603111044
 20
-166.9889458132875
 10
85.62767603111044
 20
-167.0144395198784
 10
85.61062280845846
 20
-167.022707749043
 10
85.55997990482528
 20
-167.0482014556338
 10
85.55774059275987
 20
-167.0733506526761
 10
85.55774059275987
 20
-167.0798963340981
 10
85.55567353546873
 20
-167.1305392377313
 10
85.55567353546873
 20
-167.1305392377313
 10
85.7863226782062
 20
-167.1305392377313
 10
85.7863226782062
 20
-167.1305392377313
 10
85.95134275194967
 20
-167.1305392377313
 10
86.24331459432459
 20
-167.1243380658578
 10
86.42297632388038
 20
-167.1177923844358
 10
86.42297632388038
 20
-167.1177923844358
 10
86.42297632388038
 20
-167.2955593114747
 10
86.42297632388038
 20
-167.2955593114747
 10
86.29395749795776
 20
-167.2914251968924
 10
86.27070310343233
 20
-167.2914251968924
 10
85.99354517164397
 20
-167.2872910823101
 97
        0
 97
        0
 92
        1
 93
        1
 72
     4
 94
        3
 73
     0
 74
     1
 95
       23
 96
       19
 40
0.0
 40
0.0
 40
0.0
 40
0.0
 40
1.0
 40
1.0
 40
1.0
 40
2.0
 40
2.0
 40
2.0
 40
3.0
 40
3.0
 40
3.0
 40
4.0
 40
4.0
 40
4.0
 40
5.0
 40
5.0
 40
5.0
 40
6.0
 40
6.0
 40
6.0
 40
6.0
 10
84.70955808429136
 20
-166.9358913428146
 10
84.69250486163938
 20
-166.9761989599921
 10
84.68630368976592
 20
-166.9930799278698
 10
84.66511635253164
 20
-166.9930799278698
 10
84.65030244194507
 20
-166.9930799278698
 10
84.63962264594079
 20
-166.9761989599921
 10
84.63342147406735
 20
-166.9634521066966
 10
84.63342147406735
 20
-166.9634521066966
 10
84.53385821454363
 20
-166.7984320329532
 10
84.53385821454363
 20
-166.7984320329532
 10
84.63548853135849
 20
-166.7667371544889
 10
84.78569469451539
 20
-166.7116156267249
 10
84.9844767040143
 20
-166.5490071198211
 10
84.9844767040143
 20
-166.5490071198211
 10
85.04166528906944
 20
-166.7222954227292
 10
85.04166528906944
 20
-166.7222954227292
 10
84.94847545619344
 20
-166.8049777143752
 10
84.85976424744825
 20
-166.8618217898818
 10
84.70955808429136
 20
-166.9358913428146
 97
        0
 97
        0
 92
        1
 93
        1
 72
     4
 94
        3
 73
     0
 74
     1
 95
       17
 96
       13
 40
0.0
 40
0.0
 40
0.0
 40
0.0
 40
1.0
 40
1.0
 40
1.0
 40
2.0
 40
2.0
 40
2.0
 40
3.0
 40
3.0
 40
3.0
 40
4.0
 40
4.0
 40
4.0
 40
4.0
 10
84.86183130473941
 20
-166.4704589427574
 10
84.83220348356626
 20
-166.4304958351285
 10
84.7645073572811
 20
-166.3329996328959
 10
84.5826063156599
 20
-166.2231010869164
 10
84.5826063156599
 20
-166.2231010869164
 10
84.70955808429136
 20
-166.0897758916373
 10
84.70955808429136
 20
-166.0897758916373
 10
84.89559324049486
 20
-166.1914062084522
 10
84.95278182555
 20
-166.2802896719716
 10
84.980342589432
 20
-166.3226643464402
 10
84.980342589432
 20
-166.3226643464402
 10
84.86183130473941
 20
-166.4704589427574
 10
84.86183130473941
 20
-166.4704589427574
 97
        0
 97
        0
 92
        1
 93
        1
 72
     4
 94
        3
 73
     0
 74
     1
 95
       38
 96
       34
 40
0.0
 40
0.0
 40
0.0
 40
0.0
 40
1.0
 40
1.0
 40
1.0
 40
2.0
 40
2.0
 40
2.0
 40
3.0
 40
3.0
 40
3.0
 40
4.0
 40
4.0
 40
4.0
 40
5.0
 40
5.0
 40
5.0
 40
6.0
 40
6.0
 40
6.0
 40
7.0
 40
7.0
 40
7.0
 40
8.0
 40
8.0
 40
8.0
 40
9.0
 40
9.0
 40
9.0
 40
10.0
 40
10.0
 40
10.0
 40
11.0
 40
11.0
 40
11.0
 40
11.0
 10
85.22993975733836
 20
-166.1659125018613
 10
85.2278727000472
 20
-166.2124212909122
 10
85.22563338798179
 20
-166.3288655183136
 10
85.22563338798179
 20
-166.3733072500733
 10
85.22563338798179
 20
-166.3733072500733
 10
85.22563338798179
 20
-166.720228365438
 10
85.22563338798179
 20
-166.720228365438
 10
85.22563338798179
 20
-166.8070447716663
 10
85.2278727000472
 20
-166.9486381961101
 10
85.23838024127721
 20
-167.0692165380938
 10
85.23838024127721
 20
-167.0692165380938
 10
85.04803871571715
 20
-167.0692165380938
 10
85.04803871571715
 20
-167.0692165380938
 10
85.05217283029945
 20
-167.0058267811652
 10
85.05647919965602
 20
-166.9527723106924
 10
85.05854625694717
 20
-166.8979952924769
 10
85.06061331423832
 20
-166.775349893202
 10
85.06285262630374
 20
-166.7605359826154
 10
85.06285262630374
 20
-166.7160942508557
 10
85.06285262630374
 20
-166.7160942508557
 10
85.06285262630374
 20
-166.3943223325334
 10
85.06285262630374
 20
-166.3943223325334
 10
85.06285262630374
 20
-166.3395453143179
 10
85.05010577300831
 20
-166.1004556876416
 10
85.04803871571715
 20
-166.0494682744599
 10
85.04803871571715
 20
-166.0494682744599
 10
85.24888778250723
 20
-166.0770290383419
 10
85.24888778250723
 20
-166.0770290383419
 10
85.2700751197415
 20
-166.079096095633
 10
85.30176999820581
 20
-166.0835747197638
 10
85.30176999820581
 20
-166.1087239168062
 10
85.30176999820581
 20
-166.1362846806882
 10
85.25112709457264
 20
-166.1576442726967
 10
85.22993975733836
 20
-166.1659125018613
 97
        0
 97
        0
 92
        1
 93
        1
 72
     4
 94
        3
 73
     0
 74
     1
 95
       83
 96
       79
 40
0.0
 40
0.0
 40
0.0
 40
0.0
 40
1.0
 40
1.0
 40
1.0
 40
2.0
 40
2.0
 40
2.0
 40
3.0
 40
3.0
 40
3.0
 40
4.0
 40
4.0
 40
4.0
 40
5.0
 40
5.0
 40
5.0
 40
6.0
 40
6.0
 40
6.0
 40
7.0
 40
7.0
 40
7.0
 40
8.0
 40
8.0
 40
8.0
 40
9.0
 40
9.0
 40
9.0
 40
10.0
 40
10.0
 40
10.0
 40
11.0
 40
11.0
 40
11.0
 40
12.0
 40
12.0
 40
12.0
 40
13.0
 40
13.0
 40
13.0
 40
14.0
 40
14.0
 40
14.0
 40
15.0
 40
15.0
 40
15.0
 40
16.0
 40
16.0
 40
16.0
 40
17.0
 40
17.0
 40
17.0
 40
18.0
 40
18.0
 40
18.0
 40
19.0
 40
19.0
 40
19.0
 40
20.0
 40
20.0
 40
20.0
 40
21.0
 40
21.0
 40
21.0
 40
22.0
 40
22.0
 40
22.0
 40
23.0
 40
23.0
 40
23.0
 40
24.0
 40
24.0
 40
24.0
 40
25.0
 40
25.0
 40
25.0
 40
26.0
 40
26.0
 40
26.0
 40
26.0
 10
86.031613476756
 20
-166.4876844201837
 10
86.031613476756
 20
-166.4876844201837
 10
85.93446178407194
 20
-166.4876844201837
 10
85.93446178407194
 20
-166.4876844201837
 10
85.93446178407194
 20
-166.4876844201837
 10
85.93446178407194
 20
-166.7350422760246
 10
85.93446178407194
 20
-166.7350422760246
 10
85.93446178407194
 20
-166.7350422760246
 10
86.01679956616941
 20
-166.7350422760246
 10
86.01679956616941
 20
-166.7350422760246
 10
86.08242863516342
 20
-166.7350422760246
 10
86.2221272570903
 20
-166.7309081614423
 10
86.32151826183976
 20
-166.7222954227292
 10
86.32151826183976
 20
-166.7222954227292
 10
86.32151826183976
 20
-166.9021294070592
 10
86.32151826183976
 20
-166.9021294070592
 10
86.22850068373802
 20
-166.8938611778946
 10
86.07829452058112
 20
-166.8893825537638
 10
86.01679956616941
 20
-166.8893825537638
 10
86.01679956616941
 20
-166.8893825537638
 10
85.71225312527334
 20
-166.8893825537638
 10
85.71225312527334
 20
-166.8893825537638
 10
85.65937090957475
 20
-166.8893825537638
 10
85.51347111577441
 20
-166.8938611778946
 10
85.40753442960298
 20
-166.9021294070592
 10
85.40753442960298
 20
-166.9021294070592
 10
85.40753442960298
 20
-166.7222954227292
 10
85.40753442960298
 20
-166.7222954227292
 10
85.5070976891267
 20
-166.7309081614423
 10
85.64662405627932
 20
-166.7350422760246
 10
85.71225312527334
 20
-166.7350422760246
 10
85.71225312527334
 20
-166.7350422760246
 10
85.75669485703305
 20
-166.7350422760246
 10
85.75669485703305
 20
-166.7350422760246
 10
85.75669485703305
 20
-166.7350422760246
 10
85.75669485703305
 20
-166.4876844201837
 10
85.75669485703305
 20
-166.4876844201837
 10
85.75669485703305
 20
-166.4876844201837
 10
85.68262530410018
 20
-166.4876844201837
 10
85.68262530410018
 20
-166.4876844201837
 10
85.62130260446273
 20
-166.4876844201837
 10
85.45421547342812
 20
-166.4918185347659
 10
85.33363713144438
 20
-166.5000867639305
 10
85.33363713144438
 20
-166.5000867639305
 10
85.33363713144438
 20
-166.3226643464402
 10
85.33363713144438
 20
-166.3226643464402
 10
85.44784204678041
 20
-166.3288655183136
 10
85.60648869387616
 20
-166.3329996328959
 10
85.68262530410018
 20
-166.3329996328959
 10
85.68262530410018
 20
-166.3329996328959
 10
85.7546277997419
 20
-166.3329996328959
 10
85.7546277997419
 20
-166.3329996328959
 10
85.75032143038534
 20
-166.1807264124479
 10
85.74825437309418
 20
-166.1469644766924
 10
85.74188094644647
 20
-166.0539468985907
 10
85.74188094644647
 20
-166.0539468985907
 10
85.95340980924082
 20
-166.0770290383419
 10
85.95340980924082
 20
-166.0770290383419
 10
85.9787312610574
 20
-166.079096095633
 10
86.00198565558284
 20
-166.0835747197638
 10
86.00198565558284
 20
-166.106656859515
 10
86.00198565558284
 20
-166.1383517379793
 10
85.95771617859738
 20
-166.155232705857
 10
85.93446178407194
 20
-166.1638454445702
 10
85.93446178407194
 20
-166.1638454445702
 10
85.93446178407194
 20
-166.3329996328959
 10
85.93446178407194
 20
-166.3329996328959
 10
85.93446178407194
 20
-166.3329996328959
 10
86.031613476756
 20
-166.3329996328959
 10
86.031613476756
 20
-166.3329996328959
 10
86.10792234175427
 20
-166.3329996328959
 10
86.26656898885003
 20
-166.3288655183136
 10
86.38284096147721
 20
-166.3226643464402
 10
86.38284096147721
 20
-166.3226643464402
 10
86.38284096147721
 20
-166.5000867639305
 10
86.38284096147721
 20
-166.5000867639305
 10
86.2750094727889
 20
-166.4938855920571
 10
86.10154891510656
 20
-166.4876844201837
 10
86.031613476756
 20
-166.4876844201837
 97
        0
 97
        0
 92
        1
 93
        1
 72
     4
 94
        3
 73
     0
 74
     1
 95
       17
 96
       13
 40
0.0
 40
0.0
 40
0.0
 40
0.0
 40
1.0
 40
1.0
 40
1.0
 40
2.0
 40
2.0
 40
2.0
 40
3.0
 40
3.0
 40
3.0
 40
4.0
 40
4.0
 40
4.0
 40
4.0
 10
85.7863226782062
 20
-167.285224025019
 10
85.7863226782062
 20
-167.285224025019
 10
85.58323429935072
 20
-167.285224025019
 10
85.58323429935072
 20
-167.285224025019
 10
85.61062280845846
 20
-167.3441351578168
 10
85.66574433622246
 20
-167.4161376534585
 10
85.6931328453302
 20
-167.4457654746316
 10
85.72069360921219
 20
-167.430951564045
 10
85.83489852454822
 20
-167.3675618071165
 10
85.92584904535882
 20
-167.285224025019
 10
85.92584904535882
 20
-167.285224025019
 10
85.7863226782062
 20
-167.285224025019
 10
85.7863226782062
 20
-167.285224025019
 97
        0
 97
        0
 75
     2
 76
     1
 98
        0
  0
SPLINE
  5
C9
330
B6
100
AcDbEntity
  8
_U+30EC_U+30A4_U+30E4_U+30FC 1
370
     0
100
AcDbSpline
210
0.0
220
0.0
230
1.0
 70
    11
 71
     3
 72
    77
 73
    73
 74
     0
 42
0.0000000001
 43
0.0000000001
 12
1.0
 22
0.0
 32
0.0
 13
1.0
 23
0.0
 33
0.0
 40
0.0
 40
0.0
 40
0.0
 40
0.0
 40
1.0
 40
1.0
 40
1.0
 40
2.0
 40
2.0
 40
2.0
 40
3.0
 40
3.0
 40
3.0
 40
4.0
 40
4.0
 40
4.0
 40
5.0
 40
5.0
 40
5.0
 40
6.0
 40
6.0
 40
6.0
 40
7.0
 40
7.0
 40
7.0
 40
8.0
 40
8.0
 40
8.0
 40
9.0
 40
9.0
 40
9.0
 40
10.0
 40
10.0
 40
10.0
 40
11.0
 40
11.0
 40
11.0
 40
12.0
 40
12.0
 40
12.0
 40
13.0
 40
13.0
 40
13.0
 40
14.0
 40
14.0
 40
14.0
 40
15.0
 40
15.0
 40
15.0
 40
16.0
 40
16.0
 40
16.0
 40
17.0
 40
17.0
 40
17.0
 40
18.0
 40
18.0
 40
18.0
 40
19.0
 40
19.0
 40
19.0
 40
20.0
 40
20.0
 40
20.0
 40
21.0
 40
21.0
 40
21.0
 40
22.0
 40
22.0
 40
22.0
 40
23.0
 40
23.0
 40
23.0
 40
24.0
 40
24.0
 40
24.0
 40
24.0
 10
88.27747122359035
 20
-167.9153319892712
 30
0.0
 10
88.23096243453949
 20
-167.940825695862
 30
0.0
 10
88.10607772319918
 20
-167.9535725491575
 30
0.0
 10
88.02787405568401
 20
-167.9535725491575
 30
0.0
 10
88.01512720238858
 20
-167.9535725491575
 30
0.0
 10
87.989805750572
 20
-167.9535725491575
 30
0.0
 10
87.95587156004228
 20
-167.9494384345751
 30
0.0
 10
87.95587156004228
 20
-167.9494384345751
 30
0.0
 10
87.85854761258398
 20
-167.7230956611942
 30
0.0
 10
87.85854761258398
 20
-167.7230956611942
 30
0.0
 10
87.88817543375713
 20
-167.7292968330677
 30
0.0
 10
87.94536401881227
 20
-167.7379095717808
 30
0.0
 10
88.06163599143946
 20
-167.7379095717808
 30
0.0
 10
88.14001191372888
 20
-167.7379095717808
 30
0.0
 10
88.14207897102004
 20
-167.6955348973122
 30
0.0
 10
88.14207897102004
 20
-167.6383463122571
 30
0.0
 10
88.14207897102004
 20
-167.6383463122571
 30
0.0
 10
88.14207897102004
 20
-167.2893581396013
 30
0.0
 10
88.14207897102004
 20
-167.2893581396013
 30
0.0
 10
88.14207897102004
 20
-167.2893581396013
 30
0.0
 10
87.6830199976105
 20
-167.2893581396013
 30
0.0
 10
87.6830199976105
 20
-167.2893581396013
 30
0.0
 10
87.68508705490164
 20
-167.4268174494628
 30
0.0
 10
87.68732636696706
 20
-167.6255994589617
 30
0.0
 10
87.69352753884051
 20
-167.7589246542408
 30
0.0
 10
87.69576685090593
 20
-167.7864854181228
 30
0.0
 10
87.69576685090593
 20
-167.8309271498825
 30
0.0
 10
87.70834144942708
 20
-167.89224984952
 30
0.0
 10
87.70834144942708
 20
-167.89224984952
 30
0.0
 10
87.46718476545959
 20
-167.89224984952
 30
0.0
 10
87.46718476545959
 20
-167.89224984952
 30
0.0
 10
87.49267847205044
 20
-167.767537392954
 30
0.0
 10
87.49267847205044
 20
-167.4268174494628
 30
0.0
 10
87.49267847205044
 20
-167.2893581396013
 30
0.0
 10
87.49267847205044
 20
-167.2893581396013
 30
0.0
 10
87.05050046651863
 20
-167.2893581396013
 30
0.0
 10
87.05050046651863
 20
-167.2893581396013
 30
0.0
 10
87.02724607199319
 20
-167.4967528878133
 30
0.0
 10
86.96161700299918
 20
-167.7651258261143
 30
0.0
 10
86.76490205079142
 20
-167.9494384345751
 30
0.0
 10
86.76490205079142
 20
-167.9494384345751
 30
0.0
 10
86.57662758252252
 20
-167.8267930353003
 30
0.0
 10
86.57662758252252
 20
-167.8267930353003
 30
0.0
 10
86.83053111978543
 20
-167.6066514337928
 30
0.0
 10
86.86222599824973
 20
-167.2745442290147
 30
0.0
 10
86.86222599824973
 20
-166.9424370242366
 30
0.0
 10
86.86222599824973
 20
-166.9424370242366
 30
0.0
 10
86.86222599824973
 20
-166.5066324453525
 30
0.0
 10
86.86222599824973
 20
-166.5066324453525
 30
0.0
 10
86.86222599824973
 20
-166.4704589427574
 30
0.0
 10
86.86015894095857
 20
-166.237914997503
 30
0.0
 10
86.85154620224544
 20
-166.1362846806882
 30
0.0
 10
86.99124482417233
 20
-166.1469644766924
 30
0.0
 10
87.23240150813982
 20
-166.1469644766924
 30
0.0
 10
87.376234244649
 20
-166.1469644766924
 30
0.0
 10
87.376234244649
 20
-166.1469644766924
 30
0.0
 10
87.83529321805854
 20
-166.1469644766924
 30
0.0
 10
87.83529321805854
 20
-166.1469644766924
 30
0.0
 10
87.85010712864512
 20
-166.1469644766924
 30
0.0
 10
88.19926755607518
 20
-166.1469644766924
 30
0.0
 10
88.35791420317094
 20
-166.1362846806882
 30
0.0
 10
88.35567489110554
 20
-166.189339151161
 30
0.0
 10
88.34947371923208
 20
-166.3498806007736
 30
0.0
 10
88.34947371923208
 20
-166.4008680139553
 30
0.0
 10
88.34947371923208
 20
-166.4008680139553
 30
0.0
 10
88.34947371923208
 20
-167.0078938384564
 30
0.0
 10
88.34947371923208
 20
-167.0078938384564
 30
0.0
 10
88.34947371923208
 20
-167.0268418636252
 30
0.0
 10
88.35998126046209
 20
-167.5980386950797
 30
0.0
 10
88.35998126046209
 20
-167.7103488078988
 30
0.0
 10
88.35998126046209
 20
-167.767537392954
 30
0.0
 10
88.35998126046209
 20
-167.8688232002203
 30
0.0
 10
88.27747122359035
 20
-167.9153319892712
 30
0.0
  0
POLYLINE
  5
CA
330
B6
100
AcDbEntity
  8
_U+30EC_U+30A4_U+30E4_U+30FC 1
370
     0
100
AcDb2dPolyline
 66
     1
 10
0.0
 20
0.0
 30
0.0
  0
VERTEX
  5
CB
330
CA
100
AcDbEntity
  8
_U+30EC_U+30A4_U+30E4_U+30FC 1
370
     0
100
AcDbVertex
100
AcDb2dVertex
 10
87.49267847205044
 20
-166.3288655183136
 30
0.0
  0
VERTEX
  5
CC
330
CA
100
AcDbEntity
  8
_U+30EC_U+30A4_U+30E4_U+30FC 1
370
     0
100
AcDbVertex
100
AcDb2dVertex
 10
87.05463458110093
 20
-166.3288655183136
 30
0.0
  0
VERTEX
  5
CD
330
CA
100
AcDbEntity
  8
_U+30EC_U+30A4_U+30E4_U+30FC 1
370
     0
100
AcDbVertex
100
AcDb2dVertex
 10
87.05463458110093
 20
-166.6334119592097
 30
0.0
  0
VERTEX
  5
CE
330
CA
100
AcDbEntity
  8
_U+30EC_U+30A4_U+30E4_U+30FC 1
370
     0
100
AcDbVertex
100
AcDb2dVertex
 10
87.49267847205044
 20
-166.6334119592097
 30
0.0
  0
VERTEX
  5
CF
330
CA
100
AcDbEntity
  8
_U+30EC_U+30A4_U+30E4_U+30FC 1
370
     0
100
AcDbVertex
100
AcDb2dVertex
 10
87.49267847205044
 20
-166.3288655183136
 30
0.0
  0
SEQEND
  5
D0
330
CA
100
AcDbEntity
  8
_U+30EC_U+30A4_U+30E4_U+30FC 1
370
     0
  0
POLYLINE
  5
D1
330
B6
100
AcDbEntity
  8
_U+30EC_U+30A4_U+30E4_U+30FC 1
370
     0
100
AcDb2dPolyline
 66
     1
 10
0.0
 20
0.0
 30
0.0
  0
VERTEX
  5
D2
330
D1
100
AcDbEntity
  8
_U+30EC_U+30A4_U+30E4_U+30FC 1
370
     0
100
AcDbVertex
100
AcDb2dVertex
 10
87.49267847205044
 20
-166.8004990902443
 30
0.0
  0
VERTEX
  5
D3
330
D1
100
AcDbEntity
  8
_U+30EC_U+30A4_U+30E4_U+30FC 1
370
     0
100
AcDbVertex
100
AcDb2dVertex
 10
87.05463458110093
 20
-166.8004990902443
 30
0.0
  0
VERTEX
  5
D4
330
D1
100
AcDbEntity
  8
_U+30EC_U+30A4_U+30E4_U+30FC 1
370
     0
100
AcDbVertex
100
AcDb2dVertex
 10
87.05463458110093
 20
-167.1095241552712
 30
0.0
  0
VERTEX
  5
D5
330
D1
100
AcDbEntity
  8
_U+30EC_U+30A4_U+30E4_U+30FC 1
370
     0
100
AcDbVertex
100
AcDb2dVertex
 10
87.49267847205044
 20
-167.1095241552712
 30
0.0
  0
VERTEX
  5
D6
330
D1
100
AcDbEntity
  8
_U+30EC_U+30A4_U+30E4_U+30FC 1
370
     0
100
AcDbVertex
100
AcDb2dVertex
 10
87.49267847205044
 20
-166.8004990902443
 30
0.0
  0
SEQEND
  5
D7
330
D1
100
AcDbEntity
  8
_U+30EC_U+30A4_U+30E4_U+30FC 1
370
     0
  0
POLYLINE
  5
D8
330
B6
100
AcDbEntity
  8
_U+30EC_U+30A4_U+30E4_U+30FC 1
370
     0
100
AcDb2dPolyline
 66
     1
 10
0.0
 20
0.0
 30
0.0
  0
VERTEX
  5
D9
330
D8
100
AcDbEntity
  8
_U+30EC_U+30A4_U+30E4_U+30FC 1
370
     0
100
AcDbVertex
100
AcDb2dVertex
 10
88.14207897102004
 20
-166.3288655183136
 30
0.0
  0
VERTEX
  5
DA
330
D8
100
AcDbEntity
  8
_U+30EC_U+30A4_U+30E4_U+30FC 1
370
     0
100
AcDbVertex
100
AcDb2dVertex
 10
87.6830199976105
 20
-166.3288655183136
 30
0.0
  0
VERTEX
  5
DB
330
D8
100
AcDbEntity
  8
_U+30EC_U+30A4_U+30E4_U+30FC 1
370
     0
100
AcDbVertex
100
AcDb2dVertex
 10
87.6830199976105
 20
-166.6334119592097
 30
0.0
  0
VERTEX
  5
DC
330
D8
100
AcDbEntity
  8
_U+30EC_U+30A4_U+30E4_U+30FC 1
370
     0
100
AcDbVertex
100
AcDb2dVertex
 10
88.14207897102004
 20
-166.6334119592097
 30
0.0
  0
VERTEX
  5
DD
330
D8
100
AcDbEntity
  8
_U+30EC_U+30A4_U+30E4_U+30FC 1
370
     0
100
AcDbVertex
100
AcDb2dVertex
 10
88.14207897102004
 20
-166.3288655183136
 30
0.0
  0
SEQEND
  5
DE
330
D8
100
AcDbEntity
  8
_U+30EC_U+30A4_U+30E4_U+30FC 1
370
     0
  0
POLYLINE
  5
DF
330
B6
100
AcDbEntity
  8
_U+30EC_U+30A4_U+30E4_U+30FC 1
370
     0
100
AcDb2dPolyline
 66
     1
 10
0.0
 20
0.0
 30
0.0
  0
VERTEX
  5
E0
330
DF
100
AcDbEntity
  8
_U+30EC_U+30A4_U+30E4_U+30FC 1
370
     0
100
AcDbVertex
100
AcDb2dVertex
 10
88.14207897102004
 20
-166.8004990902443
 30
0.0
  0
VERTEX
  5
E1
330
DF
100
AcDbEntity
  8
_U+30EC_U+30A4_U+30E4_U+30FC 1
370
     0
100
AcDbVertex
100
AcDb2dVertex
 10
87.6830199976105
 20
-166.8004990902443
 30
0.0
  0
VERTEX
  5
E2
330
DF
100
AcDbEntity
  8
_U+30EC_U+30A4_U+30E4_U+30FC 1
370
     0
100
AcDbVertex
100
AcDb2dVertex
 10
87.6830199976105
 20
-167.1095241552712
 30
0.0
  0
VERTEX
  5
E3
330
DF
100
AcDbEntity
  8
_U+30EC_U+30A4_U+30E4_U+30FC 1
370
     0
100
AcDbVertex
100
AcDb2dVertex
 10
88.14207897102004
 20
-167.1095241552712
 30
0.0
  0
VERTEX
  5
E4
330
DF
100
AcDbEntity
  8
_U+30EC_U+30A4_U+30E4_U+30FC 1
370
     0
100
AcDbVertex
100
AcDb2dVertex
 10
88.14207897102004
 20
-166.8004990902443
 30
0.0
  0
SEQEND
  5
E5
330
DF
100
AcDbEntity
  8
_U+30EC_U+30A4_U+30E4_U+30FC 1
370
     0
  0
HATCH
  5
E6
330
B6
100
AcDbEntity
  8
_U+30EC_U+30A4_U+30E4_U+30FC 1
 62
   179
420
  2234388
100
AcDbHatch
 10
0.0
 20
0.0
 30
0.0
210
0.0
220
0.0
230
1.0
  2
SOLID
 70
     1
 71
     0
 91
        5
 92
        1
 93
        1
 72
     4
 94
        3
 73
     0
 74
     1
 95
       77
 96
       73
 40
0.0
 40
0.0
 40
0.0
 40
0.0
 40
1.0
 40
1.0
 40
1.0
 40
2.0
 40
2.0
 40
2.0
 40
3.0
 40
3.0
 40
3.0
 40
4.0
 40
4.0
 40
4.0
 40
5.0
 40
5.0
 40
5.0
 40
6.0
 40
6.0
 40
6.0
 40
7.0
 40
7.0
 40
7.0
 40
8.0
 40
8.0
 40
8.0
 40
9.0
 40
9.0
 40
9.0
 40
10.0
 40
10.0
 40
10.0
 40
11.0
 40
11.0
 40
11.0
 40
12.0
 40
12.0
 40
12.0
 40
13.0
 40
13.0
 40
13.0
 40
14.0
 40
14.0
 40
14.0
 40
15.0
 40
15.0
 40
15.0
 40
16.0
 40
16.0
 40
16.0
 40
17.0
 40
17.0
 40
17.0
 40
18.0
 40
18.0
 40
18.0
 40
19.0
 40
19.0
 40
19.0
 40
20.0
 40
20.0
 40
20.0
 40
21.0
 40
21.0
 40
21.0
 40
22.0
 40
22.0
 40
22.0
 40
23.0
 40
23.0
 40
23.0
 40
24.0
 40
24.0
 40
24.0
 40
24.0
 10
88.27747122359035
 20
-167.9153319892712
 10
88.23096243453949
 20
-167.940825695862
 10
88.10607772319918
 20
-167.9535725491575
 10
88.02787405568401
 20
-167.9535725491575
 10
88.01512720238858
 20
-167.9535725491575
 10
87.989805750572
 20
-167.9535725491575
 10
87.95587156004228
 20
-167.9494384345751
 10
87.95587156004228
 20
-167.9494384345751
 10
87.85854761258398
 20
-167.7230956611942
 10
87.85854761258398
 20
-167.7230956611942
 10
87.88817543375713
 20
-167.7292968330677
 10
87.94536401881227
 20
-167.7379095717808
 10
88.06163599143946
 20
-167.7379095717808
 10
88.14001191372888
 20
-167.7379095717808
 10
88.14207897102004
 20
-167.6955348973122
 10
88.14207897102004
 20
-167.6383463122571
 10
88.14207897102004
 20
-167.6383463122571
 10
88.14207897102004
 20
-167.2893581396013
 10
88.14207897102004
 20
-167.2893581396013
 10
88.14207897102004
 20
-167.2893581396013
 10
87.6830199976105
 20
-167.2893581396013
 10
87.6830199976105
 20
-167.2893581396013
 10
87.68508705490164
 20
-167.4268174494628
 10
87.68732636696706
 20
-167.6255994589617
 10
87.69352753884051
 20
-167.7589246542408
 10
87.69576685090593
 20
-167.7864854181228
 10
87.69576685090593
 20
-167.8309271498825
 10
87.70834144942708
 20
-167.89224984952
 10
87.70834144942708
 20
-167.89224984952
 10
87.46718476545959
 20
-167.89224984952
 10
87.46718476545959
 20
-167.89224984952
 10
87.49267847205044
 20
-167.767537392954
 10
87.49267847205044
 20
-167.4268174494628
 10
87.49267847205044
 20
-167.2893581396013
 10
87.49267847205044
 20
-167.2893581396013
 10
87.05050046651863
 20
-167.2893581396013
 10
87.05050046651863
 20
-167.2893581396013
 10
87.02724607199319
 20
-167.4967528878133
 10
86.96161700299918
 20
-167.7651258261143
 10
86.76490205079142
 20
-167.9494384345751
 10
86.76490205079142
 20
-167.9494384345751
 10
86.57662758252252
 20
-167.8267930353003
 10
86.57662758252252
 20
-167.8267930353003
 10
86.83053111978543
 20
-167.6066514337928
 10
86.86222599824973
 20
-167.2745442290147
 10
86.86222599824973
 20
-166.9424370242366
 10
86.86222599824973
 20
-166.9424370242366
 10
86.86222599824973
 20
-166.5066324453525
 10
86.86222599824973
 20
-166.5066324453525
 10
86.86222599824973
 20
-166.4704589427574
 10
86.86015894095857
 20
-166.237914997503
 10
86.85154620224544
 20
-166.1362846806882
 10
86.99124482417233
 20
-166.1469644766924
 10
87.23240150813982
 20
-166.1469644766924
 10
87.376234244649
 20
-166.1469644766924
 10
87.376234244649
 20
-166.1469644766924
 10
87.83529321805854
 20
-166.1469644766924
 10
87.83529321805854
 20
-166.1469644766924
 10
87.85010712864512
 20
-166.1469644766924
 10
88.19926755607518
 20
-166.1469644766924
 10
88.35791420317094
 20
-166.1362846806882
 10
88.35567489110554
 20
-166.189339151161
 10
88.34947371923208
 20
-166.3498806007736
 10
88.34947371923208
 20
-166.4008680139553
 10
88.34947371923208
 20
-166.4008680139553
 10
88.34947371923208
 20
-167.0078938384564
 10
88.34947371923208
 20
-167.0078938384564
 10
88.34947371923208
 20
-167.0268418636252
 10
88.35998126046209
 20
-167.5980386950797
 10
88.35998126046209
 20
-167.7103488078988
 10
88.35998126046209
 20
-167.767537392954
 10
88.35998126046209
 20
-167.8688232002203
 10
88.27747122359035
 20
-167.9153319892712
 97
        0
 97
        0
 92
        1
 93
        4
 72
     1
 10
87.49267847205044
 20
-166.3288655183136
 11
87.05463458110093
 21
-166.3288655183136
 72
     1
 10
87.05463458110093
 20
-166.3288655183136
 11
87.05463458110093
 21
-166.6334119592097
 72
     1
 10
87.05463458110093
 20
-166.6334119592097
 11
87.49267847205044
 21
-166.6334119592097
 72
     1
 10
87.49267847205044
 20
-166.6334119592097
 11
87.49267847205044
 21
-166.3288655183136
 97
        0
 92
        1
 93
        4
 72
     1
 10
87.49267847205044
 20
-166.8004990902443
 11
87.05463458110093
 21
-166.8004990902443
 72
     1
 10
87.05463458110093
 20
-166.8004990902443
 11
87.05463458110093
 21
-167.1095241552712
 72
     1
 10
87.05463458110093
 20
-167.1095241552712
 11
87.49267847205044
 21
-167.1095241552712
 72
     1
 10
87.49267847205044
 20
-167.1095241552712
 11
87.49267847205044
 21
-166.8004990902443
 97
        0
 92
        1
 93
        4
 72
     1
 10
88.14207897102004
 20
-166.3288655183136
 11
87.6830199976105
 21
-166.3288655183136
 72
     1
 10
87.6830199976105
 20
-166.3288655183136
 11
87.6830199976105
 21
-166.6334119592097
 72
     1
 10
87.6830199976105
 20
-166.6334119592097
 11
88.14207897102004
 21
-166.6334119592097
 72
     1
 10
88.14207897102004
 20
-166.6334119592097
 11
88.14207897102004
 21
-166.3288655183136
 97
        0
 92
        1
 93
        4
 72
     1
 10
88.14207897102004
 20
-166.8004990902443
 11
87.6830199976105
 21
-166.8004990902443
 72
     1
 10
87.6830199976105
 20
-166.8004990902443
 11
87.6830199976105
 21
-167.1095241552712
 72
     1
 10
87.6830199976105
 20
-167.1095241552712
 11
88.14207897102004
 21
-167.1095241552712
 72
     1
 10
88.14207897102004
 20
-167.1095241552712
 11
88.14207897102004
 21
-166.8004990902443
 97
        0
 75
     2
 76
     1
 98
        0
  0
SPLINE
  5
E7
330
B6
100
AcDbEntity
  8
_U+30EC_U+30A4_U+30E4_U+30FC 1
370
     0
100
AcDbSpline
210
0.0
220
0.0
230
1.0
 70
    11
 71
     3
 72
    44
 73
    40
 74
     0
 42
0.0000000001
 43
0.0000000001
 12
1.0
 22
0.0
 32
0.0
 13
1.0
 23
0.0
 33
0.0
 40
0.0
 40
0.0
 40
0.0
 40
0.0
 40
1.0
 40
1.0
 40
1.0
 40
2.0
 40
2.0
 40
2.0
 40
3.0
 40
3.0
 40
3.0
 40
4.0
 40
4.0
 40
4.0
 40
5.0
 40
5.0
 40
5.0
 40
6.0
 40
6.0
 40
6.0
 40
7.0
 40
7.0
 40
7.0
 40
8.0
 40
8.0
 40
8.0
 40
9.0
 40
9.0
 40
9.0
 40
10.0
 40
10.0
 40
10.0
 40
11.0
 40
11.0
 40
11.0
 40
12.0
 40
12.0
 40
12.0
 40
13.0
 40
13.0
 40
13.0
 40
13.0
 10
90.15504826305153
 20
-166.665106837674
 30
0.0
 10
90.04291040500664
 20
-167.0333875450472
 30
0.0
 10
89.9920952465992
 20
-167.1918619373687
 30
0.0
 10
89.79538029439144
 20
-167.4416313600493
 30
0.0
 10
89.61141219547909
 20
-167.6721082480125
 30
0.0
 10
89.3743896260939
 20
-167.8584879137645
 30
0.0
 10
89.0951646370144
 20
-167.9515054918663
 30
0.0
 10
89.0951646370144
 20
-167.9515054918663
 30
0.0
 10
88.90258379938894
 20
-167.7716715075363
 30
0.0
 10
88.90258379938894
 20
-167.7716715075363
 30
0.0
 10
89.54371606919393
 20
-167.6193982870882
 30
0.0
 10
89.8735839619066
 20
-167.0630153662204
 30
0.0
 10
89.93714597360946
 20
-166.623076672754
 30
0.0
 10
89.93714597360946
 20
-166.623076672754
 30
0.0
 10
89.17130124723843
 20
-166.623076672754
 30
0.0
 10
89.17130124723843
 20
-166.623076672754
 30
0.0
 10
89.07828366913668
 20
-166.623076672754
 30
0.0
 10
88.89414331545008
 20
-166.6272107873363
 30
0.0
 10
88.73756372564547
 20
-166.6461588125051
 30
0.0
 10
88.73756372564547
 20
-166.6461588125051
 30
0.0
 10
88.73756372564547
 20
-166.4260172109977
 30
0.0
 10
88.73756372564547
 20
-166.4260172109977
 30
0.0
 10
88.82438013187377
 20
-166.4473768030062
 30
0.0
 10
89.07604435707127
 20
-166.4473768030062
 30
0.0
 10
89.17560761659499
 20
-166.4473768030062
 30
0.0
 10
89.17560761659499
 20
-166.4473768030062
 30
0.0
 10
89.60710582612253
 20
-166.4473768030062
 30
0.0
 10
89.60710582612253
 20
-166.4473768030062
 30
0.0
 10
89.64948050059111
 20
-166.4473768030062
 30
0.0
 10
89.88426375791089
 20
-166.4453097457151
 30
0.0
 10
89.92233206302289
 20
-166.4387640642931
 30
0.0
 10
89.96470673749147
 20
-166.4325628924196
 30
0.0
 10
89.96677379478261
 20
-166.4304958351285
 30
0.0
 10
90.02809649442007
 20
-166.3901882179511
 30
0.0
 10
90.02809649442007
 20
-166.3901882179511
 30
0.0
 10
90.21637096268897
 20
-166.5445284956903
 30
0.0
 10
90.21637096268897
 20
-166.5445284956903
 30
0.0
 10
90.18674314151582
 20
-166.5741563168634
 30
0.0
 10
90.17192923092924
 20
-166.6058511953277
 30
0.0
 10
90.15504826305153
 20
-166.665106837674
 30
0.0
  0
SPLINE
  5
E8
330
B6
100
AcDbEntity
  8
_U+30EC_U+30A4_U+30E4_U+30FC 1
370
     0
100
AcDbSpline
210
0.0
220
0.0
230
1.0
 70
    11
 71
     3
 72
    17
 73
    13
 74
     0
 42
0.0000000001
 43
0.0000000001
 12
1.0
 22
0.0
 32
0.0
 13
1.0
 23
0.0
 33
0.0
 40
0.0
 40
0.0
 40
0.0
 40
0.0
 40
1.0
 40
1.0
 40
1.0
 40
2.0
 40
2.0
 40
2.0
 40
3.0
 40
3.0
 40
3.0
 40
4.0
 40
4.0
 40
4.0
 40
4.0
 10
90.36451006855471
 20
-166.4663248281751
 30
0.0
 10
90.23755829992325
 20
-166.4663248281751
 30
0.0
 10
90.13592798310839
 20
-166.3646945113602
 30
0.0
 10
90.13592798310839
 20
-166.237914997503
 30
0.0
 10
90.13592798310839
 20
-166.1111354836458
 30
0.0
 10
90.23755829992325
 20
-166.0074381095398
 30
0.0
 10
90.36451006855471
 20
-166.0074381095398
 30
0.0
 10
90.49146183718616
 20
-166.0074381095398
 30
0.0
 10
90.59498695651793
 20
-166.1111354836458
 30
0.0
 10
90.59498695651793
 20
-166.237914997503
 30
0.0
 10
90.59498695651793
 20
-166.3646945113602
 30
0.0
 10
90.49146183718616
 20
-166.4663248281751
 30
0.0
 10
90.36451006855471
 20
-166.4663248281751
 30
0.0
  0
SPLINE
  5
E9
330
B6
100
AcDbEntity
  8
_U+30EC_U+30A4_U+30E4_U+30FC 1
370
     0
100
AcDbSpline
210
0.0
220
0.0
230
1.0
 70
    11
 71
     3
 72
    17
 73
    13
 74
     0
 42
0.0000000001
 43
0.0000000001
 12
1.0
 22
0.0
 32
0.0
 13
1.0
 23
0.0
 33
0.0
 40
0.0
 40
0.0
 40
0.0
 40
0.0
 40
1.0
 40
1.0
 40
1.0
 40
2.0
 40
2.0
 40
2.0
 40
3.0
 40
3.0
 40
3.0
 40
4.0
 40
4.0
 40
4.0
 40
4.0
 10
90.3622707564893
 20
-166.1362846806882
 30
0.0
 10
90.30732148349956
 20
-166.1362846806882
 30
0.0
 10
90.26287975173985
 20
-166.1807264124479
 30
0.0
 10
90.26287975173985
 20
-166.2358479402119
 30
0.0
 10
90.26287975173985
 20
-166.293036525267
 30
0.0
 10
90.30732148349956
 20
-166.341612371609
 30
0.0
 10
90.36657712584586
 20
-166.341612371609
 30
0.0
 10
90.42583276819215
 20
-166.341612371609
 30
0.0
 10
90.46596813059531
 20
-166.2906249584273
 30
0.0
 10
90.46596813059531
 20
-166.237914997503
 30
0.0
 10
90.46596813059531
 20
-166.1807264124479
 30
0.0
 10
90.41945934154444
 20
-166.1362846806882
 30
0.0
 10
90.3622707564893
 20
-166.1362846806882
 30
0.0
  0
HATCH
  5
EA
330
B6
100
AcDbEntity
  8
_U+30EC_U+30A4_U+30E4_U+30FC 1
 62
   179
420
  2234388
100
AcDbHatch
 10
0.0
 20
0.0
 30
0.0
210
0.0
220
0.0
230
1.0
  2
SOLID
 70
     1
 71
     0
 91
        3
 92
        1
 93
        1
 72
     4
 94
        3
 73
     0
 74
     1
 95
       44
 96
       40
 40
0.0
 40
0.0
 40
0.0
 40
0.0
 40
1.0
 40
1.0
 40
1.0
 40
2.0
 40
2.0
 40
2.0
 40
3.0
 40
3.0
 40
3.0
 40
4.0
 40
4.0
 40
4.0
 40
5.0
 40
5.0
 40
5.0
 40
6.0
 40
6.0
 40
6.0
 40
7.0
 40
7.0
 40
7.0
 40
8.0
 40
8.0
 40
8.0
 40
9.0
 40
9.0
 40
9.0
 40
10.0
 40
10.0
 40
10.0
 40
11.0
 40
11.0
 40
11.0
 40
12.0
 40
12.0
 40
12.0
 40
13.0
 40
13.0
 40
13.0
 40
13.0
 10
90.15504826305153
 20
-166.665106837674
 10
90.04291040500664
 20
-167.0333875450472
 10
89.9920952465992
 20
-167.1918619373687
 10
89.79538029439144
 20
-167.4416313600493
 10
89.61141219547909
 20
-167.6721082480125
 10
89.3743896260939
 20
-167.8584879137645
 10
89.0951646370144
 20
-167.9515054918663
 10
89.0951646370144
 20
-167.9515054918663
 10
88.90258379938894
 20
-167.7716715075363
 10
88.90258379938894
 20
-167.7716715075363
 10
89.54371606919393
 20
-167.6193982870882
 10
89.8735839619066
 20
-167.0630153662204
 10
89.93714597360946
 20
-166.623076672754
 10
89.93714597360946
 20
-166.623076672754
 10
89.17130124723843
 20
-166.623076672754
 10
89.17130124723843
 20
-166.623076672754
 10
89.07828366913668
 20
-166.623076672754
 10
88.89414331545008
 20
-166.6272107873363
 10
88.73756372564547
 20
-166.6461588125051
 10
88.73756372564547
 20
-166.6461588125051
 10
88.73756372564547
 20
-166.4260172109977
 10
88.73756372564547
 20
-166.4260172109977
 10
88.82438013187377
 20
-166.4473768030062
 10
89.07604435707127
 20
-166.4473768030062
 10
89.17560761659499
 20
-166.4473768030062
 10
89.17560761659499
 20
-166.4473768030062
 10
89.60710582612253
 20
-166.4473768030062
 10
89.60710582612253
 20
-166.4473768030062
 10
89.64948050059111
 20
-166.4473768030062
 10
89.88426375791089
 20
-166.4453097457151
 10
89.92233206302289
 20
-166.4387640642931
 10
89.96470673749147
 20
-166.4325628924196
 10
89.96677379478261
 20
-166.4304958351285
 10
90.02809649442007
 20
-166.3901882179511
 10
90.02809649442007
 20
-166.3901882179511
 10
90.21637096268897
 20
-166.5445284956903
 10
90.21637096268897
 20
-166.5445284956903
 10
90.18674314151582
 20
-166.5741563168634
 10
90.17192923092924
 20
-166.6058511953277
 10
90.15504826305153
 20
-166.665106837674
 97
        0
 97
        0
 92
        1
 93
        1
 72
     4
 94
        3
 73
     0
 74
     1
 95
       17
 96
       13
 40
0.0
 40
0.0
 40
0.0
 40
0.0
 40
1.0
 40
1.0
 40
1.0
 40
2.0
 40
2.0
 40
2.0
 40
3.0
 40
3.0
 40
3.0
 40
4.0
 40
4.0
 40
4.0
 40
4.0
 10
90.36451006855471
 20
-166.4663248281751
 10
90.23755829992325
 20
-166.4663248281751
 10
90.13592798310839
 20
-166.3646945113602
 10
90.13592798310839
 20
-166.237914997503
 10
90.13592798310839
 20
-166.1111354836458
 10
90.23755829992325
 20
-166.0074381095398
 10
90.36451006855471
 20
-166.0074381095398
 10
90.49146183718616
 20
-166.0074381095398
 10
90.59498695651793
 20
-166.1111354836458
 10
90.59498695651793
 20
-166.237914997503
 10
90.59498695651793
 20
-166.3646945113602
 10
90.49146183718616
 20
-166.4663248281751
 10
90.36451006855471
 20
-166.4663248281751
 97
        0
 97
        0
 92
        1
 93
        1
 72
     4
 94
        3
 73
     0
 74
     1
 95
       17
 96
       13
 40
0.0
 40
0.0
 40
0.0
 40
0.0
 40
1.0
 40
1.0
 40
1.0
 40
2.0
 40
2.0
 40
2.0
 40
3.0
 40
3.0
 40
3.0
 40
4.0
 40
4.0
 40
4.0
 40
4.0
 10
90.3622707564893
 20
-166.1362846806882
 10
90.30732148349956
 20
-166.1362846806882
 10
90.26287975173985
 20
-166.1807264124479
 10
90.26287975173985
 20
-166.2358479402119
 10
90.26287975173985
 20
-166.293036525267
 10
90.30732148349956
 20
-166.341612371609
 10
90.36657712584586
 20
-166.341612371609
 10
90.42583276819215
 20
-166.341612371609
 10
90.46596813059531
 20
-166.2906249584273
 10
90.46596813059531
 20
-166.237914997503
 10
90.46596813059531
 20
-166.1807264124479
 10
90.41945934154444
 20
-166.1362846806882
 10
90.3622707564893
 20
-166.1362846806882
 97
        0
 97
        0
 75
     2
 76
     1
 98
        0
  0
SPLINE
  5
EB
330
B6
100
AcDbEntity
  8
_U+30EC_U+30A4_U+30E4_U+30FC 1
370
     0
100
AcDbSpline
210
0.0
220
0.0
230
1.0
 70
    11
 71
     3
 72
    50
 73
    46
 74
     0
 42
0.0000000001
 43
0.0000000001
 12
1.0
 22
0.0
 32
0.0
 13
1.0
 23
0.0
 33
0.0
 40
0.0
 40
0.0
 40
0.0
 40
0.0
 40
1.0
 40
1.0
 40
1.0
 40
2.0
 40
2.0
 40
2.0
 40
3.0
 40
3.0
 40
3.0
 40
4.0
 40
4.0
 40
4.0
 40
5.0
 40
5.0
 40
5.0
 40
6.0
 40
6.0
 40
6.0
 40
7.0
 40
7.0
 40
7.0
 40
8.0
 40
8.0
 40
8.0
 40
9.0
 40
9.0
 40
9.0
 40
10.0
 40
10.0
 40
10.0
 40
11.0
 40
11.0
 40
11.0
 40
12.0
 40
12.0
 40
12.0
 40
13.0
 40
13.0
 40
13.0
 40
14.0
 40
14.0
 40
14.0
 40
15.0
 40
15.0
 40
15.0
 40
15.0
 10
92.15940481636987
 20
-166.9741319027009
 30
0.0
 10
92.0812011488547
 20
-167.1518988297398
 30
0.0
 10
91.94580889628439
 20
-167.3589490684033
 30
0.0
 10
91.80834958642292
 20
-167.4988199451045
 30
0.0
 10
91.63902314332289
 20
-167.6700411907214
 30
0.0
 10
91.47607012687057
 20
-167.7589246542408
 30
0.0
 10
91.15670977538791
 20
-167.9005180786846
 30
0.0
 10
91.15670977538791
 20
-167.9005180786846
 30
0.0
 10
90.98738333228788
 20
-167.71241586519
 30
0.0
 10
90.98738333228788
 20
-167.71241586519
 30
0.0
 10
91.17359074326563
 20
-167.6889892158903
 30
0.0
 10
91.34498424365681
 20
-167.6025173192105
 30
0.0
 10
91.49725746410486
 20
-167.4967528878133
 30
0.0
 10
91.75960148530663
 20
-167.3148518461921
 30
0.0
 10
91.94994301086669
 20
-167.0016926665829
 30
0.0
 10
91.99869111198296
 20
-166.8197916249617
 30
0.0
 10
91.99869111198296
 20
-166.8197916249617
 30
0.0
 10
91.32810327577909
 20
-166.8197916249617
 30
0.0
 10
91.32810327577909
 20
-166.8197916249617
 30
0.0
 10
91.16945662868333
 20
-166.8197916249617
 30
0.0
 10
90.87748478630841
 20
-166.8280598541263
 30
0.0
 10
90.72521156586036
 20
-166.844940822004
 30
0.0
 10
90.72521156586036
 20
-166.844940822004
 30
0.0
 10
90.72521156586036
 20
-166.616530991332
 30
0.0
 10
90.72521156586036
 20
-166.616530991332
 30
0.0
 10
90.75897350161581
 20
-166.623076672754
 30
0.0
 10
90.78429495343241
 20
-166.6292778446274
 30
0.0
 10
90.83717716913098
 20
-166.6334119592097
 30
0.0
 10
90.93880748594586
 20
-166.6399576406317
 30
0.0
 10
91.13552243815363
 20
-166.6420246979228
 30
0.0
 10
91.22009953231651
 20
-166.6420246979228
 30
0.0
 10
91.22009953231651
 20
-166.6420246979228
 30
0.0
 10
91.72583954955118
 20
-166.6420246979228
 30
0.0
 10
91.72583954955118
 20
-166.6420246979228
 30
0.0
 10
91.79353567583634
 20
-166.6420246979228
 30
0.0
 10
91.93943546963668
 20
-166.6378905833405
 30
0.0
 10
92.00075816927412
 20
-166.6313449019186
 30
0.0
 10
92.07276066491585
 20
-166.623076672754
 30
0.0
 10
92.10014917402358
 20
-166.6082627621674
 30
0.0
 10
92.13408336455329
 20
-166.5848361128677
 30
0.0
 10
92.13408336455329
 20
-166.5848361128677
 30
0.0
 10
92.29910343829675
 20
-166.7519232439023
 30
0.0
 10
92.29910343829675
 20
-166.7519232439023
 30
0.0
 10
92.22934025472044
 20
-166.8197916249617
 30
0.0
 10
92.18265921089531
 20
-166.9234889990678
 30
0.0
 10
92.15940481636987
 20
-166.9741319027009
 30
0.0
  0
SPLINE
  5
EC
330
B6
100
AcDbEntity
  8
_U+30EC_U+30A4_U+30E4_U+30FC 1
370
     0
100
AcDbSpline
210
0.0
220
0.0
230
1.0
 70
    11
 71
     3
 72
    29
 73
    25
 74
     0
 42
0.0000000001
 43
0.0000000001
 12
1.0
 22
0.0
 32
0.0
 13
1.0
 23
0.0
 33
0.0
 40
0.0
 40
0.0
 40
0.0
 40
0.0
 40
1.0
 40
1.0
 40
1.0
 40
2.0
 40
2.0
 40
2.0
 40
3.0
 40
3.0
 40
3.0
 40
4.0
 40
4.0
 40
4.0
 40
5.0
 40
5.0
 40
5.0
 40
6.0
 40
6.0
 40
6.0
 40
7.0
 40
7.0
 40
7.0
 40
8.0
 40
8.0
 40
8.0
 40
8.0
 10
91.66658390720488
 20
-166.3478135434825
 30
0.0
 10
91.66658390720488
 20
-166.3478135434825
 30
0.0
 10
91.32586396371367
 20
-166.3478135434825
 30
0.0
 10
91.32586396371367
 20
-166.3478135434825
 30
0.0
 10
91.21165904837764
 20
-166.3478135434825
 30
0.0
 10
91.09538707575047
 20
-166.3522921676133
 30
0.0
 10
90.98118216041443
 20
-166.3671060781999
 30
0.0
 10
90.98118216041443
 20
-166.3671060781999
 30
0.0
 10
90.98118216041443
 20
-166.1576442726967
 30
0.0
 10
90.98118216041443
 20
-166.1576442726967
 30
0.0
 10
91.09952119033277
 20
-166.1724581832833
 30
0.0
 10
91.2729817480151
 20
-166.1765922978656
 30
0.0
 10
91.32586396371367
 20
-166.1765922978656
 30
0.0
 10
91.32586396371367
 20
-166.1765922978656
 30
0.0
 10
91.66658390720488
 20
-166.1765922978656
 30
0.0
 10
91.66658390720488
 20
-166.1765922978656
 30
0.0
 10
91.78285587983207
 20
-166.1765922978656
 30
0.0
 10
91.89930010723351
 20
-166.1724581832833
 30
0.0
 10
92.01557207986069
 20
-166.1576442726967
 30
0.0
 10
92.01557207986069
 20
-166.1576442726967
 30
0.0
 10
92.01557207986069
 20
-166.3671060781999
 30
0.0
 10
92.01557207986069
 20
-166.3671060781999
 30
0.0
 10
91.86536591670381
 20
-166.3478135434825
 30
0.0
 10
91.68139781779146
 20
-166.3478135434825
 30
0.0
 10
91.66658390720488
 20
-166.3478135434825
 30
0.0
  0
HATCH
  5
ED
330
B6
100
AcDbEntity
  8
_U+30EC_U+30A4_U+30E4_U+30FC 1
 62
   179
420
  2234388
100
AcDbHatch
 10
0.0
 20
0.0
 30
0.0
210
0.0
220
0.0
230
1.0
  2
SOLID
 70
     1
 71
     0
 91
        2
 92
        1
 93
        1
 72
     4
 94
        3
 73
     0
 74
     1
 95
       50
 96
       46
 40
0.0
 40
0.0
 40
0.0
 40
0.0
 40
1.0
 40
1.0
 40
1.0
 40
2.0
 40
2.0
 40
2.0
 40
3.0
 40
3.0
 40
3.0
 40
4.0
 40
4.0
 40
4.0
 40
5.0
 40
5.0
 40
5.0
 40
6.0
 40
6.0
 40
6.0
 40
7.0
 40
7.0
 40
7.0
 40
8.0
 40
8.0
 40
8.0
 40
9.0
 40
9.0
 40
9.0
 40
10.0
 40
10.0
 40
10.0
 40
11.0
 40
11.0
 40
11.0
 40
12.0
 40
12.0
 40
12.0
 40
13.0
 40
13.0
 40
13.0
 40
14.0
 40
14.0
 40
14.0
 40
15.0
 40
15.0
 40
15.0
 40
15.0
 10
92.15940481636987
 20
-166.9741319027009
 10
92.0812011488547
 20
-167.1518988297398
 10
91.94580889628439
 20
-167.3589490684033
 10
91.80834958642292
 20
-167.4988199451045
 10
91.63902314332289
 20
-167.6700411907214
 10
91.47607012687057
 20
-167.7589246542408
 10
91.15670977538791
 20
-167.9005180786846
 10
91.15670977538791
 20
-167.9005180786846
 10
90.98738333228788
 20
-167.71241586519
 10
90.98738333228788
 20
-167.71241586519
 10
91.17359074326563
 20
-167.6889892158903
 10
91.34498424365681
 20
-167.6025173192105
 10
91.49725746410486
 20
-167.4967528878133
 10
91.75960148530663
 20
-167.3148518461921
 10
91.94994301086669
 20
-167.0016926665829
 10
91.99869111198296
 20
-166.8197916249617
 10
91.99869111198296
 20
-166.8197916249617
 10
91.32810327577909
 20
-166.8197916249617
 10
91.32810327577909
 20
-166.8197916249617
 10
91.16945662868333
 20
-166.8197916249617
 10
90.87748478630841
 20
-166.8280598541263
 10
90.72521156586036
 20
-166.844940822004
 10
90.72521156586036
 20
-166.844940822004
 10
90.72521156586036
 20
-166.616530991332
 10
90.72521156586036
 20
-166.616530991332
 10
90.75897350161581
 20
-166.623076672754
 10
90.78429495343241
 20
-166.6292778446274
 10
90.83717716913098
 20
-166.6334119592097
 10
90.93880748594586
 20
-166.6399576406317
 10
91.13552243815363
 20
-166.6420246979228
 10
91.22009953231651
 20
-166.6420246979228
 10
91.22009953231651
 20
-166.6420246979228
 10
91.72583954955118
 20
-166.6420246979228
 10
91.72583954955118
 20
-166.6420246979228
 10
91.79353567583634
 20
-166.6420246979228
 10
91.93943546963668
 20
-166.6378905833405
 10
92.00075816927412
 20
-166.6313449019186
 10
92.07276066491585
 20
-166.623076672754
 10
92.10014917402358
 20
-166.6082627621674
 10
92.13408336455329
 20
-166.5848361128677
 10
92.13408336455329
 20
-166.5848361128677
 10
92.29910343829675
 20
-166.7519232439023
 10
92.29910343829675
 20
-166.7519232439023
 10
92.22934025472044
 20
-166.8197916249617
 10
92.18265921089531
 20
-166.9234889990678
 10
92.15940481636987
 20
-166.9741319027009
 97
        0
 97
        0
 92
        1
 93
        1
 72
     4
 94
        3
 73
     0
 74
     1
 95
       29
 96
       25
 40
0.0
 40
0.0
 40
0.0
 40
0.0
 40
1.0
 40
1.0
 40
1.0
 40
2.0
 40
2.0
 40
2.0
 40
3.0
 40
3.0
 40
3.0
 40
4.0
 40
4.0
 40
4.0
 40
5.0
 40
5.0
 40
5.0
 40
6.0
 40
6.0
 40
6.0
 40
7.0
 40
7.0
 40
7.0
 40
8.0
 40
8.0
 40
8.0
 40
8.0
 10
91.66658390720488
 20
-166.3478135434825
 10
91.66658390720488
 20
-166.3478135434825
 10
91.32586396371367
 20
-166.3478135434825
 10
91.32586396371367
 20
-166.3478135434825
 10
91.21165904837764
 20
-166.3478135434825
 10
91.09538707575047
 20
-166.3522921676133
 10
90.98118216041443
 20
-166.3671060781999
 10
90.98118216041443
 20
-166.3671060781999
 10
90.98118216041443
 20
-166.1576442726967
 10
90.98118216041443
 20
-166.1576442726967
 10
91.09952119033277
 20
-166.1724581832833
 10
91.2729817480151
 20
-166.1765922978656
 10
91.32586396371367
 20
-166.1765922978656
 10
91.32586396371367
 20
-166.1765922978656
 10
91.66658390720488
 20
-166.1765922978656
 10
91.66658390720488
 20
-166.1765922978656
 10
91.78285587983207
 20
-166.1765922978656
 10
91.89930010723351
 20
-166.1724581832833
 10
92.01557207986069
 20
-166.1576442726967
 10
92.01557207986069
 20
-166.1576442726967
 10
92.01557207986069
 20
-166.3671060781999
 10
92.01557207986069
 20
-166.3671060781999
 10
91.86536591670381
 20
-166.3478135434825
 10
91.68139781779146
 20
-166.3478135434825
 10
91.66658390720488
 20
-166.3478135434825
 97
        0
 97
        0
 75
     2
 76
     1
 98
        0
  0
SPLINE
  5
EE
330
B6
100
AcDbEntity
  8
_U+30EC_U+30A4_U+30E4_U+30FC 1
370
     0
100
AcDbSpline
210
0.0
220
0.0
230
1.0
 70
    11
 71
     3
 72
    50
 73
    46
 74
     0
 42
0.0000000001
 43
0.0000000001
 12
1.0
 22
0.0
 32
0.0
 13
1.0
 23
0.0
 33
0.0
 40
0.0
 40
0.0
 40
0.0
 40
0.0
 40
1.0
 40
1.0
 40
1.0
 40
2.0
 40
2.0
 40
2.0
 40
3.0
 40
3.0
 40
3.0
 40
4.0
 40
4.0
 40
4.0
 40
5.0
 40
5.0
 40
5.0
 40
6.0
 40
6.0
 40
6.0
 40
7.0
 40
7.0
 40
7.0
 40
8.0
 40
8.0
 40
8.0
 40
9.0
 40
9.0
 40
9.0
 40
10.0
 40
10.0
 40
10.0
 40
11.0
 40
11.0
 40
11.0
 40
12.0
 40
12.0
 40
12.0
 40
13.0
 40
13.0
 40
13.0
 40
14.0
 40
14.0
 40
14.0
 40
15.0
 40
15.0
 40
15.0
 40
15.0
 10
93.86972247002215
 20
-166.3329996328959
 30
0.0
 10
93.66026066451897
 20
-166.5465955529814
 30
0.0
 10
93.58825816887725
 20
-166.6185980486231
 30
0.0
 10
93.44649248965922
 20
-166.7371093333157
 30
0.0
 10
93.44649248965922
 20
-166.7371093333157
 30
0.0
 10
93.44649248965922
 20
-167.3041720501878
 30
0.0
 10
93.44649248965922
 20
-167.3041720501878
 30
0.0
 10
93.44649248965922
 20
-167.4543782133447
 30
0.0
 10
93.45286591630693
 20
-167.4733262385136
 30
0.0
 10
93.45717228566349
 20
-167.6510931655525
 30
0.0
 10
93.45923934295463
 20
-167.7823513035405
 30
0.0
 10
93.46561276960234
 20
-167.8309271498825
 30
0.0
 10
93.47198619625006
 20
-167.8901827922288
 30
0.0
 10
93.47198619625006
 20
-167.8901827922288
 30
0.0
 10
93.24564342286915
 20
-167.8901827922288
 30
0.0
 10
93.24564342286915
 20
-167.8901827922288
 30
0.0
 10
93.24977753745145
 20
-167.8457410604691
 30
0.0
 10
93.254083906808
 20
-167.7992322714182
 30
0.0
 10
93.254083906808
 20
-167.7906195327051
 30
0.0
 10
93.254083906808
 20
-167.7103488078988
 30
0.0
 10
93.2582180213903
 20
-167.3589490684033
 30
0.0
 10
93.2582180213903
 20
-167.2872910823101
 30
0.0
 10
93.2582180213903
 20
-167.2872910823101
 30
0.0
 10
93.2582180213903
 20
-166.8811143245992
 30
0.0
 10
93.2582180213903
 20
-166.8811143245992
 30
0.0
 10
93.07631697976912
 20
-167.0058267811652
 30
0.0
 10
92.8816690848525
 20
-167.1157253271447
 30
0.0
 10
92.67858070599702
 20
-167.202541733373
 30
0.0
 10
92.67858070599702
 20
-167.202541733373
 30
0.0
 10
92.47549232714155
 20
-167.0395887169207
 30
0.0
 10
92.47549232714155
 20
-167.0395887169207
 30
0.0
 10
92.59830998119071
 20
-167.0037597238741
 30
0.0
 10
92.85428057574477
 20
-166.9296901709412
 30
0.0
 10
93.19896237904402
 20
-166.6737195763871
 30
0.0
 10
93.41479761119491
 20
-166.5149006745171
 30
0.0
 10
93.60737844882038
 20
-166.3267984610225
 30
0.0
 10
93.75965166926842
 20
-166.106656859515
 30
0.0
 10
93.75965166926842
 20
-166.106656859515
 30
0.0
 10
93.95223250689389
 20
-166.2506618507985
 30
0.0
 10
93.95223250689389
 20
-166.2506618507985
 30
0.0
 10
93.96480710541505
 20
-166.2609971372542
 30
0.0
 10
93.97324758935392
 20
-166.2758110478408
 30
0.0
 10
93.97324758935392
 20
-166.2885579011362
 30
0.0
 10
93.97324758935392
 20
-166.3288655183136
 30
0.0
 10
93.9351792842419
 20
-166.3288655183136
 30
0.0
 10
93.86972247002215
 20
-166.3329996328959
 30
0.0
  0
HATCH
  5
EF
330
B6
100
AcDbEntity
  8
_U+30EC_U+30A4_U+30E4_U+30FC 1
 62
   179
420
  2234388
100
AcDbHatch
 10
0.0
 20
0.0
 30
0.0
210
0.0
220
0.0
230
1.0
  2
SOLID
 70
     1
 71
     0
 91
        1
 92
        1
 93
        1
 72
     4
 94
        3
 73
     0
 74
     1
 95
       50
 96
       46
 40
0.0
 40
0.0
 40
0.0
 40
0.0
 40
1.0
 40
1.0
 40
1.0
 40
2.0
 40
2.0
 40
2.0
 40
3.0
 40
3.0
 40
3.0
 40
4.0
 40
4.0
 40
4.0
 40
5.0
 40
5.0
 40
5.0
 40
6.0
 40
6.0
 40
6.0
 40
7.0
 40
7.0
 40
7.0
 40
8.0
 40
8.0
 40
8.0
 40
9.0
 40
9.0
 40
9.0
 40
10.0
 40
10.0
 40
10.0
 40
11.0
 40
11.0
 40
11.0
 40
12.0
 40
12.0
 40
12.0
 40
13.0
 40
13.0
 40
13.0
 40
14.0
 40
14.0
 40
14.0
 40
15.0
 40
15.0
 40
15.0
 40
15.0
 10
93.86972247002215
 20
-166.3329996328959
 10
93.66026066451897
 20
-166.5465955529814
 10
93.58825816887725
 20
-166.6185980486231
 10
93.44649248965922
 20
-166.7371093333157
 10
93.44649248965922
 20
-166.7371093333157
 10
93.44649248965922
 20
-167.3041720501878
 10
93.44649248965922
 20
-167.3041720501878
 10
93.44649248965922
 20
-167.4543782133447
 10
93.45286591630693
 20
-167.4733262385136
 10
93.45717228566349
 20
-167.6510931655525
 10
93.45923934295463
 20
-167.7823513035405
 10
93.46561276960234
 20
-167.8309271498825
 10
93.47198619625006
 20
-167.8901827922288
 10
93.47198619625006
 20
-167.8901827922288
 10
93.24564342286915
 20
-167.8901827922288
 10
93.24564342286915
 20
-167.8901827922288
 10
93.24977753745145
 20
-167.8457410604691
 10
93.254083906808
 20
-167.7992322714182
 10
93.254083906808
 20
-167.7906195327051
 10
93.254083906808
 20
-167.7103488078988
 10
93.2582180213903
 20
-167.3589490684033
 10
93.2582180213903
 20
-167.2872910823101
 10
93.2582180213903
 20
-167.2872910823101
 10
93.2582180213903
 20
-166.8811143245992
 10
93.2582180213903
 20
-166.8811143245992
 10
93.07631697976912
 20
-167.0058267811652
 10
92.8816690848525
 20
-167.1157253271447
 10
92.67858070599702
 20
-167.202541733373
 10
92.67858070599702
 20
-167.202541733373
 10
92.47549232714155
 20
-167.0395887169207
 10
92.47549232714155
 20
-167.0395887169207
 10
92.59830998119071
 20
-167.0037597238741
 10
92.85428057574477
 20
-166.9296901709412
 10
93.19896237904402
 20
-166.6737195763871
 10
93.41479761119491
 20
-166.5149006745171
 10
93.60737844882038
 20
-166.3267984610225
 10
93.75965166926842
 20
-166.106656859515
 10
93.75965166926842
 20
-166.106656859515
 10
93.95223250689389
 20
-166.2506618507985
 10
93.95223250689389
 20
-166.2506618507985
 10
93.96480710541505
 20
-166.2609971372542
 10
93.97324758935392
 20
-166.2758110478408
 10
93.97324758935392
 20
-166.2885579011362
 10
93.97324758935392
 20
-166.3288655183136
 10
93.9351792842419
 20
-166.3288655183136
 10
93.86972247002215
 20
-166.3329996328959
 97
        0
 97
        0
 75
     2
 76
     1
 98
        0
  0
SPLINE
  5
F0
330
B6
100
AcDbEntity
  8
_U+30EC_U+30A4_U+30E4_U+30FC 1
370
     0
100
AcDbSpline
210
0.0
220
0.0
230
1.0
 70
    11
 71
     3
 72
    50
 73
    46
 74
     0
 42
0.0000000001
 43
0.0000000001
 12
1.0
 22
0.0
 32
0.0
 13
1.0
 23
0.0
 33
0.0
 40
0.0
 40
0.0
 40
0.0
 40
0.0
 40
1.0
 40
1.0
 40
1.0
 40
2.0
 40
2.0
 40
2.0
 40
3.0
 40
3.0
 40
3.0
 40
4.0
 40
4.0
 40
4.0
 40
5.0
 40
5.0
 40
5.0
 40
6.0
 40
6.0
 40
6.0
 40
7.0
 40
7.0
 40
7.0
 40
8.0
 40
8.0
 40
8.0
 40
9.0
 40
9.0
 40
9.0
 40
10.0
 40
10.0
 40
10.0
 40
11.0
 40
11.0
 40
11.0
 40
12.0
 40
12.0
 40
12.0
 40
13.0
 40
13.0
 40
13.0
 40
14.0
 40
14.0
 40
14.0
 40
15.0
 40
15.0
 40
15.0
 40
15.0
 10
95.58004012367444
 20
-166.8597547325906
 30
0.0
 10
95.51854516926272
 20
-166.9317572282324
 30
0.0
 10
95.25844046012637
 20
-167.2490505224239
 30
0.0
 10
95.20125187507122
 20
-167.3124402793524
 30
0.0
 10
95.2858289692341
 20
-167.409936481585
 30
0.0
 10
95.33664412764153
 20
-167.4733262385136
 30
0.0
 10
95.40227319663555
 20
-167.5642767593242
 30
0.0
 10
95.40227319663555
 20
-167.5642767593242
 30
0.0
 10
95.21813284294895
 20
-167.7017360691857
 30
0.0
 10
95.21813284294895
 20
-167.7017360691857
 30
0.0
 10
95.08274059037862
 20
-167.4902072063913
 30
0.0
 10
94.91151934476171
 20
-167.2659314903016
 30
0.0
 10
94.61748044509564
 20
-167.0671494808027
 30
0.0
 10
94.61748044509564
 20
-167.0671494808027
 30
0.0
 10
94.76544729618712
 20
-166.9128092030635
 30
0.0
 10
94.76544729618712
 20
-166.9128092030635
 30
0.0
 10
94.87551809694085
 20
-166.9930799278698
 30
0.0
 10
94.97921547104687
 20
-167.0819633913893
 30
0.0
 10
95.07653941850518
 20
-167.1770480267821
 30
0.0
 10
95.14423554479033
 20
-167.1009114165581
 30
0.0
 10
95.34732392364582
 20
-166.8576876752995
 30
0.0
 10
95.48047686415072
 20
-166.6292778446274
 30
0.0
 10
95.48047686415072
 20
-166.6292778446274
 30
0.0
 10
94.80782197065568
 20
-166.6292778446274
 30
0.0
 10
94.80782197065568
 20
-166.6292778446274
 30
0.0
 10
94.68293725931538
 20
-166.6292778446274
 30
0.0
 10
94.43127303411788
 20
-166.6378905833405
 30
0.0
 10
94.22181122861468
 20
-166.6482258697963
 30
0.0
 10
94.22181122861468
 20
-166.6482258697963
 30
0.0
 10
94.22181122861468
 20
-166.4284287778374
 30
0.0
 10
94.22181122861468
 20
-166.4284287778374
 30
0.0
 10
94.40577932752703
 20
-166.4473768030062
 30
0.0
 10
94.61110701844792
 20
-166.4515109175885
 30
0.0
 10
94.79938148671683
 20
-166.4515109175885
 30
0.0
 10
94.79938148671683
 20
-166.4515109175885
 30
0.0
 10
95.30288219188608
 20
-166.4515109175885
 30
0.0
 10
95.30288219188608
 20
-166.4515109175885
 30
0.0
 10
95.64136282331188
 20
-166.4515109175885
 30
0.0
 10
95.68580455507161
 20
-166.436697007002
 30
0.0
 10
95.76831459194334
 20
-166.396733899373
 30
0.0
 10
95.76831459194334
 20
-166.396733899373
 30
0.0
 10
95.93540172297796
 20
-166.5552082916945
 30
0.0
 10
95.93540172297796
 20
-166.5552082916945
 30
0.0
 10
95.78312850252992
 20
-166.6272107873363
 30
0.0
 10
95.63912351124647
 20
-166.7901638037886
 30
0.0
 10
95.58004012367444
 20
-166.8597547325906
 30
0.0
  0
HATCH
  5
F1
330
B6
100
AcDbEntity
  8
_U+30EC_U+30A4_U+30E4_U+30FC 1
 62
   179
420
  2234388
100
AcDbHatch
 10
0.0
 20
0.0
 30
0.0
210
0.0
220
0.0
230
1.0
  2
SOLID
 70
     1
 71
     0
 91
        1
 92
        1
 93
        1
 72
     4
 94
        3
 73
     0
 74
     1
 95
       50
 96
       46
 40
0.0
 40
0.0
 40
0.0
 40
0.0
 40
1.0
 40
1.0
 40
1.0
 40
2.0
 40
2.0
 40
2.0
 40
3.0
 40
3.0
 40
3.0
 40
4.0
 40
4.0
 40
4.0
 40
5.0
 40
5.0
 40
5.0
 40
6.0
 40
6.0
 40
6.0
 40
7.0
 40
7.0
 40
7.0
 40
8.0
 40
8.0
 40
8.0
 40
9.0
 40
9.0
 40
9.0
 40
10.0
 40
10.0
 40
10.0
 40
11.0
 40
11.0
 40
11.0
 40
12.0
 40
12.0
 40
12.0
 40
13.0
 40
13.0
 40
13.0
 40
14.0
 40
14.0
 40
14.0
 40
15.0
 40
15.0
 40
15.0
 40
15.0
 10
95.58004012367444
 20
-166.8597547325906
 10
95.51854516926272
 20
-166.9317572282324
 10
95.25844046012637
 20
-167.2490505224239
 10
95.20125187507122
 20
-167.3124402793524
 10
95.2858289692341
 20
-167.409936481585
 10
95.33664412764153
 20
-167.4733262385136
 10
95.40227319663555
 20
-167.5642767593242
 10
95.40227319663555
 20
-167.5642767593242
 10
95.21813284294895
 20
-167.7017360691857
 10
95.21813284294895
 20
-167.7017360691857
 10
95.08274059037862
 20
-167.4902072063913
 10
94.91151934476171
 20
-167.2659314903016
 10
94.61748044509564
 20
-167.0671494808027
 10
94.61748044509564
 20
-167.0671494808027
 10
94.76544729618712
 20
-166.9128092030635
 10
94.76544729618712
 20
-166.9128092030635
 10
94.87551809694085
 20
-166.9930799278698
 10
94.97921547104687
 20
-167.0819633913893
 10
95.07653941850518
 20
-167.1770480267821
 10
95.14423554479033
 20
-167.1009114165581
 10
95.34732392364582
 20
-166.8576876752995
 10
95.48047686415072
 20
-166.6292778446274
 10
95.48047686415072
 20
-166.6292778446274
 10
94.80782197065568
 20
-166.6292778446274
 10
94.80782197065568
 20
-166.6292778446274
 10
94.68293725931538
 20
-166.6292778446274
 10
94.43127303411788
 20
-166.6378905833405
 10
94.22181122861468
 20
-166.6482258697963
 10
94.22181122861468
 20
-166.6482258697963
 10
94.22181122861468
 20
-166.4284287778374
 10
94.22181122861468
 20
-166.4284287778374
 10
94.40577932752703
 20
-166.4473768030062
 10
94.61110701844792
 20
-166.4515109175885
 10
94.79938148671683
 20
-166.4515109175885
 10
94.79938148671683
 20
-166.4515109175885
 10
95.30288219188608
 20
-166.4515109175885
 10
95.30288219188608
 20
-166.4515109175885
 10
95.64136282331188
 20
-166.4515109175885
 10
95.68580455507161
 20
-166.436697007002
 10
95.76831459194334
 20
-166.396733899373
 10
95.76831459194334
 20
-166.396733899373
 10
95.93540172297796
 20
-166.5552082916945
 10
95.93540172297796
 20
-166.5552082916945
 10
95.78312850252992
 20
-166.6272107873363
 10
95.63912351124647
 20
-166.7901638037886
 10
95.58004012367444
 20
-166.8597547325906
 97
        0
 97
        0
 75
     2
 76
     1
 98
        0
  0
SPLINE
  5
F2
330
B6
100
AcDbEntity
  8
_U+30EC_U+30A4_U+30E4_U+30FC 1
370
     0
100
AcDbSpline
210
0.0
220
0.0
230
1.0
 70
    11
 71
     3
 72
    29
 73
    25
 74
     0
 42
0.0000000001
 43
0.0000000001
 12
1.0
 22
0.0
 32
0.0
 13
1.0
 23
0.0
 33
0.0
 40
0.0
 40
0.0
 40
0.0
 40
0.0
 40
1.0
 40
1.0
 40
1.0
 40
2.0
 40
2.0
 40
2.0
 40
3.0
 40
3.0
 40
3.0
 40
4.0
 40
4.0
 40
4.0
 40
5.0
 40
5.0
 40
5.0
 40
6.0
 40
6.0
 40
6.0
 40
7.0
 40
7.0
 40
7.0
 40
8.0
 40
8.0
 40
8.0
 40
8.0
 10
97.20354137109842
 20
-167.1029784738493
 30
0.0
 10
97.20354137109842
 20
-167.1029784738493
 30
0.0
 10
96.7191609458723
 20
-167.1029784738493
 30
0.0
 10
96.7191609458723
 20
-167.1029784738493
 30
0.0
 10
96.6916001819903
 20
-167.1029784738493
 30
0.0
 10
96.3743068877988
 20
-167.1029784738493
 30
0.0
 10
96.16277802500444
 20
-167.1284721804401
 30
0.0
 10
96.16277802500444
 20
-167.1284721804401
 30
0.0
 10
96.16277802500444
 20
-166.8979952924769
 30
0.0
 10
96.16277802500444
 20
-166.8979952924769
 30
0.0
 10
96.3214246721002
 20
-166.9210774322281
 30
0.0
 10
96.51176619766025
 20
-166.9234889990678
 30
0.0
 10
96.7191609458723
 20
-166.9234889990678
 30
0.0
 10
96.7191609458723
 20
-166.9234889990678
 30
0.0
 10
97.20354137109842
 20
-166.9234889990678
 30
0.0
 10
97.20354137109842
 20
-166.9234889990678
 30
0.0
 10
97.38974878207618
 20
-166.9234889990678
 30
0.0
 10
97.57595619305393
 20
-166.9210774322281
 30
0.0
 10
97.75992429196627
 20
-166.8979952924769
 30
0.0
 10
97.75992429196627
 20
-166.8979952924769
 30
0.0
 10
97.75992429196627
 20
-167.1284721804401
 30
0.0
 10
97.75992429196627
 20
-167.1284721804401
 30
0.0
 10
97.57595619305393
 20
-167.1053900406889
 30
0.0
 10
97.32842608243872
 20
-167.1029784738493
 30
0.0
 10
97.20354137109842
 20
-167.1029784738493
 30
0.0
  0
HATCH
  5
F3
330
B6
100
AcDbEntity
  8
_U+30EC_U+30A4_U+30E4_U+30FC 1
 62
   179
420
  2234388
100
AcDbHatch
 10
0.0
 20
0.0
 30
0.0
210
0.0
220
0.0
230
1.0
  2
SOLID
 70
     1
 71
     0
 91
        1
 92
        1
 93
        1
 72
     4
 94
        3
 73
     0
 74
     1
 95
       29
 96
       25
 40
0.0
 40
0.0
 40
0.0
 40
0.0
 40
1.0
 40
1.0
 40
1.0
 40
2.0
 40
2.0
 40
2.0
 40
3.0
 40
3.0
 40
3.0
 40
4.0
 40
4.0
 40
4.0
 40
5.0
 40
5.0
 40
5.0
 40
6.0
 40
6.0
 40
6.0
 40
7.0
 40
7.0
 40
7.0
 40
8.0
 40
8.0
 40
8.0
 40
8.0
 10
97.20354137109842
 20
-167.1029784738493
 10
97.20354137109842
 20
-167.1029784738493
 10
96.7191609458723
 20
-167.1029784738493
 10
96.7191609458723
 20
-167.1029784738493
 10
96.6916001819903
 20
-167.1029784738493
 10
96.3743068877988
 20
-167.1029784738493
 10
96.16277802500444
 20
-167.1284721804401
 10
96.16277802500444
 20
-167.1284721804401
 10
96.16277802500444
 20
-166.8979952924769
 10
96.16277802500444
 20
-166.8979952924769
 10
96.3214246721002
 20
-166.9210774322281
 10
96.51176619766025
 20
-166.9234889990678
 10
96.7191609458723
 20
-166.9234889990678
 10
96.7191609458723
 20
-166.9234889990678
 10
97.20354137109842
 20
-166.9234889990678
 10
97.20354137109842
 20
-166.9234889990678
 10
97.38974878207618
 20
-166.9234889990678
 10
97.57595619305393
 20
-166.9210774322281
 10
97.75992429196627
 20
-166.8979952924769
 10
97.75992429196627
 20
-166.8979952924769
 10
97.75992429196627
 20
-167.1284721804401
 10
97.75992429196627
 20
-167.1284721804401
 10
97.57595619305393
 20
-167.1053900406889
 10
97.32842608243872
 20
-167.1029784738493
 10
97.20354137109842
 20
-167.1029784738493
 97
        0
 97
        0
 75
     2
 76
     1
 98
        0
  0
ENDBLK
  5
B9
330
B6
100
AcDbEntity
  8
0
100
AcDbBlockEnd
  0
ENDSEC
  0
SECTION
  2
ENTITIES
  0
POLYLINE
  5
41
330
1F
100
AcDbEntity
  8
_U+30EC_U+30A4_U+30E4_U+30FC 1
 62
   179
420
  2234388
370
     9
100
AcDb2dPolyline
 66
     1
 10
0.0
 20
0.0
 30
0.0
  0
VERTEX
  5
42
330
41
100
AcDbEntity
  8
_U+30EC_U+30A4_U+30E4_U+30FC 1
 62
   179
420
  2234388
370
     9
100
AcDbVertex
100
AcDb2dVertex
 10
112.3939362986702
 20
-181.8822120211798
 30
0.0
  0
VERTEX
  5
43
330
41
100
AcDbEntity
  8
_U+30EC_U+30A4_U+30E4_U+30FC 1
 62
   179
420
  2234388
370
     9
100
AcDbVertex
100
AcDb2dVertex
 10
114.2682404974204
 20
-184.1974938250037
 30
0.0
  0
SEQEND
  5
44
330
41
100
AcDbEntity
  8
_U+30EC_U+30A4_U+30E4_U+30FC 1
 62
   179
420
  2234388
370
     9
  0
POLYLINE
  5
45
330
1F
100
AcDbEntity
  8
_U+30EC_U+30A4_U+30E4_U+30FC 1
 62
   179
420
  2234388
370
     9
100
AcDb2dPolyline
 66
     1
 10
0.0
 20
0.0
 30
0.0
  0
VERTEX
  5
46
330
45
100
AcDbEntity
  8
_U+30EC_U+30A4_U+30E4_U+30FC 1
 62
   179
420
  2234388
370
     9
100
AcDbVertex
100
AcDb2dVertex
 10
126.5270960173591
 20
-176.6056768611627
 30
0.0
  0
VERTEX
  5
47
330
45
100
AcDbEntity
  8
_U+30EC_U+30A4_U+30E4_U+30FC 1
 62
   179
420
  2234388
370
     9
100
AcDbVertex
100
AcDb2dVertex
 10
128.4014002161093
 20
-178.9209586649866
 30
0.0
  0
SEQEND
  5
48
330
45
100
AcDbEntity
  8
_U+30EC_U+30A4_U+30E4_U+30FC 1
 62
   179
420
  2234388
370
     9
  0
POLYLINE
  5
49
330
1F
100
AcDbEntity
  8
_U+30EC_U+30A4_U+30E4_U+30FC 1
 62
   179
420
  2234388
370
     9
100
AcDb2dPolyline
 66
     1
 10
0.0
 20
0.0
 30
0.0
  0
VERTEX
  5
4A
330
49
100
AcDbEntity
  8
_U+30EC_U+30A4_U+30E4_U+30FC 1
 62
   179
420
  2234388
370
     9
100
AcDbVertex
100
AcDb2dVertex
 10
122.4628845756397
 20
-179.9791143603194
 30
0.0
  0
VERTEX
  5
4B
330
49
100
AcDbEntity
  8
_U+30EC_U+30A4_U+30E4_U+30FC 1
 62
   179
420
  2234388
370
     9
100
AcDbVertex
100
AcDb2dVertex
 10
127.6737637518544
 20
-178.0388365830266
 30
0.0
  0
SEQEND
  5
4C
330
49
100
AcDbEntity
  8
_U+30EC_U+30A4_U+30E4_U+30FC 1
 62
   179
420
  2234388
370
     9
  0
POLYLINE
  5
4D
330
1F
100
AcDbEntity
  8
_U+30EC_U+30A4_U+30E4_U+30FC 1
 62
   179
420
  2234388
370
     9
100
AcDb2dPolyline
 66
     1
 10
0.0
 20
0.0
 30
0.0
  0
VERTEX
  5
4E
330
4D
100
AcDbEntity
  8
_U+30EC_U+30A4_U+30E4_U+30FC 1
 62
   179
420
  2234388
370
     9
100
AcDbVertex
100
AcDb2dVertex
 10
113.577972553257
 20
-183.2946957871706
 30
0.0
  0
VERTEX
  5
4F
330
4D
100
AcDbEntity
  8
_U+30EC_U+30A4_U+30E4_U+30FC 1
 62
   179
420
  2234388
370
     9
100
AcDbVertex
100
AcDb2dVertex
 10
119.224527117275
 20
-181.1625100424644
 30
0.0
  0
SEQEND
  5
50
330
4D
100
AcDbEntity
  8
_U+30EC_U+30A4_U+30E4_U+30FC 1
 62
   179
420
  2234388
370
     9
  0
SPLINE
  5
51
330
1F
100
AcDbEntity
  8
_U+30EC_U+30A4_U+30E4_U+30FC 1
370
     0
100
AcDbSpline
210
0.0
220
0.0
230
1.0
 70
    11
 71
     3
 72
    17
 73
    13
 74
     0
 42
0.0000000001
 43
0.0000000001
 12
1.0
 22
0.0
 32
0.0
 13
1.0
 23
0.0
 33
0.0
 40
0.0
 40
0.0
 40
0.0
 40
0.0
 40
1.0
 40
1.0
 40
1.0
 40
2.0
 40
2.0
 40
2.0
 40
3.0
 40
3.0
 40
3.0
 40
4.0
 40
4.0
 40
4.0
 40
4.0
 10
113.78987822337
 20
-183.2681685519342
 30
0.0
 10
113.78987822337
 20
-183.3997550505856
 30
0.0
 10
113.6833386454887
 20
-183.506294628467
 30
0.0
 10
113.5517467638755
 20
-183.506294628467
 30
0.0
 10
113.4201656481858
 20
-183.506294628467
 30
0.0
 10
113.3132707948325
 20
-183.3997550505856
 30
0.0
 10
113.3132707948325
 20
-183.2681685519342
 30
0.0
 10
113.3132707948325
 20
-183.1369373287546
 30
0.0
 10
113.4201656481858
 20
-183.030047858363
 30
0.0
 10
113.5517467638755
 20
-183.030047858363
 30
0.0
 10
113.6833386454887
 20
-183.030047858363
 30
0.0
 10
113.78987822337
 20
-183.1369373287546
 30
0.0
 10
113.78987822337
 20
-183.2681685519342
 30
0.0
  0
HATCH
  5
52
330
1F
100
AcDbEntity
  8
_U+30EC_U+30A4_U+30E4_U+30FC 1
 62
   179
420
  2234388
100
AcDbHatch
 10
0.0
 20
0.0
 30
0.0
210
0.0
220
0.0
230
1.0
  2
SOLID
 70
     1
 71
     0
 91
        1
 92
        1
 93
        2
 72
     4
 94
        3
 73
     0
 74
     0
 95
       17
 96
       13
 40
0.0
 40
0.0
 40
0.0
 40
0.0
 40
0.3527777776895833
 40
0.3527777776895833
 40
0.3527777776895833
 40
0.7055555553791667
 40
0.7055555553791667
 40
0.7055555553791667
 40
1.05833333306875
 40
1.05833333306875
 40
1.05833333306875
 40
1.411111110758333
 40
1.411111110758333
 40
1.411111110758333
 40
1.411111110758333
 10
113.78987822337
 20
-183.2681685519342
 10
113.78987822337
 20
-183.3997550505856
 10
113.6833386454887
 20
-183.506294628467
 10
113.5517467638755
 20
-183.506294628467
 10
113.4201656481858
 20
-183.506294628467
 10
113.3132707948325
 20
-183.3997550505856
 10
113.3132707948325
 20
-183.2681685519342
 10
113.3132707948325
 20
-183.1369373287546
 10
113.4201656481858
 20
-183.030047858363
 10
113.5517467638755
 20
-183.030047858363
 10
113.6833386454887
 20
-183.030047858363
 10
113.78987822337
 20
-183.1369373287546
 10
113.78987822337
 20
-183.2681685519342
 97
        0
 72
     1
 10
113.78987822337
 20
-183.2681685519342
 11
113.78987822337
 21
-183.2681685519342
 97
        0
 75
     2
 76
     1
 98
        0
  0
SPLINE
  5
53
330
1F
100
AcDbEntity
  8
_U+30EC_U+30A4_U+30E4_U+30FC 1
370
     0
100
AcDbSpline
210
0.0
220
0.0
230
1.0
 70
    11
 71
     3
 72
    17
 73
    13
 74
     0
 42
0.0000000001
 43
0.0000000001
 12
1.0
 22
0.0
 32
0.0
 13
1.0
 23
0.0
 33
0.0
 40
0.0
 40
0.0
 40
0.0
 40
0.0
 40
1.0
 40
1.0
 40
1.0
 40
2.0
 40
2.0
 40
2.0
 40
3.0
 40
3.0
 40
3.0
 40
4.0
 40
4.0
 40
4.0
 40
4.0
 10
127.8789407198478
 20
-178.0137196837545
 30
0.0
 10
127.8789407198478
 20
-178.145306182406
 30
0.0
 10
127.7720458664945
 20
-178.2518457602873
 30
0.0
 10
127.6404539848813
 20
-178.2518457602873
 30
0.0
 10
127.5088728691916
 20
-178.2518457602873
 30
0.0
 10
127.4019780158383
 20
-178.145306182406
 30
0.0
 10
127.4019780158383
 20
-178.0137196837545
 30
0.0
 10
127.4019780158383
 20
-177.882488460575
 30
0.0
 10
127.5088728691916
 20
-177.7755989901834
 30
0.0
 10
127.6404539848813
 20
-177.7755989901834
 30
0.0
 10
127.7720458664945
 20
-177.7755989901834
 30
0.0
 10
127.8789407198478
 20
-177.882488460575
 30
0.0
 10
127.8789407198478
 20
-178.0137196837545
 30
0.0
  0
HATCH
  5
54
330
1F
100
AcDbEntity
  8
_U+30EC_U+30A4_U+30E4_U+30FC 1
 62
   179
420
  2234388
100
AcDbHatch
 10
0.0
 20
0.0
 30
0.0
210
0.0
220
0.0
230
1.0
  2
SOLID
 70
     1
 71
     0
 91
        1
 92
        1
 93
        2
 72
     4
 94
        3
 73
     0
 74
     0
 95
       17
 96
       13
 40
0.0
 40
0.0
 40
0.0
 40
0.0
 40
0.3527777776895833
 40
0.3527777776895833
 40
0.3527777776895833
 40
0.7055555553791667
 40
0.7055555553791667
 40
0.7055555553791667
 40
1.05833333306875
 40
1.05833333306875
 40
1.05833333306875
 40
1.411111110758333
 40
1.411111110758333
 40
1.411111110758333
 40
1.411111110758333
 10
127.8789407198478
 20
-178.0137196837545
 10
127.8789407198478
 20
-178.145306182406
 10
127.7720458664945
 20
-178.2518457602873
 10
127.6404539848813
 20
-178.2518457602873
 10
127.5088728691916
 20
-178.2518457602873
 10
127.4019780158383
 20
-178.145306182406
 10
127.4019780158383
 20
-178.0137196837545
 10
127.4019780158383
 20
-177.882488460575
 10
127.5088728691916
 20
-177.7755989901834
 10
127.6404539848813
 20
-177.7755989901834
 10
127.7720458664945
 20
-177.7755989901834
 10
127.8789407198478
 20
-177.882488460575
 10
127.8789407198478
 20
-178.0137196837545
 97
        0
 72
     1
 10
127.8789407198478
 20
-178.0137196837545
 11
127.8789407198478
 21
-178.0137196837545
 97
        0
 75
     2
 76
     1
 98
        0
  0
INSERT
  5
56
330
1F
100
AcDbEntity
  8
_U+30EC_U+30A4_U+30E4_U+30FC 1
100
AcDbBlockReference
  2
block 2
 10
0.0
 20
0.0
 30
0.0
  0
SPLINE
  5
71
330
1F
100
AcDbEntity
  8
_U+30EC_U+30A4_U+30E4_U+30FC 1
 62
   179
420
  2234388
370
     9
100
AcDbSpline
210
0.0
220
0.0
230
1.0
 70
    11
 71
     3
 72
    74
 73
    70
 74
     0
 42
0.0000000001
 43
0.0000000001
 12
1.0
 22
0.0
 32
0.0
 13
1.0
 23
0.0
 33
0.0
 40
0.0
 40
0.0
 40
0.0
 40
0.0
 40
1.0
 40
1.0
 40
1.0
 40
2.0
 40
2.0
 40
2.0
 40
3.0
 40
3.0
 40
3.0
 40
4.0
 40
4.0
 40
4.0
 40
5.0
 40
5.0
 40
5.0
 40
6.0
 40
6.0
 40
6.0
 40
7.0
 40
7.0
 40
7.0
 40
8.0
 40
8.0
 40
8.0
 40
9.0
 40
9.0
 40
9.0
 40
10.0
 40
10.0
 40
10.0
 40
11.0
 40
11.0
 40
11.0
 40
12.0
 40
12.0
 40
12.0
 40
13.0
 40
13.0
 40
13.0
 40
14.0
 40
14.0
 40
14.0
 40
15.0
 40
15.0
 40
15.0
 40
16.0
 40
16.0
 40
16.0
 40
17.0
 40
17.0
 40
17.0
 40
18.0
 40
18.0
 40
18.0
 40
19.0
 40
19.0
 40
19.0
 40
20.0
 40
20.0
 40
20.0
 40
21.0
 40
21.0
 40
21.0
 40
22.0
 40
22.0
 40
22.0
 40
23.0
 40
23.0
 40
23.0
 40
23.0
 10
123.453704803121
 20
-174.3553458731592
 30
0.0
 10
123.453704803121
 20
-174.3553458731592
 30
0.0
 10
110.5723743586145
 20
-178.4821450105146
 30
0.0
 10
110.5723743586145
 20
-178.4821450105146
 30
0.0
 10
110.5723743586145
 20
-178.4821450105146
 30
0.0
 10
110.5226357925462
 20
-179.4328783222479
 30
0.0
 10
110.5226357925462
 20
-179.4328783222479
 30
0.0
 10
110.5226357925462
 20
-179.4328783222479
 30
0.0
 10
110.0566112667024
 20
-179.5817495109043
 30
0.0
 10
110.0566112667024
 20
-179.5817495109043
 30
0.0
 10
110.0566112667024
 20
-179.5817495109043
 30
0.0
 10
110.8284849101727
 20
-162.3545603028358
 30
0.0
 10
110.8284849101727
 20
-162.3545603028358
 30
0.0
 10
110.8284849101727
 20
-162.3545603028358
 30
0.0
 10
108.3512782355804
 20
-159.2077777888385
 30
0.0
 10
107.4770960221216
 20
-158.1212269705609
 30
0.0
 10
106.5069571334753
 20
-156.9161325698205
 30
0.0
 10
102.6027703770457
 20
-151.0374431656369
 30
0.0
 10
100.6568512558959
 20
-148.4494659052708
 30
0.0
 10
99.12050015832534
 20
-146.4061797729691
 30
0.0
 10
92.46181960443447
 20
-138.0718047750527
 30
0.0
 10
93.12327793760244
 20
-131.8540964432738
 30
0.0
 10
93.48381794605721
 20
-128.4677828997407
 30
0.0
 10
95.98042481460082
 20
-124.7830164279514
 30
0.0
 10
96.7688887460172
 20
-123.8580298220089
 30
0.0
 10
98.63543071400217
 20
-121.6676381124871
 30
0.0
 10
101.6781390465748
 20
-119.9478464462503
 30
0.0
 10
103.3834720776969
 20
-119.1540964464488
 30
0.0
 10
106.2049837482697
 20
-117.8406968563905
 30
0.0
 10
109.7920279334353
 20
-116.5378909349501
 30
0.0
 10
112.2318337901658
 20
-115.7145131139753
 30
0.0
 10
114.6381360933023
 20
-114.9031177657349
 30
0.0
 10
120.7281390418123
 20
-113.5392798245886
 30
0.0
 10
120.7281390418123
 20
-113.5392798245886
 30
0.0
 10
120.7281390418123
 20
-113.5392798245886
 30
0.0
 10
120.7281390418123
 20
-113.9506242255274
 30
0.0
 10
120.7281390418123
 20
-113.9506242255274
 30
0.0
 10
120.7281390418123
 20
-113.9506242255274
 30
0.0
 10
114.2165640651416
 20
-115.4940270029194
 30
0.0
 10
112.7465418215855
 20
-115.9646270462045
 30
0.0
 10
111.3562412407428
 20
-116.4094857666604
 30
0.0
 10
103.5891335122429
 20
-118.9925214681906
 30
0.0
 10
100.8843890467733
 20
-121.1384714459527
 30
0.0
 10
98.54688099410785
 20
-122.9937307262231
 30
0.0
 10
96.91563904776545
 20
-123.9606936674694
 30
0.0
 10
95.10765293710634
 20
-127.66486033321
 30
0.0
 10
94.46736040932588
 20
-128.9768388213803
 30
0.0
 10
92.63820849327925
 20
-130.9721519990498
 30
0.0
 10
94.40209738172717
 20
-136.9252769975616
 30
0.0
 10
95.8805924069923
 20
-141.9146150022275
 30
0.0
 10
102.730120484843
 20
-150.5322629764186
 30
0.0
 10
104.1257071340706
 20
-152.6531714163723
 30
0.0
 10
106.3305682446305
 20
-156.0045603044233
 30
0.0
 10
111.2694571322846
 20
-162.2370825467888
 30
0.0
 10
111.2694571322846
 20
-162.2370825467888
 30
0.0
 10
111.2694571322846
 20
-162.2370825467888
 30
0.0
 10
110.5769606419792
 20
-177.9822562726431
 30
0.0
 10
110.5769606419792
 20
-177.9822562726431
 30
0.0
 10
110.5769606419792
 20
-177.9822562726431
 30
0.0
 10
123.3655103586986
 20
-173.9112030866085
 30
0.0
 10
123.3655103586986
 20
-173.9112030866085
 30
0.0
 10
123.3655103586986
 20
-173.9112030866085
 30
0.0
 10
124.3356492473449
 20
-172.7939532377802
 30
0.0
 10
124.3356492473449
 20
-172.7939532377802
 30
0.0
 10
124.3356492473449
 20
-172.7939532377802
 30
0.0
 10
124.3356492473449
 20
-173.502329465088
 30
0.0
 10
124.3356492473449
 20
-173.502329465088
 30
0.0
 10
124.3356492473449
 20
-173.502329465088
 30
0.0
 10
123.453704803121
 20
-174.3553458731592
 30
0.0
 10
123.453704803121
 20
-174.3553458731592
 30
0.0
  0
SPLINE
  5
72
330
1F
100
AcDbEntity
  8
_U+30EC_U+30A4_U+30E4_U+30FC 1
 62
   179
420
  2234388
370
     9
100
AcDbSpline
210
0.0
220
0.0
230
1.0
 70
     8
 71
     3
 72
    20
 73
    16
 74
     0
 42
0.0000000001
 43
0.0000000001
 12
1.0
 22
0.0
 32
0.0
 13
1.0
 23
0.0
 33
0.0
 40
0.0
 40
0.0
 40
0.0
 40
0.0
 40
1.0
 40
1.0
 40
1.0
 40
2.0
 40
2.0
 40
2.0
 40
3.0
 40
3.0
 40
3.0
 40
4.0
 40
4.0
 40
4.0
 40
5.0
 40
5.0
 40
5.0
 40
5.0
 10
110.0567835214767
 20
-179.5819217656785
 30
0.0
 10
110.0567835214767
 20
-179.5819217656785
 30
0.0
 10
104.103658522965
 20
-172.9528744159225
 30
0.0
 10
102.3397696345171
 20
-171.0125966386298
 30
0.0
 10
100.4880308111953
 20
-168.975662401129
 30
0.0
 10
97.8058624870774
 20
-165.4411828369221
 30
0.0
 10
97.00400574696211
 20
-164.221629801067
 30
0.0
 10
93.87310296996706
 20
-159.4591298022576
 30
0.0
 10
91.35956130392877
 20
-153.5060048037459
 30
0.0
 10
91.35956130392877
 20
-153.5060048037459
 30
0.0
 10
91.35956130392877
 20
-153.5060048037459
 30
0.0
 10
91.48973208365426
 20
-147.660119168136
 30
0.0
 10
91.80053352604075
 20
-143.6723242506491
 30
0.0
 10
92.12226238066953
 20
-139.5427098243266
 30
0.0
 10
92.1603629835517
 20
-139.5769239288645
 30
0.0
 10
93.0793529701655
 20
-132.8244075866944
 30
0.0
  0
POLYLINE
  5
73
330
1F
100
AcDbEntity
  8
_U+30EC_U+30A4_U+30E4_U+30FC 1
 62
   179
420
  2234388
370
     9
100
AcDb2dPolyline
 66
     1
 10
0.0
 20
0.0
 30
0.0
  0
VERTEX
  5
74
330
73
100
AcDbEntity
  8
_U+30EC_U+30A4_U+30E4_U+30FC 1
 62
   179
420
  2234388
370
     9
100
AcDbVertex
100
AcDb2dVertex
 10
110.8708272868711
 20
-170.9740061862333
 30
0.0
  0
VERTEX
  5
75
330
73
100
AcDbEntity
  8
_U+30EC_U+30A4_U+30E4_U+30FC 1
 62
   179
420
  2234388
370
     9
100
AcDbVertex
100
AcDb2dVertex
 10
118.5733717727926
 20
-168.5045617424062
 30
0.0
  0
VERTEX
  5
76
330
73
100
AcDbEntity
  8
_U+30EC_U+30A4_U+30E4_U+30FC 1
 62
   179
420
  2234388
370
     9
100
AcDbVertex
100
AcDb2dVertex
 10
120.4547384172876
 20
-168.8869781071923
 30
0.0
  0
VERTEX
  5
77
330
73
100
AcDbEntity
  8
_U+30EC_U+30A4_U+30E4_U+30FC 1
 62
   179
420
  2234388
370
     9
100
AcDbVertex
100
AcDb2dVertex
 10
124.3356492473449
 20
-172.7939909185121
 30
0.0
  0
SEQEND
  5
78
330
73
100
AcDbEntity
  8
_U+30EC_U+30A4_U+30E4_U+30FC 1
 62
   179
420
  2234388
370
     9
  0
POLYLINE
  5
79
330
1F
100
AcDbEntity
  8
_U+30EC_U+30A4_U+30E4_U+30FC 1
 62
   179
420
  2234388
370
     9
100
AcDb2dPolyline
 66
     1
 10
0.0
 20
0.0
 30
0.0
  0
VERTEX
  5
7A
330
79
100
AcDbEntity
  8
_U+30EC_U+30A4_U+30E4_U+30FC 1
 62
   179
420
  2234388
370
     9
100
AcDbVertex
100
AcDb2dVertex
 10
111.1443678683999
 20
-166.6617586354993
 30
0.0
  0
VERTEX
  5
7B
330
79
100
AcDbEntity
  8
_U+30EC_U+30A4_U+30E4_U+30FC 1
 62
   179
420
  2234388
370
     9
100
AcDbVertex
100
AcDb2dVertex
 10
114.9956401113607
 20
-165.1183558581073
 30
0.0
  0
VERTEX
  5
7C
330
79
100
AcDbEntity
  8
_U+30EC_U+30A4_U+30E4_U+30FC 1
 62
   179
420
  2234388
370
     9
100
AcDbVertex
100
AcDb2dVertex
 10
115.965779000007
 20
-163.8540058150207
 30
0.0
  0
VERTEX
  5
7D
330
79
100
AcDbEntity
  8
_U+30EC_U+30A4_U+30E4_U+30FC 1
 62
   179
420
  2234388
370
     9
100
AcDbVertex
100
AcDb2dVertex
 10
115.965779000007
 20
-164.4420836143528
 30
0.0
  0
VERTEX
  5
7E
330
79
100
AcDbEntity
  8
_U+30EC_U+30A4_U+30E4_U+30FC 1
 62
   179
420
  2234388
370
     9
100
AcDbVertex
100
AcDb2dVertex
 10
115.1131178674077
 20
-165.4122225029992
 30
0.0
  0
VERTEX
  5
7F
330
79
100
AcDbEntity
  8
_U+30EC_U+30A4_U+30E4_U+30FC 1
 62
   179
420
  2234388
370
     9
100
AcDbVertex
100
AcDb2dVertex
 10
111.1150845567753
 20
-167.0438197248135
 30
0.0
  0
SEQEND
  5
80
330
79
100
AcDbEntity
  8
_U+30EC_U+30A4_U+30E4_U+30FC 1
 62
   179
420
  2234388
370
     9
  0
POLYLINE
  5
81
330
1F
100
AcDbEntity
  8
_U+30EC_U+30A4_U+30E4_U+30FC 1
 62
   179
420
  2234388
370
     9
100
AcDb2dPolyline
 66
     1
 10
0.0
 20
0.0
 30
0.0
  0
VERTEX
  5
82
330
81
100
AcDbEntity
  8
_U+30EC_U+30A4_U+30E4_U+30FC 1
 62
   179
420
  2234388
370
     9
100
AcDbVertex
100
AcDb2dVertex
 10
110.3478617922101
 20
-161.0631339624198
 30
0.0
  0
VERTEX
  5
83
330
81
100
AcDbEntity
  8
_U+30EC_U+30A4_U+30E4_U+30FC 1
 62
   179
420
  2234388
370
     9
100
AcDbVertex
100
AcDb2dVertex
 10
111.9233577872318
 20
-160.5322124503726
 30
0.0
  0
VERTEX
  5
84
330
81
100
AcDbEntity
  8
_U+30EC_U+30A4_U+30E4_U+30FC 1
 62
   179
420
  2234388
370
     9
100
AcDbVertex
100
AcDb2dVertex
 10
112.9231352629747
 20
-160.4732905516514
 30
0.0
  0
VERTEX
  5
85
330
81
100
AcDbEntity
  8
_U+30EC_U+30A4_U+30E4_U+30FC 1
 62
   179
420
  2234388
370
     9
100
AcDbVertex
100
AcDb2dVertex
 10
115.9658435955474
 20
-163.8539627513271
 30
0.0
  0
SEQEND
  5
86
330
81
100
AcDbEntity
  8
_U+30EC_U+30A4_U+30E4_U+30FC 1
 62
   179
420
  2234388
370
     9
  0
POLYLINE
  5
87
330
1F
100
AcDbEntity
  8
_U+30EC_U+30A4_U+30E4_U+30FC 1
 62
   179
420
  2234388
370
     9
100
AcDb2dPolyline
 66
     1
 10
0.0
 20
0.0
 30
0.0
  0
VERTEX
  5
88
330
87
100
AcDbEntity
  8
_U+30EC_U+30A4_U+30E4_U+30FC 1
 62
   179
420
  2234388
370
     9
100
AcDbVertex
100
AcDb2dVertex
 10
105.6146774027956
 20
-164.0686567955985
 30
0.0
  0
VERTEX
  5
89
330
87
100
AcDbEntity
  8
_U+30EC_U+30A4_U+30E4_U+30FC 1
 62
   179
420
  2234388
370
     9
100
AcDbVertex
100
AcDb2dVertex
 10
105.6146774027956
 20
-176.7743035192423
 30
0.0
  0
SEQEND
  5
8A
330
87
100
AcDbEntity
  8
_U+30EC_U+30A4_U+30E4_U+30FC 1
 62
   179
420
  2234388
370
     9
  0
POLYLINE
  5
8B
330
1F
100
AcDbEntity
  8
_U+30EC_U+30A4_U+30E4_U+30FC 1
 62
   179
420
  2234388
370
     9
100
AcDb2dPolyline
 66
     1
 10
0.0
 20
0.0
 30
0.0
  0
VERTEX
  5
8C
330
8B
100
AcDbEntity
  8
_U+30EC_U+30A4_U+30E4_U+30FC 1
 62
   179
420
  2234388
370
     9
100
AcDbVertex
100
AcDb2dVertex
 10
105.5705801805844
 20
-181.0391756240924
 30
0.0
  0
VERTEX
  5
8D
330
8B
100
AcDbEntity
  8
_U+30EC_U+30A4_U+30E4_U+30FC 1
 62
   179
420
  2234388
370
     9
100
AcDbVertex
100
AcDb2dVertex
 10
105.5705801805844
 20
-179.0671491387185
 30
0.0
  0
SEQEND
  5
8E
330
8B
100
AcDbEntity
  8
_U+30EC_U+30A4_U+30E4_U+30FC 1
 62
   179
420
  2234388
370
     9
  0
SPLINE
  5
8F
330
1F
100
AcDbEntity
  8
_U+30EC_U+30A4_U+30E4_U+30FC 1
370
     0
100
AcDbSpline
210
0.0
220
0.0
230
1.0
 70
    11
 71
     3
 72
    17
 73
    13
 74
     0
 42
0.0000000001
 43
0.0000000001
 12
1.0
 22
0.0
 32
0.0
 13
1.0
 23
0.0
 33
0.0
 40
0.0
 40
0.0
 40
0.0
 40
0.0
 40
1.0
 40
1.0
 40
1.0
 40
2.0
 40
2.0
 40
2.0
 40
3.0
 40
3.0
 40
3.0
 40
4.0
 40
4.0
 40
4.0
 40
4.0
 10
105.8413431538782
 20
-181.1156621268267
 30
0.0
 10
105.8413431538782
 20
-181.2472486254781
 30
0.0
 10
105.7344483005249
 20
-181.3541434788314
 30
0.0
 10
105.6028564189118
 20
-181.3541434788314
 30
0.0
 10
105.471275303222
 20
-181.3541434788314
 30
0.0
 10
105.3650910008126
 20
-181.2472486254781
 30
0.0
 10
105.3650910008126
 20
-181.1156621268267
 30
0.0
 10
105.3650910008126
 20
-180.9840810111369
 30
0.0
 10
105.471275303222
 20
-180.8778913257658
 30
0.0
 10
105.6028564189118
 20
-180.8778913257658
 30
0.0
 10
105.7344483005249
 20
-180.8778913257658
 30
0.0
 10
105.8413431538782
 20
-180.9840810111369
 30
0.0
 10
105.8413431538782
 20
-181.1156621268267
 30
0.0
  0
HATCH
  5
90
330
1F
100
AcDbEntity
  8
_U+30EC_U+30A4_U+30E4_U+30FC 1
 62
   179
420
  2234388
100
AcDbHatch
 10
0.0
 20
0.0
 30
0.0
210
0.0
220
0.0
230
1.0
  2
SOLID
 70
     1
 71
     0
 91
        1
 92
        1
 93
        2
 72
     4
 94
        3
 73
     0
 74
     0
 95
       17
 96
       13
 40
0.0
 40
0.0
 40
0.0
 40
0.0
 40
0.3527777776895833
 40
0.3527777776895833
 40
0.3527777776895833
 40
0.7055555553791667
 40
0.7055555553791667
 40
0.7055555553791667
 40
1.05833333306875
 40
1.05833333306875
 40
1.05833333306875
 40
1.411111110758333
 40
1.411111110758333
 40
1.411111110758333
 40
1.411111110758333
 10
105.8413431538782
 20
-181.1156621268267
 10
105.8413431538782
 20
-181.2472486254781
 10
105.7344483005249
 20
-181.3541434788314
 10
105.6028564189118
 20
-181.3541434788314
 10
105.471275303222
 20
-181.3541434788314
 10
105.3650910008126
 20
-181.2472486254781
 10
105.3650910008126
 20
-181.1156621268267
 10
105.3650910008126
 20
-180.9840810111369
 10
105.471275303222
 20
-180.8778913257658
 10
105.6028564189118
 20
-180.8778913257658
 10
105.7344483005249
 20
-180.8778913257658
 10
105.8413431538782
 20
-180.9840810111369
 10
105.8413431538782
 20
-181.1156621268267
 97
        0
 72
     1
 10
105.8413431538782
 20
-181.1156621268267
 11
105.8413431538782
 21
-181.1156621268267
 97
        0
 75
     2
 76
     1
 98
        0
  0
SPLINE
  5
91
330
1F
100
AcDbEntity
  8
_U+30EC_U+30A4_U+30E4_U+30FC 1
370
     0
100
AcDbSpline
210
0.0
220
0.0
230
1.0
 70
    11
 71
     3
 72
    17
 73
    13
 74
     0
 42
0.0000000001
 43
0.0000000001
 12
1.0
 22
0.0
 32
0.0
 13
1.0
 23
0.0
 33
0.0
 40
0.0
 40
0.0
 40
0.0
 40
0.0
 40
1.0
 40
1.0
 40
1.0
 40
2.0
 40
2.0
 40
2.0
 40
3.0
 40
3.0
 40
3.0
 40
4.0
 40
4.0
 40
4.0
 40
4.0
 10
105.8413431538782
 20
-164.0569542368721
 30
0.0
 10
105.8413431538782
 20
-164.1885461184852
 30
0.0
 10
105.7344483005249
 20
-164.2954409718385
 30
0.0
 10
105.6028564189118
 20
-164.2954409718385
 30
0.0
 10
105.471275303222
 20
-164.2954409718385
 30
0.0
 10
105.3650910008126
 20
-164.1885461184852
 30
0.0
 10
105.3650910008126
 20
-164.0569542368721
 30
0.0
 10
105.3650910008126
 20
-163.9253731211823
 30
0.0
 10
105.471275303222
 20
-163.8188335433009
 30
0.0
 10
105.6028564189118
 20
-163.8188335433009
 30
0.0
 10
105.7344483005249
 20
-163.8188335433009
 30
0.0
 10
105.8413431538782
 20
-163.9253731211823
 30
0.0
 10
105.8413431538782
 20
-164.0569542368721
 30
0.0
  0
HATCH
  5
92
330
1F
100
AcDbEntity
  8
_U+30EC_U+30A4_U+30E4_U+30FC 1
 62
   179
420
  2234388
100
AcDbHatch
 10
0.0
 20
0.0
 30
0.0
210
0.0
220
0.0
230
1.0
  2
SOLID
 70
     1
 71
     0
 91
        1
 92
        1
 93
        2
 72
     4
 94
        3
 73
     0
 74
     0
 95
       17
 96
       13
 40
0.0
 40
0.0
 40
0.0
 40
0.0
 40
0.3527777776895833
 40
0.3527777776895833
 40
0.3527777776895833
 40
0.7055555553791667
 40
0.7055555553791667
 40
0.7055555553791667
 40
1.05833333306875
 40
1.05833333306875
 40
1.05833333306875
 40
1.411111110758333
 40
1.411111110758333
 40
1.411111110758333
 40
1.411111110758333
 10
105.8413431538782
 20
-164.0569542368721
 10
105.8413431538782
 20
-164.1885461184852
 10
105.7344483005249
 20
-164.2954409718385
 10
105.6028564189118
 20
-164.2954409718385
 10
105.471275303222
 20
-164.2954409718385
 10
105.3650910008126
 20
-164.1885461184852
 10
105.3650910008126
 20
-164.0569542368721
 10
105.3650910008126
 20
-163.9253731211823
 10
105.471275303222
 20
-163.8188335433009
 10
105.6028564189118
 20
-163.8188335433009
 10
105.7344483005249
 20
-163.8188335433009
 10
105.8413431538782
 20
-163.9253731211823
 10
105.8413431538782
 20
-164.0569542368721
 97
        0
 72
     1
 10
105.8413431538782
 20
-164.0569542368721
 11
105.8413431538782
 21
-164.0569542368721
 97
        0
 75
     2
 76
     1
 98
        0
  0
INSERT
  5
94
330
1F
100
AcDbEntity
  8
_U+30EC_U+30A4_U+30E4_U+30FC 1
100
AcDbBlockReference
  2
block 3
 10
0.0
 20
0.0
 30
0.0
  0
POLYLINE
  5
AE
330
1F
100
AcDbEntity
  8
_U+30EC_U+30A4_U+30E4_U+30FC 1
 62
   179
420
  2234388
370
     9
100
AcDb2dPolyline
 66
     1
 10
0.0
 20
0.0
 30
0.0
  0
VERTEX
  5
AF
330
AE
100
AcDbEntity
  8
_U+30EC_U+30A4_U+30E4_U+30FC 1
 62
   179
420
  2234388
370
     9
100
AcDbVertex
100
AcDb2dVertex
 10
103.7508807452754
 20
-164.692197546582
 30
0.0
  0
VERTEX
  5
B0
330
AE
100
AcDbEntity
  8
_U+30EC_U+30A4_U+30E4_U+30FC 1
 62
   179
420
  2234388
370
     9
100
AcDbVertex
100
AcDb2dVertex
 10
109.2189362994639
 20
-162.7519197692892
 30
0.0
  0
SEQEND
  5
B1
330
AE
100
AcDbEntity
  8
_U+30EC_U+30A4_U+30E4_U+30FC 1
 62
   179
420
  2234388
370
     9
  0
POLYLINE
  5
B2
330
1F
100
AcDbEntity
  8
_U+30EC_U+30A4_U+30E4_U+30FC 1
 62
   179
420
  2234388
370
     9
100
AcDb2dPolyline
 66
     1
 10
0.0
 20
0.0
 30
0.0
  0
VERTEX
  5
B3
330
B2
100
AcDbEntity
  8
_U+30EC_U+30A4_U+30E4_U+30FC 1
 62
   179
420
  2234388
370
     9
100
AcDbVertex
100
AcDb2dVertex
 10
103.7508807452754
 20
-181.7867828762384
 30
0.0
  0
VERTEX
  5
B4
330
B2
100
AcDbEntity
  8
_U+30EC_U+30A4_U+30E4_U+30FC 1
 62
   179
420
  2234388
370
     9
100
AcDbVertex
100
AcDb2dVertex
 10
109.2189362994639
 20
-179.8465050989457
 30
0.0
  0
SEQEND
  5
B5
330
B2
100
AcDbEntity
  8
_U+30EC_U+30A4_U+30E4_U+30FC 1
 62
   179
420
  2234388
370
     9
  0
INSERT
  5
B7
330
1F
100
AcDbEntity
  8
_U+30EC_U+30A4_U+30E4_U+30FC 1
100
AcDbBlockReference
  2
block 4
 10
0.0
 20
0.0
 30
0.0
  0
POLYLINE
  5
F4
330
1F
100
AcDbEntity
  8
_U+30EC_U+30A4_U+30E4_U+30FC 1
 62
   179
420
  2234388
370
     9
100
AcDb2dPolyline
 66
     1
 10
0.0
 20
0.0
 30
0.0
  0
VERTEX
  5
F5
330
F4
100
AcDbEntity
  8
_U+30EC_U+30A4_U+30E4_U+30FC 1
 62
   179
420
  2234388
370
     9
100
AcDbVertex
100
AcDb2dVertex
 10
99.19423596763309
 20
-160.232521440926
 30
0.0
  0
VERTEX
  5
F6
330
F4
100
AcDbEntity
  8
_U+30EC_U+30A4_U+30E4_U+30FC 1
 62
   179
420
  2234388
370
     9
100
AcDbVertex
100
AcDb2dVertex
 10
99.71175390505796
 20
-159.3759845759058
 30
0.0
  0
SEQEND
  5
F7
330
F4
100
AcDbEntity
  8
_U+30EC_U+30A4_U+30E4_U+30FC 1
 62
   179
420
  2234388
370
     9
  0
POLYLINE
  5
F8
330
1F
100
AcDbEntity
  8
_U+30EC_U+30A4_U+30E4_U+30FC 1
 62
   179
420
  2234388
370
     9
100
AcDb2dPolyline
 66
     1
 10
0.0
 20
0.0
 30
0.0
  0
VERTEX
  5
F9
330
F8
100
AcDbEntity
  8
_U+30EC_U+30A4_U+30E4_U+30FC 1
 62
   179
420
  2234388
370
     9
100
AcDbVertex
100
AcDb2dVertex
 10
98.8359460371671
 20
-159.8584056030747
 30
0.0
  0
VERTEX
  5
FA
330
F8
100
AcDbEntity
  8
_U+30EC_U+30A4_U+30E4_U+30FC 1
 62
   179
420
  2234388
370
     9
100
AcDbVertex
100
AcDb2dVertex
 10
99.71153858659014
 20
-159.3761675966034
 30
0.0
  0
SEQEND
  5
FB
330
F8
100
AcDbEntity
  8
_U+30EC_U+30A4_U+30E4_U+30FC 1
 62
   179
420
  2234388
370
     9
  0
POLYLINE
  5
FC
330
1F
100
AcDbEntity
  8
_U+30EC_U+30A4_U+30E4_U+30FC 1
 62
   179
420
  2234388
370
     9
100
AcDb2dPolyline
 66
     1
 10
0.0
 20
0.0
 30
0.0
  0
VERTEX
  5
FD
330
FC
100
AcDbEntity
  8
_U+30EC_U+30A4_U+30E4_U+30FC 1
 62
   179
420
  2234388
370
     9
100
AcDbVertex
100
AcDb2dVertex
 10
93.35784587645438
 20
-165.4484067715177
 30
0.0
  0
VERTEX
  5
FE
330
FC
100
AcDbEntity
  8
_U+30EC_U+30A4_U+30E4_U+30FC 1
 62
   179
420
  2234388
370
     9
100
AcDbVertex
100
AcDb2dVertex
 10
99.71172160728779
 20
-159.3760491714461
 30
0.0
  0
SEQEND
  5
FF
330
FC
100
AcDbEntity
  8
_U+30EC_U+30A4_U+30E4_U+30FC 1
 62
   179
420
  2234388
370
     9
  0
POLYLINE
  5
100
330
1F
100
AcDbEntity
  8
_U+30EC_U+30A4_U+30E4_U+30FC 1
 62
   179
420
  2234388
370
     9
100
AcDb2dPolyline
 66
     1
 10
0.0
 20
0.0
 30
0.0
  0
VERTEX
  5
101
330
100
100
AcDbEntity
  8
_U+30EC_U+30A4_U+30E4_U+30FC 1
 62
   179
420
  2234388
370
     9
100
AcDbVertex
100
AcDb2dVertex
 10
107.2586662024334
 20
-156.9183503500391
 30
0.0
  0
VERTEX
  5
102
330
100
100
AcDbEntity
  8
_U+30EC_U+30A4_U+30E4_U+30FC 1
 62
   179
420
  2234388
370
     9
100
AcDbVertex
100
AcDb2dVertex
 10
109.483627291965
 20
-155.3428543550174
 30
0.0
  0
VERTEX
  5
103
330
100
100
AcDbEntity
  8
_U+30EC_U+30A4_U+30E4_U+30FC 1
 62
   179
420
  2234388
370
     9
100
AcDbVertex
100
AcDb2dVertex
 10
109.7774939368568
 20
-154.358246065333
 30
0.0
  0
VERTEX
  5
104
330
100
100
AcDbEntity
  8
_U+30EC_U+30A4_U+30E4_U+30FC 1
 62
   179
420
  2234388
370
     9
100
AcDbVertex
100
AcDb2dVertex
 10
106.470202271017
 20
-150.7867263416979
 30
0.0
  0
VERTEX
  5
105
330
100
100
AcDbEntity
  8
_U+30EC_U+30A4_U+30E4_U+30FC 1
 62
   179
420
  2234388
370
     9
100
AcDbVertex
100
AcDb2dVertex
 10
105.5589745151684
 20
-150.8749207861202
 30
0.0
  0
VERTEX
  5
106
330
100
100
AcDbEntity
  8
_U+30EC_U+30A4_U+30E4_U+30FC 1
 62
   179
420
  2234388
370
     9
100
AcDbVertex
100
AcDb2dVertex
 10
103.6278693046052
 20
-151.9353642401737
 30
0.0
  0
SEQEND
  5
107
330
100
100
AcDbEntity
  8
_U+30EC_U+30A4_U+30E4_U+30FC 1
 62
   179
420
  2234388
370
     9
  0
POLYLINE
  5
108
330
1F
100
AcDbEntity
  8
_U+30EC_U+30A4_U+30E4_U+30FC 1
 62
   179
420
  2234388
370
     9
100
AcDb2dPolyline
 66
     1
 10
0.0
 20
0.0
 30
0.0
  0
VERTEX
  5
109
330
108
100
AcDbEntity
  8
_U+30EC_U+30A4_U+30E4_U+30FC 1
 62
   179
420
  2234388
370
     9
100
AcDbVertex
100
AcDb2dVertex
 10
109.7773539798528
 20
-154.3583106608733
 30
0.0
  0
VERTEX
  5
10A
330
108
100
AcDbEntity
  8
_U+30EC_U+30A4_U+30E4_U+30FC 1
 62
   179
420
  2234388
370
     9
100
AcDbVertex
100
AcDb2dVertex
 10
109.8948209699764
 20
-154.8292767455538
 30
0.0
  0
VERTEX
  5
10B
330
108
100
AcDbEntity
  8
_U+30EC_U+30A4_U+30E4_U+30FC 1
 62
   179
420
  2234388
370
     9
100
AcDbVertex
100
AcDb2dVertex
 10
109.7039734460169
 20
-155.5789295231441
 30
0.0
  0
VERTEX
  5
10C
330
108
100
AcDbEntity
  8
_U+30EC_U+30A4_U+30E4_U+30FC 1
 62
   179
420
  2234388
370
     9
100
AcDbVertex
100
AcDb2dVertex
 10
107.4349043683507
 20
-157.1981782308285
 30
0.0
  0
SEQEND
  5
10D
330
108
100
AcDbEntity
  8
_U+30EC_U+30A4_U+30E4_U+30FC 1
 62
   179
420
  2234388
370
     9
  0
POLYLINE
  5
10E
330
1F
100
AcDbEntity
  8
_U+30EC_U+30A4_U+30E4_U+30FC 1
 62
   179
420
  2234388
370
     9
100
AcDb2dPolyline
 66
     1
 10
0.0
 20
0.0
 30
0.0
  0
VERTEX
  5
10F
330
10E
100
AcDbEntity
  8
_U+30EC_U+30A4_U+30E4_U+30FC 1
 62
   179
420
  2234388
370
     9
100
AcDbVertex
100
AcDb2dVertex
 10
101.317103805644
 20
-148.7472728781235
 30
0.0
  0
VERTEX
  5
110
330
10E
100
AcDbEntity
  8
_U+30EC_U+30A4_U+30E4_U+30FC 1
 62
   179
420
  2234388
370
     9
100
AcDbVertex
100
AcDb2dVertex
 10
103.5854623323664
 20
-147.5308957896689
 30
0.0
  0
VERTEX
  5
111
330
10E
100
AcDbEntity
  8
_U+30EC_U+30A4_U+30E4_U+30FC 1
 62
   179
420
  2234388
370
     9
100
AcDbVertex
100
AcDb2dVertex
 10
104.0927526425695
 20
-146.9135346787122
 30
0.0
  0
VERTEX
  5
112
330
10E
100
AcDbEntity
  8
_U+30EC_U+30A4_U+30E4_U+30FC 1
 62
   179
420
  2234388
370
     9
100
AcDbVertex
100
AcDb2dVertex
 10
103.9713991541016
 20
-143.6062430128723
 30
0.0
  0
VERTEX
  5
113
330
10E
100
AcDbEntity
  8
_U+30EC_U+30A4_U+30E4_U+30FC 1
 62
   179
420
  2234388
370
     9
100
AcDbVertex
100
AcDb2dVertex
 10
103.2510296881358
 20
-143.1063596579626
 30
0.0
  0
VERTEX
  5
114
330
10E
100
AcDbEntity
  8
_U+30EC_U+30A4_U+30E4_U+30FC 1
 62
   179
420
  2234388
370
     9
100
AcDbVertex
100
AcDb2dVertex
 10
97.5127386908996
 20
-143.0329791241267
 30
0.0
  0
SEQEND
  5
115
330
10E
100
AcDbEntity
  8
_U+30EC_U+30A4_U+30E4_U+30FC 1
 62
   179
420
  2234388
370
     9
  0
POLYLINE
  5
116
330
1F
100
AcDbEntity
  8
_U+30EC_U+30A4_U+30E4_U+30FC 1
 62
   179
420
  2234388
370
     9
100
AcDb2dPolyline
 66
     1
 10
0.0
 20
0.0
 30
0.0
  0
VERTEX
  5
117
330
116
100
AcDbEntity
  8
_U+30EC_U+30A4_U+30E4_U+30FC 1
 62
   179
420
  2234388
370
     9
100
AcDbVertex
100
AcDb2dVertex
 10
101.5468378448932
 20
-149.0662887200577
 30
0.0
  0
VERTEX
  5
118
330
116
100
AcDbEntity
  8
_U+30EC_U+30A4_U+30E4_U+30FC 1
 62
   179
420
  2234388
370
     9
100
AcDbVertex
100
AcDb2dVertex
 10
103.7068911822984
 20
-147.8834259511205
 30
0.0
  0
VERTEX
  5
119
330
116
100
AcDbEntity
  8
_U+30EC_U+30A4_U+30E4_U+30FC 1
 62
   179
420
  2234388
370
     9
100
AcDbVertex
100
AcDb2dVertex
 10
104.1147043603649
 20
-147.4205881386009
 30
0.0
  0
VERTEX
  5
11A
330
116
100
AcDbEntity
  8
_U+30EC_U+30A4_U+30E4_U+30FC 1
 62
   179
420
  2234388
370
     9
100
AcDbVertex
100
AcDb2dVertex
 10
104.0924727285613
 20
-146.9132870624742
 30
0.0
  0
SEQEND
  5
11B
330
116
100
AcDbEntity
  8
_U+30EC_U+30A4_U+30E4_U+30FC 1
 62
   179
420
  2234388
370
     9
  0
SPLINE
  5
11C
330
1F
100
AcDbEntity
  8
_U+30EC_U+30A4_U+30E4_U+30FC 1
 62
   179
420
  2234388
370
     9
100
AcDbSpline
210
0.0
220
0.0
230
1.0
 70
     8
 71
     3
 72
    14
 73
    10
 74
     0
 42
0.0000000001
 43
0.0000000001
 12
1.0
 22
0.0
 32
0.0
 13
1.0
 23
0.0
 33
0.0
 40
0.0
 40
0.0
 40
0.0
 40
0.0
 40
1.0
 40
1.0
 40
1.0
 40
2.0
 40
2.0
 40
2.0
 40
3.0
 40
3.0
 40
3.0
 40
3.0
 10
97.12921343600416
 20
-142.5185294748684
 30
0.0
 10
97.12921343600416
 20
-142.5185294748684
 30
0.0
 10
97.19623130911566
 20
-139.2733356551502
 30
0.0
 10
102.2956401145357
 20
-136.7933083086294
 30
0.0
 10
106.7300593639154
 20
-134.6364201527016
 30
0.0
 10
114.0695984449255
 20
-131.589836087708
 30
0.0
 10
115.6130012223175
 20
-130.9724749767512
 30
0.0
 10
117.1564039997094
 20
-130.3551138657945
 30
0.0
 10
123.0213345537987
 20
-128.3266416440794
 30
0.0
 10
123.0213345537987
 20
-128.3266416440794
 30
0.0
  0
POLYLINE
  5
11D
330
1F
100
AcDbEntity
  8
_U+30EC_U+30A4_U+30E4_U+30FC 1
 62
   179
420
  2234388
370
     9
100
AcDb2dPolyline
 66
     1
 10
0.0
 20
0.0
 30
0.0
  0
VERTEX
  5
11E
330
11D
100
AcDbEntity
  8
_U+30EC_U+30A4_U+30E4_U+30FC 1
 62
   179
420
  2234388
370
     9
100
AcDbVertex
100
AcDb2dVertex
 10
120.2050012923771
 20
-129.338293933323
 30
0.0
  0
VERTEX
  5
11F
330
11D
100
AcDbEntity
  8
_U+30EC_U+30A4_U+30E4_U+30FC 1
 62
   179
420
  2234388
370
     9
100
AcDbVertex
100
AcDb2dVertex
 10
123.1386938846884
 20
-131.4133395396293
 30
0.0
  0
SEQEND
  5
120
330
11D
100
AcDbEntity
  8
_U+30EC_U+30A4_U+30E4_U+30FC 1
 62
   179
420
  2234388
370
     9
  0
POLYLINE
  5
121
330
1F
100
AcDbEntity
  8
_U+30EC_U+30A4_U+30E4_U+30FC 1
 62
   179
420
  2234388
370
     9
100
AcDb2dPolyline
 66
     1
 10
0.0
 20
0.0
 30
0.0
  0
VERTEX
  5
122
330
121
100
AcDbEntity
  8
_U+30EC_U+30A4_U+30E4_U+30FC 1
 62
   179
420
  2234388
370
     9
100
AcDbVertex
100
AcDb2dVertex
 10
119.765730086161
 20
-129.4791875727463
 30
0.0
  0
VERTEX
  5
123
330
121
100
AcDbEntity
  8
_U+30EC_U+30A4_U+30E4_U+30FC 1
 62
   179
420
  2234388
370
     9
100
AcDbVertex
100
AcDb2dVertex
 10
122.2866787074926
 20
-131.2526043033956
 30
0.0
  0
SEQEND
  5
124
330
121
100
AcDbEntity
  8
_U+30EC_U+30A4_U+30E4_U+30FC 1
 62
   179
420
  2234388
370
     9
  0
POLYLINE
  5
125
330
1F
100
AcDbEntity
  8
_U+30EC_U+30A4_U+30E4_U+30FC 1
 62
   179
420
  2234388
370
     9
100
AcDb2dPolyline
 66
     1
 10
0.0
 20
0.0
 30
0.0
  0
VERTEX
  5
126
330
125
100
AcDbEntity
  8
_U+30EC_U+30A4_U+30E4_U+30FC 1
 62
   179
420
  2234388
370
     9
100
AcDbVertex
100
AcDb2dVertex
 10
114.4665057425965
 20
-131.4428919993387
 30
0.0
  0
VERTEX
  5
127
330
125
100
AcDbEntity
  8
_U+30EC_U+30A4_U+30E4_U+30FC 1
 62
   179
420
  2234388
370
     9
100
AcDbVertex
100
AcDb2dVertex
 10
118.4648835627774
 20
-134.4559725107382
 30
0.0
  0
VERTEX
  5
128
330
125
100
AcDbEntity
  8
_U+30EC_U+30A4_U+30E4_U+30FC 1
 62
   179
420
  2234388
370
     9
100
AcDbVertex
100
AcDb2dVertex
 10
118.4352557416043
 20
-135.2497225105398
 30
0.0
  0
VERTEX
  5
129
330
125
100
AcDbEntity
  8
_U+30EC_U+30A4_U+30E4_U+30FC 1
 62
   179
420
  2234388
370
     9
100
AcDbVertex
100
AcDb2dVertex
 10
114.7204954072465
 20
-136.903540598234
 30
0.0
  0
VERTEX
  5
12A
330
125
100
AcDbEntity
  8
_U+30EC_U+30A4_U+30E4_U+30FC 1
 62
   179
420
  2234388
370
     9
100
AcDbVertex
100
AcDb2dVertex
 10
112.6034842315605
 20
-136.5507628205444
 30
0.0
  0
VERTEX
  5
12B
330
125
100
AcDbEntity
  8
_U+30EC_U+30A4_U+30E4_U+30FC 1
 62
   179
420
  2234388
370
     9
100
AcDbVertex
100
AcDb2dVertex
 10
109.2154050765916
 20
-133.6660982433576
 30
0.0
  0
SEQEND
  5
12C
330
125
100
AcDbEntity
  8
_U+30EC_U+30A4_U+30E4_U+30FC 1
 62
   179
420
  2234388
370
     9
  0
POLYLINE
  5
12D
330
1F
100
AcDbEntity
  8
_U+30EC_U+30A4_U+30E4_U+30FC 1
 62
   179
420
  2234388
370
     9
100
AcDb2dPolyline
 66
     1
 10
0.0
 20
0.0
 30
0.0
  0
VERTEX
  5
12E
330
12D
100
AcDbEntity
  8
_U+30EC_U+30A4_U+30E4_U+30FC 1
 62
   179
420
  2234388
370
     9
100
AcDbVertex
100
AcDb2dVertex
 10
118.4648620309307
 20
-134.4559617448148
 30
0.0
  0
VERTEX
  5
12F
330
12D
100
AcDbEntity
  8
_U+30EC_U+30A4_U+30E4_U+30FC 1
 62
   179
420
  2234388
370
     9
100
AcDbVertex
100
AcDb2dVertex
 10
118.5269491111289
 20
-134.7646423002932
 30
0.0
  0
VERTEX
  5
130
330
12D
100
AcDbEntity
  8
_U+30EC_U+30A4_U+30E4_U+30FC 1
 62
   179
420
  2234388
370
     9
100
AcDbVertex
100
AcDb2dVertex
 10
118.49377930116
 20
-135.5837998792985
 30
0.0
  0
VERTEX
  5
131
330
12D
100
AcDbEntity
  8
_U+30EC_U+30A4_U+30E4_U+30FC 1
 62
   179
420
  2234388
370
     9
100
AcDbVertex
100
AcDb2dVertex
 10
114.7603400897181
 20
-137.2707770110382
 30
0.0
  0
VERTEX
  5
132
330
12D
100
AcDbEntity
  8
_U+30EC_U+30A4_U+30E4_U+30FC 1
 62
   179
420
  2234388
370
     9
100
AcDbVertex
100
AcDb2dVertex
 10
112.5300713999545
 20
-136.9476378204452
 30
0.0
  0
VERTEX
  5
133
330
12D
100
AcDbEntity
  8
_U+30EC_U+30A4_U+30E4_U+30FC 1
 62
   179
420
  2234388
370
     9
100
AcDbVertex
100
AcDb2dVertex
 10
108.8072150912064
 20
-133.7945034116469
 30
0.0
  0
SEQEND
  5
134
330
12D
100
AcDbEntity
  8
_U+30EC_U+30A4_U+30E4_U+30FC 1
 62
   179
420
  2234388
370
     9
  0
POLYLINE
  5
135
330
1F
100
AcDbEntity
  8
_U+30EC_U+30A4_U+30E4_U+30FC 1
 62
   179
420
  2234388
370
     9
100
AcDb2dPolyline
 66
     1
 10
0.0
 20
0.0
 30
0.0
  0
VERTEX
  5
136
330
135
100
AcDbEntity
  8
_U+30EC_U+30A4_U+30E4_U+30FC 1
 62
   179
420
  2234388
370
     9
100
AcDbVertex
100
AcDb2dVertex
 10
104.4564363006546
 20
-135.7568298000452
 30
0.0
  0
VERTEX
  5
137
330
135
100
AcDbEntity
  8
_U+30EC_U+30A4_U+30E4_U+30FC 1
 62
   179
420
  2234388
370
     9
100
AcDbVertex
100
AcDb2dVertex
 10
109.4101390988953
 20
-138.218867288579
 30
0.0
  0
VERTEX
  5
138
330
135
100
AcDbEntity
  8
_U+30EC_U+30A4_U+30E4_U+30FC 1
 62
   179
420
  2234388
370
     9
100
AcDbVertex
100
AcDb2dVertex
 10
109.5127921784323
 20
-139.6299783993373
 30
0.0
  0
VERTEX
  5
139
330
135
100
AcDbEntity
  8
_U+30EC_U+30A4_U+30E4_U+30FC 1
 62
   179
420
  2234388
370
     9
100
AcDbVertex
100
AcDb2dVertex
 10
106.8228616235493
 20
-141.8348395098972
 30
0.0
  0
VERTEX
  5
13A
330
135
100
AcDbEntity
  8
_U+30EC_U+30A4_U+30E4_U+30FC 1
 62
   179
420
  2234388
370
     9
100
AcDbVertex
100
AcDb2dVertex
 10
104.9563196555643
 20
-141.6732752975624
 30
0.0
  0
VERTEX
  5
13B
330
135
100
AcDbEntity
  8
_U+30EC_U+30A4_U+30E4_U+30FC 1
 62
   179
420
  2234388
370
     9
100
AcDbVertex
100
AcDb2dVertex
 10
99.60574185742279
 20
-138.5716450662686
 30
0.0
  0
SEQEND
  5
13C
330
135
100
AcDbEntity
  8
_U+30EC_U+30A4_U+30E4_U+30FC 1
 62
   179
420
  2234388
370
     9
  0
POLYLINE
  5
13D
330
1F
100
AcDbEntity
  8
_U+30EC_U+30A4_U+30E4_U+30FC 1
 62
   179
420
  2234388
370
     9
100
AcDb2dPolyline
 66
     1
 10
0.0
 20
0.0
 30
0.0
  0
VERTEX
  5
13E
330
13D
100
AcDbEntity
  8
_U+30EC_U+30A4_U+30E4_U+30FC 1
 62
   179
420
  2234388
370
     9
100
AcDbVertex
100
AcDb2dVertex
 10
99.37062485647787
 20
-138.7923141980222
 30
0.0
  0
VERTEX
  5
13F
330
13D
100
AcDbEntity
  8
_U+30EC_U+30A4_U+30E4_U+30FC 1
 62
   179
420
  2234388
370
     9
100
AcDbVertex
100
AcDb2dVertex
 10
104.9120501785789
 20
-142.0117666949116
 30
0.0
  0
VERTEX
  5
140
330
13D
100
AcDbEntity
  8
_U+30EC_U+30A4_U+30E4_U+30FC 1
 62
   179
420
  2234388
370
     9
100
AcDbVertex
100
AcDb2dVertex
 10
106.8671526323815
 20
-142.2026249847944
 30
0.0
  0
VERTEX
  5
141
330
13D
100
AcDbEntity
  8
_U+30EC_U+30A4_U+30E4_U+30FC 1
 62
   179
420
  2234388
370
     9
100
AcDbVertex
100
AcDb2dVertex
 10
109.4981612885434
 20
-139.9977638742345
 30
0.0
  0
VERTEX
  5
142
330
13D
100
AcDbEntity
  8
_U+30EC_U+30A4_U+30E4_U+30FC 1
 62
   179
420
  2234388
370
     9
100
AcDbVertex
100
AcDb2dVertex
 10
109.5129859650534
 20
-139.630161420035
 30
0.0
  0
SEQEND
  5
143
330
13D
100
AcDbEntity
  8
_U+30EC_U+30A4_U+30E4_U+30FC 1
 62
   179
420
  2234388
370
     9
  0
SPLINE
  5
144
330
1F
100
AcDbEntity
  8
_U+30EC_U+30A4_U+30E4_U+30FC 1
  6
AI-Linetype-1
 62
   154
420
    23468
370
    25
100
AcDbSpline
210
0.0
220
0.0
230
1.0
 70
     8
 71
     3
 72
    14
 73
    10
 74
     0
 42
0.0000000001
 43
0.0000000001
 12
1.0
 22
0.0
 32
0.0
 13
1.0
 23
0.0
 33
0.0
 40
0.0
 40
0.0
 40
0.0
 40
0.0
 40
1.0
 40
1.0
 40
1.0
 40
2.0
 40
2.0
 40
2.0
 40
3.0
 40
3.0
 40
3.0
 40
3.0
 10
110.6741446324335
 20
-165.8001617864851
 30
0.0
 10
110.6741446324335
 20
-165.8001617864851
 30
0.0
 10
108.813943793326
 20
-163.4940579323524
 30
0.0
 10
107.9394063043954
 20
-162.4078516236233
 30
0.0
 10
107.0705101593218
 20
-161.328707760639
 30
0.0
 10
102.7207648974155
 20
-155.6652183991262
 30
0.0
 10
100.6446642306168
 20
-152.7918365096536
 30
0.0
 10
98.91641054859447
 20
-150.3993038225347
 30
0.0
 10
93.22469293594948
 20
-142.314342971827
 30
0.0
 10
92.77067241468711
 20
-137.2205755102641
 30
0.0
  0
SPLINE
  5
146
330
1F
100
AcDbEntity
  8
_U+30EC_U+30A4_U+30E4_U+30FC 1
  6
AI-Linetype-2
 62
   154
420
    23468
370
    25
100
AcDbSpline
210
0.0
220
0.0
230
1.0
 70
     8
 71
     3
 72
    14
 73
    10
 74
     0
 42
0.0000000001
 43
0.0000000001
 12
1.0
 22
0.0
 32
0.0
 13
1.0
 23
0.0
 33
0.0
 40
0.0
 40
0.0
 40
0.0
 40
0.0
 40
1.0
 40
1.0
 40
1.0
 40
2.0
 40
2.0
 40
2.0
 40
3.0
 40
3.0
 40
3.0
 40
3.0
 10
110.5198043546943
 20
-169.2456071642451
 30
0.0
 10
110.5198043546943
 20
-169.2456071642451
 30
0.0
 10
108.465224768755
 20
-166.8184997141548
 30
0.0
 10
107.5903320043524
 20
-165.7326486808976
 30
0.0
 10
106.6963943214704
 20
-164.6221113853039
 30
0.0
 10
102.3357108813985
 20
-159.180507704888
 30
0.0
 10
100.291714198153
 20
-156.3783962282665
 30
0.0
 10
98.61178874623464
 20
-154.0729921591543
 30
0.0
 10
93.09504968647049
 20
-146.124553982973
 30
0.0
 10
92.41771161629987
 20
-141.2918493977286
 30
0.0
  0
SPLINE
  5
148
330
1F
100
AcDbEntity
  8
_U+30EC_U+30A4_U+30E4_U+30FC 1
  6
AI-Linetype-3
 62
   154
420
    23468
370
    25
100
AcDbSpline
210
0.0
220
0.0
230
1.0
 70
     8
 71
     3
 72
    14
 73
    10
 74
     0
 42
0.0000000001
 43
0.0000000001
 12
1.0
 22
0.0
 32
0.0
 13
1.0
 23
0.0
 33
0.0
 40
0.0
 40
0.0
 40
0.0
 40
0.0
 40
1.0
 40
1.0
 40
1.0
 40
2.0
 40
2.0
 40
2.0
 40
3.0
 40
3.0
 40
3.0
 40
3.0
 10
110.3654640769551
 20
-172.6910471590435
 30
0.0
 10
110.3654640769551
 20
-172.6910471590435
 30
0.0
 10
108.1161504687121
 20
-170.1432860055056
 30
0.0
 10
107.2419682552533
 20
-169.0570850797382
 30
0.0
 10
106.3226229931676
 20
-167.9147936931016
 30
0.0
 10
101.9503015899096
 20
-162.6954417351779
 30
0.0
 10
99.93910867523766
 20
-159.9649451809561
 30
0.0
 10
98.3068116684029
 20
-157.7473802807943
 30
0.0
 10
92.96575094653939
 20
-149.9340652090985
 30
0.0
 10
92.06511685930795
 20
-145.3631232851924
 30
0.0
  0
SPLINE
  5
14A
330
1F
100
AcDbEntity
  8
_U+30EC_U+30A4_U+30E4_U+30FC 1
  6
AI-Linetype-4
 62
   154
420
    23468
370
    25
100
AcDbSpline
210
0.0
220
0.0
230
1.0
 70
     8
 71
     3
 72
    14
 73
    10
 74
     0
 42
0.0000000001
 43
0.0000000001
 12
1.0
 22
0.0
 32
0.0
 13
1.0
 23
0.0
 33
0.0
 40
0.0
 40
0.0
 40
0.0
 40
0.0
 40
1.0
 40
1.0
 40
1.0
 40
2.0
 40
2.0
 40
2.0
 40
3.0
 40
3.0
 40
3.0
 40
3.0
 10
110.2111237992159
 20
-176.1364817708802
 30
0.0
 10
110.2111237992159
 20
-176.1364817708802
 30
0.0
 10
107.7674314441411
 20
-173.4680722968565
 30
0.0
 10
106.8932384647589
 20
-172.3815160956172
 30
0.0
 10
105.9485071553163
 20
-171.2078258934095
 30
0.0
 10
101.5645370229487
 20
-166.2107310409397
 30
0.0
 10
99.58615864277382
 20
-163.5514941336455
 30
0.0
 10
98.00218986604308
 20
-161.4210686174139
 30
0.0
 10
92.83646297253199
 20
-153.7442654543211
 30
0.0
 10
91.7121560609207
 20
-149.4347309162817
 30
0.0
  0
ENDSEC
  0
SECTION
  2
OBJECTS
  0
DICTIONARY
  5
C
330
0
100
AcDbDictionary
281
     1
  3
ACAD_GROUP
350
D
  3
ACAD_LAYOUT
350
1A
  3
ACAD_MATERIAL
350
3B
  3
ACAD_MLEADERSTYLE
350
14D
  3
ACAD_MLINESTYLE
350
17
  3
ACAD_PLOTSETTINGS
350
19
  3
ACAD_PLOTSTYLENAME
350
E
  3
ACAD_TABLESTYLE
350
14C
  3
ACAD_VISUALSTYLE
350
2A
  0
SUN
  5
3F
330
29
100
AcDbSun
 90
        1
290
     0
 63
     7
421
 16777215
 40
1.0
291
     1
 91
  2455826
 92
 54000000
292
     0
 70
     2
 71
   256
280
     1
  0
DICTIONARY
  5
D
102
{ACAD_REACTORS
330
C
102
}
330
C
100
AcDbDictionary
281
     1
  0
DICTIONARY
  5
1A
102
{ACAD_REACTORS
330
C
102
}
330
C
100
AcDbDictionary
281
     1
  3
Layout1
350
1E
  3
Layout2
350
26
  3
Model
350
22
  0
DICTIONARY
  5
3B
102
{ACAD_REACTORS
330
C
102
}
330
C
100
AcDbDictionary
281
     1
  3
ByBlock
350
3D
  3
ByLayer
350
3C
  3
Global
350
3E
  0
DICTIONARY
  5
14D
102
{ACAD_REACTORS
330
C
102
}
330
C
100
AcDbDictionary
281
     1
  0
DICTIONARY
  5
17
102
{ACAD_REACTORS
330
C
102
}
330
C
100
AcDbDictionary
281
     1
  3
Standard
350
18
  0
DICTIONARY
  5
19
102
{ACAD_REACTORS
330
C
102
}
330
C
100
AcDbDictionary
281
     1
  0
ACDBDICTIONARYWDFLT
  5
E
102
{ACAD_REACTORS
330
C
102
}
330
C
100
AcDbDictionary
281
     1
  3
Normal
350
F
100
AcDbDictionaryWithDefault
340
F
  0
DICTIONARY
  5
14C
102
{ACAD_REACTORS
330
C
102
}
330
C
100
AcDbDictionary
281
     1
  0
DICTIONARY
  5
2A
102
{ACAD_REACTORS
330
C
102
}
330
C
100
AcDbDictionary
281
     1
  3
2dWireframe
350
2F
  3
3D Hidden
350
31
  3
3dWireframe
350
30
  3
Basic
350
32
  3
Brighten
350
36
  3
ColorChange
350
3A
  3
Conceptual
350
34
  3
Dim
350
35
  3
Facepattern
350
39
  3
Flat
350
2B
  3
FlatWithEdges
350
2C
  3
Gouraud
350
2D
  3
GouraudWithEdges
350
2E
  3
Linepattern
350
38
  3
Realistic
350
33
  3
Thicken
350
37
  0
LAYOUT
  5
1E
102
{ACAD_REACTORS
330
1A
102
}
330
1A
100
AcDbPlotSettings
  1

  2
none_device
  4

  6

 40
0.0
 41
0.0
 42
0.0
 43
0.0
 44
0.0
 45
0.0
 46
0.0
 47
0.0
 48
0.0
 49
0.0
140
0.0
141
0.0
142
1.0
143
1.0
 70
   688
 72
     0
 73
     0
 74
     5
  7

 75
    16
 76
     0
 77
     2
 78
   300
147
1.0
148
0.0
149
0.0
100
AcDbLayout
  1
Layout1
 70
     1
 71
     1
 10
0.0
 20
0.0
 11
12.0
 21
9.0
 12
0.0
 22
0.0
 32
0.0
 14
1.000000000000000E+20
 24
1.000000000000000E+20
 34
1.000000000000000E+20
 15
-1.000000000000000E+20
 25
-1.000000000000000E+20
 35
-1.000000000000000E+20
146
0.0
 13
0.0
 23
0.0
 33
0.0
 16
1.0
 26
0.0
 36
0.0
 17
0.0
 27
1.0
 37
0.0
 76
     0
330
1B
  0
LAYOUT
  5
26
102
{ACAD_REACTORS
330
1A
102
}
330
1A
100
AcDbPlotSettings
  1

  2
none_device
  4

  6

 40
0.0
 41
0.0
 42
0.0
 43
0.0
 44
0.0
 45
0.0
 46
0.0
 47
0.0
 48
0.0
 49
0.0
140
0.0
141
0.0
142
1.0
143
1.0
 70
   688
 72
     0
 73
     0
 74
     5
  7

 75
    16
 76
     0
 77
     2
 78
   300
147
1.0
148
0.0
149
0.0
100
AcDbLayout
  1
Layout2
 70
     1
 71
     2
 10
0.0
 20
0.0
 11
0.0
 21
0.0
 12
0.0
 22
0.0
 32
0.0
 14
0.0
 24
0.0
 34
0.0
 15
0.0
 25
0.0
 35
0.0
146
0.0
 13
0.0
 23
0.0
 33
0.0
 16
1.0
 26
0.0
 36
0.0
 17
0.0
 27
1.0
 37
0.0
 76
     0
330
23
  0
LAYOUT
  5
22
102
{ACAD_REACTORS
330
1A
102
}
330
1A
100
AcDbPlotSettings
  1

  2
none_device
  4

  6

 40
0.0
 41
0.0
 42
0.0
 43
0.0
 44
0.0
 45
0.0
 46
0.0
 47
0.0
 48
0.0
 49
0.0
140
0.0
141
0.0
142
1.0
143
1.0
 70
  1712
 72
     0
 73
     0
 74
     0
  7

 75
     0
 76
     0
 77
     2
 78
   300
147
1.0
148
0.0
149
0.0
100
AcDbLayout
  1
Model
 70
     1
 71
     0
 10
0.0
 20
0.0
 11
12.0
 21
9.0
 12
0.0
 22
0.0
 32
0.0
 14
1.000000000000000E+20
 24
1.000000000000000E+20
 34
1.000000000000000E+20
 15
-1.000000000000000E+20
 25
-1.000000000000000E+20
 35
-1.000000000000000E+20
146
0.0
 13
0.0
 23
0.0
 33
0.0
 16
1.0
 26
0.0
 36
0.0
 17
0.0
 27
1.0
 37
0.0
 76
     0
330
1F
331
29
  0
MATERIAL
  5
3D
102
{ACAD_REACTORS
330
3B
102
}
330
3B
100
AcDbMaterial
  1
ByBlock
 72
     1
 94
      127
  0
MATERIAL
  5
3C
102
{ACAD_REACTORS
330
3B
102
}
330
3B
100
AcDbMaterial
  1
ByLayer
 72
     1
 94
      127
  0
MATERIAL
  5
3E
102
{ACAD_REACTORS
330
3B
102
}
330
3B
100
AcDbMaterial
  1
Global
 72
     1
 94
      127
  0
MLINESTYLE
  5
18
102
{ACAD_REACTORS
330
17
102
}
330
17
100
AcDbMlineStyle
  2
Standard
 70
     0
  3

 62
   256
 51
90.0
 52
90.0
 71
     2
 49
0.5
 62
   256
  6
BYLAYER
 49
-0.5
 62
   256
  6
BYLAYER
  0
ACDBPLACEHOLDER
  5
F
102
{ACAD_REACTORS
330
E
102
}
330
E
  0
VISUALSTYLE
  5
2F
102
{ACAD_REACTORS
330
2A
102
}
330
2A
100
AcDbVisualStyle
  2
2dWireframe
 70
     4
177
     2
291
     0
 71
     0
176
     1
 72
     2
176
     1
 73
     0
176
     1
 90
        0
176
     1
 40
-0.6
176
     1
 41
-30.0
176
     1
 62
     5
 63
     7
421
 16777215
176
     1
 74
     1
176
     1
 91
        4
176
     1
 64
     7
176
     1
 65
   257
176
     1
 75
     1
176
     1
175
     1
176
     1
 42
1.0
176
     1
 92
        0
176
     1
 66
   257
176
     1
 43
1.0
176
     1
 76
     1
176
     1
 77
     6
176
     1
 78
     2
176
     1
 67
     7
176
     1
 79
     5
176
     1
170
     0
176
     1
171
     0
176
     1
290
     0
176
     1
 93
        1
176
     1
 44
0.0
176
     1
173
     0
176
     1
  0
VISUALSTYLE
  5
31
102
{ACAD_REACTORS
330
2A
102
}
330
2A
100
AcDbVisualStyle
  2
3D Hidden
 70
     6
177
     2
291
     0
 71
     1
176
     1
 72
     2
176
     1
 73
     2
176
     1
 90
        0
176
     1
 40
-0.6
176
     1
 41
-30.0
176
     1
 62
     5
 63
     7
421
 16777215
176
     1
 74
     2
176
     1
 91
        2
176
     1
 64
     7
176
     1
 65
   257
176
     1
 75
     2
176
     1
175
     1
176
     1
 42
40.0
176
     1
 92
        0
176
     1
 66
   257
176
     1
 43
1.0
176
     1
 76
     1
176
     1
 77
     6
176
     1
 78
     2
176
     1
 67
     7
176
     1
 79
     3
176
     1
170
     0
176
     1
171
     0
176
     1
290
     0
176
     1
 93
        1
176
     1
 44
0.0
176
     1
173
     0
176
     1
  0
VISUALSTYLE
  5
30
102
{ACAD_REACTORS
330
2A
102
}
330
2A
100
AcDbVisualStyle
  2
3dWireframe
 70
     5
177
     2
291
     0
 71
     0
176
     1
 72
     2
176
     1
 73
     0
176
     1
 90
        0
176
     1
 40
-0.6
176
     1
 41
-30.0
176
     1
 62
     5
 63
     7
421
 16777215
176
     1
 74
     1
176
     1
 91
        4
176
     1
 64
     7
176
     1
 65
   257
176
     1
 75
     1
176
     1
175
     1
176
     1
 42
1.0
176
     1
 92
        0
176
     1
 66
   257
176
     1
 43
1.0
176
     1
 76
     1
176
     1
 77
     6
176
     1
 78
     2
176
     1
 67
     7
176
     1
 79
     5
176
     1
170
     0
176
     1
171
     0
176
     1
290
     0
176
     1
 93
        1
176
     1
 44
0.0
176
     1
173
     0
176
     1
  0
VISUALSTYLE
  5
32
102
{ACAD_REACTORS
330
2A
102
}
330
2A
100
AcDbVisualStyle
  2
Basic
 70
     7
177
     2
291
     1
 71
     1
176
     1
 72
     0
176
     1
 73
     1
176
     1
 90
        0
176
     1
 40
-0.6
176
     1
 41
-30.0
176
     1
 62
     5
 63
     7
421
 16777215
176
     1
 74
     0
176
     1
 91
        4
176
     1
 64
     7
176
     1
 65
   257
176
     1
 75
     1
176
     1
175
     1
176
     1
 42
1.0
176
     1
 92
        8
176
     1
 66
     7
176
     1
 43
1.0
176
     1
 76
     1
176
     1
 77
     6
176
     1
 78
     2
176
     1
 67
     7
176
     1
 79
     5
176
     1
170
     0
176
     1
171
     0
176
     1
290
     0
176
     1
 93
        1
176
     1
 44
0.0
176
     1
173
     0
176
     1
  0
VISUALSTYLE
  5
36
102
{ACAD_REACTORS
330
2A
102
}
330
2A
100
AcDbVisualStyle
  2
Brighten
 70
    12
177
     2
291
     1
 71
     2
176
     1
 72
     2
176
     1
 73
     0
176
     1
 90
        0
176
     1
 40
-0.6
176
     1
 41
-30.0
176
     1
 62
     5
 63
     7
421
 16777215
176
     1
 74
     1
176
     1
 91
        4
176
     1
 64
     7
176
     1
 65
   257
176
     1
 75
     1
176
     1
175
     1
176
     1
 42
1.0
176
     1
 92
        8
176
     1
 66
     7
176
     1
 43
1.0
176
     1
 76
     1
176
     1
 77
     6
176
     1
 78
     2
176
     1
 67
     7
176
     1
 79
     5
176
     1
170
     0
176
     1
171
     0
176
     1
290
     0
176
     1
 93
        1
176
     1
 44
50.0
176
     1
173
     0
176
     1
  0
VISUALSTYLE
  5
3A
102
{ACAD_REACTORS
330
2A
102
}
330
2A
100
AcDbVisualStyle
  2
ColorChange
 70
    16
177
     2
291
     1
 71
     2
176
     1
 72
     2
176
     1
 73
     3
176
     1
 90
        0
176
     1
 40
-0.6
176
     1
 41
-30.0
176
     1
 62
     5
 63
     8
421
  8421504
176
     1
 74
     1
176
     1
 91
        4
176
     1
 64
     7
176
     1
 65
   257
176
     1
 75
     1
176
     1
175
     1
176
     1
 42
1.0
176
     1
 92
        8
176
     1
 66
     8
424
  8421504
176
     1
 43
1.0
176
     1
 76
     1
176
     1
 77
     6
176
     1
 78
     2
176
     1
 67
     7
176
     1
 79
     5
176
     1
170
     0
176
     1
171
     0
176
     1
290
     0
176
     1
 93
        1
176
     1
 44
0.0
176
     1
173
     0
176
     1
  0
VISUALSTYLE
  5
34
102
{ACAD_REACTORS
330
2A
102
}
330
2A
100
AcDbVisualStyle
  2
Conceptual
 70
     9
177
     2
291
     0
 71
     3
176
     1
 72
     2
176
     1
 73
     0
176
     1
 90
        0
176
     1
 40
-0.6
176
     1
 41
-30.0
176
     1
 62
     5
 63
     7
421
 16777215
176
     1
 74
     2
176
     1
 91
        2
176
     1
 64
     7
176
     1
 65
   257
176
     1
 75
     1
176
     1
175
     1
176
     1
 42
40.0
176
     1
 92
        8
176
     1
 66
     7
176
     1
 43
1.0
176
     1
 76
     1
176
     1
 77
     6
176
     1
 78
     2
176
     1
 67
     7
176
     1
 79
     3
176
     1
170
     0
176
     1
171
     0
176
     1
290
     0
176
     1
 93
        1
176
     1
 44
0.0
176
     1
173
     0
176
     1
  0
VISUALSTYLE
  5
35
102
{ACAD_REACTORS
330
2A
102
}
330
2A
100
AcDbVisualStyle
  2
Dim
 70
    11
177
     2
291
     1
 71
     2
176
     1
 72
     2
176
     1
 73
     0
176
     1
 90
        0
176
     1
 40
-0.6
176
     1
 41
-30.0
176
     1
 62
     5
 63
     7
421
 16777215
176
     1
 74
     1
176
     1
 91
        4
176
     1
 64
     7
176
     1
 65
   257
176
     1
 75
     1
176
     1
175
     1
176
     1
 42
1.0
176
     1
 92
        8
176
     1
 66
     7
176
     1
 43
1.0
176
     1
 76
     1
176
     1
 77
     6
176
     1
 78
     2
176
     1
 67
     7
176
     1
 79
     5
176
     1
170
     0
176
     1
171
     0
176
     1
290
     0
176
     1
 93
        1
176
     1
 44
-50.0
176
     1
173
     0
176
     1
  0
VISUALSTYLE
  5
39
102
{ACAD_REACTORS
330
2A
102
}
330
2A
100
AcDbVisualStyle
  2
Facepattern
 70
    15
177
     2
291
     1
 71
     2
176
     1
 72
     2
176
     1
 73
     0
176
     1
 90
        0
176
     1
 40
-0.6
176
     1
 41
-30.0
176
     1
 62
     5
 63
     7
421
 16777215
176
     1
 74
     1
176
     1
 91
        4
176
     1
 64
     7
176
     1
 65
   257
176
     1
 75
     1
176
     1
175
     1
176
     1
 42
1.0
176
     1
 92
        8
176
     1
 66
     7
176
     1
 43
1.0
176
     1
 76
     1
176
     1
 77
     6
176
     1
 78
     2
176
     1
 67
     7
176
     1
 79
     5
176
     1
170
     0
176
     1
171
     0
176
     1
290
     0
176
     1
 93
        1
176
     1
 44
0.0
176
     1
173
     0
176
     1
  0
VISUALSTYLE
  5
2B
102
{ACAD_REACTORS
330
2A
102
}
330
2A
100
AcDbVisualStyle
  2
Flat
 70
     0
177
     2
291
     1
 71
     2
176
     1
 72
     1
176
     1
 73
     1
176
     1
 90
        2
176
     1
 40
-0.6
176
     1
 41
30.0
176
     1
 62
     5
 63
     7
421
 16777215
176
     1
 74
     0
176
     1
 91
        4
176
     1
 64
     7
176
     1
 65
   257
176
     1
 75
     1
176
     1
175
     1
176
     1
 42
1.0
176
     1
 92
        8
176
     1
 66
     7
176
     1
 43
1.0
176
     1
 76
     1
176
     1
 77
     6
176
     1
 78
     2
176
     1
 67
     7
176
     1
 79
     5
176
     1
170
     0
176
     1
171
     0
176
     1
290
     0
176
     1
 93
       13
176
     1
 44
0.0
176
     1
173
     0
176
     1
  0
VISUALSTYLE
  5
2C
102
{ACAD_REACTORS
330
2A
102
}
330
2A
100
AcDbVisualStyle
  2
FlatWithEdges
 70
     1
177
     2
291
     1
 71
     2
176
     1
 72
     1
176
     1
 73
     1
176
     1
 90
        2
176
     1
 40
-0.6
176
     1
 41
30.0
176
     1
 62
     5
 63
     7
421
 16777215
176
     1
 74
     1
176
     1
 91
        4
176
     1
 64
     7
176
     1
 65
   257
176
     1
 75
     1
176
     1
175
     1
176
     1
 42
1.0
176
     1
 92
        0
176
     1
 66
   257
176
     1
 43
1.0
176
     1
 76
     1
176
     1
 77
     6
176
     1
 78
     2
176
     1
 67
     7
176
     1
 79
     5
176
     1
170
     0
176
     1
171
     0
176
     1
290
     0
176
     1
 93
       13
176
     1
 44
0.0
176
     1
173
     0
176
     1
  0
VISUALSTYLE
  5
2D
102
{ACAD_REACTORS
330
2A
102
}
330
2A
100
AcDbVisualStyle
  2
Gouraud
 70
     2
177
     2
291
     1
 71
     2
176
     1
 72
     2
176
     1
 73
     1
176
     1
 90
        2
176
     1
 40
-0.6
176
     1
 41
30.0
176
     1
 62
     5
 63
     7
421
 16777215
176
     1
 74
     0
176
     1
 91
        4
176
     1
 64
     7
176
     1
 65
   257
176
     1
 75
     1
176
     1
175
     1
176
     1
 42
1.0
176
     1
 92
        0
176
     1
 66
     7
176
     1
 43
1.0
176
     1
 76
     1
176
     1
 77
     6
176
     1
 78
     2
176
     1
 67
     7
176
     1
 79
     5
176
     1
170
     0
176
     1
171
     0
176
     1
290
     0
176
     1
 93
       13
176
     1
 44
0.0
176
     1
173
     0
176
     1
  0
VISUALSTYLE
  5
2E
102
{ACAD_REACTORS
330
2A
102
}
330
2A
100
AcDbVisualStyle
  2
GouraudWithEdges
 70
     3
177
     2
291
     1
 71
     2
176
     1
 72
     2
176
     1
 73
     1
176
     1
 90
        2
176
     1
 40
-0.6
176
     1
 41
30.0
176
     1
 62
     5
 63
     7
421
 16777215
176
     1
 74
     1
176
     1
 91
        4
176
     1
 64
     7
176
     1
 65
   257
176
     1
 75
     1
176
     1
175
     1
176
     1
 42
1.0
176
     1
 92
        0
176
     1
 66
   257
176
     1
 43
1.0
176
     1
 76
     1
176
     1
 77
     6
176
     1
 78
     2
176
     1
 67
     7
176
     1
 79
     5
176
     1
170
     0
176
     1
171
     0
176
     1
290
     0
176
     1
 93
       13
176
     1
 44
0.0
176
     1
173
     0
176
     1
  0
VISUALSTYLE
  5
38
102
{ACAD_REACTORS
330
2A
102
}
330
2A
100
AcDbVisualStyle
  2
Linepattern
 70
    14
177
     2
291
     1
 71
     2
176
     1
 72
     2
176
     1
 73
     0
176
     1
 90
        0
176
     1
 40
-0.6
176
     1
 41
-30.0
176
     1
 62
     5
 63
     7
421
 16777215
176
     1
 74
     1
176
     1
 91
        4
176
     1
 64
     7
176
     1
 65
   257
176
     1
 75
     7
176
     1
175
     7
176
     1
 42
1.0
176
     1
 92
        8
176
     1
 66
     7
176
     1
 43
1.0
176
     1
 76
     1
176
     1
 77
     6
176
     1
 78
     2
176
     1
 67
     7
176
     1
 79
     5
176
     1
170
     0
176
     1
171
     0
176
     1
290
     0
176
     1
 93
        1
176
     1
 44
0.0
176
     1
173
     0
176
     1
  0
VISUALSTYLE
  5
33
102
{ACAD_REACTORS
330
2A
102
}
330
2A
100
AcDbVisualStyle
  2
Realistic
 70
     8
177
     2
291
     0
 71
     2
176
     1
 72
     2
176
     1
 73
     0
176
     1
 90
        0
176
     1
 40
-0.6
176
     1
 41
-30.0
176
     1
 62
     5
 63
     7
421
 16777215
176
     1
 74
     1
176
     1
 91
        0
176
     1
 64
     7
176
     1
 65
   257
176
     1
 75
     1
176
     1
175
     1
176
     1
 42
1.0
176
     1
 92
        8
176
     1
 66
     8
424
  7895160
176
     1
 43
1.0
176
     1
 76
     1
176
     1
 77
     6
176
     1
 78
     2
176
     1
 67
     7
176
     1
 79
     5
176
     1
170
     0
176
     1
171
     0
176
     1
290
     0
176
     1
 93
       13
176
     1
 44
0.0
176
     1
173
     0
176
     1
  0
VISUALSTYLE
  5
37
102
{ACAD_REACTORS
330
2A
102
}
330
2A
100
AcDbVisualStyle
  2
Thicken
 70
    13
177
     2
291
     1
 71
     2
176
     1
 72
     2
176
     1
 73
     0
176
     1
 90
        0
176
     1
 40
-0.6
176
     1
 41
-30.0
176
     1
 62
     5
 63
     7
421
 16777215
176
     1
 74
     1
176
     1
 91
        4
176
     1
 64
     7
176
     1
 65
   257
176
     1
 75
     1
176
     1
175
     1
176
     1
 42
1.0
176
     1
 92
       12
176
     1
 66
     7
176
     1
 43
1.0
176
     1
 76
     1
176
     1
 77
     6
176
     1
 78
     2
176
     1
 67
     7
176
     1
 79
     5
176
     1
170
     0
176
     1
171
     0
176
     1
290
     0
176
     1
 93
        1
176
     1
 44
0.0
176
     1
173
     0
176
     1
  0
ENDSEC
  0
EOF
