  0
SECTION
  2
HEADER
  9
$ACADVER
  1
AC1024
  9
$ACADMAINTVER
 70
   226
  9
$DWGCODEPAGE
  3
ANSI_932
  9
$INSBASE
 10
0.0
 20
0.0
 30
0.0
  9
$EXTMIN
 10
1.000000000000000E+20
 20
1.000000000000000E+20
 30
1.000000000000000E+20
  9
$EXTMAX
 10
-1.000000000000000E+20
 20
-1.000000000000000E+20
 30
-1.000000000000000E+20
  9
$LIMMIN
 10
0.0
 20
0.0
  9
$LIMMAX
 10
12.0
 20
9.0
  9
$ORTHOMODE
 70
     0
  9
$REGENMODE
 70
     1
  9
$FILLMODE
 70
     1
  9
$QTEXTMODE
 70
     0
  9
$MIRRTEXT
 70
     0
  9
$LTSCALE
 40
1.0
  9
$ATTMODE
 70
     1
  9
$TEXTSIZE
 40
0.2
  9
$TRACEWID
 40
0.05
  9
$TEXTSTYLE
  7
Standard
  9
$CLAYER
  8
0
  9
$CELTYPE
  6
ByLayer
  9
$CECOLOR
 62
   256
  9
$CELTSCALE
 40
1.0
  9
$DISPSILH
 70
     0
  9
$DIMSCALE
 40
1.0
  9
$DIMASZ
 40
0.18
  9
$DIMEXO
 40
0.0625
  9
$DIMDLI
 40
0.38
  9
$DIMRND
 40
0.0
  9
$DIMDLE
 40
0.0
  9
$DIMEXE
 40
0.18
  9
$DIMTP
 40
0.0
  9
$DIMTM
 40
0.0
  9
$DIMTXT
 40
0.18
  9
$DIMCEN
 40
0.09
  9
$DIMTSZ
 40
0.0
  9
$DIMTOL
 70
     0
  9
$DIMLIM
 70
     0
  9
$DIMTIH
 70
     1
  9
$DIMTOH
 70
     1
  9
$DIMSE1
 70
     0
  9
$DIMSE2
 70
     0
  9
$DIMTAD
 70
     0
  9
$DIMZIN
 70
     0
  9
$DIMBLK
  1

  9
$DIMASO
 70
     1
  9
$DIMSHO
 70
     1
  9
$DIMPOST
  1

  9
$DIMAPOST
  1

  9
$DIMALT
 70
     0
  9
$DIMALTD
 70
     2
  9
$DIMALTF
 40
25.4
  9
$DIMLFAC
 40
1.0
  9
$DIMTOFL
 70
     0
  9
$DIMTVP
 40
0.0
  9
$DIMTIX
 70
     0
  9
$DIMSOXD
 70
     0
  9
$DIMSAH
 70
     0
  9
$DIMBLK1
  1

  9
$DIMBLK2
  1

  9
$DIMSTYLE
  2
Standard
  9
$DIMCLRD
 70
     0
  9
$DIMCLRE
 70
     0
  9
$DIMCLRT
 70
     0
  9
$DIMTFAC
 40
1.0
  9
$DIMGAP
 40
0.09
  9
$DIMJUST
 70
     0
  9
$DIMSD1
 70
     0
  9
$DIMSD2
 70
     0
  9
$DIMTOLJ
 70
     1
  9
$DIMTZIN
 70
     0
  9
$DIMALTZ
 70
     0
  9
$DIMALTTZ
 70
     0
  9
$DIMUPT
 70
     0
  9
$DIMDEC
 70
     4
  9
$DIMTDEC
 70
     4
  9
$DIMALTU
 70
     2
  9
$DIMALTTD
 70
     2
  9
$DIMTXSTY
  7
Standard
  9
$DIMAUNIT
 70
     0
  9
$DIMADEC
 70
     0
  9
$DIMALTRND
 40
0.0
  9
$DIMAZIN
 70
     0
  9
$DIMDSEP
 70
    46
  9
$DIMATFIT
 70
     3
  9
$DIMFRAC
 70
     0
  9
$DIMLDRBLK
  1

  9
$DIMLUNIT
 70
     2
  9
$DIMLWD
 70
    -2
  9
$DIMLWE
 70
    -2
  9
$DIMTMOVE
 70
     0
  9
$DIMFXL
 40
1.0
  9
$DIMFXLON
 70
     0
  9
$DIMJOGANG
 40
0.7853981633974483
  9
$DIMTFILL
 70
     0
  9
$DIMTFILLCLR
 70
     0
  9
$DIMARCSYM
 70
     0
  9
$DIMLTYPE
  6

  9
$DIMLTEX1
  6

  9
$DIMLTEX2
  6

  9
$DIMTXTDIRECTION
 70
     0
  9
$LUNITS
 70
     2
  9
$LUPREC
 70
     4
  9
$SKETCHINC
 40
0.1
  9
$FILLETRAD
 40
0.0
  9
$AUNITS
 70
     0
  9
$AUPREC
 70
     0
  9
$MENU
  1
.
  9
$ELEVATION
 40
0.0
  9
$PELEVATION
 40
0.0
  9
$THICKNESS
 40
0.0
  9
$LIMCHECK
 70
     0
  9
$CHAMFERA
 40
0.0
  9
$CHAMFERB
 40
0.0
  9
$CHAMFERC
 40
0.0
  9
$CHAMFERD
 40
0.0
  9
$SKPOLY
 70
     0
  9
$TDCREATE
 40
2459569.502581019
  9
$TDUCREATE
 40
2459569.127581019
  9
$TDUPDATE
 40
2459569.502581019
  9
$TDUUPDATE
 40
2459569.127581019
  9
$TDINDWG
 40
0.0000000000
  9
$TDUSRTIMER
 40
0.0000000000
  9
$USRTIMER
 70
     1
  9
$ANGBASE
 50
0.0
  9
$ANGDIR
 70
     0
  9
$PDMODE
 70
     0
  9
$PDSIZE
 40
0.0
  9
$PLINEWID
 40
0.0
  9
$SPLFRAME
 70
     0
  9
$SPLINETYPE
 70
     6
  9
$SPLINESEGS
 70
     8
  9
$HANDSEED
  5
133
  9
$SURFTAB1
 70
     6
  9
$SURFTAB2
 70
     6
  9
$SURFTYPE
 70
     6
  9
$SURFU
 70
     6
  9
$SURFV
 70
     6
  9
$UCSBASE
  2

  9
$UCSNAME
  2

  9
$UCSORG
 10
0.0
 20
0.0
 30
0.0
  9
$UCSXDIR
 10
1.0
 20
0.0
 30
0.0
  9
$UCSYDIR
 10
0.0
 20
1.0
 30
0.0
  9
$UCSORTHOREF
  2

  9
$UCSORTHOVIEW
 70
     0
  9
$UCSORGTOP
 10
0.0
 20
0.0
 30
0.0
  9
$UCSORGBOTTOM
 10
0.0
 20
0.0
 30
0.0
  9
$UCSORGLEFT
 10
0.0
 20
0.0
 30
0.0
  9
$UCSORGRIGHT
 10
0.0
 20
0.0
 30
0.0
  9
$UCSORGFRONT
 10
0.0
 20
0.0
 30
0.0
  9
$UCSORGBACK
 10
0.0
 20
0.0
 30
0.0
  9
$PUCSBASE
  2

  9
$PUCSNAME
  2

  9
$PUCSORG
 10
0.0
 20
0.0
 30
0.0
  9
$PUCSXDIR
 10
1.0
 20
0.0
 30
0.0
  9
$PUCSYDIR
 10
0.0
 20
1.0
 30
0.0
  9
$PUCSORTHOREF
  2

  9
$PUCSORTHOVIEW
 70
     0
  9
$PUCSORGTOP
 10
0.0
 20
0.0
 30
0.0
  9
$PUCSORGBOTTOM
 10
0.0
 20
0.0
 30
0.0
  9
$PUCSORGLEFT
 10
0.0
 20
0.0
 30
0.0
  9
$PUCSORGRIGHT
 10
0.0
 20
0.0
 30
0.0
  9
$PUCSORGFRONT
 10
0.0
 20
0.0
 30
0.0
  9
$PUCSORGBACK
 10
0.0
 20
0.0
 30
0.0
  9
$USERI1
 70
     0
  9
$USERI2
 70
     0
  9
$USERI3
 70
     0
  9
$USERI4
 70
     0
  9
$USERI5
 70
     0
  9
$USERR1
 40
0.0
  9
$USERR2
 40
0.0
  9
$USERR3
 40
0.0
  9
$USERR4
 40
0.0
  9
$USERR5
 40
0.0
  9
$WORLDVIEW
 70
     1
  9
$SHADEDGE
 70
     3
  9
$SHADEDIF
 70
    70
  9
$TILEMODE
 70
     1
  9
$MAXACTVP
 70
    64
  9
$PINSBASE
 10
0.0
 20
0.0
 30
0.0
  9
$PLIMCHECK
 70
     0
  9
$PEXTMIN
 10
1.000000000000000E+20
 20
1.000000000000000E+20
 30
1.000000000000000E+20
  9
$PEXTMAX
 10
-1.000000000000000E+20
 20
-1.000000000000000E+20
 30
-1.000000000000000E+20
  9
$PLIMMIN
 10
0.0
 20
0.0
  9
$PLIMMAX
 10
12.0
 20
9.0
  9
$UNITMODE
 70
     0
  9
$VISRETAIN
 70
     1
  9
$PLINEGEN
 70
     0
  9
$PSLTSCALE
 70
     1
  9
$TREEDEPTH
 70
  3020
  9
$CMLSTYLE
  2
Standard
  9
$CMLJUST
 70
     0
  9
$CMLSCALE
 40
1.0
  9
$PROXYGRAPHICS
 70
     1
  9
$MEASUREMENT
 70
     0
  9
$CELWEIGHT
370
    -1
  9
$ENDCAPS
280
     0
  9
$JOINSTYLE
280
     0
  9
$LWDISPLAY
290
     1
  9
$INSUNITS
 70
     4
  9
$HYPERLINKBASE
  1

  9
$STYLESHEET
  1

  9
$XEDIT
290
     1
  9
$CEPSNTYPE
380
     0
  9
$PSTYLEMODE
290
     1
  9
$FINGERPRINTGUID
  2
{191623EB-06F3-094E-8BA8-F84DCEA01950}
  9
$VERSIONGUID
  2
{14166F9E-919A-3347-8B5B-52A985E7132E}
  9
$EXTNAMES
290
     1
  9
$PSVPSCALE
 40
0.0
  9
$OLESTARTUP
290
     0
  9
$SORTENTS
280
   127
  9
$INDEXCTL
280
     0
  9
$HIDETEXT
280
     1
  9
$XCLIPFRAME
280
     2
  9
$HALOGAP
280
     0
  9
$OBSCOLOR
 70
   257
  9
$OBSLTYPE
280
     0
  9
$INTERSECTIONDISPLAY
280
     0
  9
$INTERSECTIONCOLOR
 70
   257
  9
$DIMASSOC
280
     2
  9
$PROJECTNAME
  1

  9
$CAMERADISPLAY
290
     0
  9
$LENSLENGTH
 40
50.0
  9
$CAMERAHEIGHT
 40
0.0
  9
$STEPSPERSEC
 40
2.0
  9
$STEPSIZE
 40
6.0
  9
$3DDWFPREC
 40
2.0
  9
$PSOLWIDTH
 40
0.25
  9
$PSOLHEIGHT
 40
4.0
  9
$LOFTANG1
 40
1.570796326794896
  9
$LOFTANG2
 40
1.570796326794896
  9
$LOFTMAG1
 40
0.0
  9
$LOFTMAG2
 40
0.0
  9
$LOFTPARAM
 70
     7
  9
$LOFTNORMALS
280
     1
  9
$LATITUDE
 40
37.795
  9
$LONGITUDE
 40
-122.394
  9
$NORTHDIRECTION
 40
0.0
  9
$TIMEZONE
 70
 -8000
  9
$LIGHTGLYPHDISPLAY
280
     1
  9
$TILEMODELIGHTSYNCH
280
     1
  9
$CMATERIAL
347
11
  9
$SOLIDHIST
280
     0
  9
$SHOWHIST
280
     1
  9
$DWFFRAME
280
     2
  9
$DGNFRAME
280
     0
  9
$REALWORLDSCALE
290
     1
  9
$INTERFERECOLOR
 62
     1
  9
$INTERFEREOBJVS
345
33
  9
$INTERFEREVPVS
346
30
  9
$CSHADOW
280
     0
  9
$SHADOWPLANELOCATION
 40
0.0
  0
ENDSEC
  0
SECTION
  2
CLASSES
  0
CLASS
  1
ACDBDICTIONARYWDFLT
  2
AcDbDictionaryWithDefault
  3
ObjectDBX Classes
 90
        0
 91
        1
280
     0
281
     0
  0
CLASS
  1
MATERIAL
  2
AcDbMaterial
  3
ObjectDBX Classes
 90
     1153
 91
        3
280
     0
281
     0
  0
CLASS
  1
VISUALSTYLE
  2
AcDbVisualStyle
  3
ObjectDBX Classes
 90
     4095
 91
       24
280
     0
281
     0
  0
CLASS
  1
SCALE
  2
AcDbScale
  3
ObjectDBX Classes
 90
     1153
 91
       17
280
     0
281
     0
  0
CLASS
  1
TABLESTYLE
  2
AcDbTableStyle
  3
ObjectDBX Classes
 90
     4095
 91
        1
280
     0
281
     0
  0
CLASS
  1
MLEADERSTYLE
  2
AcDbMLeaderStyle
  3
ACDB_MLEADERSTYLE_CLASS
 90
     4095
 91
        1
280
     0
281
     0
  0
CLASS
  1
ACDBSECTIONVIEWSTYLE
  2
AcDbSectionViewStyle
  3
ObjectDBX Classes
 90
     1025
 91
        1
280
     0
281
     0
  0
CLASS
  1
ACDBDETAILVIEWSTYLE
  2
AcDbDetailViewStyle
  3
ObjectDBX Classes
 90
     1025
 91
        1
280
     0
281
     0
  0
CLASS
  1
DICTIONARYVAR
  2
AcDbDictionaryVar
  3
ObjectDBX Classes
 90
        0
 91
        5
280
     0
281
     0
  0
CLASS
  1
CELLSTYLEMAP
  2
AcDbCellStyleMap
  3
ObjectDBX Classes
 90
     1152
 91
        1
280
     0
281
     0
  0
ENDSEC
  0
SECTION
  2
TABLES
  0
TABLE
  2
VPORT
  5
8
330
0
100
AcDbSymbolTable
 70
     1
  0
VPORT
  5
57
330
8
100
AcDbSymbolTableRecord
100
AcDbViewportTableRecord
  2
*Active
 70
     0
 10
0.0
 20
0.0
 11
1.0
 21
1.0
 12
0.0
 22
0.0
 13
0.0
 23
0.0
 14
1.0
 24
1.0
 15
0.0
 25
0.0
 16
0.0
 26
0.0
 36
1.0
 17
104.9999999737534
 27
-148.4999999628701
 37
0.0
 40
302.939999924255
 41
0.7070707070707534
 42
50.0
 43
0.0
 44
0.0
 50
0.0
 51
0.0
 71
     0
 72
   100
 73
     1
 74
     0
 75
     1
 76
     0
 77
     0
 78
     0
281
     0
 65
     1
110
0.0
120
0.0
130
0.0
111
1.0
121
0.0
131
0.0
112
0.0
122
1.0
132
0.0
 79
     0
146
0.0
 60
     3
 61
     5
292
     1
282
     1
141
0.0
142
0.0
 63
   250
421
  3355443
  0
ENDTAB
  0
TABLE
  2
LTYPE
  5
5
330
0
100
AcDbSymbolTable
 70
     3
  0
LTYPE
  5
5B
330
5
100
AcDbSymbolTableRecord
100
AcDbLinetypeTableRecord
  2
ByBlock
 70
     0
  3

 72
    65
 73
     0
 40
0.0
  0
LTYPE
  5
5C
330
5
100
AcDbSymbolTableRecord
100
AcDbLinetypeTableRecord
  2
ByLayer
 70
     0
  3

 72
    65
 73
     0
 40
0.0
  0
LTYPE
  5
5D
330
5
100
AcDbSymbolTableRecord
100
AcDbLinetypeTableRecord
  2
Continuous
 70
     0
  3
Solid line
 72
    65
 73
     0
 40
0.0
  0
LTYPE
  5
82
330
5
100
AcDbSymbolTableRecord
100
AcDbLinetypeTableRecord
  2
AI-Linetype-0
 70
     0
  3
Adobe Illustrator Linetype No. 0
 72
    65
 73
     2
 40
1.411111110758333
 49
0.7055555553791667
 74
     0
 49
-0.7055555553791667
 74
     0
  0
LTYPE
  5
84
330
5
100
AcDbSymbolTableRecord
100
AcDbLinetypeTableRecord
  2
AI-Linetype-1
 70
     0
  3
Adobe Illustrator Linetype No. 1
 72
    65
 73
     2
 40
1.411111110758333
 49
0.7055555553791667
 74
     0
 49
-0.7055555553791667
 74
     0
  0
ENDTAB
  0
TABLE
  2
LAYER
  5
2
330
0
100
AcDbSymbolTable
 70
     2
  0
LAYER
  5
54
330
2
100
AcDbSymbolTableRecord
100
AcDbLayerTableRecord
  2
0
 70
     0
 62
     7
  6
Continuous
370
    -3
390
F
347
21
  0
LAYER
  5
78
330
2
100
AcDbSymbolTableRecord
100
AcDbLayerTableRecord
  2
レイヤー 1
 70
     0
 62
     7
  6
Continuous
370
     0
390
F
347
21
  0
ENDTAB
  0
TABLE
  2
STYLE
  5
3
330
0
100
AcDbSymbolTable
 70
     2
  0
STYLE
  5
55
330
3
100
AcDbSymbolTableRecord
100
AcDbTextStyleTableRecord
  2
Standard
 70
     0
 40
0.0
 41
1.0
 50
0.0
 71
     0
 42
0.2
  3
txt
  4

  0
STYLE
  5
5A
330
3
100
AcDbSymbolTableRecord
100
AcDbTextStyleTableRecord
  2
Annotative
 70
     0
 40
0.0
 41
1.0
 50
0.0
 71
     0
 42
0.2
  3
txt
  4

1001
AcadAnnotative
1000
AnnotativeData
1002
{
1070
     1
1070
     1
1002
}
  0
ENDTAB
  0
TABLE
  2
VIEW
  5
6
330
0
100
AcDbSymbolTable
 70
     0
  0
ENDTAB
  0
TABLE
  2
UCS
  5
7
330
0
100
AcDbSymbolTable
 70
     0
  0
ENDTAB
  0
TABLE
  2
APPID
  5
9
330
0
100
AcDbSymbolTable
 70
     2
  0
APPID
  5
56
330
9
100
AcDbSymbolTableRecord
100
AcDbRegAppTableRecord
  2
ACAD
 70
     0
  0
APPID
  5
5E
330
9
100
AcDbSymbolTableRecord
100
AcDbRegAppTableRecord
  2
AcadAnnotative
 70
     0
  0
ENDTAB
  0
TABLE
  2
DIMSTYLE
  5
A
330
0
100
AcDbSymbolTable
 70
     2
100
AcDbDimStyleTable
 71
     0
  0
DIMSTYLE
105
58
330
A
100
AcDbSymbolTableRecord
100
AcDbDimStyleTableRecord
  2
Standard
 70
     0
340
55
  0
DIMSTYLE
105
59
330
A
100
AcDbSymbolTableRecord
100
AcDbDimStyleTableRecord
  2
Annotative
 70
     0
340
55
1001
AcadAnnotative
1000
AnnotativeData
1002
{
1070
     1
1070
     1
1002
}
  0
ENDTAB
  0
TABLE
  2
BLOCK_RECORD
  5
1
330
0
100
AcDbSymbolTable
 70
    10
  0
BLOCK_RECORD
  5
70
330
1
100
AcDbSymbolTableRecord
100
AcDbBlockTableRecord
  2
*Model_Space
340
73
 70
     0
280
     1
281
     0
  0
BLOCK_RECORD
  5
6C
330
1
100
AcDbSymbolTableRecord
100
AcDbBlockTableRecord
  2
*Paper_Space
340
6F
 70
     0
280
     1
281
     0
  0
BLOCK_RECORD
  5
74
330
1
100
AcDbSymbolTableRecord
100
AcDbBlockTableRecord
  2
*Paper_Space0
340
77
 70
     0
280
     1
281
     0
  0
BLOCK_RECORD
  5
79
330
1
100
AcDbSymbolTableRecord
100
AcDbBlockTableRecord
  2
Block_0
340
0
102
{BLKREFS
331
7A
102
}
 70
     0
280
     1
281
     0
  0
BLOCK_RECORD
  5
8F
330
1
100
AcDbSymbolTableRecord
100
AcDbBlockTableRecord
  2
Block_1
340
0
102
{BLKREFS
331
90
102
}
 70
     0
280
     1
281
     0
  0
BLOCK_RECORD
  5
93
330
1
100
AcDbSymbolTableRecord
100
AcDbBlockTableRecord
  2
Block_2
340
0
102
{BLKREFS
331
94
102
}
 70
     0
280
     1
281
     0
  0
BLOCK_RECORD
  5
A0
330
1
100
AcDbSymbolTableRecord
100
AcDbBlockTableRecord
  2
Block_3
340
0
102
{BLKREFS
331
A1
102
}
 70
     0
280
     1
281
     0
  0
BLOCK_RECORD
  5
A4
330
1
100
AcDbSymbolTableRecord
100
AcDbBlockTableRecord
  2
Block_4
340
0
102
{BLKREFS
331
A5
102
}
 70
     0
280
     1
281
     0
  0
BLOCK_RECORD
  5
B4
330
1
100
AcDbSymbolTableRecord
100
AcDbBlockTableRecord
  2
Block_5
340
0
102
{BLKREFS
331
B5
102
}
 70
     0
280
     1
281
     0
  0
BLOCK_RECORD
  5
B8
330
1
100
AcDbSymbolTableRecord
100
AcDbBlockTableRecord
  2
Block_6
340
0
102
{BLKREFS
331
B9
102
}
 70
     0
280
     1
281
     0
  0
BLOCK_RECORD
  5
D0
330
1
100
AcDbSymbolTableRecord
100
AcDbBlockTableRecord
  2
Block_7
340
0
102
{BLKREFS
331
D1
102
}
 70
     0
280
     1
281
     0
  0
BLOCK_RECORD
  5
D4
330
1
100
AcDbSymbolTableRecord
100
AcDbBlockTableRecord
  2
Block_8
340
0
102
{BLKREFS
331
D5
102
}
 70
     0
280
     1
281
     0
  0
ENDTAB
  0
ENDSEC
  0
SECTION
  2
BLOCKS
  0
BLOCK
  5
71
330
70
100
AcDbEntity
  8
0
100
AcDbBlockBegin
  2
*Model_Space
 70
     0
 10
0.0
 20
0.0
 30
0.0
  3
*Model_Space
  1

  0
ENDBLK
  5
72
330
70
100
AcDbEntity
  8
0
100
AcDbBlockEnd
  0
BLOCK
  5
6D
330
6C
100
AcDbEntity
 67
     1
  8
0
100
AcDbBlockBegin
  2
*Paper_Space
 70
     0
 10
0.0
 20
0.0
 30
0.0
  3
*Paper_Space
  1

  0
ENDBLK
  5
6E
330
6C
100
AcDbEntity
 67
     1
  8
0
100
AcDbBlockEnd
  0
BLOCK
  5
75
330
74
100
AcDbEntity
 67
     1
  8
0
100
AcDbBlockBegin
  2
*Paper_Space0
 70
     0
 10
0.0
 20
0.0
 30
0.0
  3
*Paper_Space0
  1

  0
ENDBLK
  5
76
330
74
100
AcDbEntity
 67
     1
  8
0
100
AcDbBlockEnd
  0
BLOCK
  5
7B
330
79
100
AcDbEntity
  8
0
100
AcDbBlockBegin
  2
Block_0
 70
     0
 10
0.0
 20
0.0
 30
0.0
  3
Block_0
  1

  0
LINE
  5
7D
330
79
100
AcDbEntity
  8
レイヤー 1
 62
   250
420
  2299925
370
    25
100
AcDbLine
 10
89.44934776254944
 20
-126.1952062475141
 30
0.0
 11
89.44934776254944
 21
-165.1952416697343
 31
0.0
  0
LINE
  5
7E
330
79
100
AcDbEntity
  8
レイヤー 1
 62
   250
420
  2299925
370
    25
100
AcDbLine
 10
89.44934776254944
 20
-165.1952416697343
 30
0.0
 11
128.4493887120196
 21
-165.1952416697343
 31
0.0
  0
LINE
  5
7F
330
79
100
AcDbEntity
  8
レイヤー 1
 62
   250
420
  2299925
370
    25
100
AcDbLine
 10
128.4493887120196
 20
-165.1952416697343
 30
0.0
 11
128.4493887120196
 21
-165.7953927372292
 31
0.0
  0
LINE
  5
80
330
79
100
AcDbEntity
  8
レイヤー 1
 62
   250
420
  2299925
370
    25
100
AcDbLine
 10
88.84923750008175
 20
-126.1952062475141
 30
0.0
 11
89.44934776254944
 21
-126.1952062475141
 31
0.0
  0
LINE
  5
81
330
79
100
AcDbEntity
  8
レイヤー 1
  6
AI-Linetype-0
 62
   154
420
    23468
370
    25
100
AcDbLine
 10
89.94888108313862
 20
-126.1952062475141
 30
0.0
 11
89.94888108313862
 21
-146.1952010150495
 31
0.0
  0
LINE
  5
83
330
79
100
AcDbEntity
  8
レイヤー 1
  6
AI-Linetype-1
 62
   154
420
    23468
370
    25
100
AcDbLine
 10
108.4490411667154
 20
-164.6953555587477
 30
0.0
 11
128.4493887120196
 21
-164.6953555587477
 31
0.0
  0
LINE
  5
85
330
79
100
AcDbEntity
  8
レイヤー 1
 62
   250
420
  2299925
370
    25
100
AcDbLine
 10
89.38045026430716
 20
-166.195366669484
 30
0.0
 11
128.4493887120196
 21
-165.7953927372292
 31
0.0
  0
LINE
  5
86
330
79
100
AcDbEntity
  8
レイヤー 1
 62
   250
420
  2299925
370
    25
100
AcDbLine
 10
88.84923750008175
 20
-126.1952062475141
 30
0.0
 11
88.44890528807285
 21
-165.6892771843808
 31
0.0
  0
SPLINE
  5
87
330
79
100
AcDbEntity
  8
レイヤー 1
 62
   250
420
  2299925
370
    25
100
AcDbSpline
210
0.0
220
0.0
230
1.0
 70
     8
 71
     3
 72
    11
 73
     7
 74
     0
 42
0.0000000001
 43
0.0000000001
 40
0.0
 40
0.0
 40
0.0
 40
0.0
 40
1.0
 40
1.0
 40
1.0
 40
2.0
 40
2.0
 40
2.0
 40
2.0
 10
88.44890528807285
 20
-165.6892771843808
 30
0.0
 10
88.44615362147639
 20
-166.0207118981475
 30
0.0
 10
88.71140934666035
 20
-166.2918216134531
 30
0.0
 10
89.04284193958726
 20
-166.2952788355871
 30
0.0
 10
89.16342138095513
 20
-166.2963018911166
 30
0.0
 10
89.28054360018933
 20
-166.2615180031151
 30
0.0
 10
89.38045026430716
 20
-166.195366669484
 30
0.0
  0
SPLINE
  5
88
330
79
100
AcDbEntity
  8
レイヤー 1
 62
   250
420
  2299925
370
     9
100
AcDbSpline
210
0.0
220
0.0
230
1.0
 70
     9
 71
     3
 72
    17
 73
    13
 74
     0
 42
0.0000000001
 43
0.0000000001
 40
0.0
 40
0.0
 40
0.0
 40
0.0
 40
1.0
 40
1.0
 40
1.0
 40
2.0
 40
2.0
 40
2.0
 40
3.0
 40
3.0
 40
3.0
 40
4.0
 40
4.0
 40
4.0
 40
4.0
 10
84.54905288756638
 20
-126.1952062475141
 30
0.0
 10
84.54905288756638
 20
-126.140102360031
 30
0.0
 10
84.50425011093162
 20
-126.0952995833962
 30
0.0
 10
84.44914823661468
 20
-126.0952995833962
 30
0.0
 10
84.39400705818892
 20
-126.0952995833962
 30
0.0
 10
84.34923955933102
 20
-126.140102360031
 30
0.0
 10
84.34923955933102
 20
-126.1952062475141
 30
0.0
 10
84.34923955933102
 20
-126.2505218016584
 30
0.0
 10
84.39400705818892
 20
-126.2952893005163
 30
0.0
 10
84.44914823661468
 20
-126.2952893005163
 30
0.0
 10
84.50425011093162
 20
-126.2952893005163
 30
0.0
 10
84.54905288756638
 20
-126.2505218016584
 30
0.0
 10
84.54905288756638
 20
-126.1952062475141
 30
0.0
  0
SPLINE
  5
89
330
79
100
AcDbEntity
  8
レイヤー 1
 62
   250
420
  2299925
370
     9
100
AcDbSpline
210
0.0
220
0.0
230
1.0
 70
     9
 71
     3
 72
    17
 73
    13
 74
     0
 42
0.0000000001
 43
0.0000000001
 40
0.0
 40
0.0
 40
0.0
 40
0.0
 40
1.0
 40
1.0
 40
1.0
 40
2.0
 40
2.0
 40
2.0
 40
3.0
 40
3.0
 40
3.0
 40
4.0
 40
4.0
 40
4.0
 40
4.0
 10
84.54905288756638
 20
-166.195366669484
 30
0.0
 10
84.54905288756638
 20
-166.1398802284405
 30
0.0
 10
84.50425011093162
 20
-166.0951127295827
 30
0.0
 10
84.44914823661468
 20
-166.0951127295827
 30
0.0
 10
84.39400705818892
 20
-166.0951127295827
 30
0.0
 10
84.34923955933102
 20
-166.1398802284405
 30
0.0
 10
84.34923955933102
 20
-166.195366669484
 30
0.0
 10
84.34923955933102
 20
-166.2504760589524
 30
0.0
 10
84.39400705818892
 20
-166.2952788355871
 30
0.0
 10
84.44914823661468
 20
-166.2952788355871
 30
0.0
 10
84.50425011093162
 20
-166.2952788355871
 30
0.0
 10
84.54905288756638
 20
-166.2504760589524
 30
0.0
 10
84.54905288756638
 20
-166.195366669484
 30
0.0
  0
SPLINE
  5
8A
330
79
100
AcDbEntity
  8
レイヤー 1
 62
   250
420
  2299925
370
     9
100
AcDbSpline
210
0.0
220
0.0
230
1.0
 70
     9
 71
     3
 72
    17
 73
    13
 74
     0
 42
0.0000000001
 43
0.0000000001
 40
0.0
 40
0.0
 40
0.0
 40
0.0
 40
1.0
 40
1.0
 40
1.0
 40
2.0
 40
2.0
 40
2.0
 40
3.0
 40
3.0
 40
3.0
 40
4.0
 40
4.0
 40
4.0
 40
4.0
 10
88.5488119521907
 20
-170.1951312360936
 30
0.0
 10
88.5488119521907
 20
-170.1399920708337
 30
0.0
 10
88.50400917555592
 20
-170.0952245719758
 30
0.0
 10
88.44890528807285
 20
-170.0952245719758
 30
0.0
 10
88.3937661228129
 20
-170.0952245719758
 30
0.0
 10
88.34899862395502
 20
-170.1399920708337
 30
0.0
 10
88.34899862395502
 20
-170.1951312360936
 30
0.0
 10
88.34899862395502
 20
-170.2505879013454
 30
0.0
 10
88.3937661228129
 20
-170.2953500017921
 30
0.0
 10
88.44890528807285
 20
-170.2953500017921
 30
0.0
 10
88.50400917555592
 20
-170.2953500017921
 30
0.0
 10
88.5488119521907
 20
-170.2505879013454
 30
0.0
 10
88.5488119521907
 20
-170.1951312360936
 30
0.0
  0
SPLINE
  5
8B
330
79
100
AcDbEntity
  8
レイヤー 1
 62
   250
420
  2299925
370
     9
100
AcDbSpline
210
0.0
220
0.0
230
1.0
 70
     9
 71
     3
 72
    17
 73
    13
 74
     0
 42
0.0000000001
 43
0.0000000001
 40
0.0
 40
0.0
 40
0.0
 40
0.0
 40
1.0
 40
1.0
 40
1.0
 40
2.0
 40
2.0
 40
2.0
 40
3.0
 40
3.0
 40
3.0
 40
4.0
 40
4.0
 40
4.0
 40
4.0
 10
128.5492953761374
 20
-170.1951312360936
 30
0.0
 10
128.5492953761374
 20
-170.1399920708337
 30
0.0
 10
128.5044925995027
 20
-170.0952245719758
 30
0.0
 10
128.4493887120196
 20
-170.0952245719758
 30
0.0
 10
128.3942495467597
 20
-170.0952245719758
 30
0.0
 10
128.3494820479018
 20
-170.1399920708337
 30
0.0
 10
128.3494820479018
 20
-170.1951312360936
 30
0.0
 10
128.3494820479018
 20
-170.2505879013454
 30
0.0
 10
128.3942495467597
 20
-170.2953500017921
 30
0.0
 10
128.4493887120196
 20
-170.2953500017921
 30
0.0
 10
128.5044925995027
 20
-170.2953500017921
 30
0.0
 10
128.5492953761374
 20
-170.2505879013454
 30
0.0
 10
128.5492953761374
 20
-170.1951312360936
 30
0.0
  0
LINE
  5
8C
330
79
100
AcDbEntity
  8
レイヤー 1
 62
   250
420
  2299925
370
     9
100
AcDbLine
 10
84.44914823661468
 20
-166.195366669484
 30
0.0
 11
84.44914823661468
 21
-126.1952062475141
 31
0.0
  0
LINE
  5
8D
330
79
100
AcDbEntity
  8
レイヤー 1
 62
   250
420
  2299925
370
     9
100
AcDbLine
 10
86.8407325513233
 20
-166.195366669484
 30
0.0
 11
83.44937601464247
 21
-166.195366669484
 31
0.0
  0
LINE
  5
8E
330
79
100
AcDbEntity
  8
レイヤー 1
 62
   250
420
  2299925
370
     9
100
AcDbLine
 10
86.30881423156003
 20
-126.1952062475141
 30
0.0
 11
83.44937601464247
 21
-126.1952062475141
 31
0.0
  0
INSERT
  5
90
330
79
100
AcDbEntity
  8
レイヤー 1
100
AcDbBlockReference
  2
Block_1
 10
0.0
 20
0.0
 30
0.0
  0
LINE
  5
9D
330
79
100
AcDbEntity
  8
レイヤー 1
 62
   250
420
  2299925
370
     9
100
AcDbLine
 10
88.44890528807285
 20
-170.1951312360936
 30
0.0
 11
128.4493887120196
 21
-170.1951312360936
 31
0.0
  0
LINE
  5
9E
330
79
100
AcDbEntity
  8
レイヤー 1
 62
   250
420
  2299925
370
     9
100
AcDbLine
 10
88.44890528807285
 20
-168.2352037860955
 30
0.0
 11
88.44890528807285
 21
-171.1952209328014
 31
0.0
  0
LINE
  5
9F
330
79
100
AcDbEntity
  8
レイヤー 1
 62
   250
420
  2299925
370
     9
100
AcDbLine
 10
128.4493887120196
 20
-168.3351104502133
 30
0.0
 11
128.4493887120196
 21
-171.1952209328014
 31
0.0
  0
INSERT
  5
A1
330
79
100
AcDbEntity
  8
レイヤー 1
100
AcDbBlockReference
  2
Block_3
 10
0.0
 20
0.0
 30
0.0
  0
ENDBLK
  5
7C
330
79
100
AcDbEntity
  8
0
100
AcDbBlockEnd
  0
BLOCK
  5
91
330
8F
100
AcDbEntity
  8
0
100
AcDbBlockBegin
  2
Block_1
 70
     0
 10
0.0
 20
0.0
 30
0.0
  3
Block_1
  1

  0
INSERT
  5
94
330
8F
100
AcDbEntity
  8
レイヤー 1
100
AcDbBlockReference
  2
Block_2
 10
0.0
 20
0.0
 30
0.0
  0
ENDBLK
  5
92
330
8F
100
AcDbEntity
  8
0
100
AcDbBlockEnd
  0
BLOCK
  5
95
330
93
100
AcDbEntity
  8
0
100
AcDbBlockBegin
  2
Block_2
 70
     0
 10
0.0
 20
0.0
 30
0.0
  3
Block_2
  1

  0
SPLINE
  5
97
330
93
100
AcDbEntity
  8
レイヤー 1
100
AcDbSpline
210
0.0
220
0.0
230
1.0
 70
    11
 71
     3
 72
    14
 73
    10
 74
     0
 42
0.0000000001
 43
0.0000000001
 40
0.0
 40
0.0
 40
0.0
 40
0.0
 40
1.0
 40
1.0
 40
1.0
 40
2.0
 40
2.0
 40
2.0
 40
3.0
 40
3.0
 40
3.0
 40
3.0
 10
82.5339802853561
 20
-146.6699448960582
 30
0.0
 10
82.5339802853561
 20
-146.6699448960582
 30
0.0
 10
83.1897542109734
 20
-147.1267645574023
 30
0.0
 10
83.1897542109734
 20
-147.1267645574023
 30
0.0
 10
83.1897542109734
 20
-147.1267645574023
 30
0.0
 10
83.1897542109734
 20
-146.6699448960582
 30
0.0
 10
83.1897542109734
 20
-146.6699448960582
 30
0.0
 10
83.1897542109734
 20
-146.6699448960582
 30
0.0
 10
82.5339802853561
 20
-146.6699448960582
 30
0.0
 10
82.5339802853561
 20
-146.6699448960582
 30
0.0
  0
SPLINE
  5
98
330
93
100
AcDbEntity
  8
レイヤー 1
100
AcDbSpline
210
0.0
220
0.0
230
1.0
 70
    11
 71
     3
 72
    38
 73
    34
 74
     0
 42
0.0000000001
 43
0.0000000001
 40
0.0
 40
0.0
 40
0.0
 40
0.0
 40
1.0
 40
1.0
 40
1.0
 40
2.0
 40
2.0
 40
2.0
 40
3.0
 40
3.0
 40
3.0
 40
4.0
 40
4.0
 40
4.0
 40
5.0
 40
5.0
 40
5.0
 40
6.0
 40
6.0
 40
6.0
 40
7.0
 40
7.0
 40
7.0
 40
8.0
 40
8.0
 40
8.0
 40
9.0
 40
9.0
 40
9.0
 40
10.0
 40
10.0
 40
10.0
 40
11.0
 40
11.0
 40
11.0
 40
11.0
 10
83.38870847524658
 20
-146.4520426066161
 30
0.0
 10
83.38870847524658
 20
-146.4520426066161
 30
0.0
 10
83.73562959061123
 20
-146.4520426066161
 30
0.0
 10
83.73562959061123
 20
-146.4520426066161
 30
0.0
 10
83.73562959061123
 20
-146.4520426066161
 30
0.0
 10
83.73562959061123
 20
-146.6699448960582
 30
0.0
 10
83.73562959061123
 20
-146.6699448960582
 30
0.0
 10
83.73562959061123
 20
-146.6699448960582
 30
0.0
 10
83.38870847524658
 20
-146.6699448960582
 30
0.0
 10
83.38870847524658
 20
-146.6699448960582
 30
0.0
 10
83.38870847524658
 20
-146.6699448960582
 30
0.0
 10
83.38870847524658
 20
-147.3257188216755
 30
0.0
 10
83.38870847524658
 20
-147.3257188216755
 30
0.0
 10
83.38870847524658
 20
-147.3257188216755
 30
0.0
 10
83.1644327591568
 20
-147.3257188216755
 30
0.0
 10
83.1644327591568
 20
-147.3257188216755
 30
0.0
 10
83.1644327591568
 20
-147.3257188216755
 30
0.0
 10
82.191365539348
 20
-146.6466905015328
 30
0.0
 10
82.191365539348
 20
-146.6466905015328
 30
0.0
 10
82.191365539348
 20
-146.6466905015328
 30
0.0
 10
82.191365539348
 20
-146.4520426066161
 30
0.0
 10
82.191365539348
 20
-146.4520426066161
 30
0.0
 10
82.191365539348
 20
-146.4520426066161
 30
0.0
 10
83.1897542109734
 20
-146.4520426066161
 30
0.0
 10
83.1897542109734
 20
-146.4520426066161
 30
0.0
 10
83.1897542109734
 20
-146.4520426066161
 30
0.0
 10
83.1897542109734
 20
-146.2446478584041
 30
0.0
 10
83.1897542109734
 20
-146.2446478584041
 30
0.0
 10
83.1897542109734
 20
-146.2446478584041
 30
0.0
 10
83.38870847524658
 20
-146.2446478584041
 30
0.0
 10
83.38870847524658
 20
-146.2446478584041
 30
0.0
 10
83.38870847524658
 20
-146.2446478584041
 30
0.0
 10
83.38870847524658
 20
-146.4520426066161
 30
0.0
 10
83.38870847524658
 20
-146.4520426066161
 30
0.0
  0
HATCH
  5
99
330
93
100
AcDbEntity
  8
レイヤー 1
 62
   250
420
  2299925
440
 33554687
100
AcDbHatch
 10
0.0
 20
0.0
 30
0.0
210
0.0
220
0.0
230
1.0
  2
SOLID
 70
     1
 71
     1
 91
        2
 92
        1
 93
        1
 72
     4
 94
        3
 73
     0
 74
     0
 95
       14
 96
       10
 40
0.0
 40
0.0
 40
0.0
 40
0.0
 40
1.0
 40
1.0
 40
1.0
 40
2.0
 40
2.0
 40
2.0
 40
3.0
 40
3.0
 40
3.0
 40
3.0
 10
82.5339802853561
 20
-146.6699448960582
 10
82.5339802853561
 20
-146.6699448960582
 10
83.1897542109734
 20
-147.1267645574023
 10
83.1897542109734
 20
-147.1267645574023
 10
83.1897542109734
 20
-147.1267645574023
 10
83.1897542109734
 20
-146.6699448960582
 10
83.1897542109734
 20
-146.6699448960582
 10
83.1897542109734
 20
-146.6699448960582
 10
82.5339802853561
 20
-146.6699448960582
 10
82.5339802853561
 20
-146.6699448960582
 97
        0
 97
        1
330
97
 92
        1
 93
        1
 72
     4
 94
        3
 73
     0
 74
     0
 95
       38
 96
       34
 40
0.0
 40
0.0
 40
0.0
 40
0.0
 40
1.0
 40
1.0
 40
1.0
 40
2.0
 40
2.0
 40
2.0
 40
3.0
 40
3.0
 40
3.0
 40
4.0
 40
4.0
 40
4.0
 40
5.0
 40
5.0
 40
5.0
 40
6.0
 40
6.0
 40
6.0
 40
7.0
 40
7.0
 40
7.0
 40
8.0
 40
8.0
 40
8.0
 40
9.0
 40
9.0
 40
9.0
 40
10.0
 40
10.0
 40
10.0
 40
11.0
 40
11.0
 40
11.0
 40
11.0
 10
83.38870847524658
 20
-146.4520426066161
 10
83.38870847524658
 20
-146.4520426066161
 10
83.73562959061123
 20
-146.4520426066161
 10
83.73562959061123
 20
-146.4520426066161
 10
83.73562959061123
 20
-146.4520426066161
 10
83.73562959061123
 20
-146.6699448960582
 10
83.73562959061123
 20
-146.6699448960582
 10
83.73562959061123
 20
-146.6699448960582
 10
83.38870847524658
 20
-146.6699448960582
 10
83.38870847524658
 20
-146.6699448960582
 10
83.38870847524658
 20
-146.6699448960582
 10
83.38870847524658
 20
-147.3257188216755
 10
83.38870847524658
 20
-147.3257188216755
 10
83.38870847524658
 20
-147.3257188216755
 10
83.1644327591568
 20
-147.3257188216755
 10
83.1644327591568
 20
-147.3257188216755
 10
83.1644327591568
 20
-147.3257188216755
 10
82.191365539348
 20
-146.6466905015328
 10
82.191365539348
 20
-146.6466905015328
 10
82.191365539348
 20
-146.6466905015328
 10
82.191365539348
 20
-146.4520426066161
 10
82.191365539348
 20
-146.4520426066161
 10
82.191365539348
 20
-146.4520426066161
 10
83.1897542109734
 20
-146.4520426066161
 10
83.1897542109734
 20
-146.4520426066161
 10
83.1897542109734
 20
-146.4520426066161
 10
83.1897542109734
 20
-146.2446478584041
 10
83.1897542109734
 20
-146.2446478584041
 10
83.1897542109734
 20
-146.2446478584041
 10
83.38870847524658
 20
-146.2446478584041
 10
83.38870847524658
 20
-146.2446478584041
 10
83.38870847524658
 20
-146.2446478584041
 10
83.38870847524658
 20
-146.4520426066161
 10
83.38870847524658
 20
-146.4520426066161
 97
        0
 97
        1
330
98
 75
     2
 76
     1
 98
        1
 10
0.0
 20
0.0
450
        0
451
        0
460
0.0
461
0.0
452
        0
462
0.0
453
        0
470

  0
SPLINE
  5
9A
330
93
100
AcDbEntity
  8
レイヤー 1
100
AcDbSpline
210
0.0
220
0.0
230
1.0
 70
     9
 71
     3
 72
    17
 73
    13
 74
     0
 42
0.0000000001
 43
0.0000000001
 40
0.0
 40
0.0
 40
0.0
 40
0.0
 40
1.0
 40
1.0
 40
1.0
 40
2.0
 40
2.0
 40
2.0
 40
3.0
 40
3.0
 40
3.0
 40
4.0
 40
4.0
 40
4.0
 40
4.0
 10
82.33519827585718
 20
-145.6073051936329
 30
0.0
 10
82.33519827585718
 20
-145.8569023615392
 30
0.0
 10
82.61872963429324
 20
-145.9034111505901
 30
0.0
 10
82.96341143759248
 20
-145.9034111505901
 30
0.0
 10
83.28294404384941
 20
-145.9034111505901
 30
0.0
 10
83.59179685410206
 20
-145.8674099027692
 30
0.0
 10
83.59179685410206
 20
-145.6073051936329
 30
0.0
 10
83.59179685410206
 20
-145.3597750830177
 30
0.0
 10
83.31033255295714
 20
-145.3110269819014
 30
0.0
 10
82.96341143759248
 20
-145.3110269819014
 30
0.0
 10
82.64405108610983
 20
-145.3110269819014
 30
0.0
 10
82.33519827585718
 20
-145.3490952870134
 30
0.0
 10
82.33519827585718
 20
-145.6073051936329
 30
0.0
  0
SPLINE
  5
9B
330
93
100
AcDbEntity
  8
レイヤー 1
100
AcDbSpline
210
0.0
220
0.0
230
1.0
 70
     9
 71
     3
 72
    29
 73
    25
 74
     0
 42
0.0000000001
 43
0.0000000001
 40
0.0
 40
0.0
 40
0.0
 40
0.0
 40
1.0
 40
1.0
 40
1.0
 40
2.0
 40
2.0
 40
2.0
 40
3.0
 40
3.0
 40
3.0
 40
4.0
 40
4.0
 40
4.0
 40
5.0
 40
5.0
 40
5.0
 40
6.0
 40
6.0
 40
6.0
 40
7.0
 40
7.0
 40
7.0
 40
8.0
 40
8.0
 40
8.0
 40
8.0
 10
83.55786266357233
 20
-145.2095689198608
 30
0.0
 10
83.76732446907553
 20
-145.3174004085491
 30
0.0
 10
83.78644474901866
 20
-145.4908609662314
 30
0.0
 10
83.78644474901866
 20
-145.6073051936329
 30
0.0
 10
83.78644474901866
 20
-145.7680188980198
 30
0.0
 10
83.73993595996779
 20
-145.9097845772378
 30
0.0
 10
83.55786266357233
 20
-146.005041467405
 30
0.0
 10
83.36321476865572
 20
-146.1085665867367
 30
0.0
 10
83.1263644540448
 20
-146.1276868666798
 30
0.0
 10
82.96341143759248
 20
-146.1276868666798
 30
0.0
 10
82.8195787010833
 20
-146.1276868666798
 30
0.0
 10
82.56791447588581
 20
-146.1108058988021
 30
0.0
 10
82.36896021161262
 20
-146.005041467405
 30
0.0
 10
82.16587183275715
 20
-145.8970377239424
 30
0.0
 10
82.1426174382317
 20
-145.7363240195555
 30
0.0
 10
82.1426174382317
 20
-145.6073051936329
 30
0.0
 10
82.1426174382317
 20
-145.4486585465371
 30
0.0
 10
82.18705916999143
 20
-145.3048258100279
 30
0.0
 10
82.36896021161262
 20
-145.2095689198608
 30
0.0
 10
82.56154104923808
 20
-145.1101779151113
 30
0.0
 10
82.78995087991015
 20
-145.0869235205859
 30
0.0
 10
82.96341143759248
 20
-145.0869235205859
 30
0.0
 10
83.13480493798365
 20
-145.0869235205859
 30
0.0
 10
83.36545408072113
 20
-145.1079386030459
 30
0.0
 10
83.55786266357233
 20
-145.2095689198608
 30
0.0
  0
HATCH
  5
9C
330
93
100
AcDbEntity
  8
レイヤー 1
 62
   250
420
  2299925
440
 33554687
100
AcDbHatch
 10
0.0
 20
0.0
 30
0.0
210
0.0
220
0.0
230
1.0
  2
SOLID
 70
     1
 71
     1
 91
        2
 92
        1
 93
        1
 72
     4
 94
        3
 73
     0
 74
     0
 95
       17
 96
       13
 40
0.0
 40
0.0
 40
0.0
 40
0.0
 40
1.0
 40
1.0
 40
1.0
 40
2.0
 40
2.0
 40
2.0
 40
3.0
 40
3.0
 40
3.0
 40
4.0
 40
4.0
 40
4.0
 40
4.0
 10
82.33519827585718
 20
-145.6073051936329
 10
82.33519827585718
 20
-145.8569023615392
 10
82.61872963429324
 20
-145.9034111505901
 10
82.96341143759248
 20
-145.9034111505901
 10
83.28294404384941
 20
-145.9034111505901
 10
83.59179685410206
 20
-145.8674099027692
 10
83.59179685410206
 20
-145.6073051936329
 10
83.59179685410206
 20
-145.3597750830177
 10
83.31033255295714
 20
-145.3110269819014
 10
82.96341143759248
 20
-145.3110269819014
 10
82.64405108610983
 20
-145.3110269819014
 10
82.33519827585718
 20
-145.3490952870134
 10
82.33519827585718
 20
-145.6073051936329
 97
        0
 97
        1
330
9A
 92
        1
 93
        1
 72
     4
 94
        3
 73
     0
 74
     0
 95
       29
 96
       25
 40
0.0
 40
0.0
 40
0.0
 40
0.0
 40
1.0
 40
1.0
 40
1.0
 40
2.0
 40
2.0
 40
2.0
 40
3.0
 40
3.0
 40
3.0
 40
4.0
 40
4.0
 40
4.0
 40
5.0
 40
5.0
 40
5.0
 40
6.0
 40
6.0
 40
6.0
 40
7.0
 40
7.0
 40
7.0
 40
8.0
 40
8.0
 40
8.0
 40
8.0
 10
83.55786266357233
 20
-145.2095689198608
 10
83.76732446907553
 20
-145.3174004085491
 10
83.78644474901866
 20
-145.4908609662314
 10
83.78644474901866
 20
-145.6073051936329
 10
83.78644474901866
 20
-145.7680188980198
 10
83.73993595996779
 20
-145.9097845772378
 10
83.55786266357233
 20
-146.005041467405
 10
83.36321476865572
 20
-146.1085665867367
 10
83.1263644540448
 20
-146.1276868666798
 10
82.96341143759248
 20
-146.1276868666798
 10
82.8195787010833
 20
-146.1276868666798
 10
82.56791447588581
 20
-146.1108058988021
 10
82.36896021161262
 20
-146.005041467405
 10
82.16587183275715
 20
-145.8970377239424
 10
82.1426174382317
 20
-145.7363240195555
 10
82.1426174382317
 20
-145.6073051936329
 10
82.1426174382317
 20
-145.4486585465371
 10
82.18705916999143
 20
-145.3048258100279
 10
82.36896021161262
 20
-145.2095689198608
 10
82.56154104923808
 20
-145.1101779151113
 10
82.78995087991015
 20
-145.0869235205859
 10
82.96341143759248
 20
-145.0869235205859
 10
83.13480493798365
 20
-145.0869235205859
 10
83.36545408072113
 20
-145.1079386030459
 10
83.55786266357233
 20
-145.2095689198608
 97
        0
 97
        1
330
9B
 75
     2
 76
     1
 98
        1
 10
0.0
 20
0.0
450
        0
451
        0
460
0.0
461
0.0
452
        0
462
0.0
453
        0
470

  0
ENDBLK
  5
96
330
93
100
AcDbEntity
  8
0
100
AcDbBlockEnd
  0
BLOCK
  5
A2
330
A0
100
AcDbEntity
  8
0
100
AcDbBlockBegin
  2
Block_3
 70
     0
 10
0.0
 20
0.0
 30
0.0
  3
Block_3
  1

  0
INSERT
  5
A5
330
A0
100
AcDbEntity
  8
レイヤー 1
100
AcDbBlockReference
  2
Block_4
 10
0.0
 20
0.0
 30
0.0
  0
ENDBLK
  5
A3
330
A0
100
AcDbEntity
  8
0
100
AcDbBlockEnd
  0
BLOCK
  5
A6
330
A4
100
AcDbEntity
  8
0
100
AcDbBlockBegin
  2
Block_4
 70
     0
 10
0.0
 20
0.0
 30
0.0
  3
Block_4
  1

  0
SPLINE
  5
A8
330
A4
100
AcDbEntity
  8
レイヤー 1
100
AcDbSpline
210
0.0
220
0.0
230
1.0
 70
    11
 71
     3
 72
    14
 73
    10
 74
     0
 42
0.0000000001
 43
0.0000000001
 40
0.0
 40
0.0
 40
0.0
 40
0.0
 40
1.0
 40
1.0
 40
1.0
 40
2.0
 40
2.0
 40
2.0
 40
3.0
 40
3.0
 40
3.0
 40
3.0
 10
107.9748046605063
 20
-168.2805121107076
 30
0.0
 10
107.9748046605063
 20
-168.2805121107076
 30
0.0
 10
107.5176404896136
 20
-168.9364582910992
 30
0.0
 10
107.5176404896136
 20
-168.9364582910992
 30
0.0
 10
107.5176404896136
 20
-168.9364582910992
 30
0.0
 10
107.9748046605063
 20
-168.9364582910992
 30
0.0
 10
107.9748046605063
 20
-168.9364582910992
 30
0.0
 10
107.9748046605063
 20
-168.9364582910992
 30
0.0
 10
107.9748046605063
 20
-168.2805121107076
 30
0.0
 10
107.9748046605063
 20
-168.2805121107076
 30
0.0
  0
SPLINE
  5
A9
330
A4
100
AcDbEntity
  8
レイヤー 1
100
AcDbSpline
210
0.0
220
0.0
230
1.0
 70
    11
 71
     3
 72
    38
 73
    34
 74
     0
 42
0.0000000001
 43
0.0000000001
 40
0.0
 40
0.0
 40
0.0
 40
0.0
 40
1.0
 40
1.0
 40
1.0
 40
2.0
 40
2.0
 40
2.0
 40
3.0
 40
3.0
 40
3.0
 40
4.0
 40
4.0
 40
4.0
 40
5.0
 40
5.0
 40
5.0
 40
6.0
 40
6.0
 40
6.0
 40
7.0
 40
7.0
 40
7.0
 40
8.0
 40
8.0
 40
8.0
 40
9.0
 40
9.0
 40
9.0
 40
10.0
 40
10.0
 40
10.0
 40
11.0
 40
11.0
 40
11.0
 40
11.0
 10
108.1925346951741
 20
-169.1352403005981
 30
0.0
 10
108.1925346951741
 20
-169.1352403005981
 30
0.0
 10
108.1925346951741
 20
-169.4821614159628
 30
0.0
 10
108.1925346951741
 20
-169.4821614159628
 30
0.0
 10
108.1925346951741
 20
-169.4821614159628
 30
0.0
 10
107.9748046605063
 20
-169.4821614159628
 30
0.0
 10
107.9748046605063
 20
-169.4821614159628
 30
0.0
 10
107.9748046605063
 20
-169.4821614159628
 30
0.0
 10
107.9748046605063
 20
-169.1352403005981
 30
0.0
 10
107.9748046605063
 20
-169.1352403005981
 30
0.0
 10
107.9748046605063
 20
-169.1352403005981
 30
0.0
 10
107.3188584801147
 20
-169.1352403005981
 30
0.0
 10
107.3188584801147
 20
-169.1352403005981
 30
0.0
 10
107.3188584801147
 20
-169.1352403005981
 30
0.0
 10
107.3188584801147
 20
-168.9109645845084
 30
0.0
 10
107.3188584801147
 20
-168.9109645845084
 30
0.0
 10
107.3188584801147
 20
-168.9109645845084
 30
0.0
 10
107.9978868002575
 20
-167.9377251099253
 30
0.0
 10
107.9978868002575
 20
-167.9377251099253
 30
0.0
 10
107.9978868002575
 20
-167.9377251099253
 30
0.0
 10
108.1925346951741
 20
-167.9377251099253
 30
0.0
 10
108.1925346951741
 20
-167.9377251099253
 30
0.0
 10
108.1925346951741
 20
-167.9377251099253
 30
0.0
 10
108.1925346951741
 20
-168.9364582910992
 30
0.0
 10
108.1925346951741
 20
-168.9364582910992
 30
0.0
 10
108.1925346951741
 20
-168.9364582910992
 30
0.0
 10
108.3999294433861
 20
-168.9364582910992
 30
0.0
 10
108.3999294433861
 20
-168.9364582910992
 30
0.0
 10
108.3999294433861
 20
-168.9364582910992
 30
0.0
 10
108.3999294433861
 20
-169.1352403005981
 30
0.0
 10
108.3999294433861
 20
-169.1352403005981
 30
0.0
 10
108.3999294433861
 20
-169.1352403005981
 30
0.0
 10
108.1925346951741
 20
-169.1352403005981
 30
0.0
 10
108.1925346951741
 20
-169.1352403005981
 30
0.0
  0
HATCH
  5
AA
330
A4
100
AcDbEntity
  8
レイヤー 1
 62
   250
420
  2299925
440
 33554687
100
AcDbHatch
 10
0.0
 20
0.0
 30
0.0
210
0.0
220
0.0
230
1.0
  2
SOLID
 70
     1
 71
     1
 91
        2
 92
        1
 93
        1
 72
     4
 94
        3
 73
     0
 74
     0
 95
       14
 96
       10
 40
0.0
 40
0.0
 40
0.0
 40
0.0
 40
1.0
 40
1.0
 40
1.0
 40
2.0
 40
2.0
 40
2.0
 40
3.0
 40
3.0
 40
3.0
 40
3.0
 10
107.9748046605063
 20
-168.2805121107076
 10
107.9748046605063
 20
-168.2805121107076
 10
107.5176404896136
 20
-168.9364582910992
 10
107.5176404896136
 20
-168.9364582910992
 10
107.5176404896136
 20
-168.9364582910992
 10
107.9748046605063
 20
-168.9364582910992
 10
107.9748046605063
 20
-168.9364582910992
 10
107.9748046605063
 20
-168.9364582910992
 10
107.9748046605063
 20
-168.2805121107076
 10
107.9748046605063
 20
-168.2805121107076
 97
        0
 97
        1
330
A8
 92
        1
 93
        1
 72
     4
 94
        3
 73
     0
 74
     0
 95
       38
 96
       34
 40
0.0
 40
0.0
 40
0.0
 40
0.0
 40
1.0
 40
1.0
 40
1.0
 40
2.0
 40
2.0
 40
2.0
 40
3.0
 40
3.0
 40
3.0
 40
4.0
 40
4.0
 40
4.0
 40
5.0
 40
5.0
 40
5.0
 40
6.0
 40
6.0
 40
6.0
 40
7.0
 40
7.0
 40
7.0
 40
8.0
 40
8.0
 40
8.0
 40
9.0
 40
9.0
 40
9.0
 40
10.0
 40
10.0
 40
10.0
 40
11.0
 40
11.0
 40
11.0
 40
11.0
 10
108.1925346951741
 20
-169.1352403005981
 10
108.1925346951741
 20
-169.1352403005981
 10
108.1925346951741
 20
-169.4821614159628
 10
108.1925346951741
 20
-169.4821614159628
 10
108.1925346951741
 20
-169.4821614159628
 10
107.9748046605063
 20
-169.4821614159628
 10
107.9748046605063
 20
-169.4821614159628
 10
107.9748046605063
 20
-169.4821614159628
 10
107.9748046605063
 20
-169.1352403005981
 10
107.9748046605063
 20
-169.1352403005981
 10
107.9748046605063
 20
-169.1352403005981
 10
107.3188584801147
 20
-169.1352403005981
 10
107.3188584801147
 20
-169.1352403005981
 10
107.3188584801147
 20
-169.1352403005981
 10
107.3188584801147
 20
-168.9109645845084
 10
107.3188584801147
 20
-168.9109645845084
 10
107.3188584801147
 20
-168.9109645845084
 10
107.9978868002575
 20
-167.9377251099253
 10
107.9978868002575
 20
-167.9377251099253
 10
107.9978868002575
 20
-167.9377251099253
 10
108.1925346951741
 20
-167.9377251099253
 10
108.1925346951741
 20
-167.9377251099253
 10
108.1925346951741
 20
-167.9377251099253
 10
108.1925346951741
 20
-168.9364582910992
 10
108.1925346951741
 20
-168.9364582910992
 10
108.1925346951741
 20
-168.9364582910992
 10
108.3999294433861
 20
-168.9364582910992
 10
108.3999294433861
 20
-168.9364582910992
 10
108.3999294433861
 20
-168.9364582910992
 10
108.3999294433861
 20
-169.1352403005981
 10
108.3999294433861
 20
-169.1352403005981
 10
108.3999294433861
 20
-169.1352403005981
 10
108.1925346951741
 20
-169.1352403005981
 10
108.1925346951741
 20
-169.1352403005981
 97
        0
 97
        1
330
A9
 75
     2
 76
     1
 98
        1
 10
0.0
 20
0.0
450
        0
451
        0
460
0.0
461
0.0
452
        0
462
0.0
453
        0
470

  0
SPLINE
  5
AB
330
A4
100
AcDbEntity
  8
レイヤー 1
100
AcDbSpline
210
0.0
220
0.0
230
1.0
 70
     9
 71
     3
 72
    17
 73
    13
 74
     0
 42
0.0000000001
 43
0.0000000001
 40
0.0
 40
0.0
 40
0.0
 40
0.0
 40
1.0
 40
1.0
 40
1.0
 40
2.0
 40
2.0
 40
2.0
 40
3.0
 40
3.0
 40
3.0
 40
4.0
 40
4.0
 40
4.0
 40
4.0
 10
109.0372721081573
 20
-168.0817301012087
 30
0.0
 10
108.7878471950253
 20
-168.0817301012087
 30
0.0
 10
108.7409938964258
 20
-168.3652614596448
 30
0.0
 10
108.7409938964258
 20
-168.7101155177183
 30
0.0
 10
108.7409938964258
 20
-169.029475869201
 30
0.0
 10
108.777167399021
 20
-169.3381564246793
 30
0.0
 10
109.0372721081573
 20
-169.3381564246793
 30
0.0
 10
109.2849744735468
 20
-169.3381564246793
 30
0.0
 10
109.3335503198888
 20
-169.0570366330829
 30
0.0
 10
109.3335503198888
 20
-168.7101155177183
 30
0.0
 10
109.3335503198888
 20
-168.3904106566871
 30
0.0
 10
109.2953097600025
 20
-168.0817301012087
 30
0.0
 10
109.0372721081573
 20
-168.0817301012087
 30
0.0
  0
SPLINE
  5
AC
330
A4
100
AcDbEntity
  8
レイヤー 1
100
AcDbSpline
210
0.0
220
0.0
230
1.0
 70
     9
 71
     3
 72
    29
 73
    25
 74
     0
 42
0.0000000001
 43
0.0000000001
 40
0.0
 40
0.0
 40
0.0
 40
0.0
 40
1.0
 40
1.0
 40
1.0
 40
2.0
 40
2.0
 40
2.0
 40
3.0
 40
3.0
 40
3.0
 40
4.0
 40
4.0
 40
4.0
 40
5.0
 40
5.0
 40
5.0
 40
6.0
 40
6.0
 40
6.0
 40
7.0
 40
7.0
 40
7.0
 40
8.0
 40
8.0
 40
8.0
 40
8.0
 10
109.4351806367037
 20
-169.3043944889239
 30
0.0
 10
109.3270046384668
 20
-169.513856294427
 30
0.0
 10
109.1537163355588
 20
-169.532804319596
 30
0.0
 10
109.0372721081573
 20
-169.532804319596
 30
0.0
 10
108.8763861489962
 20
-169.532804319596
 30
0.0
 10
108.7347927245524
 20
-169.4862955305451
 30
0.0
 10
108.6397080891595
 20
-169.3043944889239
 30
0.0
 10
108.5360107150535
 20
-169.1097465940073
 30
0.0
 10
108.5170626898846
 20
-168.8727240246221
 30
0.0
 10
108.5170626898846
 20
-168.7101155177183
 30
0.0
 10
108.5170626898846
 20
-168.5661105264348
 30
0.0
 10
108.5339436577623
 20
-168.3142740464631
 30
0.0
 10
108.6397080891595
 20
-168.1154920369642
 30
0.0
 10
108.7475395778478
 20
-167.9125759128829
 30
0.0
 10
108.908425537009
 20
-167.8891492635832
 30
0.0
 10
109.0372721081573
 20
-167.8891492635832
 30
0.0
 10
109.1960910100274
 20
-167.8891492635832
 30
0.0
 10
109.3397514917623
 20
-167.933590995343
 30
0.0
 10
109.4351806367037
 20
-168.1154920369642
 30
0.0
 10
109.5343993866789
 20
-168.3080728745896
 30
0.0
 10
109.5578260359786
 20
-168.5364827052617
 30
0.0
 10
109.5578260359786
 20
-168.7101155177183
 30
0.0
 10
109.5578260359786
 20
-168.8813367633352
 30
0.0
 10
109.53646644397
 20
-169.1118136512984
 30
0.0
 10
109.4351806367037
 20
-169.3043944889239
 30
0.0
  0
HATCH
  5
AD
330
A4
100
AcDbEntity
  8
レイヤー 1
 62
   250
420
  2299925
440
 33554687
100
AcDbHatch
 10
0.0
 20
0.0
 30
0.0
210
0.0
220
0.0
230
1.0
  2
SOLID
 70
     1
 71
     1
 91
        2
 92
        1
 93
        1
 72
     4
 94
        3
 73
     0
 74
     0
 95
       17
 96
       13
 40
0.0
 40
0.0
 40
0.0
 40
0.0
 40
1.0
 40
1.0
 40
1.0
 40
2.0
 40
2.0
 40
2.0
 40
3.0
 40
3.0
 40
3.0
 40
4.0
 40
4.0
 40
4.0
 40
4.0
 10
109.0372721081573
 20
-168.0817301012087
 10
108.7878471950253
 20
-168.0817301012087
 10
108.7409938964258
 20
-168.3652614596448
 10
108.7409938964258
 20
-168.7101155177183
 10
108.7409938964258
 20
-169.029475869201
 10
108.777167399021
 20
-169.3381564246793
 10
109.0372721081573
 20
-169.3381564246793
 10
109.2849744735468
 20
-169.3381564246793
 10
109.3335503198888
 20
-169.0570366330829
 10
109.3335503198888
 20
-168.7101155177183
 10
109.3335503198888
 20
-168.3904106566871
 10
109.2953097600025
 20
-168.0817301012087
 10
109.0372721081573
 20
-168.0817301012087
 97
        0
 97
        1
330
AB
 92
        1
 93
        1
 72
     4
 94
        3
 73
     0
 74
     0
 95
       29
 96
       25
 40
0.0
 40
0.0
 40
0.0
 40
0.0
 40
1.0
 40
1.0
 40
1.0
 40
2.0
 40
2.0
 40
2.0
 40
3.0
 40
3.0
 40
3.0
 40
4.0
 40
4.0
 40
4.0
 40
5.0
 40
5.0
 40
5.0
 40
6.0
 40
6.0
 40
6.0
 40
7.0
 40
7.0
 40
7.0
 40
8.0
 40
8.0
 40
8.0
 40
8.0
 10
109.4351806367037
 20
-169.3043944889239
 10
109.3270046384668
 20
-169.513856294427
 10
109.1537163355588
 20
-169.532804319596
 10
109.0372721081573
 20
-169.532804319596
 10
108.8763861489962
 20
-169.532804319596
 10
108.7347927245524
 20
-169.4862955305451
 10
108.6397080891595
 20
-169.3043944889239
 10
108.5360107150535
 20
-169.1097465940073
 10
108.5170626898846
 20
-168.8727240246221
 10
108.5170626898846
 20
-168.7101155177183
 10
108.5170626898846
 20
-168.5661105264348
 10
108.5339436577623
 20
-168.3142740464631
 10
108.6397080891595
 20
-168.1154920369642
 10
108.7475395778478
 20
-167.9125759128829
 10
108.908425537009
 20
-167.8891492635832
 10
109.0372721081573
 20
-167.8891492635832
 10
109.1960910100274
 20
-167.8891492635832
 10
109.3397514917623
 20
-167.933590995343
 10
109.4351806367037
 20
-168.1154920369642
 10
109.5343993866789
 20
-168.3080728745896
 10
109.5578260359786
 20
-168.5364827052617
 10
109.5578260359786
 20
-168.7101155177183
 10
109.5578260359786
 20
-168.8813367633352
 10
109.53646644397
 20
-169.1118136512984
 10
109.4351806367037
 20
-169.3043944889239
 97
        0
 97
        1
330
AC
 75
     2
 76
     1
 98
        1
 10
0.0
 20
0.0
450
        0
451
        0
460
0.0
461
0.0
452
        0
462
0.0
453
        0
470

  0
ENDBLK
  5
A7
330
A4
100
AcDbEntity
  8
0
100
AcDbBlockEnd
  0
BLOCK
  5
B6
330
B4
100
AcDbEntity
  8
0
100
AcDbBlockBegin
  2
Block_5
 70
     0
 10
0.0
 20
0.0
 30
0.0
  3
Block_5
  1

  0
INSERT
  5
B9
330
B4
100
AcDbEntity
  8
レイヤー 1
100
AcDbBlockReference
  2
Block_6
 10
0.0
 20
0.0
 30
0.0
  0
ENDBLK
  5
B7
330
B4
100
AcDbEntity
  8
0
100
AcDbBlockEnd
  0
BLOCK
  5
BA
330
B8
100
AcDbEntity
  8
0
100
AcDbBlockBegin
  2
Block_6
 70
     0
 10
0.0
 20
0.0
 30
0.0
  3
Block_6
  1

  0
SPLINE
  5
BC
330
B8
100
AcDbEntity
  8
レイヤー 1
100
AcDbSpline
210
0.0
220
0.0
230
1.0
 70
     9
 71
     3
 72
    17
 73
    13
 74
     0
 42
0.0000000001
 43
0.0000000001
 40
0.0
 40
0.0
 40
0.0
 40
0.0
 40
1.0
 40
1.0
 40
1.0
 40
2.0
 40
2.0
 40
2.0
 40
3.0
 40
3.0
 40
3.0
 40
4.0
 40
4.0
 40
4.0
 40
4.0
 10
93.36949460556388
 20
-158.7441432979876
 30
0.0
 10
93.3546806949773
 20
-158.7737711191607
 30
0.0
 10
93.31023896321758
 20
-158.8667886972624
 30
0.0
 10
93.30093720540741
 20
-158.8857367224313
 30
0.0
 10
93.4676798268935
 20
-158.9449923647776
 30
0.0
 10
93.48611108773958
 20
-158.9515380461996
 30
0.0
 10
93.54915633511966
 20
-158.9787543005331
 30
0.0
 10
93.5972154171389
 20
-158.8922824038533
 30
0.0
 10
93.61771373527613
 20
-158.8182128509204
 30
0.0
 10
93.63063284334582
 20
-158.7441432979876
 30
0.0
 10
93.63063284334582
 20
-158.7441432979876
 30
0.0
 10
93.36949460556388
 20
-158.7441432979876
 30
0.0
 10
93.36949460556388
 20
-158.7441432979876
 30
0.0
  0
SPLINE
  5
BD
330
B8
100
AcDbEntity
  8
レイヤー 1
100
AcDbSpline
210
0.0
220
0.0
230
1.0
 70
    11
 71
     3
 72
    20
 73
    16
 74
     0
 42
0.0000000001
 43
0.0000000001
 40
0.0
 40
0.0
 40
0.0
 40
0.0
 40
1.0
 40
1.0
 40
1.0
 40
2.0
 40
2.0
 40
2.0
 40
3.0
 40
3.0
 40
3.0
 40
4.0
 40
4.0
 40
4.0
 40
5.0
 40
5.0
 40
5.0
 40
5.0
 10
93.31402856825135
 20
-157.8935492226794
 30
0.0
 10
93.31402856825135
 20
-157.8935492226794
 30
0.0
 10
93.28612329482083
 20
-157.8935492226794
 30
0.0
 10
93.28612329482083
 20
-157.8935492226794
 30
0.0
 10
93.32694767632103
 20
-157.9931124822031
 30
0.0
 10
93.3546806949773
 20
-158.0733832070094
 30
0.0
 10
93.38430851615045
 20
-158.2005072304151
 30
0.0
 10
93.38430851615045
 20
-158.2005072304151
 30
0.0
 10
93.56586504822312
 20
-158.2005072304151
 30
0.0
 10
93.56586504822312
 20
-158.2005072304151
 30
0.0
 10
93.59359806687939
 20
-158.1074896523134
 30
0.0
 10
93.61392413024235
 20
-158.0227403033762
 30
0.0
 10
93.63425019360532
 20
-157.8935492226794
 30
0.0
 10
93.63425019360532
 20
-157.8935492226794
 30
0.0
 10
93.31402856825135
 20
-157.8935492226794
 30
0.0
 10
93.31402856825135
 20
-157.8935492226794
 30
0.0
  0
SPLINE
  5
BE
330
B8
100
AcDbEntity
  8
レイヤー 1
100
AcDbSpline
210
0.0
220
0.0
230
1.0
 70
     9
 71
     3
 72
   242
 73
   238
 74
     0
 42
0.0000000001
 43
0.0000000001
 40
0.0
 40
0.0
 40
0.0
 40
0.0
 40
1.0
 40
1.0
 40
1.0
 40
2.0
 40
2.0
 40
2.0
 40
3.0
 40
3.0
 40
3.0
 40
4.0
 40
4.0
 40
4.0
 40
5.0
 40
5.0
 40
5.0
 40
6.0
 40
6.0
 40
6.0
 40
7.0
 40
7.0
 40
7.0
 40
8.0
 40
8.0
 40
8.0
 40
9.0
 40
9.0
 40
9.0
 40
10.0
 40
10.0
 40
10.0
 40
11.0
 40
11.0
 40
11.0
 40
12.0
 40
12.0
 40
12.0
 40
13.0
 40
13.0
 40
13.0
 40
14.0
 40
14.0
 40
14.0
 40
15.0
 40
15.0
 40
15.0
 40
16.0
 40
16.0
 40
16.0
 40
17.0
 40
17.0
 40
17.0
 40
18.0
 40
18.0
 40
18.0
 40
19.0
 40
19.0
 40
19.0
 40
20.0
 40
20.0
 40
20.0
 40
21.0
 40
21.0
 40
21.0
 40
22.0
 40
22.0
 40
22.0
 40
23.0
 40
23.0
 40
23.0
 40
24.0
 40
24.0
 40
24.0
 40
25.0
 40
25.0
 40
25.0
 40
26.0
 40
26.0
 40
26.0
 40
27.0
 40
27.0
 40
27.0
 40
28.0
 40
28.0
 40
28.0
 40
29.0
 40
29.0
 40
29.0
 40
30.0
 40
30.0
 40
30.0
 40
31.0
 40
31.0
 40
31.0
 40
32.0
 40
32.0
 40
32.0
 40
33.0
 40
33.0
 40
33.0
 40
34.0
 40
34.0
 40
34.0
 40
35.0
 40
35.0
 40
35.0
 40
36.0
 40
36.0
 40
36.0
 40
37.0
 40
37.0
 40
37.0
 40
38.0
 40
38.0
 40
38.0
 40
39.0
 40
39.0
 40
39.0
 40
40.0
 40
40.0
 40
40.0
 40
41.0
 40
41.0
 40
41.0
 40
42.0
 40
42.0
 40
42.0
 40
43.0
 40
43.0
 40
43.0
 40
44.0
 40
44.0
 40
44.0
 40
45.0
 40
45.0
 40
45.0
 40
46.0
 40
46.0
 40
46.0
 40
47.0
 40
47.0
 40
47.0
 40
48.0
 40
48.0
 40
48.0
 40
49.0
 40
49.0
 40
49.0
 40
50.0
 40
50.0
 40
50.0
 40
51.0
 40
51.0
 40
51.0
 40
52.0
 40
52.0
 40
52.0
 40
53.0
 40
53.0
 40
53.0
 40
54.0
 40
54.0
 40
54.0
 40
55.0
 40
55.0
 40
55.0
 40
56.0
 40
56.0
 40
56.0
 40
57.0
 40
57.0
 40
57.0
 40
58.0
 40
58.0
 40
58.0
 40
59.0
 40
59.0
 40
59.0
 40
60.0
 40
60.0
 40
60.0
 40
61.0
 40
61.0
 40
61.0
 40
62.0
 40
62.0
 40
62.0
 40
63.0
 40
63.0
 40
63.0
 40
64.0
 40
64.0
 40
64.0
 40
65.0
 40
65.0
 40
65.0
 40
66.0
 40
66.0
 40
66.0
 40
67.0
 40
67.0
 40
67.0
 40
68.0
 40
68.0
 40
68.0
 40
69.0
 40
69.0
 40
69.0
 40
70.0
 40
70.0
 40
70.0
 40
71.0
 40
71.0
 40
71.0
 40
72.0
 40
72.0
 40
72.0
 40
73.0
 40
73.0
 40
73.0
 40
74.0
 40
74.0
 40
74.0
 40
75.0
 40
75.0
 40
75.0
 40
76.0
 40
76.0
 40
76.0
 40
77.0
 40
77.0
 40
77.0
 40
78.0
 40
78.0
 40
78.0
 40
79.0
 40
79.0
 40
79.0
 40
79.0
 10
93.86386580769723
 20
-158.3589816227366
 30
0.0
 10
93.86386580769723
 20
-158.3589816227366
 30
0.0
 10
93.64165714889862
 20
-158.3589816227366
 30
0.0
 10
93.64165714889862
 20
-158.3589816227366
 30
0.0
 10
93.64165714889862
 20
-158.3589816227366
 30
0.0
 10
93.39912242673703
 20
-158.3589816227366
 30
0.0
 10
93.39912242673703
 20
-158.3589816227366
 30
0.0
 10
93.39912242673703
 20
-158.3589816227366
 30
0.0
 10
93.51022675613632
 20
-158.4013562972052
 30
0.0
 10
93.51022675613632
 20
-158.4013562972052
 30
0.0
 10
93.51952851394651
 20
-158.4054904117875
 30
0.0
 10
93.53055281949931
 20
-158.4120360932095
 30
0.0
 10
93.53055281949931
 20
-158.4247829465049
 30
0.0
 10
93.53055281949931
 20
-158.4457980289649
 30
0.0
 10
93.50281980084304
 20
-158.4519992008384
 30
0.0
 10
93.48438853999695
 20
-158.4564778249692
 30
0.0
 10
93.47508678218678
 20
-158.4795599647204
 30
0.0
 10
93.44907631127314
 20
-158.5453612884886
 30
0.0
 10
93.43253985294394
 20
-158.5898030202484
 30
0.0
 10
93.43253985294394
 20
-158.5898030202484
 30
0.0
 10
93.66956242232914
 20
-158.5898030202484
 30
0.0
 10
93.66956242232914
 20
-158.5898030202484
 30
0.0
 10
93.74914412803841
 20
-158.5898030202484
 30
0.0
 10
93.9213989023009
 20
-158.5853243961175
 30
0.0
 10
94.04542233976989
 20
-158.5770561669529
 30
0.0
 10
94.04542233976989
 20
-158.5770561669529
 30
0.0
 10
94.04542233976989
 20
-158.7548230939918
 30
0.0
 10
94.04542233976989
 20
-158.7548230939918
 30
0.0
 10
93.97324758935392
 20
-158.750344469861
 30
0.0
 10
93.95464407373356
 20
-158.750344469861
 30
0.0
 10
93.79720321005764
 20
-158.7462103552787
 30
0.0
 10
93.76947019140137
 20
-158.9005506330179
 30
0.0
 10
93.73054061241807
 20
-158.9811658673727
 30
0.0
 10
93.691783288209
 20
-159.0507567961748
 30
0.0
 10
93.79720321005764
 20
-159.1100124385211
 30
0.0
 10
93.88987627861087
 20
-159.1778808195805
 30
0.0
 10
93.9806545446472
 20
-159.260218601678
 30
0.0
 10
93.9806545446472
 20
-159.260218601678
 30
0.0
 10
93.87695717054118
 20
-159.4273057327126
 30
0.0
 10
93.87695717054118
 20
-159.4273057327126
 30
0.0
 10
93.85645885240395
 20
-159.4083577075437
 30
0.0
 10
93.84543454685115
 20
-159.3997449688306
 30
0.0
 10
93.74724932552153
 20
-159.315340129442
 30
0.0
 10
93.70470239627868
 20
-159.2770995695557
 30
0.0
 10
93.65285370922569
 20
-159.2412705765091
 30
0.0
 10
93.58240150655232
 20
-159.1968288447494
 30
0.0
 10
93.39722762422013
 20
-159.3828640009529
 30
0.0
 10
93.21773814943863
 20
-159.4062906502526
 30
0.0
 10
92.96400686694997
 20
-159.4359184714257
 30
0.0
 10
92.96400686694997
 20
-159.4359184714257
 30
0.0
 10
92.87322860091363
 20
-159.2560844870957
 30
0.0
 10
92.87322860091363
 20
-159.2560844870957
 30
0.0
 10
93.15107555179904
 20
-159.2519503725134
 30
0.0
 10
93.30472681044119
 20
-159.2264566659225
 30
0.0
 10
93.43805200572035
 20
-159.116558119943
 30
0.0
 10
93.33435463161434
 20
-159.0655707067614
 30
0.0
 10
93.25649547364768
 20
-159.0380099428794
 30
0.0
 10
93.2251451047319
 20
-159.0256075991325
 30
0.0
 10
93.20843639162845
 20
-159.0528238534659
 30
0.0
 10
93.19551728355875
 20
-159.0721163881833
 30
0.0
 10
93.17140161516201
 20
-159.1058783239388
 30
0.0
 10
93.17140161516201
 20
-159.1058783239388
 30
0.0
 10
92.99914684089953
 20
-159.0231960322928
 30
0.0
 10
92.99914684089953
 20
-159.0231960322928
 30
0.0
 10
93.07132159131551
 20
-158.9429253074865
 30
0.0
 10
93.1250650808854
 20
-158.8478406720936
 30
0.0
 10
93.17501896542152
 20
-158.7462103552787
 30
0.0
 10
93.00844859870968
 20
-158.750344469861
 30
0.0
 10
92.98984508308935
 20
-158.750344469861
 30
0.0
 10
92.91767033267337
 20
-158.7548230939918
 30
0.0
 10
92.91767033267337
 20
-158.7548230939918
 30
0.0
 10
92.91767033267337
 20
-158.5770561669529
 30
0.0
 10
92.91767033267337
 20
-158.5770561669529
 30
0.0
 10
93.03997122239973
 20
-158.5832573388264
 30
0.0
 10
93.22325030221502
 20
-158.5873914534087
 30
0.0
 10
93.24547116809489
 20
-158.5873914534087
 30
0.0
 10
93.26028507868146
 20
-158.5536295176532
 30
0.0
 10
93.3083441607007
 20
-158.4330511756695
 30
0.0
 10
93.32505287380415
 20
-158.3589816227366
 30
0.0
 10
93.3083441607007
 20
-158.3589816227366
 30
0.0
 10
93.15279809954168
 20
-158.3655273041586
 30
0.0
 10
92.98243812779606
 20
-158.378274157454
 30
0.0
 10
92.98243812779606
 20
-158.378274157454
 30
0.0
 10
92.98243812779606
 20
-158.5112548431847
 30
0.0
 10
92.98243812779606
 20
-158.5112548431847
 30
0.0
 10
92.93989119855323
 20
-158.5367485497755
 30
0.0
 10
92.88804251150022
 20
-158.5684434282398
 30
0.0
 10
92.7714260293245
 20
-158.6342447520081
 30
0.0
 10
92.7714260293245
 20
-158.6342447520081
 30
0.0
 10
92.7714260293245
 20
-158.7799722910341
 30
0.0
 10
92.7714260293245
 20
-158.7799722910341
 30
0.0
 10
92.7714260293245
 20
-158.7799722910341
 30
0.0
 10
92.7714260293245
 20
-159.2474717483826
 30
0.0
 10
92.7714260293245
 20
-159.2474717483826
 30
0.0
 10
92.7714260293245
 20
-159.3745957717883
 30
0.0
 10
92.73990340563448
 20
-159.4338514141346
 30
0.0
 10
92.49185653069648
 20
-159.4252386754214
 30
0.0
 10
92.49185653069648
 20
-159.4252386754214
 30
0.0
 10
92.40107826466015
 20
-159.2178439272094
 30
0.0
 10
92.40107826466015
 20
-159.2178439272094
 30
0.0
 10
92.45654430197268
 20
-159.2305907805048
 30
0.0
 10
92.49926348598977
 20
-159.2350694046356
 30
0.0
 10
92.53440345993933
 20
-159.2350694046356
 30
0.0
 10
92.6010660575789
 20
-159.2350694046356
 30
0.0
 10
92.61036781538908
 20
-159.211642755336
 30
0.0
 10
92.61036781538908
 20
-159.1461859411162
 30
0.0
 10
92.61036781538908
 20
-159.1461859411162
 30
0.0
 10
92.61036781538908
 20
-158.7165825341056
 30
0.0
 10
92.61036781538908
 20
-158.7165825341056
 30
0.0
 10
92.52510170212914
 20
-158.756890151283
 30
0.0
 10
92.51028779154257
 20
-158.7630913231564
 30
0.0
 10
92.46963566481662
 20
-158.7820393483253
 30
0.0
 10
92.46584605978284
 20
-158.8033989403339
 30
0.0
 10
92.46222870952333
 20
-158.833026761507
 30
0.0
 10
92.44551999641988
 20
-158.833026761507
 30
0.0
 10
92.43811304112659
 20
-158.833026761507
 30
0.0
 10
92.4288112833164
 20
-158.8285481373762
 30
0.0
 10
92.42329913054001
 20
-158.805465997625
 30
0.0
 10
92.42329913054001
 20
-158.805465997625
 30
0.0
 10
92.37696259626339
 20
-158.6128851599995
 30
0.0
 10
92.37696259626339
 20
-158.6128851599995
 30
0.0
 10
92.50477563876618
 20
-158.5663763709487
 30
0.0
 10
92.56213647859558
 20
-158.5432942311975
 30
0.0
 10
92.61036781538908
 20
-158.5219346391889
 30
0.0
 10
92.61036781538908
 20
-158.5219346391889
 30
0.0
 10
92.61036781538908
 20
-158.1095567096045
 30
0.0
 10
92.61036781538908
 20
-158.1095567096045
 30
0.0
 10
92.61036781538908
 20
-158.1095567096045
 30
0.0
 10
92.56403128111246
 20
-158.1095567096045
 30
0.0
 10
92.56403128111246
 20
-158.1095567096045
 30
0.0
 10
92.56403128111246
 20
-158.1095567096045
 30
0.0
 10
92.49547388095599
 20
-158.1095567096045
 30
0.0
 10
92.49547388095599
 20
-158.1095567096045
 30
0.0
 10
92.43621823860969
 20
-158.1095567096045
 30
0.0
 10
92.4288112833164
 20
-158.1095567096045
 30
0.0
 10
92.39728865962637
 20
-158.115757881478
 30
0.0
 10
92.39728865962637
 20
-158.115757881478
 30
0.0
 10
92.39728865962637
 20
-157.9211099865614
 30
0.0
 10
92.39728865962637
 20
-157.9211099865614
 30
0.0
 10
92.42140432802314
 20
-157.9276556679833
 30
0.0
 10
92.4288112833164
 20
-157.9276556679833
 30
0.0
 10
92.48996172817959
 20
-157.9276556679833
 30
0.0
 10
92.48996172817959
 20
-157.9276556679833
 30
0.0
 10
92.60657821035531
 20
-157.9276556679833
 30
0.0
 10
92.60657821035531
 20
-157.9276556679833
 30
0.0
 10
92.60657821035531
 20
-157.8577202296328
 30
0.0
 10
92.60657821035531
 20
-157.7750379379868
 30
0.0
 10
92.60468340783843
 20
-157.7709038234045
 30
0.0
 10
92.59727645254512
 20
-157.5910698390744
 30
0.0
 10
92.59727645254512
 20
-157.5721218139056
 30
0.0
 10
92.59555390480249
 20
-157.5256130248547
 30
0.0
 10
92.59555390480249
 20
-157.5256130248547
 30
0.0
 10
92.78434513739419
 20
-157.5338812540193
 30
0.0
 10
92.78434513739419
 20
-157.5338812540193
 30
0.0
 10
92.79364689520438
 20
-157.5338812540193
 30
0.0
 10
92.81207815605046
 20
-157.536292820859
 30
0.0
 10
92.81207815605046
 20
-157.5531737887367
 30
0.0
 10
92.81207815605046
 20
-157.5721218139056
 30
0.0
 10
92.79915904798077
 20
-157.5828016099098
 30
0.0
 10
92.7769381821009
 20
-157.6017496350787
 30
0.0
 10
92.7769381821009
 20
-157.6523925387119
 30
0.0
 10
92.7714260293245
 20
-157.8811468789325
 30
0.0
 10
92.77332083184139
 20
-157.9276556679833
 30
0.0
 10
92.88614770898332
 20
-157.9276556679833
 30
0.0
 10
92.89734426931039
 20
-157.9276556679833
 30
0.0
 10
92.98243812779606
 20
-157.9190429292702
 30
0.0
 10
92.98243812779606
 20
-157.9190429292702
 30
0.0
 10
92.98243812779606
 20
-158.1136908241868
 30
0.0
 10
92.98243812779606
 20
-158.1136908241868
 30
0.0
 10
92.9491929563634
 20
-158.1116237668957
 30
0.0
 10
92.8899373140171
 20
-158.1074896523134
 30
0.0
 10
92.7714260293245
 20
-158.1095567096045
 30
0.0
 10
92.7714260293245
 20
-158.1095567096045
 30
0.0
 10
92.7714260293245
 20
-158.4478650862561
 30
0.0
 10
92.7714260293245
 20
-158.4478650862561
 30
0.0
 10
92.81948511134373
 20
-158.4247829465049
 30
0.0
 10
92.87701820594742
 20
-158.3972221826229
 30
0.0
 10
92.91956513519025
 20
-158.3737955333232
 30
0.0
 10
92.91956513519025
 20
-158.3737955333232
 30
0.0
 10
92.91956513519025
 20
-158.1960286062843
 30
0.0
 10
92.91956513519025
 20
-158.1960286062843
 30
0.0
 10
93.0194729042625
 20
-158.2087754595797
 30
0.0
 10
93.12317027836853
 20
-158.2087754595797
 30
0.0
 10
93.2251451047319
 20
-158.2087754595797
 30
0.0
 10
93.20464678659467
 20
-158.1136908241868
 30
0.0
 10
93.1807033729722
 20
-158.0310085325408
 30
0.0
 10
93.1250650808854
 20
-157.8980278468102
 30
0.0
 10
93.08613550190207
 20
-157.9000949041013
 30
0.0
 10
93.01396075148609
 20
-157.9042290186837
 30
0.0
 10
92.98071558005345
 20
-157.9062960759748
 30
0.0
 10
92.98071558005345
 20
-157.9062960759748
 30
0.0
 10
92.98071558005345
 20
-157.7264620916448
 30
0.0
 10
92.98071558005345
 20
-157.7264620916448
 30
0.0
 10
93.08992510693585
 20
-157.7350748303579
 30
0.0
 10
93.24168156306111
 20
-157.7392089449402
 30
0.0
 10
93.31402856825135
 20
-157.7392089449402
 30
0.0
 10
93.31402856825135
 20
-157.7392089449402
 30
0.0
 10
93.38620331866733
 20
-157.7392089449402
 30
0.0
 10
93.38620331866733
 20
-157.7392089449402
 30
0.0
 10
93.38620331866733
 20
-157.5762559284879
 30
0.0
 10
93.38620331866733
 20
-157.5659206420321
 30
0.0
 10
93.38430851615045
 20
-157.5107991142681
 30
0.0
 10
93.38430851615045
 20
-157.5107991142681
 30
0.0
 10
93.58067895880969
 20
-157.536292820859
 30
0.0
 10
93.58067895880969
 20
-157.536292820859
 30
0.0
 10
93.5842963090692
 20
-157.536292820859
 30
0.0
 10
93.60289982468955
 20
-157.5383598781501
 30
0.0
 10
93.60289982468955
 20
-157.5552408460278
 30
0.0
 10
93.60289982468955
 20
-157.5700547566144
 30
0.0
 10
93.59359806687939
 20
-157.578322985779
 30
0.0
 10
93.56948239848263
 20
-157.5931368963656
 30
0.0
 10
93.56397024570624
 20
-157.6589382201339
 30
0.0
 10
93.56207544318934
 20
-157.6799533025939
 30
0.0
 10
93.56207544318934
 20
-157.7392089449402
 30
0.0
 10
93.56207544318934
 20
-157.7392089449402
 30
0.0
 10
93.64544675393238
 20
-157.7392089449402
 30
0.0
 10
93.64544675393238
 20
-157.7392089449402
 30
0.0
 10
93.71762150434838
 20
-157.7392089449402
 30
0.0
 10
93.86955021524789
 20
-157.7350748303579
 30
0.0
 10
93.97875974213031
 20
-157.7264620916448
 30
0.0
 10
93.97875974213031
 20
-157.7264620916448
 30
0.0
 10
93.97875974213031
 20
-157.9062960759748
 30
0.0
 10
93.97875974213031
 20
-157.9062960759748
 30
0.0
 10
93.95274927121667
 20
-157.9042290186837
 30
0.0
 10
93.84905189711066
 20
-157.9000949041013
 30
0.0
 10
93.81391192316112
 20
-157.8980278468102
 30
0.0
 10
93.80099281509142
 20
-157.9486707504434
 30
0.0
 10
93.77136499391827
 20
-158.060636353714
 30
0.0
 10
93.71400415408887
 20
-158.2005072304151
 30
0.0
 10
93.75103893055529
 20
-158.2005072304151
 30
0.0
 10
93.99357365271688
 20
-158.1812146956977
 30
0.0
 10
94.04731714228679
 20
-158.1791476384066
 30
0.0
 10
94.04731714228679
 20
-158.1791476384066
 30
0.0
 10
94.04731714228679
 20
-158.3634602468674
 30
0.0
 10
94.04731714228679
 20
-158.3634602468674
 30
0.0
 10
94.02130667137315
 20
-158.3634602468674
 30
0.0
 10
94.00649276078658
 20
-158.3589816227366
 30
0.0
 10
93.86386580769723
 20
-158.3589816227366
 30
0.0
  0
HATCH
  5
BF
330
B8
100
AcDbEntity
  8
レイヤー 1
 62
   250
420
  2299925
440
 33554687
100
AcDbHatch
 10
0.0
 20
0.0
 30
0.0
210
0.0
220
0.0
230
1.0
  2
SOLID
 70
     1
 71
     1
 91
        3
 92
        1
 93
        1
 72
     4
 94
        3
 73
     0
 74
     0
 95
       17
 96
       13
 40
0.0
 40
0.0
 40
0.0
 40
0.0
 40
1.0
 40
1.0
 40
1.0
 40
2.0
 40
2.0
 40
2.0
 40
3.0
 40
3.0
 40
3.0
 40
4.0
 40
4.0
 40
4.0
 40
4.0
 10
93.36949460556388
 20
-158.7441432979876
 10
93.3546806949773
 20
-158.7737711191607
 10
93.31023896321758
 20
-158.8667886972624
 10
93.30093720540741
 20
-158.8857367224313
 10
93.4676798268935
 20
-158.9449923647776
 10
93.48611108773958
 20
-158.9515380461996
 10
93.54915633511966
 20
-158.9787543005331
 10
93.5972154171389
 20
-158.8922824038533
 10
93.61771373527613
 20
-158.8182128509204
 10
93.63063284334582
 20
-158.7441432979876
 10
93.63063284334582
 20
-158.7441432979876
 10
93.36949460556388
 20
-158.7441432979876
 10
93.36949460556388
 20
-158.7441432979876
 97
        0
 97
        1
330
BC
 92
        1
 93
        1
 72
     4
 94
        3
 73
     0
 74
     0
 95
       20
 96
       16
 40
0.0
 40
0.0
 40
0.0
 40
0.0
 40
1.0
 40
1.0
 40
1.0
 40
2.0
 40
2.0
 40
2.0
 40
3.0
 40
3.0
 40
3.0
 40
4.0
 40
4.0
 40
4.0
 40
5.0
 40
5.0
 40
5.0
 40
5.0
 10
93.31402856825135
 20
-157.8935492226794
 10
93.31402856825135
 20
-157.8935492226794
 10
93.28612329482083
 20
-157.8935492226794
 10
93.28612329482083
 20
-157.8935492226794
 10
93.32694767632103
 20
-157.9931124822031
 10
93.3546806949773
 20
-158.0733832070094
 10
93.38430851615045
 20
-158.2005072304151
 10
93.38430851615045
 20
-158.2005072304151
 10
93.56586504822312
 20
-158.2005072304151
 10
93.56586504822312
 20
-158.2005072304151
 10
93.59359806687939
 20
-158.1074896523134
 10
93.61392413024235
 20
-158.0227403033762
 10
93.63425019360532
 20
-157.8935492226794
 10
93.63425019360532
 20
-157.8935492226794
 10
93.31402856825135
 20
-157.8935492226794
 10
93.31402856825135
 20
-157.8935492226794
 97
        0
 97
        1
330
BD
 92
        1
 93
        1
 72
     4
 94
        3
 73
     0
 74
     0
 95
      242
 96
      238
 40
0.0
 40
0.0
 40
0.0
 40
0.0
 40
1.0
 40
1.0
 40
1.0
 40
2.0
 40
2.0
 40
2.0
 40
3.0
 40
3.0
 40
3.0
 40
4.0
 40
4.0
 40
4.0
 40
5.0
 40
5.0
 40
5.0
 40
6.0
 40
6.0
 40
6.0
 40
7.0
 40
7.0
 40
7.0
 40
8.0
 40
8.0
 40
8.0
 40
9.0
 40
9.0
 40
9.0
 40
10.0
 40
10.0
 40
10.0
 40
11.0
 40
11.0
 40
11.0
 40
12.0
 40
12.0
 40
12.0
 40
13.0
 40
13.0
 40
13.0
 40
14.0
 40
14.0
 40
14.0
 40
15.0
 40
15.0
 40
15.0
 40
16.0
 40
16.0
 40
16.0
 40
17.0
 40
17.0
 40
17.0
 40
18.0
 40
18.0
 40
18.0
 40
19.0
 40
19.0
 40
19.0
 40
20.0
 40
20.0
 40
20.0
 40
21.0
 40
21.0
 40
21.0
 40
22.0
 40
22.0
 40
22.0
 40
23.0
 40
23.0
 40
23.0
 40
24.0
 40
24.0
 40
24.0
 40
25.0
 40
25.0
 40
25.0
 40
26.0
 40
26.0
 40
26.0
 40
27.0
 40
27.0
 40
27.0
 40
28.0
 40
28.0
 40
28.0
 40
29.0
 40
29.0
 40
29.0
 40
30.0
 40
30.0
 40
30.0
 40
31.0
 40
31.0
 40
31.0
 40
32.0
 40
32.0
 40
32.0
 40
33.0
 40
33.0
 40
33.0
 40
34.0
 40
34.0
 40
34.0
 40
35.0
 40
35.0
 40
35.0
 40
36.0
 40
36.0
 40
36.0
 40
37.0
 40
37.0
 40
37.0
 40
38.0
 40
38.0
 40
38.0
 40
39.0
 40
39.0
 40
39.0
 40
40.0
 40
40.0
 40
40.0
 40
41.0
 40
41.0
 40
41.0
 40
42.0
 40
42.0
 40
42.0
 40
43.0
 40
43.0
 40
43.0
 40
44.0
 40
44.0
 40
44.0
 40
45.0
 40
45.0
 40
45.0
 40
46.0
 40
46.0
 40
46.0
 40
47.0
 40
47.0
 40
47.0
 40
48.0
 40
48.0
 40
48.0
 40
49.0
 40
49.0
 40
49.0
 40
50.0
 40
50.0
 40
50.0
 40
51.0
 40
51.0
 40
51.0
 40
52.0
 40
52.0
 40
52.0
 40
53.0
 40
53.0
 40
53.0
 40
54.0
 40
54.0
 40
54.0
 40
55.0
 40
55.0
 40
55.0
 40
56.0
 40
56.0
 40
56.0
 40
57.0
 40
57.0
 40
57.0
 40
58.0
 40
58.0
 40
58.0
 40
59.0
 40
59.0
 40
59.0
 40
60.0
 40
60.0
 40
60.0
 40
61.0
 40
61.0
 40
61.0
 40
62.0
 40
62.0
 40
62.0
 40
63.0
 40
63.0
 40
63.0
 40
64.0
 40
64.0
 40
64.0
 40
65.0
 40
65.0
 40
65.0
 40
66.0
 40
66.0
 40
66.0
 40
67.0
 40
67.0
 40
67.0
 40
68.0
 40
68.0
 40
68.0
 40
69.0
 40
69.0
 40
69.0
 40
70.0
 40
70.0
 40
70.0
 40
71.0
 40
71.0
 40
71.0
 40
72.0
 40
72.0
 40
72.0
 40
73.0
 40
73.0
 40
73.0
 40
74.0
 40
74.0
 40
74.0
 40
75.0
 40
75.0
 40
75.0
 40
76.0
 40
76.0
 40
76.0
 40
77.0
 40
77.0
 40
77.0
 40
78.0
 40
78.0
 40
78.0
 40
79.0
 40
79.0
 40
79.0
 40
79.0
 10
93.86386580769723
 20
-158.3589816227366
 10
93.86386580769723
 20
-158.3589816227366
 10
93.64165714889862
 20
-158.3589816227366
 10
93.64165714889862
 20
-158.3589816227366
 10
93.64165714889862
 20
-158.3589816227366
 10
93.39912242673703
 20
-158.3589816227366
 10
93.39912242673703
 20
-158.3589816227366
 10
93.39912242673703
 20
-158.3589816227366
 10
93.51022675613632
 20
-158.4013562972052
 10
93.51022675613632
 20
-158.4013562972052
 10
93.51952851394651
 20
-158.4054904117875
 10
93.53055281949931
 20
-158.4120360932095
 10
93.53055281949931
 20
-158.4247829465049
 10
93.53055281949931
 20
-158.4457980289649
 10
93.50281980084304
 20
-158.4519992008384
 10
93.48438853999695
 20
-158.4564778249692
 10
93.47508678218678
 20
-158.4795599647204
 10
93.44907631127314
 20
-158.5453612884886
 10
93.43253985294394
 20
-158.5898030202484
 10
93.43253985294394
 20
-158.5898030202484
 10
93.66956242232914
 20
-158.5898030202484
 10
93.66956242232914
 20
-158.5898030202484
 10
93.74914412803841
 20
-158.5898030202484
 10
93.9213989023009
 20
-158.5853243961175
 10
94.04542233976989
 20
-158.5770561669529
 10
94.04542233976989
 20
-158.5770561669529
 10
94.04542233976989
 20
-158.7548230939918
 10
94.04542233976989
 20
-158.7548230939918
 10
93.97324758935392
 20
-158.750344469861
 10
93.95464407373356
 20
-158.750344469861
 10
93.79720321005764
 20
-158.7462103552787
 10
93.76947019140137
 20
-158.9005506330179
 10
93.73054061241807
 20
-158.9811658673727
 10
93.691783288209
 20
-159.0507567961748
 10
93.79720321005764
 20
-159.1100124385211
 10
93.88987627861087
 20
-159.1778808195805
 10
93.9806545446472
 20
-159.260218601678
 10
93.9806545446472
 20
-159.260218601678
 10
93.87695717054118
 20
-159.4273057327126
 10
93.87695717054118
 20
-159.4273057327126
 10
93.85645885240395
 20
-159.4083577075437
 10
93.84543454685115
 20
-159.3997449688306
 10
93.74724932552153
 20
-159.315340129442
 10
93.70470239627868
 20
-159.2770995695557
 10
93.65285370922569
 20
-159.2412705765091
 10
93.58240150655232
 20
-159.1968288447494
 10
93.39722762422013
 20
-159.3828640009529
 10
93.21773814943863
 20
-159.4062906502526
 10
92.96400686694997
 20
-159.4359184714257
 10
92.96400686694997
 20
-159.4359184714257
 10
92.87322860091363
 20
-159.2560844870957
 10
92.87322860091363
 20
-159.2560844870957
 10
93.15107555179904
 20
-159.2519503725134
 10
93.30472681044119
 20
-159.2264566659225
 10
93.43805200572035
 20
-159.116558119943
 10
93.33435463161434
 20
-159.0655707067614
 10
93.25649547364768
 20
-159.0380099428794
 10
93.2251451047319
 20
-159.0256075991325
 10
93.20843639162845
 20
-159.0528238534659
 10
93.19551728355875
 20
-159.0721163881833
 10
93.17140161516201
 20
-159.1058783239388
 10
93.17140161516201
 20
-159.1058783239388
 10
92.99914684089953
 20
-159.0231960322928
 10
92.99914684089953
 20
-159.0231960322928
 10
93.07132159131551
 20
-158.9429253074865
 10
93.1250650808854
 20
-158.8478406720936
 10
93.17501896542152
 20
-158.7462103552787
 10
93.00844859870968
 20
-158.750344469861
 10
92.98984508308935
 20
-158.750344469861
 10
92.91767033267337
 20
-158.7548230939918
 10
92.91767033267337
 20
-158.7548230939918
 10
92.91767033267337
 20
-158.5770561669529
 10
92.91767033267337
 20
-158.5770561669529
 10
93.03997122239973
 20
-158.5832573388264
 10
93.22325030221502
 20
-158.5873914534087
 10
93.24547116809489
 20
-158.5873914534087
 10
93.26028507868146
 20
-158.5536295176532
 10
93.3083441607007
 20
-158.4330511756695
 10
93.32505287380415
 20
-158.3589816227366
 10
93.3083441607007
 20
-158.3589816227366
 10
93.15279809954168
 20
-158.3655273041586
 10
92.98243812779606
 20
-158.378274157454
 10
92.98243812779606
 20
-158.378274157454
 10
92.98243812779606
 20
-158.5112548431847
 10
92.98243812779606
 20
-158.5112548431847
 10
92.93989119855323
 20
-158.5367485497755
 10
92.88804251150022
 20
-158.5684434282398
 10
92.7714260293245
 20
-158.6342447520081
 10
92.7714260293245
 20
-158.6342447520081
 10
92.7714260293245
 20
-158.7799722910341
 10
92.7714260293245
 20
-158.7799722910341
 10
92.7714260293245
 20
-158.7799722910341
 10
92.7714260293245
 20
-159.2474717483826
 10
92.7714260293245
 20
-159.2474717483826
 10
92.7714260293245
 20
-159.3745957717883
 10
92.73990340563448
 20
-159.4338514141346
 10
92.49185653069648
 20
-159.4252386754214
 10
92.49185653069648
 20
-159.4252386754214
 10
92.40107826466015
 20
-159.2178439272094
 10
92.40107826466015
 20
-159.2178439272094
 10
92.45654430197268
 20
-159.2305907805048
 10
92.49926348598977
 20
-159.2350694046356
 10
92.53440345993933
 20
-159.2350694046356
 10
92.6010660575789
 20
-159.2350694046356
 10
92.61036781538908
 20
-159.211642755336
 10
92.61036781538908
 20
-159.1461859411162
 10
92.61036781538908
 20
-159.1461859411162
 10
92.61036781538908
 20
-158.7165825341056
 10
92.61036781538908
 20
-158.7165825341056
 10
92.52510170212914
 20
-158.756890151283
 10
92.51028779154257
 20
-158.7630913231564
 10
92.46963566481662
 20
-158.7820393483253
 10
92.46584605978284
 20
-158.8033989403339
 10
92.46222870952333
 20
-158.833026761507
 10
92.44551999641988
 20
-158.833026761507
 10
92.43811304112659
 20
-158.833026761507
 10
92.4288112833164
 20
-158.8285481373762
 10
92.42329913054001
 20
-158.805465997625
 10
92.42329913054001
 20
-158.805465997625
 10
92.37696259626339
 20
-158.6128851599995
 10
92.37696259626339
 20
-158.6128851599995
 10
92.50477563876618
 20
-158.5663763709487
 10
92.56213647859558
 20
-158.5432942311975
 10
92.61036781538908
 20
-158.5219346391889
 10
92.61036781538908
 20
-158.5219346391889
 10
92.61036781538908
 20
-158.1095567096045
 10
92.61036781538908
 20
-158.1095567096045
 10
92.61036781538908
 20
-158.1095567096045
 10
92.56403128111246
 20
-158.1095567096045
 10
92.56403128111246
 20
-158.1095567096045
 10
92.56403128111246
 20
-158.1095567096045
 10
92.49547388095599
 20
-158.1095567096045
 10
92.49547388095599
 20
-158.1095567096045
 10
92.43621823860969
 20
-158.1095567096045
 10
92.4288112833164
 20
-158.1095567096045
 10
92.39728865962637
 20
-158.115757881478
 10
92.39728865962637
 20
-158.115757881478
 10
92.39728865962637
 20
-157.9211099865614
 10
92.39728865962637
 20
-157.9211099865614
 10
92.42140432802314
 20
-157.9276556679833
 10
92.4288112833164
 20
-157.9276556679833
 10
92.48996172817959
 20
-157.9276556679833
 10
92.48996172817959
 20
-157.9276556679833
 10
92.60657821035531
 20
-157.9276556679833
 10
92.60657821035531
 20
-157.9276556679833
 10
92.60657821035531
 20
-157.8577202296328
 10
92.60657821035531
 20
-157.7750379379868
 10
92.60468340783843
 20
-157.7709038234045
 10
92.59727645254512
 20
-157.5910698390744
 10
92.59727645254512
 20
-157.5721218139056
 10
92.59555390480249
 20
-157.5256130248547
 10
92.59555390480249
 20
-157.5256130248547
 10
92.78434513739419
 20
-157.5338812540193
 10
92.78434513739419
 20
-157.5338812540193
 10
92.79364689520438
 20
-157.5338812540193
 10
92.81207815605046
 20
-157.536292820859
 10
92.81207815605046
 20
-157.5531737887367
 10
92.81207815605046
 20
-157.5721218139056
 10
92.79915904798077
 20
-157.5828016099098
 10
92.7769381821009
 20
-157.6017496350787
 10
92.7769381821009
 20
-157.6523925387119
 10
92.7714260293245
 20
-157.8811468789325
 10
92.77332083184139
 20
-157.9276556679833
 10
92.88614770898332
 20
-157.9276556679833
 10
92.89734426931039
 20
-157.9276556679833
 10
92.98243812779606
 20
-157.9190429292702
 10
92.98243812779606
 20
-157.9190429292702
 10
92.98243812779606
 20
-158.1136908241868
 10
92.98243812779606
 20
-158.1136908241868
 10
92.9491929563634
 20
-158.1116237668957
 10
92.8899373140171
 20
-158.1074896523134
 10
92.7714260293245
 20
-158.1095567096045
 10
92.7714260293245
 20
-158.1095567096045
 10
92.7714260293245
 20
-158.4478650862561
 10
92.7714260293245
 20
-158.4478650862561
 10
92.81948511134373
 20
-158.4247829465049
 10
92.87701820594742
 20
-158.3972221826229
 10
92.91956513519025
 20
-158.3737955333232
 10
92.91956513519025
 20
-158.3737955333232
 10
92.91956513519025
 20
-158.1960286062843
 10
92.91956513519025
 20
-158.1960286062843
 10
93.0194729042625
 20
-158.2087754595797
 10
93.12317027836853
 20
-158.2087754595797
 10
93.2251451047319
 20
-158.2087754595797
 10
93.20464678659467
 20
-158.1136908241868
 10
93.1807033729722
 20
-158.0310085325408
 10
93.1250650808854
 20
-157.8980278468102
 10
93.08613550190207
 20
-157.9000949041013
 10
93.01396075148609
 20
-157.9042290186837
 10
92.98071558005345
 20
-157.9062960759748
 10
92.98071558005345
 20
-157.9062960759748
 10
92.98071558005345
 20
-157.7264620916448
 10
92.98071558005345
 20
-157.7264620916448
 10
93.08992510693585
 20
-157.7350748303579
 10
93.24168156306111
 20
-157.7392089449402
 10
93.31402856825135
 20
-157.7392089449402
 10
93.31402856825135
 20
-157.7392089449402
 10
93.38620331866733
 20
-157.7392089449402
 10
93.38620331866733
 20
-157.7392089449402
 10
93.38620331866733
 20
-157.5762559284879
 10
93.38620331866733
 20
-157.5659206420321
 10
93.38430851615045
 20
-157.5107991142681
 10
93.38430851615045
 20
-157.5107991142681
 10
93.58067895880969
 20
-157.536292820859
 10
93.58067895880969
 20
-157.536292820859
 10
93.5842963090692
 20
-157.536292820859
 10
93.60289982468955
 20
-157.5383598781501
 10
93.60289982468955
 20
-157.5552408460278
 10
93.60289982468955
 20
-157.5700547566144
 10
93.59359806687939
 20
-157.578322985779
 10
93.56948239848263
 20
-157.5931368963656
 10
93.56397024570624
 20
-157.6589382201339
 10
93.56207544318934
 20
-157.6799533025939
 10
93.56207544318934
 20
-157.7392089449402
 10
93.56207544318934
 20
-157.7392089449402
 10
93.64544675393238
 20
-157.7392089449402
 10
93.64544675393238
 20
-157.7392089449402
 10
93.71762150434838
 20
-157.7392089449402
 10
93.86955021524789
 20
-157.7350748303579
 10
93.97875974213031
 20
-157.7264620916448
 10
93.97875974213031
 20
-157.7264620916448
 10
93.97875974213031
 20
-157.9062960759748
 10
93.97875974213031
 20
-157.9062960759748
 10
93.95274927121667
 20
-157.9042290186837
 10
93.84905189711066
 20
-157.9000949041013
 10
93.81391192316112
 20
-157.8980278468102
 10
93.80099281509142
 20
-157.9486707504434
 10
93.77136499391827
 20
-158.060636353714
 10
93.71400415408887
 20
-158.2005072304151
 10
93.75103893055529
 20
-158.2005072304151
 10
93.99357365271688
 20
-158.1812146956977
 10
94.04731714228679
 20
-158.1791476384066
 10
94.04731714228679
 20
-158.1791476384066
 10
94.04731714228679
 20
-158.3634602468674
 10
94.04731714228679
 20
-158.3634602468674
 10
94.02130667137315
 20
-158.3634602468674
 10
94.00649276078658
 20
-158.3589816227366
 10
93.86386580769723
 20
-158.3589816227366
 97
        0
 97
        1
330
BE
 75
     2
 76
     1
 98
        1
 10
0.0
 20
0.0
450
        0
451
        0
460
0.0
461
0.0
452
        0
462
0.0
453
        0
470

  0
SPLINE
  5
C0
330
B8
100
AcDbEntity
  8
レイヤー 1
100
AcDbSpline
210
0.0
220
0.0
230
1.0
 70
    11
 71
     3
 72
    17
 73
    13
 74
     0
 42
0.0000000001
 43
0.0000000001
 40
0.0
 40
0.0
 40
0.0
 40
0.0
 40
1.0
 40
1.0
 40
1.0
 40
2.0
 40
2.0
 40
2.0
 40
3.0
 40
3.0
 40
3.0
 40
4.0
 40
4.0
 40
4.0
 40
4.0
 10
95.49012313150942
 20
-159.1585882848631
 30
0.0
 10
95.49012313150942
 20
-159.1585882848631
 30
0.0
 10
94.87172849190708
 20
-159.1585882848631
 30
0.0
 10
94.87172849190708
 20
-159.1585882848631
 30
0.0
 10
94.87172849190708
 20
-159.1585882848631
 30
0.0
 10
94.87172849190708
 20
-159.2729654549734
 30
0.0
 10
94.87172849190708
 20
-159.2729654549734
 30
0.0
 10
94.87172849190708
 20
-159.2729654549734
 30
0.0
 10
95.49012313150942
 20
-159.2729654549734
 30
0.0
 10
95.49012313150942
 20
-159.2729654549734
 30
0.0
 10
95.49012313150942
 20
-159.2729654549734
 30
0.0
 10
95.49012313150942
 20
-159.1585882848631
 30
0.0
 10
95.49012313150942
 20
-159.1585882848631
 30
0.0
  0
SPLINE
  5
C1
330
B8
100
AcDbEntity
  8
レイヤー 1
100
AcDbSpline
210
0.0
220
0.0
230
1.0
 70
    11
 71
     3
 72
    17
 73
    13
 74
     0
 42
0.0000000001
 43
0.0000000001
 40
0.0
 40
0.0
 40
0.0
 40
0.0
 40
1.0
 40
1.0
 40
1.0
 40
2.0
 40
2.0
 40
2.0
 40
3.0
 40
3.0
 40
3.0
 40
4.0
 40
4.0
 40
4.0
 40
4.0
 10
95.49012313150942
 20
-158.9153645436045
 30
0.0
 10
95.49012313150942
 20
-158.9153645436045
 30
0.0
 10
94.87172849190708
 20
-158.9153645436045
 30
0.0
 10
94.87172849190708
 20
-158.9153645436045
 30
0.0
 10
94.87172849190708
 20
-158.9153645436045
 30
0.0
 10
94.87172849190708
 20
-159.0297417137148
 30
0.0
 10
94.87172849190708
 20
-159.0297417137148
 30
0.0
 10
94.87172849190708
 20
-159.0297417137148
 30
0.0
 10
95.49012313150942
 20
-159.0297417137148
 30
0.0
 10
95.49012313150942
 20
-159.0297417137148
 30
0.0
 10
95.49012313150942
 20
-159.0297417137148
 30
0.0
 10
95.49012313150942
 20
-158.9153645436045
 30
0.0
 10
95.49012313150942
 20
-158.9153645436045
 30
0.0
  0
SPLINE
  5
C2
330
B8
100
AcDbEntity
  8
レイヤー 1
100
AcDbSpline
210
0.0
220
0.0
230
1.0
 70
    11
 71
     3
 72
    17
 73
    13
 74
     0
 42
0.0000000001
 43
0.0000000001
 40
0.0
 40
0.0
 40
0.0
 40
0.0
 40
1.0
 40
1.0
 40
1.0
 40
2.0
 40
2.0
 40
2.0
 40
3.0
 40
3.0
 40
3.0
 40
4.0
 40
4.0
 40
4.0
 40
4.0
 10
95.49012313150942
 20
-158.6828205983501
 30
0.0
 10
95.49012313150942
 20
-158.6828205983501
 30
0.0
 10
94.87172849190708
 20
-158.6828205983501
 30
0.0
 10
94.87172849190708
 20
-158.6828205983501
 30
0.0
 10
94.87172849190708
 20
-158.6828205983501
 30
0.0
 10
94.87172849190708
 20
-158.7906520870384
 30
0.0
 10
94.87172849190708
 20
-158.7906520870384
 30
0.0
 10
94.87172849190708
 20
-158.7906520870384
 30
0.0
 10
95.49012313150942
 20
-158.7906520870384
 30
0.0
 10
95.49012313150942
 20
-158.7906520870384
 30
0.0
 10
95.49012313150942
 20
-158.7906520870384
 30
0.0
 10
95.49012313150942
 20
-158.6828205983501
 30
0.0
 10
95.49012313150942
 20
-158.6828205983501
 30
0.0
  0
SPLINE
  5
C3
330
B8
100
AcDbEntity
  8
レイヤー 1
100
AcDbSpline
210
0.0
220
0.0
230
1.0
 70
     9
 71
     3
 72
   203
 73
   199
 74
     0
 42
0.0000000001
 43
0.0000000001
 40
0.0
 40
0.0
 40
0.0
 40
0.0
 40
1.0
 40
1.0
 40
1.0
 40
2.0
 40
2.0
 40
2.0
 40
3.0
 40
3.0
 40
3.0
 40
4.0
 40
4.0
 40
4.0
 40
5.0
 40
5.0
 40
5.0
 40
6.0
 40
6.0
 40
6.0
 40
7.0
 40
7.0
 40
7.0
 40
8.0
 40
8.0
 40
8.0
 40
9.0
 40
9.0
 40
9.0
 40
10.0
 40
10.0
 40
10.0
 40
11.0
 40
11.0
 40
11.0
 40
12.0
 40
12.0
 40
12.0
 40
13.0
 40
13.0
 40
13.0
 40
14.0
 40
14.0
 40
14.0
 40
15.0
 40
15.0
 40
15.0
 40
16.0
 40
16.0
 40
16.0
 40
17.0
 40
17.0
 40
17.0
 40
18.0
 40
18.0
 40
18.0
 40
19.0
 40
19.0
 40
19.0
 40
20.0
 40
20.0
 40
20.0
 40
21.0
 40
21.0
 40
21.0
 40
22.0
 40
22.0
 40
22.0
 40
23.0
 40
23.0
 40
23.0
 40
24.0
 40
24.0
 40
24.0
 40
25.0
 40
25.0
 40
25.0
 40
26.0
 40
26.0
 40
26.0
 40
27.0
 40
27.0
 40
27.0
 40
28.0
 40
28.0
 40
28.0
 40
29.0
 40
29.0
 40
29.0
 40
30.0
 40
30.0
 40
30.0
 40
31.0
 40
31.0
 40
31.0
 40
32.0
 40
32.0
 40
32.0
 40
33.0
 40
33.0
 40
33.0
 40
34.0
 40
34.0
 40
34.0
 40
35.0
 40
35.0
 40
35.0
 40
36.0
 40
36.0
 40
36.0
 40
37.0
 40
37.0
 40
37.0
 40
38.0
 40
38.0
 40
38.0
 40
39.0
 40
39.0
 40
39.0
 40
40.0
 40
40.0
 40
40.0
 40
41.0
 40
41.0
 40
41.0
 40
42.0
 40
42.0
 40
42.0
 40
43.0
 40
43.0
 40
43.0
 40
44.0
 40
44.0
 40
44.0
 40
45.0
 40
45.0
 40
45.0
 40
46.0
 40
46.0
 40
46.0
 40
47.0
 40
47.0
 40
47.0
 40
48.0
 40
48.0
 40
48.0
 40
49.0
 40
49.0
 40
49.0
 40
50.0
 40
50.0
 40
50.0
 40
51.0
 40
51.0
 40
51.0
 40
52.0
 40
52.0
 40
52.0
 40
53.0
 40
53.0
 40
53.0
 40
54.0
 40
54.0
 40
54.0
 40
55.0
 40
55.0
 40
55.0
 40
56.0
 40
56.0
 40
56.0
 40
57.0
 40
57.0
 40
57.0
 40
58.0
 40
58.0
 40
58.0
 40
59.0
 40
59.0
 40
59.0
 40
60.0
 40
60.0
 40
60.0
 40
61.0
 40
61.0
 40
61.0
 40
62.0
 40
62.0
 40
62.0
 40
63.0
 40
63.0
 40
63.0
 40
64.0
 40
64.0
 40
64.0
 40
65.0
 40
65.0
 40
65.0
 40
66.0
 40
66.0
 40
66.0
 40
66.0
 10
95.34577363067745
 20
-158.426850003796
 30
0.0
 10
95.34577363067745
 20
-158.426850003796
 30
0.0
 10
94.8569145813205
 20
-158.426850003796
 30
0.0
 10
94.8569145813205
 20
-158.426850003796
 30
0.0
 10
94.84761282351032
 20
-158.4712917355558
 30
0.0
 10
94.84020586821705
 20
-158.5029866140201
 30
0.0
 10
94.82900930788998
 20
-158.5408826643578
 30
0.0
 10
94.85140242854409
 20
-158.5408826643578
 30
0.0
 10
94.86432153661379
 20
-158.5432942311975
 30
0.0
 10
94.8698336893902
 20
-158.5432942311975
 30
0.0
 10
94.8698336893902
 20
-158.5432942311975
 30
0.0
 10
95.03468150835939
 20
-158.5432942311975
 30
0.0
 10
95.03468150835939
 20
-158.5432942311975
 30
0.0
 10
95.03468150835939
 20
-158.5432942311975
 30
0.0
 10
95.36231008900665
 20
-158.5432942311975
 30
0.0
 10
95.36231008900665
 20
-158.5432942311975
 30
0.0
 10
95.40675182076638
 20
-158.5432942311975
 30
0.0
 10
95.65497095047863
 20
-158.5305473779021
 30
0.0
 10
95.68270396913488
 20
-158.5305473779021
 30
0.0
 10
95.68098142139225
 20
-158.5577636322355
 30
0.0
 10
95.67908661887537
 20
-158.5770561669529
 30
0.0
 10
95.67908661887537
 20
-158.6066839881261
 30
0.0
 10
95.67719181635849
 20
-158.6383788665904
 30
0.0
 10
95.67719181635849
 20
-158.7737711191607
 30
0.0
 10
95.67719181635849
 20
-158.8013318830427
 30
0.0
 10
95.67719181635849
 20
-158.8013318830427
 30
0.0
 10
95.67719181635849
 20
-159.0466226815925
 30
0.0
 10
95.67719181635849
 20
-159.0466226815925
 30
0.0
 10
95.67719181635849
 20
-159.0910644133522
 30
0.0
 10
95.68098142139225
 20
-159.28777936556
 30
0.0
 10
95.68459877165178
 20
-159.440052586008
 30
0.0
 10
95.68459877165178
 20
-159.440052586008
 30
0.0
 10
95.48650578124989
 20
-159.440052586008
 30
0.0
 10
95.48650578124989
 20
-159.440052586008
 30
0.0
 10
95.48650578124989
 20
-159.440052586008
 30
0.0
 10
95.48840058376679
 20
-159.4062906502526
 30
0.0
 10
95.48840058376679
 20
-159.4062906502526
 30
0.0
 10
95.48840058376679
 20
-159.4062906502526
 30
0.0
 10
94.87345103964969
 20
-159.4062906502526
 30
0.0
 10
94.87345103964969
 20
-159.4062906502526
 30
0.0
 10
94.87345103964969
 20
-159.4062906502526
 30
0.0
 10
94.87534584216659
 20
-159.440052586008
 30
0.0
 10
94.87534584216659
 20
-159.440052586008
 30
0.0
 10
94.87534584216659
 20
-159.440052586008
 30
0.0
 10
94.68465980705801
 20
-159.440052586008
 30
0.0
 10
94.68465980705801
 20
-159.440052586008
 30
0.0
 10
94.68844941209178
 20
-159.384931058244
 30
0.0
 10
94.68844941209178
 20
-159.3725287144971
 30
0.0
 10
94.69396156486817
 20
-159.2581515443868
 30
0.0
 10
94.6956841126108
 20
-159.2305907805048
 30
0.0
 10
94.69757891512768
 20
-159.0972655852257
 30
0.0
 10
94.69757891512768
 20
-159.0783175600568
 30
0.0
 10
94.69757891512768
 20
-159.0783175600568
 30
0.0
 10
94.69757891512768
 20
-158.8754014359756
 30
0.0
 10
94.69757891512768
 20
-158.8754014359756
 30
0.0
 10
94.57545028017559
 20
-159.1248263491076
 30
0.0
 10
94.42731117430986
 20
-159.2560844870957
 30
0.0
 10
94.33463810575663
 20
-159.3215413013154
 30
0.0
 10
94.33463810575663
 20
-159.3215413013154
 30
0.0
 10
94.18288164963136
 20
-159.1820149341628
 30
0.0
 10
94.18288164963136
 20
-159.1820149341628
 30
0.0
 10
94.26056855282375
 20
-159.1313720305296
 30
0.0
 10
94.38648679280964
 20
-159.0445556243014
 30
0.0
 10
94.5068928800191
 20
-158.8499077293847
 30
0.0
 10
94.58647458572839
 20
-158.722783705979
 30
0.0
 10
94.64400768033206
 20
-158.5791232242441
 30
0.0
 10
94.67363550150521
 20
-158.426850003796
 30
0.0
 10
94.47347545381218
 20
-158.4289170610872
 30
0.0
 10
94.31620684491054
 20
-158.4351182329606
 30
0.0
 10
94.2328355341675
 20
-158.4371852902518
 30
0.0
 10
94.2328355341675
 20
-158.4371852902518
 30
0.0
 10
94.2328355341675
 20
-158.2597628727614
 30
0.0
 10
94.2328355341675
 20
-158.2597628727614
 30
0.0
 10
94.40509030842997
 20
-158.2659640446349
 30
0.0
 10
94.65313718336798
 20
-158.2700981592172
 30
0.0
 10
94.78456757613026
 20
-158.2700981592172
 30
0.0
 10
94.78456757613026
 20
-158.2700981592172
 30
0.0
 10
94.97163626097933
 20
-158.2700981592172
 30
0.0
 10
94.97163626097933
 20
-158.2700981592172
 30
0.0
 10
94.97163626097933
 20
-158.2700981592172
 30
0.0
 10
94.97163626097933
 20
-158.1622666705289
 30
0.0
 10
94.97163626097933
 20
-158.1622666705289
 30
0.0
 10
94.97163626097933
 20
-158.1622666705289
 30
0.0
 10
94.84382321847654
 20
-158.1622666705289
 30
0.0
 10
94.84382321847654
 20
-158.1622666705289
 30
0.0
 10
94.6956841126108
 20
-158.1622666705289
 30
0.0
 10
94.54754500674507
 20
-158.1664007851112
 30
0.0
 10
94.4013007033962
 20
-158.1729464665331
 30
0.0
 10
94.4013007033962
 20
-158.1729464665331
 30
0.0
 10
94.4013007033962
 20
-158.0017252209162
 30
0.0
 10
94.4013007033962
 20
-158.0017252209162
 30
0.0
 10
94.53652070119225
 20
-158.012060507372
 30
0.0
 10
94.69947371764458
 20
-158.012060507372
 30
0.0
 10
94.84382321847654
 20
-158.012060507372
 30
0.0
 10
94.84382321847654
 20
-158.012060507372
 30
0.0
 10
94.97163626097933
 20
-158.012060507372
 30
0.0
 10
94.97163626097933
 20
-158.012060507372
 30
0.0
 10
94.97163626097933
 20
-158.012060507372
 30
0.0
 10
94.97163626097933
 20
-157.8935492226794
 30
0.0
 10
94.97163626097933
 20
-157.8935492226794
 30
0.0
 10
94.97163626097933
 20
-157.8935492226794
 30
0.0
 10
94.8569145813205
 20
-157.8935492226794
 30
0.0
 10
94.8569145813205
 20
-157.8935492226794
 30
0.0
 10
94.81609019982029
 20
-157.8935492226794
 30
0.0
 10
94.63832327278138
 20
-157.9021619613925
 30
0.0
 10
94.60128849631496
 20
-157.9021619613925
 30
0.0
 10
94.42352156927606
 20
-157.9062960759748
 30
0.0
 10
94.35685897163649
 20
-157.9083631332659
 30
0.0
 10
94.28847382625427
 20
-157.9104301905571
 30
0.0
 10
94.28847382625427
 20
-157.9104301905571
 30
0.0
 10
94.28847382625427
 20
-157.7264620916448
 30
0.0
 10
94.28847382625427
 20
-157.7264620916448
 30
0.0
 10
94.38838159532652
 20
-157.7350748303579
 30
0.0
 10
94.42731117430986
 20
-157.7350748303579
 30
0.0
 10
94.76251896502466
 20
-157.7433430595225
 30
0.0
 10
94.70688067293787
 20
-157.6482584241296
 30
0.0
 10
94.68276500454113
 20
-157.6206976602476
 30
0.0
 10
94.65124238085108
 20
-157.584868667201
 30
0.0
 10
94.65124238085108
 20
-157.584868667201
 30
0.0
 10
94.80506589426749
 20
-157.502186375555
 30
0.0
 10
94.80506589426749
 20
-157.502186375555
 30
0.0
 10
94.84020586821705
 20
-157.5383598781501
 30
0.0
 10
94.87913544720035
 20
-157.5807345526187
 30
0.0
 10
94.94390324232305
 20
-157.6906330985981
 30
0.0
 10
94.94390324232305
 20
-157.6906330985981
 30
0.0
 10
94.84382321847654
 20
-157.7454101168136
 30
0.0
 10
94.84382321847654
 20
-157.7454101168136
 30
0.0
 10
94.84382321847654
 20
-157.7454101168136
 30
0.0
 10
94.85312497628672
 20
-157.7454101168136
 30
0.0
 10
94.85312497628672
 20
-157.7454101168136
 30
0.0
 10
94.85312497628672
 20
-157.7454101168136
 30
0.0
 10
95.31063365672791
 20
-157.7454101168136
 30
0.0
 10
95.31063365672791
 20
-157.7454101168136
 30
0.0
 10
95.31063365672791
 20
-157.7454101168136
 30
0.0
 10
95.22726234598485
 20
-157.7013128946024
 30
0.0
 10
95.22726234598485
 20
-157.7013128946024
 30
0.0
 10
95.25137801438161
 20
-157.6630723347162
 30
0.0
 10
95.30133189891772
 20
-157.5828016099098
 30
0.0
 10
95.31425100698742
 20
-157.5087320569769
 30
0.0
 10
95.31425100698742
 20
-157.5087320569769
 30
0.0
 10
95.50131969183649
 20
-157.5721218139056
 30
0.0
 10
95.50131969183649
 20
-157.5721218139056
 30
0.0
 10
95.50872664712976
 20
-157.5741888711967
 30
0.0
 10
95.52715790797584
 20
-157.584868667201
 30
0.0
 10
95.52715790797584
 20
-157.605883749661
 30
0.0
 10
95.52715790797584
 20
-157.6441243095473
 30
0.0
 10
95.46979706814644
 20
-157.6441243095473
 30
0.0
 10
95.45308835504298
 20
-157.6441243095473
 30
0.0
 10
95.44395885200707
 20
-157.6630723347162
 30
0.0
 10
95.42346053386983
 20
-157.7033799518936
 30
0.0
 10
95.39762231773046
 20
-157.7433430595225
 30
0.0
 10
95.74747176425757
 20
-157.737141887649
 30
0.0
 10
95.77348223517121
 20
-157.7350748303579
 30
0.0
 10
95.8401448328108
 20
-157.7285291489359
 30
0.0
 10
95.8401448328108
 20
-157.7285291489359
 30
0.0
 10
95.8401448328108
 20
-157.9104301905571
 30
0.0
 10
95.8401448328108
 20
-157.9104301905571
 30
0.0
 10
95.82343611970733
 20
-157.9104301905571
 30
0.0
 10
95.80121525382748
 20
-157.9083631332659
 30
0.0
 10
95.60863441620201
 20
-157.9000949041013
 30
0.0
 10
95.56419268444228
 20
-157.8980278468102
 30
0.0
 10
95.37161184681682
 20
-157.8935492226794
 30
0.0
 10
95.3326822678335
 20
-157.8935492226794
 30
0.0
 10
95.3326822678335
 20
-157.8935492226794
 30
0.0
 10
95.1438910352418
 20
-157.8935492226794
 30
0.0
 10
95.1438910352418
 20
-157.8935492226794
 30
0.0
 10
95.1438910352418
 20
-157.8935492226794
 30
0.0
 10
95.1438910352418
 20
-158.012060507372
 30
0.0
 10
95.1438910352418
 20
-158.012060507372
 30
0.0
 10
95.1438910352418
 20
-158.012060507372
 30
0.0
 10
95.29581974614133
 20
-158.012060507372
 30
0.0
 10
95.29581974614133
 20
-158.012060507372
 30
0.0
 10
95.43827444445641
 20
-158.012060507372
 30
0.0
 10
95.6050170659425
 20
-158.012060507372
 30
0.0
 10
95.74195961148118
 20
-158.0017252209162
 30
0.0
 10
95.74195961148118
 20
-158.0017252209162
 30
0.0
 10
95.74195961148118
 20
-158.1729464665331
 30
0.0
 10
95.74195961148118
 20
-158.1729464665331
 30
0.0
 10
95.55868053166589
 20
-158.16433372782
 30
0.0
 10
95.3864257574034
 20
-158.1622666705289
 30
0.0
 10
95.29581974614133
 20
-158.1622666705289
 30
0.0
 10
95.29581974614133
 20
-158.1622666705289
 30
0.0
 10
95.1438910352418
 20
-158.1622666705289
 30
0.0
 10
95.1438910352418
 20
-158.1622666705289
 30
0.0
 10
95.1438910352418
 20
-158.1622666705289
 30
0.0
 10
95.1438910352418
 20
-158.2700981592172
 30
0.0
 10
95.1438910352418
 20
-158.2700981592172
 30
0.0
 10
95.1438910352418
 20
-158.2700981592172
 30
0.0
 10
95.34577363067745
 20
-158.2700981592172
 30
0.0
 10
95.34577363067745
 20
-158.2700981592172
 30
0.0
 10
95.46239011285315
 20
-158.2700981592172
 30
0.0
 10
95.71422659282491
 20
-158.2659640446349
 30
0.0
 10
95.89750567264021
 20
-158.2597628727614
 30
0.0
 10
95.89750567264021
 20
-158.2597628727614
 30
0.0
 10
95.89750567264021
 20
-158.4371852902518
 30
0.0
 10
95.89750567264021
 20
-158.4371852902518
 30
0.0
 10
95.72904050341149
 20
-158.4309841183783
 30
0.0
 10
95.45498315755986
 20
-158.426850003796
 30
0.0
 10
95.34577363067745
 20
-158.426850003796
 30
0.0
  0
HATCH
  5
C4
330
B8
100
AcDbEntity
  8
レイヤー 1
 62
   250
420
  2299925
440
 33554687
100
AcDbHatch
 10
0.0
 20
0.0
 30
0.0
210
0.0
220
0.0
230
1.0
  2
SOLID
 70
     1
 71
     1
 91
        4
 92
        1
 93
        1
 72
     4
 94
        3
 73
     0
 74
     0
 95
       17
 96
       13
 40
0.0
 40
0.0
 40
0.0
 40
0.0
 40
1.0
 40
1.0
 40
1.0
 40
2.0
 40
2.0
 40
2.0
 40
3.0
 40
3.0
 40
3.0
 40
4.0
 40
4.0
 40
4.0
 40
4.0
 10
95.49012313150942
 20
-159.1585882848631
 10
95.49012313150942
 20
-159.1585882848631
 10
94.87172849190708
 20
-159.1585882848631
 10
94.87172849190708
 20
-159.1585882848631
 10
94.87172849190708
 20
-159.1585882848631
 10
94.87172849190708
 20
-159.2729654549734
 10
94.87172849190708
 20
-159.2729654549734
 10
94.87172849190708
 20
-159.2729654549734
 10
95.49012313150942
 20
-159.2729654549734
 10
95.49012313150942
 20
-159.2729654549734
 10
95.49012313150942
 20
-159.2729654549734
 10
95.49012313150942
 20
-159.1585882848631
 10
95.49012313150942
 20
-159.1585882848631
 97
        0
 97
        1
330
C0
 92
        1
 93
        1
 72
     4
 94
        3
 73
     0
 74
     0
 95
       17
 96
       13
 40
0.0
 40
0.0
 40
0.0
 40
0.0
 40
1.0
 40
1.0
 40
1.0
 40
2.0
 40
2.0
 40
2.0
 40
3.0
 40
3.0
 40
3.0
 40
4.0
 40
4.0
 40
4.0
 40
4.0
 10
95.49012313150942
 20
-158.9153645436045
 10
95.49012313150942
 20
-158.9153645436045
 10
94.87172849190708
 20
-158.9153645436045
 10
94.87172849190708
 20
-158.9153645436045
 10
94.87172849190708
 20
-158.9153645436045
 10
94.87172849190708
 20
-159.0297417137148
 10
94.87172849190708
 20
-159.0297417137148
 10
94.87172849190708
 20
-159.0297417137148
 10
95.49012313150942
 20
-159.0297417137148
 10
95.49012313150942
 20
-159.0297417137148
 10
95.49012313150942
 20
-159.0297417137148
 10
95.49012313150942
 20
-158.9153645436045
 10
95.49012313150942
 20
-158.9153645436045
 97
        0
 97
        1
330
C1
 92
        1
 93
        1
 72
     4
 94
        3
 73
     0
 74
     0
 95
       17
 96
       13
 40
0.0
 40
0.0
 40
0.0
 40
0.0
 40
1.0
 40
1.0
 40
1.0
 40
2.0
 40
2.0
 40
2.0
 40
3.0
 40
3.0
 40
3.0
 40
4.0
 40
4.0
 40
4.0
 40
4.0
 10
95.49012313150942
 20
-158.6828205983501
 10
95.49012313150942
 20
-158.6828205983501
 10
94.87172849190708
 20
-158.6828205983501
 10
94.87172849190708
 20
-158.6828205983501
 10
94.87172849190708
 20
-158.6828205983501
 10
94.87172849190708
 20
-158.7906520870384
 10
94.87172849190708
 20
-158.7906520870384
 10
94.87172849190708
 20
-158.7906520870384
 10
95.49012313150942
 20
-158.7906520870384
 10
95.49012313150942
 20
-158.7906520870384
 10
95.49012313150942
 20
-158.7906520870384
 10
95.49012313150942
 20
-158.6828205983501
 10
95.49012313150942
 20
-158.6828205983501
 97
        0
 97
        1
330
C2
 92
        1
 93
        1
 72
     4
 94
        3
 73
     0
 74
     0
 95
      203
 96
      199
 40
0.0
 40
0.0
 40
0.0
 40
0.0
 40
1.0
 40
1.0
 40
1.0
 40
2.0
 40
2.0
 40
2.0
 40
3.0
 40
3.0
 40
3.0
 40
4.0
 40
4.0
 40
4.0
 40
5.0
 40
5.0
 40
5.0
 40
6.0
 40
6.0
 40
6.0
 40
7.0
 40
7.0
 40
7.0
 40
8.0
 40
8.0
 40
8.0
 40
9.0
 40
9.0
 40
9.0
 40
10.0
 40
10.0
 40
10.0
 40
11.0
 40
11.0
 40
11.0
 40
12.0
 40
12.0
 40
12.0
 40
13.0
 40
13.0
 40
13.0
 40
14.0
 40
14.0
 40
14.0
 40
15.0
 40
15.0
 40
15.0
 40
16.0
 40
16.0
 40
16.0
 40
17.0
 40
17.0
 40
17.0
 40
18.0
 40
18.0
 40
18.0
 40
19.0
 40
19.0
 40
19.0
 40
20.0
 40
20.0
 40
20.0
 40
21.0
 40
21.0
 40
21.0
 40
22.0
 40
22.0
 40
22.0
 40
23.0
 40
23.0
 40
23.0
 40
24.0
 40
24.0
 40
24.0
 40
25.0
 40
25.0
 40
25.0
 40
26.0
 40
26.0
 40
26.0
 40
27.0
 40
27.0
 40
27.0
 40
28.0
 40
28.0
 40
28.0
 40
29.0
 40
29.0
 40
29.0
 40
30.0
 40
30.0
 40
30.0
 40
31.0
 40
31.0
 40
31.0
 40
32.0
 40
32.0
 40
32.0
 40
33.0
 40
33.0
 40
33.0
 40
34.0
 40
34.0
 40
34.0
 40
35.0
 40
35.0
 40
35.0
 40
36.0
 40
36.0
 40
36.0
 40
37.0
 40
37.0
 40
37.0
 40
38.0
 40
38.0
 40
38.0
 40
39.0
 40
39.0
 40
39.0
 40
40.0
 40
40.0
 40
40.0
 40
41.0
 40
41.0
 40
41.0
 40
42.0
 40
42.0
 40
42.0
 40
43.0
 40
43.0
 40
43.0
 40
44.0
 40
44.0
 40
44.0
 40
45.0
 40
45.0
 40
45.0
 40
46.0
 40
46.0
 40
46.0
 40
47.0
 40
47.0
 40
47.0
 40
48.0
 40
48.0
 40
48.0
 40
49.0
 40
49.0
 40
49.0
 40
50.0
 40
50.0
 40
50.0
 40
51.0
 40
51.0
 40
51.0
 40
52.0
 40
52.0
 40
52.0
 40
53.0
 40
53.0
 40
53.0
 40
54.0
 40
54.0
 40
54.0
 40
55.0
 40
55.0
 40
55.0
 40
56.0
 40
56.0
 40
56.0
 40
57.0
 40
57.0
 40
57.0
 40
58.0
 40
58.0
 40
58.0
 40
59.0
 40
59.0
 40
59.0
 40
60.0
 40
60.0
 40
60.0
 40
61.0
 40
61.0
 40
61.0
 40
62.0
 40
62.0
 40
62.0
 40
63.0
 40
63.0
 40
63.0
 40
64.0
 40
64.0
 40
64.0
 40
65.0
 40
65.0
 40
65.0
 40
66.0
 40
66.0
 40
66.0
 40
66.0
 10
95.34577363067745
 20
-158.426850003796
 10
95.34577363067745
 20
-158.426850003796
 10
94.8569145813205
 20
-158.426850003796
 10
94.8569145813205
 20
-158.426850003796
 10
94.84761282351032
 20
-158.4712917355558
 10
94.84020586821705
 20
-158.5029866140201
 10
94.82900930788998
 20
-158.5408826643578
 10
94.85140242854409
 20
-158.5408826643578
 10
94.86432153661379
 20
-158.5432942311975
 10
94.8698336893902
 20
-158.5432942311975
 10
94.8698336893902
 20
-158.5432942311975
 10
95.03468150835939
 20
-158.5432942311975
 10
95.03468150835939
 20
-158.5432942311975
 10
95.03468150835939
 20
-158.5432942311975
 10
95.36231008900665
 20
-158.5432942311975
 10
95.36231008900665
 20
-158.5432942311975
 10
95.40675182076638
 20
-158.5432942311975
 10
95.65497095047863
 20
-158.5305473779021
 10
95.68270396913488
 20
-158.5305473779021
 10
95.68098142139225
 20
-158.5577636322355
 10
95.67908661887537
 20
-158.5770561669529
 10
95.67908661887537
 20
-158.6066839881261
 10
95.67719181635849
 20
-158.6383788665904
 10
95.67719181635849
 20
-158.7737711191607
 10
95.67719181635849
 20
-158.8013318830427
 10
95.67719181635849
 20
-158.8013318830427
 10
95.67719181635849
 20
-159.0466226815925
 10
95.67719181635849
 20
-159.0466226815925
 10
95.67719181635849
 20
-159.0910644133522
 10
95.68098142139225
 20
-159.28777936556
 10
95.68459877165178
 20
-159.440052586008
 10
95.68459877165178
 20
-159.440052586008
 10
95.48650578124989
 20
-159.440052586008
 10
95.48650578124989
 20
-159.440052586008
 10
95.48650578124989
 20
-159.440052586008
 10
95.48840058376679
 20
-159.4062906502526
 10
95.48840058376679
 20
-159.4062906502526
 10
95.48840058376679
 20
-159.4062906502526
 10
94.87345103964969
 20
-159.4062906502526
 10
94.87345103964969
 20
-159.4062906502526
 10
94.87345103964969
 20
-159.4062906502526
 10
94.87534584216659
 20
-159.440052586008
 10
94.87534584216659
 20
-159.440052586008
 10
94.87534584216659
 20
-159.440052586008
 10
94.68465980705801
 20
-159.440052586008
 10
94.68465980705801
 20
-159.440052586008
 10
94.68844941209178
 20
-159.384931058244
 10
94.68844941209178
 20
-159.3725287144971
 10
94.69396156486817
 20
-159.2581515443868
 10
94.6956841126108
 20
-159.2305907805048
 10
94.69757891512768
 20
-159.0972655852257
 10
94.69757891512768
 20
-159.0783175600568
 10
94.69757891512768
 20
-159.0783175600568
 10
94.69757891512768
 20
-158.8754014359756
 10
94.69757891512768
 20
-158.8754014359756
 10
94.57545028017559
 20
-159.1248263491076
 10
94.42731117430986
 20
-159.2560844870957
 10
94.33463810575663
 20
-159.3215413013154
 10
94.33463810575663
 20
-159.3215413013154
 10
94.18288164963136
 20
-159.1820149341628
 10
94.18288164963136
 20
-159.1820149341628
 10
94.26056855282375
 20
-159.1313720305296
 10
94.38648679280964
 20
-159.0445556243014
 10
94.5068928800191
 20
-158.8499077293847
 10
94.58647458572839
 20
-158.722783705979
 10
94.64400768033206
 20
-158.5791232242441
 10
94.67363550150521
 20
-158.426850003796
 10
94.47347545381218
 20
-158.4289170610872
 10
94.31620684491054
 20
-158.4351182329606
 10
94.2328355341675
 20
-158.4371852902518
 10
94.2328355341675
 20
-158.4371852902518
 10
94.2328355341675
 20
-158.2597628727614
 10
94.2328355341675
 20
-158.2597628727614
 10
94.40509030842997
 20
-158.2659640446349
 10
94.65313718336798
 20
-158.2700981592172
 10
94.78456757613026
 20
-158.2700981592172
 10
94.78456757613026
 20
-158.2700981592172
 10
94.97163626097933
 20
-158.2700981592172
 10
94.97163626097933
 20
-158.2700981592172
 10
94.97163626097933
 20
-158.2700981592172
 10
94.97163626097933
 20
-158.1622666705289
 10
94.97163626097933
 20
-158.1622666705289
 10
94.97163626097933
 20
-158.1622666705289
 10
94.84382321847654
 20
-158.1622666705289
 10
94.84382321847654
 20
-158.1622666705289
 10
94.6956841126108
 20
-158.1622666705289
 10
94.54754500674507
 20
-158.1664007851112
 10
94.4013007033962
 20
-158.1729464665331
 10
94.4013007033962
 20
-158.1729464665331
 10
94.4013007033962
 20
-158.0017252209162
 10
94.4013007033962
 20
-158.0017252209162
 10
94.53652070119225
 20
-158.012060507372
 10
94.69947371764458
 20
-158.012060507372
 10
94.84382321847654
 20
-158.012060507372
 10
94.84382321847654
 20
-158.012060507372
 10
94.97163626097933
 20
-158.012060507372
 10
94.97163626097933
 20
-158.012060507372
 10
94.97163626097933
 20
-158.012060507372
 10
94.97163626097933
 20
-157.8935492226794
 10
94.97163626097933
 20
-157.8935492226794
 10
94.97163626097933
 20
-157.8935492226794
 10
94.8569145813205
 20
-157.8935492226794
 10
94.8569145813205
 20
-157.8935492226794
 10
94.81609019982029
 20
-157.8935492226794
 10
94.63832327278138
 20
-157.9021619613925
 10
94.60128849631496
 20
-157.9021619613925
 10
94.42352156927606
 20
-157.9062960759748
 10
94.35685897163649
 20
-157.9083631332659
 10
94.28847382625427
 20
-157.9104301905571
 10
94.28847382625427
 20
-157.9104301905571
 10
94.28847382625427
 20
-157.7264620916448
 10
94.28847382625427
 20
-157.7264620916448
 10
94.38838159532652
 20
-157.7350748303579
 10
94.42731117430986
 20
-157.7350748303579
 10
94.76251896502466
 20
-157.7433430595225
 10
94.70688067293787
 20
-157.6482584241296
 10
94.68276500454113
 20
-157.6206976602476
 10
94.65124238085108
 20
-157.584868667201
 10
94.65124238085108
 20
-157.584868667201
 10
94.80506589426749
 20
-157.502186375555
 10
94.80506589426749
 20
-157.502186375555
 10
94.84020586821705
 20
-157.5383598781501
 10
94.87913544720035
 20
-157.5807345526187
 10
94.94390324232305
 20
-157.6906330985981
 10
94.94390324232305
 20
-157.6906330985981
 10
94.84382321847654
 20
-157.7454101168136
 10
94.84382321847654
 20
-157.7454101168136
 10
94.84382321847654
 20
-157.7454101168136
 10
94.85312497628672
 20
-157.7454101168136
 10
94.85312497628672
 20
-157.7454101168136
 10
94.85312497628672
 20
-157.7454101168136
 10
95.31063365672791
 20
-157.7454101168136
 10
95.31063365672791
 20
-157.7454101168136
 10
95.31063365672791
 20
-157.7454101168136
 10
95.22726234598485
 20
-157.7013128946024
 10
95.22726234598485
 20
-157.7013128946024
 10
95.25137801438161
 20
-157.6630723347162
 10
95.30133189891772
 20
-157.5828016099098
 10
95.31425100698742
 20
-157.5087320569769
 10
95.31425100698742
 20
-157.5087320569769
 10
95.50131969183649
 20
-157.5721218139056
 10
95.50131969183649
 20
-157.5721218139056
 10
95.50872664712976
 20
-157.5741888711967
 10
95.52715790797584
 20
-157.584868667201
 10
95.52715790797584
 20
-157.605883749661
 10
95.52715790797584
 20
-157.6441243095473
 10
95.46979706814644
 20
-157.6441243095473
 10
95.45308835504298
 20
-157.6441243095473
 10
95.44395885200707
 20
-157.6630723347162
 10
95.42346053386983
 20
-157.7033799518936
 10
95.39762231773046
 20
-157.7433430595225
 10
95.74747176425757
 20
-157.737141887649
 10
95.77348223517121
 20
-157.7350748303579
 10
95.8401448328108
 20
-157.7285291489359
 10
95.8401448328108
 20
-157.7285291489359
 10
95.8401448328108
 20
-157.9104301905571
 10
95.8401448328108
 20
-157.9104301905571
 10
95.82343611970733
 20
-157.9104301905571
 10
95.80121525382748
 20
-157.9083631332659
 10
95.60863441620201
 20
-157.9000949041013
 10
95.56419268444228
 20
-157.8980278468102
 10
95.37161184681682
 20
-157.8935492226794
 10
95.3326822678335
 20
-157.8935492226794
 10
95.3326822678335
 20
-157.8935492226794
 10
95.1438910352418
 20
-157.8935492226794
 10
95.1438910352418
 20
-157.8935492226794
 10
95.1438910352418
 20
-157.8935492226794
 10
95.1438910352418
 20
-158.012060507372
 10
95.1438910352418
 20
-158.012060507372
 10
95.1438910352418
 20
-158.012060507372
 10
95.29581974614133
 20
-158.012060507372
 10
95.29581974614133
 20
-158.012060507372
 10
95.43827444445641
 20
-158.012060507372
 10
95.6050170659425
 20
-158.012060507372
 10
95.74195961148118
 20
-158.0017252209162
 10
95.74195961148118
 20
-158.0017252209162
 10
95.74195961148118
 20
-158.1729464665331
 10
95.74195961148118
 20
-158.1729464665331
 10
95.55868053166589
 20
-158.16433372782
 10
95.3864257574034
 20
-158.1622666705289
 10
95.29581974614133
 20
-158.1622666705289
 10
95.29581974614133
 20
-158.1622666705289
 10
95.1438910352418
 20
-158.1622666705289
 10
95.1438910352418
 20
-158.1622666705289
 10
95.1438910352418
 20
-158.1622666705289
 10
95.1438910352418
 20
-158.2700981592172
 10
95.1438910352418
 20
-158.2700981592172
 10
95.1438910352418
 20
-158.2700981592172
 10
95.34577363067745
 20
-158.2700981592172
 10
95.34577363067745
 20
-158.2700981592172
 10
95.46239011285315
 20
-158.2700981592172
 10
95.71422659282491
 20
-158.2659640446349
 10
95.89750567264021
 20
-158.2597628727614
 10
95.89750567264021
 20
-158.2597628727614
 10
95.89750567264021
 20
-158.4371852902518
 10
95.89750567264021
 20
-158.4371852902518
 10
95.72904050341149
 20
-158.4309841183783
 10
95.45498315755986
 20
-158.426850003796
 10
95.34577363067745
 20
-158.426850003796
 97
        0
 97
        1
330
C3
 75
     2
 76
     1
 98
        1
 10
0.0
 20
0.0
450
        0
451
        0
460
0.0
461
0.0
452
        0
462
0.0
453
        0
470

  0
SPLINE
  5
C5
330
B8
100
AcDbEntity
  8
レイヤー 1
100
AcDbSpline
210
0.0
220
0.0
230
1.0
 70
     9
 71
     3
 72
    29
 73
    25
 74
     0
 42
0.0000000001
 43
0.0000000001
 40
0.0
 40
0.0
 40
0.0
 40
0.0
 40
1.0
 40
1.0
 40
1.0
 40
2.0
 40
2.0
 40
2.0
 40
3.0
 40
3.0
 40
3.0
 40
4.0
 40
4.0
 40
4.0
 40
5.0
 40
5.0
 40
5.0
 40
6.0
 40
6.0
 40
6.0
 40
7.0
 40
7.0
 40
7.0
 40
8.0
 40
8.0
 40
8.0
 40
8.0
 10
96.98856741281884
 20
-157.8746011975105
 30
0.0
 10
96.98856741281884
 20
-157.8746011975105
 30
0.0
 10
96.67937009301766
 20
-157.8746011975105
 30
0.0
 10
96.67937009301766
 20
-157.8746011975105
 30
0.0
 10
96.58118487168804
 20
-157.8746011975105
 30
0.0
 10
96.45888398196168
 20
-157.8811468789325
 30
0.0
 10
96.36448836566582
 20
-157.8935492226794
 30
0.0
 10
96.36448836566582
 20
-157.8935492226794
 30
0.0
 10
96.36448836566582
 20
-157.6589382201339
 30
0.0
 10
96.36448836566582
 20
-157.6589382201339
 30
0.0
 10
96.46818573977185
 20
-157.6737521307204
 30
0.0
 10
96.62924395370728
 20
-157.6778862453027
 30
0.0
 10
96.67937009301766
 20
-157.6778862453027
 30
0.0
 10
96.67937009301766
 20
-157.6778862453027
 30
0.0
 10
96.98856741281884
 20
-157.6778862453027
 30
0.0
 10
96.98856741281884
 20
-157.6778862453027
 30
0.0
 10
97.0052761259223
 20
-157.6778862453027
 30
0.0
 10
97.18304305296118
 20
-157.6778862453027
 30
0.0
 10
97.30706649043019
 20
-157.6589382201339
 30
0.0
 10
97.30706649043019
 20
-157.6589382201339
 30
0.0
 10
97.30706649043019
 20
-157.8935492226794
 30
0.0
 10
97.30706649043019
 20
-157.8935492226794
 30
0.0
 10
97.16995169011724
 20
-157.8746011975105
 30
0.0
 10
97.0033813234054
 20
-157.8746011975105
 30
0.0
 10
96.98856741281884
 20
-157.8746011975105
 30
0.0
  0
SPLINE
  5
C6
330
B8
100
AcDbEntity
  8
レイヤー 1
100
AcDbSpline
210
0.0
220
0.0
230
1.0
 70
     9
 71
     3
 72
    47
 73
    43
 74
     0
 42
0.0000000001
 43
0.0000000001
 40
0.0
 40
0.0
 40
0.0
 40
0.0
 40
1.0
 40
1.0
 40
1.0
 40
2.0
 40
2.0
 40
2.0
 40
3.0
 40
3.0
 40
3.0
 40
4.0
 40
4.0
 40
4.0
 40
5.0
 40
5.0
 40
5.0
 40
6.0
 40
6.0
 40
6.0
 40
7.0
 40
7.0
 40
7.0
 40
8.0
 40
8.0
 40
8.0
 40
9.0
 40
9.0
 40
9.0
 40
10.0
 40
10.0
 40
10.0
 40
11.0
 40
11.0
 40
11.0
 40
12.0
 40
12.0
 40
12.0
 40
13.0
 40
13.0
 40
13.0
 40
14.0
 40
14.0
 40
14.0
 40
14.0
 10
97.07745087633828
 20
-158.4034233544963
 30
0.0
 10
97.07745087633828
 20
-158.4034233544963
 30
0.0
 10
96.98856741281884
 20
-158.4034233544963
 30
0.0
 10
96.98856741281884
 20
-158.4034233544963
 30
0.0
 10
96.98856741281884
 20
-158.4902397607246
 30
0.0
 10
96.96996389719849
 20
-158.8795355505579
 30
0.0
 10
96.79788137771026
 20
-159.0993326425168
 30
0.0
 10
96.66455618243109
 20
-159.2688313403911
 30
0.0
 10
96.48299965035842
 20
-159.3384222691932
 30
0.0
 10
96.40893009742555
 20
-159.3659830330751
 30
0.0
 10
96.40893009742555
 20
-159.3659830330751
 30
0.0
 10
96.23857012567995
 20
-159.1988959020405
 30
0.0
 10
96.23857012567995
 20
-159.1988959020405
 30
0.0
 10
96.32383623893987
 20
-159.1861490487451
 30
0.0
 10
96.47748749758202
 20
-159.1630669089939
 30
0.0
 10
96.64233531655122
 20
-158.9746201859508
 30
0.0
 10
96.70710311167391
 20
-158.9026176903091
 30
0.0
 10
96.79788137771026
 20
-158.7630913231564
 30
0.0
 10
96.79788137771026
 20
-158.4034233544963
 30
0.0
 10
96.79788137771026
 20
-158.4034233544963
 30
0.0
 10
96.59599878227462
 20
-158.4034233544963
 30
0.0
 10
96.59599878227462
 20
-158.4034233544963
 30
0.0
 10
96.43304576582231
 20
-158.4034233544963
 30
0.0
 10
96.27009274936998
 20
-158.4079019786272
 30
0.0
 10
96.10713973291765
 20
-158.4227158892137
 30
0.0
 10
96.10713973291765
 20
-158.4227158892137
 30
0.0
 10
96.10713973291765
 20
-158.2025742877063
 30
0.0
 10
96.10713973291765
 20
-158.2025742877063
 30
0.0
 10
96.27198755188686
 20
-158.2173881982929
 30
0.0
 10
96.52192922934176
 20
-158.2215223128752
 30
0.0
 10
96.59599878227462
 20
-158.2215223128752
 30
0.0
 10
96.59599878227462
 20
-158.2215223128752
 30
0.0
 10
97.07745087633828
 20
-158.2215223128752
 30
0.0
 10
97.07745087633828
 20
-158.2215223128752
 30
0.0
 10
97.09415958944175
 20
-158.2215223128752
 30
0.0
 10
97.37183428555288
 20
-158.2215223128752
 30
0.0
 10
97.57182207847163
 20
-158.2025742877063
 30
0.0
 10
97.57182207847163
 20
-158.2025742877063
 30
0.0
 10
97.57182207847163
 20
-158.4227158892137
 30
0.0
 10
97.57182207847163
 20
-158.4227158892137
 30
0.0
 10
97.40697425950244
 20
-158.4079019786272
 30
0.0
 10
97.24229869530748
 20
-158.4034233544963
 30
0.0
 10
97.07745087633828
 20
-158.4034233544963
 30
0.0
  0
HATCH
  5
C7
330
B8
100
AcDbEntity
  8
レイヤー 1
 62
   250
420
  2299925
440
 33554687
100
AcDbHatch
 10
0.0
 20
0.0
 30
0.0
210
0.0
220
0.0
230
1.0
  2
SOLID
 70
     1
 71
     1
 91
        2
 92
        1
 93
        1
 72
     4
 94
        3
 73
     0
 74
     0
 95
       29
 96
       25
 40
0.0
 40
0.0
 40
0.0
 40
0.0
 40
1.0
 40
1.0
 40
1.0
 40
2.0
 40
2.0
 40
2.0
 40
3.0
 40
3.0
 40
3.0
 40
4.0
 40
4.0
 40
4.0
 40
5.0
 40
5.0
 40
5.0
 40
6.0
 40
6.0
 40
6.0
 40
7.0
 40
7.0
 40
7.0
 40
8.0
 40
8.0
 40
8.0
 40
8.0
 10
96.98856741281884
 20
-157.8746011975105
 10
96.98856741281884
 20
-157.8746011975105
 10
96.67937009301766
 20
-157.8746011975105
 10
96.67937009301766
 20
-157.8746011975105
 10
96.58118487168804
 20
-157.8746011975105
 10
96.45888398196168
 20
-157.8811468789325
 10
96.36448836566582
 20
-157.8935492226794
 10
96.36448836566582
 20
-157.8935492226794
 10
96.36448836566582
 20
-157.6589382201339
 10
96.36448836566582
 20
-157.6589382201339
 10
96.46818573977185
 20
-157.6737521307204
 10
96.62924395370728
 20
-157.6778862453027
 10
96.67937009301766
 20
-157.6778862453027
 10
96.67937009301766
 20
-157.6778862453027
 10
96.98856741281884
 20
-157.6778862453027
 10
96.98856741281884
 20
-157.6778862453027
 10
97.0052761259223
 20
-157.6778862453027
 10
97.18304305296118
 20
-157.6778862453027
 10
97.30706649043019
 20
-157.6589382201339
 10
97.30706649043019
 20
-157.6589382201339
 10
97.30706649043019
 20
-157.8935492226794
 10
97.30706649043019
 20
-157.8935492226794
 10
97.16995169011724
 20
-157.8746011975105
 10
97.0033813234054
 20
-157.8746011975105
 10
96.98856741281884
 20
-157.8746011975105
 97
        0
 97
        1
330
C5
 92
        1
 93
        1
 72
     4
 94
        3
 73
     0
 74
     0
 95
       47
 96
       43
 40
0.0
 40
0.0
 40
0.0
 40
0.0
 40
1.0
 40
1.0
 40
1.0
 40
2.0
 40
2.0
 40
2.0
 40
3.0
 40
3.0
 40
3.0
 40
4.0
 40
4.0
 40
4.0
 40
5.0
 40
5.0
 40
5.0
 40
6.0
 40
6.0
 40
6.0
 40
7.0
 40
7.0
 40
7.0
 40
8.0
 40
8.0
 40
8.0
 40
9.0
 40
9.0
 40
9.0
 40
10.0
 40
10.0
 40
10.0
 40
11.0
 40
11.0
 40
11.0
 40
12.0
 40
12.0
 40
12.0
 40
13.0
 40
13.0
 40
13.0
 40
14.0
 40
14.0
 40
14.0
 40
14.0
 10
97.07745087633828
 20
-158.4034233544963
 10
97.07745087633828
 20
-158.4034233544963
 10
96.98856741281884
 20
-158.4034233544963
 10
96.98856741281884
 20
-158.4034233544963
 10
96.98856741281884
 20
-158.4902397607246
 10
96.96996389719849
 20
-158.8795355505579
 10
96.79788137771026
 20
-159.0993326425168
 10
96.66455618243109
 20
-159.2688313403911
 10
96.48299965035842
 20
-159.3384222691932
 10
96.40893009742555
 20
-159.3659830330751
 10
96.40893009742555
 20
-159.3659830330751
 10
96.23857012567995
 20
-159.1988959020405
 10
96.23857012567995
 20
-159.1988959020405
 10
96.32383623893987
 20
-159.1861490487451
 10
96.47748749758202
 20
-159.1630669089939
 10
96.64233531655122
 20
-158.9746201859508
 10
96.70710311167391
 20
-158.9026176903091
 10
96.79788137771026
 20
-158.7630913231564
 10
96.79788137771026
 20
-158.4034233544963
 10
96.79788137771026
 20
-158.4034233544963
 10
96.59599878227462
 20
-158.4034233544963
 10
96.59599878227462
 20
-158.4034233544963
 10
96.43304576582231
 20
-158.4034233544963
 10
96.27009274936998
 20
-158.4079019786272
 10
96.10713973291765
 20
-158.4227158892137
 10
96.10713973291765
 20
-158.4227158892137
 10
96.10713973291765
 20
-158.2025742877063
 10
96.10713973291765
 20
-158.2025742877063
 10
96.27198755188686
 20
-158.2173881982929
 10
96.52192922934176
 20
-158.2215223128752
 10
96.59599878227462
 20
-158.2215223128752
 10
96.59599878227462
 20
-158.2215223128752
 10
97.07745087633828
 20
-158.2215223128752
 10
97.07745087633828
 20
-158.2215223128752
 10
97.09415958944175
 20
-158.2215223128752
 10
97.37183428555288
 20
-158.2215223128752
 10
97.57182207847163
 20
-158.2025742877063
 10
97.57182207847163
 20
-158.2025742877063
 10
97.57182207847163
 20
-158.4227158892137
 10
97.57182207847163
 20
-158.4227158892137
 10
97.40697425950244
 20
-158.4079019786272
 10
97.24229869530748
 20
-158.4034233544963
 10
97.07745087633828
 20
-158.4034233544963
 97
        0
 97
        1
330
C6
 75
     2
 76
     1
 98
        1
 10
0.0
 20
0.0
450
        0
451
        0
460
0.0
461
0.0
452
        0
462
0.0
453
        0
470

  0
SPLINE
  5
C8
330
B8
100
AcDbEntity
  8
レイヤー 1
100
AcDbSpline
210
0.0
220
0.0
230
1.0
 70
     9
 71
     3
 72
    29
 73
    25
 74
     0
 42
0.0000000001
 43
0.0000000001
 40
0.0
 40
0.0
 40
0.0
 40
0.0
 40
1.0
 40
1.0
 40
1.0
 40
2.0
 40
2.0
 40
2.0
 40
3.0
 40
3.0
 40
3.0
 40
4.0
 40
4.0
 40
4.0
 40
5.0
 40
5.0
 40
5.0
 40
6.0
 40
6.0
 40
6.0
 40
7.0
 40
7.0
 40
7.0
 40
8.0
 40
8.0
 40
8.0
 40
8.0
 10
98.69423418756603
 20
-158.5663763709487
 30
0.0
 10
98.69423418756603
 20
-158.5663763709487
 30
0.0
 10
98.27014293333178
 20
-158.5663763709487
 30
0.0
 10
98.27014293333178
 20
-158.5663763709487
 30
0.0
 10
98.24602726493502
 20
-158.5663763709487
 30
0.0
 10
97.96835256882388
 20
-158.5663763709487
 30
0.0
 10
97.78317868649171
 20
-158.5918700775395
 30
0.0
 10
97.78317868649171
 20
-158.5918700775395
 30
0.0
 10
97.78317868649171
 20
-158.3610486800278
 30
0.0
 10
97.78317868649171
 20
-158.3610486800278
 30
0.0
 10
97.92201603454728
 20
-158.3844753293275
 30
0.0
 10
98.08858640125912
 20
-158.3865423866186
 30
0.0
 10
98.27014293333178
 20
-158.3865423866186
 30
0.0
 10
98.27014293333178
 20
-158.3865423866186
 30
0.0
 10
98.69423418756603
 20
-158.3865423866186
 30
0.0
 10
98.69423418756603
 20
-158.3865423866186
 30
0.0
 10
98.85718720401834
 20
-158.3865423866186
 30
0.0
 10
99.02014022047067
 20
-158.3844753293275
 30
0.0
 10
99.1811984344061
 20
-158.3610486800278
 30
0.0
 10
99.1811984344061
 20
-158.3610486800278
 30
0.0
 10
99.1811984344061
 20
-158.5918700775395
 30
0.0
 10
99.1811984344061
 20
-158.5918700775395
 30
0.0
 10
99.02014022047067
 20
-158.5684434282398
 30
0.0
 10
98.80344371444845
 20
-158.5663763709487
 30
0.0
 10
98.69423418756603
 20
-158.5663763709487
 30
0.0
  0
HATCH
  5
C9
330
B8
100
AcDbEntity
  8
レイヤー 1
 62
   250
420
  2299925
440
 33554687
100
AcDbHatch
 10
0.0
 20
0.0
 30
0.0
210
0.0
220
0.0
230
1.0
  2
SOLID
 70
     1
 71
     1
 91
        1
 92
        1
 93
        1
 72
     4
 94
        3
 73
     0
 74
     0
 95
       29
 96
       25
 40
0.0
 40
0.0
 40
0.0
 40
0.0
 40
1.0
 40
1.0
 40
1.0
 40
2.0
 40
2.0
 40
2.0
 40
3.0
 40
3.0
 40
3.0
 40
4.0
 40
4.0
 40
4.0
 40
5.0
 40
5.0
 40
5.0
 40
6.0
 40
6.0
 40
6.0
 40
7.0
 40
7.0
 40
7.0
 40
8.0
 40
8.0
 40
8.0
 40
8.0
 10
98.69423418756603
 20
-158.5663763709487
 10
98.69423418756603
 20
-158.5663763709487
 10
98.27014293333178
 20
-158.5663763709487
 10
98.27014293333178
 20
-158.5663763709487
 10
98.24602726493502
 20
-158.5663763709487
 10
97.96835256882388
 20
-158.5663763709487
 10
97.78317868649171
 20
-158.5918700775395
 10
97.78317868649171
 20
-158.5918700775395
 10
97.78317868649171
 20
-158.3610486800278
 10
97.78317868649171
 20
-158.3610486800278
 10
97.92201603454728
 20
-158.3844753293275
 10
98.08858640125912
 20
-158.3865423866186
 10
98.27014293333178
 20
-158.3865423866186
 10
98.27014293333178
 20
-158.3865423866186
 10
98.69423418756603
 20
-158.3865423866186
 10
98.69423418756603
 20
-158.3865423866186
 10
98.85718720401834
 20
-158.3865423866186
 10
99.02014022047067
 20
-158.3844753293275
 10
99.1811984344061
 20
-158.3610486800278
 10
99.1811984344061
 20
-158.3610486800278
 10
99.1811984344061
 20
-158.5918700775395
 10
99.1811984344061
 20
-158.5918700775395
 10
99.02014022047067
 20
-158.5684434282398
 10
98.80344371444845
 20
-158.5663763709487
 10
98.69423418756603
 20
-158.5663763709487
 97
        0
 97
        1
330
C8
 75
     2
 76
     1
 98
        1
 10
0.0
 20
0.0
450
        0
451
        0
460
0.0
461
0.0
452
        0
462
0.0
453
        0
470

  0
SPLINE
  5
CA
330
B8
100
AcDbEntity
  8
レイヤー 1
100
AcDbSpline
210
0.0
220
0.0
230
1.0
 70
     9
 71
     3
 72
    47
 73
    43
 74
     0
 42
0.0000000001
 43
0.0000000001
 40
0.0
 40
0.0
 40
0.0
 40
0.0
 40
1.0
 40
1.0
 40
1.0
 40
2.0
 40
2.0
 40
2.0
 40
3.0
 40
3.0
 40
3.0
 40
4.0
 40
4.0
 40
4.0
 40
5.0
 40
5.0
 40
5.0
 40
6.0
 40
6.0
 40
6.0
 40
7.0
 40
7.0
 40
7.0
 40
8.0
 40
8.0
 40
8.0
 40
9.0
 40
9.0
 40
9.0
 40
10.0
 40
10.0
 40
10.0
 40
11.0
 40
11.0
 40
11.0
 40
12.0
 40
12.0
 40
12.0
 40
13.0
 40
13.0
 40
13.0
 40
14.0
 40
14.0
 40
14.0
 40
14.0
 10
100.6384738246667
 20
-157.9720973997431
 30
0.0
 10
100.5774956345778
 20
-158.2511501340483
 30
0.0
 10
100.5108330369382
 20
-158.5556965749444
 30
0.0
 10
100.2367756910866
 20
-158.8878037797225
 30
0.0
 10
100.0293809428746
 20
-159.1375732024031
 30
0.0
 10
99.81457923936929
 20
-159.2371364619268
 30
0.0
 10
99.72190617081606
 20
-159.2791666268469
 30
0.0
 10
99.72190617081606
 20
-159.2791666268469
 30
0.0
 10
99.55154619907046
 20
-159.0972655852257
 30
0.0
 10
99.55154619907046
 20
-159.0972655852257
 30
0.0
 10
99.71449921552277
 20
-159.0507567961748
 30
0.0
 10
100.0311034906172
 20
-158.957739218073
 30
0.0
 10
100.2903469258823
 20
-158.4626789968426
 30
0.0
 10
100.4310790764547
 20
-158.1960286062843
 30
0.0
 10
100.4422756367818
 20
-158.0227403033762
 30
0.0
 10
100.449682592075
 20
-157.9317897825656
 30
0.0
 10
100.449682592075
 20
-157.9317897825656
 30
0.0
 10
100.0071600769947
 20
-157.9317897825656
 30
0.0
 10
100.0071600769947
 20
-157.9317897825656
 30
0.0
 10
99.90346270288872
 20
-157.9317897825656
 30
0.0
 10
99.53483748596699
 20
-157.9507378077345
 30
0.0
 10
99.40151229068781
 20
-157.9614176037388
 30
0.0
 10
99.40151229068781
 20
-157.9614176037388
 30
0.0
 10
99.40151229068781
 20
-157.7519557982356
 30
0.0
 10
99.40151229068781
 20
-157.7519557982356
 30
0.0
 10
99.52570798293109
 20
-157.764702651531
 30
0.0
 10
99.76824270509267
 20
-157.7688367661133
 30
0.0
 10
99.8700452766818
 20
-157.7688367661133
 30
0.0
 10
99.8700452766818
 20
-157.7688367661133
 30
0.0
 10
100.1811373989998
 20
-157.7688367661133
 30
0.0
 10
100.1811373989998
 20
-157.7688367661133
 30
0.0
 10
100.2052530673966
 20
-157.7688367661133
 30
0.0
 10
100.345985217969
 20
-157.7667697088222
 30
0.0
 10
100.4422756367818
 20
-157.7519557982356
 30
0.0
 10
100.4922295213179
 20
-157.7454101168136
 30
0.0
 10
100.5070434319045
 20
-157.7264620916448
 30
0.0
 10
100.5273694952674
 20
-157.7033799518936
 30
0.0
 10
100.5273694952674
 20
-157.7033799518936
 30
0.0
 10
100.6922173142366
 20
-157.8535861150505
 30
0.0
 10
100.6922173142366
 20
-157.8535861150505
 30
0.0
 10
100.679298206167
 20
-157.8832139362236
 30
0.0
 10
100.6699964483568
 20
-157.9021619613925
 30
0.0
 10
100.6384738246667
 20
-157.9720973997431
 30
0.0
  0
HATCH
  5
CB
330
B8
100
AcDbEntity
  8
レイヤー 1
 62
   250
420
  2299925
440
 33554687
100
AcDbHatch
 10
0.0
 20
0.0
 30
0.0
210
0.0
220
0.0
230
1.0
  2
SOLID
 70
     1
 71
     1
 91
        1
 92
        1
 93
        1
 72
     4
 94
        3
 73
     0
 74
     0
 95
       47
 96
       43
 40
0.0
 40
0.0
 40
0.0
 40
0.0
 40
1.0
 40
1.0
 40
1.0
 40
2.0
 40
2.0
 40
2.0
 40
3.0
 40
3.0
 40
3.0
 40
4.0
 40
4.0
 40
4.0
 40
5.0
 40
5.0
 40
5.0
 40
6.0
 40
6.0
 40
6.0
 40
7.0
 40
7.0
 40
7.0
 40
8.0
 40
8.0
 40
8.0
 40
9.0
 40
9.0
 40
9.0
 40
10.0
 40
10.0
 40
10.0
 40
11.0
 40
11.0
 40
11.0
 40
12.0
 40
12.0
 40
12.0
 40
13.0
 40
13.0
 40
13.0
 40
14.0
 40
14.0
 40
14.0
 40
14.0
 10
100.6384738246667
 20
-157.9720973997431
 10
100.5774956345778
 20
-158.2511501340483
 10
100.5108330369382
 20
-158.5556965749444
 10
100.2367756910866
 20
-158.8878037797225
 10
100.0293809428746
 20
-159.1375732024031
 10
99.81457923936929
 20
-159.2371364619268
 10
99.72190617081606
 20
-159.2791666268469
 10
99.72190617081606
 20
-159.2791666268469
 10
99.55154619907046
 20
-159.0972655852257
 10
99.55154619907046
 20
-159.0972655852257
 10
99.71449921552277
 20
-159.0507567961748
 10
100.0311034906172
 20
-158.957739218073
 10
100.2903469258823
 20
-158.4626789968426
 10
100.4310790764547
 20
-158.1960286062843
 10
100.4422756367818
 20
-158.0227403033762
 10
100.449682592075
 20
-157.9317897825656
 10
100.449682592075
 20
-157.9317897825656
 10
100.0071600769947
 20
-157.9317897825656
 10
100.0071600769947
 20
-157.9317897825656
 10
99.90346270288872
 20
-157.9317897825656
 10
99.53483748596699
 20
-157.9507378077345
 10
99.40151229068781
 20
-157.9614176037388
 10
99.40151229068781
 20
-157.9614176037388
 10
99.40151229068781
 20
-157.7519557982356
 10
99.40151229068781
 20
-157.7519557982356
 10
99.52570798293109
 20
-157.764702651531
 10
99.76824270509267
 20
-157.7688367661133
 10
99.8700452766818
 20
-157.7688367661133
 10
99.8700452766818
 20
-157.7688367661133
 10
100.1811373989998
 20
-157.7688367661133
 10
100.1811373989998
 20
-157.7688367661133
 10
100.2052530673966
 20
-157.7688367661133
 10
100.345985217969
 20
-157.7667697088222
 10
100.4422756367818
 20
-157.7519557982356
 10
100.4922295213179
 20
-157.7454101168136
 10
100.5070434319045
 20
-157.7264620916448
 10
100.5273694952674
 20
-157.7033799518936
 10
100.5273694952674
 20
-157.7033799518936
 10
100.6922173142366
 20
-157.8535861150505
 10
100.6922173142366
 20
-157.8535861150505
 10
100.679298206167
 20
-157.8832139362236
 10
100.6699964483568
 20
-157.9021619613925
 10
100.6384738246667
 20
-157.9720973997431
 97
        0
 97
        1
330
CA
 75
     2
 76
     1
 98
        1
 10
0.0
 20
0.0
450
        0
451
        0
460
0.0
461
0.0
452
        0
462
0.0
453
        0
470

  0
SPLINE
  5
CC
330
B8
100
AcDbEntity
  8
レイヤー 1
100
AcDbSpline
210
0.0
220
0.0
230
1.0
 70
    11
 71
     3
 72
    17
 73
    13
 74
     0
 42
0.0000000001
 43
0.0000000001
 40
0.0
 40
0.0
 40
0.0
 40
0.0
 40
1.0
 40
1.0
 40
1.0
 40
2.0
 40
2.0
 40
2.0
 40
3.0
 40
3.0
 40
3.0
 40
4.0
 40
4.0
 40
4.0
 40
4.0
 10
100.9812608254491
 20
-157.7540228555268
 30
0.0
 10
100.9812608254491
 20
-157.8132784978731
 30
0.0
 10
101.0219129521751
 20
-157.8597872869239
 30
0.0
 10
101.0737616392281
 20
-157.8597872869239
 30
0.0
 10
101.1256103262811
 20
-157.8597872869239
 30
0.0
 10
101.1683295102982
 20
-157.8132784978731
 30
0.0
 10
101.1683295102982
 20
-157.7540228555268
 30
0.0
 10
101.1683295102982
 20
-157.6947672131805
 30
0.0
 10
101.1256103262811
 20
-157.6461913668384
 30
0.0
 10
101.0737616392281
 20
-157.6461913668384
 30
0.0
 10
101.0219129521751
 20
-157.6461913668384
 30
0.0
 10
100.9812608254491
 20
-157.6947672131805
 30
0.0
 10
100.9812608254491
 20
-157.7540228555268
 30
0.0
  0
SPLINE
  5
CD
330
B8
100
AcDbEntity
  8
レイヤー 1
100
AcDbSpline
210
0.0
220
0.0
230
1.0
 70
     9
 71
     3
 72
    17
 73
    13
 74
     0
 42
0.0000000001
 43
0.0000000001
 40
0.0
 40
0.0
 40
0.0
 40
0.0
 40
1.0
 40
1.0
 40
1.0
 40
2.0
 40
2.0
 40
2.0
 40
3.0
 40
3.0
 40
3.0
 40
4.0
 40
4.0
 40
4.0
 40
4.0
 10
101.2572129738176
 20
-157.7540228555268
 30
0.0
 10
101.2572129738176
 20
-157.868400025637
 30
0.0
 10
101.1757364655915
 20
-157.96348466103
 30
0.0
 10
101.0737616392281
 20
-157.96348466103
 30
0.0
 10
100.9738538701558
 20
-157.96348466103
 30
0.0
 10
100.8904825594128
 20
-157.868400025637
 30
0.0
 10
100.8904825594128
 20
-157.7540228555268
 30
0.0
 10
100.8904825594128
 20
-157.6375786281253
 30
0.0
 10
100.9738538701558
 20
-157.5445610500236
 30
0.0
 10
101.0737616392281
 20
-157.5445610500236
 30
0.0
 10
101.1738416630746
 20
-157.5445610500236
 30
0.0
 10
101.2572129738176
 20
-157.6375786281253
 30
0.0
 10
101.2572129738176
 20
-157.7540228555268
 30
0.0
  0
HATCH
  5
CE
330
B8
100
AcDbEntity
  8
レイヤー 1
 62
   250
420
  2299925
440
 33554687
100
AcDbHatch
 10
0.0
 20
0.0
 30
0.0
210
0.0
220
0.0
230
1.0
  2
SOLID
 70
     1
 71
     1
 91
        2
 92
        1
 93
        1
 72
     4
 94
        3
 73
     0
 74
     0
 95
       17
 96
       13
 40
0.0
 40
0.0
 40
0.0
 40
0.0
 40
1.0
 40
1.0
 40
1.0
 40
2.0
 40
2.0
 40
2.0
 40
3.0
 40
3.0
 40
3.0
 40
4.0
 40
4.0
 40
4.0
 40
4.0
 10
100.9812608254491
 20
-157.7540228555268
 10
100.9812608254491
 20
-157.8132784978731
 10
101.0219129521751
 20
-157.8597872869239
 10
101.0737616392281
 20
-157.8597872869239
 10
101.1256103262811
 20
-157.8597872869239
 10
101.1683295102982
 20
-157.8132784978731
 10
101.1683295102982
 20
-157.7540228555268
 10
101.1683295102982
 20
-157.6947672131805
 10
101.1256103262811
 20
-157.6461913668384
 10
101.0737616392281
 20
-157.6461913668384
 10
101.0219129521751
 20
-157.6461913668384
 10
100.9812608254491
 20
-157.6947672131805
 10
100.9812608254491
 20
-157.7540228555268
 97
        0
 97
        1
330
CC
 92
        1
 93
        1
 72
     4
 94
        3
 73
     0
 74
     0
 95
       17
 96
       13
 40
0.0
 40
0.0
 40
0.0
 40
0.0
 40
1.0
 40
1.0
 40
1.0
 40
2.0
 40
2.0
 40
2.0
 40
3.0
 40
3.0
 40
3.0
 40
4.0
 40
4.0
 40
4.0
 40
4.0
 10
101.2572129738176
 20
-157.7540228555268
 10
101.2572129738176
 20
-157.868400025637
 10
101.1757364655915
 20
-157.96348466103
 10
101.0737616392281
 20
-157.96348466103
 10
100.9738538701558
 20
-157.96348466103
 10
100.8904825594128
 20
-157.868400025637
 10
100.8904825594128
 20
-157.7540228555268
 10
100.8904825594128
 20
-157.6375786281253
 10
100.9738538701558
 20
-157.5445610500236
 10
101.0737616392281
 20
-157.5445610500236
 10
101.1738416630746
 20
-157.5445610500236
 10
101.2572129738176
 20
-157.6375786281253
 10
101.2572129738176
 20
-157.7540228555268
 97
        0
 97
        1
330
CD
 75
     2
 76
     1
 98
        1
 10
0.0
 20
0.0
450
        0
451
        0
460
0.0
461
0.0
452
        0
462
0.0
453
        0
470

  0
ENDBLK
  5
BB
330
B8
100
AcDbEntity
  8
0
100
AcDbBlockEnd
  0
BLOCK
  5
D2
330
D0
100
AcDbEntity
  8
0
100
AcDbBlockBegin
  2
Block_7
 70
     0
 10
0.0
 20
0.0
 30
0.0
  3
Block_7
  1

  0
INSERT
  5
D5
330
D0
100
AcDbEntity
  8
レイヤー 1
100
AcDbBlockReference
  2
Block_8
 10
0.0
 20
0.0
 30
0.0
  0
SPLINE
  5
F3
330
D0
100
AcDbEntity
  8
レイヤー 1
100
AcDbSpline
210
0.0
220
0.0
230
1.0
 70
     9
 71
     3
 72
    17
 73
    13
 74
     0
 42
0.0000000001
 43
0.0000000001
 40
0.0
 40
0.0
 40
0.0
 40
0.0
 40
1.0
 40
1.0
 40
1.0
 40
2.0
 40
2.0
 40
2.0
 40
3.0
 40
3.0
 40
3.0
 40
4.0
 40
4.0
 40
4.0
 40
4.0
 10
99.48940349421032
 20
-143.9402592858094
 30
0.0
 10
99.48940349421032
 20
-138.4177746452664
 30
0.0
 10
103.9659769911145
 20
-133.9407072594863
 30
0.0
 10
109.4888187946592
 20
-133.9407072594863
 30
0.0
 10
115.0040405983986
 20
-133.9407072594863
 30
0.0
 10
119.4723620004413
 20
-138.4177746452664
 30
0.0
 10
119.4723620004413
 20
-143.9402592858094
 30
0.0
 10
119.4723620004413
 20
-149.4627526968189
 30
0.0
 10
115.0040405983986
 20
-153.9407020270214
 30
0.0
 10
109.4888187946592
 20
-153.9407020270214
 30
0.0
 10
103.9659769911145
 20
-153.9407020270214
 30
0.0
 10
99.48940349421032
 20
-149.4627526968189
 30
0.0
 10
99.48940349421032
 20
-143.9402592858094
 30
0.0
  0
ENDBLK
  5
D3
330
D0
100
AcDbEntity
  8
0
100
AcDbBlockEnd
  0
BLOCK
  5
D6
330
D4
100
AcDbEntity
  8
0
100
AcDbBlockBegin
  2
Block_8
 70
     0
 10
0.0
 20
0.0
 30
0.0
  3
Block_8
  1

  0
LINE
  5
D8
330
D4
100
AcDbEntity
  8
レイヤー 1
 62
   250
420
  2299925
370
    25
100
AcDbLine
 10
99.62910349064628
 20
-143.5208461817429
 30
0.0
 11
109.0695424164669
 21
-134.0096047577282
 31
0.0
  0
LINE
  5
D9
330
D4
100
AcDbEntity
  8
レイヤー 1
 62
   250
420
  2299925
370
    25
100
AcDbLine
 10
108.5803481142754
 20
-153.8707461954728
 30
0.0
 11
119.2628796564132
 21
-143.1015698035507
 31
0.0
  0
SPLINE
  5
DA
330
D4
100
AcDbEntity
  8
レイヤー 1
 62
   250
420
  2299925
370
    25
100
AcDbSpline
210
0.0
220
0.0
230
1.0
 70
     9
 71
     3
 72
    17
 73
    13
 74
     0
 42
0.0000000001
 43
0.0000000001
 40
0.0
 40
0.0
 40
0.0
 40
0.0
 40
1.0
 40
1.0
 40
1.0
 40
2.0
 40
2.0
 40
2.0
 40
3.0
 40
3.0
 40
3.0
 40
4.0
 40
4.0
 40
4.0
 40
4.0
 10
106.6831092258619
 20
-139.1011051833888
 30
0.0
 10
106.6831092258619
 20
-138.7035599157532
 30
0.0
 10
107.0048752469188
 20
-138.3810857573136
 30
0.0
 10
107.4024557923312
 20
-138.3810857573136
 30
0.0
 10
107.8000036700262
 20
-138.3810857573136
 30
0.0
 10
108.1218049406457
 20
-138.7035599157532
 30
0.0
 10
108.1218049406457
 20
-139.1011051833888
 30
0.0
 10
108.1218049406457
 20
-139.4979801732637
 30
0.0
 10
107.8000036700262
 20
-139.8204543317033
 30
0.0
 10
107.4024557923312
 20
-139.8204543317033
 30
0.0
 10
107.0048752469188
 20
-139.8204543317033
 30
0.0
 10
106.6831092258619
 20
-139.4979801732637
 30
0.0
 10
106.6831092258619
 20
-139.1011051833888
 30
0.0
  0
SPLINE
  5
DB
330
D4
100
AcDbEntity
  8
レイヤー 1
 62
   250
420
  2299925
370
    25
100
AcDbSpline
210
0.0
220
0.0
230
1.0
 70
     9
 71
     3
 72
    17
 73
    13
 74
     0
 42
0.0000000001
 43
0.0000000001
 40
0.0
 40
0.0
 40
0.0
 40
0.0
 40
1.0
 40
1.0
 40
1.0
 40
2.0
 40
2.0
 40
2.0
 40
3.0
 40
3.0
 40
3.0
 40
4.0
 40
4.0
 40
4.0
 40
4.0
 10
109.512243238506
 20
-136.2720038666763
 30
0.0
 10
109.512243238506
 20
-135.8744585990407
 30
0.0
 10
109.8340118414081
 20
-135.5519844406011
 30
0.0
 10
110.2312043312749
 20
-135.5519844406011
 30
0.0
 10
110.6280793211498
 20
-135.5519844406011
 30
0.0
 10
110.9491776462912
 20
-135.8744585990407
 30
0.0
 10
110.9491776462912
 20
-136.2720038666763
 30
0.0
 10
110.9491776462912
 20
-136.6688788565511
 30
0.0
 10
110.6280793211498
 20
-136.9913530149908
 30
0.0
 10
110.2312043312749
 20
-136.9913530149908
 30
0.0
 10
109.8340118414081
 20
-136.9913530149908
 30
0.0
 10
109.512243238506
 20
-136.6688788565511
 30
0.0
 10
109.512243238506
 20
-136.2720038666763
 30
0.0
  0
SPLINE
  5
DC
330
D4
100
AcDbEntity
  8
レイヤー 1
 62
   250
420
  2299925
370
    25
100
AcDbSpline
210
0.0
220
0.0
230
1.0
 70
     9
 71
     3
 72
    17
 73
    13
 74
     0
 42
0.0000000001
 43
0.0000000001
 40
0.0
 40
0.0
 40
0.0
 40
0.0
 40
1.0
 40
1.0
 40
1.0
 40
2.0
 40
2.0
 40
2.0
 40
3.0
 40
3.0
 40
3.0
 40
4.0
 40
4.0
 40
4.0
 40
4.0
 10
113.2294978658932
 20
-139.2499421240361
 30
0.0
 10
113.2294978658932
 20
-138.8523968564005
 30
0.0
 10
113.5505609132577
 20
-138.5306282534984
 30
0.0
 10
113.9474359031326
 20
-138.5306282534984
 30
0.0
 10
114.3443108930075
 20
-138.5306282534984
 30
0.0
 10
114.6654120016443
 20
-138.8523968564005
 30
0.0
 10
114.6654120016443
 20
-139.2499421240361
 30
0.0
 10
114.6654120016443
 20
-139.6475226694485
 30
0.0
 10
114.3443108930075
 20
-139.9692912723506
 30
0.0
 10
113.9474359031326
 20
-139.9692912723506
 30
0.0
 10
113.5505609132577
 20
-139.9692912723506
 30
0.0
 10
113.2294978658932
 20
-139.6475226694485
 30
0.0
 10
113.2294978658932
 20
-139.2499421240361
 30
0.0
  0
SPLINE
  5
DD
330
D4
100
AcDbEntity
  8
レイヤー 1
 62
   250
420
  2299925
370
    25
100
AcDbSpline
210
0.0
220
0.0
230
1.0
 70
     9
 71
     3
 72
    17
 73
    13
 74
     0
 42
0.0000000001
 43
0.0000000001
 40
0.0
 40
0.0
 40
0.0
 40
0.0
 40
1.0
 40
1.0
 40
1.0
 40
2.0
 40
2.0
 40
2.0
 40
3.0
 40
3.0
 40
3.0
 40
4.0
 40
4.0
 40
4.0
 40
4.0
 10
113.5760667459404
 20
-142.2285815084593
 30
0.0
 10
113.5760667459404
 20
-141.8310009530036
 30
0.0
 10
113.8971650710818
 20
-141.5092367886189
 30
0.0
 10
114.2940400609567
 20
-141.5092367886189
 30
0.0
 10
114.6909150508315
 20
-141.5092367886189
 30
0.0
 10
115.0123308759649
 20
-141.8310009530036
 30
0.0
 10
115.0123308759649
 20
-142.2285815084593
 30
0.0
 10
115.0123308759649
 20
-142.626131204569
 30
0.0
 10
114.6909150508315
 20
-142.9478953971683
 30
0.0
 10
114.2940400609567
 20
-142.9478953971683
 30
0.0
 10
113.8971650710818
 20
-142.9478953971683
 30
0.0
 10
113.5760667459404
 20
-142.626131204569
 30
0.0
 10
113.5760667459404
 20
-142.2285815084593
 30
0.0
  0
SPLINE
  5
DE
330
D4
100
AcDbEntity
  8
レイヤー 1
 62
   250
420
  2299925
370
    25
100
AcDbSpline
210
0.0
220
0.0
230
1.0
 70
     9
 71
     3
 72
    17
 73
    13
 74
     0
 42
0.0000000001
 43
0.0000000001
 40
0.0
 40
0.0
 40
0.0
 40
0.0
 40
1.0
 40
1.0
 40
1.0
 40
2.0
 40
2.0
 40
2.0
 40
3.0
 40
3.0
 40
3.0
 40
4.0
 40
4.0
 40
4.0
 40
4.0
 10
116.846140273625
 20
-142.0294428864584
 30
0.0
 10
116.846140273625
 20
-141.6318976188229
 30
0.0
 10
117.1672385987664
 20
-141.3101290159208
 30
0.0
 10
117.5641135886413
 20
-141.3101290159208
 30
0.0
 10
117.9609885785161
 20
-141.3101290159208
 30
0.0
 10
118.2820516258807
 20
-141.6318976188229
 30
0.0
 10
118.2820516258807
 20
-142.0294428864584
 30
0.0
 10
118.2820516258807
 20
-142.4270234318709
 30
0.0
 10
117.9609885785161
 20
-142.748792034773
 30
0.0
 10
117.5641135886413
 20
-142.748792034773
 30
0.0
 10
117.1672385987664
 20
-142.748792034773
 30
0.0
 10
116.846140273625
 20
-142.4270234318709
 30
0.0
 10
116.846140273625
 20
-142.0294428864584
 30
0.0
  0
SPLINE
  5
DF
330
D4
100
AcDbEntity
  8
レイヤー 1
 62
   250
420
  2299925
370
    25
100
AcDbSpline
210
0.0
220
0.0
230
1.0
 70
     9
 71
     3
 72
    17
 73
    13
 74
     0
 42
0.0000000001
 43
0.0000000001
 40
0.0
 40
0.0
 40
0.0
 40
0.0
 40
1.0
 40
1.0
 40
1.0
 40
2.0
 40
2.0
 40
2.0
 40
3.0
 40
3.0
 40
3.0
 40
4.0
 40
4.0
 40
4.0
 40
4.0
 10
113.9226356259875
 20
-145.2071944720539
 30
0.0
 10
113.9226356259875
 20
-144.8096492044187
 30
0.0
 10
114.2440514511209
 20
-144.4878806015163
 30
0.0
 10
114.6409264409958
 20
-144.4878806015163
 30
0.0
 10
115.0378014308706
 20
-144.4878806015163
 30
0.0
 10
115.3588997560121
 20
-144.8096492044187
 30
0.0
 10
115.3588997560121
 20
-145.2071944720539
 30
0.0
 10
115.3588997560121
 20
-145.6047750174664
 30
0.0
 10
115.0378014308706
 20
-145.9265436203684
 30
0.0
 10
114.6409264409958
 20
-145.9265436203684
 30
0.0
 10
114.2440514511209
 20
-145.9265436203684
 30
0.0
 10
113.9226356259875
 20
-145.6047750174664
 30
0.0
 10
113.9226356259875
 20
-145.2071944720539
 30
0.0
  0
SPLINE
  5
E0
330
D4
100
AcDbEntity
  8
レイヤー 1
 62
   250
420
  2299925
370
    25
100
AcDbSpline
210
0.0
220
0.0
230
1.0
 70
     9
 71
     3
 72
    17
 73
    13
 74
     0
 42
0.0000000001
 43
0.0000000001
 40
0.0
 40
0.0
 40
0.0
 40
0.0
 40
1.0
 40
1.0
 40
1.0
 40
2.0
 40
2.0
 40
2.0
 40
3.0
 40
3.0
 40
3.0
 40
4.0
 40
4.0
 40
4.0
 40
4.0
 10
112.8825762080772
 20
-136.3712402530335
 30
0.0
 10
112.8825762080772
 20
-135.973659707621
 30
0.0
 10
113.2039920332106
 20
-135.6512208269582
 30
0.0
 10
113.6008670230854
 20
-135.6512208269582
 30
0.0
 10
113.9977420129603
 20
-135.6512208269582
 30
0.0
 10
114.3188403381017
 20
-135.973659707621
 30
0.0
 10
114.3188403381017
 20
-136.3712402530335
 30
0.0
 10
114.3188403381017
 20
-136.7681152429083
 30
0.0
 10
113.9977420129603
 20
-137.0905541235711
 30
0.0
 10
113.6008670230854
 20
-137.0905541235711
 30
0.0
 10
113.2039920332106
 20
-137.0905541235711
 30
0.0
 10
112.8825762080772
 20
-136.7681152429083
 30
0.0
 10
112.8825762080772
 20
-136.3712402530335
 30
0.0
  0
SPLINE
  5
E1
330
D4
100
AcDbEntity
  8
レイヤー 1
 62
   250
420
  2299925
370
    25
100
AcDbSpline
210
0.0
220
0.0
230
1.0
 70
     9
 71
     3
 72
    17
 73
    13
 74
     0
 42
0.0000000001
 43
0.0000000001
 40
0.0
 40
0.0
 40
0.0
 40
0.0
 40
1.0
 40
1.0
 40
1.0
 40
2.0
 40
2.0
 40
2.0
 40
3.0
 40
3.0
 40
3.0
 40
4.0
 40
4.0
 40
4.0
 40
4.0
 10
104.1516792085987
 20
-144.8089436488808
 30
0.0
 10
104.1516792085987
 20
-144.4113983812453
 30
0.0
 10
104.4734478115012
 20
-144.0896297783435
 30
0.0
 10
104.8709930791367
 20
-144.0896297783435
 30
0.0
 10
105.2685736245495
 20
-144.0896297783435
 30
0.0
 10
105.590342227451
 20
-144.4113983812453
 30
0.0
 10
105.590342227451
 20
-144.8089436488808
 30
0.0
 10
105.590342227451
 20
-145.2065241942932
 30
0.0
 10
105.2685736245495
 20
-145.5282927971953
 30
0.0
 10
104.8709930791367
 20
-145.5282927971953
 30
0.0
 10
104.4734478115012
 20
-145.5282927971953
 30
0.0
 10
104.1516792085987
 20
-145.2065241942932
 30
0.0
 10
104.1516792085987
 20
-144.8089436488808
 30
0.0
  0
CIRCLE
  5
E2
330
D4
100
AcDbEntity
  8
レイヤー 1
 62
   250
420
  2299925
370
    25
100
AcDbCircle
 10
105.2182675147214
 20
-147.7875874617782
 30
0.0
 40
0.7193491483144207
  0
SPLINE
  5
E3
330
D4
100
AcDbEntity
  8
レイヤー 1
 62
   250
420
  2299925
370
    25
100
AcDbSpline
210
0.0
220
0.0
230
1.0
 70
     9
 71
     3
 72
    17
 73
    13
 74
     0
 42
0.0000000001
 43
0.0000000001
 40
0.0
 40
0.0
 40
0.0
 40
0.0
 40
1.0
 40
1.0
 40
1.0
 40
2.0
 40
2.0
 40
2.0
 40
3.0
 40
3.0
 40
3.0
 40
4.0
 40
4.0
 40
4.0
 40
4.0
 10
101.2233415055294
 20
-147.5884444113032
 30
0.0
 10
101.2233415055294
 20
-147.1908991436676
 30
0.0
 10
101.5451101084315
 20
-146.8691305407655
 30
0.0
 10
101.9426553760671
 20
-146.8691305407655
 30
0.0
 10
102.3402359214795
 20
-146.8691305407655
 30
0.0
 10
102.6620045243816
 20
-147.1908991436676
 30
0.0
 10
102.6620045243816
 20
-147.5884444113032
 30
0.0
 10
102.6620045243816
 20
-147.9860249567153
 30
0.0
 10
102.3402359214795
 20
-148.3077935596177
 30
0.0
 10
101.9426553760671
 20
-148.3077935596177
 30
0.0
 10
101.5451101084315
 20
-148.3077935596177
 30
0.0
 10
101.2233415055294
 20
-147.9860249567153
 30
0.0
 10
101.2233415055294
 20
-147.5884444113032
 30
0.0
  0
SPLINE
  5
E4
330
D4
100
AcDbEntity
  8
レイヤー 1
 62
   250
420
  2299925
370
    25
100
AcDbSpline
210
0.0
220
0.0
230
1.0
 70
     9
 71
     3
 72
    17
 73
    13
 74
     0
 42
0.0000000001
 43
0.0000000001
 40
0.0
 40
0.0
 40
0.0
 40
0.0
 40
1.0
 40
1.0
 40
1.0
 40
2.0
 40
2.0
 40
2.0
 40
3.0
 40
3.0
 40
3.0
 40
4.0
 40
4.0
 40
4.0
 40
4.0
 10
104.8461953374318
 20
-150.7662312746755
 30
0.0
 10
104.8461953374318
 20
-150.3686507292631
 30
0.0
 10
105.1679614048938
 20
-150.046882126361
 30
0.0
 10
105.5655419503059
 20
-150.046882126361
 30
0.0
 10
105.9630897815971
 20
-150.046882126361
 30
0.0
 10
106.2848558208435
 20
-150.3686507292631
 30
0.0
 10
106.2848558208435
 20
-150.7662312746755
 30
0.0
 10
106.2848558208435
 20
-151.1637765423111
 30
0.0
 10
105.9630897815971
 20
-151.4855451452132
 30
0.0
 10
105.5655419503059
 20
-151.4855451452132
 30
0.0
 10
105.1679614048938
 20
-151.4855451452132
 30
0.0
 10
104.8461953374318
 20
-151.1637765423111
 30
0.0
 10
104.8461953374318
 20
-150.7662312746755
 30
0.0
  0
SPLINE
  5
E5
330
D4
100
AcDbEntity
  8
レイヤー 1
 62
   250
420
  2299925
370
    25
100
AcDbSpline
210
0.0
220
0.0
230
1.0
 70
     9
 71
     3
 72
    17
 73
    13
 74
     0
 42
0.0000000001
 43
0.0000000001
 40
0.0
 40
0.0
 40
0.0
 40
0.0
 40
1.0
 40
1.0
 40
1.0
 40
2.0
 40
2.0
 40
2.0
 40
3.0
 40
3.0
 40
3.0
 40
4.0
 40
4.0
 40
4.0
 40
4.0
 10
107.4272560694763
 20
-145.0073811438182
 30
0.0
 10
107.4272560694763
 20
-144.6105061539434
 30
0.0
 10
107.7490246723784
 20
-144.2880672732806
 30
0.0
 10
108.1466052177908
 20
-144.2880672732806
 30
0.0
 10
108.5441504854264
 20
-144.2880672732806
 30
0.0
 10
108.8659190883285
 20
-144.6105061539434
 30
0.0
 10
108.8659190883285
 20
-145.0073811438182
 30
0.0
 10
108.8659190883285
 20
-145.4049616892307
 30
0.0
 10
108.5441504854264
 20
-145.7274315075851
 30
0.0
 10
108.1466052177908
 20
-145.7274315075851
 30
0.0
 10
107.7490246723784
 20
-145.7274315075851
 30
0.0
 10
107.4272560694763
 20
-145.4049616892307
 30
0.0
 10
107.4272560694763
 20
-145.0073811438182
 30
0.0
  0
SPLINE
  5
E6
330
D4
100
AcDbEntity
  8
レイヤー 1
 62
   250
420
  2299925
370
    25
100
AcDbSpline
210
0.0
220
0.0
230
1.0
 70
     9
 71
     3
 72
    17
 73
    13
 74
     0
 42
0.0000000001
 43
0.0000000001
 40
0.0
 40
0.0
 40
0.0
 40
0.0
 40
1.0
 40
1.0
 40
1.0
 40
2.0
 40
2.0
 40
2.0
 40
3.0
 40
3.0
 40
3.0
 40
4.0
 40
4.0
 40
4.0
 40
4.0
 10
100.8760670699447
 20
-144.6091259523091
 30
0.0
 10
100.8760670699447
 20
-144.2122509524083
 30
0.0
 10
101.1978356728471
 20
-143.8898120635998
 30
0.0
 10
101.5954162182592
 20
-143.8898120635998
 30
0.0
 10
101.9929614858948
 20
-143.8898120635998
 30
0.0
 10
102.3147300887969
 20
-144.2122509524083
 30
0.0
 10
102.3147300887969
 20
-144.6091259523091
 30
0.0
 10
102.3147300887969
 20
-145.0067065077647
 30
0.0
 10
101.9929614858948
 20
-145.329145396573
 30
0.0
 10
101.5954162182592
 20
-145.329145396573
 30
0.0
 10
101.1978356728471
 20
-145.329145396573
 30
0.0
 10
100.8760670699447
 20
-145.0067065077647
 30
0.0
 10
100.8760670699447
 20
-144.6091259523091
 30
0.0
  0
SPLINE
  5
E7
330
D4
100
AcDbEntity
  8
レイヤー 1
 62
   250
420
  2299925
370
    25
100
AcDbSpline
210
0.0
220
0.0
230
1.0
 70
     9
 71
     3
 72
    17
 73
    13
 74
     0
 42
0.0000000001
 43
0.0000000001
 40
0.0
 40
0.0
 40
0.0
 40
0.0
 40
1.0
 40
1.0
 40
1.0
 40
2.0
 40
2.0
 40
2.0
 40
3.0
 40
3.0
 40
3.0
 40
4.0
 40
4.0
 40
4.0
 40
4.0
 10
103.8036992174768
 20
-141.9798423321683
 30
0.0
 10
103.8036992174768
 20
-141.5822926197325
 30
0.0
 10
104.1254703376121
 20
-141.2604931838538
 30
0.0
 10
104.523718643552
 20
-141.2604931838538
 30
0.0
 10
104.9212991889644
 20
-141.2604931838538
 30
0.0
 10
105.2430703373326
 20
-141.5822926197325
 30
0.0
 10
105.2430703373326
 20
-141.9798423321683
 30
0.0
 10
105.2430703373326
 20
-142.3774228775807
 30
0.0
 10
104.9212991889644
 20
-142.6991870638975
 30
0.0
 10
104.523718643552
 20
-142.6991870638975
 30
0.0
 10
104.1254703376121
 20
-142.6991870638975
 30
0.0
 10
103.8036992174768
 20
-142.3774228775807
 30
0.0
 10
103.8036992174768
 20
-141.9798423321683
 30
0.0
  0
SPLINE
  5
E8
330
D4
100
AcDbEntity
  8
レイヤー 1
 62
   250
420
  2299925
370
    25
100
AcDbSpline
210
0.0
220
0.0
230
1.0
 70
     9
 71
     3
 72
    17
 73
    13
 74
     0
 42
0.0000000001
 43
0.0000000001
 40
0.0
 40
0.0
 40
0.0
 40
0.0
 40
1.0
 40
1.0
 40
1.0
 40
2.0
 40
2.0
 40
2.0
 40
3.0
 40
3.0
 40
3.0
 40
4.0
 40
4.0
 40
4.0
 40
4.0
 10
107.0799842257627
 20
-142.0294428864584
 30
0.0
 10
107.0799842257627
 20
-141.6318976188229
 30
0.0
 10
107.4017502367936
 20
-141.3101290159208
 30
0.0
 10
107.7993307822061
 20
-141.3101290159208
 30
0.0
 10
108.196878669927
 20
-141.3101290159208
 30
0.0
 10
108.5186799305206
 20
-141.6318976188229
 30
0.0
 10
108.5186799305206
 20
-142.0294428864584
 30
0.0
 10
108.5186799305206
 20
-142.4270234318709
 30
0.0
 10
108.196878669927
 20
-142.748792034773
 30
0.0
 10
107.7993307822061
 20
-142.748792034773
 30
0.0
 10
107.4017502367936
 20
-142.748792034773
 30
0.0
 10
107.0799842257627
 20
-142.4270234318709
 30
0.0
 10
107.0799842257627
 20
-142.0294428864584
 30
0.0
  0
SPLINE
  5
E9
330
D4
100
AcDbEntity
  8
レイヤー 1
 62
   250
420
  2299925
370
    25
100
AcDbSpline
210
0.0
220
0.0
230
1.0
 70
     9
 71
     3
 72
    17
 73
    13
 74
     0
 42
0.0000000001
 43
0.0000000001
 40
0.0
 40
0.0
 40
0.0
 40
0.0
 40
1.0
 40
1.0
 40
1.0
 40
2.0
 40
2.0
 40
2.0
 40
3.0
 40
3.0
 40
3.0
 40
4.0
 40
4.0
 40
4.0
 40
4.0
 10
107.774530505061
 20
-147.986695234476
 30
0.0
 10
107.774530505061
 20
-147.5891499668407
 30
0.0
 10
108.0962991079631
 20
-147.2673813639386
 30
0.0
 10
108.4938443755987
 20
-147.2673813639386
 30
0.0
 10
108.8914249210111
 20
-147.2673813639386
 30
0.0
 10
109.2131935239132
 20
-147.5891499668407
 30
0.0
 10
109.2131935239132
 20
-147.986695234476
 30
0.0
 10
109.2131935239132
 20
-148.3842757798887
 30
0.0
 10
108.8914249210111
 20
-148.7060443827905
 30
0.0
 10
108.4938443755987
 20
-148.7060443827905
 30
0.0
 10
108.0962991079631
 20
-148.7060443827905
 30
0.0
 10
107.774530505061
 20
-148.3842757798887
 30
0.0
 10
107.774530505061
 20
-147.986695234476
 30
0.0
  0
SPLINE
  5
EA
330
D4
100
AcDbEntity
  8
レイヤー 1
 62
   250
420
  2299925
370
    25
100
AcDbSpline
210
0.0
220
0.0
230
1.0
 70
     9
 71
     3
 72
    17
 73
    13
 74
     0
 42
0.0000000001
 43
0.0000000001
 40
0.0
 40
0.0
 40
0.0
 40
0.0
 40
1.0
 40
1.0
 40
1.0
 40
2.0
 40
2.0
 40
2.0
 40
3.0
 40
3.0
 40
3.0
 40
4.0
 40
4.0
 40
4.0
 40
4.0
 10
108.1218049406457
 20
-150.9653390473736
 30
0.0
 10
108.1218049406457
 20
-150.5677937797381
 30
0.0
 10
108.4435735435478
 20
-150.2459898990591
 30
0.0
 10
108.8411188111834
 20
-150.2459898990591
 30
0.0
 10
109.2386993565958
 20
-150.2459898990591
 30
0.0
 10
109.5604679594979
 20
-150.5677937797381
 30
0.0
 10
109.5604679594979
 20
-150.9653390473736
 30
0.0
 10
109.5604679594979
 20
-151.3629195927861
 30
0.0
 10
109.2386993565958
 20
-151.6846881956882
 30
0.0
 10
108.8411188111834
 20
-151.6846881956882
 30
0.0
 10
108.4435735435478
 20
-151.6846881956882
 30
0.0
 10
108.1218049406457
 20
-151.3629195927861
 30
0.0
 10
108.1218049406457
 20
-150.9653390473736
 30
0.0
  0
SPLINE
  5
EB
330
D4
100
AcDbEntity
  8
レイヤー 1
 62
   250
420
  2299925
370
    25
100
AcDbSpline
210
0.0
220
0.0
230
1.0
 70
     9
 71
     3
 72
    17
 73
    13
 74
     0
 42
0.0000000001
 43
0.0000000001
 40
0.0
 40
0.0
 40
0.0
 40
0.0
 40
1.0
 40
1.0
 40
1.0
 40
2.0
 40
2.0
 40
2.0
 40
3.0
 40
3.0
 40
3.0
 40
4.0
 40
4.0
 40
4.0
 40
4.0
 10
110.2567101639575
 20
-141.9798423321683
 30
0.0
 10
110.2567101639575
 20
-141.5829673422934
 30
0.0
 10
110.577808489099
 20
-141.2604931838538
 30
0.0
 10
110.9746834789739
 20
-141.2604931838538
 30
0.0
 10
111.3715584688487
 20
-141.2604931838538
 30
0.0
 10
111.6926215162133
 20
-141.5829673422934
 30
0.0
 10
111.6926215162133
 20
-141.9798423321683
 30
0.0
 10
111.6926215162133
 20
-142.3774228775807
 30
0.0
 10
111.3715584688487
 20
-142.6991870638975
 30
0.0
 10
110.9746834789739
 20
-142.6991870638975
 30
0.0
 10
110.577808489099
 20
-142.6991870638975
 30
0.0
 10
110.2567101639575
 20
-142.3774228775807
 30
0.0
 10
110.2567101639575
 20
-141.9798423321683
 30
0.0
  0
SPLINE
  5
EC
330
D4
100
AcDbEntity
  8
レイヤー 1
 62
   250
420
  2299925
370
    25
100
AcDbSpline
210
0.0
220
0.0
230
1.0
 70
     9
 71
     3
 72
    17
 73
    13
 74
     0
 42
0.0000000001
 43
0.0000000001
 40
0.0
 40
0.0
 40
0.0
 40
0.0
 40
1.0
 40
1.0
 40
1.0
 40
2.0
 40
2.0
 40
2.0
 40
3.0
 40
3.0
 40
3.0
 40
4.0
 40
4.0
 40
4.0
 40
4.0
 10
110.6032790440047
 20
-144.9584861450657
 30
0.0
 10
110.6032790440047
 20
-144.5616111551908
 30
0.0
 10
110.9243773691462
 20
-144.2391369967511
 30
0.0
 10
111.321252359021
 20
-144.2391369967511
 30
0.0
 10
111.7181273488959
 20
-144.2391369967511
 30
0.0
 10
112.0395431740292
 20
-144.5616111551908
 30
0.0
 10
112.0395431740292
 20
-144.9584861450657
 30
0.0
 10
112.0395431740292
 20
-145.3560314127012
 30
0.0
 10
111.7181273488959
 20
-145.6778000156033
 30
0.0
 10
111.321252359021
 20
-145.6778000156033
 30
0.0
 10
110.9243773691462
 20
-145.6778000156033
 30
0.0
 10
110.6032790440047
 20
-145.3560314127012
 30
0.0
 10
110.6032790440047
 20
-144.9584861450657
 30
0.0
  0
SPLINE
  5
ED
330
D4
100
AcDbEntity
  8
レイヤー 1
 62
   250
420
  2299925
370
    25
100
AcDbSpline
210
0.0
220
0.0
230
1.0
 70
     9
 71
     3
 72
    17
 73
    13
 74
     0
 42
0.0000000001
 43
0.0000000001
 40
0.0
 40
0.0
 40
0.0
 40
0.0
 40
1.0
 40
1.0
 40
1.0
 40
2.0
 40
2.0
 40
2.0
 40
3.0
 40
3.0
 40
3.0
 40
4.0
 40
4.0
 40
4.0
 40
4.0
 10
110.9498832018288
 20
-147.9370946801861
 30
0.0
 10
110.9498832018288
 20
-147.5402196903113
 30
0.0
 10
111.2709462491933
 20
-147.2177808096485
 30
0.0
 10
111.6678212390682
 20
-147.2177808096485
 30
0.0
 10
112.0646962289431
 20
-147.2177808096485
 30
0.0
 10
112.3861147799908
 20
-147.5402196903113
 30
0.0
 10
112.3861147799908
 20
-147.9370946801861
 30
0.0
 10
112.3861147799908
 20
-148.3346752255986
 30
0.0
 10
112.0646962289431
 20
-148.6564438285007
 30
0.0
 10
111.6678212390682
 20
-148.6564438285007
 30
0.0
 10
111.2709462491933
 20
-148.6564438285007
 30
0.0
 10
110.9498832018288
 20
-148.3346752255986
 30
0.0
 10
110.9498832018288
 20
-147.9370946801861
 30
0.0
  0
SPLINE
  5
EE
330
D4
100
AcDbEntity
  8
レイヤー 1
 62
   250
420
  2299925
370
    25
100
AcDbSpline
210
0.0
220
0.0
230
1.0
 70
     9
 71
     3
 72
    17
 73
    13
 74
     0
 42
0.0000000001
 43
0.0000000001
 40
0.0
 40
0.0
 40
0.0
 40
0.0
 40
1.0
 40
1.0
 40
1.0
 40
2.0
 40
2.0
 40
2.0
 40
3.0
 40
3.0
 40
3.0
 40
4.0
 40
4.0
 40
4.0
 40
4.0
 10
109.9091182283809
 20
-139.0019040748085
 30
0.0
 10
109.9091182283809
 20
-138.6043235293961
 30
0.0
 10
110.2305340535142
 20
-138.282554926494
 30
0.0
 10
110.6274090433891
 20
-138.282554926494
 30
0.0
 10
111.024284033264
 20
-138.282554926494
 30
0.0
 10
111.3453823584054
 20
-138.6043235293961
 30
0.0
 10
111.3453823584054
 20
-139.0019040748085
 30
0.0
 10
111.3453823584054
 20
-139.3987790646834
 30
0.0
 10
111.024284033264
 20
-139.7212532231231
 30
0.0
 10
110.6274090433891
 20
-139.7212532231231
 30
0.0
 10
110.2305340535142
 20
-139.7212532231231
 30
0.0
 10
109.9091182283809
 20
-139.3987790646834
 30
0.0
 10
109.9091182283809
 20
-139.0019040748085
 30
0.0
  0
SPLINE
  5
EF
330
D4
100
AcDbEntity
  8
レイヤー 1
 62
   250
420
  2299925
370
    25
100
AcDbSpline
210
0.0
220
0.0
230
1.0
 70
     9
 71
     3
 72
    17
 73
    13
 74
     0
 42
0.0000000001
 43
0.0000000001
 40
0.0
 40
0.0
 40
0.0
 40
0.0
 40
1.0
 40
1.0
 40
1.0
 40
2.0
 40
2.0
 40
2.0
 40
3.0
 40
3.0
 40
3.0
 40
4.0
 40
4.0
 40
4.0
 40
4.0
 10
116.5495247256367
 20
-139.4979801732637
 30
0.0
 10
116.5495247256367
 20
-139.1004349056281
 30
0.0
 10
116.8706258899807
 20
-138.778666302726
 30
0.0
 10
117.2675008898814
 20
-138.778666302726
 30
0.0
 10
117.6643758897822
 20
-138.778666302726
 30
0.0
 10
117.9857888556612
 20
-139.1004349056281
 30
0.0
 10
117.9857888556612
 20
-139.4979801732637
 30
0.0
 10
117.9857888556612
 20
-139.8948551631385
 30
0.0
 10
117.6643758897822
 20
-140.2173293215782
 30
0.0
 10
117.2675008898814
 20
-140.2173293215782
 30
0.0
 10
116.8706258899807
 20
-140.2173293215782
 30
0.0
 10
116.5495247256367
 20
-139.8948551631385
 30
0.0
 10
116.5495247256367
 20
-139.4979801732637
 30
0.0
  0
SPLINE
  5
F0
330
D4
100
AcDbEntity
  8
レイヤー 1
 62
   250
420
  2299925
370
    25
100
AcDbSpline
210
0.0
220
0.0
230
1.0
 70
     9
 71
     3
 72
    17
 73
    13
 74
     0
 42
0.0000000001
 43
0.0000000001
 40
0.0
 40
0.0
 40
0.0
 40
0.0
 40
1.0
 40
1.0
 40
1.0
 40
2.0
 40
2.0
 40
2.0
 40
3.0
 40
3.0
 40
3.0
 40
4.0
 40
4.0
 40
4.0
 40
4.0
 10
101.5705806633373
 20
-150.5677937797381
 30
0.0
 10
101.5705806633373
 20
-150.1702132343256
 30
0.0
 10
101.8923870048371
 20
-149.8484446314235
 30
0.0
 10
102.2899298116518
 20
-149.8484446314235
 30
0.0
 10
102.6875103570642
 20
-149.8484446314235
 30
0.0
 10
103.0092814490021
 20
-150.1702132343256
 30
0.0
 10
103.0092814490021
 20
-150.5677937797381
 30
0.0
 10
103.0092814490021
 20
-150.9653390473736
 30
0.0
 10
102.6875103570642
 20
-151.2871076502757
 30
0.0
 10
102.2899298116518
 20
-151.2871076502757
 30
0.0
 10
101.8923870048371
 20
-151.2871076502757
 30
0.0
 10
101.5705806633373
 20
-150.9653390473736
 30
0.0
 10
101.5705806633373
 20
-150.5677937797381
 30
0.0
  0
SPLINE
  5
F1
330
D4
100
AcDbEntity
  8
レイヤー 1
 62
   250
420
  2299925
370
    25
100
AcDbSpline
210
0.0
220
0.0
230
1.0
 70
     9
 71
     3
 72
    17
 73
    13
 74
     0
 42
0.0000000001
 43
0.0000000001
 40
0.0
 40
0.0
 40
0.0
 40
0.0
 40
1.0
 40
1.0
 40
1.0
 40
2.0
 40
2.0
 40
2.0
 40
3.0
 40
3.0
 40
3.0
 40
4.0
 40
4.0
 40
4.0
 40
4.0
 10
105.1934672375764
 20
-153.7455453653335
 30
0.0
 10
105.1934672375764
 20
-153.3479648199211
 30
0.0
 10
105.5152358404782
 20
-153.026196217019
 30
0.0
 10
105.9127811081137
 20
-153.026196217019
 30
0.0
 10
106.3103616535262
 20
-153.026196217019
 30
0.0
 10
106.6321302564283
 20
-153.3479648199211
 30
0.0
 10
106.6321302564283
 20
-153.7455453653335
 30
0.0
 10
106.6321302564283
 20
-154.1430906329691
 30
0.0
 10
106.3103616535262
 20
-154.4648592358706
 30
0.0
 10
105.9127811081137
 20
-154.4648592358706
 30
0.0
 10
105.5152358404782
 20
-154.4648592358706
 30
0.0
 10
105.1934672375764
 20
-154.1430906329691
 30
0.0
 10
105.1934672375764
 20
-153.7455453653335
 30
0.0
  0
SPLINE
  5
F2
330
D4
100
AcDbEntity
  8
レイヤー 1
 62
   250
420
  2299925
370
    25
100
AcDbSpline
210
0.0
220
0.0
230
1.0
 70
     9
 71
     3
 72
    17
 73
    13
 74
     0
 42
0.0000000001
 43
0.0000000001
 40
0.0
 40
0.0
 40
0.0
 40
0.0
 40
1.0
 40
1.0
 40
1.0
 40
2.0
 40
2.0
 40
2.0
 40
3.0
 40
3.0
 40
3.0
 40
4.0
 40
4.0
 40
4.0
 40
4.0
 10
116.1578355689628
 20
-136.469771083853
 30
0.0
 10
116.1578355689628
 20
-136.0728960939782
 30
0.0
 10
116.479604171865
 20
-135.7504219355385
 30
0.0
 10
116.8771494395005
 20
-135.7504219355385
 30
0.0
 10
117.2747299849129
 20
-135.7504219355385
 30
0.0
 10
117.5964985878151
 20
-136.0728960939782
 30
0.0
 10
117.5964985878151
 20
-136.469771083853
 30
0.0
 10
117.5964985878151
 20
-136.8673163514886
 30
0.0
 10
117.2747299849129
 20
-137.1897905099283
 30
0.0
 10
116.8771494395005
 20
-137.1897905099283
 30
0.0
 10
116.479604171865
 20
-137.1897905099283
 30
0.0
 10
116.1578355689628
 20
-136.8673163514886
 30
0.0
 10
116.1578355689628
 20
-136.469771083853
 30
0.0
  0
ENDBLK
  5
D7
330
D4
100
AcDbEntity
  8
0
100
AcDbBlockEnd
  0
ENDSEC
  0
SECTION
  2
ENTITIES
  0
INSERT
  5
7A
330
70
100
AcDbEntity
  8
レイヤー 1
100
AcDbBlockReference
  2
Block_0
 10
0.0
 20
0.0
 30
0.0
  0
LINE
  5
AE
330
70
100
AcDbEntity
  8
レイヤー 1
 62
   250
420
  2299925
370
     9
100
AcDbLine
 10
90.61509594426174
 20
-146.7605696753166
 30
0.0
 11
91.31716534413142
 21
-147.531214430688
 31
0.0
  0
LINE
  5
AF
330
70
100
AcDbEntity
  8
レイヤー 1
 62
   250
420
  2299925
370
     9
100
AcDbLine
 10
90.61509594426174
 20
-146.7605696753166
 30
0.0
 11
95.41024788886629
 21
-156.0107292326276
 31
0.0
  0
LINE
  5
B0
330
70
100
AcDbEntity
  8
レイヤー 1
 62
   250
420
  2299925
370
     9
100
AcDbLine
 10
90.61509594426174
 20
-146.7605696753166
 30
0.0
 11
90.84936626479329
 21
-147.796409262551
 31
0.0
  0
LINE
  5
B1
330
70
100
AcDbEntity
  8
レイヤー 1
 62
   250
420
  2299925
370
     9
100
AcDbLine
 10
107.9630760733759
 20
-164.0265065832443
 30
0.0
 11
106.9313456690275
 21
-163.8536520189211
 31
0.0
  0
LINE
  5
B2
330
70
100
AcDbEntity
  8
レイヤー 1
 62
   250
420
  2299925
370
     9
100
AcDbLine
 10
107.9630760733759
 20
-164.0265065832443
 30
0.0
 11
98.63088660931701
 21
-159.7671800836782
 31
0.0
  0
LINE
  5
B3
330
70
100
AcDbEntity
  8
レイヤー 1
 62
   250
420
  2299925
370
     9
100
AcDbLine
 10
107.9630760733759
 20
-164.0265065832443
 30
0.0
 11
107.1713832765513
 21
-163.3669386672336
 31
0.0
  0
INSERT
  5
B5
330
70
100
AcDbEntity
  8
レイヤー 1
100
AcDbBlockReference
  2
Block_5
 10
0.0
 20
0.0
 30
0.0
  0
SPLINE
  5
CF
330
70
100
AcDbEntity
  8
レイヤー 1
 62
   250
420
  2299925
370
    25
100
AcDbSpline
210
0.0
220
0.0
230
1.0
 70
     9
 71
     3
 72
    17
 73
    13
 74
     0
 42
0.0000000001
 43
0.0000000001
 40
0.0
 40
0.0
 40
0.0
 40
0.0
 40
1.0
 40
1.0
 40
1.0
 40
2.0
 40
2.0
 40
2.0
 40
3.0
 40
3.0
 40
3.0
 40
4.0
 40
4.0
 40
4.0
 40
4.0
 10
99.48940349421032
 20
-143.9402592858094
 30
0.0
 10
99.48940349421032
 20
-138.4177746452664
 30
0.0
 10
103.9659769911145
 20
-133.9407072594863
 30
0.0
 10
109.4888187946592
 20
-133.9407072594863
 30
0.0
 10
115.0040405983986
 20
-133.9407072594863
 30
0.0
 10
119.4723620004413
 20
-138.4177746452664
 30
0.0
 10
119.4723620004413
 20
-143.9402592858094
 30
0.0
 10
119.4723620004413
 20
-149.4627526968189
 30
0.0
 10
115.0040405983986
 20
-153.9407020270214
 30
0.0
 10
109.4888187946592
 20
-153.9407020270214
 30
0.0
 10
103.9659769911145
 20
-153.9407020270214
 30
0.0
 10
99.48940349421032
 20
-149.4627526968189
 30
0.0
 10
99.48940349421032
 20
-143.9402592858094
 30
0.0
  0
INSERT
  5
D1
330
70
100
AcDbEntity
  8
レイヤー 1
100
AcDbBlockReference
  2
Block_7
 10
0.0
 20
0.0
 30
0.0
  0
ENDSEC
  0
SECTION
  2
OBJECTS
  0
DICTIONARY
  5
C
330
0
100
AcDbDictionary
281
     1
  3
ACAD_COLOR
350
63
  3
ACAD_DETAILVIEWSTYLE
350
6A
  3
ACAD_GROUP
350
D
  3
ACAD_LAYOUT
350
62
  3
ACAD_MATERIAL
350
10
  3
ACAD_MLEADERSTYLE
350
66
  3
ACAD_MLINESTYLE
350
5F
  3
ACAD_PLOTSETTINGS
350
61
  3
ACAD_PLOTSTYLENAME
350
E
  3
ACAD_SCALELIST
350
42
  3
ACAD_SECTIONVIEWSTYLE
350
68
  3
ACAD_TABLESTYLE
350
64
  3
ACAD_VISUALSTYLE
350
29
  3
ACDB_RECOMPOSE_DATA
350
FC
  3
AcDbVariableDictionary
350
F4
  0
DICTIONARY
  5
63
102
{ACAD_REACTORS
330
C
102
}
330
C
100
AcDbDictionary
281
     1
  0
DICTIONARY
  5
6A
102
{ACAD_REACTORS
330
C
102
}
330
C
100
AcDbDictionary
281
     1
  3
Imperial24
350
6B
  0
DICTIONARY
  5
D
102
{ACAD_REACTORS
330
C
102
}
330
C
100
AcDbDictionary
281
     1
  0
DICTIONARY
  5
62
102
{ACAD_REACTORS
330
C
102
}
330
C
100
AcDbDictionary
281
     1
  3
Layout1
350
6F
  3
Layout2
350
77
  3
Model
350
73
  0
DICTIONARY
  5
10
102
{ACAD_REACTORS
330
C
102
}
330
C
100
AcDbDictionary
281
     1
  3
ByBlock
350
19
  3
ByLayer
350
11
  3
Global
350
21
  0
DICTIONARY
  5
66
102
{ACAD_REACTORS
330
C
102
}
330
C
100
AcDbDictionary
281
     1
  3
Standard
350
67
  0
DICTIONARY
  5
5F
102
{ACAD_REACTORS
330
C
102
}
330
C
100
AcDbDictionary
281
     1
  3
Standard
350
60
  0
DICTIONARY
  5
61
102
{ACAD_REACTORS
330
C
102
}
330
C
100
AcDbDictionary
281
     1
  0
ACDBDICTIONARYWDFLT
  5
E
102
{ACAD_REACTORS
330
C
102
}
330
C
100
AcDbDictionary
281
     1
  3
Normal
350
F
100
AcDbDictionaryWithDefault
340
F
  0
DICTIONARY
  5
42
102
{ACAD_REACTORS
330
C
102
}
330
C
100
AcDbDictionary
281
     1
  3
A0
350
43
  3
A1
350
44
  3
A2
350
45
  3
A3
350
46
  3
A4
350
47
  3
A5
350
48
  3
A6
350
49
  3
A7
350
4A
  3
A8
350
4B
  3
A9
350
4C
  3
B0
350
4D
  3
B1
350
4E
  3
B2
350
4F
  3
B3
350
50
  3
B4
350
51
  3
B5
350
52
  3
B6
350
53
  0
DICTIONARY
  5
68
102
{ACAD_REACTORS
330
C
102
}
330
C
100
AcDbDictionary
281
     1
  3
Imperial24
350
69
  0
DICTIONARY
  5
64
102
{ACAD_REACTORS
330
C
102
}
330
C
100
AcDbDictionary
281
     1
  3
Standard
350
65
  0
DICTIONARY
  5
29
102
{ACAD_REACTORS
330
C
102
}
330
C
100
AcDbDictionary
281
     1
  3
2dWireframe
350
2F
  3
Basic
350
2E
  3
Brighten
350
35
  3
ColorChange
350
39
  3
Conceptual
350
32
  3
Dim
350
34
  3
EdgeColorOff
350
41
  3
Facepattern
350
38
  3
Flat
350
2A
  3
FlatWithEdges
350
2B
  3
Gouraud
350
2C
  3
GouraudWithEdges
350
2D
  3
Hidden
350
31
  3
JitterOff
350
3F
  3
Linepattern
350
37
  3
OverhangOff
350
40
  3
Realistic
350
33
  3
Shaded
350
3E
  3
Shaded with edges
350
3D
  3
Shades of Gray
350
3A
  3
Sketchy
350
3B
  3
Thicken
350
36
  3
Wireframe
350
30
  3
X-Ray
350
3C
  0
XRECORD
  5
FC
102
{ACAD_REACTORS
330
C
102
}
330
C
100
AcDbXrecord
280
     1
 90
        1
330
65
  0
DICTIONARY
  5
F4
102
{ACAD_REACTORS
330
C
102
}
330
C
100
AcDbDictionary
281
     1
  3
CANNOSCALE
350
F9
  3
CMLEADERSTYLE
350
F6
  3
CTABLESTYLE
350
F5
  3
CVIEWDETAILSTYLE
350
F7
  3
CVIEWSECTIONSTYLE
350
F8
  0
ACDBDETAILVIEWSTYLE
  5
6B
102
{ACAD_XDICTIONARY
360
131
102
}
102
{ACAD_REACTORS
330
6A
102
}
330
6A
100
AcDbModelDocViewStyle
 70
     0
  3
Imperial24
290
     0
100
AcDbDetailViewStyle
 70
     0
 71
     0
 90
        3
 71
     1
340
55
 62
   256
 40
0.24
340
0
 62
   256
 40
0.24
300

 40
0.36
280
     3
 71
     2
340
5D
 90
       25
 62
   256
 71
     3
340
55
 62
   256
 40
0.24
 90
        1
 40
0.75
 90
        1
300
%<\AcVar ViewType \f "%tc1">% %<\AcVar ViewDetailId>%\PSCALE %<\AcVar ViewScale \f "%sn">%
 71
     4
340
5D
 90
       25
 62
   256
340
5D
 90
       25
 62
   256
280
     0
  0
LAYOUT
  5
6F
102
{ACAD_REACTORS
330
62
102
}
330
62
100
AcDbPlotSettings
  1

  2

  4

  6

 40
0.0
 41
0.0
 42
0.0
 43
0.0
 44
0.0
 45
0.0
 46
0.0
 47
0.0
 48
0.0
 49
0.0
140
0.0
141
0.0
142
1.0
143
1.0
 70
   688
 72
     0
 73
     0
 74
     5
  7

 75
    16
147
1.0
 76
     0
 77
     2
 78
   300
148
0.0
149
0.0
100
AcDbLayout
  1
Layout1
 70
     1
 71
     1
 10
0.0
 20
0.0
 11
12.0
 21
9.0
 12
0.0
 22
0.0
 32
0.0
 14
0.0
 24
0.0
 34
0.0
 15
0.0
 25
0.0
 35
0.0
146
0.0
 13
0.0
 23
0.0
 33
0.0
 16
1.0
 26
0.0
 36
0.0
 17
0.0
 27
1.0
 37
0.0
 76
     0
330
6C
  0
LAYOUT
  5
77
102
{ACAD_REACTORS
330
62
102
}
330
62
100
AcDbPlotSettings
  1

  2

  4

  6

 40
0.0
 41
0.0
 42
0.0
 43
0.0
 44
0.0
 45
0.0
 46
0.0
 47
0.0
 48
0.0
 49
0.0
140
0.0
141
0.0
142
1.0
143
1.0
 70
   688
 72
     0
 73
     0
 74
     5
  7

 75
    16
147
1.0
 76
     0
 77
     2
 78
   300
148
0.0
149
0.0
100
AcDbLayout
  1
Layout2
 70
     1
 71
     2
 10
0.0
 20
0.0
 11
12.0
 21
9.0
 12
0.0
 22
0.0
 32
0.0
 14
0.0
 24
0.0
 34
0.0
 15
0.0
 25
0.0
 35
0.0
146
0.0
 13
0.0
 23
0.0
 33
0.0
 16
1.0
 26
0.0
 36
0.0
 17
0.0
 27
1.0
 37
0.0
 76
     0
330
74
  0
LAYOUT
  5
73
102
{ACAD_REACTORS
330
62
102
}
330
62
100
AcDbPlotSettings
  1

  2

  4

  6

 40
0.0
 41
0.0
 42
0.0
 43
0.0
 44
0.0
 45
0.0
 46
0.0
 47
0.0
 48
0.0
 49
0.0
140
0.0
141
0.0
142
1.0
143
1.0
 70
  1712
 72
     0
 73
     0
 74
     0
  7

 75
     0
147
1.0
 76
     0
 77
     2
 78
   300
148
0.0
149
0.0
100
AcDbLayout
  1
Model
 70
     1
 71
     0
 10
0.0
 20
0.0
 11
12.0
 21
9.0
 12
0.0
 22
0.0
 32
0.0
 14
0.0
 24
0.0
 34
0.0
 15
0.0
 25
0.0
 35
0.0
146
0.0
 13
0.0
 23
0.0
 33
0.0
 16
1.0
 26
0.0
 36
0.0
 17
0.0
 27
1.0
 37
0.0
 76
     0
330
70
  0
MATERIAL
  5
19
102
{ACAD_XDICTIONARY
360
1A
102
}
102
{ACAD_REACTORS
330
10
102
}
330
10
100
AcDbMaterial
  1
ByBlock
 72
     0
 43
0.0208333333333333
 43
0.0
 43
0.0
 43
0.0
 43
0.0
 43
0.0208333333333333
 43
0.0
 43
0.0
 43
0.0
 43
0.0
 43
1.0
 43
0.0
 43
0.0
 43
0.0
 43
0.0
 43
1.0
 77
     0
 47
0.0208333333333333
 47
0.0
 47
0.0
 47
0.0
 47
0.0
 47
0.0208333333333333
 47
0.0
 47
0.0
 47
0.0
 47
0.0
 47
1.0
 47
0.0
 47
0.0
 47
0.0
 47
0.0
 47
1.0
171
     0
 49
0.0208333333333333
 49
0.0
 49
0.0
 49
0.0
 49
0.0
 49
0.0208333333333333
 49
0.0
 49
0.0
 49
0.0
 49
0.0
 49
1.0
 49
0.0
 49
0.0
 49
0.0
 49
0.0
 49
1.0
175
     0
142
0.0208333333333333
142
0.0
142
0.0
142
0.0
142
0.0
142
0.0208333333333333
142
0.0
142
0.0
142
0.0
142
0.0
142
1.0
142
0.0
142
0.0
142
0.0
142
0.0
142
1.0
179
     0
144
0.0208333333333333
144
0.0
144
0.0
144
0.0
144
0.0
144
0.0208333333333333
144
0.0
144
0.0
144
0.0
144
0.0
144
1.0
144
0.0
144
0.0
144
0.0
144
0.0
144
1.0
147
0.0208333333333333
147
0.0
147
0.0
147
0.0
147
0.0
147
0.0208333333333333
147
0.0
147
0.0
147
0.0
147
0.0
147
1.0
147
0.0
147
0.0
147
0.0
147
0.0
147
1.0
  0
MATERIAL
  5
11
102
{ACAD_XDICTIONARY
360
12
102
}
102
{ACAD_REACTORS
330
10
102
}
330
10
100
AcDbMaterial
  1
ByLayer
 72
     0
 43
0.0208333333333333
 43
0.0
 43
0.0
 43
0.0
 43
0.0
 43
0.0208333333333333
 43
0.0
 43
0.0
 43
0.0
 43
0.0
 43
1.0
 43
0.0
 43
0.0
 43
0.0
 43
0.0
 43
1.0
 77
     0
 47
0.0208333333333333
 47
0.0
 47
0.0
 47
0.0
 47
0.0
 47
0.0208333333333333
 47
0.0
 47
0.0
 47
0.0
 47
0.0
 47
1.0
 47
0.0
 47
0.0
 47
0.0
 47
0.0
 47
1.0
171
     0
 49
0.0208333333333333
 49
0.0
 49
0.0
 49
0.0
 49
0.0
 49
0.0208333333333333
 49
0.0
 49
0.0
 49
0.0
 49
0.0
 49
1.0
 49
0.0
 49
0.0
 49
0.0
 49
0.0
 49
1.0
175
     0
142
0.0208333333333333
142
0.0
142
0.0
142
0.0
142
0.0
142
0.0208333333333333
142
0.0
142
0.0
142
0.0
142
0.0
142
1.0
142
0.0
142
0.0
142
0.0
142
0.0
142
1.0
179
     0
144
0.0208333333333333
144
0.0
144
0.0
144
0.0
144
0.0
144
0.0208333333333333
144
0.0
144
0.0
144
0.0
144
0.0
144
1.0
144
0.0
144
0.0
144
0.0
144
0.0
144
1.0
147
0.0208333333333333
147
0.0
147
0.0
147
0.0
147
0.0
147
0.0208333333333333
147
0.0
147
0.0
147
0.0
147
0.0
147
1.0
147
0.0
147
0.0
147
0.0
147
0.0
147
1.0
  0
MATERIAL
  5
21
102
{ACAD_XDICTIONARY
360
22
102
}
102
{ACAD_REACTORS
330
10
102
}
330
10
100
AcDbMaterial
  1
Global
 72
     0
 43
0.0208333333333333
 43
0.0
 43
0.0
 43
0.0
 43
0.0
 43
0.0208333333333333
 43
0.0
 43
0.0
 43
0.0
 43
0.0
 43
1.0
 43
0.0
 43
0.0
 43
0.0
 43
0.0
 43
1.0
 77
     0
 47
0.0208333333333333
 47
0.0
 47
0.0
 47
0.0
 47
0.0
 47
0.0208333333333333
 47
0.0
 47
0.0
 47
0.0
 47
0.0
 47
1.0
 47
0.0
 47
0.0
 47
0.0
 47
0.0
 47
1.0
171
     0
 49
0.0208333333333333
 49
0.0
 49
0.0
 49
0.0
 49
0.0
 49
0.0208333333333333
 49
0.0
 49
0.0
 49
0.0
 49
0.0
 49
1.0
 49
0.0
 49
0.0
 49
0.0
 49
0.0
 49
1.0
175
     0
142
0.0208333333333333
142
0.0
142
0.0
142
0.0
142
0.0
142
0.0208333333333333
142
0.0
142
0.0
142
0.0
142
0.0
142
1.0
142
0.0
142
0.0
142
0.0
142
0.0
142
1.0
179
     0
144
0.0208333333333333
144
0.0
144
0.0
144
0.0
144
0.0
144
0.0208333333333333
144
0.0
144
0.0
144
0.0
144
0.0
144
1.0
144
0.0
144
0.0
144
0.0
144
0.0
144
1.0
147
0.0208333333333333
147
0.0
147
0.0
147
0.0
147
0.0
147
0.0208333333333333
147
0.0
147
0.0
147
0.0
147
0.0
147
1.0
147
0.0
147
0.0
147
0.0
147
0.0
147
1.0
  0
MLEADERSTYLE
  5
67
102
{ACAD_XDICTIONARY
360
12D
102
}
102
{ACAD_REACTORS
330
66
102
}
330
66
100
AcDbMLeaderStyle
179
     2
170
     2
171
     1
172
     0
 90
        2
 40
0.0
 41
0.0
173
     1
 91
-1056964608
340
5B
 92
       -2
290
     1
 42
0.09
291
     1
 43
0.36
  3
Standard
 44
0.18
300

342
55
174
     1
178
     6
175
     1
176
     0
 93
-1056964608
 45
0.18
292
     0
297
     0
 46
0.18
 94
-1056964608
 47
1.0
 49
1.0
140
1.0
293
     1
141
0.0
294
     1
177
     0
142
1.0
295
     0
296
     0
143
0.125
271
     0
272
     9
273
     9
  0
MLINESTYLE
  5
60
102
{ACAD_REACTORS
330
5F
102
}
330
5F
100
AcDbMlineStyle
  2
STANDARD
 70
     0
  3

 62
   256
 51
90.0
 52
90.0
 71
     2
 49
0.5
 62
   256
  6
BYLAYER
 49
-0.5
 62
   256
  6
BYLAYER
  0
ACDBPLACEHOLDER
  5
F
102
{ACAD_REACTORS
330
E
102
}
330
E
  0
SCALE
  5
43
102
{ACAD_REACTORS
330
42
102
}
330
42
100
AcDbScale
 70
     0
300
1:1
140
1.0
141
1.0
290
     1
  0
SCALE
  5
44
102
{ACAD_REACTORS
330
42
102
}
330
42
100
AcDbScale
 70
     0
300
1/128" = 1'-0"
140
0.0078125
141
12.0
290
     0
  0
SCALE
  5
45
102
{ACAD_REACTORS
330
42
102
}
330
42
100
AcDbScale
 70
     0
300
1/64" = 1'-0"
140
0.015625
141
12.0
290
     0
  0
SCALE
  5
46
102
{ACAD_REACTORS
330
42
102
}
330
42
100
AcDbScale
 70
     0
300
1/32" = 1'-0"
140
0.03125
141
12.0
290
     0
  0
SCALE
  5
47
102
{ACAD_REACTORS
330
42
102
}
330
42
100
AcDbScale
 70
     0
300
1/16" = 1'-0"
140
0.0625
141
12.0
290
     0
  0
SCALE
  5
48
102
{ACAD_REACTORS
330
42
102
}
330
42
100
AcDbScale
 70
     0
300
3/32" = 1'-0"
140
0.09375
141
12.0
290
     0
  0
SCALE
  5
49
102
{ACAD_REACTORS
330
42
102
}
330
42
100
AcDbScale
 70
     0
300
1/8" = 1'-0"
140
0.125
141
12.0
290
     0
  0
SCALE
  5
4A
102
{ACAD_REACTORS
330
42
102
}
330
42
100
AcDbScale
 70
     0
300
3/16" = 1'-0"
140
0.1875
141
12.0
290
     0
  0
SCALE
  5
4B
102
{ACAD_REACTORS
330
42
102
}
330
42
100
AcDbScale
 70
     0
300
1/4" = 1'-0"
140
0.25
141
12.0
290
     0
  0
SCALE
  5
4C
102
{ACAD_REACTORS
330
42
102
}
330
42
100
AcDbScale
 70
     0
300
3/8" = 1'-0"
140
0.375
141
12.0
290
     0
  0
SCALE
  5
4D
102
{ACAD_REACTORS
330
42
102
}
330
42
100
AcDbScale
 70
     0
300
1/2" = 1'-0"
140
0.5
141
12.0
290
     0
  0
SCALE
  5
4E
102
{ACAD_REACTORS
330
42
102
}
330
42
100
AcDbScale
 70
     0
300
3/4" = 1'-0"
140
0.75
141
12.0
290
     0
  0
SCALE
  5
4F
102
{ACAD_REACTORS
330
42
102
}
330
42
100
AcDbScale
 70
     0
300
1" = 1'-0"
140
1.0
141
12.0
290
     0
  0
SCALE
  5
50
102
{ACAD_REACTORS
330
42
102
}
330
42
100
AcDbScale
 70
     0
300
1-1/2" = 1'-0"
140
1.5
141
12.0
290
     0
  0
SCALE
  5
51
102
{ACAD_REACTORS
330
42
102
}
330
42
100
AcDbScale
 70
     0
300
3" = 1'-0"
140
3.0
141
12.0
290
     0
  0
SCALE
  5
52
102
{ACAD_REACTORS
330
42
102
}
330
42
100
AcDbScale
 70
     0
300
6" = 1'-0"
140
6.0
141
12.0
290
     0
  0
SCALE
  5
53
102
{ACAD_REACTORS
330
42
102
}
330
42
100
AcDbScale
 70
     0
300
1'-0" = 1'-0"
140
12.0
141
12.0
290
     0
  0
ACDBSECTIONVIEWSTYLE
  5
69
102
{ACAD_XDICTIONARY
360
12F
102
}
102
{ACAD_REACTORS
330
68
102
}
330
68
100
AcDbModelDocViewStyle
 70
     0
  3
Imperial24
290
     0
100
AcDbSectionViewStyle
 70
     0
 71
     0
 90
       78
 71
     1
340
55
 62
   256
 40
0.24
340
0
340
0
 62
   256
 40
0.24
300
I, O, Q, S, X, Z
 40
0.48
 90
        3
 40
0.18
 90
        1
 71
     2
340
5D
 90
       25
 62
   256
340
5D
 90
       50
 62
   256
 40
0.24
 40
0.0
 40
0.24
 71
     3
340
55
 62
   256
 40
0.24
 90
        1
 40
0.75
 90
        1
300
%<\AcVar ViewType \f "%tc1">% %<\AcVar ViewSectionStartId>%-%<\AcVar ViewSectionEndId>%\PSCALE %<\AcVar ViewScale \f "%sn">%
 71
     4
 62
   256
 62
   257
300
ANSI31
 40
1.0
 90
        0
290
     0
290
     0
 90
        6
 40
0.0
 40
1.570796326794896
 40
0.2617993877991494
 40
1.308996938995747
 40
-0.2617993877991494
 40
1.832595714594046
  0
TABLESTYLE
  5
65
102
{ACAD_XDICTIONARY
360
FA
102
}
102
{ACAD_REACTORS
330
64
102
}
330
64
100
AcDbTableStyle
280
     0
  3
Standard
 70
     0
 71
     0
 40
0.06
 41
0.06
280
     0
281
     0
  7
Standard
140
0.18
170
     2
 62
     0
 63
     7
283
     0
 90
      512
 91
        0
  1

274
    -2
284
     1
 64
     0
275
    -2
285
     1
 65
     0
276
    -2
286
     1
 66
     0
277
    -2
287
     1
 67
     0
278
    -2
288
     1
 68
     0
279
    -2
289
     1
 69
     0
  7
Standard
140
0.25
170
     5
 62
     0
 63
     7
283
     0
 90
      512
 91
        0
  1

274
    -2
284
     1
 64
     0
275
    -2
285
     1
 65
     0
276
    -2
286
     1
 66
     0
277
    -2
287
     1
 67
     0
278
    -2
288
     1
 68
     0
279
    -2
289
     1
 69
     0
  7
Standard
140
0.18
170
     5
 62
     0
 63
     7
283
     0
 90
      512
 91
        0
  1

274
    -2
284
     1
 64
     0
275
    -2
285
     1
 65
     0
276
    -2
286
     1
 66
     0
277
    -2
287
     1
 67
     0
278
    -2
288
     1
 68
     0
279
    -2
289
     1
 69
     0
  0
VISUALSTYLE
  5
2F
102
{ACAD_XDICTIONARY
360
107
102
}
102
{ACAD_REACTORS
330
29
102
}
330
29
100
AcDbVisualStyle
  2
2dWireframe
 70
     4
177
     2
291
     0
 71
     0
176
     1
 72
     2
176
     1
 73
     0
176
     1
 90
        0
176
     1
 40
0.6
176
     1
 41
30.0
176
     1
 63
     7
421
 16777215
176
     1
 74
     1
176
     1
 91
        4
176
     1
 64
     7
176
     1
 65
   257
176
     1
 75
     1
176
     1
175
     1
176
     1
 42
1.0
176
     1
 92
        0
176
     1
 66
   257
176
     1
 43
1.0
176
     1
 76
     1
176
     1
 77
     6
176
     1
 78
     2
176
     1
 67
     7
176
     1
 79
     5
176
     1
170
     0
176
     1
171
     0
176
     1
290
     0
176
     1
 93
        1
176
     1
 44
0.0
176
     1
173
     0
176
     1
1001
ACAD
1000
AcDbSavedByObjectVersion
1070
     0
  0
VISUALSTYLE
  5
2E
102
{ACAD_XDICTIONARY
360
105
102
}
102
{ACAD_REACTORS
330
29
102
}
330
29
100
AcDbVisualStyle
  2
Basic
 70
     7
177
     2
291
     1
 71
     1
176
     1
 72
     0
176
     1
 73
     1
176
     1
 90
        0
176
     1
 40
0.6
176
     1
 41
30.0
176
     1
 63
     7
421
 16777215
176
     1
 74
     0
176
     1
 91
        4
176
     1
 64
     7
176
     1
 65
   257
176
     1
 75
     1
176
     1
175
     1
176
     1
 42
1.0
176
     1
 92
        8
176
     1
 66
     7
176
     1
 43
1.0
176
     1
 76
     1
176
     1
 77
     6
176
     1
 78
     2
176
     1
 67
     7
176
     1
 79
     5
176
     1
170
     0
176
     1
171
     0
176
     1
290
     0
176
     1
 93
        1
176
     1
 44
0.0
176
     1
173
     0
176
     1
1001
ACAD
1000
AcDbSavedByObjectVersion
1070
     0
  0
VISUALSTYLE
  5
35
102
{ACAD_XDICTIONARY
360
113
102
}
102
{ACAD_REACTORS
330
29
102
}
330
29
100
AcDbVisualStyle
  2
Brighten
 70
    12
177
     2
291
     1
 71
     2
176
     1
 72
     2
176
     1
 73
     0
176
     1
 90
        0
176
     1
 40
0.6
176
     1
 41
30.0
176
     1
 63
     7
421
 16777215
176
     1
 74
     1
176
     1
 91
        4
176
     1
 64
     7
176
     1
 65
   257
176
     1
 75
     1
176
     1
175
     1
176
     1
 42
1.0
176
     1
 92
        8
176
     1
 66
     7
176
     1
 43
1.0
176
     1
 76
     1
176
     1
 77
     6
176
     1
 78
     2
176
     1
 67
     7
176
     1
 79
     5
176
     1
170
     0
176
     1
171
     0
176
     1
290
     0
176
     1
 93
        1
176
     1
 44
50.0
176
     1
173
     0
176
     1
1001
ACAD
1000
AcDbSavedByObjectVersion
1070
     0
  0
VISUALSTYLE
  5
39
102
{ACAD_XDICTIONARY
360
11B
102
}
102
{ACAD_REACTORS
330
29
102
}
330
29
100
AcDbVisualStyle
  2
ColorChange
 70
    16
177
     2
291
     1
 71
     2
176
     1
 72
     2
176
     1
 73
     3
176
     1
 90
        0
176
     1
 40
0.6
176
     1
 41
30.0
176
     1
 63
     8
421
  8421504
176
     1
 74
     1
176
     1
 91
        4
176
     1
 64
     7
176
     1
 65
   257
176
     1
 75
     1
176
     1
175
     1
176
     1
 42
1.0
176
     1
 92
        8
176
     1
 66
     8
424
  8421504
176
     1
 43
1.0
176
     1
 76
     1
176
     1
 77
     6
176
     1
 78
     2
176
     1
 67
     7
176
     1
 79
     5
176
     1
170
     0
176
     1
171
     0
176
     1
290
     0
176
     1
 93
        1
176
     1
 44
0.0
176
     1
173
     0
176
     1
1001
ACAD
1000
AcDbSavedByObjectVersion
1070
     0
  0
VISUALSTYLE
  5
32
102
{ACAD_XDICTIONARY
360
10D
102
}
102
{ACAD_REACTORS
330
29
102
}
330
29
100
AcDbVisualStyle
  2
Conceptual
 70
     9
177
     2
291
     0
 71
     3
176
     1
 72
     2
176
     1
 73
     0
176
     1
 90
        0
176
     1
 40
0.6
176
     1
 41
30.0
176
     1
 63
     7
421
 16777215
176
     1
 74
     2
176
     1
 91
        2
176
     1
 64
     7
176
     1
 65
   257
176
     1
 75
     1
176
     1
175
     1
176
     1
 42
179.0
176
     1
 92
        8
176
     1
 66
     7
176
     1
 43
1.0
176
     1
 76
     1
176
     1
 77
     6
176
     1
 78
     2
176
     1
 67
     7
176
     1
 79
     3
176
     1
170
     0
176
     1
171
     0
176
     1
290
     0
176
     1
 93
        1
176
     1
 44
0.0
176
     1
173
     0
176
     1
1001
ACAD
1000
AcDbSavedByObjectVersion
1070
     0
  0
VISUALSTYLE
  5
34
102
{ACAD_XDICTIONARY
360
111
102
}
102
{ACAD_REACTORS
330
29
102
}
330
29
100
AcDbVisualStyle
  2
Dim
 70
    11
177
     2
291
     1
 71
     2
176
     1
 72
     2
176
     1
 73
     0
176
     1
 90
        0
176
     1
 40
0.6
176
     1
 41
30.0
176
     1
 63
     7
421
 16777215
176
     1
 74
     1
176
     1
 91
        4
176
     1
 64
     7
176
     1
 65
   257
176
     1
 75
     1
176
     1
175
     1
176
     1
 42
1.0
176
     1
 92
        8
176
     1
 66
     7
176
     1
 43
1.0
176
     1
 76
     1
176
     1
 77
     6
176
     1
 78
     2
176
     1
 67
     7
176
     1
 79
     5
176
     1
170
     0
176
     1
171
     0
176
     1
290
     0
176
     1
 93
        1
176
     1
 44
-50.0
176
     1
173
     0
176
     1
1001
ACAD
1000
AcDbSavedByObjectVersion
1070
     0
  0
VISUALSTYLE
  5
41
102
{ACAD_XDICTIONARY
360
12B
102
}
102
{ACAD_REACTORS
330
29
102
}
330
29
100
AcDbVisualStyle
  2
EdgeColorOff
 70
    22
177
     2
291
     1
 71
     2
176
     0
 72
     2
176
     0
 73
     0
176
     0
 90
        0
176
     0
 40
0.6
176
     0
 41
30.0
176
     0
 63
     7
421
 16777215
176
     0
 74
     1
176
     0
 91
        4
176
     0
 64
     7
176
     0
 65
   257
176
     0
 75
     1
176
     0
175
     1
176
     0
 42
1.0
176
     0
 92
        8
176
     2
 66
     7
176
     0
 43
1.0
176
     0
 76
     1
176
     0
 77
     6
176
     0
 78
     2
176
     0
 67
     7
176
     0
 79
     5
176
     0
170
     0
176
     0
171
     0
176
     0
290
     0
176
     0
 93
        1
176
     0
 44
0.0
176
     0
173
     0
176
     0
1001
ACAD
1000
AcDbSavedByObjectVersion
1070
     0
  0
VISUALSTYLE
  5
38
102
{ACAD_XDICTIONARY
360
119
102
}
102
{ACAD_REACTORS
330
29
102
}
330
29
100
AcDbVisualStyle
  2
Facepattern
 70
    15
177
     2
291
     1
 71
     2
176
     1
 72
     2
176
     1
 73
     0
176
     1
 90
        0
176
     1
 40
0.6
176
     1
 41
30.0
176
     1
 63
     7
421
 16777215
176
     1
 74
     1
176
     1
 91
        4
176
     1
 64
     7
176
     1
 65
   257
176
     1
 75
     1
176
     1
175
     1
176
     1
 42
1.0
176
     1
 92
        8
176
     1
 66
     7
176
     1
 43
1.0
176
     1
 76
     1
176
     1
 77
     6
176
     1
 78
     2
176
     1
 67
     7
176
     1
 79
     5
176
     1
170
     0
176
     1
171
     0
176
     1
290
     0
176
     1
 93
        1
176
     1
 44
0.0
176
     1
173
     0
176
     1
1001
ACAD
1000
AcDbSavedByObjectVersion
1070
     0
  0
VISUALSTYLE
  5
2A
102
{ACAD_XDICTIONARY
360
FD
102
}
102
{ACAD_REACTORS
330
29
102
}
330
29
100
AcDbVisualStyle
  2
Flat
 70
     0
177
     2
291
     1
 71
     2
176
     1
 72
     1
176
     1
 73
     1
176
     1
 90
        2
176
     1
 40
0.6
176
     1
 41
30.0
176
     1
 63
     7
421
 16777215
176
     1
 74
     0
176
     1
 91
        0
176
     1
 64
     7
176
     1
 65
   257
176
     1
 75
     1
176
     1
175
     1
176
     1
 42
1.0
176
     1
 92
        8
176
     1
 66
     7
176
     1
 43
1.0
176
     1
 76
     1
176
     1
 77
     6
176
     1
 78
     2
176
     1
 67
     7
176
     1
 79
     5
176
     1
170
     0
176
     1
171
     0
176
     1
290
     0
176
     1
 93
       13
176
     1
 44
0.0
176
     1
173
     0
176
     1
1001
ACAD
1000
AcDbSavedByObjectVersion
1070
     0
  0
VISUALSTYLE
  5
2B
102
{ACAD_XDICTIONARY
360
FF
102
}
102
{ACAD_REACTORS
330
29
102
}
330
29
100
AcDbVisualStyle
  2
FlatWithEdges
 70
     1
177
     2
291
     1
 71
     2
176
     1
 72
     1
176
     1
 73
     1
176
     1
 90
        2
176
     1
 40
0.6
176
     1
 41
30.0
176
     1
 63
     7
421
 16777215
176
     1
 74
     1
176
     1
 91
        0
176
     1
 64
     7
176
     1
 65
   257
176
     1
 75
     1
176
     1
175
     1
176
     1
 42
1.0
176
     1
 92
        0
176
     1
 66
   257
176
     1
 43
1.0
176
     1
 76
     1
176
     1
 77
     6
176
     1
 78
     2
176
     1
 67
     7
176
     1
 79
     5
176
     1
170
     0
176
     1
171
     0
176
     1
290
     0
176
     1
 93
       13
176
     1
 44
0.0
176
     1
173
     0
176
     1
1001
ACAD
1000
AcDbSavedByObjectVersion
1070
     0
  0
VISUALSTYLE
  5
2C
102
{ACAD_XDICTIONARY
360
101
102
}
102
{ACAD_REACTORS
330
29
102
}
330
29
100
AcDbVisualStyle
  2
Gouraud
 70
     2
177
     2
291
     1
 71
     2
176
     1
 72
     2
176
     1
 73
     1
176
     1
 90
        2
176
     1
 40
0.6
176
     1
 41
30.0
176
     1
 63
     7
421
 16777215
176
     1
 74
     0
176
     1
 91
        0
176
     1
 64
     7
176
     1
 65
   257
176
     1
 75
     1
176
     1
175
     1
176
     1
 42
1.0
176
     1
 92
        0
176
     1
 66
     7
176
     1
 43
1.0
176
     1
 76
     1
176
     1
 77
     6
176
     1
 78
     2
176
     1
 67
     7
176
     1
 79
     5
176
     1
170
     0
176
     1
171
     0
176
     1
290
     0
176
     1
 93
       13
176
     1
 44
0.0
176
     1
173
     0
176
     1
1001
ACAD
1000
AcDbSavedByObjectVersion
1070
     0
  0
VISUALSTYLE
  5
2D
102
{ACAD_XDICTIONARY
360
103
102
}
102
{ACAD_REACTORS
330
29
102
}
330
29
100
AcDbVisualStyle
  2
GouraudWithEdges
 70
     3
177
     2
291
     1
 71
     2
176
     1
 72
     2
176
     1
 73
     1
176
     1
 90
        2
176
     1
 40
0.6
176
     1
 41
30.0
176
     1
 63
     7
421
 16777215
176
     1
 74
     1
176
     1
 91
        0
176
     1
 64
     7
176
     1
 65
   257
176
     1
 75
     1
176
     1
175
     1
176
     1
 42
1.0
176
     1
 92
        0
176
     1
 66
   257
176
     1
 43
1.0
176
     1
 76
     1
176
     1
 77
     6
176
     1
 78
     2
176
     1
 67
     7
176
     1
 79
     5
176
     1
170
     0
176
     1
171
     0
176
     1
290
     0
176
     1
 93
       13
176
     1
 44
0.0
176
     1
173
     0
176
     1
1001
ACAD
1000
AcDbSavedByObjectVersion
1070
     0
  0
VISUALSTYLE
  5
31
102
{ACAD_XDICTIONARY
360
10B
102
}
102
{ACAD_REACTORS
330
29
102
}
330
29
100
AcDbVisualStyle
  2
Hidden
 70
     6
177
     2
291
     0
 71
     1
176
     1
 72
     2
176
     1
 73
     2
176
     1
 90
        0
176
     1
 40
0.6
176
     1
 41
30.0
176
     1
 63
     7
421
 16777215
176
     1
 74
     2
176
     1
 91
        2
176
     1
 64
     7
176
     1
 65
   257
176
     1
 75
     2
176
     1
175
     1
176
     1
 42
40.0
176
     1
 92
        0
176
     1
 66
   257
176
     1
 43
1.0
176
     1
 76
     1
176
     1
 77
     6
176
     1
 78
     2
176
     1
 67
     7
176
     1
 79
     3
176
     1
170
     0
176
     1
171
     0
176
     1
290
     0
176
     1
 93
        1
176
     1
 44
0.0
176
     1
173
     0
176
     1
1001
ACAD
1000
AcDbSavedByObjectVersion
1070
     0
  0
VISUALSTYLE
  5
3F
102
{ACAD_XDICTIONARY
360
127
102
}
102
{ACAD_REACTORS
330
29
102
}
330
29
100
AcDbVisualStyle
  2
JitterOff
 70
    20
177
     2
291
     1
 71
     2
176
     0
 72
     2
176
     0
 73
     0
176
     0
 90
        0
176
     0
 40
0.6
176
     0
 41
30.0
176
     0
 63
     7
421
 16777215
176
     0
 74
     1
176
     0
 91
        4
176
     0
 64
     7
176
     0
 65
   257
176
     0
 75
     1
176
     0
175
     1
176
     0
 42
1.0
176
     0
 92
       10
176
     2
 66
     7
176
     0
 43
1.0
176
     0
 76
     1
176
     0
 77
     6
176
     0
 78
     2
176
     0
 67
     7
176
     0
 79
     5
176
     0
170
     0
176
     0
171
     0
176
     0
290
     0
176
     0
 93
        1
176
     0
 44
0.0
176
     0
173
     0
176
     0
1001
ACAD
1000
AcDbSavedByObjectVersion
1070
     0
  0
VISUALSTYLE
  5
37
102
{ACAD_XDICTIONARY
360
117
102
}
102
{ACAD_REACTORS
330
29
102
}
330
29
100
AcDbVisualStyle
  2
Linepattern
 70
    14
177
     2
291
     1
 71
     2
176
     1
 72
     2
176
     1
 73
     0
176
     1
 90
        0
176
     1
 40
0.6
176
     1
 41
30.0
176
     1
 63
     7
421
 16777215
176
     1
 74
     1
176
     1
 91
        4
176
     1
 64
     7
176
     1
 65
   257
176
     1
 75
     7
176
     1
175
     7
176
     1
 42
1.0
176
     1
 92
        8
176
     1
 66
     7
176
     1
 43
1.0
176
     1
 76
     1
176
     1
 77
     6
176
     1
 78
     2
176
     1
 67
     7
176
     1
 79
     5
176
     1
170
     0
176
     1
171
     0
176
     1
290
     0
176
     1
 93
        1
176
     1
 44
0.0
176
     1
173
     0
176
     1
1001
ACAD
1000
AcDbSavedByObjectVersion
1070
     0
  0
VISUALSTYLE
  5
40
102
{ACAD_XDICTIONARY
360
129
102
}
102
{ACAD_REACTORS
330
29
102
}
330
29
100
AcDbVisualStyle
  2
OverhangOff
 70
    21
177
     2
291
     1
 71
     2
176
     0
 72
     2
176
     0
 73
     0
176
     0
 90
        0
176
     0
 40
0.6
176
     0
 41
30.0
176
     0
 63
     7
421
 16777215
176
     0
 74
     1
176
     0
 91
        4
176
     0
 64
     7
176
     0
 65
   257
176
     0
 75
     1
176
     0
175
     1
176
     0
 42
1.0
176
     0
 92
        9
176
     2
 66
     7
176
     0
 43
1.0
176
     0
 76
     1
176
     0
 77
     6
176
     0
 78
     2
176
     0
 67
     7
176
     0
 79
     5
176
     0
170
     0
176
     0
171
     0
176
     0
290
     0
176
     0
 93
        1
176
     0
 44
0.0
176
     0
173
     0
176
     0
1001
ACAD
1000
AcDbSavedByObjectVersion
1070
     0
  0
VISUALSTYLE
  5
33
102
{ACAD_XDICTIONARY
360
10F
102
}
102
{ACAD_REACTORS
330
29
102
}
330
29
100
AcDbVisualStyle
  2
Realistic
 70
     8
177
     2
291
     0
 71
     2
176
     1
 72
     3
176
     1
 73
     0
176
     1
 90
        2
176
     1
 40
0.6
176
     1
 41
30.0
176
     1
 63
     7
421
 16777215
176
     1
 74
     0
176
     1
 91
        0
176
     1
 64
     7
176
     1
 65
   257
176
     1
 75
     1
176
     1
175
     1
176
     1
 42
1.0
176
     1
 92
        8
176
     1
 66
   257
176
     1
 43
1.0
176
     1
 76
     1
176
     1
 77
     6
176
     1
 78
     2
176
     1
 67
     7
176
     1
 79
     3
176
     1
170
     0
176
     1
171
     0
176
     1
290
     0
176
     1
 93
       13
176
     1
 44
0.0
176
     1
173
     0
176
     1
1001
ACAD
1000
AcDbSavedByObjectVersion
1070
     0
  0
VISUALSTYLE
  5
3E
102
{ACAD_XDICTIONARY
360
125
102
}
102
{ACAD_REACTORS
330
29
102
}
330
29
100
AcDbVisualStyle
  2
Shaded
 70
    27
177
     2
291
     0
 71
     2
176
     1
 72
     2
176
     1
 73
     1
176
     1
 90
        2
176
     1
 40
0.6
176
     1
 41
30.0
176
     1
 63
     7
421
 16777215
176
     1
 74
     0
176
     1
 91
        4
176
     1
 64
     7
176
     1
 65
   257
176
     1
 75
     1
176
     1
175
     1
176
     1
 42
1.0
176
     1
 92
        8
176
     1
 66
   257
176
     1
 43
1.0
176
     1
 76
     1
176
     1
 77
     6
176
     1
 78
     2
176
     1
 67
     8
425
  7895160
176
     1
 79
     3
176
     1
170
     0
176
     1
171
     0
176
     1
290
     0
176
     1
 93
        5
176
     1
 44
0.0
176
     1
173
     0
176
     1
1001
ACAD
1000
AcDbSavedByObjectVersion
1070
     0
  0
VISUALSTYLE
  5
3D
102
{ACAD_XDICTIONARY
360
123
102
}
102
{ACAD_REACTORS
330
29
102
}
330
29
100
AcDbVisualStyle
  2
Shaded with edges
 70
    26
177
     2
291
     0
 71
     2
176
     1
 72
     2
176
     1
 73
     1
176
     1
 90
        2
176
     1
 40
0.6
176
     1
 41
30.0
176
     1
 63
     7
421
 16777215
176
     1
 74
     1
176
     1
 91
        2
176
     1
 64
     7
176
     1
 65
   257
176
     1
 75
     2
176
     1
175
     1
176
     1
 42
1.0
176
     1
 92
        8
176
     1
 66
   257
176
     1
 43
1.0
176
     1
 76
     1
176
     1
 77
     6
176
     1
 78
     2
176
     1
 67
     7
176
     1
 79
     3
176
     1
170
     0
176
     1
171
     0
176
     1
290
     0
176
     1
 93
        5
176
     1
 44
0.0
176
     1
173
     0
176
     1
1001
ACAD
1000
AcDbSavedByObjectVersion
1070
     0
  0
VISUALSTYLE
  5
3A
102
{ACAD_XDICTIONARY
360
11D
102
}
102
{ACAD_REACTORS
330
29
102
}
330
29
100
AcDbVisualStyle
  2
Shades of Gray
 70
    23
177
     2
291
     0
 71
     2
176
     1
 72
     2
176
     1
 73
     3
176
     1
 90
        0
176
     1
 40
0.6
176
     1
 41
30.0
176
     1
 63
     7
421
 16777215
176
     1
 74
     2
176
     1
 91
        2
176
     1
 64
     7
176
     1
 65
     7
176
     1
 75
     1
176
     1
175
     1
176
     1
 42
40.0
176
     1
 92
        8
176
     1
 66
     7
176
     1
 43
1.0
176
     1
 76
     1
176
     1
 77
     6
176
     1
 78
     2
176
     1
 67
     7
176
     1
 79
     3
176
     1
170
     0
176
     1
171
     0
176
     1
290
     0
176
     1
 93
        1
176
     1
 44
0.0
176
     1
173
     0
176
     1
1001
ACAD
1000
AcDbSavedByObjectVersion
1070
     0
  0
VISUALSTYLE
  5
3B
102
{ACAD_XDICTIONARY
360
11F
102
}
102
{ACAD_REACTORS
330
29
102
}
330
29
100
AcDbVisualStyle
  2
Sketchy
 70
    24
177
     2
291
     0
 71
     1
176
     1
 72
     2
176
     1
 73
     2
176
     1
 90
        0
176
     1
 40
0.6
176
     1
 41
30.0
176
     1
 63
     7
421
 16777215
176
     1
 74
     2
176
     1
 91
        2
176
     1
 64
     7
176
     1
 65
     7
176
     1
 75
     1
176
     1
175
     1
176
     1
 42
40.0
176
     1
 92
       11
176
     1
 66
     7
176
     1
 43
1.0
176
     1
 76
     1
176
     1
 77
     6
176
     1
 78
     2
176
     1
 67
     7
176
     1
 79
     6
176
     1
170
     0
176
     1
171
     0
176
     1
290
     0
176
     1
 93
        1
176
     1
 44
0.0
176
     1
173
     0
176
     1
1001
ACAD
1000
AcDbSavedByObjectVersion
1070
     0
  0
VISUALSTYLE
  5
36
102
{ACAD_XDICTIONARY
360
115
102
}
102
{ACAD_REACTORS
330
29
102
}
330
29
100
AcDbVisualStyle
  2
Thicken
 70
    13
177
     2
291
     1
 71
     2
176
     1
 72
     2
176
     1
 73
     0
176
     1
 90
        0
176
     1
 40
0.6
176
     1
 41
30.0
176
     1
 63
     7
421
 16777215
176
     1
 74
     1
176
     1
 91
        4
176
     1
 64
     7
176
     1
 65
   257
176
     1
 75
     1
176
     1
175
     1
176
     1
 42
1.0
176
     1
 92
       12
176
     1
 66
     7
176
     1
 43
1.0
176
     1
 76
     1
176
     1
 77
     6
176
     1
 78
     2
176
     1
 67
     7
176
     1
 79
     5
176
     1
170
     0
176
     1
171
     0
176
     1
290
     0
176
     1
 93
        1
176
     1
 44
0.0
176
     1
173
     0
176
     1
1001
ACAD
1000
AcDbSavedByObjectVersion
1070
     0
  0
VISUALSTYLE
  5
30
102
{ACAD_XDICTIONARY
360
109
102
}
102
{ACAD_REACTORS
330
29
102
}
330
29
100
AcDbVisualStyle
  2
Wireframe
 70
     5
177
     2
291
     0
 71
     0
176
     1
 72
     2
176
     1
 73
     0
176
     1
 90
        0
176
     1
 40
0.6
176
     1
 41
30.0
176
     1
 63
     7
421
 16777215
176
     1
 74
     1
176
     1
 91
        4
176
     1
 64
     7
176
     1
 65
   257
176
     1
 75
     1
176
     1
175
     1
176
     1
 42
1.0
176
     1
 92
        0
176
     1
 66
   257
176
     1
 43
1.0
176
     1
 76
     1
176
     1
 77
     6
176
     1
 78
     2
176
     1
 67
     7
176
     1
 79
     3
176
     1
170
     0
176
     1
171
     0
176
     1
290
     0
176
     1
 93
        1
176
     1
 44
0.0
176
     1
173
     0
176
     1
1001
ACAD
1000
AcDbSavedByObjectVersion
1070
     0
  0
VISUALSTYLE
  5
3C
102
{ACAD_XDICTIONARY
360
121
102
}
102
{ACAD_REACTORS
330
29
102
}
330
29
100
AcDbVisualStyle
  2
X-Ray
 70
    25
177
     2
291
     0
 71
     2
176
     1
 72
     2
176
     1
 73
     1
176
     1
 90
        1
176
     1
 40
0.5
176
     1
 41
30.0
176
     1
 63
     7
421
 16777215
176
     1
 74
     1
176
     1
 91
        0
176
     1
 64
     7
176
     1
 65
   257
176
     1
 75
     1
176
     1
175
     1
176
     1
 42
1.0
176
     1
 92
        8
176
     1
 66
     7
176
     1
 43
1.0
176
     1
 76
     1
176
     1
 77
     6
176
     1
 78
     2
176
     1
 67
     7
176
     1
 79
     3
176
     1
170
     0
176
     1
171
     0
176
     1
290
     0
176
     1
 93
       13
176
     1
 44
0.0
176
     1
173
     0
176
     1
1001
ACAD
1000
AcDbSavedByObjectVersion
1070
     0
  0
DICTIONARYVAR
  5
F9
102
{ACAD_REACTORS
330
F4
102
}
330
F4
100
DictionaryVariables
280
     0
  1
1:1
  0
DICTIONARYVAR
  5
F6
102
{ACAD_REACTORS
330
F4
102
}
330
F4
100
DictionaryVariables
280
     0
  1
STANDARD
  0
DICTIONARYVAR
  5
F5
102
{ACAD_REACTORS
330
F4
102
}
330
F4
100
DictionaryVariables
280
     0
  1
STANDARD
  0
DICTIONARYVAR
  5
F7
102
{ACAD_REACTORS
330
F4
102
}
330
F4
100
DictionaryVariables
280
     0
  1
Imperial24
  0
DICTIONARYVAR
  5
F8
102
{ACAD_REACTORS
330
F4
102
}
330
F4
100
DictionaryVariables
280
     0
  1
Imperial24
  0
DICTIONARY
  5
131
330
6B
100
AcDbDictionary
280
     1
281
     1
  3
ACAD_XREC_ROUNDTRIP
360
132
  0
DICTIONARY
  5
1A
330
19
100
AcDbDictionary
280
     1
281
     1
  3
BUMPTILE
360
1C
  3
DIFFUSETILE
360
1B
  3
OPACITYTILE
360
1F
  3
REFLECTIONTILE
360
1E
  3
REFRACTIONTILE
360
20
  3
SPECULARTILE
360
1D
  0
DICTIONARY
  5
12
330
11
100
AcDbDictionary
280
     1
281
     1
  3
BUMPTILE
360
14
  3
DIFFUSETILE
360
13
  3
OPACITYTILE
360
17
  3
REFLECTIONTILE
360
16
  3
REFRACTIONTILE
360
18
  3
SPECULARTILE
360
15
  0
DICTIONARY
  5
22
330
21
100
AcDbDictionary
280
     1
281
     1
  3
BUMPTILE
360
24
  3
DIFFUSETILE
360
23
  3
OPACITYTILE
360
27
  3
REFLECTIONTILE
360
26
  3
REFRACTIONTILE
360
28
  3
SPECULARTILE
360
25
  0
DICTIONARY
  5
12D
330
67
100
AcDbDictionary
280
     1
281
     1
  3
ACAD_XREC_ROUNDTRIP
360
12E
  0
DICTIONARY
  5
12F
330
69
100
AcDbDictionary
280
     1
281
     1
  3
ACAD_XREC_ROUNDTRIP
360
130
  0
DICTIONARY
  5
FA
330
65
100
AcDbDictionary
280
     1
281
     1
  3
ACAD_ROUNDTRIP_2008_TABLESTYLE_CELLSTYLEMAP
360
FB
  0
DICTIONARY
  5
107
330
2F
100
AcDbDictionary
280
     1
281
     1
  3
ACAD_XREC_ROUNDTRIP
360
108
  0
DICTIONARY
  5
105
330
2E
100
AcDbDictionary
280
     1
281
     1
  3
ACAD_XREC_ROUNDTRIP
360
106
  0
DICTIONARY
  5
113
330
35
100
AcDbDictionary
280
     1
281
     1
  3
ACAD_XREC_ROUNDTRIP
360
114
  0
DICTIONARY
  5
11B
330
39
100
AcDbDictionary
280
     1
281
     1
  3
ACAD_XREC_ROUNDTRIP
360
11C
  0
DICTIONARY
  5
10D
330
32
100
AcDbDictionary
280
     1
281
     1
  3
ACAD_XREC_ROUNDTRIP
360
10E
  0
DICTIONARY
  5
111
330
34
100
AcDbDictionary
280
     1
281
     1
  3
ACAD_XREC_ROUNDTRIP
360
112
  0
DICTIONARY
  5
12B
330
41
100
AcDbDictionary
280
     1
281
     1
  3
ACAD_XREC_ROUNDTRIP
360
12C
  0
DICTIONARY
  5
119
330
38
100
AcDbDictionary
280
     1
281
     1
  3
ACAD_XREC_ROUNDTRIP
360
11A
  0
DICTIONARY
  5
FD
330
2A
100
AcDbDictionary
280
     1
281
     1
  3
ACAD_XREC_ROUNDTRIP
360
FE
  0
DICTIONARY
  5
FF
330
2B
100
AcDbDictionary
280
     1
281
     1
  3
ACAD_XREC_ROUNDTRIP
360
100
  0
DICTIONARY
  5
101
330
2C
100
AcDbDictionary
280
     1
281
     1
  3
ACAD_XREC_ROUNDTRIP
360
102
  0
DICTIONARY
  5
103
330
2D
100
AcDbDictionary
280
     1
281
     1
  3
ACAD_XREC_ROUNDTRIP
360
104
  0
DICTIONARY
  5
10B
330
31
100
AcDbDictionary
280
     1
281
     1
  3
ACAD_XREC_ROUNDTRIP
360
10C
  0
DICTIONARY
  5
127
330
3F
100
AcDbDictionary
280
     1
281
     1
  3
ACAD_XREC_ROUNDTRIP
360
128
  0
DICTIONARY
  5
117
330
37
100
AcDbDictionary
280
     1
281
     1
  3
ACAD_XREC_ROUNDTRIP
360
118
  0
DICTIONARY
  5
129
330
40
100
AcDbDictionary
280
     1
281
     1
  3
ACAD_XREC_ROUNDTRIP
360
12A
  0
DICTIONARY
  5
10F
330
33
100
AcDbDictionary
280
     1
281
     1
  3
ACAD_XREC_ROUNDTRIP
360
110
  0
DICTIONARY
  5
125
330
3E
100
AcDbDictionary
280
     1
281
     1
  3
ACAD_XREC_ROUNDTRIP
360
126
  0
DICTIONARY
  5
123
330
3D
100
AcDbDictionary
280
     1
281
     1
  3
ACAD_XREC_ROUNDTRIP
360
124
  0
DICTIONARY
  5
11D
330
3A
100
AcDbDictionary
280
     1
281
     1
  3
ACAD_XREC_ROUNDTRIP
360
11E
  0
DICTIONARY
  5
11F
330
3B
100
AcDbDictionary
280
     1
281
     1
  3
ACAD_XREC_ROUNDTRIP
360
120
  0
DICTIONARY
  5
115
330
36
100
AcDbDictionary
280
     1
281
     1
  3
ACAD_XREC_ROUNDTRIP
360
116
  0
DICTIONARY
  5
109
330
30
100
AcDbDictionary
280
     1
281
     1
  3
ACAD_XREC_ROUNDTRIP
360
10A
  0
DICTIONARY
  5
121
330
3C
100
AcDbDictionary
280
     1
281
     1
  3
ACAD_XREC_ROUNDTRIP
360
122
  0
XRECORD
  5
132
102
{ACAD_REACTORS
330
131
102
}
330
131
100
AcDbXrecord
280
     1
102
DISPLAYNAME
  1
Imperial24
102
FLAGS
 90
        0
  0
XRECORD
  5
1C
102
{ACAD_REACTORS
330
1A
102
}
330
1A
100
AcDbXrecord
280
     1
270
     1
271
     1
  0
XRECORD
  5
1B
102
{ACAD_REACTORS
330
1A
102
}
330
1A
100
AcDbXrecord
280
     1
270
     1
271
     1
  0
XRECORD
  5
1F
102
{ACAD_REACTORS
330
1A
102
}
330
1A
100
AcDbXrecord
280
     1
270
     1
271
     1
  0
XRECORD
  5
1E
102
{ACAD_REACTORS
330
1A
102
}
330
1A
100
AcDbXrecord
280
     1
270
     1
271
     1
  0
XRECORD
  5
20
102
{ACAD_REACTORS
330
1A
102
}
330
1A
100
AcDbXrecord
280
     1
270
     1
271
     1
  0
XRECORD
  5
1D
102
{ACAD_REACTORS
330
1A
102
}
330
1A
100
AcDbXrecord
280
     1
270
     1
271
     1
  0
XRECORD
  5
14
102
{ACAD_REACTORS
330
12
102
}
330
12
100
AcDbXrecord
280
     1
270
     1
271
     1
  0
XRECORD
  5
13
102
{ACAD_REACTORS
330
12
102
}
330
12
100
AcDbXrecord
280
     1
270
     1
271
     1
  0
XRECORD
  5
17
102
{ACAD_REACTORS
330
12
102
}
330
12
100
AcDbXrecord
280
     1
270
     1
271
     1
  0
XRECORD
  5
16
102
{ACAD_REACTORS
330
12
102
}
330
12
100
AcDbXrecord
280
     1
270
     1
271
     1
  0
XRECORD
  5
18
102
{ACAD_REACTORS
330
12
102
}
330
12
100
AcDbXrecord
280
     1
270
     1
271
     1
  0
XRECORD
  5
15
102
{ACAD_REACTORS
330
12
102
}
330
12
100
AcDbXrecord
280
     1
270
     1
271
     1
  0
XRECORD
  5
24
102
{ACAD_REACTORS
330
22
102
}
330
22
100
AcDbXrecord
280
     1
270
     1
271
     1
  0
XRECORD
  5
23
102
{ACAD_REACTORS
330
22
102
}
330
22
100
AcDbXrecord
280
     1
270
     1
271
     1
  0
XRECORD
  5
27
102
{ACAD_REACTORS
330
22
102
}
330
22
100
AcDbXrecord
280
     1
270
     1
271
     1
  0
XRECORD
  5
26
102
{ACAD_REACTORS
330
22
102
}
330
22
100
AcDbXrecord
280
     1
270
     1
271
     1
  0
XRECORD
  5
28
102
{ACAD_REACTORS
330
22
102
}
330
22
100
AcDbXrecord
280
     1
270
     1
271
     1
  0
XRECORD
  5
25
102
{ACAD_REACTORS
330
22
102
}
330
22
100
AcDbXrecord
280
     1
270
     1
271
     1
  0
XRECORD
  5
12E
102
{ACAD_REACTORS
330
12D
102
}
330
12D
100
AcDbXrecord
280
     1
102
ACAD_ROUNDTRIP_2012_MLEADER_STYLE
298
     1
  0
XRECORD
  5
130
102
{ACAD_REACTORS
330
12F
102
}
330
12F
100
AcDbXrecord
280
     1
102
DISPLAYNAME
  1
Imperial24
102
FLAGS
 90
        0
  0
CELLSTYLEMAP
  5
FB
102
{ACAD_REACTORS
330
FA
102
}
330
FA
100
AcDbCellStyleMap
 90
        3
300
CELLSTYLE
  1
TABLEFORMAT_BEGIN
 90
        5
170
     1
 91
        0
 92
    32768
 62
   257
 93
        1
300
CONTENTFORMAT
  1
CONTENTFORMAT_BEGIN
 90
        0
 91
        0
 92
      512
 93
        0
300

 40
0.0
140
1.0
 94
        5
 62
     0
340
55
144
0.25
309
CONTENTFORMAT_END
171
     0
 94
        0
309
TABLEFORMAT_END
  1
CELLSTYLE_BEGIN
 90
        1
 91
        1
300
_TITLE
309
CELLSTYLE_END
300
CELLSTYLE
  1
TABLEFORMAT_BEGIN
 90
        5
170
     1
 91
        0
 92
        0
 62
   257
 93
        1
300
CONTENTFORMAT
  1
CONTENTFORMAT_BEGIN
 90
        0
 91
        0
 92
      512
 93
        0
300

 40
0.0
140
1.0
 94
        5
 62
     0
340
55
144
0.18
309
CONTENTFORMAT_END
171
     0
 94
        0
309
TABLEFORMAT_END
  1
CELLSTYLE_BEGIN
 90
        2
 91
        1
300
_HEADER
309
CELLSTYLE_END
300
CELLSTYLE
  1
TABLEFORMAT_BEGIN
 90
        5
170
     1
 91
        0
 92
        0
 62
   257
 93
        1
300
CONTENTFORMAT
  1
CONTENTFORMAT_BEGIN
 90
        0
 91
        0
 92
      512
 93
        0
300

 40
0.0
140
1.0
 94
        2
 62
     0
340
55
144
0.18
309
CONTENTFORMAT_END
171
     0
 94
        0
309
TABLEFORMAT_END
  1
CELLSTYLE_BEGIN
 90
        3
 91
        2
300
_DATA
309
CELLSTYLE_END
  0
XRECORD
  5
108
102
{ACAD_REACTORS
330
107
102
}
330
107
100
AcDbXrecord
280
     1
102
RTVSPost2010Prop28
280
     1
102
RTVSPost2010PropOp28
 70
     1
102
RTVSPost2010Prop29
280
     1
102
RTVSPost2010PropOp29
 70
     1
102
RTVSPost2010Prop30
280
     0
102
RTVSPost2010PropOp30
 70
     1
102
RTVSPost2010Prop31
280
     0
102
RTVSPost2010PropOp31
 70
     1
102
RTVSPost2010Prop32
280
     0
102
RTVSPost2010PropOp32
 70
     1
102
RTVSPost2010Prop33
280
     0
102
RTVSPost2010PropOp33
 70
     1
102
RTVSPost2010Prop34
280
     0
102
RTVSPost2010PropOp34
 70
     1
102
RTVSPost2010Prop35
280
     0
102
RTVSPost2010PropOp35
 70
     1
102
RTVSPost2010Prop36
280
     0
102
RTVSPost2010PropOp36
 70
     1
102
RTVSPost2010Prop37
 90
       50
102
RTVSPost2010PropOp37
 70
     1
102
RTVSPost2010Prop38
140
0.0
102
RTVSPost2010PropOp38
 70
     1
102
RTVSPost2010Prop39
140
1.0
102
RTVSPost2010PropOp39
 70
     1
102
RTVSPost2010Prop40
 90
        0
102
RTVSPost2010PropOp40
 70
     1
102
RTVSPost2010Prop41ColorIndex
 90
       18
102
RTVSPost2010Prop41ColorRGB
 90
        0
102
RTVSPost2010PropOp41
 70
     1
102
RTVSPost2010Prop42
 90
       50
102
RTVSPost2010PropOp42
 70
     1
102
RTVSPost2010Prop43
 90
        3
102
RTVSPost2010PropOp43
 70
     1
102
RTVSPost2010Prop44ColorIndex
 90
        5
102
RTVSPost2010Prop44ColorRGB
 90
      255
102
RTVSPost2010PropOp44
 70
     1
102
RTVSPost2010Prop45
280
     0
102
RTVSPost2010PropOp45
 70
     1
102
RTVSPost2010Prop46
 90
       50
102
RTVSPost2010PropOp46
 70
     1
102
RTVSPost2010Prop47
 90
       50
102
RTVSPost2010PropOp47
 70
     1
102
RTVSPost2010Prop48
 90
       50
102
RTVSPost2010PropOp48
 70
     1
102
RTVSPost2010Prop49
280
     0
102
RTVSPost2010PropOp49
 70
     1
102
RTVSPost2010Prop50
 90
       50
102
RTVSPost2010PropOp50
 70
     1
102
RTVSPost2010Prop51ColorIndex
 90
      256
102
RTVSPost2010Prop51ColorRGB
 90
-16777216
102
RTVSPost2010PropOp51
 70
     0
102
RTVSPost2010Prop52
140
1.0
102
RTVSPost2010PropOp52
 70
     0
102
RTVSPost2010Prop53
 90
        2
102
RTVSPost2010PropOp53
 70
     1
102
RTVSPost2010Prop54
  1
strokes_ogs.tif
102
RTVSPost2010PropOp54
 70
     1
102
RTVSPost2010Prop55
280
     0
102
RTVSPost2010PropOp55
 70
     1
102
RTVSPost2010Prop56
140
1.0
102
RTVSPost2010PropOp56
 70
     1
102
RTVSPost2010Prop57
140
1.0
102
RTVSPost2010PropOp57
 70
     1
  0
XRECORD
  5
106
102
{ACAD_REACTORS
330
105
102
}
330
105
100
AcDbXrecord
280
     1
102
RTVSPost2010Prop28
280
     0
102
RTVSPost2010PropOp28
 70
     1
102
RTVSPost2010Prop29
280
     1
102
RTVSPost2010PropOp29
 70
     1
102
RTVSPost2010Prop30
280
     1
102
RTVSPost2010PropOp30
 70
     1
102
RTVSPost2010Prop31
280
     0
102
RTVSPost2010PropOp31
 70
     1
102
RTVSPost2010Prop32
280
     0
102
RTVSPost2010PropOp32
 70
     1
102
RTVSPost2010Prop33
280
     0
102
RTVSPost2010PropOp33
 70
     1
102
RTVSPost2010Prop34
280
     0
102
RTVSPost2010PropOp34
 70
     1
102
RTVSPost2010Prop35
280
     0
102
RTVSPost2010PropOp35
 70
     1
102
RTVSPost2010Prop36
280
     0
102
RTVSPost2010PropOp36
 70
     1
102
RTVSPost2010Prop37
 90
       50
102
RTVSPost2010PropOp37
 70
     1
102
RTVSPost2010Prop38
140
0.0
102
RTVSPost2010PropOp38
 70
     1
102
RTVSPost2010Prop39
140
1.0
102
RTVSPost2010PropOp39
 70
     1
102
RTVSPost2010Prop40
 90
        0
102
RTVSPost2010PropOp40
 70
     1
102
RTVSPost2010Prop41ColorIndex
 90
       18
102
RTVSPost2010Prop41ColorRGB
 90
        0
102
RTVSPost2010PropOp41
 70
     1
102
RTVSPost2010Prop42
 90
       50
102
RTVSPost2010PropOp42
 70
     1
102
RTVSPost2010Prop43
 90
        3
102
RTVSPost2010PropOp43
 70
     1
102
RTVSPost2010Prop44ColorIndex
 90
        5
102
RTVSPost2010Prop44ColorRGB
 90
      255
102
RTVSPost2010PropOp44
 70
     1
102
RTVSPost2010Prop45
280
     0
102
RTVSPost2010PropOp45
 70
     1
102
RTVSPost2010Prop46
 90
       50
102
RTVSPost2010PropOp46
 70
     1
102
RTVSPost2010Prop47
 90
       50
102
RTVSPost2010PropOp47
 70
     1
102
RTVSPost2010Prop48
 90
       50
102
RTVSPost2010PropOp48
 70
     1
102
RTVSPost2010Prop49
280
     0
102
RTVSPost2010PropOp49
 70
     1
102
RTVSPost2010Prop50
 90
       50
102
RTVSPost2010PropOp50
 70
     1
102
RTVSPost2010Prop51ColorIndex
 90
      256
102
RTVSPost2010Prop51ColorRGB
 90
-16777216
102
RTVSPost2010PropOp51
 70
     0
102
RTVSPost2010Prop52
140
1.0
102
RTVSPost2010PropOp52
 70
     0
102
RTVSPost2010Prop53
 90
        2
102
RTVSPost2010PropOp53
 70
     1
102
RTVSPost2010Prop54
  1
strokes_ogs.tif
102
RTVSPost2010PropOp54
 70
     1
102
RTVSPost2010Prop55
280
     0
102
RTVSPost2010PropOp55
 70
     1
102
RTVSPost2010Prop56
140
1.0
102
RTVSPost2010PropOp56
 70
     1
102
RTVSPost2010Prop57
140
1.0
102
RTVSPost2010PropOp57
 70
     1
  0
XRECORD
  5
114
102
{ACAD_REACTORS
330
113
102
}
330
113
100
AcDbXrecord
280
     1
102
RTVSPost2010Prop28
280
     0
102
RTVSPost2010PropOp28
 70
     1
102
RTVSPost2010Prop29
280
     1
102
RTVSPost2010PropOp29
 70
     1
102
RTVSPost2010Prop30
280
     1
102
RTVSPost2010PropOp30
 70
     1
102
RTVSPost2010Prop31
280
     0
102
RTVSPost2010PropOp31
 70
     1
102
RTVSPost2010Prop32
280
     0
102
RTVSPost2010PropOp32
 70
     1
102
RTVSPost2010Prop33
280
     0
102
RTVSPost2010PropOp33
 70
     1
102
RTVSPost2010Prop34
280
     0
102
RTVSPost2010PropOp34
 70
     1
102
RTVSPost2010Prop35
280
     0
102
RTVSPost2010PropOp35
 70
     1
102
RTVSPost2010Prop36
280
     0
102
RTVSPost2010PropOp36
 70
     1
102
RTVSPost2010Prop37
 90
       50
102
RTVSPost2010PropOp37
 70
     1
102
RTVSPost2010Prop38
140
0.0
102
RTVSPost2010PropOp38
 70
     1
102
RTVSPost2010Prop39
140
1.0
102
RTVSPost2010PropOp39
 70
     1
102
RTVSPost2010Prop40
 90
        0
102
RTVSPost2010PropOp40
 70
     1
102
RTVSPost2010Prop41ColorIndex
 90
       18
102
RTVSPost2010Prop41ColorRGB
 90
        0
102
RTVSPost2010PropOp41
 70
     1
102
RTVSPost2010Prop42
 90
       50
102
RTVSPost2010PropOp42
 70
     1
102
RTVSPost2010Prop43
 90
        3
102
RTVSPost2010PropOp43
 70
     1
102
RTVSPost2010Prop44ColorIndex
 90
        5
102
RTVSPost2010Prop44ColorRGB
 90
      255
102
RTVSPost2010PropOp44
 70
     1
102
RTVSPost2010Prop45
280
     0
102
RTVSPost2010PropOp45
 70
     1
102
RTVSPost2010Prop46
 90
       50
102
RTVSPost2010PropOp46
 70
     1
102
RTVSPost2010Prop47
 90
       50
102
RTVSPost2010PropOp47
 70
     1
102
RTVSPost2010Prop48
 90
       50
102
RTVSPost2010PropOp48
 70
     1
102
RTVSPost2010Prop49
280
     0
102
RTVSPost2010PropOp49
 70
     1
102
RTVSPost2010Prop50
 90
       50
102
RTVSPost2010PropOp50
 70
     1
102
RTVSPost2010Prop51ColorIndex
 90
      256
102
RTVSPost2010Prop51ColorRGB
 90
-16777216
102
RTVSPost2010PropOp51
 70
     0
102
RTVSPost2010Prop52
140
1.0
102
RTVSPost2010PropOp52
 70
     0
102
RTVSPost2010Prop53
 90
        2
102
RTVSPost2010PropOp53
 70
     1
102
RTVSPost2010Prop54
  1
strokes_ogs.tif
102
RTVSPost2010PropOp54
 70
     1
102
RTVSPost2010Prop55
280
     0
102
RTVSPost2010PropOp55
 70
     1
102
RTVSPost2010Prop56
140
1.0
102
RTVSPost2010PropOp56
 70
     1
102
RTVSPost2010Prop57
140
1.0
102
RTVSPost2010PropOp57
 70
     1
  0
XRECORD
  5
11C
102
{ACAD_REACTORS
330
11B
102
}
330
11B
100
AcDbXrecord
280
     1
102
RTVSPost2010Prop28
280
     0
102
RTVSPost2010PropOp28
 70
     1
102
RTVSPost2010Prop29
280
     1
102
RTVSPost2010PropOp29
 70
     1
102
RTVSPost2010Prop30
280
     1
102
RTVSPost2010PropOp30
 70
     1
102
RTVSPost2010Prop31
280
     0
102
RTVSPost2010PropOp31
 70
     1
102
RTVSPost2010Prop32
280
     0
102
RTVSPost2010PropOp32
 70
     1
102
RTVSPost2010Prop33
280
     0
102
RTVSPost2010PropOp33
 70
     1
102
RTVSPost2010Prop34
280
     0
102
RTVSPost2010PropOp34
 70
     1
102
RTVSPost2010Prop35
280
     0
102
RTVSPost2010PropOp35
 70
     1
102
RTVSPost2010Prop36
280
     0
102
RTVSPost2010PropOp36
 70
     1
102
RTVSPost2010Prop37
 90
       50
102
RTVSPost2010PropOp37
 70
     1
102
RTVSPost2010Prop38
140
0.0
102
RTVSPost2010PropOp38
 70
     1
102
RTVSPost2010Prop39
140
1.0
102
RTVSPost2010PropOp39
 70
     1
102
RTVSPost2010Prop40
 90
        0
102
RTVSPost2010PropOp40
 70
     1
102
RTVSPost2010Prop41ColorIndex
 90
       18
102
RTVSPost2010Prop41ColorRGB
 90
        0
102
RTVSPost2010PropOp41
 70
     1
102
RTVSPost2010Prop42
 90
       50
102
RTVSPost2010PropOp42
 70
     1
102
RTVSPost2010Prop43
 90
        3
102
RTVSPost2010PropOp43
 70
     1
102
RTVSPost2010Prop44ColorIndex
 90
        5
102
RTVSPost2010Prop44ColorRGB
 90
      255
102
RTVSPost2010PropOp44
 70
     1
102
RTVSPost2010Prop45
280
     0
102
RTVSPost2010PropOp45
 70
     1
102
RTVSPost2010Prop46
 90
       50
102
RTVSPost2010PropOp46
 70
     1
102
RTVSPost2010Prop47
 90
       50
102
RTVSPost2010PropOp47
 70
     1
102
RTVSPost2010Prop48
 90
       50
102
RTVSPost2010PropOp48
 70
     1
102
RTVSPost2010Prop49
280
     0
102
RTVSPost2010PropOp49
 70
     1
102
RTVSPost2010Prop50
 90
       50
102
RTVSPost2010PropOp50
 70
     1
102
RTVSPost2010Prop51ColorIndex
 90
      256
102
RTVSPost2010Prop51ColorRGB
 90
-16777216
102
RTVSPost2010PropOp51
 70
     0
102
RTVSPost2010Prop52
140
1.0
102
RTVSPost2010PropOp52
 70
     0
102
RTVSPost2010Prop53
 90
        2
102
RTVSPost2010PropOp53
 70
     1
102
RTVSPost2010Prop54
  1
strokes_ogs.tif
102
RTVSPost2010PropOp54
 70
     1
102
RTVSPost2010Prop55
280
     0
102
RTVSPost2010PropOp55
 70
     1
102
RTVSPost2010Prop56
140
1.0
102
RTVSPost2010PropOp56
 70
     1
102
RTVSPost2010Prop57
140
1.0
102
RTVSPost2010PropOp57
 70
     1
  0
XRECORD
  5
10E
102
{ACAD_REACTORS
330
10D
102
}
330
10D
100
AcDbXrecord
280
     1
102
RTVSPost2010Prop28
280
     0
102
RTVSPost2010PropOp28
 70
     1
102
RTVSPost2010Prop29
280
     1
102
RTVSPost2010PropOp29
 70
     1
102
RTVSPost2010Prop30
280
     1
102
RTVSPost2010PropOp30
 70
     1
102
RTVSPost2010Prop31
280
     0
102
RTVSPost2010PropOp31
 70
     1
102
RTVSPost2010Prop32
280
     0
102
RTVSPost2010PropOp32
 70
     1
102
RTVSPost2010Prop33
280
     0
102
RTVSPost2010PropOp33
 70
     1
102
RTVSPost2010Prop34
280
     0
102
RTVSPost2010PropOp34
 70
     1
102
RTVSPost2010Prop35
280
     0
102
RTVSPost2010PropOp35
 70
     1
102
RTVSPost2010Prop36
280
     0
102
RTVSPost2010PropOp36
 70
     1
102
RTVSPost2010Prop37
 90
       50
102
RTVSPost2010PropOp37
 70
     1
102
RTVSPost2010Prop38
140
0.0
102
RTVSPost2010PropOp38
 70
     1
102
RTVSPost2010Prop39
140
1.0
102
RTVSPost2010PropOp39
 70
     1
102
RTVSPost2010Prop40
 90
        0
102
RTVSPost2010PropOp40
 70
     1
102
RTVSPost2010Prop41ColorIndex
 90
       18
102
RTVSPost2010Prop41ColorRGB
 90
        0
102
RTVSPost2010PropOp41
 70
     1
102
RTVSPost2010Prop42
 90
       50
102
RTVSPost2010PropOp42
 70
     1
102
RTVSPost2010Prop43
 90
        3
102
RTVSPost2010PropOp43
 70
     1
102
RTVSPost2010Prop44ColorIndex
 90
        5
102
RTVSPost2010Prop44ColorRGB
 90
      255
102
RTVSPost2010PropOp44
 70
     1
102
RTVSPost2010Prop45
280
     0
102
RTVSPost2010PropOp45
 70
     1
102
RTVSPost2010Prop46
 90
       50
102
RTVSPost2010PropOp46
 70
     1
102
RTVSPost2010Prop47
 90
       50
102
RTVSPost2010PropOp47
 70
     1
102
RTVSPost2010Prop48
 90
       50
102
RTVSPost2010PropOp48
 70
     1
102
RTVSPost2010Prop49
280
     0
102
RTVSPost2010PropOp49
 70
     1
102
RTVSPost2010Prop50
 90
       50
102
RTVSPost2010PropOp50
 70
     1
102
RTVSPost2010Prop51ColorIndex
 90
      256
102
RTVSPost2010Prop51ColorRGB
 90
-16777216
102
RTVSPost2010PropOp51
 70
     0
102
RTVSPost2010Prop52
140
1.0
102
RTVSPost2010PropOp52
 70
     0
102
RTVSPost2010Prop53
 90
        2
102
RTVSPost2010PropOp53
 70
     1
102
RTVSPost2010Prop54
  1
strokes_ogs.tif
102
RTVSPost2010PropOp54
 70
     1
102
RTVSPost2010Prop55
280
     0
102
RTVSPost2010PropOp55
 70
     1
102
RTVSPost2010Prop56
140
1.0
102
RTVSPost2010PropOp56
 70
     1
102
RTVSPost2010Prop57
140
1.0
102
RTVSPost2010PropOp57
 70
     1
  0
XRECORD
  5
112
102
{ACAD_REACTORS
330
111
102
}
330
111
100
AcDbXrecord
280
     1
102
RTVSPost2010Prop28
280
     0
102
RTVSPost2010PropOp28
 70
     1
102
RTVSPost2010Prop29
280
     1
102
RTVSPost2010PropOp29
 70
     1
102
RTVSPost2010Prop30
280
     1
102
RTVSPost2010PropOp30
 70
     1
102
RTVSPost2010Prop31
280
     0
102
RTVSPost2010PropOp31
 70
     1
102
RTVSPost2010Prop32
280
     0
102
RTVSPost2010PropOp32
 70
     1
102
RTVSPost2010Prop33
280
     0
102
RTVSPost2010PropOp33
 70
     1
102
RTVSPost2010Prop34
280
     0
102
RTVSPost2010PropOp34
 70
     1
102
RTVSPost2010Prop35
280
     0
102
RTVSPost2010PropOp35
 70
     1
102
RTVSPost2010Prop36
280
     0
102
RTVSPost2010PropOp36
 70
     1
102
RTVSPost2010Prop37
 90
       50
102
RTVSPost2010PropOp37
 70
     1
102
RTVSPost2010Prop38
140
0.0
102
RTVSPost2010PropOp38
 70
     1
102
RTVSPost2010Prop39
140
1.0
102
RTVSPost2010PropOp39
 70
     1
102
RTVSPost2010Prop40
 90
        0
102
RTVSPost2010PropOp40
 70
     1
102
RTVSPost2010Prop41ColorIndex
 90
       18
102
RTVSPost2010Prop41ColorRGB
 90
        0
102
RTVSPost2010PropOp41
 70
     1
102
RTVSPost2010Prop42
 90
       50
102
RTVSPost2010PropOp42
 70
     1
102
RTVSPost2010Prop43
 90
        3
102
RTVSPost2010PropOp43
 70
     1
102
RTVSPost2010Prop44ColorIndex
 90
        5
102
RTVSPost2010Prop44ColorRGB
 90
      255
102
RTVSPost2010PropOp44
 70
     1
102
RTVSPost2010Prop45
280
     0
102
RTVSPost2010PropOp45
 70
     1
102
RTVSPost2010Prop46
 90
       50
102
RTVSPost2010PropOp46
 70
     1
102
RTVSPost2010Prop47
 90
       50
102
RTVSPost2010PropOp47
 70
     1
102
RTVSPost2010Prop48
 90
       50
102
RTVSPost2010PropOp48
 70
     1
102
RTVSPost2010Prop49
280
     0
102
RTVSPost2010PropOp49
 70
     1
102
RTVSPost2010Prop50
 90
       50
102
RTVSPost2010PropOp50
 70
     1
102
RTVSPost2010Prop51ColorIndex
 90
      256
102
RTVSPost2010Prop51ColorRGB
 90
-16777216
102
RTVSPost2010PropOp51
 70
     0
102
RTVSPost2010Prop52
140
1.0
102
RTVSPost2010PropOp52
 70
     0
102
RTVSPost2010Prop53
 90
        2
102
RTVSPost2010PropOp53
 70
     1
102
RTVSPost2010Prop54
  1
strokes_ogs.tif
102
RTVSPost2010PropOp54
 70
     1
102
RTVSPost2010Prop55
280
     0
102
RTVSPost2010PropOp55
 70
     1
102
RTVSPost2010Prop56
140
1.0
102
RTVSPost2010PropOp56
 70
     1
102
RTVSPost2010Prop57
140
1.0
102
RTVSPost2010PropOp57
 70
     1
  0
XRECORD
  5
12C
102
{ACAD_REACTORS
330
12B
102
}
330
12B
100
AcDbXrecord
280
     1
102
RTVSPost2010Prop28
280
     0
102
RTVSPost2010PropOp28
 70
     0
102
RTVSPost2010Prop29
280
     1
102
RTVSPost2010PropOp29
 70
     0
102
RTVSPost2010Prop30
280
     1
102
RTVSPost2010PropOp30
 70
     0
102
RTVSPost2010Prop31
280
     0
102
RTVSPost2010PropOp31
 70
     0
102
RTVSPost2010Prop32
280
     0
102
RTVSPost2010PropOp32
 70
     0
102
RTVSPost2010Prop33
280
     0
102
RTVSPost2010PropOp33
 70
     0
102
RTVSPost2010Prop34
280
     0
102
RTVSPost2010PropOp34
 70
     0
102
RTVSPost2010Prop35
280
     0
102
RTVSPost2010PropOp35
 70
     0
102
RTVSPost2010Prop36
280
     0
102
RTVSPost2010PropOp36
 70
     0
102
RTVSPost2010Prop37
 90
       50
102
RTVSPost2010PropOp37
 70
     0
102
RTVSPost2010Prop38
140
0.0
102
RTVSPost2010PropOp38
 70
     0
102
RTVSPost2010Prop39
140
1.0
102
RTVSPost2010PropOp39
 70
     0
102
RTVSPost2010Prop40
 90
        0
102
RTVSPost2010PropOp40
 70
     0
102
RTVSPost2010Prop41ColorIndex
 90
       18
102
RTVSPost2010Prop41ColorRGB
 90
        0
102
RTVSPost2010PropOp41
 70
     0
102
RTVSPost2010Prop42
 90
       50
102
RTVSPost2010PropOp42
 70
     0
102
RTVSPost2010Prop43
 90
        3
102
RTVSPost2010PropOp43
 70
     0
102
RTVSPost2010Prop44ColorIndex
 90
        5
102
RTVSPost2010Prop44ColorRGB
 90
      255
102
RTVSPost2010PropOp44
 70
     0
102
RTVSPost2010Prop45
280
     0
102
RTVSPost2010PropOp45
 70
     0
102
RTVSPost2010Prop46
 90
       50
102
RTVSPost2010PropOp46
 70
     0
102
RTVSPost2010Prop47
 90
       50
102
RTVSPost2010PropOp47
 70
     0
102
RTVSPost2010Prop48
 90
       50
102
RTVSPost2010PropOp48
 70
     0
102
RTVSPost2010Prop49
280
     0
102
RTVSPost2010PropOp49
 70
     0
102
RTVSPost2010Prop50
 90
       50
102
RTVSPost2010PropOp50
 70
     0
102
RTVSPost2010Prop51ColorIndex
 90
      256
102
RTVSPost2010Prop51ColorRGB
 90
-16777216
102
RTVSPost2010PropOp51
 70
     0
102
RTVSPost2010Prop52
140
1.0
102
RTVSPost2010PropOp52
 70
     0
102
RTVSPost2010Prop53
 90
        2
102
RTVSPost2010PropOp53
 70
     0
102
RTVSPost2010Prop54
  1
strokes_ogs.tif
102
RTVSPost2010PropOp54
 70
     0
102
RTVSPost2010Prop55
280
     0
102
RTVSPost2010PropOp55
 70
     0
102
RTVSPost2010Prop56
140
1.0
102
RTVSPost2010PropOp56
 70
     0
102
RTVSPost2010Prop57
140
1.0
102
RTVSPost2010PropOp57
 70
     0
  0
XRECORD
  5
11A
102
{ACAD_REACTORS
330
119
102
}
330
119
100
AcDbXrecord
280
     1
102
RTVSPost2010Prop28
280
     0
102
RTVSPost2010PropOp28
 70
     1
102
RTVSPost2010Prop29
280
     1
102
RTVSPost2010PropOp29
 70
     1
102
RTVSPost2010Prop30
280
     1
102
RTVSPost2010PropOp30
 70
     1
102
RTVSPost2010Prop31
280
     0
102
RTVSPost2010PropOp31
 70
     1
102
RTVSPost2010Prop32
280
     0
102
RTVSPost2010PropOp32
 70
     1
102
RTVSPost2010Prop33
280
     0
102
RTVSPost2010PropOp33
 70
     1
102
RTVSPost2010Prop34
280
     0
102
RTVSPost2010PropOp34
 70
     1
102
RTVSPost2010Prop35
280
     0
102
RTVSPost2010PropOp35
 70
     1
102
RTVSPost2010Prop36
280
     0
102
RTVSPost2010PropOp36
 70
     1
102
RTVSPost2010Prop37
 90
       50
102
RTVSPost2010PropOp37
 70
     1
102
RTVSPost2010Prop38
140
0.0
102
RTVSPost2010PropOp38
 70
     1
102
RTVSPost2010Prop39
140
1.0
102
RTVSPost2010PropOp39
 70
     1
102
RTVSPost2010Prop40
 90
        0
102
RTVSPost2010PropOp40
 70
     1
102
RTVSPost2010Prop41ColorIndex
 90
       18
102
RTVSPost2010Prop41ColorRGB
 90
        0
102
RTVSPost2010PropOp41
 70
     1
102
RTVSPost2010Prop42
 90
       50
102
RTVSPost2010PropOp42
 70
     1
102
RTVSPost2010Prop43
 90
        3
102
RTVSPost2010PropOp43
 70
     1
102
RTVSPost2010Prop44ColorIndex
 90
        5
102
RTVSPost2010Prop44ColorRGB
 90
      255
102
RTVSPost2010PropOp44
 70
     1
102
RTVSPost2010Prop45
280
     0
102
RTVSPost2010PropOp45
 70
     1
102
RTVSPost2010Prop46
 90
       50
102
RTVSPost2010PropOp46
 70
     1
102
RTVSPost2010Prop47
 90
       50
102
RTVSPost2010PropOp47
 70
     1
102
RTVSPost2010Prop48
 90
       50
102
RTVSPost2010PropOp48
 70
     1
102
RTVSPost2010Prop49
280
     0
102
RTVSPost2010PropOp49
 70
     1
102
RTVSPost2010Prop50
 90
       50
102
RTVSPost2010PropOp50
 70
     1
102
RTVSPost2010Prop51ColorIndex
 90
      256
102
RTVSPost2010Prop51ColorRGB
 90
-16777216
102
RTVSPost2010PropOp51
 70
     0
102
RTVSPost2010Prop52
140
1.0
102
RTVSPost2010PropOp52
 70
     0
102
RTVSPost2010Prop53
 90
        2
102
RTVSPost2010PropOp53
 70
     1
102
RTVSPost2010Prop54
  1
strokes_ogs.tif
102
RTVSPost2010PropOp54
 70
     1
102
RTVSPost2010Prop55
280
     0
102
RTVSPost2010PropOp55
 70
     1
102
RTVSPost2010Prop56
140
1.0
102
RTVSPost2010PropOp56
 70
     1
102
RTVSPost2010Prop57
140
1.0
102
RTVSPost2010PropOp57
 70
     1
  0
XRECORD
  5
FE
102
{ACAD_REACTORS
330
FD
102
}
330
FD
100
AcDbXrecord
280
     1
102
RTVSPost2010Prop28
280
     0
102
RTVSPost2010PropOp28
 70
     1
102
RTVSPost2010Prop29
280
     1
102
RTVSPost2010PropOp29
 70
     1
102
RTVSPost2010Prop30
280
     1
102
RTVSPost2010PropOp30
 70
     1
102
RTVSPost2010Prop31
280
     0
102
RTVSPost2010PropOp31
 70
     1
102
RTVSPost2010Prop32
280
     0
102
RTVSPost2010PropOp32
 70
     1
102
RTVSPost2010Prop33
280
     0
102
RTVSPost2010PropOp33
 70
     1
102
RTVSPost2010Prop34
280
     0
102
RTVSPost2010PropOp34
 70
     1
102
RTVSPost2010Prop35
280
     0
102
RTVSPost2010PropOp35
 70
     1
102
RTVSPost2010Prop36
280
     0
102
RTVSPost2010PropOp36
 70
     1
102
RTVSPost2010Prop37
 90
       50
102
RTVSPost2010PropOp37
 70
     1
102
RTVSPost2010Prop38
140
0.0
102
RTVSPost2010PropOp38
 70
     1
102
RTVSPost2010Prop39
140
1.0
102
RTVSPost2010PropOp39
 70
     1
102
RTVSPost2010Prop40
 90
        0
102
RTVSPost2010PropOp40
 70
     1
102
RTVSPost2010Prop41ColorIndex
 90
       18
102
RTVSPost2010Prop41ColorRGB
 90
        0
102
RTVSPost2010PropOp41
 70
     1
102
RTVSPost2010Prop42
 90
       50
102
RTVSPost2010PropOp42
 70
     1
102
RTVSPost2010Prop43
 90
        3
102
RTVSPost2010PropOp43
 70
     1
102
RTVSPost2010Prop44ColorIndex
 90
        5
102
RTVSPost2010Prop44ColorRGB
 90
      255
102
RTVSPost2010PropOp44
 70
     1
102
RTVSPost2010Prop45
280
     0
102
RTVSPost2010PropOp45
 70
     1
102
RTVSPost2010Prop46
 90
       50
102
RTVSPost2010PropOp46
 70
     1
102
RTVSPost2010Prop47
 90
       50
102
RTVSPost2010PropOp47
 70
     1
102
RTVSPost2010Prop48
 90
       50
102
RTVSPost2010PropOp48
 70
     1
102
RTVSPost2010Prop49
280
     0
102
RTVSPost2010PropOp49
 70
     1
102
RTVSPost2010Prop50
 90
       50
102
RTVSPost2010PropOp50
 70
     1
102
RTVSPost2010Prop51ColorIndex
 90
      256
102
RTVSPost2010Prop51ColorRGB
 90
-16777216
102
RTVSPost2010PropOp51
 70
     0
102
RTVSPost2010Prop52
140
1.0
102
RTVSPost2010PropOp52
 70
     0
102
RTVSPost2010Prop53
 90
        2
102
RTVSPost2010PropOp53
 70
     1
102
RTVSPost2010Prop54
  1
strokes_ogs.tif
102
RTVSPost2010PropOp54
 70
     1
102
RTVSPost2010Prop55
280
     0
102
RTVSPost2010PropOp55
 70
     1
102
RTVSPost2010Prop56
140
1.0
102
RTVSPost2010PropOp56
 70
     1
102
RTVSPost2010Prop57
140
1.0
102
RTVSPost2010PropOp57
 70
     1
  0
XRECORD
  5
100
102
{ACAD_REACTORS
330
FF
102
}
330
FF
100
AcDbXrecord
280
     1
102
RTVSPost2010Prop28
280
     0
102
RTVSPost2010PropOp28
 70
     1
102
RTVSPost2010Prop29
280
     1
102
RTVSPost2010PropOp29
 70
     1
102
RTVSPost2010Prop30
280
     1
102
RTVSPost2010PropOp30
 70
     1
102
RTVSPost2010Prop31
280
     0
102
RTVSPost2010PropOp31
 70
     1
102
RTVSPost2010Prop32
280
     0
102
RTVSPost2010PropOp32
 70
     1
102
RTVSPost2010Prop33
280
     0
102
RTVSPost2010PropOp33
 70
     1
102
RTVSPost2010Prop34
280
     0
102
RTVSPost2010PropOp34
 70
     1
102
RTVSPost2010Prop35
280
     0
102
RTVSPost2010PropOp35
 70
     1
102
RTVSPost2010Prop36
280
     0
102
RTVSPost2010PropOp36
 70
     1
102
RTVSPost2010Prop37
 90
       50
102
RTVSPost2010PropOp37
 70
     1
102
RTVSPost2010Prop38
140
0.0
102
RTVSPost2010PropOp38
 70
     1
102
RTVSPost2010Prop39
140
1.0
102
RTVSPost2010PropOp39
 70
     1
102
RTVSPost2010Prop40
 90
        0
102
RTVSPost2010PropOp40
 70
     1
102
RTVSPost2010Prop41ColorIndex
 90
       18
102
RTVSPost2010Prop41ColorRGB
 90
        0
102
RTVSPost2010PropOp41
 70
     1
102
RTVSPost2010Prop42
 90
       50
102
RTVSPost2010PropOp42
 70
     1
102
RTVSPost2010Prop43
 90
        3
102
RTVSPost2010PropOp43
 70
     1
102
RTVSPost2010Prop44ColorIndex
 90
        5
102
RTVSPost2010Prop44ColorRGB
 90
      255
102
RTVSPost2010PropOp44
 70
     1
102
RTVSPost2010Prop45
280
     0
102
RTVSPost2010PropOp45
 70
     1
102
RTVSPost2010Prop46
 90
       50
102
RTVSPost2010PropOp46
 70
     1
102
RTVSPost2010Prop47
 90
       50
102
RTVSPost2010PropOp47
 70
     1
102
RTVSPost2010Prop48
 90
       50
102
RTVSPost2010PropOp48
 70
     1
102
RTVSPost2010Prop49
280
     0
102
RTVSPost2010PropOp49
 70
     1
102
RTVSPost2010Prop50
 90
       50
102
RTVSPost2010PropOp50
 70
     1
102
RTVSPost2010Prop51ColorIndex
 90
      256
102
RTVSPost2010Prop51ColorRGB
 90
-16777216
102
RTVSPost2010PropOp51
 70
     0
102
RTVSPost2010Prop52
140
1.0
102
RTVSPost2010PropOp52
 70
     0
102
RTVSPost2010Prop53
 90
        2
102
RTVSPost2010PropOp53
 70
     1
102
RTVSPost2010Prop54
  1
strokes_ogs.tif
102
RTVSPost2010PropOp54
 70
     1
102
RTVSPost2010Prop55
280
     0
102
RTVSPost2010PropOp55
 70
     1
102
RTVSPost2010Prop56
140
1.0
102
RTVSPost2010PropOp56
 70
     1
102
RTVSPost2010Prop57
140
1.0
102
RTVSPost2010PropOp57
 70
     1
  0
XRECORD
  5
102
102
{ACAD_REACTORS
330
101
102
}
330
101
100
AcDbXrecord
280
     1
102
RTVSPost2010Prop28
280
     0
102
RTVSPost2010PropOp28
 70
     1
102
RTVSPost2010Prop29
280
     1
102
RTVSPost2010PropOp29
 70
     1
102
RTVSPost2010Prop30
280
     1
102
RTVSPost2010PropOp30
 70
     1
102
RTVSPost2010Prop31
280
     0
102
RTVSPost2010PropOp31
 70
     1
102
RTVSPost2010Prop32
280
     0
102
RTVSPost2010PropOp32
 70
     1
102
RTVSPost2010Prop33
280
     0
102
RTVSPost2010PropOp33
 70
     1
102
RTVSPost2010Prop34
280
     0
102
RTVSPost2010PropOp34
 70
     1
102
RTVSPost2010Prop35
280
     0
102
RTVSPost2010PropOp35
 70
     1
102
RTVSPost2010Prop36
280
     0
102
RTVSPost2010PropOp36
 70
     1
102
RTVSPost2010Prop37
 90
       50
102
RTVSPost2010PropOp37
 70
     1
102
RTVSPost2010Prop38
140
0.0
102
RTVSPost2010PropOp38
 70
     1
102
RTVSPost2010Prop39
140
1.0
102
RTVSPost2010PropOp39
 70
     1
102
RTVSPost2010Prop40
 90
        0
102
RTVSPost2010PropOp40
 70
     1
102
RTVSPost2010Prop41ColorIndex
 90
       18
102
RTVSPost2010Prop41ColorRGB
 90
        0
102
RTVSPost2010PropOp41
 70
     1
102
RTVSPost2010Prop42
 90
       50
102
RTVSPost2010PropOp42
 70
     1
102
RTVSPost2010Prop43
 90
        3
102
RTVSPost2010PropOp43
 70
     1
102
RTVSPost2010Prop44ColorIndex
 90
        5
102
RTVSPost2010Prop44ColorRGB
 90
      255
102
RTVSPost2010PropOp44
 70
     1
102
RTVSPost2010Prop45
280
     0
102
RTVSPost2010PropOp45
 70
     1
102
RTVSPost2010Prop46
 90
       50
102
RTVSPost2010PropOp46
 70
     1
102
RTVSPost2010Prop47
 90
       50
102
RTVSPost2010PropOp47
 70
     1
102
RTVSPost2010Prop48
 90
       50
102
RTVSPost2010PropOp48
 70
     1
102
RTVSPost2010Prop49
280
     0
102
RTVSPost2010PropOp49
 70
     1
102
RTVSPost2010Prop50
 90
       50
102
RTVSPost2010PropOp50
 70
     1
102
RTVSPost2010Prop51ColorIndex
 90
      256
102
RTVSPost2010Prop51ColorRGB
 90
-16777216
102
RTVSPost2010PropOp51
 70
     0
102
RTVSPost2010Prop52
140
1.0
102
RTVSPost2010PropOp52
 70
     0
102
RTVSPost2010Prop53
 90
        2
102
RTVSPost2010PropOp53
 70
     1
102
RTVSPost2010Prop54
  1
strokes_ogs.tif
102
RTVSPost2010PropOp54
 70
     1
102
RTVSPost2010Prop55
280
     0
102
RTVSPost2010PropOp55
 70
     1
102
RTVSPost2010Prop56
140
1.0
102
RTVSPost2010PropOp56
 70
     1
102
RTVSPost2010Prop57
140
1.0
102
RTVSPost2010PropOp57
 70
     1
  0
XRECORD
  5
104
102
{ACAD_REACTORS
330
103
102
}
330
103
100
AcDbXrecord
280
     1
102
RTVSPost2010Prop28
280
     0
102
RTVSPost2010PropOp28
 70
     1
102
RTVSPost2010Prop29
280
     1
102
RTVSPost2010PropOp29
 70
     1
102
RTVSPost2010Prop30
280
     1
102
RTVSPost2010PropOp30
 70
     1
102
RTVSPost2010Prop31
280
     0
102
RTVSPost2010PropOp31
 70
     1
102
RTVSPost2010Prop32
280
     0
102
RTVSPost2010PropOp32
 70
     1
102
RTVSPost2010Prop33
280
     0
102
RTVSPost2010PropOp33
 70
     1
102
RTVSPost2010Prop34
280
     0
102
RTVSPost2010PropOp34
 70
     1
102
RTVSPost2010Prop35
280
     0
102
RTVSPost2010PropOp35
 70
     1
102
RTVSPost2010Prop36
280
     0
102
RTVSPost2010PropOp36
 70
     1
102
RTVSPost2010Prop37
 90
       50
102
RTVSPost2010PropOp37
 70
     1
102
RTVSPost2010Prop38
140
0.0
102
RTVSPost2010PropOp38
 70
     1
102
RTVSPost2010Prop39
140
1.0
102
RTVSPost2010PropOp39
 70
     1
102
RTVSPost2010Prop40
 90
        0
102
RTVSPost2010PropOp40
 70
     1
102
RTVSPost2010Prop41ColorIndex
 90
       18
102
RTVSPost2010Prop41ColorRGB
 90
        0
102
RTVSPost2010PropOp41
 70
     1
102
RTVSPost2010Prop42
 90
       50
102
RTVSPost2010PropOp42
 70
     1
102
RTVSPost2010Prop43
 90
        3
102
RTVSPost2010PropOp43
 70
     1
102
RTVSPost2010Prop44ColorIndex
 90
        5
102
RTVSPost2010Prop44ColorRGB
 90
      255
102
RTVSPost2010PropOp44
 70
     1
102
RTVSPost2010Prop45
280
     0
102
RTVSPost2010PropOp45
 70
     1
102
RTVSPost2010Prop46
 90
       50
102
RTVSPost2010PropOp46
 70
     1
102
RTVSPost2010Prop47
 90
       50
102
RTVSPost2010PropOp47
 70
     1
102
RTVSPost2010Prop48
 90
       50
102
RTVSPost2010PropOp48
 70
     1
102
RTVSPost2010Prop49
280
     0
102
RTVSPost2010PropOp49
 70
     1
102
RTVSPost2010Prop50
 90
       50
102
RTVSPost2010PropOp50
 70
     1
102
RTVSPost2010Prop51ColorIndex
 90
      256
102
RTVSPost2010Prop51ColorRGB
 90
-16777216
102
RTVSPost2010PropOp51
 70
     0
102
RTVSPost2010Prop52
140
1.0
102
RTVSPost2010PropOp52
 70
     0
102
RTVSPost2010Prop53
 90
        2
102
RTVSPost2010PropOp53
 70
     1
102
RTVSPost2010Prop54
  1
strokes_ogs.tif
102
RTVSPost2010PropOp54
 70
     1
102
RTVSPost2010Prop55
280
     0
102
RTVSPost2010PropOp55
 70
     1
102
RTVSPost2010Prop56
140
1.0
102
RTVSPost2010PropOp56
 70
     1
102
RTVSPost2010Prop57
140
1.0
102
RTVSPost2010PropOp57
 70
     1
  0
XRECORD
  5
10C
102
{ACAD_REACTORS
330
10B
102
}
330
10B
100
AcDbXrecord
280
     1
102
RTVSPost2010Prop28
280
     0
102
RTVSPost2010PropOp28
 70
     1
102
RTVSPost2010Prop29
280
     1
102
RTVSPost2010PropOp29
 70
     1
102
RTVSPost2010Prop30
280
     1
102
RTVSPost2010PropOp30
 70
     1
102
RTVSPost2010Prop31
280
     0
102
RTVSPost2010PropOp31
 70
     1
102
RTVSPost2010Prop32
280
     0
102
RTVSPost2010PropOp32
 70
     1
102
RTVSPost2010Prop33
280
     0
102
RTVSPost2010PropOp33
 70
     1
102
RTVSPost2010Prop34
280
     0
102
RTVSPost2010PropOp34
 70
     1
102
RTVSPost2010Prop35
280
     0
102
RTVSPost2010PropOp35
 70
     1
102
RTVSPost2010Prop36
280
     0
102
RTVSPost2010PropOp36
 70
     1
102
RTVSPost2010Prop37
 90
       50
102
RTVSPost2010PropOp37
 70
     1
102
RTVSPost2010Prop38
140
0.0
102
RTVSPost2010PropOp38
 70
     1
102
RTVSPost2010Prop39
140
1.0
102
RTVSPost2010PropOp39
 70
     1
102
RTVSPost2010Prop40
 90
        0
102
RTVSPost2010PropOp40
 70
     1
102
RTVSPost2010Prop41ColorIndex
 90
       18
102
RTVSPost2010Prop41ColorRGB
 90
        0
102
RTVSPost2010PropOp41
 70
     1
102
RTVSPost2010Prop42
 90
       50
102
RTVSPost2010PropOp42
 70
     1
102
RTVSPost2010Prop43
 90
        3
102
RTVSPost2010PropOp43
 70
     1
102
RTVSPost2010Prop44ColorIndex
 90
        5
102
RTVSPost2010Prop44ColorRGB
 90
      255
102
RTVSPost2010PropOp44
 70
     1
102
RTVSPost2010Prop45
280
     0
102
RTVSPost2010PropOp45
 70
     1
102
RTVSPost2010Prop46
 90
       50
102
RTVSPost2010PropOp46
 70
     1
102
RTVSPost2010Prop47
 90
       50
102
RTVSPost2010PropOp47
 70
     1
102
RTVSPost2010Prop48
 90
       50
102
RTVSPost2010PropOp48
 70
     1
102
RTVSPost2010Prop49
280
     0
102
RTVSPost2010PropOp49
 70
     1
102
RTVSPost2010Prop50
 90
       50
102
RTVSPost2010PropOp50
 70
     1
102
RTVSPost2010Prop51ColorIndex
 90
      256
102
RTVSPost2010Prop51ColorRGB
 90
-16777216
102
RTVSPost2010PropOp51
 70
     0
102
RTVSPost2010Prop52
140
1.0
102
RTVSPost2010PropOp52
 70
     0
102
RTVSPost2010Prop53
 90
        2
102
RTVSPost2010PropOp53
 70
     1
102
RTVSPost2010Prop54
  1
strokes_ogs.tif
102
RTVSPost2010PropOp54
 70
     1
102
RTVSPost2010Prop55
280
     0
102
RTVSPost2010PropOp55
 70
     1
102
RTVSPost2010Prop56
140
1.0
102
RTVSPost2010PropOp56
 70
     1
102
RTVSPost2010Prop57
140
1.0
102
RTVSPost2010PropOp57
 70
     1
  0
XRECORD
  5
128
102
{ACAD_REACTORS
330
127
102
}
330
127
100
AcDbXrecord
280
     1
102
RTVSPost2010Prop28
280
     0
102
RTVSPost2010PropOp28
 70
     0
102
RTVSPost2010Prop29
280
     1
102
RTVSPost2010PropOp29
 70
     0
102
RTVSPost2010Prop30
280
     1
102
RTVSPost2010PropOp30
 70
     0
102
RTVSPost2010Prop31
280
     0
102
RTVSPost2010PropOp31
 70
     0
102
RTVSPost2010Prop32
280
     0
102
RTVSPost2010PropOp32
 70
     0
102
RTVSPost2010Prop33
280
     0
102
RTVSPost2010PropOp33
 70
     0
102
RTVSPost2010Prop34
280
     0
102
RTVSPost2010PropOp34
 70
     0
102
RTVSPost2010Prop35
280
     0
102
RTVSPost2010PropOp35
 70
     0
102
RTVSPost2010Prop36
280
     0
102
RTVSPost2010PropOp36
 70
     0
102
RTVSPost2010Prop37
 90
       50
102
RTVSPost2010PropOp37
 70
     0
102
RTVSPost2010Prop38
140
0.0
102
RTVSPost2010PropOp38
 70
     0
102
RTVSPost2010Prop39
140
1.0
102
RTVSPost2010PropOp39
 70
     0
102
RTVSPost2010Prop40
 90
        0
102
RTVSPost2010PropOp40
 70
     0
102
RTVSPost2010Prop41ColorIndex
 90
       18
102
RTVSPost2010Prop41ColorRGB
 90
        0
102
RTVSPost2010PropOp41
 70
     0
102
RTVSPost2010Prop42
 90
       50
102
RTVSPost2010PropOp42
 70
     0
102
RTVSPost2010Prop43
 90
        3
102
RTVSPost2010PropOp43
 70
     0
102
RTVSPost2010Prop44ColorIndex
 90
        5
102
RTVSPost2010Prop44ColorRGB
 90
      255
102
RTVSPost2010PropOp44
 70
     0
102
RTVSPost2010Prop45
280
     0
102
RTVSPost2010PropOp45
 70
     0
102
RTVSPost2010Prop46
 90
       50
102
RTVSPost2010PropOp46
 70
     0
102
RTVSPost2010Prop47
 90
       50
102
RTVSPost2010PropOp47
 70
     0
102
RTVSPost2010Prop48
 90
       50
102
RTVSPost2010PropOp48
 70
     0
102
RTVSPost2010Prop49
280
     0
102
RTVSPost2010PropOp49
 70
     0
102
RTVSPost2010Prop50
 90
       50
102
RTVSPost2010PropOp50
 70
     0
102
RTVSPost2010Prop51ColorIndex
 90
      256
102
RTVSPost2010Prop51ColorRGB
 90
-16777216
102
RTVSPost2010PropOp51
 70
     0
102
RTVSPost2010Prop52
140
1.0
102
RTVSPost2010PropOp52
 70
     0
102
RTVSPost2010Prop53
 90
        2
102
RTVSPost2010PropOp53
 70
     0
102
RTVSPost2010Prop54
  1
strokes_ogs.tif
102
RTVSPost2010PropOp54
 70
     0
102
RTVSPost2010Prop55
280
     0
102
RTVSPost2010PropOp55
 70
     0
102
RTVSPost2010Prop56
140
1.0
102
RTVSPost2010PropOp56
 70
     0
102
RTVSPost2010Prop57
140
1.0
102
RTVSPost2010PropOp57
 70
     0
  0
XRECORD
  5
118
102
{ACAD_REACTORS
330
117
102
}
330
117
100
AcDbXrecord
280
     1
102
RTVSPost2010Prop28
280
     0
102
RTVSPost2010PropOp28
 70
     1
102
RTVSPost2010Prop29
280
     1
102
RTVSPost2010PropOp29
 70
     1
102
RTVSPost2010Prop30
280
     1
102
RTVSPost2010PropOp30
 70
     1
102
RTVSPost2010Prop31
280
     0
102
RTVSPost2010PropOp31
 70
     1
102
RTVSPost2010Prop32
280
     0
102
RTVSPost2010PropOp32
 70
     1
102
RTVSPost2010Prop33
280
     0
102
RTVSPost2010PropOp33
 70
     1
102
RTVSPost2010Prop34
280
     0
102
RTVSPost2010PropOp34
 70
     1
102
RTVSPost2010Prop35
280
     0
102
RTVSPost2010PropOp35
 70
     1
102
RTVSPost2010Prop36
280
     0
102
RTVSPost2010PropOp36
 70
     1
102
RTVSPost2010Prop37
 90
       50
102
RTVSPost2010PropOp37
 70
     1
102
RTVSPost2010Prop38
140
0.0
102
RTVSPost2010PropOp38
 70
     1
102
RTVSPost2010Prop39
140
1.0
102
RTVSPost2010PropOp39
 70
     1
102
RTVSPost2010Prop40
 90
        0
102
RTVSPost2010PropOp40
 70
     1
102
RTVSPost2010Prop41ColorIndex
 90
       18
102
RTVSPost2010Prop41ColorRGB
 90
        0
102
RTVSPost2010PropOp41
 70
     1
102
RTVSPost2010Prop42
 90
       50
102
RTVSPost2010PropOp42
 70
     1
102
RTVSPost2010Prop43
 90
        3
102
RTVSPost2010PropOp43
 70
     1
102
RTVSPost2010Prop44ColorIndex
 90
        5
102
RTVSPost2010Prop44ColorRGB
 90
      255
102
RTVSPost2010PropOp44
 70
     1
102
RTVSPost2010Prop45
280
     0
102
RTVSPost2010PropOp45
 70
     1
102
RTVSPost2010Prop46
 90
       50
102
RTVSPost2010PropOp46
 70
     1
102
RTVSPost2010Prop47
 90
       50
102
RTVSPost2010PropOp47
 70
     1
102
RTVSPost2010Prop48
 90
       50
102
RTVSPost2010PropOp48
 70
     1
102
RTVSPost2010Prop49
280
     0
102
RTVSPost2010PropOp49
 70
     1
102
RTVSPost2010Prop50
 90
       50
102
RTVSPost2010PropOp50
 70
     1
102
RTVSPost2010Prop51ColorIndex
 90
      256
102
RTVSPost2010Prop51ColorRGB
 90
-16777216
102
RTVSPost2010PropOp51
 70
     0
102
RTVSPost2010Prop52
140
1.0
102
RTVSPost2010PropOp52
 70
     0
102
RTVSPost2010Prop53
 90
        2
102
RTVSPost2010PropOp53
 70
     1
102
RTVSPost2010Prop54
  1
strokes_ogs.tif
102
RTVSPost2010PropOp54
 70
     1
102
RTVSPost2010Prop55
280
     0
102
RTVSPost2010PropOp55
 70
     1
102
RTVSPost2010Prop56
140
1.0
102
RTVSPost2010PropOp56
 70
     1
102
RTVSPost2010Prop57
140
1.0
102
RTVSPost2010PropOp57
 70
     1
  0
XRECORD
  5
12A
102
{ACAD_REACTORS
330
129
102
}
330
129
100
AcDbXrecord
280
     1
102
RTVSPost2010Prop28
280
     0
102
RTVSPost2010PropOp28
 70
     0
102
RTVSPost2010Prop29
280
     1
102
RTVSPost2010PropOp29
 70
     0
102
RTVSPost2010Prop30
280
     1
102
RTVSPost2010PropOp30
 70
     0
102
RTVSPost2010Prop31
280
     0
102
RTVSPost2010PropOp31
 70
     0
102
RTVSPost2010Prop32
280
     0
102
RTVSPost2010PropOp32
 70
     0
102
RTVSPost2010Prop33
280
     0
102
RTVSPost2010PropOp33
 70
     0
102
RTVSPost2010Prop34
280
     0
102
RTVSPost2010PropOp34
 70
     0
102
RTVSPost2010Prop35
280
     0
102
RTVSPost2010PropOp35
 70
     0
102
RTVSPost2010Prop36
280
     0
102
RTVSPost2010PropOp36
 70
     0
102
RTVSPost2010Prop37
 90
       50
102
RTVSPost2010PropOp37
 70
     0
102
RTVSPost2010Prop38
140
0.0
102
RTVSPost2010PropOp38
 70
     0
102
RTVSPost2010Prop39
140
1.0
102
RTVSPost2010PropOp39
 70
     0
102
RTVSPost2010Prop40
 90
        0
102
RTVSPost2010PropOp40
 70
     0
102
RTVSPost2010Prop41ColorIndex
 90
       18
102
RTVSPost2010Prop41ColorRGB
 90
        0
102
RTVSPost2010PropOp41
 70
     0
102
RTVSPost2010Prop42
 90
       50
102
RTVSPost2010PropOp42
 70
     0
102
RTVSPost2010Prop43
 90
        3
102
RTVSPost2010PropOp43
 70
     0
102
RTVSPost2010Prop44ColorIndex
 90
        5
102
RTVSPost2010Prop44ColorRGB
 90
      255
102
RTVSPost2010PropOp44
 70
     0
102
RTVSPost2010Prop45
280
     0
102
RTVSPost2010PropOp45
 70
     0
102
RTVSPost2010Prop46
 90
       50
102
RTVSPost2010PropOp46
 70
     0
102
RTVSPost2010Prop47
 90
       50
102
RTVSPost2010PropOp47
 70
     0
102
RTVSPost2010Prop48
 90
       50
102
RTVSPost2010PropOp48
 70
     0
102
RTVSPost2010Prop49
280
     0
102
RTVSPost2010PropOp49
 70
     0
102
RTVSPost2010Prop50
 90
       50
102
RTVSPost2010PropOp50
 70
     0
102
RTVSPost2010Prop51ColorIndex
 90
      256
102
RTVSPost2010Prop51ColorRGB
 90
-16777216
102
RTVSPost2010PropOp51
 70
     0
102
RTVSPost2010Prop52
140
1.0
102
RTVSPost2010PropOp52
 70
     0
102
RTVSPost2010Prop53
 90
        2
102
RTVSPost2010PropOp53
 70
     0
102
RTVSPost2010Prop54
  1
strokes_ogs.tif
102
RTVSPost2010PropOp54
 70
     0
102
RTVSPost2010Prop55
280
     0
102
RTVSPost2010PropOp55
 70
     0
102
RTVSPost2010Prop56
140
1.0
102
RTVSPost2010PropOp56
 70
     0
102
RTVSPost2010Prop57
140
1.0
102
RTVSPost2010PropOp57
 70
     0
  0
XRECORD
  5
110
102
{ACAD_REACTORS
330
10F
102
}
330
10F
100
AcDbXrecord
280
     1
102
RTVSPost2010Prop28
280
     0
102
RTVSPost2010PropOp28
 70
     1
102
RTVSPost2010Prop29
280
     1
102
RTVSPost2010PropOp29
 70
     1
102
RTVSPost2010Prop30
280
     1
102
RTVSPost2010PropOp30
 70
     1
102
RTVSPost2010Prop31
280
     0
102
RTVSPost2010PropOp31
 70
     1
102
RTVSPost2010Prop32
280
     0
102
RTVSPost2010PropOp32
 70
     1
102
RTVSPost2010Prop33
280
     0
102
RTVSPost2010PropOp33
 70
     1
102
RTVSPost2010Prop34
280
     0
102
RTVSPost2010PropOp34
 70
     1
102
RTVSPost2010Prop35
280
     0
102
RTVSPost2010PropOp35
 70
     1
102
RTVSPost2010Prop36
280
     0
102
RTVSPost2010PropOp36
 70
     1
102
RTVSPost2010Prop37
 90
       50
102
RTVSPost2010PropOp37
 70
     1
102
RTVSPost2010Prop38
140
0.0
102
RTVSPost2010PropOp38
 70
     1
102
RTVSPost2010Prop39
140
1.0
102
RTVSPost2010PropOp39
 70
     1
102
RTVSPost2010Prop40
 90
        0
102
RTVSPost2010PropOp40
 70
     1
102
RTVSPost2010Prop41ColorIndex
 90
       18
102
RTVSPost2010Prop41ColorRGB
 90
        0
102
RTVSPost2010PropOp41
 70
     1
102
RTVSPost2010Prop42
 90
       50
102
RTVSPost2010PropOp42
 70
     1
102
RTVSPost2010Prop43
 90
        3
102
RTVSPost2010PropOp43
 70
     1
102
RTVSPost2010Prop44ColorIndex
 90
        5
102
RTVSPost2010Prop44ColorRGB
 90
      255
102
RTVSPost2010PropOp44
 70
     1
102
RTVSPost2010Prop45
280
     0
102
RTVSPost2010PropOp45
 70
     1
102
RTVSPost2010Prop46
 90
       50
102
RTVSPost2010PropOp46
 70
     1
102
RTVSPost2010Prop47
 90
       50
102
RTVSPost2010PropOp47
 70
     1
102
RTVSPost2010Prop48
 90
       50
102
RTVSPost2010PropOp48
 70
     1
102
RTVSPost2010Prop49
280
     0
102
RTVSPost2010PropOp49
 70
     1
102
RTVSPost2010Prop50
 90
       50
102
RTVSPost2010PropOp50
 70
     1
102
RTVSPost2010Prop51ColorIndex
 90
      256
102
RTVSPost2010Prop51ColorRGB
 90
-16777216
102
RTVSPost2010PropOp51
 70
     0
102
RTVSPost2010Prop52
140
1.0
102
RTVSPost2010PropOp52
 70
     0
102
RTVSPost2010Prop53
 90
        2
102
RTVSPost2010PropOp53
 70
     1
102
RTVSPost2010Prop54
  1
strokes_ogs.tif
102
RTVSPost2010PropOp54
 70
     1
102
RTVSPost2010Prop55
280
     0
102
RTVSPost2010PropOp55
 70
     1
102
RTVSPost2010Prop56
140
1.0
102
RTVSPost2010PropOp56
 70
     1
102
RTVSPost2010Prop57
140
1.0
102
RTVSPost2010PropOp57
 70
     1
  0
XRECORD
  5
126
102
{ACAD_REACTORS
330
125
102
}
330
125
100
AcDbXrecord
280
     1
102
RTVSPost2010Prop28
280
     0
102
RTVSPost2010PropOp28
 70
     1
102
RTVSPost2010Prop29
280
     1
102
RTVSPost2010PropOp29
 70
     1
102
RTVSPost2010Prop30
280
     1
102
RTVSPost2010PropOp30
 70
     1
102
RTVSPost2010Prop31
280
     0
102
RTVSPost2010PropOp31
 70
     1
102
RTVSPost2010Prop32
280
     0
102
RTVSPost2010PropOp32
 70
     1
102
RTVSPost2010Prop33
280
     0
102
RTVSPost2010PropOp33
 70
     1
102
RTVSPost2010Prop34
280
     0
102
RTVSPost2010PropOp34
 70
     1
102
RTVSPost2010Prop35
280
     0
102
RTVSPost2010PropOp35
 70
     1
102
RTVSPost2010Prop36
280
     0
102
RTVSPost2010PropOp36
 70
     1
102
RTVSPost2010Prop37
 90
       50
102
RTVSPost2010PropOp37
 70
     1
102
RTVSPost2010Prop38
140
0.0
102
RTVSPost2010PropOp38
 70
     1
102
RTVSPost2010Prop39
140
1.0
102
RTVSPost2010PropOp39
 70
     1
102
RTVSPost2010Prop40
 90
        0
102
RTVSPost2010PropOp40
 70
     1
102
RTVSPost2010Prop41ColorIndex
 90
       18
102
RTVSPost2010Prop41ColorRGB
 90
        0
102
RTVSPost2010PropOp41
 70
     1
102
RTVSPost2010Prop42
 90
       50
102
RTVSPost2010PropOp42
 70
     1
102
RTVSPost2010Prop43
 90
        3
102
RTVSPost2010PropOp43
 70
     1
102
RTVSPost2010Prop44ColorIndex
 90
        5
102
RTVSPost2010Prop44ColorRGB
 90
      255
102
RTVSPost2010PropOp44
 70
     1
102
RTVSPost2010Prop45
280
     0
102
RTVSPost2010PropOp45
 70
     1
102
RTVSPost2010Prop46
 90
       50
102
RTVSPost2010PropOp46
 70
     1
102
RTVSPost2010Prop47
 90
       50
102
RTVSPost2010PropOp47
 70
     1
102
RTVSPost2010Prop48
 90
       50
102
RTVSPost2010PropOp48
 70
     1
102
RTVSPost2010Prop49
280
     0
102
RTVSPost2010PropOp49
 70
     1
102
RTVSPost2010Prop50
 90
       50
102
RTVSPost2010PropOp50
 70
     1
102
RTVSPost2010Prop51ColorIndex
 90
      256
102
RTVSPost2010Prop51ColorRGB
 90
-16777216
102
RTVSPost2010PropOp51
 70
     0
102
RTVSPost2010Prop52
140
1.0
102
RTVSPost2010PropOp52
 70
     0
102
RTVSPost2010Prop53
 90
        2
102
RTVSPost2010PropOp53
 70
     1
102
RTVSPost2010Prop54
  1
strokes_ogs.tif
102
RTVSPost2010PropOp54
 70
     1
102
RTVSPost2010Prop55
280
     0
102
RTVSPost2010PropOp55
 70
     1
102
RTVSPost2010Prop56
140
1.0
102
RTVSPost2010PropOp56
 70
     1
102
RTVSPost2010Prop57
140
1.0
102
RTVSPost2010PropOp57
 70
     1
  0
XRECORD
  5
124
102
{ACAD_REACTORS
330
123
102
}
330
123
100
AcDbXrecord
280
     1
102
RTVSPost2010Prop28
280
     0
102
RTVSPost2010PropOp28
 70
     1
102
RTVSPost2010Prop29
280
     1
102
RTVSPost2010PropOp29
 70
     1
102
RTVSPost2010Prop30
280
     1
102
RTVSPost2010PropOp30
 70
     1
102
RTVSPost2010Prop31
280
     0
102
RTVSPost2010PropOp31
 70
     1
102
RTVSPost2010Prop32
280
     0
102
RTVSPost2010PropOp32
 70
     1
102
RTVSPost2010Prop33
280
     0
102
RTVSPost2010PropOp33
 70
     1
102
RTVSPost2010Prop34
280
     0
102
RTVSPost2010PropOp34
 70
     1
102
RTVSPost2010Prop35
280
     0
102
RTVSPost2010PropOp35
 70
     1
102
RTVSPost2010Prop36
280
     0
102
RTVSPost2010PropOp36
 70
     1
102
RTVSPost2010Prop37
 90
       50
102
RTVSPost2010PropOp37
 70
     1
102
RTVSPost2010Prop38
140
0.0
102
RTVSPost2010PropOp38
 70
     1
102
RTVSPost2010Prop39
140
1.0
102
RTVSPost2010PropOp39
 70
     1
102
RTVSPost2010Prop40
 90
        0
102
RTVSPost2010PropOp40
 70
     1
102
RTVSPost2010Prop41ColorIndex
 90
       18
102
RTVSPost2010Prop41ColorRGB
 90
        0
102
RTVSPost2010PropOp41
 70
     1
102
RTVSPost2010Prop42
 90
       50
102
RTVSPost2010PropOp42
 70
     1
102
RTVSPost2010Prop43
 90
        3
102
RTVSPost2010PropOp43
 70
     1
102
RTVSPost2010Prop44ColorIndex
 90
        5
102
RTVSPost2010Prop44ColorRGB
 90
      255
102
RTVSPost2010PropOp44
 70
     1
102
RTVSPost2010Prop45
280
     0
102
RTVSPost2010PropOp45
 70
     1
102
RTVSPost2010Prop46
 90
       50
102
RTVSPost2010PropOp46
 70
     1
102
RTVSPost2010Prop47
 90
       50
102
RTVSPost2010PropOp47
 70
     1
102
RTVSPost2010Prop48
 90
       50
102
RTVSPost2010PropOp48
 70
     1
102
RTVSPost2010Prop49
280
     0
102
RTVSPost2010PropOp49
 70
     1
102
RTVSPost2010Prop50
 90
       50
102
RTVSPost2010PropOp50
 70
     1
102
RTVSPost2010Prop51ColorIndex
 90
      256
102
RTVSPost2010Prop51ColorRGB
 90
-16777216
102
RTVSPost2010PropOp51
 70
     0
102
RTVSPost2010Prop52
140
1.0
102
RTVSPost2010PropOp52
 70
     0
102
RTVSPost2010Prop53
 90
        2
102
RTVSPost2010PropOp53
 70
     1
102
RTVSPost2010Prop54
  1
strokes_ogs.tif
102
RTVSPost2010PropOp54
 70
     1
102
RTVSPost2010Prop55
280
     0
102
RTVSPost2010PropOp55
 70
     1
102
RTVSPost2010Prop56
140
1.0
102
RTVSPost2010PropOp56
 70
     1
102
RTVSPost2010Prop57
140
1.0
102
RTVSPost2010PropOp57
 70
     1
  0
XRECORD
  5
11E
102
{ACAD_REACTORS
330
11D
102
}
330
11D
100
AcDbXrecord
280
     1
102
RTVSPost2010Prop28
280
     0
102
RTVSPost2010PropOp28
 70
     1
102
RTVSPost2010Prop29
280
     1
102
RTVSPost2010PropOp29
 70
     1
102
RTVSPost2010Prop30
280
     1
102
RTVSPost2010PropOp30
 70
     1
102
RTVSPost2010Prop31
280
     0
102
RTVSPost2010PropOp31
 70
     1
102
RTVSPost2010Prop32
280
     0
102
RTVSPost2010PropOp32
 70
     1
102
RTVSPost2010Prop33
280
     0
102
RTVSPost2010PropOp33
 70
     1
102
RTVSPost2010Prop34
280
     0
102
RTVSPost2010PropOp34
 70
     1
102
RTVSPost2010Prop35
280
     0
102
RTVSPost2010PropOp35
 70
     1
102
RTVSPost2010Prop36
280
     0
102
RTVSPost2010PropOp36
 70
     1
102
RTVSPost2010Prop37
 90
       50
102
RTVSPost2010PropOp37
 70
     1
102
RTVSPost2010Prop38
140
0.0
102
RTVSPost2010PropOp38
 70
     1
102
RTVSPost2010Prop39
140
1.0
102
RTVSPost2010PropOp39
 70
     1
102
RTVSPost2010Prop40
 90
        0
102
RTVSPost2010PropOp40
 70
     1
102
RTVSPost2010Prop41ColorIndex
 90
       18
102
RTVSPost2010Prop41ColorRGB
 90
        0
102
RTVSPost2010PropOp41
 70
     1
102
RTVSPost2010Prop42
 90
       50
102
RTVSPost2010PropOp42
 70
     1
102
RTVSPost2010Prop43
 90
        3
102
RTVSPost2010PropOp43
 70
     1
102
RTVSPost2010Prop44ColorIndex
 90
        5
102
RTVSPost2010Prop44ColorRGB
 90
      255
102
RTVSPost2010PropOp44
 70
     1
102
RTVSPost2010Prop45
280
     0
102
RTVSPost2010PropOp45
 70
     1
102
RTVSPost2010Prop46
 90
       50
102
RTVSPost2010PropOp46
 70
     1
102
RTVSPost2010Prop47
 90
       50
102
RTVSPost2010PropOp47
 70
     1
102
RTVSPost2010Prop48
 90
       50
102
RTVSPost2010PropOp48
 70
     1
102
RTVSPost2010Prop49
280
     0
102
RTVSPost2010PropOp49
 70
     1
102
RTVSPost2010Prop50
 90
       50
102
RTVSPost2010PropOp50
 70
     1
102
RTVSPost2010Prop51ColorIndex
 90
      256
102
RTVSPost2010Prop51ColorRGB
 90
-16777216
102
RTVSPost2010PropOp51
 70
     0
102
RTVSPost2010Prop52
140
1.0
102
RTVSPost2010PropOp52
 70
     0
102
RTVSPost2010Prop53
 90
        2
102
RTVSPost2010PropOp53
 70
     1
102
RTVSPost2010Prop54
  1
strokes_ogs.tif
102
RTVSPost2010PropOp54
 70
     1
102
RTVSPost2010Prop55
280
     0
102
RTVSPost2010PropOp55
 70
     1
102
RTVSPost2010Prop56
140
1.0
102
RTVSPost2010PropOp56
 70
     1
102
RTVSPost2010Prop57
140
1.0
102
RTVSPost2010PropOp57
 70
     1
  0
XRECORD
  5
120
102
{ACAD_REACTORS
330
11F
102
}
330
11F
100
AcDbXrecord
280
     1
102
RTVSPost2010Prop28
280
     0
102
RTVSPost2010PropOp28
 70
     1
102
RTVSPost2010Prop29
280
     1
102
RTVSPost2010PropOp29
 70
     1
102
RTVSPost2010Prop30
280
     1
102
RTVSPost2010PropOp30
 70
     1
102
RTVSPost2010Prop31
280
     0
102
RTVSPost2010PropOp31
 70
     1
102
RTVSPost2010Prop32
280
     0
102
RTVSPost2010PropOp32
 70
     1
102
RTVSPost2010Prop33
280
     0
102
RTVSPost2010PropOp33
 70
     1
102
RTVSPost2010Prop34
280
     0
102
RTVSPost2010PropOp34
 70
     1
102
RTVSPost2010Prop35
280
     0
102
RTVSPost2010PropOp35
 70
     1
102
RTVSPost2010Prop36
280
     0
102
RTVSPost2010PropOp36
 70
     1
102
RTVSPost2010Prop37
 90
       50
102
RTVSPost2010PropOp37
 70
     1
102
RTVSPost2010Prop38
140
0.0
102
RTVSPost2010PropOp38
 70
     1
102
RTVSPost2010Prop39
140
1.0
102
RTVSPost2010PropOp39
 70
     1
102
RTVSPost2010Prop40
 90
        0
102
RTVSPost2010PropOp40
 70
     1
102
RTVSPost2010Prop41ColorIndex
 90
       18
102
RTVSPost2010Prop41ColorRGB
 90
        0
102
RTVSPost2010PropOp41
 70
     1
102
RTVSPost2010Prop42
 90
       50
102
RTVSPost2010PropOp42
 70
     1
102
RTVSPost2010Prop43
 90
        3
102
RTVSPost2010PropOp43
 70
     1
102
RTVSPost2010Prop44ColorIndex
 90
        5
102
RTVSPost2010Prop44ColorRGB
 90
      255
102
RTVSPost2010PropOp44
 70
     1
102
RTVSPost2010Prop45
280
     0
102
RTVSPost2010PropOp45
 70
     1
102
RTVSPost2010Prop46
 90
       50
102
RTVSPost2010PropOp46
 70
     1
102
RTVSPost2010Prop47
 90
       50
102
RTVSPost2010PropOp47
 70
     1
102
RTVSPost2010Prop48
 90
       50
102
RTVSPost2010PropOp48
 70
     1
102
RTVSPost2010Prop49
280
     0
102
RTVSPost2010PropOp49
 70
     1
102
RTVSPost2010Prop50
 90
       50
102
RTVSPost2010PropOp50
 70
     1
102
RTVSPost2010Prop51ColorIndex
 90
      256
102
RTVSPost2010Prop51ColorRGB
 90
-16777216
102
RTVSPost2010PropOp51
 70
     0
102
RTVSPost2010Prop52
140
1.0
102
RTVSPost2010PropOp52
 70
     0
102
RTVSPost2010Prop53
 90
        2
102
RTVSPost2010PropOp53
 70
     1
102
RTVSPost2010Prop54
  1
strokes_ogs.tif
102
RTVSPost2010PropOp54
 70
     1
102
RTVSPost2010Prop55
280
     0
102
RTVSPost2010PropOp55
 70
     1
102
RTVSPost2010Prop56
140
1.0
102
RTVSPost2010PropOp56
 70
     1
102
RTVSPost2010Prop57
140
1.0
102
RTVSPost2010PropOp57
 70
     1
  0
XRECORD
  5
116
102
{ACAD_REACTORS
330
115
102
}
330
115
100
AcDbXrecord
280
     1
102
RTVSPost2010Prop28
280
     0
102
RTVSPost2010PropOp28
 70
     1
102
RTVSPost2010Prop29
280
     1
102
RTVSPost2010PropOp29
 70
     1
102
RTVSPost2010Prop30
280
     1
102
RTVSPost2010PropOp30
 70
     1
102
RTVSPost2010Prop31
280
     0
102
RTVSPost2010PropOp31
 70
     1
102
RTVSPost2010Prop32
280
     0
102
RTVSPost2010PropOp32
 70
     1
102
RTVSPost2010Prop33
280
     0
102
RTVSPost2010PropOp33
 70
     1
102
RTVSPost2010Prop34
280
     0
102
RTVSPost2010PropOp34
 70
     1
102
RTVSPost2010Prop35
280
     0
102
RTVSPost2010PropOp35
 70
     1
102
RTVSPost2010Prop36
280
     0
102
RTVSPost2010PropOp36
 70
     1
102
RTVSPost2010Prop37
 90
       50
102
RTVSPost2010PropOp37
 70
     1
102
RTVSPost2010Prop38
140
0.0
102
RTVSPost2010PropOp38
 70
     1
102
RTVSPost2010Prop39
140
1.0
102
RTVSPost2010PropOp39
 70
     1
102
RTVSPost2010Prop40
 90
        0
102
RTVSPost2010PropOp40
 70
     1
102
RTVSPost2010Prop41ColorIndex
 90
       18
102
RTVSPost2010Prop41ColorRGB
 90
        0
102
RTVSPost2010PropOp41
 70
     1
102
RTVSPost2010Prop42
 90
       50
102
RTVSPost2010PropOp42
 70
     1
102
RTVSPost2010Prop43
 90
        3
102
RTVSPost2010PropOp43
 70
     1
102
RTVSPost2010Prop44ColorIndex
 90
        5
102
RTVSPost2010Prop44ColorRGB
 90
      255
102
RTVSPost2010PropOp44
 70
     1
102
RTVSPost2010Prop45
280
     0
102
RTVSPost2010PropOp45
 70
     1
102
RTVSPost2010Prop46
 90
       50
102
RTVSPost2010PropOp46
 70
     1
102
RTVSPost2010Prop47
 90
       50
102
RTVSPost2010PropOp47
 70
     1
102
RTVSPost2010Prop48
 90
       50
102
RTVSPost2010PropOp48
 70
     1
102
RTVSPost2010Prop49
280
     0
102
RTVSPost2010PropOp49
 70
     1
102
RTVSPost2010Prop50
 90
       50
102
RTVSPost2010PropOp50
 70
     1
102
RTVSPost2010Prop51ColorIndex
 90
      256
102
RTVSPost2010Prop51ColorRGB
 90
-16777216
102
RTVSPost2010PropOp51
 70
     0
102
RTVSPost2010Prop52
140
1.0
102
RTVSPost2010PropOp52
 70
     0
102
RTVSPost2010Prop53
 90
        2
102
RTVSPost2010PropOp53
 70
     1
102
RTVSPost2010Prop54
  1
strokes_ogs.tif
102
RTVSPost2010PropOp54
 70
     1
102
RTVSPost2010Prop55
280
     0
102
RTVSPost2010PropOp55
 70
     1
102
RTVSPost2010Prop56
140
1.0
102
RTVSPost2010PropOp56
 70
     1
102
RTVSPost2010Prop57
140
1.0
102
RTVSPost2010PropOp57
 70
     1
  0
XRECORD
  5
10A
102
{ACAD_REACTORS
330
109
102
}
330
109
100
AcDbXrecord
280
     1
102
RTVSPost2010Prop28
280
     0
102
RTVSPost2010PropOp28
 70
     1
102
RTVSPost2010Prop29
280
     1
102
RTVSPost2010PropOp29
 70
     1
102
RTVSPost2010Prop30
280
     1
102
RTVSPost2010PropOp30
 70
     1
102
RTVSPost2010Prop31
280
     0
102
RTVSPost2010PropOp31
 70
     1
102
RTVSPost2010Prop32
280
     0
102
RTVSPost2010PropOp32
 70
     1
102
RTVSPost2010Prop33
280
     0
102
RTVSPost2010PropOp33
 70
     1
102
RTVSPost2010Prop34
280
     0
102
RTVSPost2010PropOp34
 70
     1
102
RTVSPost2010Prop35
280
     0
102
RTVSPost2010PropOp35
 70
     1
102
RTVSPost2010Prop36
280
     0
102
RTVSPost2010PropOp36
 70
     1
102
RTVSPost2010Prop37
 90
       50
102
RTVSPost2010PropOp37
 70
     1
102
RTVSPost2010Prop38
140
0.0
102
RTVSPost2010PropOp38
 70
     1
102
RTVSPost2010Prop39
140
1.0
102
RTVSPost2010PropOp39
 70
     1
102
RTVSPost2010Prop40
 90
        0
102
RTVSPost2010PropOp40
 70
     1
102
RTVSPost2010Prop41ColorIndex
 90
       18
102
RTVSPost2010Prop41ColorRGB
 90
        0
102
RTVSPost2010PropOp41
 70
     1
102
RTVSPost2010Prop42
 90
       50
102
RTVSPost2010PropOp42
 70
     1
102
RTVSPost2010Prop43
 90
        3
102
RTVSPost2010PropOp43
 70
     1
102
RTVSPost2010Prop44ColorIndex
 90
        5
102
RTVSPost2010Prop44ColorRGB
 90
      255
102
RTVSPost2010PropOp44
 70
     1
102
RTVSPost2010Prop45
280
     0
102
RTVSPost2010PropOp45
 70
     1
102
RTVSPost2010Prop46
 90
       50
102
RTVSPost2010PropOp46
 70
     1
102
RTVSPost2010Prop47
 90
       50
102
RTVSPost2010PropOp47
 70
     1
102
RTVSPost2010Prop48
 90
       50
102
RTVSPost2010PropOp48
 70
     1
102
RTVSPost2010Prop49
280
     0
102
RTVSPost2010PropOp49
 70
     1
102
RTVSPost2010Prop50
 90
       50
102
RTVSPost2010PropOp50
 70
     1
102
RTVSPost2010Prop51ColorIndex
 90
      256
102
RTVSPost2010Prop51ColorRGB
 90
-16777216
102
RTVSPost2010PropOp51
 70
     0
102
RTVSPost2010Prop52
140
1.0
102
RTVSPost2010PropOp52
 70
     0
102
RTVSPost2010Prop53
 90
        2
102
RTVSPost2010PropOp53
 70
     1
102
RTVSPost2010Prop54
  1
strokes_ogs.tif
102
RTVSPost2010PropOp54
 70
     1
102
RTVSPost2010Prop55
280
     0
102
RTVSPost2010PropOp55
 70
     1
102
RTVSPost2010Prop56
140
1.0
102
RTVSPost2010PropOp56
 70
     1
102
RTVSPost2010Prop57
140
1.0
102
RTVSPost2010PropOp57
 70
     1
  0
XRECORD
  5
122
102
{ACAD_REACTORS
330
121
102
}
330
121
100
AcDbXrecord
280
     1
102
RTVSPost2010Prop28
280
     0
102
RTVSPost2010PropOp28
 70
     1
102
RTVSPost2010Prop29
280
     1
102
RTVSPost2010PropOp29
 70
     1
102
RTVSPost2010Prop30
280
     1
102
RTVSPost2010PropOp30
 70
     1
102
RTVSPost2010Prop31
280
     0
102
RTVSPost2010PropOp31
 70
     1
102
RTVSPost2010Prop32
280
     0
102
RTVSPost2010PropOp32
 70
     1
102
RTVSPost2010Prop33
280
     0
102
RTVSPost2010PropOp33
 70
     1
102
RTVSPost2010Prop34
280
     0
102
RTVSPost2010PropOp34
 70
     1
102
RTVSPost2010Prop35
280
     0
102
RTVSPost2010PropOp35
 70
     1
102
RTVSPost2010Prop36
280
     0
102
RTVSPost2010PropOp36
 70
     1
102
RTVSPost2010Prop37
 90
       50
102
RTVSPost2010PropOp37
 70
     1
102
RTVSPost2010Prop38
140
0.0
102
RTVSPost2010PropOp38
 70
     1
102
RTVSPost2010Prop39
140
1.0
102
RTVSPost2010PropOp39
 70
     1
102
RTVSPost2010Prop40
 90
        0
102
RTVSPost2010PropOp40
 70
     1
102
RTVSPost2010Prop41ColorIndex
 90
       18
102
RTVSPost2010Prop41ColorRGB
 90
        0
102
RTVSPost2010PropOp41
 70
     1
102
RTVSPost2010Prop42
 90
       50
102
RTVSPost2010PropOp42
 70
     1
102
RTVSPost2010Prop43
 90
        3
102
RTVSPost2010PropOp43
 70
     1
102
RTVSPost2010Prop44ColorIndex
 90
        5
102
RTVSPost2010Prop44ColorRGB
 90
      255
102
RTVSPost2010PropOp44
 70
     1
102
RTVSPost2010Prop45
280
     0
102
RTVSPost2010PropOp45
 70
     1
102
RTVSPost2010Prop46
 90
       50
102
RTVSPost2010PropOp46
 70
     1
102
RTVSPost2010Prop47
 90
       50
102
RTVSPost2010PropOp47
 70
     1
102
RTVSPost2010Prop48
 90
       50
102
RTVSPost2010PropOp48
 70
     1
102
RTVSPost2010Prop49
280
     0
102
RTVSPost2010PropOp49
 70
     1
102
RTVSPost2010Prop50
 90
       50
102
RTVSPost2010PropOp50
 70
     1
102
RTVSPost2010Prop51ColorIndex
 90
      256
102
RTVSPost2010Prop51ColorRGB
 90
-16777216
102
RTVSPost2010PropOp51
 70
     0
102
RTVSPost2010Prop52
140
1.0
102
RTVSPost2010PropOp52
 70
     0
102
RTVSPost2010Prop53
 90
        2
102
RTVSPost2010PropOp53
 70
     1
102
RTVSPost2010Prop54
  1
strokes_ogs.tif
102
RTVSPost2010PropOp54
 70
     1
102
RTVSPost2010Prop55
280
     0
102
RTVSPost2010PropOp55
 70
     1
102
RTVSPost2010Prop56
140
1.0
102
RTVSPost2010PropOp56
 70
     1
102
RTVSPost2010Prop57
140
1.0
102
RTVSPost2010PropOp57
 70
     1
  0
ENDSEC
  0
EOF
