  0
SECTION
  2
HEADER
  9
$ACADVER
  1
AC1024
  9
$ACADMAINTVER
 70
     6
  9
$DWGCODEPAGE
  3
UNDEFINED
  9
$INSBASE
 10
0.0
 20
0.0
 30
0.0
  9
$EXTMIN
 10
1.000000000000000E+20
 20
1.000000000000000E+20
 30
1.000000000000000E+20
  9
$EXTMAX
 10
-1.000000000000000E+20
 20
-1.000000000000000E+20
 30
-1.000000000000000E+20
  9
$LIMMIN
 10
0.0
 20
0.0
  9
$LIMMAX
 10
12.0
 20
9.0
  9
$ORTHOMODE
 70
     0
  9
$REGENMODE
 70
     1
  9
$FILLMODE
 70
     1
  9
$QTEXTMODE
 70
     0
  9
$MIRRTEXT
 70
     1
  9
$LTSCALE
 40
1.0
  9
$ATTMODE
 70
     1
  9
$TEXTSIZE
 40
0.2
  9
$TRACEWID
 40
0.05
  9
$TEXTSTYLE
  7
Standard
  9
$CLAYER
  8
0
  9
$CELTYPE
  6
ByLayer
  9
$CECOLOR
 62
   256
  9
$CELTSCALE
 40
1.0
  9
$DISPSILH
 70
     0
  9
$DIMSCALE
 40
1.0
  9
$DIMASZ
 40
0.18
  9
$DIMEXO
 40
0.0625
  9
$DIMDLI
 40
0.38
  9
$DIMRND
 40
0.0
  9
$DIMDLE
 40
0.0
  9
$DIMEXE
 40
0.18
  9
$DIMTP
 40
0.0
  9
$DIMTM
 40
0.0
  9
$DIMTXT
 40
0.18
  9
$DIMCEN
 40
0.09
  9
$DIMTSZ
 40
0.0
  9
$DIMTOL
 70
     0
  9
$DIMLIM
 70
     0
  9
$DIMTIH
 70
     1
  9
$DIMTOH
 70
     1
  9
$DIMSE1
 70
     0
  9
$DIMSE2
 70
     0
  9
$DIMTAD
 70
     0
  9
$DIMZIN
 70
     0
  9
$DIMBLK
  1

  9
$DIMASO
 70
     1
  9
$DIMSHO
 70
     1
  9
$DIMPOST
  1

  9
$DIMAPOST
  1

  9
$DIMALT
 70
     0
  9
$DIMALTD
 70
     2
  9
$DIMALTF
 40
25.4
  9
$DIMLFAC
 40
1.0
  9
$DIMTOFL
 70
     0
  9
$DIMTVP
 40
0.0
  9
$DIMTIX
 70
     0
  9
$DIMSOXD
 70
     0
  9
$DIMSAH
 70
     0
  9
$DIMBLK1
  1

  9
$DIMBLK2
  1

  9
$DIMSTYLE
  2
Standard
  9
$DIMCLRD
 70
     0
  9
$DIMCLRE
 70
     0
  9
$DIMCLRT
 70
     0
  9
$DIMTFAC
 40
1.0
  9
$DIMGAP
 40
0.09
  9
$DIMJUST
 70
     0
  9
$DIMSD1
 70
     0
  9
$DIMSD2
 70
     0
  9
$DIMTOLJ
 70
     1
  9
$DIMTZIN
 70
     0
  9
$DIMALTZ
 70
     0
  9
$DIMALTTZ
 70
     0
  9
$DIMUPT
 70
     0
  9
$DIMDEC
 70
     4
  9
$DIMTDEC
 70
     4
  9
$DIMALTU
 70
     2
  9
$DIMALTTD
 70
     2
  9
$DIMTXSTY
  7
Standard
  9
$DIMAUNIT
 70
     0
  9
$DIMADEC
 70
     0
  9
$DIMALTRND
 40
0.0
  9
$DIMAZIN
 70
     0
  9
$DIMDSEP
 70
    46
  9
$DIMATFIT
 70
     3
  9
$DIMFRAC
 70
     0
  9
$DIMLDRBLK
  1

  9
$DIMLUNIT
 70
     2
  9
$DIMLWD
 70
    -2
  9
$DIMLWE
 70
    -2
  9
$DIMTMOVE
 70
     0
  9
$DIMFXL
 40
1.0
  9
$DIMFXLON
 70
     0
  9
$DIMJOGANG
 40
0.7853981633974483
  9
$DIMTFILL
 70
     0
  9
$DIMTFILLCLR
 70
     0
  9
$DIMARCSYM
 70
     0
  9
$DIMLTYPE
  6

  9
$DIMLTEX1
  6

  9
$DIMLTEX2
  6

  9
$DIMTXTDIRECTION
 70
     0
  9
$LUNITS
 70
     2
  9
$LUPREC
 70
     4
  9
$SKETCHINC
 40
0.1
  9
$FILLETRAD
 40
0.5
  9
$AUNITS
 70
     0
  9
$AUPREC
 70
     0
  9
$MENU
  1
.
  9
$ELEVATION
 40
0.0
  9
$PELEVATION
 40
0.0
  9
$THICKNESS
 40
0.0
  9
$LIMCHECK
 70
     0
  9
$CHAMFERA
 40
0.5
  9
$CHAMFERB
 40
0.5
  9
$CHAMFERC
 40
1.0
  9
$CHAMFERD
 40
0.0
  9
$SKPOLY
 70
     0
  9
$TDCREATE
 40
2457917.585069444
  9
$TDUCREATE
 40
2457917.210069444
  9
$TDUPDATE
 40
2457917.585069444
  9
$TDUUPDATE
 40
2457917.210069444
  9
$TDINDWG
 40
0.0000000116
  9
$TDUSRTIMER
 40
0.0000000116
  9
$USRTIMER
 70
     1
  9
$ANGBASE
 50
0.0
  9
$ANGDIR
 70
     0
  9
$PDMODE
 70
     0
  9
$PDSIZE
 40
0.0
  9
$PLINEWID
 40
0.0
  9
$SPLFRAME
 70
     0
  9
$SPLINETYPE
 70
     6
  9
$SPLINESEGS
 70
     8
  9
$HANDSEED
  5
E1
  9
$SURFTAB1
 70
     6
  9
$SURFTAB2
 70
     6
  9
$SURFTYPE
 70
     6
  9
$SURFU
 70
     6
  9
$SURFV
 70
     6
  9
$UCSBASE
  2

  9
$UCSNAME
  2

  9
$UCSORG
 10
0.0
 20
0.0
 30
0.0
  9
$UCSXDIR
 10
1.0
 20
0.0
 30
0.0
  9
$UCSYDIR
 10
0.0
 20
1.0
 30
0.0
  9
$UCSORTHOREF
  2

  9
$UCSORTHOVIEW
 70
     0
  9
$UCSORGTOP
 10
0.0
 20
0.0
 30
0.0
  9
$UCSORGBOTTOM
 10
0.0
 20
0.0
 30
0.0
  9
$UCSORGLEFT
 10
0.0
 20
0.0
 30
0.0
  9
$UCSORGRIGHT
 10
0.0
 20
0.0
 30
0.0
  9
$UCSORGFRONT
 10
0.0
 20
0.0
 30
0.0
  9
$UCSORGBACK
 10
0.0
 20
0.0
 30
0.0
  9
$PUCSBASE
  2

  9
$PUCSNAME
  2

  9
$PUCSORG
 10
0.0
 20
0.0
 30
0.0
  9
$PUCSXDIR
 10
1.0
 20
0.0
 30
0.0
  9
$PUCSYDIR
 10
0.0
 20
1.0
 30
0.0
  9
$PUCSORTHOREF
  2

  9
$PUCSORTHOVIEW
 70
     0
  9
$PUCSORGTOP
 10
0.0
 20
0.0
 30
0.0
  9
$PUCSORGBOTTOM
 10
0.0
 20
0.0
 30
0.0
  9
$PUCSORGLEFT
 10
0.0
 20
0.0
 30
0.0
  9
$PUCSORGRIGHT
 10
0.0
 20
0.0
 30
0.0
  9
$PUCSORGFRONT
 10
0.0
 20
0.0
 30
0.0
  9
$PUCSORGBACK
 10
0.0
 20
0.0
 30
0.0
  9
$USERI1
 70
     0
  9
$USERI2
 70
     0
  9
$USERI3
 70
     0
  9
$USERI4
 70
     0
  9
$USERI5
 70
     0
  9
$USERR1
 40
0.0
  9
$USERR2
 40
0.0
  9
$USERR3
 40
0.0
  9
$USERR4
 40
0.0
  9
$USERR5
 40
0.0
  9
$WORLDVIEW
 70
     1
  9
$SHADEDGE
 70
     3
  9
$SHADEDIF
 70
    70
  9
$TILEMODE
 70
     1
  9
$MAXACTVP
 70
    64
  9
$PINSBASE
 10
0.0
 20
0.0
 30
0.0
  9
$PLIMCHECK
 70
     0
  9
$PEXTMIN
 10
1.000000000000000E+20
 20
1.000000000000000E+20
 30
1.000000000000000E+20
  9
$PEXTMAX
 10
-1.000000000000000E+20
 20
-1.000000000000000E+20
 30
-1.000000000000000E+20
  9
$PLIMMIN
 10
0.0
 20
0.0
  9
$PLIMMAX
 10
12.0
 20
9.0
  9
$UNITMODE
 70
     0
  9
$VISRETAIN
 70
     1
  9
$PLINEGEN
 70
     0
  9
$PSLTSCALE
 70
     1
  9
$TREEDEPTH
 70
  3020
  9
$CMLSTYLE
  2
Standard
  9
$CMLJUST
 70
     0
  9
$CMLSCALE
 40
1.0
  9
$PROXYGRAPHICS
 70
     1
  9
$MEASUREMENT
 70
     0
  9
$CELWEIGHT
370
    -1
  9
$ENDCAPS
280
     0
  9
$JOINSTYLE
280
     0
  9
$LWDISPLAY
290
     1
  9
$INSUNITS
 70
     1
  9
$HYPERLINKBASE
  1

  9
$STYLESHEET
  1

  9
$XEDIT
290
     1
  9
$CEPSNTYPE
380
     0
  9
$PSTYLEMODE
290
     1
  9
$FINGERPRINTGUID
  2
{33E444CD-B2F5-0350-9535-BA3AD3227B09}
  9
$VERSIONGUID
  2
{FAEB1C32-E019-11D5-929B-00C0DF256EC4}
  9
$EXTNAMES
290
     1
  9
$PSVPSCALE
 40
0.0
  9
$OLESTARTUP
290
     0
  9
$SORTENTS
280
   127
  9
$INDEXCTL
280
     0
  9
$HIDETEXT
280
     1
  9
$XCLIPFRAME
280
     2
  9
$HALOGAP
280
     0
  9
$OBSCOLOR
 70
   257
  9
$OBSLTYPE
280
     0
  9
$INTERSECTIONDISPLAY
280
     0
  9
$INTERSECTIONCOLOR
 70
   257
  9
$DIMASSOC
280
     2
  9
$PROJECTNAME
  1

  9
$CAMERADISPLAY
290
     0
  9
$LENSLENGTH
 40
50.0
  9
$CAMERAHEIGHT
 40
0.0
  9
$STEPSPERSEC
 40
2.0
  9
$STEPSIZE
 40
6.0
  9
$3DDWFPREC
 40
2.0
  9
$PSOLWIDTH
 40
0.25
  9
$PSOLHEIGHT
 40
4.0
  9
$LOFTANG1
 40
1.570796326794897
  9
$LOFTANG2
 40
1.570796326794897
  9
$LOFTMAG1
 40
0.0
  9
$LOFTMAG2
 40
0.0
  9
$LOFTPARAM
 70
     7
  9
$LOFTNORMALS
280
     1
  9
$LATITUDE
 40
37.795
  9
$LONGITUDE
 40
-122.394
  9
$NORTHDIRECTION
 40
0.0
  9
$TIMEZONE
 70
 -8000
  9
$LIGHTGLYPHDISPLAY
280
     1
  9
$TILEMODELIGHTSYNCH
280
     1
  9
$CMATERIAL
347
3C
  9
$SOLIDHIST
280
     1
  9
$SHOWHIST
280
     1
  9
$DWFFRAME
280
     2
  9
$DGNFRAME
280
     2
  9
$REALWORLDSCALE
290
     1
  9
$INTERFERECOLOR
 62
   256
  9
$CSHADOW
280
     0
  9
$SHADOWPLANELOCATION
 40
0.0
  0
ENDSEC
  0
SECTION
  2
CLASSES
  0
CLASS
  1
ACDBDICTIONARYWDFLT
  2
AcDbDictionaryWithDefault
  3
ObjectDBX Classes
 90
        0
 91
        4
280
     0
281
     0
  0
CLASS
  1
VISUALSTYLE
  2
AcDbVisualStyle
  3
ObjectDBX Classes
 90
     4095
 91
        4
280
     0
281
     0
  0
CLASS
  1
MATERIAL
  2
AcDbMaterial
  3
ObjectDBX Classes
 90
     1153
 91
        4
280
     0
281
     0
  0
CLASS
  1
SUN
  2
AcDbSun
  3
SCENEOE
 90
     1024
 91
        4
280
     0
281
     0
  0
ENDSEC
  0
SECTION
  2
TABLES
  0
TABLE
  2
VPORT
  5
8
330
0
100
AcDbSymbolTable
 70
     1
  0
VPORT
  5
29
330
8
100
AcDbSymbolTableRecord
100
AcDbViewportTableRecord
  2
*Active
 70
     0
 10
0.0
 20
0.0
 11
1.0
 21
1.0
 12
0.0
 22
0.0
 13
0.0
 23
0.0
 14
0.5
 24
0.5
 15
0.5
 25
0.5
 16
0.0
 26
0.0
 36
1.0
 17
91.00082462281999
 27
-128.4993055234307
 37
0.0
 40
256.9986110468615
 41
0.7081814508812795
 42
50.0
 43
0.0
 44
0.0
 50
0.0
 51
0.0
 71
     0
 72
   100
 73
     1
 74
     3
 75
     0
 76
     0
 77
     0
 78
     0
281
     0
 65
     1
110
0.0
120
0.0
130
0.0
111
1.0
121
0.0
131
0.0
112
0.0
122
1.0
132
0.0
 79
     0
146
0.0
 60
     3
 61
     5
292
     1
282
     1
141
0.0
142
0.0
 63
   250
361
3F
  0
ENDTAB
  0
TABLE
  2
LTYPE
  5
5
330
0
100
AcDbSymbolTable
 70
     3
  0
LTYPE
  5
14
330
5
100
AcDbSymbolTableRecord
100
AcDbLinetypeTableRecord
  2
ByBlock
 70
     0
  3

 72
    65
 73
     0
 40
0.0
  0
LTYPE
  5
15
330
5
100
AcDbSymbolTableRecord
100
AcDbLinetypeTableRecord
  2
ByLayer
 70
     0
  3

 72
    65
 73
     0
 40
0.0
  0
LTYPE
  5
16
330
5
100
AcDbSymbolTableRecord
100
AcDbLinetypeTableRecord
  2
Continuous
 70
     0
  3
Solid line
 72
    65
 73
     0
 40
0.0
  0
LTYPE
  5
44
330
5
100
AcDbSymbolTableRecord
100
AcDbLinetypeTableRecord
  2
AI-Linetype-1
 70
     0
  3
Adobe Illustrator Linetype No. 1
 72
    65
 73
     2
 40
1.411111110758333
 49
0.7055555553791667
 74
     0
 49
-0.7055555553791667
 74
     0
  0
LTYPE
  5
49
330
5
100
AcDbSymbolTableRecord
100
AcDbLinetypeTableRecord
  2
AI-Linetype-2
 70
     0
  3
Adobe Illustrator Linetype No. 2
 72
    65
 73
     2
 40
1.411111110758333
 49
0.7055555553791667
 74
     0
 49
-0.7055555553791667
 74
     0
  0
ENDTAB
  0
TABLE
  2
LAYER
  5
2
330
0
100
AcDbSymbolTable
 70
     2
  0
LAYER
  5
10
330
2
100
AcDbSymbolTableRecord
100
AcDbLayerTableRecord
  2
0
 70
     0
 62
     7
  6
Continuous
370
    -3
390
F
347
3E
  0
LAYER
  5
40
330
2
100
AcDbSymbolTableRecord
100
AcDbLayerTableRecord
  2
_U+30EC_U+30A4_U+30E4_U+30FC 1
 70
     0
 62
     7
  6
Continuous
370
    -3
390
F
347
3E
  0
ENDTAB
  0
TABLE
  2
STYLE
  5
3
330
0
100
AcDbSymbolTable
 70
     1
  0
STYLE
  5
11
330
3
100
AcDbSymbolTableRecord
100
AcDbTextStyleTableRecord
  2
Standard
 70
     0
 40
0.0
 41
1.0
 50
0.0
 71
     0
 42
0.2
  3
txt
  4

  0
ENDTAB
  0
TABLE
  2
VIEW
  5
6
330
0
100
AcDbSymbolTable
 70
     0
  0
ENDTAB
  0
TABLE
  2
UCS
  5
7
330
0
100
AcDbSymbolTable
 70
     0
  0
ENDTAB
  0
TABLE
  2
APPID
  5
9
330
0
100
AcDbSymbolTable
 70
     1
  0
APPID
  5
12
330
9
100
AcDbSymbolTableRecord
100
AcDbRegAppTableRecord
  2
ACAD
 70
     0
  0
ENDTAB
  0
TABLE
  2
DIMSTYLE
  5
A
330
0
100
AcDbSymbolTable
 70
     1
100
AcDbDimStyleTable
  0
DIMSTYLE
105
27
330
A
100
AcDbSymbolTableRecord
100
AcDbDimStyleTableRecord
  2
Standard
 70
     0
178
     0
340
11
  0
ENDTAB
  0
TABLE
  2
BLOCK_RECORD
  5
1
330
0
100
AcDbSymbolTable
 70
     6
  0
BLOCK_RECORD
  5
1F
330
1
100
AcDbSymbolTableRecord
100
AcDbBlockTableRecord
  2
*Model_Space
340
22
 70
     0
280
     1
281
     0
  0
BLOCK_RECORD
  5
1B
330
1
100
AcDbSymbolTableRecord
100
AcDbBlockTableRecord
  2
*Paper_Space
340
1E
 70
     0
280
     1
281
     0
  0
BLOCK_RECORD
  5
23
330
1
100
AcDbSymbolTableRecord
100
AcDbBlockTableRecord
  2
*Paper_Space0
340
26
 70
     0
280
     1
281
     0
  0
BLOCK_RECORD
  5
63
330
1
100
AcDbSymbolTableRecord
100
AcDbBlockTableRecord
  2
block 2
340
0
102
{BLKREFS
331
64
102
}
 70
     0
280
     1
281
     0
  0
BLOCK_RECORD
  5
8B
330
1
100
AcDbSymbolTableRecord
100
AcDbBlockTableRecord
  2
block 3
340
0
102
{BLKREFS
331
8C
102
}
 70
     0
280
     1
281
     0
  0
BLOCK_RECORD
  5
AC
330
1
100
AcDbSymbolTableRecord
100
AcDbBlockTableRecord
  2
block 4
340
0
102
{BLKREFS
331
AD
102
}
 70
     0
280
     1
281
     0
  0
BLOCK_RECORD
  5
C1
330
1
100
AcDbSymbolTableRecord
100
AcDbBlockTableRecord
  2
block 5
340
0
102
{BLKREFS
331
C2
102
}
 70
     0
280
     1
281
     0
  0
BLOCK_RECORD
  5
D6
330
1
100
AcDbSymbolTableRecord
100
AcDbBlockTableRecord
  2
block 6
340
0
102
{BLKREFS
331
D7
102
}
 70
     0
280
     1
281
     0
  0
ENDTAB
  0
ENDSEC
  0
SECTION
  2
BLOCKS
  0
BLOCK
  5
20
330
1F
100
AcDbEntity
  8
0
100
AcDbBlockBegin
  2
*Model_Space
 70
     0
 10
0.0
 20
0.0
 30
0.0
  3
*Model_Space
  1

  0
ENDBLK
  5
21
330
1F
100
AcDbEntity
  8
0
100
AcDbBlockEnd
  0
BLOCK
  5
1C
330
1B
100
AcDbEntity
 67
     1
  8
0
100
AcDbBlockBegin
  2
*Paper_Space
 70
     0
 10
0.0
 20
0.0
 30
0.0
  3
*Paper_Space
  1

  0
ENDBLK
  5
1D
330
1B
100
AcDbEntity
 67
     1
  8
0
100
AcDbBlockEnd
  0
BLOCK
  5
24
330
23
100
AcDbEntity
  8
0
100
AcDbBlockBegin
  2
*Paper_Space0
 70
     0
 10
0.0
 20
0.0
 30
0.0
  3
*Paper_Space0
  1

  0
ENDBLK
  5
25
330
23
100
AcDbEntity
  8
0
100
AcDbBlockEnd
  0
BLOCK
  5
65
330
63
100
AcDbEntity
  8
0
100
AcDbBlockBegin
  2
block 2
 70
     0
 10
0.0
 20
0.0
 30
0.0
  3
block 2
  1

  0
SPLINE
  5
67
330
63
100
AcDbEntity
  8
_U+30EC_U+30A4_U+30E4_U+30FC 1
370
     0
100
AcDbSpline
210
0.0
220
0.0
230
1.0
 70
    11
 71
     3
 72
   242
 73
   238
 74
     0
 42
0.0000000001
 43
0.0000000001
 12
1.0
 22
0.0
 32
0.0
 13
1.0
 23
0.0
 33
0.0
 40
0.0
 40
0.0
 40
0.0
 40
0.0
 40
1.0
 40
1.0
 40
1.0
 40
2.0
 40
2.0
 40
2.0
 40
3.0
 40
3.0
 40
3.0
 40
4.0
 40
4.0
 40
4.0
 40
5.0
 40
5.0
 40
5.0
 40
6.0
 40
6.0
 40
6.0
 40
7.0
 40
7.0
 40
7.0
 40
8.0
 40
8.0
 40
8.0
 40
9.0
 40
9.0
 40
9.0
 40
10.0
 40
10.0
 40
10.0
 40
11.0
 40
11.0
 40
11.0
 40
12.0
 40
12.0
 40
12.0
 40
13.0
 40
13.0
 40
13.0
 40
14.0
 40
14.0
 40
14.0
 40
15.0
 40
15.0
 40
15.0
 40
16.0
 40
16.0
 40
16.0
 40
17.0
 40
17.0
 40
17.0
 40
18.0
 40
18.0
 40
18.0
 40
19.0
 40
19.0
 40
19.0
 40
20.0
 40
20.0
 40
20.0
 40
21.0
 40
21.0
 40
21.0
 40
22.0
 40
22.0
 40
22.0
 40
23.0
 40
23.0
 40
23.0
 40
24.0
 40
24.0
 40
24.0
 40
25.0
 40
25.0
 40
25.0
 40
26.0
 40
26.0
 40
26.0
 40
27.0
 40
27.0
 40
27.0
 40
28.0
 40
28.0
 40
28.0
 40
29.0
 40
29.0
 40
29.0
 40
30.0
 40
30.0
 40
30.0
 40
31.0
 40
31.0
 40
31.0
 40
32.0
 40
32.0
 40
32.0
 40
33.0
 40
33.0
 40
33.0
 40
34.0
 40
34.0
 40
34.0
 40
35.0
 40
35.0
 40
35.0
 40
36.0
 40
36.0
 40
36.0
 40
37.0
 40
37.0
 40
37.0
 40
38.0
 40
38.0
 40
38.0
 40
39.0
 40
39.0
 40
39.0
 40
40.0
 40
40.0
 40
40.0
 40
41.0
 40
41.0
 40
41.0
 40
42.0
 40
42.0
 40
42.0
 40
43.0
 40
43.0
 40
43.0
 40
44.0
 40
44.0
 40
44.0
 40
45.0
 40
45.0
 40
45.0
 40
46.0
 40
46.0
 40
46.0
 40
47.0
 40
47.0
 40
47.0
 40
48.0
 40
48.0
 40
48.0
 40
49.0
 40
49.0
 40
49.0
 40
50.0
 40
50.0
 40
50.0
 40
51.0
 40
51.0
 40
51.0
 40
52.0
 40
52.0
 40
52.0
 40
53.0
 40
53.0
 40
53.0
 40
54.0
 40
54.0
 40
54.0
 40
55.0
 40
55.0
 40
55.0
 40
56.0
 40
56.0
 40
56.0
 40
57.0
 40
57.0
 40
57.0
 40
58.0
 40
58.0
 40
58.0
 40
59.0
 40
59.0
 40
59.0
 40
60.0
 40
60.0
 40
60.0
 40
61.0
 40
61.0
 40
61.0
 40
62.0
 40
62.0
 40
62.0
 40
63.0
 40
63.0
 40
63.0
 40
64.0
 40
64.0
 40
64.0
 40
65.0
 40
65.0
 40
65.0
 40
66.0
 40
66.0
 40
66.0
 40
67.0
 40
67.0
 40
67.0
 40
68.0
 40
68.0
 40
68.0
 40
69.0
 40
69.0
 40
69.0
 40
70.0
 40
70.0
 40
70.0
 40
71.0
 40
71.0
 40
71.0
 40
72.0
 40
72.0
 40
72.0
 40
73.0
 40
73.0
 40
73.0
 40
74.0
 40
74.0
 40
74.0
 40
75.0
 40
75.0
 40
75.0
 40
76.0
 40
76.0
 40
76.0
 40
77.0
 40
77.0
 40
77.0
 40
78.0
 40
78.0
 40
78.0
 40
79.0
 40
79.0
 40
79.0
 40
79.0
 10
97.6312499755922
 20
-112.551786267435
 30
0.0
 10
97.6312499755922
 20
-112.551786267435
 30
0.0
 10
97.37734643832928
 20
-112.551786267435
 30
0.0
 10
97.37734643832928
 20
-112.551786267435
 30
0.0
 10
97.37734643832928
 20
-112.551786267435
 30
0.0
 10
97.10036076131519
 20
-112.551786267435
 30
0.0
 10
97.10036076131519
 20
-112.551786267435
 30
0.0
 10
97.10036076131519
 20
-112.551786267435
 30
0.0
 10
97.22714027517239
 20
-112.5941609419036
 30
0.0
 10
97.22714027517239
 20
-112.5941609419036
 30
0.0
 10
97.23782007117666
 20
-112.5984673112601
 30
0.0
 10
97.25056692447208
 20
-112.6046684831336
 30
0.0
 10
97.25056692447208
 20
-112.617415336429
 30
0.0
 10
97.25056692447208
 20
-112.6386026736633
 30
0.0
 10
97.21852753645926
 20
-112.644976100311
 30
0.0
 10
97.19751245399924
 20
-112.6491102148933
 30
0.0
 10
97.18683265799497
 20
-112.6723646094187
 30
0.0
 10
97.15720483682182
 20
-112.7379936784127
 30
0.0
 10
97.13825681165294
 20
-112.7824354101725
 30
0.0
 10
97.13825681165294
 20
-112.7824354101725
 30
0.0
 10
97.40904131679358
 20
-112.7824354101725
 30
0.0
 10
97.40904131679358
 20
-112.7824354101725
 30
0.0
 10
97.49999183760417
 20
-112.7824354101725
 30
0.0
 10
97.69670678981194
 20
-112.7781290408159
 30
0.0
 10
97.83864472380424
 20
-112.769688556877
 30
0.0
 10
97.83864472380424
 20
-112.769688556877
 30
0.0
 10
97.83864472380424
 20
-112.9474554839159
 30
0.0
 10
97.83864472380424
 20
-112.9474554839159
 30
0.0
 10
97.75596243215824
 20
-112.9431491145594
 30
0.0
 10
97.73494734969822
 20
-112.9431491145594
 30
0.0
 10
97.55511336536817
 20
-112.9390149999771
 30
0.0
 10
97.52341848690388
 20
-113.0933552777163
 30
0.0
 10
97.47897675514415
 20
-113.1737982572968
 30
0.0
 10
97.43453502338443
 20
-113.2435614408731
 30
0.0
 10
97.55511336536817
 20
-113.3028170832194
 30
0.0
 10
97.66087779676533
 20
-113.3705132095046
 30
0.0
 10
97.76457517087137
 20
-113.4530232463763
 30
0.0
 10
97.76457517087137
 20
-113.4530232463763
 30
0.0
 10
97.64606388617877
 20
-113.620110377411
 30
0.0
 10
97.64606388617877
 20
-113.620110377411
 30
0.0
 10
97.62263723687907
 20
-113.6011623522421
 30
0.0
 10
97.60989038358365
 20
-113.5927218683032
 30
0.0
 10
97.49792478031303
 20
-113.5079725193661
 30
0.0
 10
97.449348933971
 20
-113.4699042142541
 30
0.0
 10
97.39009329162471
 20
-113.4340752212075
 30
0.0
 10
97.30947805726986
 20
-113.3896334894477
 30
0.0
 10
97.09794919447552
 20
-113.5758409004255
 30
0.0
 10
96.89296601310315
 20
-113.5990952949509
 30
0.0
 10
96.60288897324511
 20
-113.6287231161241
 30
0.0
 10
96.60288897324511
 20
-113.6287231161241
 30
0.0
 10
96.49953610868762
 20
-113.448889131794
 30
0.0
 10
96.49953610868762
 20
-113.448889131794
 30
0.0
 10
96.81682940287914
 20
-113.4445827624375
 30
0.0
 10
96.99218476307834
 20
-113.4192613106209
 30
0.0
 10
97.1444579835264
 20
-113.3091905098672
 30
0.0
 10
97.02629120838232
 20
-113.2583753514597
 30
0.0
 10
96.93740774486288
 20
-113.230986842352
 30
0.0
 10
96.90123424226775
 20
-113.2182399890566
 30
0.0
 10
96.88228621709888
 20
-113.2458007529385
 30
0.0
 10
96.8674723065123
 20
-113.2647487781074
 30
0.0
 10
96.8399115426303
 20
-113.2986829686371
 30
0.0
 10
96.8399115426303
 20
-113.2986829686371
 30
0.0
 10
96.64319659042253
 20
-113.2161729317654
 30
0.0
 10
96.64319659042253
 20
-113.2161729317654
 30
0.0
 10
96.72587888206853
 20
-113.1357299521848
 30
0.0
 10
96.78720158170599
 20
-113.0404730620177
 30
0.0
 10
96.8440456572126
 20
-112.9390149999771
 30
0.0
 10
96.65387638642682
 20
-112.9431491145594
 30
0.0
 10
96.63251679441827
 20
-112.9431491145594
 30
0.0
 10
96.5501790123208
 20
-112.9474554839159
 30
0.0
 10
96.5501790123208
 20
-112.9474554839159
 30
0.0
 10
96.5501790123208
 20
-112.769688556877
 30
0.0
 10
96.5501790123208
 20
-112.769688556877
 30
0.0
 10
96.68970537947341
 20
-112.7760619835247
 30
0.0
 10
96.8991671849766
 20
-112.7803683528813
 30
0.0
 10
96.92466089156746
 20
-112.7803683528813
 30
0.0
 10
96.94154185944518
 20
-112.7464341623516
 30
0.0
 10
96.99666338720917
 20
-112.6258558203678
 30
0.0
 10
97.01561141237805
 20
-112.551786267435
 30
0.0
 10
96.99666338720917
 20
-112.551786267435
 30
0.0
 10
96.81889646017028
 20
-112.5581596940827
 30
0.0
 10
96.62424856525367
 20
-112.5709065473781
 30
0.0
 10
96.62424856525367
 20
-112.5709065473781
 30
0.0
 10
96.62424856525367
 20
-112.7042317426573
 30
0.0
 10
96.62424856525367
 20
-112.7042317426573
 30
0.0
 10
96.57567271891165
 20
-112.7295531944739
 30
0.0
 10
96.51641707656535
 20
-112.7612480729382
 30
0.0
 10
96.38309188128618
 20
-112.8268771419322
 30
0.0
 10
96.38309188128618
 20
-112.8268771419322
 30
0.0
 10
96.38309188128618
 20
-112.9727769357325
 30
0.0
 10
96.38309188128618
 20
-112.9727769357325
 30
0.0
 10
96.38309188128618
 20
-112.9727769357325
 30
0.0
 10
96.38309188128618
 20
-113.4404486478552
 30
0.0
 10
96.38309188128618
 20
-113.4404486478552
 30
0.0
 10
96.38309188128618
 20
-113.5672281617124
 30
0.0
 10
96.34691837869106
 20
-113.6264838040587
 30
0.0
 10
96.06373152980352
 20
-113.6180433201198
 30
0.0
 10
96.06373152980352
 20
-113.6180433201198
 30
0.0
 10
95.9600341556975
 20
-113.410820826682
 30
0.0
 10
95.9600341556975
 20
-113.410820826682
 30
0.0
 10
96.02342391262609
 20
-113.4233954252032
 30
0.0
 10
96.07199975896812
 20
-113.4277017945598
 30
0.0
 10
96.11230737614554
 20
-113.4277017945598
 30
0.0
 10
96.18844398636956
 20
-113.4277017945598
 30
0.0
 10
96.19912378237383
 20
-113.4044474000343
 30
0.0
 10
96.19912378237383
 20
-113.3388183310403
 30
0.0
 10
96.19912378237383
 20
-113.3388183310403
 30
0.0
 10
96.19912378237383
 20
-112.9093871788039
 30
0.0
 10
96.19912378237383
 20
-112.9093871788039
 30
0.0
 10
96.10162758014127
 20
-112.9495225412071
 30
0.0
 10
96.08474661226354
 20
-112.9558959678548
 30
0.0
 10
96.03823782321267
 20
-112.9750162477979
 30
0.0
 10
96.03410370863037
 20
-112.9960313302579
 30
0.0
 10
96.02962508449954
 20
-113.0256591514311
 30
0.0
 10
96.01067705933067
 20
-113.0256591514311
 30
0.0
 10
96.00240883016608
 20
-113.0256591514311
 30
0.0
 10
95.99172903416179
 20
-113.0215250368488
 30
0.0
 10
95.98518335273982
 20
-112.9982706423233
 30
0.0
 10
95.98518335273982
 20
-112.9982706423233
 30
0.0
 10
95.93247339181549
 20
-112.8056898046979
 30
0.0
 10
95.93247339181549
 20
-112.8056898046979
 30
0.0
 10
96.07854544039009
 20
-112.759181015647
 30
0.0
 10
96.14400225460983
 20
-112.7359266211216
 30
0.0
 10
96.19912378237383
 20
-112.7147392838873
 30
0.0
 10
96.19912378237383
 20
-112.7147392838873
 30
0.0
 10
96.19912378237383
 20
-112.3021890995286
 30
0.0
 10
96.19912378237383
 20
-112.3021890995286
 30
0.0
 10
96.19912378237383
 20
-112.3021890995286
 30
0.0
 10
96.14606931190099
 20
-112.3021890995286
 30
0.0
 10
96.14606931190099
 20
-112.3021890995286
 30
0.0
 10
96.14606931190099
 20
-112.3021890995286
 30
0.0
 10
96.06786564438582
 20
-112.3021890995286
 30
0.0
 10
96.06786564438582
 20
-112.3021890995286
 30
0.0
 10
95.99999726332639
 20
-112.3021890995286
 30
0.0
 10
95.99172903416179
 20
-112.3021890995286
 30
0.0
 10
95.95555553156667
 20
-112.3085625261763
 30
0.0
 10
95.95555553156667
 20
-112.3085625261763
 30
0.0
 10
95.95555553156667
 20
-112.1139146312597
 30
0.0
 10
95.95555553156667
 20
-112.1139146312597
 30
0.0
 10
95.98311629544867
 20
-112.1202880579074
 30
0.0
 10
95.99172903416179
 20
-112.1202880579074
 30
0.0
 10
96.06131996296384
 20
-112.1202880579074
 30
0.0
 10
96.06131996296384
 20
-112.1202880579074
 30
0.0
 10
96.194645158243
 20
-112.1202880579074
 30
0.0
 10
96.194645158243
 20
-112.1202880579074
 30
0.0
 10
96.194645158243
 20
-112.0505248743311
 30
0.0
 10
96.194645158243
 20
-111.9680148374594
 30
0.0
 10
96.19257810095186
 20
-111.9637084681028
 30
0.0
 10
96.18430987178726
 20
-111.7838744837728
 30
0.0
 10
96.18430987178726
 20
-111.7649264586039
 30
0.0
 10
96.18189830494758
 20
-111.718417669553
 30
0.0
 10
96.18189830494758
 20
-111.718417669553
 30
0.0
 10
96.39790579187274
 20
-111.7268581534919
 30
0.0
 10
96.39790579187274
 20
-111.7268581534919
 30
0.0
 10
96.40858558787703
 20
-111.7268581534919
 30
0.0
 10
96.42960067033705
 20
-111.728925210783
 30
0.0
 10
96.42960067033705
 20
-111.7458061786608
 30
0.0
 10
96.42960067033705
 20
-111.7649264586039
 30
0.0
 10
96.41478675975047
 20
-111.7754339998339
 30
0.0
 10
96.38929305315962
 20
-111.7945542797771
 30
0.0
 10
96.38929305315962
 20
-111.8451971834102
 30
0.0
 10
96.38309188128618
 20
-112.0737792688566
 30
0.0
 10
96.38515893857732
 20
-112.1202880579074
 30
0.0
 10
96.51435001927419
 20
-112.1202880579074
 30
0.0
 10
96.52675236302109
 20
-112.1202880579074
 30
0.0
 10
96.62424856525367
 20
-112.1118475739686
 30
0.0
 10
96.62424856525367
 20
-112.1118475739686
 30
0.0
 10
96.62424856525367
 20
-112.3064954688852
 30
0.0
 10
96.62424856525367
 20
-112.3064954688852
 30
0.0
 10
96.58600800536739
 20
-112.3042561568198
 30
0.0
 10
96.51848413385649
 20
-112.3001220422375
 30
0.0
 10
96.38309188128618
 20
-112.3021890995286
 30
0.0
 10
96.38309188128618
 20
-112.3021890995286
 30
0.0
 10
96.38309188128618
 20
-112.6406697309544
 30
0.0
 10
96.38309188128618
 20
-112.6406697309544
 30
0.0
 10
96.43821340905018
 20
-112.617415336429
 30
0.0
 10
96.50367022326992
 20
-112.589854572547
 30
0.0
 10
96.55224606961194
 20
-112.5666001780215
 30
0.0
 10
96.55224606961194
 20
-112.5666001780215
 30
0.0
 10
96.55224606961194
 20
-112.3890055057569
 30
0.0
 10
96.55224606961194
 20
-112.3890055057569
 30
0.0
 10
96.66662323972224
 20
-112.4015801042781
 30
0.0
 10
96.78513452441483
 20
-112.4015801042781
 30
0.0
 10
96.90123424226775
 20
-112.4015801042781
 30
0.0
 10
96.87815210251658
 20
-112.3064954688852
 30
0.0
 10
96.85059133863457
 20
-112.2239854320134
 30
0.0
 10
96.78720158170599
 20
-112.0906602367343
 30
0.0
 10
96.74275984994625
 20
-112.0927272940254
 30
0.0
 10
96.66007755830026
 20
-112.097033663382
 30
0.0
 10
96.62218150796251
 20
-112.0991007206731
 30
0.0
 10
96.62218150796251
 20
-112.0991007206731
 30
0.0
 10
96.62218150796251
 20
-111.9192667363431
 30
0.0
 10
96.62218150796251
 20
-111.9192667363431
 30
0.0
 10
96.74689396452855
 20
-111.927707220282
 30
0.0
 10
96.92052677698516
 20
-111.9320135896385
 30
0.0
 10
97.00286455908262
 20
-111.9320135896385
 30
0.0
 10
97.00286455908262
 20
-111.9320135896385
 30
0.0
 10
97.08554685072862
 20
-111.9320135896385
 30
0.0
 10
97.08554685072862
 20
-111.9320135896385
 30
0.0
 10
97.08554685072862
 20
-111.7690605731862
 30
0.0
 10
97.08554685072862
 20
-111.7585530319562
 30
0.0
 10
97.08313528388894
 20
-111.7036037589665
 30
0.0
 10
97.08313528388894
 20
-111.7036037589665
 30
0.0
 10
97.30741099997871
 20
-111.728925210783
 30
0.0
 10
97.30741099997871
 20
-111.728925210783
 30
0.0
 10
97.31188962410953
 20
-111.728925210783
 30
0.0
 10
97.33290470656955
 20
-111.7309922680742
 30
0.0
 10
97.33290470656955
 20
-111.7478732359519
 30
0.0
 10
97.33290470656955
 20
-111.7626871465385
 30
0.0
 10
97.32222491056528
 20
-111.7712998852516
 30
0.0
 10
97.29466414668329
 20
-111.7861137958382
 30
0.0
 10
97.28846297480983
 20
-111.8515706100579
 30
0.0
 10
97.28639591751869
 20
-111.8727579472922
 30
0.0
 10
97.28639591751869
 20
-111.9320135896385
 30
0.0
 10
97.28639591751869
 20
-111.9320135896385
 30
0.0
 10
97.38148055291158
 20
-111.9320135896385
 30
0.0
 10
97.38148055291158
 20
-111.9320135896385
 30
0.0
 10
97.46416284455758
 20
-111.9320135896385
 30
0.0
 10
97.63745114746564
 20
-111.927707220282
 30
0.0
 10
97.76250811358021
 20
-111.9192667363431
 30
0.0
 10
97.76250811358021
 20
-111.9192667363431
 30
0.0
 10
97.76250811358021
 20
-112.0991007206731
 30
0.0
 10
97.76250811358021
 20
-112.0991007206731
 30
0.0
 10
97.73288029240706
 20
-112.097033663382
 30
0.0
 10
97.61436900771447
 20
-112.0927272940254
 30
0.0
 10
97.57406139053704
 20
-112.0906602367343
 30
0.0
 10
97.55924747995047
 20
-112.1414753951417
 30
0.0
 10
97.52548554419502
 20
-112.2536132531866
 30
0.0
 10
97.45968422042675
 20
-112.3931396203392
 30
0.0
 10
97.50205889489533
 20
-112.3931396203392
 30
0.0
 10
97.77938908145794
 20
-112.3741915951703
 30
0.0
 10
97.84071178109538
 20
-112.3719522831049
 30
0.0
 10
97.84071178109538
 20
-112.3719522831049
 30
0.0
 10
97.84071178109538
 20
-112.5560926367915
 30
0.0
 10
97.84071178109538
 20
-112.5560926367915
 30
0.0
 10
97.81108395992223
 20
-112.5560926367915
 30
0.0
 10
97.7942029920445
 20
-112.551786267435
 30
0.0
 10
97.6312499755922
 20
-112.551786267435
 30
0.0
  0
SPLINE
  5
68
330
63
100
AcDbEntity
  8
_U+30EC_U+30A4_U+30E4_U+30FC 1
370
     0
100
AcDbSpline
210
0.0
220
0.0
230
1.0
 70
    11
 71
     3
 72
    20
 73
    16
 74
     0
 42
0.0000000001
 43
0.0000000001
 12
1.0
 22
0.0
 32
0.0
 13
1.0
 23
0.0
 33
0.0
 40
0.0
 40
0.0
 40
0.0
 40
0.0
 40
1.0
 40
1.0
 40
1.0
 40
2.0
 40
2.0
 40
2.0
 40
3.0
 40
3.0
 40
3.0
 40
4.0
 40
4.0
 40
4.0
 40
5.0
 40
5.0
 40
5.0
 40
5.0
 10
97.00286455908262
 20
-112.086526122152
 30
0.0
 10
97.00286455908262
 20
-112.086526122152
 30
0.0
 10
96.97116968061832
 20
-112.086526122152
 30
0.0
 10
96.97116968061832
 20
-112.086526122152
 30
0.0
 10
97.01767846966919
 20
-112.1859171269014
 30
0.0
 10
97.0493733481335
 20
-112.2661878517078
 30
0.0
 10
97.08313528388894
 20
-112.3931396203392
 30
0.0
 10
97.08313528388894
 20
-112.3931396203392
 30
0.0
 10
97.29053003210099
 20
-112.3931396203392
 30
0.0
 10
97.29053003210099
 20
-112.3931396203392
 30
0.0
 10
97.32222491056528
 20
-112.3001220422375
 30
0.0
 10
97.34565155986498
 20
-112.2155449480746
 30
0.0
 10
97.36873369961616
 20
-112.086526122152
 30
0.0
 10
97.36873369961616
 20
-112.086526122152
 30
0.0
 10
97.00286455908262
 20
-112.086526122152
 30
0.0
 10
97.00286455908262
 20
-112.086526122152
 30
0.0
  0
SPLINE
  5
69
330
63
100
AcDbEntity
  8
_U+30EC_U+30A4_U+30E4_U+30FC 1
370
     0
100
AcDbSpline
210
0.0
220
0.0
230
1.0
 70
    11
 71
     3
 72
    17
 73
    13
 74
     0
 42
0.0000000001
 43
0.0000000001
 12
1.0
 22
0.0
 32
0.0
 13
1.0
 23
0.0
 33
0.0
 40
0.0
 40
0.0
 40
0.0
 40
0.0
 40
1.0
 40
1.0
 40
1.0
 40
2.0
 40
2.0
 40
2.0
 40
3.0
 40
3.0
 40
3.0
 40
4.0
 40
4.0
 40
4.0
 40
4.0
 10
97.06625431601123
 20
-112.9369479426859
 30
0.0
 10
97.0493733481335
 20
-112.9664035090848
 30
0.0
 10
96.99873044450032
 20
-113.0595933419608
 30
0.0
 10
96.98805064849604
 20
-113.0785413671297
 30
0.0
 10
97.17856442883037
 20
-113.137797009476
 30
0.0
 10
97.19957951129038
 20
-113.1441704361237
 30
0.0
 10
97.2715820069321
 20
-113.1717312000057
 30
0.0
 10
97.32670353469611
 20
-113.0849147937774
 30
0.0
 10
97.34978567444728
 20
-113.0108452408445
 30
0.0
 10
97.36459958503386
 20
-112.9369479426859
 30
0.0
 10
97.36459958503386
 20
-112.9369479426859
 30
0.0
 10
97.06625431601123
 20
-112.9369479426859
 30
0.0
 10
97.06625431601123
 20
-112.9369479426859
 30
0.0
  0
HATCH
  5
6A
330
63
100
AcDbEntity
  8
_U+30EC_U+30A4_U+30E4_U+30FC 1
 62
     7
420
 16777215
100
AcDbHatch
 10
0.0
 20
0.0
 30
0.0
210
0.0
220
0.0
230
1.0
  2
SOLID
 70
     1
 71
     0
 91
        3
 92
        1
 93
        1
 72
     4
 94
        3
 73
     0
 74
     1
 95
      242
 96
      238
 40
0.0
 40
0.0
 40
0.0
 40
0.0
 40
1.0
 40
1.0
 40
1.0
 40
2.0
 40
2.0
 40
2.0
 40
3.0
 40
3.0
 40
3.0
 40
4.0
 40
4.0
 40
4.0
 40
5.0
 40
5.0
 40
5.0
 40
6.0
 40
6.0
 40
6.0
 40
7.0
 40
7.0
 40
7.0
 40
8.0
 40
8.0
 40
8.0
 40
9.0
 40
9.0
 40
9.0
 40
10.0
 40
10.0
 40
10.0
 40
11.0
 40
11.0
 40
11.0
 40
12.0
 40
12.0
 40
12.0
 40
13.0
 40
13.0
 40
13.0
 40
14.0
 40
14.0
 40
14.0
 40
15.0
 40
15.0
 40
15.0
 40
16.0
 40
16.0
 40
16.0
 40
17.0
 40
17.0
 40
17.0
 40
18.0
 40
18.0
 40
18.0
 40
19.0
 40
19.0
 40
19.0
 40
20.0
 40
20.0
 40
20.0
 40
21.0
 40
21.0
 40
21.0
 40
22.0
 40
22.0
 40
22.0
 40
23.0
 40
23.0
 40
23.0
 40
24.0
 40
24.0
 40
24.0
 40
25.0
 40
25.0
 40
25.0
 40
26.0
 40
26.0
 40
26.0
 40
27.0
 40
27.0
 40
27.0
 40
28.0
 40
28.0
 40
28.0
 40
29.0
 40
29.0
 40
29.0
 40
30.0
 40
30.0
 40
30.0
 40
31.0
 40
31.0
 40
31.0
 40
32.0
 40
32.0
 40
32.0
 40
33.0
 40
33.0
 40
33.0
 40
34.0
 40
34.0
 40
34.0
 40
35.0
 40
35.0
 40
35.0
 40
36.0
 40
36.0
 40
36.0
 40
37.0
 40
37.0
 40
37.0
 40
38.0
 40
38.0
 40
38.0
 40
39.0
 40
39.0
 40
39.0
 40
40.0
 40
40.0
 40
40.0
 40
41.0
 40
41.0
 40
41.0
 40
42.0
 40
42.0
 40
42.0
 40
43.0
 40
43.0
 40
43.0
 40
44.0
 40
44.0
 40
44.0
 40
45.0
 40
45.0
 40
45.0
 40
46.0
 40
46.0
 40
46.0
 40
47.0
 40
47.0
 40
47.0
 40
48.0
 40
48.0
 40
48.0
 40
49.0
 40
49.0
 40
49.0
 40
50.0
 40
50.0
 40
50.0
 40
51.0
 40
51.0
 40
51.0
 40
52.0
 40
52.0
 40
52.0
 40
53.0
 40
53.0
 40
53.0
 40
54.0
 40
54.0
 40
54.0
 40
55.0
 40
55.0
 40
55.0
 40
56.0
 40
56.0
 40
56.0
 40
57.0
 40
57.0
 40
57.0
 40
58.0
 40
58.0
 40
58.0
 40
59.0
 40
59.0
 40
59.0
 40
60.0
 40
60.0
 40
60.0
 40
61.0
 40
61.0
 40
61.0
 40
62.0
 40
62.0
 40
62.0
 40
63.0
 40
63.0
 40
63.0
 40
64.0
 40
64.0
 40
64.0
 40
65.0
 40
65.0
 40
65.0
 40
66.0
 40
66.0
 40
66.0
 40
67.0
 40
67.0
 40
67.0
 40
68.0
 40
68.0
 40
68.0
 40
69.0
 40
69.0
 40
69.0
 40
70.0
 40
70.0
 40
70.0
 40
71.0
 40
71.0
 40
71.0
 40
72.0
 40
72.0
 40
72.0
 40
73.0
 40
73.0
 40
73.0
 40
74.0
 40
74.0
 40
74.0
 40
75.0
 40
75.0
 40
75.0
 40
76.0
 40
76.0
 40
76.0
 40
77.0
 40
77.0
 40
77.0
 40
78.0
 40
78.0
 40
78.0
 40
79.0
 40
79.0
 40
79.0
 40
79.0
 10
97.6312499755922
 20
-112.551786267435
 10
97.6312499755922
 20
-112.551786267435
 10
97.37734643832928
 20
-112.551786267435
 10
97.37734643832928
 20
-112.551786267435
 10
97.37734643832928
 20
-112.551786267435
 10
97.10036076131519
 20
-112.551786267435
 10
97.10036076131519
 20
-112.551786267435
 10
97.10036076131519
 20
-112.551786267435
 10
97.22714027517239
 20
-112.5941609419036
 10
97.22714027517239
 20
-112.5941609419036
 10
97.23782007117666
 20
-112.5984673112601
 10
97.25056692447208
 20
-112.6046684831336
 10
97.25056692447208
 20
-112.617415336429
 10
97.25056692447208
 20
-112.6386026736633
 10
97.21852753645926
 20
-112.644976100311
 10
97.19751245399924
 20
-112.6491102148933
 10
97.18683265799497
 20
-112.6723646094187
 10
97.15720483682182
 20
-112.7379936784127
 10
97.13825681165294
 20
-112.7824354101725
 10
97.13825681165294
 20
-112.7824354101725
 10
97.40904131679358
 20
-112.7824354101725
 10
97.40904131679358
 20
-112.7824354101725
 10
97.49999183760417
 20
-112.7824354101725
 10
97.69670678981194
 20
-112.7781290408159
 10
97.83864472380424
 20
-112.769688556877
 10
97.83864472380424
 20
-112.769688556877
 10
97.83864472380424
 20
-112.9474554839159
 10
97.83864472380424
 20
-112.9474554839159
 10
97.75596243215824
 20
-112.9431491145594
 10
97.73494734969822
 20
-112.9431491145594
 10
97.55511336536817
 20
-112.9390149999771
 10
97.52341848690388
 20
-113.0933552777163
 10
97.47897675514415
 20
-113.1737982572968
 10
97.43453502338443
 20
-113.2435614408731
 10
97.55511336536817
 20
-113.3028170832194
 10
97.66087779676533
 20
-113.3705132095046
 10
97.76457517087137
 20
-113.4530232463763
 10
97.76457517087137
 20
-113.4530232463763
 10
97.64606388617877
 20
-113.620110377411
 10
97.64606388617877
 20
-113.620110377411
 10
97.62263723687907
 20
-113.6011623522421
 10
97.60989038358365
 20
-113.5927218683032
 10
97.49792478031303
 20
-113.5079725193661
 10
97.449348933971
 20
-113.4699042142541
 10
97.39009329162471
 20
-113.4340752212075
 10
97.30947805726986
 20
-113.3896334894477
 10
97.09794919447552
 20
-113.5758409004255
 10
96.89296601310315
 20
-113.5990952949509
 10
96.60288897324511
 20
-113.6287231161241
 10
96.60288897324511
 20
-113.6287231161241
 10
96.49953610868762
 20
-113.448889131794
 10
96.49953610868762
 20
-113.448889131794
 10
96.81682940287914
 20
-113.4445827624375
 10
96.99218476307834
 20
-113.4192613106209
 10
97.1444579835264
 20
-113.3091905098672
 10
97.02629120838232
 20
-113.2583753514597
 10
96.93740774486288
 20
-113.230986842352
 10
96.90123424226775
 20
-113.2182399890566
 10
96.88228621709888
 20
-113.2458007529385
 10
96.8674723065123
 20
-113.2647487781074
 10
96.8399115426303
 20
-113.2986829686371
 10
96.8399115426303
 20
-113.2986829686371
 10
96.64319659042253
 20
-113.2161729317654
 10
96.64319659042253
 20
-113.2161729317654
 10
96.72587888206853
 20
-113.1357299521848
 10
96.78720158170599
 20
-113.0404730620177
 10
96.8440456572126
 20
-112.9390149999771
 10
96.65387638642682
 20
-112.9431491145594
 10
96.63251679441827
 20
-112.9431491145594
 10
96.5501790123208
 20
-112.9474554839159
 10
96.5501790123208
 20
-112.9474554839159
 10
96.5501790123208
 20
-112.769688556877
 10
96.5501790123208
 20
-112.769688556877
 10
96.68970537947341
 20
-112.7760619835247
 10
96.8991671849766
 20
-112.7803683528813
 10
96.92466089156746
 20
-112.7803683528813
 10
96.94154185944518
 20
-112.7464341623516
 10
96.99666338720917
 20
-112.6258558203678
 10
97.01561141237805
 20
-112.551786267435
 10
96.99666338720917
 20
-112.551786267435
 10
96.81889646017028
 20
-112.5581596940827
 10
96.62424856525367
 20
-112.5709065473781
 10
96.62424856525367
 20
-112.5709065473781
 10
96.62424856525367
 20
-112.7042317426573
 10
96.62424856525367
 20
-112.7042317426573
 10
96.57567271891165
 20
-112.7295531944739
 10
96.51641707656535
 20
-112.7612480729382
 10
96.38309188128618
 20
-112.8268771419322
 10
96.38309188128618
 20
-112.8268771419322
 10
96.38309188128618
 20
-112.9727769357325
 10
96.38309188128618
 20
-112.9727769357325
 10
96.38309188128618
 20
-112.9727769357325
 10
96.38309188128618
 20
-113.4404486478552
 10
96.38309188128618
 20
-113.4404486478552
 10
96.38309188128618
 20
-113.5672281617124
 10
96.34691837869106
 20
-113.6264838040587
 10
96.06373152980352
 20
-113.6180433201198
 10
96.06373152980352
 20
-113.6180433201198
 10
95.9600341556975
 20
-113.410820826682
 10
95.9600341556975
 20
-113.410820826682
 10
96.02342391262609
 20
-113.4233954252032
 10
96.07199975896812
 20
-113.4277017945598
 10
96.11230737614554
 20
-113.4277017945598
 10
96.18844398636956
 20
-113.4277017945598
 10
96.19912378237383
 20
-113.4044474000343
 10
96.19912378237383
 20
-113.3388183310403
 10
96.19912378237383
 20
-113.3388183310403
 10
96.19912378237383
 20
-112.9093871788039
 10
96.19912378237383
 20
-112.9093871788039
 10
96.10162758014127
 20
-112.9495225412071
 10
96.08474661226354
 20
-112.9558959678548
 10
96.03823782321267
 20
-112.9750162477979
 10
96.03410370863037
 20
-112.9960313302579
 10
96.02962508449954
 20
-113.0256591514311
 10
96.01067705933067
 20
-113.0256591514311
 10
96.00240883016608
 20
-113.0256591514311
 10
95.99172903416179
 20
-113.0215250368488
 10
95.98518335273982
 20
-112.9982706423233
 10
95.98518335273982
 20
-112.9982706423233
 10
95.93247339181549
 20
-112.8056898046979
 10
95.93247339181549
 20
-112.8056898046979
 10
96.07854544039009
 20
-112.759181015647
 10
96.14400225460983
 20
-112.7359266211216
 10
96.19912378237383
 20
-112.7147392838873
 10
96.19912378237383
 20
-112.7147392838873
 10
96.19912378237383
 20
-112.3021890995286
 10
96.19912378237383
 20
-112.3021890995286
 10
96.19912378237383
 20
-112.3021890995286
 10
96.14606931190099
 20
-112.3021890995286
 10
96.14606931190099
 20
-112.3021890995286
 10
96.14606931190099
 20
-112.3021890995286
 10
96.06786564438582
 20
-112.3021890995286
 10
96.06786564438582
 20
-112.3021890995286
 10
95.99999726332639
 20
-112.3021890995286
 10
95.99172903416179
 20
-112.3021890995286
 10
95.95555553156667
 20
-112.3085625261763
 10
95.95555553156667
 20
-112.3085625261763
 10
95.95555553156667
 20
-112.1139146312597
 10
95.95555553156667
 20
-112.1139146312597
 10
95.98311629544867
 20
-112.1202880579074
 10
95.99172903416179
 20
-112.1202880579074
 10
96.06131996296384
 20
-112.1202880579074
 10
96.06131996296384
 20
-112.1202880579074
 10
96.194645158243
 20
-112.1202880579074
 10
96.194645158243
 20
-112.1202880579074
 10
96.194645158243
 20
-112.0505248743311
 10
96.194645158243
 20
-111.9680148374594
 10
96.19257810095186
 20
-111.9637084681028
 10
96.18430987178726
 20
-111.7838744837728
 10
96.18430987178726
 20
-111.7649264586039
 10
96.18189830494758
 20
-111.718417669553
 10
96.18189830494758
 20
-111.718417669553
 10
96.39790579187274
 20
-111.7268581534919
 10
96.39790579187274
 20
-111.7268581534919
 10
96.40858558787703
 20
-111.7268581534919
 10
96.42960067033705
 20
-111.728925210783
 10
96.42960067033705
 20
-111.7458061786608
 10
96.42960067033705
 20
-111.7649264586039
 10
96.41478675975047
 20
-111.7754339998339
 10
96.38929305315962
 20
-111.7945542797771
 10
96.38929305315962
 20
-111.8451971834102
 10
96.38309188128618
 20
-112.0737792688566
 10
96.38515893857732
 20
-112.1202880579074
 10
96.51435001927419
 20
-112.1202880579074
 10
96.52675236302109
 20
-112.1202880579074
 10
96.62424856525367
 20
-112.1118475739686
 10
96.62424856525367
 20
-112.1118475739686
 10
96.62424856525367
 20
-112.3064954688852
 10
96.62424856525367
 20
-112.3064954688852
 10
96.58600800536739
 20
-112.3042561568198
 10
96.51848413385649
 20
-112.3001220422375
 10
96.38309188128618
 20
-112.3021890995286
 10
96.38309188128618
 20
-112.3021890995286
 10
96.38309188128618
 20
-112.6406697309544
 10
96.38309188128618
 20
-112.6406697309544
 10
96.43821340905018
 20
-112.617415336429
 10
96.50367022326992
 20
-112.589854572547
 10
96.55224606961194
 20
-112.5666001780215
 10
96.55224606961194
 20
-112.5666001780215
 10
96.55224606961194
 20
-112.3890055057569
 10
96.55224606961194
 20
-112.3890055057569
 10
96.66662323972224
 20
-112.4015801042781
 10
96.78513452441483
 20
-112.4015801042781
 10
96.90123424226775
 20
-112.4015801042781
 10
96.87815210251658
 20
-112.3064954688852
 10
96.85059133863457
 20
-112.2239854320134
 10
96.78720158170599
 20
-112.0906602367343
 10
96.74275984994625
 20
-112.0927272940254
 10
96.66007755830026
 20
-112.097033663382
 10
96.62218150796251
 20
-112.0991007206731
 10
96.62218150796251
 20
-112.0991007206731
 10
96.62218150796251
 20
-111.9192667363431
 10
96.62218150796251
 20
-111.9192667363431
 10
96.74689396452855
 20
-111.927707220282
 10
96.92052677698516
 20
-111.9320135896385
 10
97.00286455908262
 20
-111.9320135896385
 10
97.00286455908262
 20
-111.9320135896385
 10
97.08554685072862
 20
-111.9320135896385
 10
97.08554685072862
 20
-111.9320135896385
 10
97.08554685072862
 20
-111.7690605731862
 10
97.08554685072862
 20
-111.7585530319562
 10
97.08313528388894
 20
-111.7036037589665
 10
97.08313528388894
 20
-111.7036037589665
 10
97.30741099997871
 20
-111.728925210783
 10
97.30741099997871
 20
-111.728925210783
 10
97.31188962410953
 20
-111.728925210783
 10
97.33290470656955
 20
-111.7309922680742
 10
97.33290470656955
 20
-111.7478732359519
 10
97.33290470656955
 20
-111.7626871465385
 10
97.32222491056528
 20
-111.7712998852516
 10
97.29466414668329
 20
-111.7861137958382
 10
97.28846297480983
 20
-111.8515706100579
 10
97.28639591751869
 20
-111.8727579472922
 10
97.28639591751869
 20
-111.9320135896385
 10
97.28639591751869
 20
-111.9320135896385
 10
97.38148055291158
 20
-111.9320135896385
 10
97.38148055291158
 20
-111.9320135896385
 10
97.46416284455758
 20
-111.9320135896385
 10
97.63745114746564
 20
-111.927707220282
 10
97.76250811358021
 20
-111.9192667363431
 10
97.76250811358021
 20
-111.9192667363431
 10
97.76250811358021
 20
-112.0991007206731
 10
97.76250811358021
 20
-112.0991007206731
 10
97.73288029240706
 20
-112.097033663382
 10
97.61436900771447
 20
-112.0927272940254
 10
97.57406139053704
 20
-112.0906602367343
 10
97.55924747995047
 20
-112.1414753951417
 10
97.52548554419502
 20
-112.2536132531866
 10
97.45968422042675
 20
-112.3931396203392
 10
97.50205889489533
 20
-112.3931396203392
 10
97.77938908145794
 20
-112.3741915951703
 10
97.84071178109538
 20
-112.3719522831049
 10
97.84071178109538
 20
-112.3719522831049
 10
97.84071178109538
 20
-112.5560926367915
 10
97.84071178109538
 20
-112.5560926367915
 10
97.81108395992223
 20
-112.5560926367915
 10
97.7942029920445
 20
-112.551786267435
 10
97.6312499755922
 20
-112.551786267435
 97
        0
 97
        0
 92
        1
 93
        1
 72
     4
 94
        3
 73
     0
 74
     1
 95
       20
 96
       16
 40
0.0
 40
0.0
 40
0.0
 40
0.0
 40
1.0
 40
1.0
 40
1.0
 40
2.0
 40
2.0
 40
2.0
 40
3.0
 40
3.0
 40
3.0
 40
4.0
 40
4.0
 40
4.0
 40
5.0
 40
5.0
 40
5.0
 40
5.0
 10
97.00286455908262
 20
-112.086526122152
 10
97.00286455908262
 20
-112.086526122152
 10
96.97116968061832
 20
-112.086526122152
 10
96.97116968061832
 20
-112.086526122152
 10
97.01767846966919
 20
-112.1859171269014
 10
97.0493733481335
 20
-112.2661878517078
 10
97.08313528388894
 20
-112.3931396203392
 10
97.08313528388894
 20
-112.3931396203392
 10
97.29053003210099
 20
-112.3931396203392
 10
97.29053003210099
 20
-112.3931396203392
 10
97.32222491056528
 20
-112.3001220422375
 10
97.34565155986498
 20
-112.2155449480746
 10
97.36873369961616
 20
-112.086526122152
 10
97.36873369961616
 20
-112.086526122152
 10
97.00286455908262
 20
-112.086526122152
 10
97.00286455908262
 20
-112.086526122152
 97
        0
 97
        0
 92
        1
 93
        1
 72
     4
 94
        3
 73
     0
 74
     1
 95
       17
 96
       13
 40
0.0
 40
0.0
 40
0.0
 40
0.0
 40
1.0
 40
1.0
 40
1.0
 40
2.0
 40
2.0
 40
2.0
 40
3.0
 40
3.0
 40
3.0
 40
4.0
 40
4.0
 40
4.0
 40
4.0
 10
97.06625431601123
 20
-112.9369479426859
 10
97.0493733481335
 20
-112.9664035090848
 10
96.99873044450032
 20
-113.0595933419608
 10
96.98805064849604
 20
-113.0785413671297
 10
97.17856442883037
 20
-113.137797009476
 10
97.19957951129038
 20
-113.1441704361237
 10
97.2715820069321
 20
-113.1717312000057
 10
97.32670353469611
 20
-113.0849147937774
 10
97.34978567444728
 20
-113.0108452408445
 10
97.36459958503386
 20
-112.9369479426859
 10
97.36459958503386
 20
-112.9369479426859
 10
97.06625431601123
 20
-112.9369479426859
 10
97.06625431601123
 20
-112.9369479426859
 97
        0
 97
        0
 75
     2
 76
     1
 98
        0
  0
SPLINE
  5
6B
330
63
100
AcDbEntity
  8
_U+30EC_U+30A4_U+30E4_U+30FC 1
370
     0
100
AcDbSpline
210
0.0
220
0.0
230
1.0
 70
    11
 71
     3
 72
   203
 73
   199
 74
     0
 42
0.0000000001
 43
0.0000000001
 12
1.0
 22
0.0
 32
0.0
 13
1.0
 23
0.0
 33
0.0
 40
0.0
 40
0.0
 40
0.0
 40
0.0
 40
1.0
 40
1.0
 40
1.0
 40
2.0
 40
2.0
 40
2.0
 40
3.0
 40
3.0
 40
3.0
 40
4.0
 40
4.0
 40
4.0
 40
5.0
 40
5.0
 40
5.0
 40
6.0
 40
6.0
 40
6.0
 40
7.0
 40
7.0
 40
7.0
 40
8.0
 40
8.0
 40
8.0
 40
9.0
 40
9.0
 40
9.0
 40
10.0
 40
10.0
 40
10.0
 40
11.0
 40
11.0
 40
11.0
 40
12.0
 40
12.0
 40
12.0
 40
13.0
 40
13.0
 40
13.0
 40
14.0
 40
14.0
 40
14.0
 40
15.0
 40
15.0
 40
15.0
 40
16.0
 40
16.0
 40
16.0
 40
17.0
 40
17.0
 40
17.0
 40
18.0
 40
18.0
 40
18.0
 40
19.0
 40
19.0
 40
19.0
 40
20.0
 40
20.0
 40
20.0
 40
21.0
 40
21.0
 40
21.0
 40
22.0
 40
22.0
 40
22.0
 40
23.0
 40
23.0
 40
23.0
 40
24.0
 40
24.0
 40
24.0
 40
25.0
 40
25.0
 40
25.0
 40
26.0
 40
26.0
 40
26.0
 40
27.0
 40
27.0
 40
27.0
 40
28.0
 40
28.0
 40
28.0
 40
29.0
 40
29.0
 40
29.0
 40
30.0
 40
30.0
 40
30.0
 40
31.0
 40
31.0
 40
31.0
 40
32.0
 40
32.0
 40
32.0
 40
33.0
 40
33.0
 40
33.0
 40
34.0
 40
34.0
 40
34.0
 40
35.0
 40
35.0
 40
35.0
 40
36.0
 40
36.0
 40
36.0
 40
37.0
 40
37.0
 40
37.0
 40
38.0
 40
38.0
 40
38.0
 40
39.0
 40
39.0
 40
39.0
 40
40.0
 40
40.0
 40
40.0
 40
41.0
 40
41.0
 40
41.0
 40
42.0
 40
42.0
 40
42.0
 40
43.0
 40
43.0
 40
43.0
 40
44.0
 40
44.0
 40
44.0
 40
45.0
 40
45.0
 40
45.0
 40
46.0
 40
46.0
 40
46.0
 40
47.0
 40
47.0
 40
47.0
 40
48.0
 40
48.0
 40
48.0
 40
49.0
 40
49.0
 40
49.0
 40
50.0
 40
50.0
 40
50.0
 40
51.0
 40
51.0
 40
51.0
 40
52.0
 40
52.0
 40
52.0
 40
53.0
 40
53.0
 40
53.0
 40
54.0
 40
54.0
 40
54.0
 40
55.0
 40
55.0
 40
55.0
 40
56.0
 40
56.0
 40
56.0
 40
57.0
 40
57.0
 40
57.0
 40
58.0
 40
58.0
 40
58.0
 40
59.0
 40
59.0
 40
59.0
 40
60.0
 40
60.0
 40
60.0
 40
61.0
 40
61.0
 40
61.0
 40
62.0
 40
62.0
 40
62.0
 40
63.0
 40
63.0
 40
63.0
 40
64.0
 40
64.0
 40
64.0
 40
65.0
 40
65.0
 40
65.0
 40
66.0
 40
66.0
 40
66.0
 40
66.0
 10
99.32279185884987
 20
-112.6194823937201
 30
0.0
 10
99.32279185884987
 20
-112.6194823937201
 30
0.0
 10
98.76399737114234
 20
-112.6194823937201
 30
0.0
 10
98.76399737114234
 20
-112.6194823937201
 30
0.0
 10
98.7536620846866
 20
-112.6639241254799
 30
0.0
 10
98.74504934597347
 20
-112.6956190039442
 30
0.0
 10
98.73230249267804
 20
-112.7338595638304
 30
0.0
 10
98.7577961992689
 20
-112.7338595638304
 30
0.0
 10
98.77261010985546
 20
-112.7359266211216
 30
0.0
 10
98.7788112817289
 20
-112.7359266211216
 30
0.0
 10
98.7788112817289
 20
-112.7359266211216
 30
0.0
 10
98.96725800477208
 20
-112.7359266211216
 30
0.0
 10
98.96725800477208
 20
-112.7359266211216
 30
0.0
 10
98.96725800477208
 20
-112.7359266211216
 30
0.0
 10
99.34173988401874
 20
-112.7359266211216
 30
0.0
 10
99.34173988401874
 20
-112.7359266211216
 30
0.0
 10
99.39238278765191
 20
-112.7359266211216
 30
0.0
 10
99.67591414608798
 20
-112.7231797678262
 30
0.0
 10
99.70760902455227
 20
-112.7231797678262
 30
0.0
 10
99.70554196726111
 20
-112.7507405317081
 30
0.0
 10
99.70347490996997
 20
-112.769688556877
 30
0.0
 10
99.70347490996997
 20
-112.7993163780502
 30
0.0
 10
99.70140785267881
 20
-112.8310112565145
 30
0.0
 10
99.70140785267881
 20
-112.9664035090848
 30
0.0
 10
99.70140785267881
 20
-112.9939642729668
 30
0.0
 10
99.70140785267881
 20
-112.9939642729668
 30
0.0
 10
99.70140785267881
 20
-113.2394273262908
 30
0.0
 10
99.70140785267881
 20
-113.2394273262908
 30
0.0
 10
99.70140785267881
 20
-113.2838690580506
 30
0.0
 10
99.70554196726111
 20
-113.4805840102583
 30
0.0
 10
99.70967608184341
 20
-113.6328572307064
 30
0.0
 10
99.70967608184341
 20
-113.6328572307064
 30
0.0
 10
99.4833333084625
 20
-113.6328572307064
 30
0.0
 10
99.4833333084625
 20
-113.6328572307064
 30
0.0
 10
99.4833333084625
 20
-113.6328572307064
 30
0.0
 10
99.48540036575365
 20
-113.5990952949509
 30
0.0
 10
99.48540036575365
 20
-113.5990952949509
 30
0.0
 10
99.48540036575365
 20
-113.5990952949509
 30
0.0
 10
98.78328990585973
 20
-113.5990952949509
 30
0.0
 10
98.78328990585973
 20
-113.5990952949509
 30
0.0
 10
98.78328990585973
 20
-113.5990952949509
 30
0.0
 10
98.78535696315089
 20
-113.6328572307064
 30
0.0
 10
98.78535696315089
 20
-113.6328572307064
 30
0.0
 10
98.78535696315089
 20
-113.6328572307064
 30
0.0
 10
98.56728241893457
 20
-113.6328572307064
 30
0.0
 10
98.56728241893457
 20
-113.6328572307064
 30
0.0
 10
98.5717610430654
 20
-113.5779079577166
 30
0.0
 10
98.5717610430654
 20
-113.5651611044212
 30
0.0
 10
98.57796221493885
 20
-113.4509561890852
 30
0.0
 10
98.58002927223
 20
-113.4233954252032
 30
0.0
 10
98.58209632952115
 20
-113.2902424846983
 30
0.0
 10
98.58209632952115
 20
-113.2711222047551
 30
0.0
 10
98.58209632952115
 20
-113.2711222047551
 30
0.0
 10
98.58209632952115
 20
-113.0680338258997
 30
0.0
 10
98.58209632952115
 20
-113.0680338258997
 30
0.0
 10
98.44256996236852
 20
-113.317630993806
 30
0.0
 10
98.27341577404276
 20
-113.448889131794
 30
0.0
 10
98.1676513426456
 20
-113.5143459460138
 30
0.0
 10
98.1676513426456
 20
-113.5143459460138
 30
0.0
 10
97.994018530189
 20
-113.3748195788612
 30
0.0
 10
97.994018530189
 20
-113.3748195788612
 30
0.0
 10
98.08290199370845
 20
-113.3240044204537
 30
0.0
 10
98.22690698499188
 20
-113.2371880142254
 30
0.0
 10
98.36436629485335
 20
-113.0427123740831
 30
0.0
 10
98.45531681566395
 20
-112.9157606054516
 30
0.0
 10
98.5207736298837
 20
-112.7719278689424
 30
0.0
 10
98.55488007518767
 20
-112.6194823937201
 30
0.0
 10
98.32612573496708
 20
-112.6217217057855
 30
0.0
 10
98.14629175063705
 20
-112.6280951324333
 30
0.0
 10
98.05120711524415
 20
-112.6301621897244
 30
0.0
 10
98.05120711524415
 20
-112.6301621897244
 30
0.0
 10
98.05120711524415
 20
-112.4523952626855
 30
0.0
 10
98.05120711524415
 20
-112.4523952626855
 30
0.0
 10
98.24792206745191
 20
-112.4587686893332
 30
0.0
 10
98.53145342588797
 20
-112.4630750586898
 30
0.0
 10
98.68165958904487
 20
-112.4630750586898
 30
0.0
 10
98.68165958904487
 20
-112.4630750586898
 30
0.0
 10
98.89525550913035
 20
-112.4630750586898
 30
0.0
 10
98.89525550913035
 20
-112.4630750586898
 30
0.0
 10
98.89525550913035
 20
-112.4630750586898
 30
0.0
 10
98.89525550913035
 20
-112.3550713152272
 30
0.0
 10
98.89525550913035
 20
-112.3550713152272
 30
0.0
 10
98.89525550913035
 20
-112.3550713152272
 30
0.0
 10
98.74918346055577
 20
-112.3550713152272
 30
0.0
 10
98.74918346055577
 20
-112.3550713152272
 30
0.0
 10
98.58002927223
 20
-112.3550713152272
 30
0.0
 10
98.41087508390423
 20
-112.3593776845838
 30
0.0
 10
98.24378795286961
 20
-112.3657511112315
 30
0.0
 10
98.24378795286961
 20
-112.3657511112315
 30
0.0
 10
98.24378795286961
 20
-112.1943576108403
 30
0.0
 10
98.24378795286961
 20
-112.1943576108403
 30
0.0
 10
98.3981282306088
 20
-112.2048651520703
 30
0.0
 10
98.58416338681229
 20
-112.2048651520703
 30
0.0
 10
98.74918346055577
 20
-112.2048651520703
 30
0.0
 10
98.74918346055577
 20
-112.2048651520703
 30
0.0
 10
98.89525550913035
 20
-112.2048651520703
 30
0.0
 10
98.89525550913035
 20
-112.2048651520703
 30
0.0
 10
98.89525550913035
 20
-112.2048651520703
 30
0.0
 10
98.89525550913035
 20
-112.086526122152
 30
0.0
 10
98.89525550913035
 20
-112.086526122152
 30
0.0
 10
98.89525550913035
 20
-112.086526122152
 30
0.0
 10
98.76399737114234
 20
-112.086526122152
 30
0.0
 10
98.76399737114234
 20
-112.086526122152
 30
0.0
 10
98.71748858209146
 20
-112.086526122152
 30
0.0
 10
98.51457245801025
 20
-112.0949666060908
 30
0.0
 10
98.47219778354167
 20
-112.0949666060908
 30
0.0
 10
98.26928165946046
 20
-112.0991007206731
 30
0.0
 10
98.19280053968791
 20
-112.1011677779643
 30
0.0
 10
98.11459687217274
 20
-112.1034070900297
 30
0.0
 10
98.11459687217274
 20
-112.1034070900297
 30
0.0
 10
98.11459687217274
 20
-111.9192667363431
 30
0.0
 10
98.11459687217274
 20
-111.9192667363431
 30
0.0
 10
98.22897404228304
 20
-111.927707220282
 30
0.0
 10
98.27341577404276
 20
-111.927707220282
 30
0.0
 10
98.65616588245402
 20
-111.9363199589951
 30
0.0
 10
98.59277612552542
 20
-111.8410630688279
 30
0.0
 10
98.56521536164342
 20
-111.8135023049459
 30
0.0
 10
98.52938636859682
 20
-111.7775010571251
 30
0.0
 10
98.52938636859682
 20
-111.7775010571251
 30
0.0
 10
98.70474172879604
 20
-111.6949910202533
 30
0.0
 10
98.70474172879604
 20
-111.6949910202533
 30
0.0
 10
98.74504934597347
 20
-111.7309922680742
 30
0.0
 10
98.78949107773319
 20
-111.7733669425428
 30
0.0
 10
98.86356063066606
 20
-111.8832654885222
 30
0.0
 10
98.86356063066606
 20
-111.8832654885222
 30
0.0
 10
98.74918346055577
 20
-111.9383870162862
 30
0.0
 10
98.74918346055577
 20
-111.9383870162862
 30
0.0
 10
98.74918346055577
 20
-111.9383870162862
 30
0.0
 10
98.75986325656004
 20
-111.9383870162862
 30
0.0
 10
98.75986325656004
 20
-111.9383870162862
 30
0.0
 10
98.75986325656004
 20
-111.9383870162862
 30
0.0
 10
99.28248424167244
 20
-111.9383870162862
 30
0.0
 10
99.28248424167244
 20
-111.9383870162862
 30
0.0
 10
99.28248424167244
 20
-111.9383870162862
 30
0.0
 10
99.18739960627954
 20
-111.8939452845265
 30
0.0
 10
99.18739960627954
 20
-111.8939452845265
 30
0.0
 10
99.21461586061302
 20
-111.8558769794145
 30
0.0
 10
99.27180444566817
 20
-111.7754339998339
 30
0.0
 10
99.28661835625473
 20
-111.7013644469011
 30
0.0
 10
99.28661835625473
 20
-111.7013644469011
 30
0.0
 10
99.50021427634023
 20
-111.7649264586039
 30
0.0
 10
99.50021427634023
 20
-111.7649264586039
 30
0.0
 10
99.50882701505336
 20
-111.7669935158951
 30
0.0
 10
99.52984209751338
 20
-111.7775010571251
 30
0.0
 10
99.52984209751338
 20
-111.7986883943594
 30
0.0
 10
99.52984209751338
 20
-111.8367566994714
 30
0.0
 10
99.46438528329364
 20
-111.8367566994714
 30
0.0
 10
99.44543725812476
 20
-111.8367566994714
 30
0.0
 10
99.43475746212049
 20
-111.8558769794145
 30
0.0
 10
99.41133081282078
 20
-111.8960123418177
 30
0.0
 10
99.38170299164763
 20
-111.9363199589951
 30
0.0
 10
99.78167857748514
 20
-111.9299465323474
 30
0.0
 10
99.81130639865829
 20
-111.927707220282
 30
0.0
 10
99.88744300888231
 20
-111.9215060484085
 30
0.0
 10
99.88744300888231
 20
-111.9215060484085
 30
0.0
 10
99.88744300888231
 20
-112.1034070900297
 30
0.0
 10
99.88744300888231
 20
-112.1034070900297
 30
0.0
 10
99.86849498371343
 20
-112.1034070900297
 30
0.0
 10
99.84300127712258
 20
-112.1011677779643
 30
0.0
 10
99.62320418516364
 20
-112.0927272940254
 30
0.0
 10
99.57221677198196
 20
-112.0906602367343
 30
0.0
 10
99.352419680023
 20
-112.086526122152
 30
0.0
 10
99.30797794826329
 20
-112.086526122152
 30
0.0
 10
99.30797794826329
 20
-112.086526122152
 30
0.0
 10
99.09197046133812
 20
-112.086526122152
 30
0.0
 10
99.09197046133812
 20
-112.086526122152
 30
0.0
 10
99.09197046133812
 20
-112.086526122152
 30
0.0
 10
99.09197046133812
 20
-112.2048651520703
 30
0.0
 10
99.09197046133812
 20
-112.2048651520703
 30
0.0
 10
99.09197046133812
 20
-112.2048651520703
 30
0.0
 10
99.26560327379471
 20
-112.2048651520703
 30
0.0
 10
99.26560327379471
 20
-112.2048651520703
 30
0.0
 10
99.42855629024703
 20
-112.2048651520703
 30
0.0
 10
99.61872556103282
 20
-112.2048651520703
 30
0.0
 10
99.7754774056117
 20
-112.1943576108403
 30
0.0
 10
99.7754774056117
 20
-112.1943576108403
 30
0.0
 10
99.7754774056117
 20
-112.3657511112315
 30
0.0
 10
99.7754774056117
 20
-112.3657511112315
 30
0.0
 10
99.5660156001085
 20
-112.3573106272926
 30
0.0
 10
99.36930064790073
 20
-112.3550713152272
 30
0.0
 10
99.26560327379471
 20
-112.3550713152272
 30
0.0
 10
99.26560327379471
 20
-112.3550713152272
 30
0.0
 10
99.09197046133812
 20
-112.3550713152272
 30
0.0
 10
99.09197046133812
 20
-112.3550713152272
 30
0.0
 10
99.09197046133812
 20
-112.3550713152272
 30
0.0
 10
99.09197046133812
 20
-112.4630750586898
 30
0.0
 10
99.09197046133812
 20
-112.4630750586898
 30
0.0
 10
99.09197046133812
 20
-112.4630750586898
 30
0.0
 10
99.32279185884987
 20
-112.4630750586898
 30
0.0
 10
99.32279185884987
 20
-112.4630750586898
 30
0.0
 10
99.45577254458051
 20
-112.4630750586898
 30
0.0
 10
99.74378252714739
 20
-112.4587686893332
 30
0.0
 10
99.95289982310206
 20
-112.4523952626855
 30
0.0
 10
99.95289982310206
 20
-112.4523952626855
 30
0.0
 10
99.95289982310206
 20
-112.6301621897244
 30
0.0
 10
99.95289982310206
 20
-112.6301621897244
 30
0.0
 10
99.76066349502511
 20
-112.6237887630767
 30
0.0
 10
99.44750431541591
 20
-112.6194823937201
 30
0.0
 10
99.32279185884987
 20
-112.6194823937201
 30
0.0
  0
POLYLINE
  5
6C
330
63
100
AcDbEntity
  8
_U+30EC_U+30A4_U+30E4_U+30FC 1
370
     0
100
AcDb2dPolyline
 66
     1
 10
0.0
 20
0.0
 30
0.0
  0
VERTEX
  5
6D
330
6C
100
AcDbEntity
  8
_U+30EC_U+30A4_U+30E4_U+30FC 1
370
     0
100
AcDbVertex
100
AcDb2dVertex
 10
99.48781193259333
 20
-112.8754529882742
 30
0.0
  0
VERTEX
  5
6E
330
6C
100
AcDbEntity
  8
_U+30EC_U+30A4_U+30E4_U+30FC 1
370
     0
100
AcDbVertex
100
AcDb2dVertex
 10
98.78122284856859
 20
-112.8754529882742
 30
0.0
  0
VERTEX
  5
6F
330
6C
100
AcDbEntity
  8
_U+30EC_U+30A4_U+30E4_U+30FC 1
370
     0
100
AcDbVertex
100
AcDb2dVertex
 10
98.78122284856859
 20
-112.9834567317368
 30
0.0
  0
VERTEX
  5
70
330
6C
100
AcDbEntity
  8
_U+30EC_U+30A4_U+30E4_U+30FC 1
370
     0
100
AcDbVertex
100
AcDb2dVertex
 10
99.48781193259333
 20
-112.9834567317368
 30
0.0
  0
VERTEX
  5
71
330
6C
100
AcDbEntity
  8
_U+30EC_U+30A4_U+30E4_U+30FC 1
370
     0
100
AcDbVertex
100
AcDb2dVertex
 10
99.48781193259333
 20
-112.8754529882742
 30
0.0
  0
SEQEND
  5
72
330
6C
100
AcDbEntity
  8
_U+30EC_U+30A4_U+30E4_U+30FC 1
370
     0
  0
POLYLINE
  5
73
330
63
100
AcDbEntity
  8
_U+30EC_U+30A4_U+30E4_U+30FC 1
370
     0
100
AcDb2dPolyline
 66
     1
 10
0.0
 20
0.0
 30
0.0
  0
VERTEX
  5
74
330
73
100
AcDbEntity
  8
_U+30EC_U+30A4_U+30E4_U+30FC 1
370
     0
100
AcDbVertex
100
AcDb2dVertex
 10
99.48781193259333
 20
-113.1081691883028
 30
0.0
  0
VERTEX
  5
75
330
73
100
AcDbEntity
  8
_U+30EC_U+30A4_U+30E4_U+30FC 1
370
     0
100
AcDbVertex
100
AcDb2dVertex
 10
98.78122284856859
 20
-113.1081691883028
 30
0.0
  0
VERTEX
  5
76
330
73
100
AcDbEntity
  8
_U+30EC_U+30A4_U+30E4_U+30FC 1
370
     0
100
AcDbVertex
100
AcDb2dVertex
 10
98.78122284856859
 20
-113.2225463584131
 30
0.0
  0
VERTEX
  5
77
330
73
100
AcDbEntity
  8
_U+30EC_U+30A4_U+30E4_U+30FC 1
370
     0
100
AcDbVertex
100
AcDb2dVertex
 10
99.48781193259333
 20
-113.2225463584131
 30
0.0
  0
VERTEX
  5
78
330
73
100
AcDbEntity
  8
_U+30EC_U+30A4_U+30E4_U+30FC 1
370
     0
100
AcDbVertex
100
AcDb2dVertex
 10
99.48781193259333
 20
-113.1081691883028
 30
0.0
  0
SEQEND
  5
79
330
73
100
AcDbEntity
  8
_U+30EC_U+30A4_U+30E4_U+30FC 1
370
     0
  0
POLYLINE
  5
7A
330
63
100
AcDbEntity
  8
_U+30EC_U+30A4_U+30E4_U+30FC 1
370
     0
100
AcDb2dPolyline
 66
     1
 10
0.0
 20
0.0
 30
0.0
  0
VERTEX
  5
7B
330
7A
100
AcDbEntity
  8
_U+30EC_U+30A4_U+30E4_U+30FC 1
370
     0
100
AcDbVertex
100
AcDb2dVertex
 10
99.48781193259333
 20
-113.3515651843357
 30
0.0
  0
VERTEX
  5
7C
330
7A
100
AcDbEntity
  8
_U+30EC_U+30A4_U+30E4_U+30FC 1
370
     0
100
AcDbVertex
100
AcDb2dVertex
 10
98.78122284856859
 20
-113.3515651843357
 30
0.0
  0
VERTEX
  5
7D
330
7A
100
AcDbEntity
  8
_U+30EC_U+30A4_U+30E4_U+30FC 1
370
     0
100
AcDbVertex
100
AcDb2dVertex
 10
98.78122284856859
 20
-113.4657700996718
 30
0.0
  0
VERTEX
  5
7E
330
7A
100
AcDbEntity
  8
_U+30EC_U+30A4_U+30E4_U+30FC 1
370
     0
100
AcDbVertex
100
AcDb2dVertex
 10
99.48781193259333
 20
-113.4657700996718
 30
0.0
  0
VERTEX
  5
7F
330
7A
100
AcDbEntity
  8
_U+30EC_U+30A4_U+30E4_U+30FC 1
370
     0
100
AcDbVertex
100
AcDb2dVertex
 10
99.48781193259333
 20
-113.3515651843357
 30
0.0
  0
SEQEND
  5
80
330
7A
100
AcDbEntity
  8
_U+30EC_U+30A4_U+30E4_U+30FC 1
370
     0
  0
HATCH
  5
81
330
63
100
AcDbEntity
  8
_U+30EC_U+30A4_U+30E4_U+30FC 1
 62
     7
420
 16777215
100
AcDbHatch
 10
0.0
 20
0.0
 30
0.0
210
0.0
220
0.0
230
1.0
  2
SOLID
 70
     1
 71
     0
 91
        4
 92
        1
 93
        1
 72
     4
 94
        3
 73
     0
 74
     1
 95
      203
 96
      199
 40
0.0
 40
0.0
 40
0.0
 40
0.0
 40
1.0
 40
1.0
 40
1.0
 40
2.0
 40
2.0
 40
2.0
 40
3.0
 40
3.0
 40
3.0
 40
4.0
 40
4.0
 40
4.0
 40
5.0
 40
5.0
 40
5.0
 40
6.0
 40
6.0
 40
6.0
 40
7.0
 40
7.0
 40
7.0
 40
8.0
 40
8.0
 40
8.0
 40
9.0
 40
9.0
 40
9.0
 40
10.0
 40
10.0
 40
10.0
 40
11.0
 40
11.0
 40
11.0
 40
12.0
 40
12.0
 40
12.0
 40
13.0
 40
13.0
 40
13.0
 40
14.0
 40
14.0
 40
14.0
 40
15.0
 40
15.0
 40
15.0
 40
16.0
 40
16.0
 40
16.0
 40
17.0
 40
17.0
 40
17.0
 40
18.0
 40
18.0
 40
18.0
 40
19.0
 40
19.0
 40
19.0
 40
20.0
 40
20.0
 40
20.0
 40
21.0
 40
21.0
 40
21.0
 40
22.0
 40
22.0
 40
22.0
 40
23.0
 40
23.0
 40
23.0
 40
24.0
 40
24.0
 40
24.0
 40
25.0
 40
25.0
 40
25.0
 40
26.0
 40
26.0
 40
26.0
 40
27.0
 40
27.0
 40
27.0
 40
28.0
 40
28.0
 40
28.0
 40
29.0
 40
29.0
 40
29.0
 40
30.0
 40
30.0
 40
30.0
 40
31.0
 40
31.0
 40
31.0
 40
32.0
 40
32.0
 40
32.0
 40
33.0
 40
33.0
 40
33.0
 40
34.0
 40
34.0
 40
34.0
 40
35.0
 40
35.0
 40
35.0
 40
36.0
 40
36.0
 40
36.0
 40
37.0
 40
37.0
 40
37.0
 40
38.0
 40
38.0
 40
38.0
 40
39.0
 40
39.0
 40
39.0
 40
40.0
 40
40.0
 40
40.0
 40
41.0
 40
41.0
 40
41.0
 40
42.0
 40
42.0
 40
42.0
 40
43.0
 40
43.0
 40
43.0
 40
44.0
 40
44.0
 40
44.0
 40
45.0
 40
45.0
 40
45.0
 40
46.0
 40
46.0
 40
46.0
 40
47.0
 40
47.0
 40
47.0
 40
48.0
 40
48.0
 40
48.0
 40
49.0
 40
49.0
 40
49.0
 40
50.0
 40
50.0
 40
50.0
 40
51.0
 40
51.0
 40
51.0
 40
52.0
 40
52.0
 40
52.0
 40
53.0
 40
53.0
 40
53.0
 40
54.0
 40
54.0
 40
54.0
 40
55.0
 40
55.0
 40
55.0
 40
56.0
 40
56.0
 40
56.0
 40
57.0
 40
57.0
 40
57.0
 40
58.0
 40
58.0
 40
58.0
 40
59.0
 40
59.0
 40
59.0
 40
60.0
 40
60.0
 40
60.0
 40
61.0
 40
61.0
 40
61.0
 40
62.0
 40
62.0
 40
62.0
 40
63.0
 40
63.0
 40
63.0
 40
64.0
 40
64.0
 40
64.0
 40
65.0
 40
65.0
 40
65.0
 40
66.0
 40
66.0
 40
66.0
 40
66.0
 10
99.32279185884987
 20
-112.6194823937201
 10
99.32279185884987
 20
-112.6194823937201
 10
98.76399737114234
 20
-112.6194823937201
 10
98.76399737114234
 20
-112.6194823937201
 10
98.7536620846866
 20
-112.6639241254799
 10
98.74504934597347
 20
-112.6956190039442
 10
98.73230249267804
 20
-112.7338595638304
 10
98.7577961992689
 20
-112.7338595638304
 10
98.77261010985546
 20
-112.7359266211216
 10
98.7788112817289
 20
-112.7359266211216
 10
98.7788112817289
 20
-112.7359266211216
 10
98.96725800477208
 20
-112.7359266211216
 10
98.96725800477208
 20
-112.7359266211216
 10
98.96725800477208
 20
-112.7359266211216
 10
99.34173988401874
 20
-112.7359266211216
 10
99.34173988401874
 20
-112.7359266211216
 10
99.39238278765191
 20
-112.7359266211216
 10
99.67591414608798
 20
-112.7231797678262
 10
99.70760902455227
 20
-112.7231797678262
 10
99.70554196726111
 20
-112.7507405317081
 10
99.70347490996997
 20
-112.769688556877
 10
99.70347490996997
 20
-112.7993163780502
 10
99.70140785267881
 20
-112.8310112565145
 10
99.70140785267881
 20
-112.9664035090848
 10
99.70140785267881
 20
-112.9939642729668
 10
99.70140785267881
 20
-112.9939642729668
 10
99.70140785267881
 20
-113.2394273262908
 10
99.70140785267881
 20
-113.2394273262908
 10
99.70140785267881
 20
-113.2838690580506
 10
99.70554196726111
 20
-113.4805840102583
 10
99.70967608184341
 20
-113.6328572307064
 10
99.70967608184341
 20
-113.6328572307064
 10
99.4833333084625
 20
-113.6328572307064
 10
99.4833333084625
 20
-113.6328572307064
 10
99.4833333084625
 20
-113.6328572307064
 10
99.48540036575365
 20
-113.5990952949509
 10
99.48540036575365
 20
-113.5990952949509
 10
99.48540036575365
 20
-113.5990952949509
 10
98.78328990585973
 20
-113.5990952949509
 10
98.78328990585973
 20
-113.5990952949509
 10
98.78328990585973
 20
-113.5990952949509
 10
98.78535696315089
 20
-113.6328572307064
 10
98.78535696315089
 20
-113.6328572307064
 10
98.78535696315089
 20
-113.6328572307064
 10
98.56728241893457
 20
-113.6328572307064
 10
98.56728241893457
 20
-113.6328572307064
 10
98.5717610430654
 20
-113.5779079577166
 10
98.5717610430654
 20
-113.5651611044212
 10
98.57796221493885
 20
-113.4509561890852
 10
98.58002927223
 20
-113.4233954252032
 10
98.58209632952115
 20
-113.2902424846983
 10
98.58209632952115
 20
-113.2711222047551
 10
98.58209632952115
 20
-113.2711222047551
 10
98.58209632952115
 20
-113.0680338258997
 10
98.58209632952115
 20
-113.0680338258997
 10
98.44256996236852
 20
-113.317630993806
 10
98.27341577404276
 20
-113.448889131794
 10
98.1676513426456
 20
-113.5143459460138
 10
98.1676513426456
 20
-113.5143459460138
 10
97.994018530189
 20
-113.3748195788612
 10
97.994018530189
 20
-113.3748195788612
 10
98.08290199370845
 20
-113.3240044204537
 10
98.22690698499188
 20
-113.2371880142254
 10
98.36436629485335
 20
-113.0427123740831
 10
98.45531681566395
 20
-112.9157606054516
 10
98.5207736298837
 20
-112.7719278689424
 10
98.55488007518767
 20
-112.6194823937201
 10
98.32612573496708
 20
-112.6217217057855
 10
98.14629175063705
 20
-112.6280951324333
 10
98.05120711524415
 20
-112.6301621897244
 10
98.05120711524415
 20
-112.6301621897244
 10
98.05120711524415
 20
-112.4523952626855
 10
98.05120711524415
 20
-112.4523952626855
 10
98.24792206745191
 20
-112.4587686893332
 10
98.53145342588797
 20
-112.4630750586898
 10
98.68165958904487
 20
-112.4630750586898
 10
98.68165958904487
 20
-112.4630750586898
 10
98.89525550913035
 20
-112.4630750586898
 10
98.89525550913035
 20
-112.4630750586898
 10
98.89525550913035
 20
-112.4630750586898
 10
98.89525550913035
 20
-112.3550713152272
 10
98.89525550913035
 20
-112.3550713152272
 10
98.89525550913035
 20
-112.3550713152272
 10
98.74918346055577
 20
-112.3550713152272
 10
98.74918346055577
 20
-112.3550713152272
 10
98.58002927223
 20
-112.3550713152272
 10
98.41087508390423
 20
-112.3593776845838
 10
98.24378795286961
 20
-112.3657511112315
 10
98.24378795286961
 20
-112.3657511112315
 10
98.24378795286961
 20
-112.1943576108403
 10
98.24378795286961
 20
-112.1943576108403
 10
98.3981282306088
 20
-112.2048651520703
 10
98.58416338681229
 20
-112.2048651520703
 10
98.74918346055577
 20
-112.2048651520703
 10
98.74918346055577
 20
-112.2048651520703
 10
98.89525550913035
 20
-112.2048651520703
 10
98.89525550913035
 20
-112.2048651520703
 10
98.89525550913035
 20
-112.2048651520703
 10
98.89525550913035
 20
-112.086526122152
 10
98.89525550913035
 20
-112.086526122152
 10
98.89525550913035
 20
-112.086526122152
 10
98.76399737114234
 20
-112.086526122152
 10
98.76399737114234
 20
-112.086526122152
 10
98.71748858209146
 20
-112.086526122152
 10
98.51457245801025
 20
-112.0949666060908
 10
98.47219778354167
 20
-112.0949666060908
 10
98.26928165946046
 20
-112.0991007206731
 10
98.19280053968791
 20
-112.1011677779643
 10
98.11459687217274
 20
-112.1034070900297
 10
98.11459687217274
 20
-112.1034070900297
 10
98.11459687217274
 20
-111.9192667363431
 10
98.11459687217274
 20
-111.9192667363431
 10
98.22897404228304
 20
-111.927707220282
 10
98.27341577404276
 20
-111.927707220282
 10
98.65616588245402
 20
-111.9363199589951
 10
98.59277612552542
 20
-111.8410630688279
 10
98.56521536164342
 20
-111.8135023049459
 10
98.52938636859682
 20
-111.7775010571251
 10
98.52938636859682
 20
-111.7775010571251
 10
98.70474172879604
 20
-111.6949910202533
 10
98.70474172879604
 20
-111.6949910202533
 10
98.74504934597347
 20
-111.7309922680742
 10
98.78949107773319
 20
-111.7733669425428
 10
98.86356063066606
 20
-111.8832654885222
 10
98.86356063066606
 20
-111.8832654885222
 10
98.74918346055577
 20
-111.9383870162862
 10
98.74918346055577
 20
-111.9383870162862
 10
98.74918346055577
 20
-111.9383870162862
 10
98.75986325656004
 20
-111.9383870162862
 10
98.75986325656004
 20
-111.9383870162862
 10
98.75986325656004
 20
-111.9383870162862
 10
99.28248424167244
 20
-111.9383870162862
 10
99.28248424167244
 20
-111.9383870162862
 10
99.28248424167244
 20
-111.9383870162862
 10
99.18739960627954
 20
-111.8939452845265
 10
99.18739960627954
 20
-111.8939452845265
 10
99.21461586061302
 20
-111.8558769794145
 10
99.27180444566817
 20
-111.7754339998339
 10
99.28661835625473
 20
-111.7013644469011
 10
99.28661835625473
 20
-111.7013644469011
 10
99.50021427634023
 20
-111.7649264586039
 10
99.50021427634023
 20
-111.7649264586039
 10
99.50882701505336
 20
-111.7669935158951
 10
99.52984209751338
 20
-111.7775010571251
 10
99.52984209751338
 20
-111.7986883943594
 10
99.52984209751338
 20
-111.8367566994714
 10
99.46438528329364
 20
-111.8367566994714
 10
99.44543725812476
 20
-111.8367566994714
 10
99.43475746212049
 20
-111.8558769794145
 10
99.41133081282078
 20
-111.8960123418177
 10
99.38170299164763
 20
-111.9363199589951
 10
99.78167857748514
 20
-111.9299465323474
 10
99.81130639865829
 20
-111.927707220282
 10
99.88744300888231
 20
-111.9215060484085
 10
99.88744300888231
 20
-111.9215060484085
 10
99.88744300888231
 20
-112.1034070900297
 10
99.88744300888231
 20
-112.1034070900297
 10
99.86849498371343
 20
-112.1034070900297
 10
99.84300127712258
 20
-112.1011677779643
 10
99.62320418516364
 20
-112.0927272940254
 10
99.57221677198196
 20
-112.0906602367343
 10
99.352419680023
 20
-112.086526122152
 10
99.30797794826329
 20
-112.086526122152
 10
99.30797794826329
 20
-112.086526122152
 10
99.09197046133812
 20
-112.086526122152
 10
99.09197046133812
 20
-112.086526122152
 10
99.09197046133812
 20
-112.086526122152
 10
99.09197046133812
 20
-112.2048651520703
 10
99.09197046133812
 20
-112.2048651520703
 10
99.09197046133812
 20
-112.2048651520703
 10
99.26560327379471
 20
-112.2048651520703
 10
99.26560327379471
 20
-112.2048651520703
 10
99.42855629024703
 20
-112.2048651520703
 10
99.61872556103282
 20
-112.2048651520703
 10
99.7754774056117
 20
-112.1943576108403
 10
99.7754774056117
 20
-112.1943576108403
 10
99.7754774056117
 20
-112.3657511112315
 10
99.7754774056117
 20
-112.3657511112315
 10
99.5660156001085
 20
-112.3573106272926
 10
99.36930064790073
 20
-112.3550713152272
 10
99.26560327379471
 20
-112.3550713152272
 10
99.26560327379471
 20
-112.3550713152272
 10
99.09197046133812
 20
-112.3550713152272
 10
99.09197046133812
 20
-112.3550713152272
 10
99.09197046133812
 20
-112.3550713152272
 10
99.09197046133812
 20
-112.4630750586898
 10
99.09197046133812
 20
-112.4630750586898
 10
99.09197046133812
 20
-112.4630750586898
 10
99.32279185884987
 20
-112.4630750586898
 10
99.32279185884987
 20
-112.4630750586898
 10
99.45577254458051
 20
-112.4630750586898
 10
99.74378252714739
 20
-112.4587686893332
 10
99.95289982310206
 20
-112.4523952626855
 10
99.95289982310206
 20
-112.4523952626855
 10
99.95289982310206
 20
-112.6301621897244
 10
99.95289982310206
 20
-112.6301621897244
 10
99.76066349502511
 20
-112.6237887630767
 10
99.44750431541591
 20
-112.6194823937201
 10
99.32279185884987
 20
-112.6194823937201
 97
        0
 97
        0
 92
        1
 93
        4
 72
     1
 10
99.48781193259333
 20
-112.8754529882742
 11
98.78122284856859
 21
-112.8754529882742
 72
     1
 10
98.78122284856859
 20
-112.8754529882742
 11
98.78122284856859
 21
-112.9834567317368
 72
     1
 10
98.78122284856859
 20
-112.9834567317368
 11
99.48781193259333
 21
-112.9834567317368
 72
     1
 10
99.48781193259333
 20
-112.9834567317368
 11
99.48781193259333
 21
-112.8754529882742
 97
        0
 92
        1
 93
        4
 72
     1
 10
99.48781193259333
 20
-113.1081691883028
 11
98.78122284856859
 21
-113.1081691883028
 72
     1
 10
98.78122284856859
 20
-113.1081691883028
 11
98.78122284856859
 21
-113.2225463584131
 72
     1
 10
98.78122284856859
 20
-113.2225463584131
 11
99.48781193259333
 21
-113.2225463584131
 72
     1
 10
99.48781193259333
 20
-113.2225463584131
 11
99.48781193259333
 21
-113.1081691883028
 97
        0
 92
        1
 93
        4
 72
     1
 10
99.48781193259333
 20
-113.3515651843357
 11
98.78122284856859
 21
-113.3515651843357
 72
     1
 10
98.78122284856859
 20
-113.3515651843357
 11
98.78122284856859
 21
-113.4657700996718
 72
     1
 10
98.78122284856859
 20
-113.4657700996718
 11
99.48781193259333
 21
-113.4657700996718
 72
     1
 10
99.48781193259333
 20
-113.4657700996718
 11
99.48781193259333
 21
-113.3515651843357
 97
        0
 75
     2
 76
     1
 98
        0
  0
SPLINE
  5
82
330
63
100
AcDbEntity
  8
_U+30EC_U+30A4_U+30E4_U+30FC 1
370
     0
100
AcDbSpline
210
0.0
220
0.0
230
1.0
 70
    11
 71
     3
 72
    47
 73
    43
 74
     0
 42
0.0000000001
 43
0.0000000001
 12
1.0
 22
0.0
 32
0.0
 13
1.0
 23
0.0
 33
0.0
 40
0.0
 40
0.0
 40
0.0
 40
0.0
 40
1.0
 40
1.0
 40
1.0
 40
2.0
 40
2.0
 40
2.0
 40
3.0
 40
3.0
 40
3.0
 40
4.0
 40
4.0
 40
4.0
 40
5.0
 40
5.0
 40
5.0
 40
6.0
 40
6.0
 40
6.0
 40
7.0
 40
7.0
 40
7.0
 40
8.0
 40
8.0
 40
8.0
 40
9.0
 40
9.0
 40
9.0
 40
10.0
 40
10.0
 40
10.0
 40
11.0
 40
11.0
 40
11.0
 40
12.0
 40
12.0
 40
12.0
 40
13.0
 40
13.0
 40
13.0
 40
14.0
 40
14.0
 40
14.0
 40
14.0
 10
101.2995876482862
 20
-112.5962279991947
 30
0.0
 10
101.2995876482862
 20
-112.5962279991947
 30
0.0
 10
101.1979573314713
 20
-112.5962279991947
 30
0.0
 10
101.1979573314713
 20
-112.5962279991947
 30
0.0
 10
101.1979573314713
 20
-112.683044405423
 30
0.0
 10
101.1769422490113
 20
-113.0723401952562
 30
0.0
 10
100.9802272968036
 20
-113.2923095419894
 30
0.0
 10
100.827609566807
 20
-113.4614637303152
 30
0.0
 10
100.6205593281435
 20
-113.5313991686658
 30
0.0
 10
100.5358099792063
 20
-113.5587876777735
 30
0.0
 10
100.5358099792063
 20
-113.5587876777735
 30
0.0
 10
100.3411620842897
 20
-113.3917005467389
 30
0.0
 10
100.3411620842897
 20
-113.3917005467389
 30
0.0
 10
100.4386582865223
 20
-113.3789536934435
 30
0.0
 10
100.6140136467215
 20
-113.355699298918
 30
0.0
 10
100.8024603697647
 20
-113.1674248306491
 30
0.0
 10
100.8765299226975
 20
-113.0955945897817
 30
0.0
 10
100.9802272968036
 20
-112.9558959678548
 30
0.0
 10
100.9802272968036
 20
-112.5962279991947
 30
0.0
 10
100.9802272968036
 20
-112.5962279991947
 30
0.0
 10
100.7494058992918
 20
-112.5962279991947
 30
0.0
 10
100.7494058992918
 20
-112.5962279991947
 30
0.0
 10
100.5633707430883
 20
-112.5962279991947
 30
0.0
 10
100.3769910773363
 20
-112.6005343685513
 30
0.0
 10
100.1909559211328
 20
-112.6153482791378
 30
0.0
 10
100.1909559211328
 20
-112.6153482791378
 30
0.0
 10
100.1909559211328
 20
-112.3953789324046
 30
0.0
 10
100.1909559211328
 20
-112.3953789324046
 30
0.0
 10
100.379402644176
 20
-112.4101928429912
 30
0.0
 10
100.6650010599032
 20
-112.4143269575735
 30
0.0
 10
100.7494058992918
 20
-112.4143269575735
 30
0.0
 10
100.7494058992918
 20
-112.4143269575735
 30
0.0
 10
101.2995876482862
 20
-112.4143269575735
 30
0.0
 10
101.2995876482862
 20
-112.4143269575735
 30
0.0
 10
101.3185356734551
 20
-112.4143269575735
 30
0.0
 10
101.6358289676466
 20
-112.4143269575735
 30
0.0
 10
101.8642387983187
 20
-112.3953789324046
 30
0.0
 10
101.8642387983187
 20
-112.3953789324046
 30
0.0
 10
101.8642387983187
 20
-112.6153482791378
 30
0.0
 10
101.8642387983187
 20
-112.6153482791378
 30
0.0
 10
101.676136584824
 20
-112.6005343685513
 30
0.0
 10
101.4876898617809
 20
-112.5962279991947
 30
0.0
 10
101.2995876482862
 20
-112.5962279991947
 30
0.0
  0
SPLINE
  5
83
330
63
100
AcDbEntity
  8
_U+30EC_U+30A4_U+30E4_U+30FC 1
370
     0
100
AcDbSpline
210
0.0
220
0.0
230
1.0
 70
    11
 71
     3
 72
    29
 73
    25
 74
     0
 42
0.0000000001
 43
0.0000000001
 12
1.0
 22
0.0
 32
0.0
 13
1.0
 23
0.0
 33
0.0
 40
0.0
 40
0.0
 40
0.0
 40
0.0
 40
1.0
 40
1.0
 40
1.0
 40
2.0
 40
2.0
 40
2.0
 40
3.0
 40
3.0
 40
3.0
 40
4.0
 40
4.0
 40
4.0
 40
5.0
 40
5.0
 40
5.0
 40
6.0
 40
6.0
 40
6.0
 40
7.0
 40
7.0
 40
7.0
 40
8.0
 40
8.0
 40
8.0
 40
8.0
 10
101.1979573314713
 20
-112.0674058422088
 30
0.0
 10
101.1979573314713
 20
-112.0674058422088
 30
0.0
 10
100.8444905346847
 20
-112.0674058422088
 30
0.0
 10
100.8444905346847
 20
-112.0674058422088
 30
0.0
 10
100.7325249314141
 20
-112.0674058422088
 30
0.0
 10
100.5929985642615
 20
-112.0737792688566
 30
0.0
 10
100.4851670755732
 20
-112.086526122152
 30
0.0
 10
100.4851670755732
 20
-112.086526122152
 30
0.0
 10
100.4851670755732
 20
-111.8515706100579
 30
0.0
 10
100.4851670755732
 20
-111.8515706100579
 30
0.0
 10
100.6033338507172
 20
-111.8663845206445
 30
0.0
 10
100.7876464591781
 20
-111.8706908900011
 30
0.0
 10
100.8444905346847
 20
-111.8706908900011
 30
0.0
 10
100.8444905346847
 20
-111.8706908900011
 30
0.0
 10
101.1979573314713
 20
-111.8706908900011
 30
0.0
 10
101.1979573314713
 20
-111.8706908900011
 30
0.0
 10
101.2169053566402
 20
-111.8706908900011
 30
0.0
 10
101.42016599027
 20
-111.8706908900011
 30
0.0
 10
101.5617594147137
 20
-111.8515706100579
 30
0.0
 10
101.5617594147137
 20
-111.8515706100579
 30
0.0
 10
101.5617594147137
 20
-112.086526122152
 30
0.0
 10
101.5617594147137
 20
-112.086526122152
 30
0.0
 10
101.4053520796834
 20
-112.0674058422088
 30
0.0
 10
101.2148382993491
 20
-112.0674058422088
 30
0.0
 10
101.1979573314713
 20
-112.0674058422088
 30
0.0
  0
HATCH
  5
84
330
63
100
AcDbEntity
  8
_U+30EC_U+30A4_U+30E4_U+30FC 1
 62
     7
420
 16777215
100
AcDbHatch
 10
0.0
 20
0.0
 30
0.0
210
0.0
220
0.0
230
1.0
  2
SOLID
 70
     1
 71
     0
 91
        2
 92
        1
 93
        1
 72
     4
 94
        3
 73
     0
 74
     1
 95
       47
 96
       43
 40
0.0
 40
0.0
 40
0.0
 40
0.0
 40
1.0
 40
1.0
 40
1.0
 40
2.0
 40
2.0
 40
2.0
 40
3.0
 40
3.0
 40
3.0
 40
4.0
 40
4.0
 40
4.0
 40
5.0
 40
5.0
 40
5.0
 40
6.0
 40
6.0
 40
6.0
 40
7.0
 40
7.0
 40
7.0
 40
8.0
 40
8.0
 40
8.0
 40
9.0
 40
9.0
 40
9.0
 40
10.0
 40
10.0
 40
10.0
 40
11.0
 40
11.0
 40
11.0
 40
12.0
 40
12.0
 40
12.0
 40
13.0
 40
13.0
 40
13.0
 40
14.0
 40
14.0
 40
14.0
 40
14.0
 10
101.2995876482862
 20
-112.5962279991947
 10
101.2995876482862
 20
-112.5962279991947
 10
101.1979573314713
 20
-112.5962279991947
 10
101.1979573314713
 20
-112.5962279991947
 10
101.1979573314713
 20
-112.683044405423
 10
101.1769422490113
 20
-113.0723401952562
 10
100.9802272968036
 20
-113.2923095419894
 10
100.827609566807
 20
-113.4614637303152
 10
100.6205593281435
 20
-113.5313991686658
 10
100.5358099792063
 20
-113.5587876777735
 10
100.5358099792063
 20
-113.5587876777735
 10
100.3411620842897
 20
-113.3917005467389
 10
100.3411620842897
 20
-113.3917005467389
 10
100.4386582865223
 20
-113.3789536934435
 10
100.6140136467215
 20
-113.355699298918
 10
100.8024603697647
 20
-113.1674248306491
 10
100.8765299226975
 20
-113.0955945897817
 10
100.9802272968036
 20
-112.9558959678548
 10
100.9802272968036
 20
-112.5962279991947
 10
100.9802272968036
 20
-112.5962279991947
 10
100.7494058992918
 20
-112.5962279991947
 10
100.7494058992918
 20
-112.5962279991947
 10
100.5633707430883
 20
-112.5962279991947
 10
100.3769910773363
 20
-112.6005343685513
 10
100.1909559211328
 20
-112.6153482791378
 10
100.1909559211328
 20
-112.6153482791378
 10
100.1909559211328
 20
-112.3953789324046
 10
100.1909559211328
 20
-112.3953789324046
 10
100.379402644176
 20
-112.4101928429912
 10
100.6650010599032
 20
-112.4143269575735
 10
100.7494058992918
 20
-112.4143269575735
 10
100.7494058992918
 20
-112.4143269575735
 10
101.2995876482862
 20
-112.4143269575735
 10
101.2995876482862
 20
-112.4143269575735
 10
101.3185356734551
 20
-112.4143269575735
 10
101.6358289676466
 20
-112.4143269575735
 10
101.8642387983187
 20
-112.3953789324046
 10
101.8642387983187
 20
-112.3953789324046
 10
101.8642387983187
 20
-112.6153482791378
 10
101.8642387983187
 20
-112.6153482791378
 10
101.676136584824
 20
-112.6005343685513
 10
101.4876898617809
 20
-112.5962279991947
 10
101.2995876482862
 20
-112.5962279991947
 97
        0
 97
        0
 92
        1
 93
        1
 72
     4
 94
        3
 73
     0
 74
     1
 95
       29
 96
       25
 40
0.0
 40
0.0
 40
0.0
 40
0.0
 40
1.0
 40
1.0
 40
1.0
 40
2.0
 40
2.0
 40
2.0
 40
3.0
 40
3.0
 40
3.0
 40
4.0
 40
4.0
 40
4.0
 40
5.0
 40
5.0
 40
5.0
 40
6.0
 40
6.0
 40
6.0
 40
7.0
 40
7.0
 40
7.0
 40
8.0
 40
8.0
 40
8.0
 40
8.0
 10
101.1979573314713
 20
-112.0674058422088
 10
101.1979573314713
 20
-112.0674058422088
 10
100.8444905346847
 20
-112.0674058422088
 10
100.8444905346847
 20
-112.0674058422088
 10
100.7325249314141
 20
-112.0674058422088
 10
100.5929985642615
 20
-112.0737792688566
 10
100.4851670755732
 20
-112.086526122152
 10
100.4851670755732
 20
-112.086526122152
 10
100.4851670755732
 20
-111.8515706100579
 10
100.4851670755732
 20
-111.8515706100579
 10
100.6033338507172
 20
-111.8663845206445
 10
100.7876464591781
 20
-111.8706908900011
 10
100.8444905346847
 20
-111.8706908900011
 10
100.8444905346847
 20
-111.8706908900011
 10
101.1979573314713
 20
-111.8706908900011
 10
101.1979573314713
 20
-111.8706908900011
 10
101.2169053566402
 20
-111.8706908900011
 10
101.42016599027
 20
-111.8706908900011
 10
101.5617594147137
 20
-111.8515706100579
 10
101.5617594147137
 20
-111.8515706100579
 10
101.5617594147137
 20
-112.086526122152
 10
101.5617594147137
 20
-112.086526122152
 10
101.4053520796834
 20
-112.0674058422088
 10
101.2148382993491
 20
-112.0674058422088
 10
101.1979573314713
 20
-112.0674058422088
 97
        0
 97
        0
 75
     2
 76
     1
 98
        0
  0
SPLINE
  5
85
330
63
100
AcDbEntity
  8
_U+30EC_U+30A4_U+30E4_U+30FC 1
370
     0
100
AcDbSpline
210
0.0
220
0.0
230
1.0
 70
    11
 71
     3
 72
    29
 73
    25
 74
     0
 42
0.0000000001
 43
0.0000000001
 12
1.0
 22
0.0
 32
0.0
 13
1.0
 23
0.0
 33
0.0
 40
0.0
 40
0.0
 40
0.0
 40
0.0
 40
1.0
 40
1.0
 40
1.0
 40
2.0
 40
2.0
 40
2.0
 40
3.0
 40
3.0
 40
3.0
 40
4.0
 40
4.0
 40
4.0
 40
5.0
 40
5.0
 40
5.0
 40
6.0
 40
6.0
 40
6.0
 40
7.0
 40
7.0
 40
7.0
 40
8.0
 40
8.0
 40
8.0
 40
8.0
 10
103.1454698092831
 20
-112.759181015647
 30
0.0
 10
103.1454698092831
 20
-112.759181015647
 30
0.0
 10
102.661089384057
 20
-112.759181015647
 30
0.0
 10
102.661089384057
 20
-112.759181015647
 30
0.0
 10
102.633528620175
 20
-112.759181015647
 30
0.0
 10
102.3162353259834
 20
-112.759181015647
 30
0.0
 10
102.1047064631891
 20
-112.7845024674636
 30
0.0
 10
102.1047064631891
 20
-112.7845024674636
 30
0.0
 10
102.1047064631891
 20
-112.5540255795004
 30
0.0
 10
102.1047064631891
 20
-112.5540255795004
 30
0.0
 10
102.2631808555106
 20
-112.5772799740258
 30
0.0
 10
102.4536946358449
 20
-112.579347031317
 30
0.0
 10
102.661089384057
 20
-112.579347031317
 30
0.0
 10
102.661089384057
 20
-112.579347031317
 30
0.0
 10
103.1454698092831
 20
-112.579347031317
 30
0.0
 10
103.1454698092831
 20
-112.579347031317
 30
0.0
 10
103.3315049654866
 20
-112.579347031317
 30
0.0
 10
103.5178846312386
 20
-112.5772799740258
 30
0.0
 10
103.7018527301509
 20
-112.5540255795004
 30
0.0
 10
103.7018527301509
 20
-112.5540255795004
 30
0.0
 10
103.7018527301509
 20
-112.7845024674636
 30
0.0
 10
103.7018527301509
 20
-112.7845024674636
 30
0.0
 10
103.5178846312386
 20
-112.7612480729382
 30
0.0
 10
103.2701822658491
 20
-112.759181015647
 30
0.0
 10
103.1454698092831
 20
-112.759181015647
 30
0.0
  0
HATCH
  5
86
330
63
100
AcDbEntity
  8
_U+30EC_U+30A4_U+30E4_U+30FC 1
 62
     7
420
 16777215
100
AcDbHatch
 10
0.0
 20
0.0
 30
0.0
210
0.0
220
0.0
230
1.0
  2
SOLID
 70
     1
 71
     0
 91
        1
 92
        1
 93
        1
 72
     4
 94
        3
 73
     0
 74
     1
 95
       29
 96
       25
 40
0.0
 40
0.0
 40
0.0
 40
0.0
 40
1.0
 40
1.0
 40
1.0
 40
2.0
 40
2.0
 40
2.0
 40
3.0
 40
3.0
 40
3.0
 40
4.0
 40
4.0
 40
4.0
 40
5.0
 40
5.0
 40
5.0
 40
6.0
 40
6.0
 40
6.0
 40
7.0
 40
7.0
 40
7.0
 40
8.0
 40
8.0
 40
8.0
 40
8.0
 10
103.1454698092831
 20
-112.759181015647
 10
103.1454698092831
 20
-112.759181015647
 10
102.661089384057
 20
-112.759181015647
 10
102.661089384057
 20
-112.759181015647
 10
102.633528620175
 20
-112.759181015647
 10
102.3162353259834
 20
-112.759181015647
 10
102.1047064631891
 20
-112.7845024674636
 10
102.1047064631891
 20
-112.7845024674636
 10
102.1047064631891
 20
-112.5540255795004
 10
102.1047064631891
 20
-112.5540255795004
 10
102.2631808555106
 20
-112.5772799740258
 10
102.4536946358449
 20
-112.579347031317
 10
102.661089384057
 20
-112.579347031317
 10
102.661089384057
 20
-112.579347031317
 10
103.1454698092831
 20
-112.579347031317
 10
103.1454698092831
 20
-112.579347031317
 10
103.3315049654866
 20
-112.579347031317
 10
103.5178846312386
 20
-112.5772799740258
 10
103.7018527301509
 20
-112.5540255795004
 10
103.7018527301509
 20
-112.5540255795004
 10
103.7018527301509
 20
-112.7845024674636
 10
103.7018527301509
 20
-112.7845024674636
 10
103.5178846312386
 20
-112.7612480729382
 10
103.2701822658491
 20
-112.759181015647
 10
103.1454698092831
 20
-112.759181015647
 97
        0
 97
        0
 75
     2
 76
     1
 98
        0
  0
SPLINE
  5
87
330
63
100
AcDbEntity
  8
_U+30EC_U+30A4_U+30E4_U+30FC 1
370
     0
100
AcDbSpline
210
0.0
220
0.0
230
1.0
 70
    11
 71
     3
 72
    44
 73
    40
 74
     0
 42
0.0000000001
 43
0.0000000001
 12
1.0
 22
0.0
 32
0.0
 13
1.0
 23
0.0
 33
0.0
 40
0.0
 40
0.0
 40
0.0
 40
0.0
 40
1.0
 40
1.0
 40
1.0
 40
2.0
 40
2.0
 40
2.0
 40
3.0
 40
3.0
 40
3.0
 40
4.0
 40
4.0
 40
4.0
 40
5.0
 40
5.0
 40
5.0
 40
6.0
 40
6.0
 40
6.0
 40
7.0
 40
7.0
 40
7.0
 40
8.0
 40
8.0
 40
8.0
 40
9.0
 40
9.0
 40
9.0
 40
10.0
 40
10.0
 40
10.0
 40
11.0
 40
11.0
 40
11.0
 40
12.0
 40
12.0
 40
12.0
 40
13.0
 40
13.0
 40
13.0
 40
13.0
 10
105.356876601265
 20
-112.3213093794718
 30
0.0
 10
105.2449109979943
 20
-112.6894178320707
 30
0.0
 10
105.1942680943612
 20
-112.8480644791665
 30
0.0
 10
104.9975531421534
 20
-113.0976616470728
 30
0.0
 10
104.8132405336925
 20
-113.3283107898103
 30
0.0
 10
104.5765624738559
 20
-113.5143459460138
 30
0.0
 10
104.2971652300021
 20
-113.6075357788898
 30
0.0
 10
104.2971652300021
 20
-113.6075357788898
 30
0.0
 10
104.1045843923766
 20
-113.4277017945598
 30
0.0
 10
104.1045843923766
 20
-113.4277017945598
 30
0.0
 10
104.7457166621816
 20
-113.2754285741117
 30
0.0
 10
105.0757568096686
 20
-112.7190456532439
 30
0.0
 10
105.1391465665972
 20
-112.2789347050032
 30
0.0
 10
105.1391465665972
 20
-112.2789347050032
 30
0.0
 10
104.3733018402261
 20
-112.2789347050032
 30
0.0
 10
104.3733018402261
 20
-112.2789347050032
 30
0.0
 10
104.2802842621244
 20
-112.2789347050032
 30
0.0
 10
104.096316163212
 20
-112.2832410743598
 30
0.0
 10
103.9395643186332
 20
-112.3021890995286
 30
0.0
 10
103.9395643186332
 20
-112.3021890995286
 30
0.0
 10
103.9395643186332
 20
-112.0822197527954
 30
0.0
 10
103.9395643186332
 20
-112.0822197527954
 30
0.0
 10
104.0263807248615
 20
-112.1034070900297
 30
0.0
 10
104.2782172048332
 20
-112.1034070900297
 30
0.0
 10
104.3774359548084
 20
-112.1034070900297
 30
0.0
 10
104.3774359548084
 20
-112.1034070900297
 30
0.0
 10
104.8091064191102
 20
-112.1034070900297
 30
0.0
 10
104.8091064191102
 20
-112.1034070900297
 30
0.0
 10
104.8514810935788
 20
-112.1034070900297
 30
0.0
 10
105.0860920961243
 20
-112.1011677779643
 30
0.0
 10
105.1243326560106
 20
-112.0949666060908
 30
0.0
 10
105.1667073304792
 20
-112.0885931794431
 30
0.0
 10
105.1687743877703
 20
-112.086526122152
 30
0.0
 10
105.2300970874078
 20
-112.0462185049746
 30
0.0
 10
105.2300970874078
 20
-112.0462185049746
 30
0.0
 10
105.4181993009024
 20
-112.200731037488
 30
0.0
 10
105.4181993009024
 20
-112.200731037488
 30
0.0
 10
105.3889159892778
 20
-112.2303588586612
 30
0.0
 10
105.3741020786912
 20
-112.2620537371255
 30
0.0
 10
105.356876601265
 20
-112.3213093794718
 30
0.0
  0
SPLINE
  5
88
330
63
100
AcDbEntity
  8
_U+30EC_U+30A4_U+30E4_U+30FC 1
370
     0
100
AcDbSpline
210
0.0
220
0.0
230
1.0
 70
    11
 71
     3
 72
    17
 73
    13
 74
     0
 42
0.0000000001
 43
0.0000000001
 12
1.0
 22
0.0
 32
0.0
 13
1.0
 23
0.0
 33
0.0
 40
0.0
 40
0.0
 40
0.0
 40
0.0
 40
1.0
 40
1.0
 40
1.0
 40
2.0
 40
2.0
 40
2.0
 40
3.0
 40
3.0
 40
3.0
 40
4.0
 40
4.0
 40
4.0
 40
4.0
 10
105.5663384067681
 20
-112.1223551151986
 30
0.0
 10
105.439558892911
 20
-112.1223551151986
 30
0.0
 10
105.3379285760961
 20
-112.020897053158
 30
0.0
 10
105.3379285760961
 20
-111.8939452845265
 30
0.0
 10
105.3379285760961
 20
-111.7669935158951
 30
0.0
 10
105.439558892911
 20
-111.663296141789
 30
0.0
 10
105.5663384067681
 20
-111.663296141789
 30
0.0
 10
105.6934624301739
 20
-111.663296141789
 30
0.0
 10
105.7971598042799
 20
-111.7669935158951
 30
0.0
 10
105.7971598042799
 20
-111.8939452845265
 30
0.0
 10
105.7971598042799
 20
-112.020897053158
 30
0.0
 10
105.6934624301739
 20
-112.1223551151986
 30
0.0
 10
105.5663384067681
 20
-112.1223551151986
 30
0.0
  0
SPLINE
  5
89
330
63
100
AcDbEntity
  8
_U+30EC_U+30A4_U+30E4_U+30FC 1
370
     0
100
AcDbSpline
210
0.0
220
0.0
230
1.0
 70
    11
 71
     3
 72
    17
 73
    13
 74
     0
 42
0.0000000001
 43
0.0000000001
 12
1.0
 22
0.0
 32
0.0
 13
1.0
 23
0.0
 33
0.0
 40
0.0
 40
0.0
 40
0.0
 40
0.0
 40
1.0
 40
1.0
 40
1.0
 40
2.0
 40
2.0
 40
2.0
 40
3.0
 40
3.0
 40
3.0
 40
4.0
 40
4.0
 40
4.0
 40
4.0
 10
105.564271349477
 20
-111.7923149677116
 30
0.0
 10
105.5094943312615
 20
-111.7923149677116
 30
0.0
 10
105.4650525995018
 20
-111.8367566994714
 30
0.0
 10
105.4650525995018
 20
-111.8918782272354
 30
0.0
 10
105.4650525995018
 20
-111.9488945575163
 30
0.0
 10
105.5094943312615
 20
-111.9976426586325
 30
0.0
 10
105.5684054640593
 20
-111.9976426586325
 30
0.0
 10
105.6276611064056
 20
-111.9976426586325
 30
0.0
 10
105.667968723583
 20
-111.9468275002251
 30
0.0
 10
105.667968723583
 20
-111.8939452845265
 30
0.0
 10
105.667968723583
 20
-111.8367566994714
 30
0.0
 10
105.6214599345321
 20
-111.7923149677116
 30
0.0
 10
105.564271349477
 20
-111.7923149677116
 30
0.0
  0
HATCH
  5
8A
330
63
100
AcDbEntity
  8
_U+30EC_U+30A4_U+30E4_U+30FC 1
 62
     7
420
 16777215
100
AcDbHatch
 10
0.0
 20
0.0
 30
0.0
210
0.0
220
0.0
230
1.0
  2
SOLID
 70
     1
 71
     0
 91
        3
 92
        1
 93
        1
 72
     4
 94
        3
 73
     0
 74
     1
 95
       44
 96
       40
 40
0.0
 40
0.0
 40
0.0
 40
0.0
 40
1.0
 40
1.0
 40
1.0
 40
2.0
 40
2.0
 40
2.0
 40
3.0
 40
3.0
 40
3.0
 40
4.0
 40
4.0
 40
4.0
 40
5.0
 40
5.0
 40
5.0
 40
6.0
 40
6.0
 40
6.0
 40
7.0
 40
7.0
 40
7.0
 40
8.0
 40
8.0
 40
8.0
 40
9.0
 40
9.0
 40
9.0
 40
10.0
 40
10.0
 40
10.0
 40
11.0
 40
11.0
 40
11.0
 40
12.0
 40
12.0
 40
12.0
 40
13.0
 40
13.0
 40
13.0
 40
13.0
 10
105.356876601265
 20
-112.3213093794718
 10
105.2449109979943
 20
-112.6894178320707
 10
105.1942680943612
 20
-112.8480644791665
 10
104.9975531421534
 20
-113.0976616470728
 10
104.8132405336925
 20
-113.3283107898103
 10
104.5765624738559
 20
-113.5143459460138
 10
104.2971652300021
 20
-113.6075357788898
 10
104.2971652300021
 20
-113.6075357788898
 10
104.1045843923766
 20
-113.4277017945598
 10
104.1045843923766
 20
-113.4277017945598
 10
104.7457166621816
 20
-113.2754285741117
 10
105.0757568096686
 20
-112.7190456532439
 10
105.1391465665972
 20
-112.2789347050032
 10
105.1391465665972
 20
-112.2789347050032
 10
104.3733018402261
 20
-112.2789347050032
 10
104.3733018402261
 20
-112.2789347050032
 10
104.2802842621244
 20
-112.2789347050032
 10
104.096316163212
 20
-112.2832410743598
 10
103.9395643186332
 20
-112.3021890995286
 10
103.9395643186332
 20
-112.3021890995286
 10
103.9395643186332
 20
-112.0822197527954
 10
103.9395643186332
 20
-112.0822197527954
 10
104.0263807248615
 20
-112.1034070900297
 10
104.2782172048332
 20
-112.1034070900297
 10
104.3774359548084
 20
-112.1034070900297
 10
104.3774359548084
 20
-112.1034070900297
 10
104.8091064191102
 20
-112.1034070900297
 10
104.8091064191102
 20
-112.1034070900297
 10
104.8514810935788
 20
-112.1034070900297
 10
105.0860920961243
 20
-112.1011677779643
 10
105.1243326560106
 20
-112.0949666060908
 10
105.1667073304792
 20
-112.0885931794431
 10
105.1687743877703
 20
-112.086526122152
 10
105.2300970874078
 20
-112.0462185049746
 10
105.2300970874078
 20
-112.0462185049746
 10
105.4181993009024
 20
-112.200731037488
 10
105.4181993009024
 20
-112.200731037488
 10
105.3889159892778
 20
-112.2303588586612
 10
105.3741020786912
 20
-112.2620537371255
 10
105.356876601265
 20
-112.3213093794718
 97
        0
 97
        0
 92
        1
 93
        1
 72
     4
 94
        3
 73
     0
 74
     1
 95
       17
 96
       13
 40
0.0
 40
0.0
 40
0.0
 40
0.0
 40
1.0
 40
1.0
 40
1.0
 40
2.0
 40
2.0
 40
2.0
 40
3.0
 40
3.0
 40
3.0
 40
4.0
 40
4.0
 40
4.0
 40
4.0
 10
105.5663384067681
 20
-112.1223551151986
 10
105.439558892911
 20
-112.1223551151986
 10
105.3379285760961
 20
-112.020897053158
 10
105.3379285760961
 20
-111.8939452845265
 10
105.3379285760961
 20
-111.7669935158951
 10
105.439558892911
 20
-111.663296141789
 10
105.5663384067681
 20
-111.663296141789
 10
105.6934624301739
 20
-111.663296141789
 10
105.7971598042799
 20
-111.7669935158951
 10
105.7971598042799
 20
-111.8939452845265
 10
105.7971598042799
 20
-112.020897053158
 10
105.6934624301739
 20
-112.1223551151986
 10
105.5663384067681
 20
-112.1223551151986
 97
        0
 97
        0
 92
        1
 93
        1
 72
     4
 94
        3
 73
     0
 74
     1
 95
       17
 96
       13
 40
0.0
 40
0.0
 40
0.0
 40
0.0
 40
1.0
 40
1.0
 40
1.0
 40
2.0
 40
2.0
 40
2.0
 40
3.0
 40
3.0
 40
3.0
 40
4.0
 40
4.0
 40
4.0
 40
4.0
 10
105.564271349477
 20
-111.7923149677116
 10
105.5094943312615
 20
-111.7923149677116
 10
105.4650525995018
 20
-111.8367566994714
 10
105.4650525995018
 20
-111.8918782272354
 10
105.4650525995018
 20
-111.9488945575163
 10
105.5094943312615
 20
-111.9976426586325
 10
105.5684054640593
 20
-111.9976426586325
 10
105.6276611064056
 20
-111.9976426586325
 10
105.667968723583
 20
-111.9468275002251
 10
105.667968723583
 20
-111.8939452845265
 10
105.667968723583
 20
-111.8367566994714
 10
105.6214599345321
 20
-111.7923149677116
 10
105.564271349477
 20
-111.7923149677116
 97
        0
 97
        0
 75
     2
 76
     1
 98
        0
  0
ENDBLK
  5
66
330
63
100
AcDbEntity
  8
0
100
AcDbBlockEnd
  0
BLOCK
  5
8D
330
8B
100
AcDbEntity
  8
0
100
AcDbBlockBegin
  2
block 3
 70
     0
 10
0.0
 20
0.0
 30
0.0
  3
block 3
  1

  0
POLYLINE
  5
8F
330
8B
100
AcDbEntity
  8
_U+30EC_U+30A4_U+30E4_U+30FC 1
 62
     7
420
 16777215
370
    25
100
AcDb2dPolyline
 66
     1
 10
0.0
 20
0.0
 30
0.0
  0
VERTEX
  5
90
330
8F
100
AcDbEntity
  8
_U+30EC_U+30A4_U+30E4_U+30FC 1
 62
     7
420
 16777215
370
    25
100
AcDbVertex
100
AcDb2dVertex
 10
115.0716984531653
 20
-145.6152366302626
 30
0.0
  0
VERTEX
  5
91
330
8F
100
AcDbEntity
  8
_U+30EC_U+30A4_U+30E4_U+30FC 1
 62
     7
420
 16777215
370
    25
100
AcDbVertex
100
AcDb2dVertex
 10
115.0716984531653
 20
-146.1154402412488
 30
0.0
  0
VERTEX
  5
92
330
8F
100
AcDbEntity
  8
_U+30EC_U+30A4_U+30E4_U+30FC 1
 62
     7
420
 16777215
370
    25
100
AcDbVertex
100
AcDb2dVertex
 10
94.79904174814162
 20
-146.6150088522351
 30
0.0
  0
VERTEX
  5
93
330
8F
100
AcDbEntity
  8
_U+30EC_U+30A4_U+30E4_U+30FC 1
 62
     7
420
 16777215
370
    25
100
AcDbVertex
100
AcDb2dVertex
 10
73.59103006698085
 20
-125.3976833019838
 30
0.0
  0
VERTEX
  5
94
330
8F
100
AcDbEntity
  8
_U+30EC_U+30A4_U+30E4_U+30FC 1
 62
     7
420
 16777215
370
    25
100
AcDbVertex
100
AcDb2dVertex
 10
74.09091616533881
 20
-105.1246733070523
 30
0.0
  0
VERTEX
  5
95
330
8F
100
AcDbEntity
  8
_U+30EC_U+30A4_U+30E4_U+30FC 1
 62
     7
420
 16777215
370
    25
100
AcDbVertex
100
AcDb2dVertex
 10
74.59080226369676
 20
-105.1246733070523
 30
0.0
  0
VERTEX
  5
96
330
8F
100
AcDbEntity
  8
_U+30EC_U+30A4_U+30E4_U+30FC 1
 62
     7
420
 16777215
370
    25
100
AcDbVertex
100
AcDb2dVertex
 10
74.59080226369676
 20
-125.1248449687186
 30
0.0
  0
VERTEX
  5
97
330
8F
100
AcDbEntity
  8
_U+30EC_U+30A4_U+30E4_U+30FC 1
 62
     7
420
 16777215
370
    25
100
AcDbVertex
100
AcDb2dVertex
 10
95.07188007451427
 20
-145.6152366302626
 30
0.0
  0
VERTEX
  5
98
330
8F
100
AcDbEntity
  8
_U+30EC_U+30A4_U+30E4_U+30FC 1
 62
     7
420
 16777215
370
    25
100
AcDbVertex
100
AcDb2dVertex
 10
115.0716984531653
 20
-145.6152366302626
 30
0.0
  0
SEQEND
  5
99
330
8F
100
AcDbEntity
  8
_U+30EC_U+30A4_U+30E4_U+30FC 1
 62
     7
420
 16777215
370
    25
  0
SPLINE
  5
9A
330
8B
100
AcDbEntity
  8
_U+30EC_U+30A4_U+30E4_U+30FC 1
 62
     7
420
 16777215
370
     9
100
AcDbSpline
210
0.0
220
0.0
230
1.0
 70
    11
 71
     3
 72
    17
 73
    13
 74
     0
 42
0.0000000001
 43
0.0000000001
 12
1.0
 22
0.0
 32
0.0
 13
1.0
 23
0.0
 33
0.0
 40
0.0
 40
0.0
 40
0.0
 40
0.0
 40
1.0
 40
1.0
 40
1.0
 40
2.0
 40
2.0
 40
2.0
 40
3.0
 40
3.0
 40
3.0
 40
4.0
 40
4.0
 40
4.0
 40
4.0
 10
115.1723106728207
 20
-150.6157910734571
 30
0.0
 10
115.1723106728207
 20
-150.5599816290267
 30
0.0
 10
115.1275078961859
 20
-150.51517885126
 30
0.0
 10
115.0716984531653
 20
-150.51517885126
 30
0.0
 10
115.0165945656822
 20
-150.51517885126
 30
0.0
 10
114.9717917890474
 20
-150.5599816290267
 30
0.0
 10
114.9717917890474
 20
-150.6157910734571
 30
0.0
 10
114.9717917890474
 20
-150.6708949623321
 30
0.0
 10
115.0165945656822
 20
-150.7156977400988
 30
0.0
 10
115.0716984531653
 20
-150.7156977400988
 30
0.0
 10
115.1275078961859
 20
-150.7156977400988
 30
0.0
 10
115.1723106728207
 20
-150.6708949623321
 30
0.0
 10
115.1723106728207
 20
-150.6157910734571
 30
0.0
  0
SPLINE
  5
9B
330
8B
100
AcDbEntity
  8
_U+30EC_U+30A4_U+30E4_U+30FC 1
 62
     7
420
 16777215
370
     9
100
AcDbSpline
210
0.0
220
0.0
230
1.0
 70
    11
 71
     3
 72
    17
 73
    13
 74
     0
 42
0.0000000001
 43
0.0000000001
 12
1.0
 22
0.0
 32
0.0
 13
1.0
 23
0.0
 33
0.0
 40
0.0
 40
0.0
 40
0.0
 40
0.0
 40
1.0
 40
1.0
 40
1.0
 40
2.0
 40
2.0
 40
2.0
 40
3.0
 40
3.0
 40
3.0
 40
4.0
 40
4.0
 40
4.0
 40
4.0
 10
92.07051737330764
 20
-149.4434046848613
 30
0.0
 10
92.07051737330764
 20
-149.3883007959864
 30
0.0
 10
92.02574987444974
 20
-149.3434980182197
 30
0.0
 10
91.9706107091898
 20
-149.3434980182197
 30
0.0
 10
91.91550682170673
 20
-149.3434980182197
 30
0.0
 10
91.87070404507196
 20
-149.3883007959864
 30
0.0
 10
91.87070404507196
 20
-149.4434046848613
 30
0.0
 10
91.87070404507196
 20
-149.4985438515144
 30
0.0
 10
91.91550682170673
 20
-149.543311351503
 30
0.0
 10
91.9706107091898
 20
-149.543311351503
 30
0.0
 10
92.02574987444974
 20
-149.543311351503
 30
0.0
 10
92.07051737330764
 20
-149.4985438515144
 30
0.0
 10
92.07051737330764
 20
-149.4434046848613
 30
0.0
  0
SPLINE
  5
9C
330
8B
100
AcDbEntity
  8
_U+30EC_U+30A4_U+30E4_U+30FC 1
 62
     7
420
 16777215
370
     9
100
AcDbSpline
210
0.0
220
0.0
230
1.0
 70
    11
 71
     3
 72
    17
 73
    13
 74
     0
 42
0.0000000001
 43
0.0000000001
 12
1.0
 22
0.0
 32
0.0
 13
1.0
 23
0.0
 33
0.0
 40
0.0
 40
0.0
 40
0.0
 40
0.0
 40
1.0
 40
1.0
 40
1.0
 40
2.0
 40
2.0
 40
2.0
 40
3.0
 40
3.0
 40
3.0
 40
4.0
 40
4.0
 40
4.0
 40
4.0
 10
95.17178673863211
 20
-150.6157910734571
 30
0.0
 10
95.17178673863211
 20
-150.5599816290267
 30
0.0
 10
95.12701923977421
 20
-150.51517885126
 30
0.0
 10
95.07188007451427
 20
-150.51517885126
 30
0.0
 10
95.0167761870312
 20
-150.51517885126
 30
0.0
 10
94.97197341039643
 20
-150.5599816290267
 30
0.0
 10
94.97197341039643
 20
-150.6157910734571
 30
0.0
 10
94.97197341039643
 20
-150.6708949623321
 30
0.0
 10
95.0167761870312
 20
-150.7156977400988
 30
0.0
 10
95.07188007451427
 20
-150.7156977400988
 30
0.0
 10
95.12701923977421
 20
-150.7156977400988
 30
0.0
 10
95.17178673863211
 20
-150.6708949623321
 30
0.0
 10
95.17178673863211
 20
-150.6157910734571
 30
0.0
  0
SPLINE
  5
9D
330
8B
100
AcDbEntity
  8
_U+30EC_U+30A4_U+30E4_U+30FC 1
 62
     7
420
 16777215
370
     9
100
AcDbSpline
210
0.0
220
0.0
230
1.0
 70
    11
 71
     3
 72
    17
 73
    13
 74
     0
 42
0.0000000001
 43
0.0000000001
 12
1.0
 22
0.0
 32
0.0
 13
1.0
 23
0.0
 33
0.0
 40
0.0
 40
0.0
 40
0.0
 40
0.0
 40
1.0
 40
1.0
 40
1.0
 40
2.0
 40
2.0
 40
2.0
 40
3.0
 40
3.0
 40
3.0
 40
4.0
 40
4.0
 40
4.0
 40
4.0
 10
69.6908248887056
 20
-125.1248449687186
 30
0.0
 10
69.6908248887056
 20
-125.0697058020659
 30
0.0
 10
69.64605738984771
 20
-125.024938302077
 30
0.0
 10
69.59091822458777
 20
-125.024938302077
 30
0.0
 10
69.53546155933591
 20
-125.024938302077
 30
0.0
 10
69.49065878270115
 20
-125.0697058020659
 30
0.0
 10
69.49065878270115
 20
-125.1248449687186
 30
0.0
 10
69.49065878270115
 20
-125.1799488575939
 30
0.0
 10
69.53546155933591
 20
-125.2247516353606
 30
0.0
 10
69.59091822458777
 20
-125.2247516353606
 30
0.0
 10
69.64605738984771
 20
-125.2247516353606
 30
0.0
 10
69.6908248887056
 20
-125.1799488575939
 30
0.0
 10
69.6908248887056
 20
-125.1248449687186
 30
0.0
  0
SPLINE
  5
9E
330
8B
100
AcDbEntity
  8
_U+30EC_U+30A4_U+30E4_U+30FC 1
 62
     7
420
 16777215
370
     9
100
AcDbSpline
210
0.0
220
0.0
230
1.0
 70
    11
 71
     3
 72
    17
 73
    13
 74
     0
 42
0.0000000001
 43
0.0000000001
 12
1.0
 22
0.0
 32
0.0
 13
1.0
 23
0.0
 33
0.0
 40
0.0
 40
0.0
 40
0.0
 40
0.0
 40
1.0
 40
1.0
 40
1.0
 40
2.0
 40
2.0
 40
2.0
 40
3.0
 40
3.0
 40
3.0
 40
4.0
 40
4.0
 40
4.0
 40
4.0
 10
70.86250569214687
 20
-128.2261144123878
 30
0.0
 10
70.86250569214687
 20
-128.1709752457351
 30
0.0
 10
70.81773819328897
 20
-128.1262077457462
 30
0.0
 10
70.76259902802903
 20
-128.1262077457462
 30
0.0
 10
70.70714236277718
 20
-128.1262077457462
 30
0.0
 10
70.66269236391119
 20
-128.1709752457351
 30
0.0
 10
70.66269236391119
 20
-128.2261144123878
 30
0.0
 10
70.66269236391119
 20
-128.2812183012631
 30
0.0
 10
70.70714236277718
 20
-128.3260210790295
 30
0.0
 10
70.76259902802903
 20
-128.3260210790295
 30
0.0
 10
70.81773819328897
 20
-128.3260210790295
 30
0.0
 10
70.86250569214687
 20
-128.2812183012631
 30
0.0
 10
70.86250569214687
 20
-128.2261144123878
 30
0.0
  0
SPLINE
  5
9F
330
8B
100
AcDbEntity
  8
_U+30EC_U+30A4_U+30E4_U+30FC 1
 62
     7
420
 16777215
370
     9
100
AcDbSpline
210
0.0
220
0.0
230
1.0
 70
    11
 71
     3
 72
    17
 73
    13
 74
     0
 42
0.0000000001
 43
0.0000000001
 12
1.0
 22
0.0
 32
0.0
 13
1.0
 23
0.0
 33
0.0
 40
0.0
 40
0.0
 40
0.0
 40
0.0
 40
1.0
 40
1.0
 40
1.0
 40
2.0
 40
2.0
 40
2.0
 40
3.0
 40
3.0
 40
3.0
 40
4.0
 40
4.0
 40
4.0
 40
4.0
 10
69.6908248887056
 20
-105.1246733070523
 30
0.0
 10
69.6908248887056
 20
-105.0695694181771
 30
0.0
 10
69.64605738984771
 20
-105.0247666404103
 30
0.0
 10
69.59091822458777
 20
-105.0247666404103
 30
0.0
 10
69.53546155933591
 20
-105.0247666404103
 30
0.0
 10
69.49065878270115
 20
-105.0695694181771
 30
0.0
 10
69.49065878270115
 20
-105.1246733070523
 30
0.0
 10
69.49065878270115
 20
-105.1798124737051
 30
0.0
 10
69.53546155933591
 20
-105.2245799736939
 30
0.0
 10
69.59091822458777
 20
-105.2245799736939
 30
0.0
 10
69.64605738984771
 20
-105.2245799736939
 30
0.0
 10
69.6908248887056
 20
-105.1798124737051
 30
0.0
 10
69.6908248887056
 20
-105.1246733070523
 30
0.0
  0
POLYLINE
  5
A0
330
8B
100
AcDbEntity
  8
_U+30EC_U+30A4_U+30E4_U+30FC 1
 62
     7
420
 16777215
370
     9
100
AcDb2dPolyline
 66
     1
 10
0.0
 20
0.0
 30
0.0
  0
VERTEX
  5
A1
330
A0
100
AcDbEntity
  8
_U+30EC_U+30A4_U+30E4_U+30FC 1
 62
     7
420
 16777215
370
     9
100
AcDbVertex
100
AcDb2dVertex
 10
70.76259902802903
 20
-128.2261144123878
 30
0.0
  0
VERTEX
  5
A2
330
A0
100
AcDbEntity
  8
_U+30EC_U+30A4_U+30E4_U+30FC 1
 62
     7
420
 16777215
370
     9
100
AcDbVertex
100
AcDb2dVertex
 10
91.9706107091898
 20
-149.4434046848613
 30
0.0
  0
SEQEND
  5
A3
330
A0
100
AcDbEntity
  8
_U+30EC_U+30A4_U+30E4_U+30FC 1
 62
     7
420
 16777215
370
     9
  0
POLYLINE
  5
A4
330
8B
100
AcDbEntity
  8
_U+30EC_U+30A4_U+30E4_U+30FC 1
 62
     7
420
 16777215
370
     9
100
AcDb2dPolyline
 66
     1
 10
0.0
 20
0.0
 30
0.0
  0
VERTEX
  5
A5
330
A4
100
AcDbEntity
  8
_U+30EC_U+30A4_U+30E4_U+30FC 1
 62
     7
420
 16777215
370
     9
100
AcDbVertex
100
AcDb2dVertex
 10
71.79475622391872
 20
-127.1939571904237
 30
0.0
  0
VERTEX
  5
A6
330
A4
100
AcDbEntity
  8
_U+30EC_U+30A4_U+30E4_U+30FC 1
 62
     7
420
 16777215
370
     9
100
AcDbVertex
100
AcDb2dVertex
 10
70.05531664915296
 20
-128.9330458010999
 30
0.0
  0
SEQEND
  5
A7
330
A4
100
AcDbEntity
  8
_U+30EC_U+30A4_U+30E4_U+30FC 1
 62
     7
420
 16777215
370
     9
  0
POLYLINE
  5
A8
330
8B
100
AcDbEntity
  8
_U+30EC_U+30A4_U+30E4_U+30FC 1
 62
     7
420
 16777215
370
     9
100
AcDb2dPolyline
 66
     1
 10
0.0
 20
0.0
 30
0.0
  0
VERTEX
  5
A9
330
A8
100
AcDbEntity
  8
_U+30EC_U+30A4_U+30E4_U+30FC 1
 62
     7
420
 16777215
370
     9
100
AcDbVertex
100
AcDb2dVertex
 10
93.00312068284828
 20
-148.411282740675
 30
0.0
  0
VERTEX
  5
AA
330
A8
100
AcDbEntity
  8
_U+30EC_U+30A4_U+30E4_U+30FC 1
 62
     7
420
 16777215
370
     9
100
AcDbVertex
100
AcDb2dVertex
 10
91.26367933833623
 20
-150.1513944069067
 30
0.0
  0
SEQEND
  5
AB
330
A8
100
AcDbEntity
  8
_U+30EC_U+30A4_U+30E4_U+30FC 1
 62
     7
420
 16777215
370
     9
  0
INSERT
  5
AD
330
8B
100
AcDbEntity
  8
_U+30EC_U+30A4_U+30E4_U+30FC 1
100
AcDbBlockReference
  2
block 4
 10
0.0
 20
0.0
 30
0.0
  0
POLYLINE
  5
B5
330
8B
100
AcDbEntity
  8
_U+30EC_U+30A4_U+30E4_U+30FC 1
 62
     7
420
 16777215
370
     9
100
AcDb2dPolyline
 66
     1
 10
0.0
 20
0.0
 30
0.0
  0
VERTEX
  5
B6
330
B5
100
AcDbEntity
  8
_U+30EC_U+30A4_U+30E4_U+30FC 1
 62
     7
420
 16777215
370
     9
100
AcDbVertex
100
AcDb2dVertex
 10
95.07188007451427
 20
-150.6157910734571
 30
0.0
  0
VERTEX
  5
B7
330
B5
100
AcDbEntity
  8
_U+30EC_U+30A4_U+30E4_U+30FC 1
 62
     7
420
 16777215
370
     9
100
AcDbVertex
100
AcDb2dVertex
 10
115.0716984531653
 20
-150.6157910734571
 30
0.0
  0
SEQEND
  5
B8
330
B5
100
AcDbEntity
  8
_U+30EC_U+30A4_U+30E4_U+30FC 1
 62
     7
420
 16777215
370
     9
  0
POLYLINE
  5
B9
330
8B
100
AcDbEntity
  8
_U+30EC_U+30A4_U+30E4_U+30FC 1
 62
     7
420
 16777215
370
     9
100
AcDb2dPolyline
 66
     1
 10
0.0
 20
0.0
 30
0.0
  0
VERTEX
  5
BA
330
B9
100
AcDbEntity
  8
_U+30EC_U+30A4_U+30E4_U+30FC 1
 62
     7
420
 16777215
370
     9
100
AcDbVertex
100
AcDb2dVertex
 10
95.07188007451427
 20
-148.1549544074058
 30
0.0
  0
VERTEX
  5
BB
330
B9
100
AcDbEntity
  8
_U+30EC_U+30A4_U+30E4_U+30FC 1
 62
     7
420
 16777215
370
     9
100
AcDbVertex
100
AcDb2dVertex
 10
95.07188007451427
 20
-151.6155632954297
 30
0.0
  0
SEQEND
  5
BC
330
B9
100
AcDbEntity
  8
_U+30EC_U+30A4_U+30E4_U+30FC 1
 62
     7
420
 16777215
370
     9
  0
POLYLINE
  5
BD
330
8B
100
AcDbEntity
  8
_U+30EC_U+30A4_U+30E4_U+30FC 1
 62
     7
420
 16777215
370
     9
100
AcDb2dPolyline
 66
     1
 10
0.0
 20
0.0
 30
0.0
  0
VERTEX
  5
BE
330
BD
100
AcDbEntity
  8
_U+30EC_U+30A4_U+30E4_U+30FC 1
 62
     7
420
 16777215
370
     9
100
AcDbVertex
100
AcDb2dVertex
 10
115.0716984531653
 20
-148.6551932961695
 30
0.0
  0
VERTEX
  5
BF
330
BD
100
AcDbEntity
  8
_U+30EC_U+30A4_U+30E4_U+30FC 1
 62
     7
420
 16777215
370
     9
100
AcDbVertex
100
AcDb2dVertex
 10
115.0716984531653
 20
-151.6155632954297
 30
0.0
  0
SEQEND
  5
C0
330
BD
100
AcDbEntity
  8
_U+30EC_U+30A4_U+30E4_U+30FC 1
 62
     7
420
 16777215
370
     9
  0
INSERT
  5
C2
330
8B
100
AcDbEntity
  8
_U+30EC_U+30A4_U+30E4_U+30FC 1
100
AcDbBlockReference
  2
block 5
 10
0.0
 20
0.0
 30
0.0
  0
POLYLINE
  5
CA
330
8B
100
AcDbEntity
  8
_U+30EC_U+30A4_U+30E4_U+30FC 1
 62
     7
420
 16777215
370
     9
100
AcDb2dPolyline
 66
     1
 10
0.0
 20
0.0
 30
0.0
  0
VERTEX
  5
CB
330
CA
100
AcDbEntity
  8
_U+30EC_U+30A4_U+30E4_U+30FC 1
 62
     7
420
 16777215
370
     9
100
AcDbVertex
100
AcDb2dVertex
 10
69.59091822458777
 20
-125.1248449687186
 30
0.0
  0
VERTEX
  5
CC
330
CA
100
AcDbEntity
  8
_U+30EC_U+30A4_U+30E4_U+30FC 1
 62
     7
420
 16777215
370
     9
100
AcDbVertex
100
AcDb2dVertex
 10
69.59091822458777
 20
-105.1246733070523
 30
0.0
  0
SEQEND
  5
CD
330
CA
100
AcDbEntity
  8
_U+30EC_U+30A4_U+30E4_U+30FC 1
 62
     7
420
 16777215
370
     9
  0
POLYLINE
  5
CE
330
8B
100
AcDbEntity
  8
_U+30EC_U+30A4_U+30E4_U+30FC 1
 62
     7
420
 16777215
370
     9
100
AcDb2dPolyline
 66
     1
 10
0.0
 20
0.0
 30
0.0
  0
VERTEX
  5
CF
330
CE
100
AcDbEntity
  8
_U+30EC_U+30A4_U+30E4_U+30FC 1
 62
     7
420
 16777215
370
     9
100
AcDbVertex
100
AcDb2dVertex
 10
72.05108455071259
 20
-125.1248449687186
 30
0.0
  0
VERTEX
  5
D0
330
CE
100
AcDbEntity
  8
_U+30EC_U+30A4_U+30E4_U+30FC 1
 62
     7
420
 16777215
370
     9
100
AcDbVertex
100
AcDb2dVertex
 10
68.59082852787995
 20
-125.1248449687186
 30
0.0
  0
SEQEND
  5
D1
330
CE
100
AcDbEntity
  8
_U+30EC_U+30A4_U+30E4_U+30FC 1
 62
     7
420
 16777215
370
     9
  0
POLYLINE
  5
D2
330
8B
100
AcDbEntity
  8
_U+30EC_U+30A4_U+30E4_U+30FC 1
 62
     7
420
 16777215
370
     9
100
AcDb2dPolyline
 66
     1
 10
0.0
 20
0.0
 30
0.0
  0
VERTEX
  5
D3
330
D2
100
AcDbEntity
  8
_U+30EC_U+30A4_U+30E4_U+30FC 1
 62
     7
420
 16777215
370
     9
100
AcDbVertex
100
AcDb2dVertex
 10
71.55084567458584
 20
-105.1246733070523
 30
0.0
  0
VERTEX
  5
D4
330
D2
100
AcDbEntity
  8
_U+30EC_U+30A4_U+30E4_U+30FC 1
 62
     7
420
 16777215
370
     9
100
AcDbVertex
100
AcDb2dVertex
 10
68.59082852787995
 20
-105.1246733070523
 30
0.0
  0
SEQEND
  5
D5
330
D2
100
AcDbEntity
  8
_U+30EC_U+30A4_U+30E4_U+30FC 1
 62
     7
420
 16777215
370
     9
  0
INSERT
  5
D7
330
8B
100
AcDbEntity
  8
_U+30EC_U+30A4_U+30E4_U+30FC 1
100
AcDbBlockReference
  2
block 6
 10
0.0
 20
0.0
 30
0.0
  0
ENDBLK
  5
8E
330
8B
100
AcDbEntity
  8
0
100
AcDbBlockEnd
  0
BLOCK
  5
AE
330
AC
100
AcDbEntity
  8
0
100
AcDbBlockBegin
  2
block 4
 70
     0
 10
0.0
 20
0.0
 30
0.0
  3
block 4
  1

  0
SPLINE
  5
B0
330
AC
100
AcDbEntity
  8
_U+30EC_U+30A4_U+30E4_U+30FC 1
370
     0
100
AcDbSpline
210
0.0
220
0.0
230
1.0
 70
    11
 71
     3
 72
    62
 73
    58
 74
     0
 42
0.0000000001
 43
0.0000000001
 12
1.0
 22
0.0
 32
0.0
 13
1.0
 23
0.0
 33
0.0
 40
0.0
 40
0.0
 40
0.0
 40
0.0
 40
1.0
 40
1.0
 40
1.0
 40
2.0
 40
2.0
 40
2.0
 40
3.0
 40
3.0
 40
3.0
 40
4.0
 40
4.0
 40
4.0
 40
5.0
 40
5.0
 40
5.0
 40
6.0
 40
6.0
 40
6.0
 40
7.0
 40
7.0
 40
7.0
 40
8.0
 40
8.0
 40
8.0
 40
9.0
 40
9.0
 40
9.0
 40
10.0
 40
10.0
 40
10.0
 40
11.0
 40
11.0
 40
11.0
 40
12.0
 40
12.0
 40
12.0
 40
13.0
 40
13.0
 40
13.0
 40
14.0
 40
14.0
 40
14.0
 40
15.0
 40
15.0
 40
15.0
 40
16.0
 40
16.0
 40
16.0
 40
17.0
 40
17.0
 40
17.0
 40
18.0
 40
18.0
 40
18.0
 40
19.0
 40
19.0
 40
19.0
 40
19.0
 10
81.30632050918732
 20
-137.8706542624074
 30
0.0
 10
81.23879663767642
 20
-137.8031303908965
 30
0.0
 10
81.09978703484659
 20
-137.6343207121192
 30
0.0
 10
81.14285072841221
 20
-137.4141791106117
 30
0.0
 10
81.16972247319715
 20
-137.2822319535267
 30
0.0
 10
81.23724634470805
 20
-137.2091959292394
 30
0.0
 10
81.29409042021467
 20
-137.1464951914078
 30
0.0
 10
81.29409042021467
 20
-137.1464951914078
 30
0.0
 10
81.44980873614797
 20
-137.3022135073411
 30
0.0
 10
81.44980873614797
 20
-137.3022135073411
 30
0.0
 10
81.39882132296627
 20
-137.355956996911
 30
0.0
 10
81.24034693064478
 20
-137.5295898093676
 30
0.0
 10
81.4405069783378
 20
-137.7297498570606
 30
0.0
 10
81.53800318057037
 20
-137.8272460592932
 30
0.0
 10
81.69509953469776
 20
-137.8854681729939
 30
0.0
 10
81.85667451295598
 20
-137.7238931947357
 30
0.0
 10
81.93901229505344
 20
-137.6418999221868
 30
0.0
 10
81.94624699557247
 20
-137.5802327130008
 30
0.0
 10
81.94624699557247
 20
-137.5354464716925
 30
0.0
 10
81.94624699557247
 20
-137.4307155689409
 30
0.0
 10
81.87286646173665
 20
-137.3394205385818
 30
0.0
 10
81.83428139230185
 20
-137.300835469147
 30
0.0
 10
81.82050101036086
 20
-137.287055087206
 30
0.0
 10
81.79380152035016
 20
-137.2632839283578
 30
0.0
 10
81.77123614492177
 20
-137.2467474700286
 30
0.0
 10
81.77123614492177
 20
-137.2467474700286
 30
0.0
 10
81.90886770955751
 20
-137.1089436506186
 30
0.0
 10
81.90886770955751
 20
-137.1089436506186
 30
0.0
 10
81.93160533976015
 20
-137.1406385290829
 30
0.0
 10
81.95968286796494
 20
-137.1716443884501
 30
0.0
 10
81.96416149209577
 20
-137.176123012581
 30
0.0
 10
82.01067028114664
 20
-137.2226318016318
 30
0.0
 10
82.16621634230567
 20
-137.3483777868435
 30
0.0
 10
82.33382023766308
 20
-137.1809461462603
 30
0.0
 10
82.45939396810043
 20
-137.0552001610487
 30
0.0
 10
82.40565047853053
 20
-136.9235975135122
 30
0.0
 10
82.32779132056389
 20
-136.8457383555455
 30
0.0
 10
82.14072263571482
 20
-136.6586696706964
 30
0.0
 10
81.97036266396921
 20
-136.8174885725665
 30
0.0
 10
81.91627466485079
 20
-136.8650308902629
 30
0.0
 10
81.91627466485079
 20
-136.8650308902629
 30
0.0
 10
81.77261418311588
 20
-136.721370408528
 30
0.0
 10
81.77261418311588
 20
-136.721370408528
 30
0.0
 10
81.86718205418599
 20
-136.6393771359791
 30
0.0
 10
82.15260821513894
 20
-136.3923637896866
 30
0.0
 10
82.47575817165537
 20
-136.7155137462031
 30
0.0
 10
82.63423256397687
 20
-136.8739881385246
 30
0.0
 10
82.71502005310597
 20
-137.1344373572095
 30
0.0
 10
82.50573050237705
 20
-137.3438991627126
 30
0.0
 10
82.37395560006624
 20
-137.4755018102492
 30
0.0
 10
82.24855412440314
 20
-137.4665445619875
 30
0.0
 10
82.13486597338989
 20
-137.4396728172026
 30
0.0
 10
82.15880938701238
 20
-137.5023735550341
 30
0.0
 10
82.23046737310558
 20
-137.6877196921406
 30
0.0
 10
82.03444143999486
 20
-137.8837456252513
 30
0.0
 10
81.79517955854426
 20
-138.1231797614762
 30
0.0
 10
81.50200193274951
 20
-138.0663356859695
 30
0.0
 10
81.30632050918732
 20
-137.8706542624074
 30
0.0
  0
HATCH
  5
B1
330
AC
100
AcDbEntity
  8
_U+30EC_U+30A4_U+30E4_U+30FC 1
 62
     7
420
 16777215
100
AcDbHatch
 10
0.0
 20
0.0
 30
0.0
210
0.0
220
0.0
230
1.0
  2
SOLID
 70
     1
 71
     0
 91
        1
 92
        1
 93
        1
 72
     4
 94
        3
 73
     0
 74
     1
 95
       62
 96
       58
 40
0.0
 40
0.0
 40
0.0
 40
0.0
 40
1.0
 40
1.0
 40
1.0
 40
2.0
 40
2.0
 40
2.0
 40
3.0
 40
3.0
 40
3.0
 40
4.0
 40
4.0
 40
4.0
 40
5.0
 40
5.0
 40
5.0
 40
6.0
 40
6.0
 40
6.0
 40
7.0
 40
7.0
 40
7.0
 40
8.0
 40
8.0
 40
8.0
 40
9.0
 40
9.0
 40
9.0
 40
10.0
 40
10.0
 40
10.0
 40
11.0
 40
11.0
 40
11.0
 40
12.0
 40
12.0
 40
12.0
 40
13.0
 40
13.0
 40
13.0
 40
14.0
 40
14.0
 40
14.0
 40
15.0
 40
15.0
 40
15.0
 40
16.0
 40
16.0
 40
16.0
 40
17.0
 40
17.0
 40
17.0
 40
18.0
 40
18.0
 40
18.0
 40
19.0
 40
19.0
 40
19.0
 40
19.0
 10
81.30632050918732
 20
-137.8706542624074
 10
81.23879663767642
 20
-137.8031303908965
 10
81.09978703484659
 20
-137.6343207121192
 10
81.14285072841221
 20
-137.4141791106117
 10
81.16972247319715
 20
-137.2822319535267
 10
81.23724634470805
 20
-137.2091959292394
 10
81.29409042021467
 20
-137.1464951914078
 10
81.29409042021467
 20
-137.1464951914078
 10
81.44980873614797
 20
-137.3022135073411
 10
81.44980873614797
 20
-137.3022135073411
 10
81.39882132296627
 20
-137.355956996911
 10
81.24034693064478
 20
-137.5295898093676
 10
81.4405069783378
 20
-137.7297498570606
 10
81.53800318057037
 20
-137.8272460592932
 10
81.69509953469776
 20
-137.8854681729939
 10
81.85667451295598
 20
-137.7238931947357
 10
81.93901229505344
 20
-137.6418999221868
 10
81.94624699557247
 20
-137.5802327130008
 10
81.94624699557247
 20
-137.5354464716925
 10
81.94624699557247
 20
-137.4307155689409
 10
81.87286646173665
 20
-137.3394205385818
 10
81.83428139230185
 20
-137.300835469147
 10
81.82050101036086
 20
-137.287055087206
 10
81.79380152035016
 20
-137.2632839283578
 10
81.77123614492177
 20
-137.2467474700286
 10
81.77123614492177
 20
-137.2467474700286
 10
81.90886770955751
 20
-137.1089436506186
 10
81.90886770955751
 20
-137.1089436506186
 10
81.93160533976015
 20
-137.1406385290829
 10
81.95968286796494
 20
-137.1716443884501
 10
81.96416149209577
 20
-137.176123012581
 10
82.01067028114664
 20
-137.2226318016318
 10
82.16621634230567
 20
-137.3483777868435
 10
82.33382023766308
 20
-137.1809461462603
 10
82.45939396810043
 20
-137.0552001610487
 10
82.40565047853053
 20
-136.9235975135122
 10
82.32779132056389
 20
-136.8457383555455
 10
82.14072263571482
 20
-136.6586696706964
 10
81.97036266396921
 20
-136.8174885725665
 10
81.91627466485079
 20
-136.8650308902629
 10
81.91627466485079
 20
-136.8650308902629
 10
81.77261418311588
 20
-136.721370408528
 10
81.77261418311588
 20
-136.721370408528
 10
81.86718205418599
 20
-136.6393771359791
 10
82.15260821513894
 20
-136.3923637896866
 10
82.47575817165537
 20
-136.7155137462031
 10
82.63423256397687
 20
-136.8739881385246
 10
82.71502005310597
 20
-137.1344373572095
 10
82.50573050237705
 20
-137.3438991627126
 10
82.37395560006624
 20
-137.4755018102492
 10
82.24855412440314
 20
-137.4665445619875
 10
82.13486597338989
 20
-137.4396728172026
 10
82.15880938701238
 20
-137.5023735550341
 10
82.23046737310558
 20
-137.6877196921406
 10
82.03444143999486
 20
-137.8837456252513
 10
81.79517955854426
 20
-138.1231797614762
 10
81.50200193274951
 20
-138.0663356859695
 10
81.30632050918732
 20
-137.8706542624074
 97
        0
 97
        0
 75
     2
 76
     1
 98
        0
  0
SPLINE
  5
B2
330
AC
100
AcDbEntity
  8
_U+30EC_U+30A4_U+30E4_U+30FC 1
370
     0
100
AcDbSpline
210
0.0
220
0.0
230
1.0
 70
    11
 71
     3
 72
    29
 73
    25
 74
     0
 42
0.0000000001
 43
0.0000000001
 12
1.0
 22
0.0
 32
0.0
 13
1.0
 23
0.0
 33
0.0
 40
0.0
 40
0.0
 40
0.0
 40
0.0
 40
1.0
 40
1.0
 40
1.0
 40
2.0
 40
2.0
 40
2.0
 40
3.0
 40
3.0
 40
3.0
 40
4.0
 40
4.0
 40
4.0
 40
5.0
 40
5.0
 40
5.0
 40
6.0
 40
6.0
 40
6.0
 40
7.0
 40
7.0
 40
7.0
 40
8.0
 40
8.0
 40
8.0
 40
8.0
 10
82.58720701060321
 20
-138.8283908073068
 30
0.0
 10
82.36258678496492
 20
-138.9000487934
 30
0.0
 10
82.22650551329754
 20
-138.7908392665176
 30
0.0
 10
82.14416773120007
 20
-138.7085014844201
 30
0.0
 10
82.03047958018684
 20
-138.5948133334068
 30
0.0
 10
81.96312796345019
 20
-138.4618326476762
 30
0.0
 10
82.0246229178619
 20
-138.2658067145655
 30
0.0
 10
82.08887394866181
 20
-138.0549668708682
 30
0.0
 10
82.24286971685248
 20
-137.8737548483441
 30
0.0
 10
82.35810816083409
 20
-137.7586886591367
 30
0.0
 10
82.45991073242322
 20
-137.6570583423218
 30
0.0
 10
82.64990774843474
 20
-137.4910047399328
 30
0.0
 10
82.86522621626287
 20
-137.4252034161645
 30
0.0
 10
83.0850233082218
 20
-137.3576795446536
 30
0.0
 10
83.21542017233851
 20
-137.4551757468862
 30
0.0
 10
83.3063706931491
 20
-137.5461262676968
 30
0.0
 10
83.41868080596825
 20
-137.658436380516
 30
0.0
 10
83.48896075386735
 20
-137.7914170662466
 30
0.0
 10
83.42781030900416
 20
-137.9877875089058
 30
0.0
 10
83.36166447568736
 20
-138.1938042189238
 30
0.0
 10
83.21697046530687
 20
-138.3722601650597
 30
0.0
 10
83.09432506603198
 20
-138.4949055643346
 30
0.0
 10
82.97322995972544
 20
-138.6161729254154
 30
0.0
 10
82.79494626836377
 20
-138.7639675217326
 30
0.0
 10
82.58720701060321
 20
-138.8283908073068
 30
0.0
  0
SPLINE
  5
B3
330
AC
100
AcDbEntity
  8
_U+30EC_U+30A4_U+30E4_U+30FC 1
370
     0
100
AcDbSpline
210
0.0
220
0.0
230
1.0
 70
    11
 71
     3
 72
    17
 73
    13
 74
     0
 42
0.0000000001
 43
0.0000000001
 12
1.0
 22
0.0
 32
0.0
 13
1.0
 23
0.0
 33
0.0
 40
0.0
 40
0.0
 40
0.0
 40
0.0
 40
1.0
 40
1.0
 40
1.0
 40
2.0
 40
2.0
 40
2.0
 40
3.0
 40
3.0
 40
3.0
 40
4.0
 40
4.0
 40
4.0
 40
4.0
 10
83.17028942148174
 20
-137.6822075393642
 30
0.0
 10
82.99355602308842
 20
-137.5054741409708
 30
0.0
 10
82.76049531351127
 20
-137.6732502911025
 30
0.0
 10
82.51658255315559
 20
-137.9171630514582
 30
0.0
 10
82.29075654409745
 20
-138.1431613152906
 30
0.0
 10
82.09783119692347
 20
-138.3870740756463
 30
0.0
 10
82.28179929583581
 20
-138.5710421745586
 30
0.0
 10
82.45715465603502
 20
-138.7463975347578
 30
0.0
 10
82.69021536561218
 20
-138.5813774610144
 30
0.0
 10
82.93550616416196
 20
-138.3360866624646
 30
0.0
 10
83.16133217322009
 20
-138.1100883986322
 30
0.0
 10
83.35287948219998
 20
-137.8647976000824
 30
0.0
 10
83.17028942148174
 20
-137.6822075393642
 30
0.0
  0
HATCH
  5
B4
330
AC
100
AcDbEntity
  8
_U+30EC_U+30A4_U+30E4_U+30FC 1
 62
     7
420
 16777215
100
AcDbHatch
 10
0.0
 20
0.0
 30
0.0
210
0.0
220
0.0
230
1.0
  2
SOLID
 70
     1
 71
     0
 91
        2
 92
        1
 93
        1
 72
     4
 94
        3
 73
     0
 74
     1
 95
       29
 96
       25
 40
0.0
 40
0.0
 40
0.0
 40
0.0
 40
1.0
 40
1.0
 40
1.0
 40
2.0
 40
2.0
 40
2.0
 40
3.0
 40
3.0
 40
3.0
 40
4.0
 40
4.0
 40
4.0
 40
5.0
 40
5.0
 40
5.0
 40
6.0
 40
6.0
 40
6.0
 40
7.0
 40
7.0
 40
7.0
 40
8.0
 40
8.0
 40
8.0
 40
8.0
 10
82.58720701060321
 20
-138.8283908073068
 10
82.36258678496492
 20
-138.9000487934
 10
82.22650551329754
 20
-138.7908392665176
 10
82.14416773120007
 20
-138.7085014844201
 10
82.03047958018684
 20
-138.5948133334068
 10
81.96312796345019
 20
-138.4618326476762
 10
82.0246229178619
 20
-138.2658067145655
 10
82.08887394866181
 20
-138.0549668708682
 10
82.24286971685248
 20
-137.8737548483441
 10
82.35810816083409
 20
-137.7586886591367
 10
82.45991073242322
 20
-137.6570583423218
 10
82.64990774843474
 20
-137.4910047399328
 10
82.86522621626287
 20
-137.4252034161645
 10
83.0850233082218
 20
-137.3576795446536
 10
83.21542017233851
 20
-137.4551757468862
 10
83.3063706931491
 20
-137.5461262676968
 10
83.41868080596825
 20
-137.658436380516
 10
83.48896075386735
 20
-137.7914170662466
 10
83.42781030900416
 20
-137.9877875089058
 10
83.36166447568736
 20
-138.1938042189238
 10
83.21697046530687
 20
-138.3722601650597
 10
83.09432506603198
 20
-138.4949055643346
 10
82.97322995972544
 20
-138.6161729254154
 10
82.79494626836377
 20
-138.7639675217326
 10
82.58720701060321
 20
-138.8283908073068
 97
        0
 97
        0
 92
        1
 93
        1
 72
     4
 94
        3
 73
     0
 74
     1
 95
       17
 96
       13
 40
0.0
 40
0.0
 40
0.0
 40
0.0
 40
1.0
 40
1.0
 40
1.0
 40
2.0
 40
2.0
 40
2.0
 40
3.0
 40
3.0
 40
3.0
 40
4.0
 40
4.0
 40
4.0
 40
4.0
 10
83.17028942148174
 20
-137.6822075393642
 10
82.99355602308842
 20
-137.5054741409708
 10
82.76049531351127
 20
-137.6732502911025
 10
82.51658255315559
 20
-137.9171630514582
 10
82.29075654409745
 20
-138.1431613152906
 10
82.09783119692347
 20
-138.3870740756463
 10
82.28179929583581
 20
-138.5710421745586
 10
82.45715465603502
 20
-138.7463975347578
 10
82.69021536561218
 20
-138.5813774610144
 10
82.93550616416196
 20
-138.3360866624646
 10
83.16133217322009
 20
-138.1100883986322
 10
83.35287948219998
 20
-137.8647976000824
 10
83.17028942148174
 20
-137.6822075393642
 97
        0
 97
        0
 75
     2
 76
     1
 98
        0
  0
ENDBLK
  5
AF
330
AC
100
AcDbEntity
  8
0
100
AcDbBlockEnd
  0
BLOCK
  5
C3
330
C1
100
AcDbEntity
  8
0
100
AcDbBlockBegin
  2
block 5
 70
     0
 10
0.0
 20
0.0
 30
0.0
  3
block 5
  1

  0
SPLINE
  5
C5
330
C1
100
AcDbEntity
  8
_U+30EC_U+30A4_U+30E4_U+30FC 1
370
     0
100
AcDbSpline
210
0.0
220
0.0
230
1.0
 70
    11
 71
     3
 72
    44
 73
    40
 74
     0
 42
0.0000000001
 43
0.0000000001
 12
1.0
 22
0.0
 32
0.0
 13
1.0
 23
0.0
 33
0.0
 40
0.0
 40
0.0
 40
0.0
 40
0.0
 40
1.0
 40
1.0
 40
1.0
 40
2.0
 40
2.0
 40
2.0
 40
3.0
 40
3.0
 40
3.0
 40
4.0
 40
4.0
 40
4.0
 40
5.0
 40
5.0
 40
5.0
 40
6.0
 40
6.0
 40
6.0
 40
7.0
 40
7.0
 40
7.0
 40
8.0
 40
8.0
 40
8.0
 40
9.0
 40
9.0
 40
9.0
 40
10.0
 40
10.0
 40
10.0
 40
11.0
 40
11.0
 40
11.0
 40
12.0
 40
12.0
 40
12.0
 40
13.0
 40
13.0
 40
13.0
 40
13.0
 10
104.5000813540833
 20
-149.3204291076352
 30
0.0
 10
104.2823513194155
 20
-149.4792480095052
 30
0.0
 10
104.1893337413138
 20
-149.5533175624381
 30
0.0
 10
104.1404133854232
 20
-149.696978044173
 30
0.0
 10
104.1404133854232
 20
-149.696978044173
 30
0.0
 10
104.9190049650897
 20
-149.696978044173
 30
0.0
 10
104.9190049650897
 20
-149.696978044173
 30
0.0
 10
104.9190049650897
 20
-149.696978044173
 30
0.0
 10
104.9190049650897
 20
-149.9023057350939
 30
0.0
 10
104.9190049650897
 20
-149.9023057350939
 30
0.0
 10
104.9190049650897
 20
-149.9023057350939
 30
0.0
 10
103.8909884722911
 20
-149.9023057350939
 30
0.0
 10
103.8909884722911
 20
-149.9023057350939
 30
0.0
 10
103.9226833507554
 20
-149.5447048237249
 30
0.0
 10
103.9881401649752
 20
-149.4665011562098
 30
0.0
 10
104.3733018402261
 20
-149.1681558871871
 30
0.0
 10
104.6296169443287
 20
-148.9693738776882
 30
0.0
 10
104.6950737585485
 20
-148.9015054966288
 30
0.0
 10
104.6950737585485
 20
-148.7640461867673
 30
0.0
 10
104.6950737585485
 20
-148.6455349020747
 30
0.0
 10
104.6227267533582
 20
-148.5146212736352
 30
0.0
 10
104.426356310699
 20
-148.5146212736352
 30
0.0
 10
104.1659070920141
 20
-148.5146212736352
 30
0.0
 10
104.1576388628495
 20
-148.7450981615985
 30
0.0
 10
104.1535047482672
 20
-148.8615423889999
 30
0.0
 10
104.1535047482672
 20
-148.8615423889999
 30
0.0
 10
103.9288845226289
 20
-148.8615423889999
 30
0.0
 10
103.9288845226289
 20
-148.8615423889999
 30
0.0
 10
103.9378417708905
 20
-148.7344183655942
 30
0.0
 10
103.9481770573463
 20
-148.6224527623235
 30
0.0
 10
104.0287922917011
 20
-148.503941477631
 30
0.0
 10
104.1383463281321
 20
-148.3430555184698
 30
0.0
 10
104.3250705034326
 20
-148.3092935827144
 30
0.0
 10
104.440825711737
 20
-148.3092935827144
 30
0.0
 10
104.7185004078482
 20
-148.3092935827144
 30
0.0
 10
104.9258951560602
 20
-148.4932616816267
 30
0.0
 10
104.9258951560602
 20
-148.7661132440585
 30
0.0
 10
104.9258951560602
 20
-148.9948675842791
 30
0.0
 10
104.8094509286587
 20
-149.0940863342543
 30
0.0
 10
104.5000813540833
 20
-149.3204291076352
 30
0.0
  0
HATCH
  5
C6
330
C1
100
AcDbEntity
  8
_U+30EC_U+30A4_U+30E4_U+30FC 1
 62
     7
420
 16777215
100
AcDbHatch
 10
0.0
 20
0.0
 30
0.0
210
0.0
220
0.0
230
1.0
  2
SOLID
 70
     1
 71
     0
 91
        1
 92
        1
 93
        1
 72
     4
 94
        3
 73
     0
 74
     1
 95
       44
 96
       40
 40
0.0
 40
0.0
 40
0.0
 40
0.0
 40
1.0
 40
1.0
 40
1.0
 40
2.0
 40
2.0
 40
2.0
 40
3.0
 40
3.0
 40
3.0
 40
4.0
 40
4.0
 40
4.0
 40
5.0
 40
5.0
 40
5.0
 40
6.0
 40
6.0
 40
6.0
 40
7.0
 40
7.0
 40
7.0
 40
8.0
 40
8.0
 40
8.0
 40
9.0
 40
9.0
 40
9.0
 40
10.0
 40
10.0
 40
10.0
 40
11.0
 40
11.0
 40
11.0
 40
12.0
 40
12.0
 40
12.0
 40
13.0
 40
13.0
 40
13.0
 40
13.0
 10
104.5000813540833
 20
-149.3204291076352
 10
104.2823513194155
 20
-149.4792480095052
 10
104.1893337413138
 20
-149.5533175624381
 10
104.1404133854232
 20
-149.696978044173
 10
104.1404133854232
 20
-149.696978044173
 10
104.9190049650897
 20
-149.696978044173
 10
104.9190049650897
 20
-149.696978044173
 10
104.9190049650897
 20
-149.696978044173
 10
104.9190049650897
 20
-149.9023057350939
 10
104.9190049650897
 20
-149.9023057350939
 10
104.9190049650897
 20
-149.9023057350939
 10
103.8909884722911
 20
-149.9023057350939
 10
103.8909884722911
 20
-149.9023057350939
 10
103.9226833507554
 20
-149.5447048237249
 10
103.9881401649752
 20
-149.4665011562098
 10
104.3733018402261
 20
-149.1681558871871
 10
104.6296169443287
 20
-148.9693738776882
 10
104.6950737585485
 20
-148.9015054966288
 10
104.6950737585485
 20
-148.7640461867673
 10
104.6950737585485
 20
-148.6455349020747
 10
104.6227267533582
 20
-148.5146212736352
 10
104.426356310699
 20
-148.5146212736352
 10
104.1659070920141
 20
-148.5146212736352
 10
104.1576388628495
 20
-148.7450981615985
 10
104.1535047482672
 20
-148.8615423889999
 10
104.1535047482672
 20
-148.8615423889999
 10
103.9288845226289
 20
-148.8615423889999
 10
103.9288845226289
 20
-148.8615423889999
 10
103.9378417708905
 20
-148.7344183655942
 10
103.9481770573463
 20
-148.6224527623235
 10
104.0287922917011
 20
-148.503941477631
 10
104.1383463281321
 20
-148.3430555184698
 10
104.3250705034326
 20
-148.3092935827144
 10
104.440825711737
 20
-148.3092935827144
 10
104.7185004078482
 20
-148.3092935827144
 10
104.9258951560602
 20
-148.4932616816267
 10
104.9258951560602
 20
-148.7661132440585
 10
104.9258951560602
 20
-148.9948675842791
 10
104.8094509286587
 20
-149.0940863342543
 10
104.5000813540833
 20
-149.3204291076352
 97
        0
 97
        0
 75
     2
 76
     1
 98
        0
  0
SPLINE
  5
C7
330
C1
100
AcDbEntity
  8
_U+30EC_U+30A4_U+30E4_U+30FC 1
370
     0
100
AcDbSpline
210
0.0
220
0.0
230
1.0
 70
    11
 71
     3
 72
    29
 73
    25
 74
     0
 42
0.0000000001
 43
0.0000000001
 12
1.0
 22
0.0
 32
0.0
 13
1.0
 23
0.0
 33
0.0
 40
0.0
 40
0.0
 40
0.0
 40
0.0
 40
1.0
 40
1.0
 40
1.0
 40
2.0
 40
2.0
 40
2.0
 40
3.0
 40
3.0
 40
3.0
 40
4.0
 40
4.0
 40
4.0
 40
5.0
 40
5.0
 40
5.0
 40
6.0
 40
6.0
 40
6.0
 40
7.0
 40
7.0
 40
7.0
 40
8.0
 40
8.0
 40
8.0
 40
8.0
 10
105.9821614318378
 20
-149.724538808055
 30
0.0
 10
105.873985433601
 20
-149.9340006135582
 30
0.0
 10
105.7003526211444
 20
-149.952948638727
 30
0.0
 10
105.5839083937429
 20
-149.952948638727
 30
0.0
 10
105.4233669441303
 20
-149.952948638727
 30
0.0
 10
105.281429010138
 20
-149.9064398496762
 30
0.0
 10
105.1863443747451
 20
-149.724538808055
 30
0.0
 10
105.0829915101876
 20
-149.5298909131384
 30
0.0
 10
105.0636989754702
 20
-149.2928683437532
 30
0.0
 10
105.0636989754702
 20
-149.1302598368494
 30
0.0
 10
105.0636989754702
 20
-148.986254845566
 30
0.0
 10
105.0809244528964
 20
-148.7344183655942
 30
0.0
 10
105.1863443747451
 20
-148.5356363560953
 30
0.0
 10
105.2945203729819
 20
-148.3327202320141
 30
0.0
 10
105.4550618225946
 20
-148.3092935827144
 30
0.0
 10
105.5839083937429
 20
-148.3092935827144
 30
0.0
 10
105.7430718051615
 20
-148.3092935827144
 30
0.0
 10
105.8863877773478
 20
-148.3537353144741
 30
0.0
 10
105.9821614318378
 20
-148.5356363560953
 30
0.0
 10
106.081380181813
 20
-148.7282171937207
 30
0.0
 10
106.1048068311127
 20
-148.9566270243928
 30
0.0
 10
106.1048068311127
 20
-149.1302598368494
 30
0.0
 10
106.1048068311127
 20
-149.3014810824663
 30
0.0
 10
106.0834472391041
 20
-149.5319579704295
 30
0.0
 10
105.9821614318378
 20
-149.724538808055
 30
0.0
  0
SPLINE
  5
C8
330
C1
100
AcDbEntity
  8
_U+30EC_U+30A4_U+30E4_U+30FC 1
370
     0
100
AcDbSpline
210
0.0
220
0.0
230
1.0
 70
    11
 71
     3
 72
    17
 73
    13
 74
     0
 42
0.0000000001
 43
0.0000000001
 12
1.0
 22
0.0
 32
0.0
 13
1.0
 23
0.0
 33
0.0
 40
0.0
 40
0.0
 40
0.0
 40
0.0
 40
1.0
 40
1.0
 40
1.0
 40
2.0
 40
2.0
 40
2.0
 40
3.0
 40
3.0
 40
3.0
 40
4.0
 40
4.0
 40
4.0
 40
4.0
 10
105.5839083937429
 20
-148.5018744203398
 30
0.0
 10
105.3344834806108
 20
-148.5018744203398
 30
0.0
 10
105.2876301820114
 20
-148.7854057787759
 30
0.0
 10
105.2876301820114
 20
-149.1302598368494
 30
0.0
 10
105.2876301820114
 20
-149.449620188332
 30
0.0
 10
105.3241481941551
 20
-149.7583007438104
 30
0.0
 10
105.5839083937429
 20
-149.7583007438104
 30
0.0
 10
105.8319552686809
 20
-149.7583007438104
 30
0.0
 10
105.8801866054744
 20
-149.477180952214
 30
0.0
 10
105.8801866054744
 20
-149.1302598368494
 30
0.0
 10
105.8801866054744
 20
-148.8105549758182
 30
0.0
 10
105.8422905551367
 20
-148.5018744203398
 30
0.0
 10
105.5839083937429
 20
-148.5018744203398
 30
0.0
  0
HATCH
  5
C9
330
C1
100
AcDbEntity
  8
_U+30EC_U+30A4_U+30E4_U+30FC 1
 62
     7
420
 16777215
100
AcDbHatch
 10
0.0
 20
0.0
 30
0.0
210
0.0
220
0.0
230
1.0
  2
SOLID
 70
     1
 71
     0
 91
        2
 92
        1
 93
        1
 72
     4
 94
        3
 73
     0
 74
     1
 95
       29
 96
       25
 40
0.0
 40
0.0
 40
0.0
 40
0.0
 40
1.0
 40
1.0
 40
1.0
 40
2.0
 40
2.0
 40
2.0
 40
3.0
 40
3.0
 40
3.0
 40
4.0
 40
4.0
 40
4.0
 40
5.0
 40
5.0
 40
5.0
 40
6.0
 40
6.0
 40
6.0
 40
7.0
 40
7.0
 40
7.0
 40
8.0
 40
8.0
 40
8.0
 40
8.0
 10
105.9821614318378
 20
-149.724538808055
 10
105.873985433601
 20
-149.9340006135582
 10
105.7003526211444
 20
-149.952948638727
 10
105.5839083937429
 20
-149.952948638727
 10
105.4233669441303
 20
-149.952948638727
 10
105.281429010138
 20
-149.9064398496762
 10
105.1863443747451
 20
-149.724538808055
 10
105.0829915101876
 20
-149.5298909131384
 10
105.0636989754702
 20
-149.2928683437532
 10
105.0636989754702
 20
-149.1302598368494
 10
105.0636989754702
 20
-148.986254845566
 10
105.0809244528964
 20
-148.7344183655942
 10
105.1863443747451
 20
-148.5356363560953
 10
105.2945203729819
 20
-148.3327202320141
 10
105.4550618225946
 20
-148.3092935827144
 10
105.5839083937429
 20
-148.3092935827144
 10
105.7430718051615
 20
-148.3092935827144
 10
105.8863877773478
 20
-148.3537353144741
 10
105.9821614318378
 20
-148.5356363560953
 10
106.081380181813
 20
-148.7282171937207
 10
106.1048068311127
 20
-148.9566270243928
 10
106.1048068311127
 20
-149.1302598368494
 10
106.1048068311127
 20
-149.3014810824663
 10
106.0834472391041
 20
-149.5319579704295
 10
105.9821614318378
 20
-149.724538808055
 97
        0
 97
        0
 92
        1
 93
        1
 72
     4
 94
        3
 73
     0
 74
     1
 95
       17
 96
       13
 40
0.0
 40
0.0
 40
0.0
 40
0.0
 40
1.0
 40
1.0
 40
1.0
 40
2.0
 40
2.0
 40
2.0
 40
3.0
 40
3.0
 40
3.0
 40
4.0
 40
4.0
 40
4.0
 40
4.0
 10
105.5839083937429
 20
-148.5018744203398
 10
105.3344834806108
 20
-148.5018744203398
 10
105.2876301820114
 20
-148.7854057787759
 10
105.2876301820114
 20
-149.1302598368494
 10
105.2876301820114
 20
-149.449620188332
 10
105.3241481941551
 20
-149.7583007438104
 10
105.5839083937429
 20
-149.7583007438104
 10
105.8319552686809
 20
-149.7583007438104
 10
105.8801866054744
 20
-149.477180952214
 10
105.8801866054744
 20
-149.1302598368494
 10
105.8801866054744
 20
-148.8105549758182
 10
105.8422905551367
 20
-148.5018744203398
 10
105.5839083937429
 20
-148.5018744203398
 97
        0
 97
        0
 75
     2
 76
     1
 98
        0
  0
ENDBLK
  5
C4
330
C1
100
AcDbEntity
  8
0
100
AcDbBlockEnd
  0
BLOCK
  5
D8
330
D6
100
AcDbEntity
  8
0
100
AcDbBlockBegin
  2
block 6
 70
     0
 10
0.0
 20
0.0
 30
0.0
  3
block 6
  1

  0
SPLINE
  5
DA
330
D6
100
AcDbEntity
  8
_U+30EC_U+30A4_U+30E4_U+30FC 1
370
     0
100
AcDbSpline
210
0.0
220
0.0
230
1.0
 70
    11
 71
     3
 72
    44
 73
    40
 74
     0
 42
0.0000000001
 43
0.0000000001
 12
1.0
 22
0.0
 32
0.0
 13
1.0
 23
0.0
 33
0.0
 40
0.0
 40
0.0
 40
0.0
 40
0.0
 40
1.0
 40
1.0
 40
1.0
 40
2.0
 40
2.0
 40
2.0
 40
3.0
 40
3.0
 40
3.0
 40
4.0
 40
4.0
 40
4.0
 40
5.0
 40
5.0
 40
5.0
 40
6.0
 40
6.0
 40
6.0
 40
7.0
 40
7.0
 40
7.0
 40
8.0
 40
8.0
 40
8.0
 40
9.0
 40
9.0
 40
9.0
 40
10.0
 40
10.0
 40
10.0
 40
11.0
 40
11.0
 40
11.0
 40
12.0
 40
12.0
 40
12.0
 40
13.0
 40
13.0
 40
13.0
 40
13.0
 10
68.29557289959277
 20
-115.6952636429512
 30
0.0
 10
68.45421954668853
 20
-115.9131659323932
 30
0.0
 10
68.5282890996214
 20
-116.0063557652692
 30
0.0
 10
68.67212183613059
 20
-116.0549316116113
 30
0.0
 10
68.67212183613059
 20
-116.0549316116113
 30
0.0
 10
68.67212183613059
 20
-115.2765122867191
 30
0.0
 10
68.67212183613059
 20
-115.2765122867191
 30
0.0
 10
68.67212183613059
 20
-115.2765122867191
 30
0.0
 10
68.87727727227721
 20
-115.2765122867191
 30
0.0
 10
68.87727727227721
 20
-115.2765122867191
 30
0.0
 10
68.87727727227721
 20
-115.2765122867191
 30
0.0
 10
68.87727727227721
 20
-116.3045287795176
 30
0.0
 10
68.87727727227721
 20
-116.3045287795176
 30
0.0
 10
68.51967636090828
 20
-116.2728339010533
 30
0.0
 10
68.44147269339311
 20
-116.2072048320593
 30
0.0
 10
68.14312742437048
 20
-115.8222154115826
 30
0.0
 10
67.94434541487155
 20
-115.5662448170286
 30
0.0
 10
67.87664928858639
 20
-115.5007880028088
 30
0.0
 10
67.73918997872492
 20
-115.5007880028088
 30
0.0
 10
67.62067869403234
 20
-115.5007880028088
 30
0.0
 10
67.48959281081858
 20
-115.5726182436763
 30
0.0
 10
67.48959281081858
 20
-115.7693331958841
 30
0.0
 10
67.48959281081858
 20
-116.0296101597947
 30
0.0
 10
67.72006969878178
 20
-116.0380506437335
 30
0.0
 10
67.83651392618323
 20
-116.0423570130901
 30
0.0
 10
67.83651392618323
 20
-116.0423570130901
 30
0.0
 10
67.83651392618323
 20
-116.2664604744056
 30
0.0
 10
67.83651392618323
 20
-116.2664604744056
 30
0.0
 10
67.70956215755177
 20
-116.2580199904667
 30
0.0
 10
67.5974242995069
 20
-116.2475124492367
 30
0.0
 10
67.4789130148143
 20
-116.1670694696562
 30
0.0
 10
67.3181993104274
 20
-116.0571709236767
 30
0.0
 10
67.28426511989768
 20
-115.8709635126989
 30
0.0
 10
67.28426511989768
 20
-115.7545192852975
 30
0.0
 10
67.28426511989768
 20
-115.4773613535091
 30
0.0
 10
67.46840547358428
 20
-115.2701388600714
 30
0.0
 10
67.74125703601608
 20
-115.2701388600714
 30
0.0
 10
67.96966686668814
 20
-115.2701388600714
 30
0.0
 10
68.06923012621186
 20
-115.3864108326985
 30
0.0
 10
68.29557289959277
 20
-115.6952636429512
 30
0.0
  0
HATCH
  5
DB
330
D6
100
AcDbEntity
  8
_U+30EC_U+30A4_U+30E4_U+30FC 1
 62
     7
420
 16777215
100
AcDbHatch
 10
0.0
 20
0.0
 30
0.0
210
0.0
220
0.0
230
1.0
  2
SOLID
 70
     1
 71
     0
 91
        1
 92
        1
 93
        1
 72
     4
 94
        3
 73
     0
 74
     1
 95
       44
 96
       40
 40
0.0
 40
0.0
 40
0.0
 40
0.0
 40
1.0
 40
1.0
 40
1.0
 40
2.0
 40
2.0
 40
2.0
 40
3.0
 40
3.0
 40
3.0
 40
4.0
 40
4.0
 40
4.0
 40
5.0
 40
5.0
 40
5.0
 40
6.0
 40
6.0
 40
6.0
 40
7.0
 40
7.0
 40
7.0
 40
8.0
 40
8.0
 40
8.0
 40
9.0
 40
9.0
 40
9.0
 40
10.0
 40
10.0
 40
10.0
 40
11.0
 40
11.0
 40
11.0
 40
12.0
 40
12.0
 40
12.0
 40
13.0
 40
13.0
 40
13.0
 40
13.0
 10
68.29557289959277
 20
-115.6952636429512
 10
68.45421954668853
 20
-115.9131659323932
 10
68.5282890996214
 20
-116.0063557652692
 10
68.67212183613059
 20
-116.0549316116113
 10
68.67212183613059
 20
-116.0549316116113
 10
68.67212183613059
 20
-115.2765122867191
 10
68.67212183613059
 20
-115.2765122867191
 10
68.67212183613059
 20
-115.2765122867191
 10
68.87727727227721
 20
-115.2765122867191
 10
68.87727727227721
 20
-115.2765122867191
 10
68.87727727227721
 20
-115.2765122867191
 10
68.87727727227721
 20
-116.3045287795176
 10
68.87727727227721
 20
-116.3045287795176
 10
68.51967636090828
 20
-116.2728339010533
 10
68.44147269339311
 20
-116.2072048320593
 10
68.14312742437048
 20
-115.8222154115826
 10
67.94434541487155
 20
-115.5662448170286
 10
67.87664928858639
 20
-115.5007880028088
 10
67.73918997872492
 20
-115.5007880028088
 10
67.62067869403234
 20
-115.5007880028088
 10
67.48959281081858
 20
-115.5726182436763
 10
67.48959281081858
 20
-115.7693331958841
 10
67.48959281081858
 20
-116.0296101597947
 10
67.72006969878178
 20
-116.0380506437335
 10
67.83651392618323
 20
-116.0423570130901
 10
67.83651392618323
 20
-116.0423570130901
 10
67.83651392618323
 20
-116.2664604744056
 10
67.83651392618323
 20
-116.2664604744056
 10
67.70956215755177
 20
-116.2580199904667
 10
67.5974242995069
 20
-116.2475124492367
 10
67.4789130148143
 20
-116.1670694696562
 10
67.3181993104274
 20
-116.0571709236767
 10
67.28426511989768
 20
-115.8709635126989
 10
67.28426511989768
 20
-115.7545192852975
 10
67.28426511989768
 20
-115.4773613535091
 10
67.46840547358428
 20
-115.2701388600714
 10
67.74125703601608
 20
-115.2701388600714
 10
67.96966686668814
 20
-115.2701388600714
 10
68.06923012621186
 20
-115.3864108326985
 10
68.29557289959277
 20
-115.6952636429512
 97
        0
 97
        0
 75
     2
 76
     1
 98
        0
  0
SPLINE
  5
DC
330
D6
100
AcDbEntity
  8
_U+30EC_U+30A4_U+30E4_U+30FC 1
370
     0
100
AcDbSpline
210
0.0
220
0.0
230
1.0
 70
    11
 71
     3
 72
    29
 73
    25
 74
     0
 42
0.0000000001
 43
0.0000000001
 12
1.0
 22
0.0
 32
0.0
 13
1.0
 23
0.0
 33
0.0
 40
0.0
 40
0.0
 40
0.0
 40
0.0
 40
1.0
 40
1.0
 40
1.0
 40
2.0
 40
2.0
 40
2.0
 40
3.0
 40
3.0
 40
3.0
 40
4.0
 40
4.0
 40
4.0
 40
5.0
 40
5.0
 40
5.0
 40
6.0
 40
6.0
 40
6.0
 40
7.0
 40
7.0
 40
7.0
 40
8.0
 40
8.0
 40
8.0
 40
8.0
 10
68.69951034523832
 20
-114.2138725842938
 30
0.0
 10
68.9089721507415
 20
-114.3217040729821
 30
0.0
 10
68.92809243068464
 20
-114.4951646306644
 30
0.0
 10
68.92809243068464
 20
-114.6116088580658
 30
0.0
 10
68.92809243068464
 20
-114.7723225624528
 30
0.0
 10
68.88158364163377
 20
-114.9140882416708
 30
0.0
 10
68.69951034523832
 20
-115.0093451318379
 30
0.0
 10
68.50486245032171
 20
-115.1128702511697
 30
0.0
 10
68.26801213571078
 20
-115.1319905311128
 30
0.0
 10
68.10505911925846
 20
-115.1319905311128
 30
0.0
 10
67.96122638274927
 20
-115.1319905311128
 30
0.0
 10
67.70956215755177
 20
-115.1151095632351
 30
0.0
 10
67.5106078932786
 20
-115.0093451318379
 30
0.0
 10
67.30751951442312
 20
-114.9013413883754
 30
0.0
 10
67.28426511989768
 20
-114.7406276839885
 30
0.0
 10
67.28426511989768
 20
-114.6116088580658
 30
0.0
 10
67.28426511989768
 20
-114.4529622109701
 30
0.0
 10
67.32870685165742
 20
-114.3091294744609
 30
0.0
 10
67.5106078932786
 20
-114.2138725842938
 30
0.0
 10
67.70318873090407
 20
-114.1144815795443
 30
0.0
 10
67.93159856157614
 20
-114.0912271850189
 30
0.0
 10
68.10505911925846
 20
-114.0912271850189
 30
0.0
 10
68.27645261964965
 20
-114.0912271850189
 30
0.0
 10
68.50710176238712
 20
-114.1122422674789
 30
0.0
 10
68.69951034523832
 20
-114.2138725842938
 30
0.0
  0
SPLINE
  5
DD
330
D6
100
AcDbEntity
  8
_U+30EC_U+30A4_U+30E4_U+30FC 1
370
     0
100
AcDbSpline
210
0.0
220
0.0
230
1.0
 70
    11
 71
     3
 72
    17
 73
    13
 74
     0
 42
0.0000000001
 43
0.0000000001
 12
1.0
 22
0.0
 32
0.0
 13
1.0
 23
0.0
 33
0.0
 40
0.0
 40
0.0
 40
0.0
 40
0.0
 40
1.0
 40
1.0
 40
1.0
 40
2.0
 40
2.0
 40
2.0
 40
3.0
 40
3.0
 40
3.0
 40
4.0
 40
4.0
 40
4.0
 40
4.0
 10
67.47684595752315
 20
-114.6116088580658
 30
0.0
 10
67.47684595752315
 20
-114.8612060259722
 30
0.0
 10
67.76037731595922
 20
-114.9077148150231
 30
0.0
 10
68.10505911925846
 20
-114.9077148150231
 30
0.0
 10
68.42459172551538
 20
-114.9077148150231
 30
0.0
 10
68.73344453576803
 20
-114.8717135672022
 30
0.0
 10
68.73344453576803
 20
-114.6116088580658
 30
0.0
 10
68.73344453576803
 20
-114.3640787474506
 30
0.0
 10
68.45198023462312
 20
-114.3153306463344
 30
0.0
 10
68.10505911925846
 20
-114.3153306463344
 30
0.0
 10
67.7856987677758
 20
-114.3153306463344
 30
0.0
 10
67.47684595752315
 20
-114.3533989514464
 30
0.0
 10
67.47684595752315
 20
-114.6116088580658
 30
0.0
  0
HATCH
  5
DE
330
D6
100
AcDbEntity
  8
_U+30EC_U+30A4_U+30E4_U+30FC 1
 62
     7
420
 16777215
100
AcDbHatch
 10
0.0
 20
0.0
 30
0.0
210
0.0
220
0.0
230
1.0
  2
SOLID
 70
     1
 71
     0
 91
        2
 92
        1
 93
        1
 72
     4
 94
        3
 73
     0
 74
     1
 95
       29
 96
       25
 40
0.0
 40
0.0
 40
0.0
 40
0.0
 40
1.0
 40
1.0
 40
1.0
 40
2.0
 40
2.0
 40
2.0
 40
3.0
 40
3.0
 40
3.0
 40
4.0
 40
4.0
 40
4.0
 40
5.0
 40
5.0
 40
5.0
 40
6.0
 40
6.0
 40
6.0
 40
7.0
 40
7.0
 40
7.0
 40
8.0
 40
8.0
 40
8.0
 40
8.0
 10
68.69951034523832
 20
-114.2138725842938
 10
68.9089721507415
 20
-114.3217040729821
 10
68.92809243068464
 20
-114.4951646306644
 10
68.92809243068464
 20
-114.6116088580658
 10
68.92809243068464
 20
-114.7723225624528
 10
68.88158364163377
 20
-114.9140882416708
 10
68.69951034523832
 20
-115.0093451318379
 10
68.50486245032171
 20
-115.1128702511697
 10
68.26801213571078
 20
-115.1319905311128
 10
68.10505911925846
 20
-115.1319905311128
 10
67.96122638274927
 20
-115.1319905311128
 10
67.70956215755177
 20
-115.1151095632351
 10
67.5106078932786
 20
-115.0093451318379
 10
67.30751951442312
 20
-114.9013413883754
 10
67.28426511989768
 20
-114.7406276839885
 10
67.28426511989768
 20
-114.6116088580658
 10
67.28426511989768
 20
-114.4529622109701
 10
67.32870685165742
 20
-114.3091294744609
 10
67.5106078932786
 20
-114.2138725842938
 10
67.70318873090407
 20
-114.1144815795443
 10
67.93159856157614
 20
-114.0912271850189
 10
68.10505911925846
 20
-114.0912271850189
 10
68.27645261964965
 20
-114.0912271850189
 10
68.50710176238712
 20
-114.1122422674789
 10
68.69951034523832
 20
-114.2138725842938
 97
        0
 97
        0
 92
        1
 93
        1
 72
     4
 94
        3
 73
     0
 74
     1
 95
       17
 96
       13
 40
0.0
 40
0.0
 40
0.0
 40
0.0
 40
1.0
 40
1.0
 40
1.0
 40
2.0
 40
2.0
 40
2.0
 40
3.0
 40
3.0
 40
3.0
 40
4.0
 40
4.0
 40
4.0
 40
4.0
 10
67.47684595752315
 20
-114.6116088580658
 10
67.47684595752315
 20
-114.8612060259722
 10
67.76037731595922
 20
-114.9077148150231
 10
68.10505911925846
 20
-114.9077148150231
 10
68.42459172551538
 20
-114.9077148150231
 10
68.73344453576803
 20
-114.8717135672022
 10
68.73344453576803
 20
-114.6116088580658
 10
68.73344453576803
 20
-114.3640787474506
 10
68.45198023462312
 20
-114.3153306463344
 10
68.10505911925846
 20
-114.3153306463344
 10
67.7856987677758
 20
-114.3153306463344
 10
67.47684595752315
 20
-114.3533989514464
 10
67.47684595752315
 20
-114.6116088580658
 97
        0
 97
        0
 75
     2
 76
     1
 98
        0
  0
ENDBLK
  5
D9
330
D6
100
AcDbEntity
  8
0
100
AcDbBlockEnd
  0
ENDSEC
  0
SECTION
  2
ENTITIES
  0
POLYLINE
  5
41
330
1F
100
AcDbEntity
  8
_U+30EC_U+30A4_U+30E4_U+30FC 1
  6
AI-Linetype-1
 62
   154
420
    23468
370
    25
100
AcDb2dPolyline
 66
     1
 10
0.0
 20
0.0
 30
0.0
  0
VERTEX
  5
42
330
41
100
AcDbEntity
  8
_U+30EC_U+30A4_U+30E4_U+30FC 1
  6
AI-Linetype-1
 62
   154
420
    23468
370
    25
100
AcDbVertex
100
AcDb2dVertex
 10
75.29187752358862
 20
-105.1246733070523
 30
0.0
  0
VERTEX
  5
43
330
41
100
AcDbEntity
  8
_U+30EC_U+30A4_U+30E4_U+30FC 1
  6
AI-Linetype-1
 62
   154
420
    23468
370
    25
100
AcDbVertex
100
AcDb2dVertex
 10
75.29187752358862
 20
-115.1244063601079
 30
0.0
  0
SEQEND
  5
45
330
41
100
AcDbEntity
  8
_U+30EC_U+30A4_U+30E4_U+30FC 1
  6
AI-Linetype-1
 62
   154
420
    23468
370
    25
  0
POLYLINE
  5
46
330
1F
100
AcDbEntity
  8
_U+30EC_U+30A4_U+30E4_U+30FC 1
  6
AI-Linetype-2
 62
   154
420
    23468
370
    25
100
AcDb2dPolyline
 66
     1
 10
0.0
 20
0.0
 30
0.0
  0
VERTEX
  5
47
330
46
100
AcDbEntity
  8
_U+30EC_U+30A4_U+30E4_U+30FC 1
  6
AI-Linetype-2
 62
   154
420
    23468
370
    25
100
AcDbVertex
100
AcDb2dVertex
 10
105.1725805292626
 20
-144.9606574637597
 30
0.0
  0
VERTEX
  5
48
330
46
100
AcDbEntity
  8
_U+30EC_U+30A4_U+30E4_U+30FC 1
  6
AI-Linetype-2
 62
   154
420
    23468
370
    25
100
AcDbVertex
100
AcDb2dVertex
 10
115.1723106728207
 20
-144.9606574637597
 30
0.0
  0
SEQEND
  5
4A
330
46
100
AcDbEntity
  8
_U+30EC_U+30A4_U+30E4_U+30FC 1
  6
AI-Linetype-2
 62
   154
420
    23468
370
    25
  0
POLYLINE
  5
4B
330
1F
100
AcDbEntity
  8
_U+30EC_U+30A4_U+30E4_U+30FC 1
 62
     7
420
 16777215
370
     9
100
AcDb2dPolyline
 66
     1
 10
0.0
 20
0.0
 30
0.0
  0
VERTEX
  5
4C
330
4B
100
AcDbEntity
  8
_U+30EC_U+30A4_U+30E4_U+30FC 1
 62
     7
420
 16777215
370
     9
100
AcDbVertex
100
AcDb2dVertex
 10
75.7328497345607
 20
-112.9285058051011
 30
0.0
  0
VERTEX
  5
4D
330
4B
100
AcDbEntity
  8
_U+30EC_U+30A4_U+30E4_U+30FC 1
 62
     7
420
 16777215
370
     9
100
AcDbVertex
100
AcDb2dVertex
 10
94.44040786840225
 20
-112.9285058051011
 30
0.0
  0
SEQEND
  5
4E
330
4B
100
AcDbEntity
  8
_U+30EC_U+30A4_U+30E4_U+30FC 1
 62
     7
420
 16777215
370
     9
  0
POLYLINE
  5
4F
330
1F
100
AcDbEntity
  8
_U+30EC_U+30A4_U+30E4_U+30FC 1
 62
     7
420
 16777215
370
     9
100
AcDb2dPolyline
 66
     1
 10
0.0
 20
0.0
 30
0.0
  0
VERTEX
  5
50
330
4F
100
AcDbEntity
  8
_U+30EC_U+30A4_U+30E4_U+30FC 1
 62
     7
420
 16777215
370
     9
100
AcDbVertex
100
AcDb2dVertex
 10
75.7328497345607
 20
-112.9285058051011
 30
0.0
  0
VERTEX
  5
51
330
4F
100
AcDbEntity
  8
_U+30EC_U+30A4_U+30E4_U+30FC 1
 62
     7
420
 16777215
370
     9
100
AcDbVertex
100
AcDb2dVertex
 10
76.69886109880458
 20
-112.6697785829436
 30
0.0
  0
SEQEND
  5
52
330
4F
100
AcDbEntity
  8
_U+30EC_U+30A4_U+30E4_U+30FC 1
 62
     7
420
 16777215
370
     9
  0
POLYLINE
  5
53
330
1F
100
AcDbEntity
  8
_U+30EC_U+30A4_U+30E4_U+30FC 1
 62
     7
420
 16777215
370
     9
100
AcDb2dPolyline
 66
     1
 10
0.0
 20
0.0
 30
0.0
  0
VERTEX
  5
54
330
53
100
AcDbEntity
  8
_U+30EC_U+30A4_U+30E4_U+30FC 1
 62
     7
420
 16777215
370
     9
100
AcDbVertex
100
AcDb2dVertex
 10
75.7328497345607
 20
-112.9285058051011
 30
0.0
  0
VERTEX
  5
55
330
53
100
AcDbEntity
  8
_U+30EC_U+30A4_U+30E4_U+30FC 1
 62
     7
420
 16777215
370
     9
100
AcDbVertex
100
AcDb2dVertex
 10
76.69886109880458
 20
-113.1875858050365
 30
0.0
  0
SEQEND
  5
56
330
53
100
AcDbEntity
  8
_U+30EC_U+30A4_U+30E4_U+30FC 1
 62
     7
420
 16777215
370
     9
  0
POLYLINE
  5
57
330
1F
100
AcDbEntity
  8
_U+30EC_U+30A4_U+30E4_U+30FC 1
 62
     7
420
 16777215
370
     9
100
AcDb2dPolyline
 66
     1
 10
0.0
 20
0.0
 30
0.0
  0
VERTEX
  5
58
330
57
100
AcDbEntity
  8
_U+30EC_U+30A4_U+30E4_U+30FC 1
 62
     7
420
 16777215
370
     9
100
AcDbVertex
100
AcDb2dVertex
 10
107.092853101167
 20
-143.8134594084912
 30
0.0
  0
VERTEX
  5
59
330
57
100
AcDbEntity
  8
_U+30EC_U+30A4_U+30E4_U+30FC 1
 62
     7
420
 16777215
370
     9
100
AcDbVertex
100
AcDb2dVertex
 10
107.3519330945574
 20
-142.8474480198435
 30
0.0
  0
SEQEND
  5
5A
330
57
100
AcDbEntity
  8
_U+30EC_U+30A4_U+30E4_U+30FC 1
 62
     7
420
 16777215
370
     9
  0
POLYLINE
  5
5B
330
1F
100
AcDbEntity
  8
_U+30EC_U+30A4_U+30E4_U+30FC 1
 62
     7
420
 16777215
370
     9
100
AcDb2dPolyline
 66
     1
 10
0.0
 20
0.0
 30
0.0
  0
VERTEX
  5
5C
330
5B
100
AcDbEntity
  8
_U+30EC_U+30A4_U+30E4_U+30FC 1
 62
     7
420
 16777215
370
     9
100
AcDbVertex
100
AcDb2dVertex
 10
107.092853101167
 20
-143.8134594084912
 30
0.0
  0
VERTEX
  5
5D
330
5B
100
AcDbEntity
  8
_U+30EC_U+30A4_U+30E4_U+30FC 1
 62
     7
420
 16777215
370
     9
100
AcDbVertex
100
AcDb2dVertex
 10
107.092853101167
 20
-114.6875616379949
 30
0.0
  0
SEQEND
  5
5E
330
5B
100
AcDbEntity
  8
_U+30EC_U+30A4_U+30E4_U+30FC 1
 62
     7
420
 16777215
370
     9
  0
POLYLINE
  5
5F
330
1F
100
AcDbEntity
  8
_U+30EC_U+30A4_U+30E4_U+30FC 1
 62
     7
420
 16777215
370
     9
100
AcDb2dPolyline
 66
     1
 10
0.0
 20
0.0
 30
0.0
  0
VERTEX
  5
60
330
5F
100
AcDbEntity
  8
_U+30EC_U+30A4_U+30E4_U+30FC 1
 62
     7
420
 16777215
370
     9
100
AcDbVertex
100
AcDb2dVertex
 10
107.092853101167
 20
-143.8134594084912
 30
0.0
  0
VERTEX
  5
61
330
5F
100
AcDbEntity
  8
_U+30EC_U+30A4_U+30E4_U+30FC 1
 62
     7
420
 16777215
370
     9
100
AcDbVertex
100
AcDb2dVertex
 10
106.8337731077767
 20
-142.8474480198435
 30
0.0
  0
SEQEND
  5
62
330
5F
100
AcDbEntity
  8
_U+30EC_U+30A4_U+30E4_U+30FC 1
 62
     7
420
 16777215
370
     9
  0
INSERT
  5
64
330
1F
100
AcDbEntity
  8
_U+30EC_U+30A4_U+30E4_U+30FC 1
100
AcDbBlockReference
  2
block 2
 10
0.0
 20
0.0
 30
0.0
  0
INSERT
  5
8C
330
1F
100
AcDbEntity
  8
_U+30EC_U+30A4_U+30E4_U+30FC 1
100
AcDbBlockReference
  2
block 3
 10
0.0
 20
0.0
 30
0.0
  0
ENDSEC
  0
SECTION
  2
OBJECTS
  0
DICTIONARY
  5
C
330
0
100
AcDbDictionary
281
     1
  3
ACAD_GROUP
350
D
  3
ACAD_LAYOUT
350
1A
  3
ACAD_MATERIAL
350
3B
  3
ACAD_MLEADERSTYLE
350
E0
  3
ACAD_MLINESTYLE
350
17
  3
ACAD_PLOTSETTINGS
350
19
  3
ACAD_PLOTSTYLENAME
350
E
  3
ACAD_TABLESTYLE
350
DF
  3
ACAD_VISUALSTYLE
350
2A
  0
SUN
  5
3F
330
29
100
AcDbSun
 90
        1
290
     0
 63
     7
421
 16777215
 40
1.0
291
     1
 91
  2455826
 92
 54000000
292
     0
 70
     2
 71
   256
280
     1
  0
DICTIONARY
  5
D
102
{ACAD_REACTORS
330
C
102
}
330
C
100
AcDbDictionary
281
     1
  0
DICTIONARY
  5
1A
102
{ACAD_REACTORS
330
C
102
}
330
C
100
AcDbDictionary
281
     1
  3
Layout1
350
1E
  3
Layout2
350
26
  3
Model
350
22
  0
DICTIONARY
  5
3B
102
{ACAD_REACTORS
330
C
102
}
330
C
100
AcDbDictionary
281
     1
  3
ByBlock
350
3D
  3
ByLayer
350
3C
  3
Global
350
3E
  0
DICTIONARY
  5
E0
102
{ACAD_REACTORS
330
C
102
}
330
C
100
AcDbDictionary
281
     1
  0
DICTIONARY
  5
17
102
{ACAD_REACTORS
330
C
102
}
330
C
100
AcDbDictionary
281
     1
  3
Standard
350
18
  0
DICTIONARY
  5
19
102
{ACAD_REACTORS
330
C
102
}
330
C
100
AcDbDictionary
281
     1
  0
ACDBDICTIONARYWDFLT
  5
E
102
{ACAD_REACTORS
330
C
102
}
330
C
100
AcDbDictionary
281
     1
  3
Normal
350
F
100
AcDbDictionaryWithDefault
340
F
  0
DICTIONARY
  5
DF
102
{ACAD_REACTORS
330
C
102
}
330
C
100
AcDbDictionary
281
     1
  0
DICTIONARY
  5
2A
102
{ACAD_REACTORS
330
C
102
}
330
C
100
AcDbDictionary
281
     1
  3
2dWireframe
350
2F
  3
3D Hidden
350
31
  3
3dWireframe
350
30
  3
Basic
350
32
  3
Brighten
350
36
  3
ColorChange
350
3A
  3
Conceptual
350
34
  3
Dim
350
35
  3
Facepattern
350
39
  3
Flat
350
2B
  3
FlatWithEdges
350
2C
  3
Gouraud
350
2D
  3
GouraudWithEdges
350
2E
  3
Linepattern
350
38
  3
Realistic
350
33
  3
Thicken
350
37
  0
LAYOUT
  5
1E
102
{ACAD_REACTORS
330
1A
102
}
330
1A
100
AcDbPlotSettings
  1

  2
none_device
  4

  6

 40
0.0
 41
0.0
 42
0.0
 43
0.0
 44
0.0
 45
0.0
 46
0.0
 47
0.0
 48
0.0
 49
0.0
140
0.0
141
0.0
142
1.0
143
1.0
 70
   688
 72
     0
 73
     0
 74
     5
  7

 75
    16
 76
     0
 77
     2
 78
   300
147
1.0
148
0.0
149
0.0
100
AcDbLayout
  1
Layout1
 70
     1
 71
     1
 10
0.0
 20
0.0
 11
12.0
 21
9.0
 12
0.0
 22
0.0
 32
0.0
 14
1.000000000000000E+20
 24
1.000000000000000E+20
 34
1.000000000000000E+20
 15
-1.000000000000000E+20
 25
-1.000000000000000E+20
 35
-1.000000000000000E+20
146
0.0
 13
0.0
 23
0.0
 33
0.0
 16
1.0
 26
0.0
 36
0.0
 17
0.0
 27
1.0
 37
0.0
 76
     0
330
1B
  0
LAYOUT
  5
26
102
{ACAD_REACTORS
330
1A
102
}
330
1A
100
AcDbPlotSettings
  1

  2
none_device
  4

  6

 40
0.0
 41
0.0
 42
0.0
 43
0.0
 44
0.0
 45
0.0
 46
0.0
 47
0.0
 48
0.0
 49
0.0
140
0.0
141
0.0
142
1.0
143
1.0
 70
   688
 72
     0
 73
     0
 74
     5
  7

 75
    16
 76
     0
 77
     2
 78
   300
147
1.0
148
0.0
149
0.0
100
AcDbLayout
  1
Layout2
 70
     1
 71
     2
 10
0.0
 20
0.0
 11
0.0
 21
0.0
 12
0.0
 22
0.0
 32
0.0
 14
0.0
 24
0.0
 34
0.0
 15
0.0
 25
0.0
 35
0.0
146
0.0
 13
0.0
 23
0.0
 33
0.0
 16
1.0
 26
0.0
 36
0.0
 17
0.0
 27
1.0
 37
0.0
 76
     0
330
23
  0
LAYOUT
  5
22
102
{ACAD_REACTORS
330
1A
102
}
330
1A
100
AcDbPlotSettings
  1

  2
none_device
  4

  6

 40
0.0
 41
0.0
 42
0.0
 43
0.0
 44
0.0
 45
0.0
 46
0.0
 47
0.0
 48
0.0
 49
0.0
140
0.0
141
0.0
142
1.0
143
1.0
 70
  1712
 72
     0
 73
     0
 74
     0
  7

 75
     0
 76
     0
 77
     2
 78
   300
147
1.0
148
0.0
149
0.0
100
AcDbLayout
  1
Model
 70
     1
 71
     0
 10
0.0
 20
0.0
 11
12.0
 21
9.0
 12
0.0
 22
0.0
 32
0.0
 14
1.000000000000000E+20
 24
1.000000000000000E+20
 34
1.000000000000000E+20
 15
-1.000000000000000E+20
 25
-1.000000000000000E+20
 35
-1.000000000000000E+20
146
0.0
 13
0.0
 23
0.0
 33
0.0
 16
1.0
 26
0.0
 36
0.0
 17
0.0
 27
1.0
 37
0.0
 76
     0
330
1F
331
29
  0
MATERIAL
  5
3D
102
{ACAD_REACTORS
330
3B
102
}
330
3B
100
AcDbMaterial
  1
ByBlock
 72
     1
 94
      127
  0
MATERIAL
  5
3C
102
{ACAD_REACTORS
330
3B
102
}
330
3B
100
AcDbMaterial
  1
ByLayer
 72
     1
 94
      127
  0
MATERIAL
  5
3E
102
{ACAD_REACTORS
330
3B
102
}
330
3B
100
AcDbMaterial
  1
Global
 72
     1
 94
      127
  0
MLINESTYLE
  5
18
102
{ACAD_REACTORS
330
17
102
}
330
17
100
AcDbMlineStyle
  2
Standard
 70
     0
  3

 62
   256
 51
90.0
 52
90.0
 71
     2
 49
0.5
 62
   256
  6
BYLAYER
 49
-0.5
 62
   256
  6
BYLAYER
  0
ACDBPLACEHOLDER
  5
F
102
{ACAD_REACTORS
330
E
102
}
330
E
  0
VISUALSTYLE
  5
2F
102
{ACAD_REACTORS
330
2A
102
}
330
2A
100
AcDbVisualStyle
  2
2dWireframe
 70
     4
177
     2
291
     0
 71
     0
176
     1
 72
     2
176
     1
 73
     0
176
     1
 90
        0
176
     1
 40
-0.6
176
     1
 41
-30.0
176
     1
 62
     5
 63
     7
421
 16777215
176
     1
 74
     1
176
     1
 91
        4
176
     1
 64
     7
176
     1
 65
   257
176
     1
 75
     1
176
     1
175
     1
176
     1
 42
1.0
176
     1
 92
        0
176
     1
 66
   257
176
     1
 43
1.0
176
     1
 76
     1
176
     1
 77
     6
176
     1
 78
     2
176
     1
 67
     7
176
     1
 79
     5
176
     1
170
     0
176
     1
171
     0
176
     1
290
     0
176
     1
 93
        1
176
     1
 44
0.0
176
     1
173
     0
176
     1
  0
VISUALSTYLE
  5
31
102
{ACAD_REACTORS
330
2A
102
}
330
2A
100
AcDbVisualStyle
  2
3D Hidden
 70
     6
177
     2
291
     0
 71
     1
176
     1
 72
     2
176
     1
 73
     2
176
     1
 90
        0
176
     1
 40
-0.6
176
     1
 41
-30.0
176
     1
 62
     5
 63
     7
421
 16777215
176
     1
 74
     2
176
     1
 91
        2
176
     1
 64
     7
176
     1
 65
   257
176
     1
 75
     2
176
     1
175
     1
176
     1
 42
40.0
176
     1
 92
        0
176
     1
 66
   257
176
     1
 43
1.0
176
     1
 76
     1
176
     1
 77
     6
176
     1
 78
     2
176
     1
 67
     7
176
     1
 79
     3
176
     1
170
     0
176
     1
171
     0
176
     1
290
     0
176
     1
 93
        1
176
     1
 44
0.0
176
     1
173
     0
176
     1
  0
VISUALSTYLE
  5
30
102
{ACAD_REACTORS
330
2A
102
}
330
2A
100
AcDbVisualStyle
  2
3dWireframe
 70
     5
177
     2
291
     0
 71
     0
176
     1
 72
     2
176
     1
 73
     0
176
     1
 90
        0
176
     1
 40
-0.6
176
     1
 41
-30.0
176
     1
 62
     5
 63
     7
421
 16777215
176
     1
 74
     1
176
     1
 91
        4
176
     1
 64
     7
176
     1
 65
   257
176
     1
 75
     1
176
     1
175
     1
176
     1
 42
1.0
176
     1
 92
        0
176
     1
 66
   257
176
     1
 43
1.0
176
     1
 76
     1
176
     1
 77
     6
176
     1
 78
     2
176
     1
 67
     7
176
     1
 79
     5
176
     1
170
     0
176
     1
171
     0
176
     1
290
     0
176
     1
 93
        1
176
     1
 44
0.0
176
     1
173
     0
176
     1
  0
VISUALSTYLE
  5
32
102
{ACAD_REACTORS
330
2A
102
}
330
2A
100
AcDbVisualStyle
  2
Basic
 70
     7
177
     2
291
     1
 71
     1
176
     1
 72
     0
176
     1
 73
     1
176
     1
 90
        0
176
     1
 40
-0.6
176
     1
 41
-30.0
176
     1
 62
     5
 63
     7
421
 16777215
176
     1
 74
     0
176
     1
 91
        4
176
     1
 64
     7
176
     1
 65
   257
176
     1
 75
     1
176
     1
175
     1
176
     1
 42
1.0
176
     1
 92
        8
176
     1
 66
     7
176
     1
 43
1.0
176
     1
 76
     1
176
     1
 77
     6
176
     1
 78
     2
176
     1
 67
     7
176
     1
 79
     5
176
     1
170
     0
176
     1
171
     0
176
     1
290
     0
176
     1
 93
        1
176
     1
 44
0.0
176
     1
173
     0
176
     1
  0
VISUALSTYLE
  5
36
102
{ACAD_REACTORS
330
2A
102
}
330
2A
100
AcDbVisualStyle
  2
Brighten
 70
    12
177
     2
291
     1
 71
     2
176
     1
 72
     2
176
     1
 73
     0
176
     1
 90
        0
176
     1
 40
-0.6
176
     1
 41
-30.0
176
     1
 62
     5
 63
     7
421
 16777215
176
     1
 74
     1
176
     1
 91
        4
176
     1
 64
     7
176
     1
 65
   257
176
     1
 75
     1
176
     1
175
     1
176
     1
 42
1.0
176
     1
 92
        8
176
     1
 66
     7
176
     1
 43
1.0
176
     1
 76
     1
176
     1
 77
     6
176
     1
 78
     2
176
     1
 67
     7
176
     1
 79
     5
176
     1
170
     0
176
     1
171
     0
176
     1
290
     0
176
     1
 93
        1
176
     1
 44
50.0
176
     1
173
     0
176
     1
  0
VISUALSTYLE
  5
3A
102
{ACAD_REACTORS
330
2A
102
}
330
2A
100
AcDbVisualStyle
  2
ColorChange
 70
    16
177
     2
291
     1
 71
     2
176
     1
 72
     2
176
     1
 73
     3
176
     1
 90
        0
176
     1
 40
-0.6
176
     1
 41
-30.0
176
     1
 62
     5
 63
     8
421
  8421504
176
     1
 74
     1
176
     1
 91
        4
176
     1
 64
     7
176
     1
 65
   257
176
     1
 75
     1
176
     1
175
     1
176
     1
 42
1.0
176
     1
 92
        8
176
     1
 66
     8
424
  8421504
176
     1
 43
1.0
176
     1
 76
     1
176
     1
 77
     6
176
     1
 78
     2
176
     1
 67
     7
176
     1
 79
     5
176
     1
170
     0
176
     1
171
     0
176
     1
290
     0
176
     1
 93
        1
176
     1
 44
0.0
176
     1
173
     0
176
     1
  0
VISUALSTYLE
  5
34
102
{ACAD_REACTORS
330
2A
102
}
330
2A
100
AcDbVisualStyle
  2
Conceptual
 70
     9
177
     2
291
     0
 71
     3
176
     1
 72
     2
176
     1
 73
     0
176
     1
 90
        0
176
     1
 40
-0.6
176
     1
 41
-30.0
176
     1
 62
     5
 63
     7
421
 16777215
176
     1
 74
     2
176
     1
 91
        2
176
     1
 64
     7
176
     1
 65
   257
176
     1
 75
     1
176
     1
175
     1
176
     1
 42
40.0
176
     1
 92
        8
176
     1
 66
     7
176
     1
 43
1.0
176
     1
 76
     1
176
     1
 77
     6
176
     1
 78
     2
176
     1
 67
     7
176
     1
 79
     3
176
     1
170
     0
176
     1
171
     0
176
     1
290
     0
176
     1
 93
        1
176
     1
 44
0.0
176
     1
173
     0
176
     1
  0
VISUALSTYLE
  5
35
102
{ACAD_REACTORS
330
2A
102
}
330
2A
100
AcDbVisualStyle
  2
Dim
 70
    11
177
     2
291
     1
 71
     2
176
     1
 72
     2
176
     1
 73
     0
176
     1
 90
        0
176
     1
 40
-0.6
176
     1
 41
-30.0
176
     1
 62
     5
 63
     7
421
 16777215
176
     1
 74
     1
176
     1
 91
        4
176
     1
 64
     7
176
     1
 65
   257
176
     1
 75
     1
176
     1
175
     1
176
     1
 42
1.0
176
     1
 92
        8
176
     1
 66
     7
176
     1
 43
1.0
176
     1
 76
     1
176
     1
 77
     6
176
     1
 78
     2
176
     1
 67
     7
176
     1
 79
     5
176
     1
170
     0
176
     1
171
     0
176
     1
290
     0
176
     1
 93
        1
176
     1
 44
-50.0
176
     1
173
     0
176
     1
  0
VISUALSTYLE
  5
39
102
{ACAD_REACTORS
330
2A
102
}
330
2A
100
AcDbVisualStyle
  2
Facepattern
 70
    15
177
     2
291
     1
 71
     2
176
     1
 72
     2
176
     1
 73
     0
176
     1
 90
        0
176
     1
 40
-0.6
176
     1
 41
-30.0
176
     1
 62
     5
 63
     7
421
 16777215
176
     1
 74
     1
176
     1
 91
        4
176
     1
 64
     7
176
     1
 65
   257
176
     1
 75
     1
176
     1
175
     1
176
     1
 42
1.0
176
     1
 92
        8
176
     1
 66
     7
176
     1
 43
1.0
176
     1
 76
     1
176
     1
 77
     6
176
     1
 78
     2
176
     1
 67
     7
176
     1
 79
     5
176
     1
170
     0
176
     1
171
     0
176
     1
290
     0
176
     1
 93
        1
176
     1
 44
0.0
176
     1
173
     0
176
     1
  0
VISUALSTYLE
  5
2B
102
{ACAD_REACTORS
330
2A
102
}
330
2A
100
AcDbVisualStyle
  2
Flat
 70
     0
177
     2
291
     1
 71
     2
176
     1
 72
     1
176
     1
 73
     1
176
     1
 90
        2
176
     1
 40
-0.6
176
     1
 41
30.0
176
     1
 62
     5
 63
     7
421
 16777215
176
     1
 74
     0
176
     1
 91
        4
176
     1
 64
     7
176
     1
 65
   257
176
     1
 75
     1
176
     1
175
     1
176
     1
 42
1.0
176
     1
 92
        8
176
     1
 66
     7
176
     1
 43
1.0
176
     1
 76
     1
176
     1
 77
     6
176
     1
 78
     2
176
     1
 67
     7
176
     1
 79
     5
176
     1
170
     0
176
     1
171
     0
176
     1
290
     0
176
     1
 93
       13
176
     1
 44
0.0
176
     1
173
     0
176
     1
  0
VISUALSTYLE
  5
2C
102
{ACAD_REACTORS
330
2A
102
}
330
2A
100
AcDbVisualStyle
  2
FlatWithEdges
 70
     1
177
     2
291
     1
 71
     2
176
     1
 72
     1
176
     1
 73
     1
176
     1
 90
        2
176
     1
 40
-0.6
176
     1
 41
30.0
176
     1
 62
     5
 63
     7
421
 16777215
176
     1
 74
     1
176
     1
 91
        4
176
     1
 64
     7
176
     1
 65
   257
176
     1
 75
     1
176
     1
175
     1
176
     1
 42
1.0
176
     1
 92
        0
176
     1
 66
   257
176
     1
 43
1.0
176
     1
 76
     1
176
     1
 77
     6
176
     1
 78
     2
176
     1
 67
     7
176
     1
 79
     5
176
     1
170
     0
176
     1
171
     0
176
     1
290
     0
176
     1
 93
       13
176
     1
 44
0.0
176
     1
173
     0
176
     1
  0
VISUALSTYLE
  5
2D
102
{ACAD_REACTORS
330
2A
102
}
330
2A
100
AcDbVisualStyle
  2
Gouraud
 70
     2
177
     2
291
     1
 71
     2
176
     1
 72
     2
176
     1
 73
     1
176
     1
 90
        2
176
     1
 40
-0.6
176
     1
 41
30.0
176
     1
 62
     5
 63
     7
421
 16777215
176
     1
 74
     0
176
     1
 91
        4
176
     1
 64
     7
176
     1
 65
   257
176
     1
 75
     1
176
     1
175
     1
176
     1
 42
1.0
176
     1
 92
        0
176
     1
 66
     7
176
     1
 43
1.0
176
     1
 76
     1
176
     1
 77
     6
176
     1
 78
     2
176
     1
 67
     7
176
     1
 79
     5
176
     1
170
     0
176
     1
171
     0
176
     1
290
     0
176
     1
 93
       13
176
     1
 44
0.0
176
     1
173
     0
176
     1
  0
VISUALSTYLE
  5
2E
102
{ACAD_REACTORS
330
2A
102
}
330
2A
100
AcDbVisualStyle
  2
GouraudWithEdges
 70
     3
177
     2
291
     1
 71
     2
176
     1
 72
     2
176
     1
 73
     1
176
     1
 90
        2
176
     1
 40
-0.6
176
     1
 41
30.0
176
     1
 62
     5
 63
     7
421
 16777215
176
     1
 74
     1
176
     1
 91
        4
176
     1
 64
     7
176
     1
 65
   257
176
     1
 75
     1
176
     1
175
     1
176
     1
 42
1.0
176
     1
 92
        0
176
     1
 66
   257
176
     1
 43
1.0
176
     1
 76
     1
176
     1
 77
     6
176
     1
 78
     2
176
     1
 67
     7
176
     1
 79
     5
176
     1
170
     0
176
     1
171
     0
176
     1
290
     0
176
     1
 93
       13
176
     1
 44
0.0
176
     1
173
     0
176
     1
  0
VISUALSTYLE
  5
38
102
{ACAD_REACTORS
330
2A
102
}
330
2A
100
AcDbVisualStyle
  2
Linepattern
 70
    14
177
     2
291
     1
 71
     2
176
     1
 72
     2
176
     1
 73
     0
176
     1
 90
        0
176
     1
 40
-0.6
176
     1
 41
-30.0
176
     1
 62
     5
 63
     7
421
 16777215
176
     1
 74
     1
176
     1
 91
        4
176
     1
 64
     7
176
     1
 65
   257
176
     1
 75
     7
176
     1
175
     7
176
     1
 42
1.0
176
     1
 92
        8
176
     1
 66
     7
176
     1
 43
1.0
176
     1
 76
     1
176
     1
 77
     6
176
     1
 78
     2
176
     1
 67
     7
176
     1
 79
     5
176
     1
170
     0
176
     1
171
     0
176
     1
290
     0
176
     1
 93
        1
176
     1
 44
0.0
176
     1
173
     0
176
     1
  0
VISUALSTYLE
  5
33
102
{ACAD_REACTORS
330
2A
102
}
330
2A
100
AcDbVisualStyle
  2
Realistic
 70
     8
177
     2
291
     0
 71
     2
176
     1
 72
     2
176
     1
 73
     0
176
     1
 90
        0
176
     1
 40
-0.6
176
     1
 41
-30.0
176
     1
 62
     5
 63
     7
421
 16777215
176
     1
 74
     1
176
     1
 91
        0
176
     1
 64
     7
176
     1
 65
   257
176
     1
 75
     1
176
     1
175
     1
176
     1
 42
1.0
176
     1
 92
        8
176
     1
 66
     8
424
  7895160
176
     1
 43
1.0
176
     1
 76
     1
176
     1
 77
     6
176
     1
 78
     2
176
     1
 67
     7
176
     1
 79
     5
176
     1
170
     0
176
     1
171
     0
176
     1
290
     0
176
     1
 93
       13
176
     1
 44
0.0
176
     1
173
     0
176
     1
  0
VISUALSTYLE
  5
37
102
{ACAD_REACTORS
330
2A
102
}
330
2A
100
AcDbVisualStyle
  2
Thicken
 70
    13
177
     2
291
     1
 71
     2
176
     1
 72
     2
176
     1
 73
     0
176
     1
 90
        0
176
     1
 40
-0.6
176
     1
 41
-30.0
176
     1
 62
     5
 63
     7
421
 16777215
176
     1
 74
     1
176
     1
 91
        4
176
     1
 64
     7
176
     1
 65
   257
176
     1
 75
     1
176
     1
175
     1
176
     1
 42
1.0
176
     1
 92
       12
176
     1
 66
     7
176
     1
 43
1.0
176
     1
 76
     1
176
     1
 77
     6
176
     1
 78
     2
176
     1
 67
     7
176
     1
 79
     5
176
     1
170
     0
176
     1
171
     0
176
     1
290
     0
176
     1
 93
        1
176
     1
 44
0.0
176
     1
173
     0
176
     1
  0
ENDSEC
  0
EOF
