  0
SECTION
  2
HEADER
  9
$ACADVER
  1
AC1024
  9
$ACADMAINTVER
 70
     6
  9
$DWGCODEPAGE
  3
UNDEFINED
  9
$INSBASE
 10
0.0
 20
0.0
 30
0.0
  9
$EXTMIN
 10
1.000000000000000E+20
 20
1.000000000000000E+20
 30
1.000000000000000E+20
  9
$EXTMAX
 10
-1.000000000000000E+20
 20
-1.000000000000000E+20
 30
-1.000000000000000E+20
  9
$LIMMIN
 10
0.0
 20
0.0
  9
$LIMMAX
 10
12.0
 20
9.0
  9
$ORTHOMODE
 70
     0
  9
$REGENMODE
 70
     1
  9
$FILLMODE
 70
     1
  9
$QTEXTMODE
 70
     0
  9
$MIRRTEXT
 70
     1
  9
$LTSCALE
 40
1.0
  9
$ATTMODE
 70
     1
  9
$TEXTSIZE
 40
0.2
  9
$TRACEWID
 40
0.05
  9
$TEXTSTYLE
  7
Standard
  9
$CLAYER
  8
0
  9
$CELTYPE
  6
ByLayer
  9
$CECOLOR
 62
   256
  9
$CELTSCALE
 40
1.0
  9
$DISPSILH
 70
     0
  9
$DIMSCALE
 40
1.0
  9
$DIMASZ
 40
0.18
  9
$DIMEXO
 40
0.0625
  9
$DIMDLI
 40
0.38
  9
$DIMRND
 40
0.0
  9
$DIMDLE
 40
0.0
  9
$DIMEXE
 40
0.18
  9
$DIMTP
 40
0.0
  9
$DIMTM
 40
0.0
  9
$DIMTXT
 40
0.18
  9
$DIMCEN
 40
0.09
  9
$DIMTSZ
 40
0.0
  9
$DIMTOL
 70
     0
  9
$DIMLIM
 70
     0
  9
$DIMTIH
 70
     1
  9
$DIMTOH
 70
     1
  9
$DIMSE1
 70
     0
  9
$DIMSE2
 70
     0
  9
$DIMTAD
 70
     0
  9
$DIMZIN
 70
     0
  9
$DIMBLK
  1

  9
$DIMASO
 70
     1
  9
$DIMSHO
 70
     1
  9
$DIMPOST
  1

  9
$DIMAPOST
  1

  9
$DIMALT
 70
     0
  9
$DIMALTD
 70
     2
  9
$DIMALTF
 40
25.4
  9
$DIMLFAC
 40
1.0
  9
$DIMTOFL
 70
     0
  9
$DIMTVP
 40
0.0
  9
$DIMTIX
 70
     0
  9
$DIMSOXD
 70
     0
  9
$DIMSAH
 70
     0
  9
$DIMBLK1
  1

  9
$DIMBLK2
  1

  9
$DIMSTYLE
  2
Standard
  9
$DIMCLRD
 70
     0
  9
$DIMCLRE
 70
     0
  9
$DIMCLRT
 70
     0
  9
$DIMTFAC
 40
1.0
  9
$DIMGAP
 40
0.09
  9
$DIMJUST
 70
     0
  9
$DIMSD1
 70
     0
  9
$DIMSD2
 70
     0
  9
$DIMTOLJ
 70
     1
  9
$DIMTZIN
 70
     0
  9
$DIMALTZ
 70
     0
  9
$DIMALTTZ
 70
     0
  9
$DIMUPT
 70
     0
  9
$DIMDEC
 70
     4
  9
$DIMTDEC
 70
     4
  9
$DIMALTU
 70
     2
  9
$DIMALTTD
 70
     2
  9
$DIMTXSTY
  7
Standard
  9
$DIMAUNIT
 70
     0
  9
$DIMADEC
 70
     0
  9
$DIMALTRND
 40
0.0
  9
$DIMAZIN
 70
     0
  9
$DIMDSEP
 70
    46
  9
$DIMATFIT
 70
     3
  9
$DIMFRAC
 70
     0
  9
$DIMLDRBLK
  1

  9
$DIMLUNIT
 70
     2
  9
$DIMLWD
 70
    -2
  9
$DIMLWE
 70
    -2
  9
$DIMTMOVE
 70
     0
  9
$DIMFXL
 40
1.0
  9
$DIMFXLON
 70
     0
  9
$DIMJOGANG
 40
0.7853981633974483
  9
$DIMTFILL
 70
     0
  9
$DIMTFILLCLR
 70
     0
  9
$DIMARCSYM
 70
     0
  9
$DIMLTYPE
  6

  9
$DIMLTEX1
  6

  9
$DIMLTEX2
  6

  9
$DIMTXTDIRECTION
 70
     0
  9
$LUNITS
 70
     2
  9
$LUPREC
 70
     4
  9
$SKETCHINC
 40
0.1
  9
$FILLETRAD
 40
0.5
  9
$AUNITS
 70
     0
  9
$AUPREC
 70
     0
  9
$MENU
  1
.
  9
$ELEVATION
 40
0.0
  9
$PELEVATION
 40
0.0
  9
$THICKNESS
 40
0.0
  9
$LIMCHECK
 70
     0
  9
$CHAMFERA
 40
0.5
  9
$CHAMFERB
 40
0.5
  9
$CHAMFERC
 40
1.0
  9
$CHAMFERD
 40
0.0
  9
$SKPOLY
 70
     0
  9
$TDCREATE
 40
2458263.574097211
  9
$TDUCREATE
 40
2458263.199097222
  9
$TDUPDATE
 40
2458263.574097211
  9
$TDUUPDATE
 40
2458263.199097222
  9
$TDINDWG
 40
0.0000000116
  9
$TDUSRTIMER
 40
0.0000000116
  9
$USRTIMER
 70
     1
  9
$ANGBASE
 50
0.0
  9
$ANGDIR
 70
     0
  9
$PDMODE
 70
     0
  9
$PDSIZE
 40
0.0
  9
$PLINEWID
 40
0.0
  9
$SPLFRAME
 70
     0
  9
$SPLINETYPE
 70
     6
  9
$SPLINESEGS
 70
     8
  9
$HANDSEED
  5
128
  9
$SURFTAB1
 70
     6
  9
$SURFTAB2
 70
     6
  9
$SURFTYPE
 70
     6
  9
$SURFU
 70
     6
  9
$SURFV
 70
     6
  9
$UCSBASE
  2

  9
$UCSNAME
  2

  9
$UCSORG
 10
0.0
 20
0.0
 30
0.0
  9
$UCSXDIR
 10
1.0
 20
0.0
 30
0.0
  9
$UCSYDIR
 10
0.0
 20
1.0
 30
0.0
  9
$UCSORTHOREF
  2

  9
$UCSORTHOVIEW
 70
     0
  9
$UCSORGTOP
 10
0.0
 20
0.0
 30
0.0
  9
$UCSORGBOTTOM
 10
0.0
 20
0.0
 30
0.0
  9
$UCSORGLEFT
 10
0.0
 20
0.0
 30
0.0
  9
$UCSORGRIGHT
 10
0.0
 20
0.0
 30
0.0
  9
$UCSORGFRONT
 10
0.0
 20
0.0
 30
0.0
  9
$UCSORGBACK
 10
0.0
 20
0.0
 30
0.0
  9
$PUCSBASE
  2

  9
$PUCSNAME
  2

  9
$PUCSORG
 10
0.0
 20
0.0
 30
0.0
  9
$PUCSXDIR
 10
1.0
 20
0.0
 30
0.0
  9
$PUCSYDIR
 10
0.0
 20
1.0
 30
0.0
  9
$PUCSORTHOREF
  2

  9
$PUCSORTHOVIEW
 70
     0
  9
$PUCSORGTOP
 10
0.0
 20
0.0
 30
0.0
  9
$PUCSORGBOTTOM
 10
0.0
 20
0.0
 30
0.0
  9
$PUCSORGLEFT
 10
0.0
 20
0.0
 30
0.0
  9
$PUCSORGRIGHT
 10
0.0
 20
0.0
 30
0.0
  9
$PUCSORGFRONT
 10
0.0
 20
0.0
 30
0.0
  9
$PUCSORGBACK
 10
0.0
 20
0.0
 30
0.0
  9
$USERI1
 70
     0
  9
$USERI2
 70
     0
  9
$USERI3
 70
     0
  9
$USERI4
 70
     0
  9
$USERI5
 70
     0
  9
$USERR1
 40
0.0
  9
$USERR2
 40
0.0
  9
$USERR3
 40
0.0
  9
$USERR4
 40
0.0
  9
$USERR5
 40
0.0
  9
$WORLDVIEW
 70
     1
  9
$SHADEDGE
 70
     3
  9
$SHADEDIF
 70
    70
  9
$TILEMODE
 70
     1
  9
$MAXACTVP
 70
    64
  9
$PINSBASE
 10
0.0
 20
0.0
 30
0.0
  9
$PLIMCHECK
 70
     0
  9
$PEXTMIN
 10
1.000000000000000E+20
 20
1.000000000000000E+20
 30
1.000000000000000E+20
  9
$PEXTMAX
 10
-1.000000000000000E+20
 20
-1.000000000000000E+20
 30
-1.000000000000000E+20
  9
$PLIMMIN
 10
0.0
 20
0.0
  9
$PLIMMAX
 10
12.0
 20
9.0
  9
$UNITMODE
 70
     0
  9
$VISRETAIN
 70
     1
  9
$PLINEGEN
 70
     0
  9
$PSLTSCALE
 70
     1
  9
$TREEDEPTH
 70
  3020
  9
$CMLSTYLE
  2
Standard
  9
$CMLJUST
 70
     0
  9
$CMLSCALE
 40
1.0
  9
$PROXYGRAPHICS
 70
     1
  9
$MEASUREMENT
 70
     0
  9
$CELWEIGHT
370
    -1
  9
$ENDCAPS
280
     0
  9
$JOINSTYLE
280
     0
  9
$LWDISPLAY
290
     1
  9
$INSUNITS
 70
     1
  9
$HYPERLINKBASE
  1

  9
$STYLESHEET
  1

  9
$XEDIT
290
     1
  9
$CEPSNTYPE
380
     0
  9
$PSTYLEMODE
290
     1
  9
$FINGERPRINTGUID
  2
{68D4AC90-5615-5971-6C9F-147A1621480B}
  9
$VERSIONGUID
  2
{FAEB1C32-E019-11D5-929B-00C0DF256EC4}
  9
$EXTNAMES
290
     1
  9
$PSVPSCALE
 40
0.0
  9
$OLESTARTUP
290
     0
  9
$SORTENTS
280
   127
  9
$INDEXCTL
280
     0
  9
$HIDETEXT
280
     1
  9
$XCLIPFRAME
280
     2
  9
$HALOGAP
280
     0
  9
$OBSCOLOR
 70
   257
  9
$OBSLTYPE
280
     0
  9
$INTERSECTIONDISPLAY
280
     0
  9
$INTERSECTIONCOLOR
 70
   257
  9
$DIMASSOC
280
     2
  9
$PROJECTNAME
  1

  9
$CAMERADISPLAY
290
     0
  9
$LENSLENGTH
 40
50.0
  9
$CAMERAHEIGHT
 40
0.0
  9
$STEPSPERSEC
 40
2.0
  9
$STEPSIZE
 40
6.0
  9
$3DDWFPREC
 40
2.0
  9
$PSOLWIDTH
 40
0.25
  9
$PSOLHEIGHT
 40
4.0
  9
$LOFTANG1
 40
1.570796326794897
  9
$LOFTANG2
 40
1.570796326794897
  9
$LOFTMAG1
 40
0.0
  9
$LOFTMAG2
 40
0.0
  9
$LOFTPARAM
 70
     7
  9
$LOFTNORMALS
280
     1
  9
$LATITUDE
 40
37.795
  9
$LONGITUDE
 40
-122.394
  9
$NORTHDIRECTION
 40
0.0
  9
$TIMEZONE
 70
 -8000
  9
$LIGHTGLYPHDISPLAY
280
     1
  9
$TILEMODELIGHTSYNCH
280
     1
  9
$CMATERIAL
347
3C
  9
$SOLIDHIST
280
     1
  9
$SHOWHIST
280
     1
  9
$DWFFRAME
280
     2
  9
$DGNFRAME
280
     2
  9
$REALWORLDSCALE
290
     1
  9
$INTERFERECOLOR
 62
   256
  9
$CSHADOW
280
     0
  9
$SHADOWPLANELOCATION
 40
0.0
  0
ENDSEC
  0
SECTION
  2
CLASSES
  0
CLASS
  1
ACDBDICTIONARYWDFLT
  2
AcDbDictionaryWithDefault
  3
ObjectDBX Classes
 90
        0
 91
        4
280
     0
281
     0
  0
CLASS
  1
VISUALSTYLE
  2
AcDbVisualStyle
  3
ObjectDBX Classes
 90
     4095
 91
        4
280
     0
281
     0
  0
CLASS
  1
MATERIAL
  2
AcDbMaterial
  3
ObjectDBX Classes
 90
     1153
 91
        4
280
     0
281
     0
  0
CLASS
  1
SUN
  2
AcDbSun
  3
SCENEOE
 90
     1024
 91
        4
280
     0
281
     0
  0
ENDSEC
  0
SECTION
  2
TABLES
  0
TABLE
  2
VPORT
  5
8
330
0
100
AcDbSymbolTable
 70
     1
  0
VPORT
  5
29
330
8
100
AcDbSymbolTableRecord
100
AcDbViewportTableRecord
  2
*Active
 70
     0
 10
0.0
 20
0.0
 11
1.0
 21
1.0
 12
0.0
 22
0.0
 13
0.0
 23
0.0
 14
0.5
 24
0.5
 15
0.5
 25
0.5
 16
0.0
 26
0.0
 36
1.0
 17
105.0007777515277
 27
-148.5000416295416
 37
0.0
 40
297.0000832590831
 41
0.7070757462376333
 42
50.0
 43
0.0
 44
0.0
 50
0.0
 51
0.0
 71
     0
 72
   100
 73
     1
 74
     3
 75
     0
 76
     0
 77
     0
 78
     0
281
     0
 65
     1
110
0.0
120
0.0
130
0.0
111
1.0
121
0.0
131
0.0
112
0.0
122
1.0
132
0.0
 79
     0
146
0.0
 60
     3
 61
     5
292
     1
282
     1
141
0.0
142
0.0
 63
   250
361
3F
  0
ENDTAB
  0
TABLE
  2
LTYPE
  5
5
330
0
100
AcDbSymbolTable
 70
     5
  0
LTYPE
  5
14
330
5
100
AcDbSymbolTableRecord
100
AcDbLinetypeTableRecord
  2
ByBlock
 70
     0
  3

 72
    65
 73
     0
 40
0.0
  0
LTYPE
  5
15
330
5
100
AcDbSymbolTableRecord
100
AcDbLinetypeTableRecord
  2
ByLayer
 70
     0
  3

 72
    65
 73
     0
 40
0.0
  0
LTYPE
  5
16
330
5
100
AcDbSymbolTableRecord
100
AcDbLinetypeTableRecord
  2
Continuous
 70
     0
  3
Solid line
 72
    65
 73
     0
 40
0.0
  0
LTYPE
  5
11F
330
5
100
AcDbSymbolTableRecord
100
AcDbLinetypeTableRecord
  2
AI-Linetype-1
 70
     0
  3
Adobe Illustrator Linetype No. 1
 72
    65
 73
     2
 40
1.411111110758333
 49
0.7055555553791667
 74
     0
 49
-0.7055555553791667
 74
     0
  0
LTYPE
  5
121
330
5
100
AcDbSymbolTableRecord
100
AcDbLinetypeTableRecord
  2
AI-Linetype-2
 70
     0
  3
Adobe Illustrator Linetype No. 2
 72
    65
 73
     2
 40
1.411111110758333
 49
0.7055555553791667
 74
     0
 49
-0.7055555553791667
 74
     0
  0
LTYPE
  5
123
330
5
100
AcDbSymbolTableRecord
100
AcDbLinetypeTableRecord
  2
AI-Linetype-3
 70
     0
  3
Adobe Illustrator Linetype No. 3
 72
    65
 73
     2
 40
1.411111110758333
 49
0.7055555553791667
 74
     0
 49
-0.7055555553791667
 74
     0
  0
LTYPE
  5
125
330
5
100
AcDbSymbolTableRecord
100
AcDbLinetypeTableRecord
  2
AI-Linetype-4
 70
     0
  3
Adobe Illustrator Linetype No. 4
 72
    65
 73
     2
 40
1.411111110758333
 49
0.7055555553791667
 74
     0
 49
-0.7055555553791667
 74
     0
  0
ENDTAB
  0
TABLE
  2
LAYER
  5
2
330
0
100
AcDbSymbolTable
 70
     2
  0
LAYER
  5
10
330
2
100
AcDbSymbolTableRecord
100
AcDbLayerTableRecord
  2
0
 70
     0
 62
     7
  6
Continuous
370
    -3
390
F
347
3E
  0
LAYER
  5
40
330
2
100
AcDbSymbolTableRecord
100
AcDbLayerTableRecord
  2
_U+30EC_U+30A4_U+30E4_U+30FC 1
 70
     0
 62
     7
  6
Continuous
370
    -3
390
F
347
3E
  0
ENDTAB
  0
TABLE
  2
STYLE
  5
3
330
0
100
AcDbSymbolTable
 70
     1
  0
STYLE
  5
11
330
3
100
AcDbSymbolTableRecord
100
AcDbTextStyleTableRecord
  2
Standard
 70
     0
 40
0.0
 41
1.0
 50
0.0
 71
     0
 42
0.2
  3
txt
  4

  0
ENDTAB
  0
TABLE
  2
VIEW
  5
6
330
0
100
AcDbSymbolTable
 70
     0
  0
ENDTAB
  0
TABLE
  2
UCS
  5
7
330
0
100
AcDbSymbolTable
 70
     0
  0
ENDTAB
  0
TABLE
  2
APPID
  5
9
330
0
100
AcDbSymbolTable
 70
     1
  0
APPID
  5
12
330
9
100
AcDbSymbolTableRecord
100
AcDbRegAppTableRecord
  2
ACAD
 70
     0
  0
ENDTAB
  0
TABLE
  2
DIMSTYLE
  5
A
330
0
100
AcDbSymbolTable
 70
     1
100
AcDbDimStyleTable
  0
DIMSTYLE
105
27
330
A
100
AcDbSymbolTableRecord
100
AcDbDimStyleTableRecord
  2
Standard
 70
     0
178
     0
340
11
  0
ENDTAB
  0
TABLE
  2
BLOCK_RECORD
  5
1
330
0
100
AcDbSymbolTable
 70
     4
  0
BLOCK_RECORD
  5
1F
330
1
100
AcDbSymbolTableRecord
100
AcDbBlockTableRecord
  2
*Model_Space
340
22
 70
     0
280
     1
281
     0
  0
BLOCK_RECORD
  5
1B
330
1
100
AcDbSymbolTableRecord
100
AcDbBlockTableRecord
  2
*Paper_Space
340
1E
 70
     0
280
     1
281
     0
  0
BLOCK_RECORD
  5
23
330
1
100
AcDbSymbolTableRecord
100
AcDbBlockTableRecord
  2
*Paper_Space0
340
26
 70
     0
280
     1
281
     0
  0
BLOCK_RECORD
  5
55
330
1
100
AcDbSymbolTableRecord
100
AcDbBlockTableRecord
  2
block 2
340
0
102
{BLKREFS
331
56
102
}
 70
     0
280
     1
281
     0
  0
BLOCK_RECORD
  5
7F
330
1
100
AcDbSymbolTableRecord
100
AcDbBlockTableRecord
  2
block 3
340
0
102
{BLKREFS
331
80
102
}
 70
     0
280
     1
281
     0
  0
BLOCK_RECORD
  5
90
330
1
100
AcDbSymbolTableRecord
100
AcDbBlockTableRecord
  2
block 4
340
0
102
{BLKREFS
331
91
102
}
 70
     0
280
     1
281
     0
  0
ENDTAB
  0
ENDSEC
  0
SECTION
  2
BLOCKS
  0
BLOCK
  5
20
330
1F
100
AcDbEntity
  8
0
100
AcDbBlockBegin
  2
*Model_Space
 70
     0
 10
0.0
 20
0.0
 30
0.0
  3
*Model_Space
  1

  0
ENDBLK
  5
21
330
1F
100
AcDbEntity
  8
0
100
AcDbBlockEnd
  0
BLOCK
  5
1C
330
1B
100
AcDbEntity
 67
     1
  8
0
100
AcDbBlockBegin
  2
*Paper_Space
 70
     0
 10
0.0
 20
0.0
 30
0.0
  3
*Paper_Space
  1

  0
ENDBLK
  5
1D
330
1B
100
AcDbEntity
 67
     1
  8
0
100
AcDbBlockEnd
  0
BLOCK
  5
24
330
23
100
AcDbEntity
  8
0
100
AcDbBlockBegin
  2
*Paper_Space0
 70
     0
 10
0.0
 20
0.0
 30
0.0
  3
*Paper_Space0
  1

  0
ENDBLK
  5
25
330
23
100
AcDbEntity
  8
0
100
AcDbBlockEnd
  0
BLOCK
  5
57
330
55
100
AcDbEntity
  8
0
100
AcDbBlockBegin
  2
block 2
 70
     0
 10
0.0
 20
0.0
 30
0.0
  3
block 2
  1

  0
SPLINE
  5
59
330
55
100
AcDbEntity
  8
_U+30EC_U+30A4_U+30E4_U+30FC 1
370
     0
100
AcDbSpline
210
0.0
220
0.0
230
1.0
 70
    11
 71
     3
 72
    44
 73
    40
 74
     0
 42
0.0000000001
 43
0.0000000001
 12
1.0
 22
0.0
 32
0.0
 13
1.0
 23
0.0
 33
0.0
 40
0.0
 40
0.0
 40
0.0
 40
0.0
 40
1.0
 40
1.0
 40
1.0
 40
2.0
 40
2.0
 40
2.0
 40
3.0
 40
3.0
 40
3.0
 40
4.0
 40
4.0
 40
4.0
 40
5.0
 40
5.0
 40
5.0
 40
6.0
 40
6.0
 40
6.0
 40
7.0
 40
7.0
 40
7.0
 40
8.0
 40
8.0
 40
8.0
 40
9.0
 40
9.0
 40
9.0
 40
10.0
 40
10.0
 40
10.0
 40
11.0
 40
11.0
 40
11.0
 40
12.0
 40
12.0
 40
12.0
 40
13.0
 40
13.0
 40
13.0
 40
13.0
 10
118.7128227784815
 20
-174.1516438366704
 30
0.0
 10
118.4950927438137
 20
-174.3104627385405
 30
0.0
 10
118.402075165712
 20
-174.3845322914733
 30
0.0
 10
118.3531548098214
 20
-174.5281927732082
 30
0.0
 10
118.3531548098214
 20
-174.5281927732082
 30
0.0
 10
119.1317463894879
 20
-174.5281927732082
 30
0.0
 10
119.1317463894879
 20
-174.5281927732082
 30
0.0
 10
119.1317463894879
 20
-174.5281927732082
 30
0.0
 10
119.1317463894879
 20
-174.7335204641291
 30
0.0
 10
119.1317463894879
 20
-174.7335204641291
 30
0.0
 10
119.1317463894879
 20
-174.7335204641291
 30
0.0
 10
118.1037298966893
 20
-174.7335204641291
 30
0.0
 10
118.1037298966893
 20
-174.7335204641291
 30
0.0
 10
118.1354247751537
 20
-174.3759195527602
 30
0.0
 10
118.2008815893734
 20
-174.297715885245
 30
0.0
 10
118.5860432646243
 20
-173.9993706162224
 30
0.0
 10
118.8420138591784
 20
-173.8005886067235
 30
0.0
 10
118.9074706733981
 20
-173.7327202256641
 30
0.0
 10
118.9074706733981
 20
-173.5952609158026
 30
0.0
 10
118.9074706733981
 20
-173.47674963111
 30
0.0
 10
118.8354681777564
 20
-173.345491493122
 30
0.0
 10
118.6387532255487
 20
-173.345491493122
 30
0.0
 10
118.3786485164123
 20
-173.345491493122
 30
0.0
 10
118.3700357776992
 20
-173.5763128906337
 30
0.0
 10
118.3659016631169
 20
-173.6927571180352
 30
0.0
 10
118.3659016631169
 20
-173.6927571180352
 30
0.0
 10
118.1416259470271
 20
-173.6927571180352
 30
0.0
 10
118.1416259470271
 20
-173.6927571180352
 30
0.0
 10
118.1502386857402
 20
-173.5656330946294
 30
0.0
 10
118.1609184817445
 20
-173.4536674913588
 30
0.0
 10
118.2411892065508
 20
-173.3351562066662
 30
0.0
 10
118.3510877525303
 20
-173.1742702475051
 30
0.0
 10
118.5374674182823
 20
-173.1405083117496
 30
0.0
 10
118.6535671361352
 20
-173.1405083117496
 30
0.0
 10
118.9308973226978
 20
-173.1405083117496
 30
0.0
 10
119.1382920709099
 20
-173.324476410662
 30
0.0
 10
119.1382920709099
 20
-173.5973279730937
 30
0.0
 10
119.1382920709099
 20
-173.8257378037658
 30
0.0
 10
119.0218478435084
 20
-173.9253010632895
 30
0.0
 10
118.7128227784815
 20
-174.1516438366704
 30
0.0
  0
HATCH
  5
5A
330
55
100
AcDbEntity
  8
_U+30EC_U+30A4_U+30E4_U+30FC 1
 62
   179
420
  2234388
100
AcDbHatch
 10
0.0
 20
0.0
 30
0.0
210
0.0
220
0.0
230
1.0
  2
SOLID
 70
     1
 71
     0
 91
        1
 92
        1
 93
        1
 72
     4
 94
        3
 73
     0
 74
     1
 95
       44
 96
       40
 40
0.0
 40
0.0
 40
0.0
 40
0.0
 40
1.0
 40
1.0
 40
1.0
 40
2.0
 40
2.0
 40
2.0
 40
3.0
 40
3.0
 40
3.0
 40
4.0
 40
4.0
 40
4.0
 40
5.0
 40
5.0
 40
5.0
 40
6.0
 40
6.0
 40
6.0
 40
7.0
 40
7.0
 40
7.0
 40
8.0
 40
8.0
 40
8.0
 40
9.0
 40
9.0
 40
9.0
 40
10.0
 40
10.0
 40
10.0
 40
11.0
 40
11.0
 40
11.0
 40
12.0
 40
12.0
 40
12.0
 40
13.0
 40
13.0
 40
13.0
 40
13.0
 10
118.7128227784815
 20
-174.1516438366704
 10
118.4950927438137
 20
-174.3104627385405
 10
118.402075165712
 20
-174.3845322914733
 10
118.3531548098214
 20
-174.5281927732082
 10
118.3531548098214
 20
-174.5281927732082
 10
119.1317463894879
 20
-174.5281927732082
 10
119.1317463894879
 20
-174.5281927732082
 10
119.1317463894879
 20
-174.5281927732082
 10
119.1317463894879
 20
-174.7335204641291
 10
119.1317463894879
 20
-174.7335204641291
 10
119.1317463894879
 20
-174.7335204641291
 10
118.1037298966893
 20
-174.7335204641291
 10
118.1037298966893
 20
-174.7335204641291
 10
118.1354247751537
 20
-174.3759195527602
 10
118.2008815893734
 20
-174.297715885245
 10
118.5860432646243
 20
-173.9993706162224
 10
118.8420138591784
 20
-173.8005886067235
 10
118.9074706733981
 20
-173.7327202256641
 10
118.9074706733981
 20
-173.5952609158026
 10
118.9074706733981
 20
-173.47674963111
 10
118.8354681777564
 20
-173.345491493122
 10
118.6387532255487
 20
-173.345491493122
 10
118.3786485164123
 20
-173.345491493122
 10
118.3700357776992
 20
-173.5763128906337
 10
118.3659016631169
 20
-173.6927571180352
 10
118.3659016631169
 20
-173.6927571180352
 10
118.1416259470271
 20
-173.6927571180352
 10
118.1416259470271
 20
-173.6927571180352
 10
118.1502386857402
 20
-173.5656330946294
 10
118.1609184817445
 20
-173.4536674913588
 10
118.2411892065508
 20
-173.3351562066662
 10
118.3510877525303
 20
-173.1742702475051
 10
118.5374674182823
 20
-173.1405083117496
 10
118.6535671361352
 20
-173.1405083117496
 10
118.9308973226978
 20
-173.1405083117496
 10
119.1382920709099
 20
-173.324476410662
 10
119.1382920709099
 20
-173.5973279730937
 10
119.1382920709099
 20
-173.8257378037658
 10
119.0218478435084
 20
-173.9253010632895
 10
118.7128227784815
 20
-174.1516438366704
 97
        0
 97
        0
 75
     2
 76
     1
 98
        0
  0
SPLINE
  5
5B
330
55
100
AcDbEntity
  8
_U+30EC_U+30A4_U+30E4_U+30FC 1
370
     0
100
AcDbSpline
210
0.0
220
0.0
230
1.0
 70
    11
 71
     3
 72
    53
 73
    49
 74
     0
 42
0.0000000001
 43
0.0000000001
 12
1.0
 22
0.0
 32
0.0
 13
1.0
 23
0.0
 33
0.0
 40
0.0
 40
0.0
 40
0.0
 40
0.0
 40
1.0
 40
1.0
 40
1.0
 40
2.0
 40
2.0
 40
2.0
 40
3.0
 40
3.0
 40
3.0
 40
4.0
 40
4.0
 40
4.0
 40
5.0
 40
5.0
 40
5.0
 40
6.0
 40
6.0
 40
6.0
 40
7.0
 40
7.0
 40
7.0
 40
8.0
 40
8.0
 40
8.0
 40
9.0
 40
9.0
 40
9.0
 40
10.0
 40
10.0
 40
10.0
 40
11.0
 40
11.0
 40
11.0
 40
12.0
 40
12.0
 40
12.0
 40
13.0
 40
13.0
 40
13.0
 40
14.0
 40
14.0
 40
14.0
 40
15.0
 40
15.0
 40
15.0
 40
16.0
 40
16.0
 40
16.0
 40
16.0
 10
119.7777017929723
 20
-174.7841633677623
 30
0.0
 10
119.6994981254571
 20
-174.7841633677623
 30
0.0
 10
119.5978678086422
 20
-174.7672823998846
 30
0.0
 10
119.4962374918273
 20
-174.703892642956
 30
0.0
 10
119.3229491889193
 20
-174.593649587428
 30
0.0
 10
119.3015895969107
 20
-174.4627359589885
 30
0.0
 10
119.2826415717418
 20
-174.3549044703002
 30
0.0
 10
119.2826415717418
 20
-174.3549044703002
 30
0.0
 10
119.5048502305405
 20
-174.3549044703002
 30
0.0
 10
119.5048502305405
 20
-174.3549044703002
 30
0.0
 10
119.5596272487559
 20
-174.5536864797991
 30
0.0
 10
119.6867512721617
 20
-174.5833143009722
 30
0.0
 10
119.7797688502634
 20
-174.5833143009722
 30
0.0
 10
119.919295217416
 20
-174.5833143009722
 30
0.0
 10
120.0715684378641
 20
-174.4837510414485
 30
0.0
 10
120.0715684378641
 20
-174.2512070961942
 30
0.0
 10
120.0715684378641
 20
-173.9952365016401
 30
0.0
 10
119.891734453534
 20
-173.9253010632895
 30
0.0
 10
119.7711561115503
 20
-173.9253010632895
 30
0.0
 10
119.739461233086
 20
-173.9253010632895
 30
0.0
 10
119.5978678086422
 20
-173.9253010632895
 30
0.0
 10
119.5089843451228
 20
-174.0544921439864
 30
0.0
 10
119.5089843451228
 20
-174.0544921439864
 30
0.0
 10
119.333284475375
 20
-174.035199609269
 30
0.0
 10
119.333284475375
 20
-174.035199609269
 30
0.0
 10
119.333284475375
 20
-174.035199609269
 30
0.0
 10
119.4538628173588
 20
-173.1890841580916
 30
0.0
 10
119.4538628173588
 20
-173.1890841580916
 30
0.0
 10
119.4538628173588
 20
-173.1890841580916
 30
0.0
 10
120.2324543970252
 20
-173.1890841580916
 30
0.0
 10
120.2324543970252
 20
-173.1890841580916
 30
0.0
 10
120.2324543970252
 20
-173.1890841580916
 30
0.0
 10
120.2324543970252
 20
-173.3837320530082
 30
0.0
 10
120.2324543970252
 20
-173.3837320530082
 30
0.0
 10
120.2324543970252
 20
-173.3837320530082
 30
0.0
 10
119.6168158338111
 20
-173.3837320530082
 30
0.0
 10
119.6168158338111
 20
-173.3837320530082
 30
0.0
 10
119.6168158338111
 20
-173.3837320530082
 30
0.0
 10
119.5513590195913
 20
-173.8067897785969
 30
0.0
 10
119.5513590195913
 20
-173.8067897785969
 30
0.0
 10
119.6126817192288
 20
-173.7730278428415
 30
0.0
 10
119.6950195013263
 20
-173.7327202256641
 30
0.0
 10
119.8135307860188
 20
-173.7327202256641
 30
0.0
 10
120.0674343232818
 20
-173.7327202256641
 30
0.0
 10
120.3044568926669
 20
-173.9190998914161
 30
0.0
 10
120.3044568926669
 20
-174.2319145614767
 30
0.0
 10
120.3044568926669
 20
-174.5495523652168
 30
0.0
 10
120.0801811765772
 20
-174.7841633677623
 30
0.0
 10
119.7777017929723
 20
-174.7841633677623
 30
0.0
  0
HATCH
  5
5C
330
55
100
AcDbEntity
  8
_U+30EC_U+30A4_U+30E4_U+30FC 1
 62
   179
420
  2234388
100
AcDbHatch
 10
0.0
 20
0.0
 30
0.0
210
0.0
220
0.0
230
1.0
  2
SOLID
 70
     1
 71
     0
 91
        1
 92
        1
 93
        1
 72
     4
 94
        3
 73
     0
 74
     1
 95
       53
 96
       49
 40
0.0
 40
0.0
 40
0.0
 40
0.0
 40
1.0
 40
1.0
 40
1.0
 40
2.0
 40
2.0
 40
2.0
 40
3.0
 40
3.0
 40
3.0
 40
4.0
 40
4.0
 40
4.0
 40
5.0
 40
5.0
 40
5.0
 40
6.0
 40
6.0
 40
6.0
 40
7.0
 40
7.0
 40
7.0
 40
8.0
 40
8.0
 40
8.0
 40
9.0
 40
9.0
 40
9.0
 40
10.0
 40
10.0
 40
10.0
 40
11.0
 40
11.0
 40
11.0
 40
12.0
 40
12.0
 40
12.0
 40
13.0
 40
13.0
 40
13.0
 40
14.0
 40
14.0
 40
14.0
 40
15.0
 40
15.0
 40
15.0
 40
16.0
 40
16.0
 40
16.0
 40
16.0
 10
119.7777017929723
 20
-174.7841633677623
 10
119.6994981254571
 20
-174.7841633677623
 10
119.5978678086422
 20
-174.7672823998846
 10
119.4962374918273
 20
-174.703892642956
 10
119.3229491889193
 20
-174.593649587428
 10
119.3015895969107
 20
-174.4627359589885
 10
119.2826415717418
 20
-174.3549044703002
 10
119.2826415717418
 20
-174.3549044703002
 10
119.5048502305405
 20
-174.3549044703002
 10
119.5048502305405
 20
-174.3549044703002
 10
119.5596272487559
 20
-174.5536864797991
 10
119.6867512721617
 20
-174.5833143009722
 10
119.7797688502634
 20
-174.5833143009722
 10
119.919295217416
 20
-174.5833143009722
 10
120.0715684378641
 20
-174.4837510414485
 10
120.0715684378641
 20
-174.2512070961942
 10
120.0715684378641
 20
-173.9952365016401
 10
119.891734453534
 20
-173.9253010632895
 10
119.7711561115503
 20
-173.9253010632895
 10
119.739461233086
 20
-173.9253010632895
 10
119.5978678086422
 20
-173.9253010632895
 10
119.5089843451228
 20
-174.0544921439864
 10
119.5089843451228
 20
-174.0544921439864
 10
119.333284475375
 20
-174.035199609269
 10
119.333284475375
 20
-174.035199609269
 10
119.333284475375
 20
-174.035199609269
 10
119.4538628173588
 20
-173.1890841580916
 10
119.4538628173588
 20
-173.1890841580916
 10
119.4538628173588
 20
-173.1890841580916
 10
120.2324543970252
 20
-173.1890841580916
 10
120.2324543970252
 20
-173.1890841580916
 10
120.2324543970252
 20
-173.1890841580916
 10
120.2324543970252
 20
-173.3837320530082
 10
120.2324543970252
 20
-173.3837320530082
 10
120.2324543970252
 20
-173.3837320530082
 10
119.6168158338111
 20
-173.3837320530082
 10
119.6168158338111
 20
-173.3837320530082
 10
119.6168158338111
 20
-173.3837320530082
 10
119.5513590195913
 20
-173.8067897785969
 10
119.5513590195913
 20
-173.8067897785969
 10
119.6126817192288
 20
-173.7730278428415
 10
119.6950195013263
 20
-173.7327202256641
 10
119.8135307860188
 20
-173.7327202256641
 10
120.0674343232818
 20
-173.7327202256641
 10
120.3044568926669
 20
-173.9190998914161
 10
120.3044568926669
 20
-174.2319145614767
 10
120.3044568926669
 20
-174.5495523652168
 10
120.0801811765772
 20
-174.7841633677623
 10
119.7777017929723
 20
-174.7841633677623
 97
        0
 97
        0
 75
     2
 76
     1
 98
        0
  0
ENDBLK
  5
58
330
55
100
AcDbEntity
  8
0
100
AcDbBlockEnd
  0
BLOCK
  5
81
330
7F
100
AcDbEntity
  8
0
100
AcDbBlockBegin
  2
block 3
 70
     0
 10
0.0
 20
0.0
 30
0.0
  3
block 3
  1

  0
SPLINE
  5
83
330
7F
100
AcDbEntity
  8
_U+30EC_U+30A4_U+30E4_U+30FC 1
370
     0
100
AcDbSpline
210
0.0
220
0.0
230
1.0
 70
    11
 71
     3
 72
    44
 73
    40
 74
     0
 42
0.0000000001
 43
0.0000000001
 12
1.0
 22
0.0
 32
0.0
 13
1.0
 23
0.0
 33
0.0
 40
0.0
 40
0.0
 40
0.0
 40
0.0
 40
1.0
 40
1.0
 40
1.0
 40
2.0
 40
2.0
 40
2.0
 40
3.0
 40
3.0
 40
3.0
 40
4.0
 40
4.0
 40
4.0
 40
5.0
 40
5.0
 40
5.0
 40
6.0
 40
6.0
 40
6.0
 40
7.0
 40
7.0
 40
7.0
 40
8.0
 40
8.0
 40
8.0
 40
9.0
 40
9.0
 40
9.0
 40
10.0
 40
10.0
 40
10.0
 40
11.0
 40
11.0
 40
11.0
 40
12.0
 40
12.0
 40
12.0
 40
13.0
 40
13.0
 40
13.0
 40
13.0
 10
105.0612874086305
 20
-171.07103945376
 30
0.0
 10
104.8432128644142
 20
-171.2295138460815
 30
0.0
 10
104.7501952863125
 20
-171.3035833990144
 30
0.0
 10
104.7016194399704
 20
-171.4475883902978
 30
0.0
 10
104.7016194399704
 20
-171.4475883902978
 30
0.0
 10
105.4802110196369
 20
-171.4475883902978
 30
0.0
 10
105.4802110196369
 20
-171.4475883902978
 30
0.0
 10
105.4802110196369
 20
-171.4475883902978
 30
0.0
 10
105.4802110196369
 20
-171.6525715716702
 30
0.0
 10
105.4802110196369
 20
-171.6525715716702
 30
0.0
 10
105.4802110196369
 20
-171.6525715716702
 30
0.0
 10
104.4518500172898
 20
-171.6525715716702
 30
0.0
 10
104.4518500172898
 20
-171.6525715716702
 30
0.0
 10
104.4835448957541
 20
-171.2949706603013
 30
0.0
 10
104.5493462195224
 20
-171.2167669927861
 30
0.0
 10
104.9341633852248
 20
-170.9184217237635
 30
0.0
 10
105.1901339797789
 20
-170.7196397142645
 30
0.0
 10
105.2559353035471
 20
-170.6521158427537
 30
0.0
 10
105.2559353035471
 20
-170.5146565328922
 30
0.0
 10
105.2559353035471
 20
-170.3961452481996
 30
0.0
 10
105.1839328079054
 20
-170.2648871102116
 30
0.0
 10
104.9872178556977
 20
-170.2648871102116
 30
0.0
 10
104.7271131465613
 20
-170.2648871102116
 30
0.0
 10
104.7185004078482
 20
-170.4953639981748
 30
0.0
 10
104.7143662932659
 20
-170.6118082255762
 30
0.0
 10
104.7143662932659
 20
-170.6118082255762
 30
0.0
 10
104.4900905771761
 20
-170.6118082255762
 30
0.0
 10
104.4900905771761
 20
-170.6118082255762
 30
0.0
 10
104.4983588063407
 20
-170.485028711719
 30
0.0
 10
104.509038602345
 20
-170.3727185988999
 30
0.0
 10
104.5893093271513
 20
-170.2542073142073
 30
0.0
 10
104.6995523826793
 20
-170.0936658645946
 30
0.0
 10
104.8855875388828
 20
-170.0595594192907
 30
0.0
 10
105.0020317662842
 20
-170.0595594192907
 30
0.0
 10
105.2790174432983
 20
-170.0595594192907
 30
0.0
 10
105.4864121915103
 20
-170.2438720277515
 30
0.0
 10
105.4864121915103
 20
-170.5167235901833
 30
0.0
 10
105.4864121915103
 20
-170.7451334208554
 30
0.0
 10
105.3699679641089
 20
-170.8446966803791
 30
0.0
 10
105.0612874086305
 20
-171.07103945376
 30
0.0
  0
HATCH
  5
84
330
7F
100
AcDbEntity
  8
_U+30EC_U+30A4_U+30E4_U+30FC 1
 62
   179
420
  2234388
100
AcDbHatch
 10
0.0
 20
0.0
 30
0.0
210
0.0
220
0.0
230
1.0
  2
SOLID
 70
     1
 71
     0
 91
        1
 92
        1
 93
        1
 72
     4
 94
        3
 73
     0
 74
     1
 95
       44
 96
       40
 40
0.0
 40
0.0
 40
0.0
 40
0.0
 40
1.0
 40
1.0
 40
1.0
 40
2.0
 40
2.0
 40
2.0
 40
3.0
 40
3.0
 40
3.0
 40
4.0
 40
4.0
 40
4.0
 40
5.0
 40
5.0
 40
5.0
 40
6.0
 40
6.0
 40
6.0
 40
7.0
 40
7.0
 40
7.0
 40
8.0
 40
8.0
 40
8.0
 40
9.0
 40
9.0
 40
9.0
 40
10.0
 40
10.0
 40
10.0
 40
11.0
 40
11.0
 40
11.0
 40
12.0
 40
12.0
 40
12.0
 40
13.0
 40
13.0
 40
13.0
 40
13.0
 10
105.0612874086305
 20
-171.07103945376
 10
104.8432128644142
 20
-171.2295138460815
 10
104.7501952863125
 20
-171.3035833990144
 10
104.7016194399704
 20
-171.4475883902978
 10
104.7016194399704
 20
-171.4475883902978
 10
105.4802110196369
 20
-171.4475883902978
 10
105.4802110196369
 20
-171.4475883902978
 10
105.4802110196369
 20
-171.4475883902978
 10
105.4802110196369
 20
-171.6525715716702
 10
105.4802110196369
 20
-171.6525715716702
 10
105.4802110196369
 20
-171.6525715716702
 10
104.4518500172898
 20
-171.6525715716702
 10
104.4518500172898
 20
-171.6525715716702
 10
104.4835448957541
 20
-171.2949706603013
 10
104.5493462195224
 20
-171.2167669927861
 10
104.9341633852248
 20
-170.9184217237635
 10
105.1901339797789
 20
-170.7196397142645
 10
105.2559353035471
 20
-170.6521158427537
 10
105.2559353035471
 20
-170.5146565328922
 10
105.2559353035471
 20
-170.3961452481996
 10
105.1839328079054
 20
-170.2648871102116
 10
104.9872178556977
 20
-170.2648871102116
 10
104.7271131465613
 20
-170.2648871102116
 10
104.7185004078482
 20
-170.4953639981748
 10
104.7143662932659
 20
-170.6118082255762
 10
104.7143662932659
 20
-170.6118082255762
 10
104.4900905771761
 20
-170.6118082255762
 10
104.4900905771761
 20
-170.6118082255762
 10
104.4983588063407
 20
-170.485028711719
 10
104.509038602345
 20
-170.3727185988999
 10
104.5893093271513
 20
-170.2542073142073
 10
104.6995523826793
 20
-170.0936658645946
 10
104.8855875388828
 20
-170.0595594192907
 10
105.0020317662842
 20
-170.0595594192907
 10
105.2790174432983
 20
-170.0595594192907
 10
105.4864121915103
 20
-170.2438720277515
 10
105.4864121915103
 20
-170.5167235901833
 10
105.4864121915103
 20
-170.7451334208554
 10
105.3699679641089
 20
-170.8446966803791
 10
105.0612874086305
 20
-171.07103945376
 97
        0
 97
        0
 75
     2
 76
     1
 98
        0
  0
SPLINE
  5
85
330
7F
100
AcDbEntity
  8
_U+30EC_U+30A4_U+30E4_U+30FC 1
370
     0
100
AcDbSpline
210
0.0
220
0.0
230
1.0
 70
    11
 71
     3
 72
    32
 73
    28
 74
     0
 42
0.0000000001
 43
0.0000000001
 12
1.0
 22
0.0
 32
0.0
 13
1.0
 23
0.0
 33
0.0
 40
0.0
 40
0.0
 40
0.0
 40
0.0
 40
1.0
 40
1.0
 40
1.0
 40
2.0
 40
2.0
 40
2.0
 40
3.0
 40
3.0
 40
3.0
 40
4.0
 40
4.0
 40
4.0
 40
5.0
 40
5.0
 40
5.0
 40
6.0
 40
6.0
 40
6.0
 40
7.0
 40
7.0
 40
7.0
 40
8.0
 40
8.0
 40
8.0
 40
9.0
 40
9.0
 40
9.0
 40
9.0
 10
106.1492485628724
 20
-171.7035589848519
 30
0.0
 10
105.633173259182
 20
-171.7035589848519
 30
0.0
 10
105.6245605204689
 20
-171.1492431212752
 30
0.0
 10
105.6245605204689
 20
-170.9356472011897
 30
0.0
 10
105.6245605204689
 20
-170.704825803678
 30
0.0
 10
105.6438530551863
 20
-170.0574923619995
 30
0.0
 10
106.1874891227587
 20
-170.0574923619995
 30
0.0
 10
106.3607774256668
 20
-170.0574923619995
 30
0.0
 10
106.6064127337651
 20
-170.1274278003501
 30
0.0
 10
106.6443087841028
 20
-170.4595350051282
 30
0.0
 10
106.6443087841028
 20
-170.4595350051282
 30
0.0
 10
106.4307128640173
 20
-170.4595350051282
 30
0.0
 10
106.4307128640173
 20
-170.4595350051282
 30
0.0
 10
106.4200330680131
 20
-170.402346420073
 30
0.0
 10
106.3883381895487
 20
-170.2542073142073
 30
0.0
 10
106.1854220654675
 20
-170.2542073142073
 30
0.0
 10
105.8932779683184
 20
-170.2542073142073
 30
0.0
 10
105.8533148606895
 20
-170.5821804044031
 30
0.0
 10
105.840568007394
 20
-170.787508095324
 30
0.0
 10
105.9335855854958
 20
-170.7093044278088
 30
0.0
 10
106.0014539665552
 20
-170.6500487854625
 30
0.0
 10
106.1833550081764
 20
-170.6500487854625
 30
0.0
 10
106.3631889925064
 20
-170.6500487854625
 30
0.0
 10
106.6656683761114
 20
-170.7578802741508
 30
0.0
 10
106.6656683761114
 20
-171.1640570318618
 30
0.0
 10
106.6656683761114
 20
-171.4834173833444
 30
0.0
 10
106.4665418570639
 20
-171.7035589848519
 30
0.0
 10
106.1492485628724
 20
-171.7035589848519
 30
0.0
  0
SPLINE
  5
86
330
7F
100
AcDbEntity
  8
_U+30EC_U+30A4_U+30E4_U+30FC 1
370
     0
100
AcDbSpline
210
0.0
220
0.0
230
1.0
 70
    11
 71
     3
 72
    17
 73
    13
 74
     0
 42
0.0000000001
 43
0.0000000001
 12
1.0
 22
0.0
 32
0.0
 13
1.0
 23
0.0
 33
0.0
 40
0.0
 40
0.0
 40
0.0
 40
0.0
 40
1.0
 40
1.0
 40
1.0
 40
2.0
 40
2.0
 40
2.0
 40
3.0
 40
3.0
 40
3.0
 40
4.0
 40
4.0
 40
4.0
 40
4.0
 10
106.1661295307501
 20
-170.8446966803791
 30
0.0
 10
105.9039577643226
 20
-170.8446966803791
 30
0.0
 10
105.8660617139849
 20
-171.0562255431734
 30
0.0
 10
105.8660617139849
 20
-171.1723252610264
 30
0.0
 10
105.8660617139849
 20
-171.3480251307741
 30
0.0
 10
105.9611463493778
 20
-171.5109781472264
 30
0.0
 10
106.1451144482901
 20
-171.5109781472264
 30
0.0
 10
106.2656927902739
 20
-171.5109781472264
 30
0.0
 10
106.4413926600216
 20
-171.4517225048801
 30
0.0
 10
106.4413926600216
 20
-171.1661240891529
 30
0.0
 10
106.4413926600216
 20
-170.9418483730632
 30
0.0
 10
106.301866292869
 20
-170.8446966803791
 30
0.0
 10
106.1661295307501
 20
-170.8446966803791
 30
0.0
  0
HATCH
  5
87
330
7F
100
AcDbEntity
  8
_U+30EC_U+30A4_U+30E4_U+30FC 1
 62
   179
420
  2234388
100
AcDbHatch
 10
0.0
 20
0.0
 30
0.0
210
0.0
220
0.0
230
1.0
  2
SOLID
 70
     1
 71
     0
 91
        2
 92
        1
 93
        1
 72
     4
 94
        3
 73
     0
 74
     1
 95
       32
 96
       28
 40
0.0
 40
0.0
 40
0.0
 40
0.0
 40
1.0
 40
1.0
 40
1.0
 40
2.0
 40
2.0
 40
2.0
 40
3.0
 40
3.0
 40
3.0
 40
4.0
 40
4.0
 40
4.0
 40
5.0
 40
5.0
 40
5.0
 40
6.0
 40
6.0
 40
6.0
 40
7.0
 40
7.0
 40
7.0
 40
8.0
 40
8.0
 40
8.0
 40
9.0
 40
9.0
 40
9.0
 40
9.0
 10
106.1492485628724
 20
-171.7035589848519
 10
105.633173259182
 20
-171.7035589848519
 10
105.6245605204689
 20
-171.1492431212752
 10
105.6245605204689
 20
-170.9356472011897
 10
105.6245605204689
 20
-170.704825803678
 10
105.6438530551863
 20
-170.0574923619995
 10
106.1874891227587
 20
-170.0574923619995
 10
106.3607774256668
 20
-170.0574923619995
 10
106.6064127337651
 20
-170.1274278003501
 10
106.6443087841028
 20
-170.4595350051282
 10
106.6443087841028
 20
-170.4595350051282
 10
106.4307128640173
 20
-170.4595350051282
 10
106.4307128640173
 20
-170.4595350051282
 10
106.4200330680131
 20
-170.402346420073
 10
106.3883381895487
 20
-170.2542073142073
 10
106.1854220654675
 20
-170.2542073142073
 10
105.8932779683184
 20
-170.2542073142073
 10
105.8533148606895
 20
-170.5821804044031
 10
105.840568007394
 20
-170.787508095324
 10
105.9335855854958
 20
-170.7093044278088
 10
106.0014539665552
 20
-170.6500487854625
 10
106.1833550081764
 20
-170.6500487854625
 10
106.3631889925064
 20
-170.6500487854625
 10
106.6656683761114
 20
-170.7578802741508
 10
106.6656683761114
 20
-171.1640570318618
 10
106.6656683761114
 20
-171.4834173833444
 10
106.4665418570639
 20
-171.7035589848519
 10
106.1492485628724
 20
-171.7035589848519
 97
        0
 97
        0
 92
        1
 93
        1
 72
     4
 94
        3
 73
     0
 74
     1
 95
       17
 96
       13
 40
0.0
 40
0.0
 40
0.0
 40
0.0
 40
1.0
 40
1.0
 40
1.0
 40
2.0
 40
2.0
 40
2.0
 40
3.0
 40
3.0
 40
3.0
 40
4.0
 40
4.0
 40
4.0
 40
4.0
 10
106.1661295307501
 20
-170.8446966803791
 10
105.9039577643226
 20
-170.8446966803791
 10
105.8660617139849
 20
-171.0562255431734
 10
105.8660617139849
 20
-171.1723252610264
 10
105.8660617139849
 20
-171.3480251307741
 10
105.9611463493778
 20
-171.5109781472264
 10
106.1451144482901
 20
-171.5109781472264
 10
106.2656927902739
 20
-171.5109781472264
 10
106.4413926600216
 20
-171.4517225048801
 10
106.4413926600216
 20
-171.1661240891529
 10
106.4413926600216
 20
-170.9418483730632
 10
106.301866292869
 20
-170.8446966803791
 10
106.1661295307501
 20
-170.8446966803791
 97
        0
 97
        0
 75
     2
 76
     1
 98
        0
  0
ENDBLK
  5
82
330
7F
100
AcDbEntity
  8
0
100
AcDbBlockEnd
  0
BLOCK
  5
92
330
90
100
AcDbEntity
  8
0
100
AcDbBlockBegin
  2
block 4
 70
     0
 10
0.0
 20
0.0
 30
0.0
  3
block 4
  1

  0
SPLINE
  5
94
330
90
100
AcDbEntity
  8
_U+30EC_U+30A4_U+30E4_U+30FC 1
370
     0
100
AcDbSpline
210
0.0
220
0.0
230
1.0
 70
    11
 71
     3
 72
    17
 73
    13
 74
     0
 42
0.0000000001
 43
0.0000000001
 12
1.0
 22
0.0
 32
0.0
 13
1.0
 23
0.0
 33
0.0
 40
0.0
 40
0.0
 40
0.0
 40
0.0
 40
1.0
 40
1.0
 40
1.0
 40
2.0
 40
2.0
 40
2.0
 40
3.0
 40
3.0
 40
3.0
 40
4.0
 40
4.0
 40
4.0
 40
4.0
 10
85.85625811655677
 20
-163.8625216604233
 30
0.0
 10
85.7504936851596
 20
-163.7567572290261
 30
0.0
 10
85.67005070557902
 20
-163.7188611786883
 30
0.0
 10
85.57686087270301
 20
-163.687166300224
 30
0.0
 10
85.57686087270301
 20
-163.687166300224
 30
0.0
 10
85.68693167345674
 20
-163.5221462264806
 30
0.0
 10
85.68693167345674
 20
-163.5221462264806
 30
0.0
 10
85.78425562091505
 20
-163.5645209009492
 30
0.0
 10
85.90483396289879
 20
-163.6427245684643
 30
0.0
 10
85.95771617859738
 20
-163.6975015866798
 30
0.0
 10
85.95771617859738
 20
-163.6975015866798
 30
0.0
 10
85.85625811655677
 20
-163.8625216604233
 30
0.0
 10
85.85625811655677
 20
-163.8625216604233
 30
0.0
  0
SPLINE
  5
95
330
90
100
AcDbEntity
  8
_U+30EC_U+30A4_U+30E4_U+30FC 1
370
     0
100
AcDbSpline
210
0.0
220
0.0
230
1.0
 70
    11
 71
     3
 72
   182
 73
   178
 74
     0
 42
0.0000000001
 43
0.0000000001
 12
1.0
 22
0.0
 32
0.0
 13
1.0
 23
0.0
 33
0.0
 40
0.0
 40
0.0
 40
0.0
 40
0.0
 40
1.0
 40
1.0
 40
1.0
 40
2.0
 40
2.0
 40
2.0
 40
3.0
 40
3.0
 40
3.0
 40
4.0
 40
4.0
 40
4.0
 40
5.0
 40
5.0
 40
5.0
 40
6.0
 40
6.0
 40
6.0
 40
7.0
 40
7.0
 40
7.0
 40
8.0
 40
8.0
 40
8.0
 40
9.0
 40
9.0
 40
9.0
 40
10.0
 40
10.0
 40
10.0
 40
11.0
 40
11.0
 40
11.0
 40
12.0
 40
12.0
 40
12.0
 40
13.0
 40
13.0
 40
13.0
 40
14.0
 40
14.0
 40
14.0
 40
15.0
 40
15.0
 40
15.0
 40
16.0
 40
16.0
 40
16.0
 40
17.0
 40
17.0
 40
17.0
 40
18.0
 40
18.0
 40
18.0
 40
19.0
 40
19.0
 40
19.0
 40
20.0
 40
20.0
 40
20.0
 40
21.0
 40
21.0
 40
21.0
 40
22.0
 40
22.0
 40
22.0
 40
23.0
 40
23.0
 40
23.0
 40
24.0
 40
24.0
 40
24.0
 40
25.0
 40
25.0
 40
25.0
 40
26.0
 40
26.0
 40
26.0
 40
27.0
 40
27.0
 40
27.0
 40
28.0
 40
28.0
 40
28.0
 40
29.0
 40
29.0
 40
29.0
 40
30.0
 40
30.0
 40
30.0
 40
31.0
 40
31.0
 40
31.0
 40
32.0
 40
32.0
 40
32.0
 40
33.0
 40
33.0
 40
33.0
 40
34.0
 40
34.0
 40
34.0
 40
35.0
 40
35.0
 40
35.0
 40
36.0
 40
36.0
 40
36.0
 40
37.0
 40
37.0
 40
37.0
 40
38.0
 40
38.0
 40
38.0
 40
39.0
 40
39.0
 40
39.0
 40
40.0
 40
40.0
 40
40.0
 40
41.0
 40
41.0
 40
41.0
 40
42.0
 40
42.0
 40
42.0
 40
43.0
 40
43.0
 40
43.0
 40
44.0
 40
44.0
 40
44.0
 40
45.0
 40
45.0
 40
45.0
 40
46.0
 40
46.0
 40
46.0
 40
47.0
 40
47.0
 40
47.0
 40
48.0
 40
48.0
 40
48.0
 40
49.0
 40
49.0
 40
49.0
 40
50.0
 40
50.0
 40
50.0
 40
51.0
 40
51.0
 40
51.0
 40
52.0
 40
52.0
 40
52.0
 40
53.0
 40
53.0
 40
53.0
 40
54.0
 40
54.0
 40
54.0
 40
55.0
 40
55.0
 40
55.0
 40
56.0
 40
56.0
 40
56.0
 40
57.0
 40
57.0
 40
57.0
 40
58.0
 40
58.0
 40
58.0
 40
59.0
 40
59.0
 40
59.0
 40
59.0
 10
86.90132783200731
 20
-165.0410888259272
 30
0.0
 10
86.90132783200731
 20
-165.0410888259272
 30
0.0
 10
86.26450193155888
 20
-165.0410888259272
 30
0.0
 10
86.26450193155888
 20
-165.0410888259272
 30
0.0
 10
86.05073375669913
 20
-165.0410888259272
 30
0.0
 10
85.83507077932249
 20
-165.0452229405095
 30
0.0
 10
85.62130260446273
 20
-165.057969793805
 30
0.0
 10
85.62130260446273
 20
-165.057969793805
 30
0.0
 10
85.62130260446273
 20
-164.8505750455929
 30
0.0
 10
85.62130260446273
 20
-164.8505750455929
 30
0.0
 10
85.84351126326135
 20
-164.8633218988883
 30
0.0
 10
86.16717798410058
 20
-164.8674560134706
 30
0.0
 10
86.26450193155888
 20
-164.8674560134706
 30
0.0
 10
86.26450193155888
 20
-164.8674560134706
 30
0.0
 10
86.48447127829208
 20
-164.8674560134706
 30
0.0
 10
86.48447127829208
 20
-164.8674560134706
 30
0.0
 10
86.48447127829208
 20
-164.8674560134706
 30
0.0
 10
86.48447127829208
 20
-164.7258625890269
 30
0.0
 10
86.48447127829208
 20
-164.7258625890269
 30
0.0
 10
86.48447127829208
 20
-164.7258625890269
 30
0.0
 10
86.32375757390517
 20
-164.7258625890269
 30
0.0
 10
86.32375757390517
 20
-164.7258625890269
 30
0.0
 10
86.1587375001617
 20
-164.7258625890269
 30
0.0
 10
85.99371742641824
 20
-164.7299967036092
 30
0.0
 10
85.82869735267478
 20
-164.7448106141958
 30
0.0
 10
85.82869735267478
 20
-164.7448106141958
 30
0.0
 10
85.82869735267478
 20
-164.5353488086926
 30
0.0
 10
85.82869735267478
 20
-164.5353488086926
 30
0.0
 10
86.00009085306596
 20
-164.5501627192791
 30
0.0
 10
86.24762096368116
 20
-164.5542968338614
 30
0.0
 10
86.32375757390517
 20
-164.5542968338614
 30
0.0
 10
86.32375757390517
 20
-164.5542968338614
 30
0.0
 10
86.48447127829208
 20
-164.5542968338614
 30
0.0
 10
86.48447127829208
 20
-164.5542968338614
 30
0.0
 10
86.48033716370978
 20
-164.4826388477682
 30
0.0
 10
86.48033716370978
 20
-164.4760931663463
 30
0.0
 10
86.47396373706206
 20
-164.4233832054219
 30
0.0
 10
86.47396373706206
 20
-164.4233832054219
 30
0.0
 10
86.61349010421469
 20
-164.4381971160085
 30
0.0
 10
86.61349010421469
 20
-164.4381971160085
 30
0.0
 10
86.61349010421469
 20
-164.4381971160085
 30
0.0
 10
86.51409909946523
 20
-164.2666313608431
 30
0.0
 10
86.51409909946523
 20
-164.2666313608431
 30
0.0
 10
86.5606078885161
 20
-164.273177042265
 30
0.0
 10
86.63467744144897
 20
-164.2814452714296
 30
0.0
 10
86.6515584093267
 20
-164.2814452714296
 30
0.0
 10
86.70237356773413
 20
-164.2814452714296
 30
0.0
 10
86.71925453561185
 20
-164.2604301889696
 30
0.0
 10
86.71925453561185
 20
-164.2032416039145
 30
0.0
 10
86.71925453561185
 20
-164.2032416039145
 30
0.0
 10
86.71925453561185
 20
-164.065782294053
 30
0.0
 10
86.71925453561185
 20
-164.065782294053
 30
0.0
 10
86.71925453561185
 20
-164.065782294053
 30
0.0
 10
86.61349010421469
 20
-164.065782294053
 30
0.0
 10
86.61349010421469
 20
-164.065782294053
 30
0.0
 10
86.48033716370978
 20
-164.065782294053
 30
0.0
 10
86.32375757390517
 20
-164.065782294053
 30
0.0
 10
86.20093991985603
 20
-164.0785291473484
 30
0.0
 10
86.20093991985603
 20
-164.0785291473484
 30
0.0
 10
86.20093991985603
 20
-163.8880153670141
 30
0.0
 10
86.20093991985603
 20
-163.8880153670141
 30
0.0
 10
86.3681993056649
 20
-163.9048963348918
 30
0.0
 10
86.59867619362811
 20
-163.906963392183
 30
0.0
 10
86.61349010421469
 20
-163.906963392183
 30
0.0
 10
86.61349010421469
 20
-163.906963392183
 30
0.0
 10
86.71925453561185
 20
-163.906963392183
 30
0.0
 10
86.71925453561185
 20
-163.906963392183
 30
0.0
 10
86.71925453561185
 20
-163.906963392183
 30
0.0
 10
86.71925453561185
 20
-163.7760497637435
 30
0.0
 10
86.71925453561185
 20
-163.7760497637435
 30
0.0
 10
86.71925453561185
 20
-163.7760497637435
 30
0.0
 10
86.68118623049985
 20
-163.7760497637435
 30
0.0
 10
86.68118623049985
 20
-163.7760497637435
 30
0.0
 10
86.63674449874013
 20
-163.7760497637435
 30
0.0
 10
86.51203204217408
 20
-163.7801838783258
 30
0.0
 10
86.42314857865463
 20
-163.7884521074904
 30
0.0
 10
86.42314857865463
 20
-163.7884521074904
 30
0.0
 10
86.42314857865463
 20
-163.7081813826841
 30
0.0
 10
86.42314857865463
 20
-163.7081813826841
 30
0.0
 10
86.37026636295604
 20
-163.7464219425704
 30
0.0
 10
86.34494491113946
 20
-163.7612358531569
 30
0.0
 10
86.30257023667089
 20
-163.7843179929081
 30
0.0
 10
86.30257023667089
 20
-163.7843179929081
 30
0.0
 10
86.11429576840199
 20
-163.6554714217598
 30
0.0
 10
86.11429576840199
 20
-163.6554714217598
 30
0.0
 10
86.19249943591716
 20
-163.6213649764558
 30
0.0
 10
86.34907902572176
 20
-163.5579752195272
 30
0.0
 10
86.50565861552637
 20
-163.4143147377923
 30
0.0
 10
86.5881686523981
 20
-163.3357665607286
 30
0.0
 10
86.66637231991328
 20
-163.2513617213399
 30
0.0
 10
86.71925453561185
 20
-163.1497314045251
 30
0.0
 10
86.71925453561185
 20
-163.1497314045251
 30
0.0
 10
86.93078339840619
 20
-163.2110541041625
 30
0.0
 10
86.93078339840619
 20
-163.2110541041625
 30
0.0
 10
86.94990367834933
 20
-163.217255276036
 30
0.0
 10
86.96041121957934
 20
-163.2258680147491
 30
0.0
 10
86.96041121957934
 20
-163.2386148680445
 30
0.0
 10
86.96041121957934
 20
-163.2554958359222
 30
0.0
 10
86.94783662105819
 20
-163.2616970077957
 30
0.0
 10
86.92234291446734
 20
-163.2744438610911
 30
0.0
 10
87.00278589404792
 20
-163.3719400633237
 30
0.0
 10
87.16573891050024
 20
-163.4690917560077
 30
0.0
 10
87.19950084625569
 20
-163.4880397811766
 30
0.0
 10
87.34970700941258
 20
-163.576923244696
 30
0.0
 10
87.46391192474861
 20
-163.6044840085781
 30
0.0
 10
87.54228784703804
 20
-163.6234320337469
 30
0.0
 10
87.54228784703804
 20
-163.6234320337469
 30
0.0
 10
87.42377656234545
 20
-163.7929307316212
 30
0.0
 10
87.42377656234545
 20
-163.7929307316212
 30
0.0
 10
87.33919946818257
 20
-163.7633029104481
 30
0.0
 10
87.28838430977513
 20
-163.7443548852792
 30
0.0
 10
87.16987302508254
 20
-163.6785535615109
 30
0.0
 10
87.16987302508254
 20
-163.6785535615109
 30
0.0
 10
87.16987302508254
 20
-163.7884521074904
 30
0.0
 10
87.16987302508254
 20
-163.7884521074904
 30
0.0
 10
87.0873629882108
 20
-163.7801838783258
 30
0.0
 10
86.96041121957934
 20
-163.7760497637435
 30
0.0
 10
86.90752900388075
 20
-163.7760497637435
 30
0.0
 10
86.90752900388075
 20
-163.7760497637435
 30
0.0
 10
86.90752900388075
 20
-163.906963392183
 30
0.0
 10
86.90752900388075
 20
-163.906963392183
 30
0.0
 10
86.90752900388075
 20
-163.906963392183
 30
0.0
 10
87.0281073458645
 20
-163.906963392183
 30
0.0
 10
87.0281073458645
 20
-163.906963392183
 30
0.0
 10
87.03034665792991
 20
-163.906963392183
 30
0.0
 10
87.26306285795854
 20
-163.9048963348918
 30
0.0
 10
87.44065753022318
 20
-163.8880153670141
 30
0.0
 10
87.44065753022318
 20
-163.8880153670141
 30
0.0
 10
87.44065753022318
 20
-164.0785291473484
 30
0.0
 10
87.44065753022318
 20
-164.0785291473484
 30
0.0
 10
87.31163870430056
 20
-164.065782294053
 30
0.0
 10
87.15505911449596
 20
-164.065782294053
 30
0.0
 10
87.0281073458645
 20
-164.065782294053
 30
0.0
 10
87.0281073458645
 20
-164.065782294053
 30
0.0
 10
86.90752900388075
 20
-164.065782294053
 30
0.0
 10
86.90752900388075
 20
-164.065782294053
 30
0.0
 10
86.90752900388075
 20
-164.065782294053
 30
0.0
 10
86.90752900388075
 20
-164.2921250674339
 30
0.0
 10
86.90752900388075
 20
-164.2921250674339
 30
0.0
 10
86.90752900388075
 20
-164.4106363521265
 30
0.0
 10
86.88220755206417
 20
-164.4464653451731
 30
0.0
 10
86.72149384767727
 20
-164.4612792557597
 30
0.0
 10
86.72562796225957
 20
-164.4802272809286
 30
0.0
 10
86.71925453561185
 20
-164.4909070769328
 30
0.0
 10
86.68118623049985
 20
-164.5143337262325
 30
0.0
 10
86.67911917320869
 20
-164.5332817514014
 30
0.0
 10
86.67911917320869
 20
-164.5394829232748
 30
0.0
 10
86.67705211591755
 20
-164.5542968338614
 30
0.0
 10
86.67705211591755
 20
-164.5542968338614
 30
0.0
 10
86.81451142577902
 20
-164.5542968338614
 30
0.0
 10
86.81451142577902
 20
-164.5542968338614
 30
0.0
 10
86.97953149952248
 20
-164.5542968338614
 30
0.0
 10
87.1466186305571
 20
-164.5501627192791
 30
0.0
 10
87.31370576159172
 20
-164.5353488086926
 30
0.0
 10
87.31370576159172
 20
-164.5353488086926
 30
0.0
 10
87.31370576159172
 20
-164.7427435569046
 30
0.0
 10
87.31370576159172
 20
-164.7427435569046
 30
0.0
 10
87.09804278421508
 20
-164.7258625890269
 30
0.0
 10
86.83363170572215
 20
-164.7258625890269
 30
0.0
 10
86.81451142577902
 20
-164.7258625890269
 30
0.0
 10
86.81451142577902
 20
-164.7258625890269
 30
0.0
 10
86.67481280385213
 20
-164.7258625890269
 30
0.0
 10
86.67481280385213
 20
-164.7258625890269
 30
0.0
 10
86.67481280385213
 20
-164.7258625890269
 30
0.0
 10
86.67481280385213
 20
-164.8674560134706
 30
0.0
 10
86.67481280385213
 20
-164.8674560134706
 30
0.0
 10
86.67481280385213
 20
-164.8674560134706
 30
0.0
 10
86.90132783200731
 20
-164.8674560134706
 30
0.0
 10
86.90132783200731
 20
-164.8674560134706
 30
0.0
 10
87.11699080938395
 20
-164.8674560134706
 30
0.0
 10
87.334893098826
 20
-164.8633218988883
 30
0.0
 10
87.55072833097691
 20
-164.8505750455929
 30
0.0
 10
87.55072833097691
 20
-164.8505750455929
 30
0.0
 10
87.55072833097691
 20
-165.057969793805
 30
0.0
 10
87.55072833097691
 20
-165.057969793805
 30
0.0
 10
87.26926402983199
 20
-165.0410888259272
 30
0.0
 10
86.92458222653275
 20
-165.0410888259272
 30
0.0
 10
86.90132783200731
 20
-165.0410888259272
 30
0.0
  0
SPLINE
  5
96
330
90
100
AcDbEntity
  8
_U+30EC_U+30A4_U+30E4_U+30FC 1
370
     0
100
AcDbSpline
210
0.0
220
0.0
230
1.0
 70
    11
 71
     3
 72
    23
 73
    19
 74
     0
 42
0.0000000001
 43
0.0000000001
 12
1.0
 22
0.0
 32
0.0
 13
1.0
 23
0.0
 33
0.0
 40
0.0
 40
0.0
 40
0.0
 40
0.0
 40
1.0
 40
1.0
 40
1.0
 40
2.0
 40
2.0
 40
2.0
 40
3.0
 40
3.0
 40
3.0
 40
4.0
 40
4.0
 40
4.0
 40
5.0
 40
5.0
 40
5.0
 40
6.0
 40
6.0
 40
6.0
 40
6.0
 10
85.7821885636239
 20
-164.4127034094177
 30
0.0
 10
85.7821885636239
 20
-164.4337184918777
 30
0.0
 10
85.78425562091505
 20
-164.471959051764
 30
0.0
 10
85.75893416909847
 20
-164.471959051764
 30
0.0
 10
85.74825437309418
 20
-164.471959051764
 30
0.0
 10
85.73981388915533
 20
-164.465413370342
 30
0.0
 10
85.72930634792532
 20
-164.4485324024643
 30
0.0
 10
85.72930634792532
 20
-164.4485324024643
 30
0.0
 10
85.6256089738193
 20
-164.2666313608431
 30
0.0
 10
85.6256089738193
 20
-164.2666313608431
 30
0.0
 10
85.8414442059702
 20
-164.1377847896947
 30
0.0
 10
86.03815915817796
 20
-163.8604546031321
 30
0.0
 10
86.08466794722884
 20
-163.7884521074904
 30
0.0
 10
86.08466794722884
 20
-163.7884521074904
 30
0.0
 10
86.15667044287056
 20
-163.9682860918204
 30
0.0
 10
86.15667044287056
 20
-163.9682860918204
 30
0.0
 10
86.0233452475914
 20
-164.1650010440282
 30
0.0
 10
85.84764537784365
 20
-164.3493136524891
 30
0.0
 10
85.7821885636239
 20
-164.4127034094177
 30
0.0
  0
SPLINE
  5
97
330
90
100
AcDbEntity
  8
_U+30EC_U+30A4_U+30E4_U+30FC 1
370
     0
100
AcDbSpline
210
0.0
220
0.0
230
1.0
 70
    11
 71
     3
 72
    17
 73
    13
 74
     0
 42
0.0000000001
 43
0.0000000001
 12
1.0
 22
0.0
 32
0.0
 13
1.0
 23
0.0
 33
0.0
 40
0.0
 40
0.0
 40
0.0
 40
0.0
 40
1.0
 40
1.0
 40
1.0
 40
2.0
 40
2.0
 40
2.0
 40
3.0
 40
3.0
 40
3.0
 40
4.0
 40
4.0
 40
4.0
 40
4.0
 10
86.03609210088682
 20
-163.5176676023497
 30
0.0
 10
85.9745971464751
 20
-163.4415309921257
 30
0.0
 10
85.8455783205525
 20
-163.3653943819017
 30
0.0
 10
85.74188094644647
 20
-163.3357665607286
 30
0.0
 10
85.74188094644647
 20
-163.3357665607286
 30
0.0
 10
85.83713783661364
 20
-163.1707464869851
 30
0.0
 10
85.83713783661364
 20
-163.1707464869851
 30
0.0
 10
85.93876815342851
 20
-163.2069199895802
 30
0.0
 10
86.04453258482567
 20
-163.2641085746354
 30
0.0
 10
86.13324379357086
 20
-163.3443792994417
 30
0.0
 10
86.13324379357086
 20
-163.3443792994417
 30
0.0
 10
86.03609210088682
 20
-163.5176676023497
 30
0.0
 10
86.03609210088682
 20
-163.5176676023497
 30
0.0
  0
SPLINE
  5
98
330
90
100
AcDbEntity
  8
_U+30EC_U+30A4_U+30E4_U+30FC 1
370
     0
100
AcDbSpline
210
0.0
220
0.0
230
1.0
 70
    11
 71
     3
 72
    23
 73
    19
 74
     0
 42
0.0000000001
 43
0.0000000001
 12
1.0
 22
0.0
 32
0.0
 13
1.0
 23
0.0
 33
0.0
 40
0.0
 40
0.0
 40
0.0
 40
0.0
 40
1.0
 40
1.0
 40
1.0
 40
2.0
 40
2.0
 40
2.0
 40
3.0
 40
3.0
 40
3.0
 40
4.0
 40
4.0
 40
4.0
 40
5.0
 40
5.0
 40
5.0
 40
6.0
 40
6.0
 40
6.0
 40
6.0
 10
86.48877764764865
 20
-164.2221896290833
 30
0.0
 10
86.46759031041435
 20
-164.245616278383
 30
0.0
 10
86.37026636295604
 20
-164.3575818816537
 30
0.0
 10
86.23056774102916
 20
-164.4381971160085
 30
0.0
 10
86.23056774102916
 20
-164.4381971160085
 30
0.0
 10
86.06348060999456
 20
-164.3176187740248
 30
0.0
 10
86.06348060999456
 20
-164.3176187740248
 30
0.0
 10
86.21368677315144
 20
-164.2414821638008
 30
0.0
 10
86.3130777779009
 20
-164.1460530188593
 30
0.0
 10
86.36182587901719
 20
-164.093343057935
 30
0.0
 10
86.36182587901719
 20
-164.093343057935
 30
0.0
 10
86.53528643669952
 20
-164.1756808400325
 30
0.0
 10
86.53528643669952
 20
-164.1756808400325
 30
0.0
 10
86.54372692063838
 20
-164.1798149546148
 30
0.0
 10
86.55216740457723
 20
-164.1863606360367
 30
0.0
 10
86.55216740457723
 20
-164.197040432041
 30
0.0
 10
86.55216740457723
 20
-164.2221896290833
 30
0.0
 10
86.51616615675638
 20
-164.2221896290833
 30
0.0
 10
86.48877764764865
 20
-164.2221896290833
 30
0.0
  0
SPLINE
  5
99
330
90
100
AcDbEntity
  8
_U+30EC_U+30A4_U+30E4_U+30FC 1
370
     0
100
AcDbSpline
210
0.0
220
0.0
230
1.0
 70
    11
 71
     3
 72
    20
 73
    16
 74
     0
 42
0.0000000001
 43
0.0000000001
 12
1.0
 22
0.0
 32
0.0
 13
1.0
 23
0.0
 33
0.0
 40
0.0
 40
0.0
 40
0.0
 40
0.0
 40
1.0
 40
1.0
 40
1.0
 40
2.0
 40
2.0
 40
2.0
 40
3.0
 40
3.0
 40
3.0
 40
4.0
 40
4.0
 40
4.0
 40
5.0
 40
5.0
 40
5.0
 40
5.0
 10
86.78695066189701
 20
-163.3802082924883
 30
0.0
 10
86.748882356785
 20
-163.4291286483788
 30
0.0
 10
86.68755965714756
 20
-163.507332315894
 30
0.0
 10
86.54803328999493
 20
-163.6172308618735
 30
0.0
 10
86.62830401480126
 20
-163.6213649764558
 30
0.0
 10
86.65793183597441
 20
-163.6213649764558
 30
0.0
 10
86.68118623049985
 20
-163.6213649764558
 30
0.0
 10
86.68118623049985
 20
-163.6213649764558
 30
0.0
 10
86.90976831594617
 20
-163.6213649764558
 30
0.0
 10
86.90976831594617
 20
-163.6213649764558
 30
0.0
 10
86.94146319441047
 20
-163.6213649764558
 30
0.0
 10
86.99003904075249
 20
-163.6192979191646
 30
0.0
 10
87.06410859368536
 20
-163.6172308618735
 30
0.0
 10
86.95197073564049
 20
-163.5431613089406
 30
0.0
 10
86.90339488929845
 20
-163.4966525198897
 30
0.0
 10
86.78695066189701
 20
-163.3802082924883
 30
0.0
  0
SPLINE
  5
9A
330
90
100
AcDbEntity
  8
_U+30EC_U+30A4_U+30E4_U+30FC 1
370
     0
100
AcDbSpline
210
0.0
220
0.0
230
1.0
 70
    11
 71
     3
 72
    17
 73
    13
 74
     0
 42
0.0000000001
 43
0.0000000001
 12
1.0
 22
0.0
 32
0.0
 13
1.0
 23
0.0
 33
0.0
 40
0.0
 40
0.0
 40
0.0
 40
0.0
 40
1.0
 40
1.0
 40
1.0
 40
2.0
 40
2.0
 40
2.0
 40
3.0
 40
3.0
 40
3.0
 40
4.0
 40
4.0
 40
4.0
 40
4.0
 10
87.34763995212143
 20
-164.4357855491688
 30
0.0
 10
87.21224769955111
 20
-164.3238199458982
 30
0.0
 10
87.10648326815394
 20
-164.2604301889696
 30
0.0
 10
86.98797198346135
 20
-164.197040432041
 30
0.0
 10
86.98797198346135
 20
-164.197040432041
 30
0.0
 10
87.1149237520928
 20
-164.0847303192219
 30
0.0
 10
87.1149237520928
 20
-164.0847303192219
 30
0.0
 10
87.24600963530656
 20
-164.1312391082728
 30
0.0
 10
87.3560804360603
 20
-164.1884276933279
 30
0.0
 10
87.4809651474006
 20
-164.2900580101428
 30
0.0
 10
87.4809651474006
 20
-164.2900580101428
 30
0.0
 10
87.34763995212143
 20
-164.4357855491688
 30
0.0
 10
87.34763995212143
 20
-164.4357855491688
 30
0.0
  0
HATCH
  5
9B
330
90
100
AcDbEntity
  8
_U+30EC_U+30A4_U+30E4_U+30FC 1
 62
   179
420
  2234388
100
AcDbHatch
 10
0.0
 20
0.0
 30
0.0
210
0.0
220
0.0
230
1.0
  2
SOLID
 70
     1
 71
     0
 91
        7
 92
        1
 93
        1
 72
     4
 94
        3
 73
     0
 74
     1
 95
       17
 96
       13
 40
0.0
 40
0.0
 40
0.0
 40
0.0
 40
1.0
 40
1.0
 40
1.0
 40
2.0
 40
2.0
 40
2.0
 40
3.0
 40
3.0
 40
3.0
 40
4.0
 40
4.0
 40
4.0
 40
4.0
 10
85.85625811655677
 20
-163.8625216604233
 10
85.7504936851596
 20
-163.7567572290261
 10
85.67005070557902
 20
-163.7188611786883
 10
85.57686087270301
 20
-163.687166300224
 10
85.57686087270301
 20
-163.687166300224
 10
85.68693167345674
 20
-163.5221462264806
 10
85.68693167345674
 20
-163.5221462264806
 10
85.78425562091505
 20
-163.5645209009492
 10
85.90483396289879
 20
-163.6427245684643
 10
85.95771617859738
 20
-163.6975015866798
 10
85.95771617859738
 20
-163.6975015866798
 10
85.85625811655677
 20
-163.8625216604233
 10
85.85625811655677
 20
-163.8625216604233
 97
        0
 97
        0
 92
        1
 93
        1
 72
     4
 94
        3
 73
     0
 74
     1
 95
      182
 96
      178
 40
0.0
 40
0.0
 40
0.0
 40
0.0
 40
1.0
 40
1.0
 40
1.0
 40
2.0
 40
2.0
 40
2.0
 40
3.0
 40
3.0
 40
3.0
 40
4.0
 40
4.0
 40
4.0
 40
5.0
 40
5.0
 40
5.0
 40
6.0
 40
6.0
 40
6.0
 40
7.0
 40
7.0
 40
7.0
 40
8.0
 40
8.0
 40
8.0
 40
9.0
 40
9.0
 40
9.0
 40
10.0
 40
10.0
 40
10.0
 40
11.0
 40
11.0
 40
11.0
 40
12.0
 40
12.0
 40
12.0
 40
13.0
 40
13.0
 40
13.0
 40
14.0
 40
14.0
 40
14.0
 40
15.0
 40
15.0
 40
15.0
 40
16.0
 40
16.0
 40
16.0
 40
17.0
 40
17.0
 40
17.0
 40
18.0
 40
18.0
 40
18.0
 40
19.0
 40
19.0
 40
19.0
 40
20.0
 40
20.0
 40
20.0
 40
21.0
 40
21.0
 40
21.0
 40
22.0
 40
22.0
 40
22.0
 40
23.0
 40
23.0
 40
23.0
 40
24.0
 40
24.0
 40
24.0
 40
25.0
 40
25.0
 40
25.0
 40
26.0
 40
26.0
 40
26.0
 40
27.0
 40
27.0
 40
27.0
 40
28.0
 40
28.0
 40
28.0
 40
29.0
 40
29.0
 40
29.0
 40
30.0
 40
30.0
 40
30.0
 40
31.0
 40
31.0
 40
31.0
 40
32.0
 40
32.0
 40
32.0
 40
33.0
 40
33.0
 40
33.0
 40
34.0
 40
34.0
 40
34.0
 40
35.0
 40
35.0
 40
35.0
 40
36.0
 40
36.0
 40
36.0
 40
37.0
 40
37.0
 40
37.0
 40
38.0
 40
38.0
 40
38.0
 40
39.0
 40
39.0
 40
39.0
 40
40.0
 40
40.0
 40
40.0
 40
41.0
 40
41.0
 40
41.0
 40
42.0
 40
42.0
 40
42.0
 40
43.0
 40
43.0
 40
43.0
 40
44.0
 40
44.0
 40
44.0
 40
45.0
 40
45.0
 40
45.0
 40
46.0
 40
46.0
 40
46.0
 40
47.0
 40
47.0
 40
47.0
 40
48.0
 40
48.0
 40
48.0
 40
49.0
 40
49.0
 40
49.0
 40
50.0
 40
50.0
 40
50.0
 40
51.0
 40
51.0
 40
51.0
 40
52.0
 40
52.0
 40
52.0
 40
53.0
 40
53.0
 40
53.0
 40
54.0
 40
54.0
 40
54.0
 40
55.0
 40
55.0
 40
55.0
 40
56.0
 40
56.0
 40
56.0
 40
57.0
 40
57.0
 40
57.0
 40
58.0
 40
58.0
 40
58.0
 40
59.0
 40
59.0
 40
59.0
 40
59.0
 10
86.90132783200731
 20
-165.0410888259272
 10
86.90132783200731
 20
-165.0410888259272
 10
86.26450193155888
 20
-165.0410888259272
 10
86.26450193155888
 20
-165.0410888259272
 10
86.05073375669913
 20
-165.0410888259272
 10
85.83507077932249
 20
-165.0452229405095
 10
85.62130260446273
 20
-165.057969793805
 10
85.62130260446273
 20
-165.057969793805
 10
85.62130260446273
 20
-164.8505750455929
 10
85.62130260446273
 20
-164.8505750455929
 10
85.84351126326135
 20
-164.8633218988883
 10
86.16717798410058
 20
-164.8674560134706
 10
86.26450193155888
 20
-164.8674560134706
 10
86.26450193155888
 20
-164.8674560134706
 10
86.48447127829208
 20
-164.8674560134706
 10
86.48447127829208
 20
-164.8674560134706
 10
86.48447127829208
 20
-164.8674560134706
 10
86.48447127829208
 20
-164.7258625890269
 10
86.48447127829208
 20
-164.7258625890269
 10
86.48447127829208
 20
-164.7258625890269
 10
86.32375757390517
 20
-164.7258625890269
 10
86.32375757390517
 20
-164.7258625890269
 10
86.1587375001617
 20
-164.7258625890269
 10
85.99371742641824
 20
-164.7299967036092
 10
85.82869735267478
 20
-164.7448106141958
 10
85.82869735267478
 20
-164.7448106141958
 10
85.82869735267478
 20
-164.5353488086926
 10
85.82869735267478
 20
-164.5353488086926
 10
86.00009085306596
 20
-164.5501627192791
 10
86.24762096368116
 20
-164.5542968338614
 10
86.32375757390517
 20
-164.5542968338614
 10
86.32375757390517
 20
-164.5542968338614
 10
86.48447127829208
 20
-164.5542968338614
 10
86.48447127829208
 20
-164.5542968338614
 10
86.48033716370978
 20
-164.4826388477682
 10
86.48033716370978
 20
-164.4760931663463
 10
86.47396373706206
 20
-164.4233832054219
 10
86.47396373706206
 20
-164.4233832054219
 10
86.61349010421469
 20
-164.4381971160085
 10
86.61349010421469
 20
-164.4381971160085
 10
86.61349010421469
 20
-164.4381971160085
 10
86.51409909946523
 20
-164.2666313608431
 10
86.51409909946523
 20
-164.2666313608431
 10
86.5606078885161
 20
-164.273177042265
 10
86.63467744144897
 20
-164.2814452714296
 10
86.6515584093267
 20
-164.2814452714296
 10
86.70237356773413
 20
-164.2814452714296
 10
86.71925453561185
 20
-164.2604301889696
 10
86.71925453561185
 20
-164.2032416039145
 10
86.71925453561185
 20
-164.2032416039145
 10
86.71925453561185
 20
-164.065782294053
 10
86.71925453561185
 20
-164.065782294053
 10
86.71925453561185
 20
-164.065782294053
 10
86.61349010421469
 20
-164.065782294053
 10
86.61349010421469
 20
-164.065782294053
 10
86.48033716370978
 20
-164.065782294053
 10
86.32375757390517
 20
-164.065782294053
 10
86.20093991985603
 20
-164.0785291473484
 10
86.20093991985603
 20
-164.0785291473484
 10
86.20093991985603
 20
-163.8880153670141
 10
86.20093991985603
 20
-163.8880153670141
 10
86.3681993056649
 20
-163.9048963348918
 10
86.59867619362811
 20
-163.906963392183
 10
86.61349010421469
 20
-163.906963392183
 10
86.61349010421469
 20
-163.906963392183
 10
86.71925453561185
 20
-163.906963392183
 10
86.71925453561185
 20
-163.906963392183
 10
86.71925453561185
 20
-163.906963392183
 10
86.71925453561185
 20
-163.7760497637435
 10
86.71925453561185
 20
-163.7760497637435
 10
86.71925453561185
 20
-163.7760497637435
 10
86.68118623049985
 20
-163.7760497637435
 10
86.68118623049985
 20
-163.7760497637435
 10
86.63674449874013
 20
-163.7760497637435
 10
86.51203204217408
 20
-163.7801838783258
 10
86.42314857865463
 20
-163.7884521074904
 10
86.42314857865463
 20
-163.7884521074904
 10
86.42314857865463
 20
-163.7081813826841
 10
86.42314857865463
 20
-163.7081813826841
 10
86.37026636295604
 20
-163.7464219425704
 10
86.34494491113946
 20
-163.7612358531569
 10
86.30257023667089
 20
-163.7843179929081
 10
86.30257023667089
 20
-163.7843179929081
 10
86.11429576840199
 20
-163.6554714217598
 10
86.11429576840199
 20
-163.6554714217598
 10
86.19249943591716
 20
-163.6213649764558
 10
86.34907902572176
 20
-163.5579752195272
 10
86.50565861552637
 20
-163.4143147377923
 10
86.5881686523981
 20
-163.3357665607286
 10
86.66637231991328
 20
-163.2513617213399
 10
86.71925453561185
 20
-163.1497314045251
 10
86.71925453561185
 20
-163.1497314045251
 10
86.93078339840619
 20
-163.2110541041625
 10
86.93078339840619
 20
-163.2110541041625
 10
86.94990367834933
 20
-163.217255276036
 10
86.96041121957934
 20
-163.2258680147491
 10
86.96041121957934
 20
-163.2386148680445
 10
86.96041121957934
 20
-163.2554958359222
 10
86.94783662105819
 20
-163.2616970077957
 10
86.92234291446734
 20
-163.2744438610911
 10
87.00278589404792
 20
-163.3719400633237
 10
87.16573891050024
 20
-163.4690917560077
 10
87.19950084625569
 20
-163.4880397811766
 10
87.34970700941258
 20
-163.576923244696
 10
87.46391192474861
 20
-163.6044840085781
 10
87.54228784703804
 20
-163.6234320337469
 10
87.54228784703804
 20
-163.6234320337469
 10
87.42377656234545
 20
-163.7929307316212
 10
87.42377656234545
 20
-163.7929307316212
 10
87.33919946818257
 20
-163.7633029104481
 10
87.28838430977513
 20
-163.7443548852792
 10
87.16987302508254
 20
-163.6785535615109
 10
87.16987302508254
 20
-163.6785535615109
 10
87.16987302508254
 20
-163.7884521074904
 10
87.16987302508254
 20
-163.7884521074904
 10
87.0873629882108
 20
-163.7801838783258
 10
86.96041121957934
 20
-163.7760497637435
 10
86.90752900388075
 20
-163.7760497637435
 10
86.90752900388075
 20
-163.7760497637435
 10
86.90752900388075
 20
-163.906963392183
 10
86.90752900388075
 20
-163.906963392183
 10
86.90752900388075
 20
-163.906963392183
 10
87.0281073458645
 20
-163.906963392183
 10
87.0281073458645
 20
-163.906963392183
 10
87.03034665792991
 20
-163.906963392183
 10
87.26306285795854
 20
-163.9048963348918
 10
87.44065753022318
 20
-163.8880153670141
 10
87.44065753022318
 20
-163.8880153670141
 10
87.44065753022318
 20
-164.0785291473484
 10
87.44065753022318
 20
-164.0785291473484
 10
87.31163870430056
 20
-164.065782294053
 10
87.15505911449596
 20
-164.065782294053
 10
87.0281073458645
 20
-164.065782294053
 10
87.0281073458645
 20
-164.065782294053
 10
86.90752900388075
 20
-164.065782294053
 10
86.90752900388075
 20
-164.065782294053
 10
86.90752900388075
 20
-164.065782294053
 10
86.90752900388075
 20
-164.2921250674339
 10
86.90752900388075
 20
-164.2921250674339
 10
86.90752900388075
 20
-164.4106363521265
 10
86.88220755206417
 20
-164.4464653451731
 10
86.72149384767727
 20
-164.4612792557597
 10
86.72562796225957
 20
-164.4802272809286
 10
86.71925453561185
 20
-164.4909070769328
 10
86.68118623049985
 20
-164.5143337262325
 10
86.67911917320869
 20
-164.5332817514014
 10
86.67911917320869
 20
-164.5394829232748
 10
86.67705211591755
 20
-164.5542968338614
 10
86.67705211591755
 20
-164.5542968338614
 10
86.81451142577902
 20
-164.5542968338614
 10
86.81451142577902
 20
-164.5542968338614
 10
86.97953149952248
 20
-164.5542968338614
 10
87.1466186305571
 20
-164.5501627192791
 10
87.31370576159172
 20
-164.5353488086926
 10
87.31370576159172
 20
-164.5353488086926
 10
87.31370576159172
 20
-164.7427435569046
 10
87.31370576159172
 20
-164.7427435569046
 10
87.09804278421508
 20
-164.7258625890269
 10
86.83363170572215
 20
-164.7258625890269
 10
86.81451142577902
 20
-164.7258625890269
 10
86.81451142577902
 20
-164.7258625890269
 10
86.67481280385213
 20
-164.7258625890269
 10
86.67481280385213
 20
-164.7258625890269
 10
86.67481280385213
 20
-164.7258625890269
 10
86.67481280385213
 20
-164.8674560134706
 10
86.67481280385213
 20
-164.8674560134706
 10
86.67481280385213
 20
-164.8674560134706
 10
86.90132783200731
 20
-164.8674560134706
 10
86.90132783200731
 20
-164.8674560134706
 10
87.11699080938395
 20
-164.8674560134706
 10
87.334893098826
 20
-164.8633218988883
 10
87.55072833097691
 20
-164.8505750455929
 10
87.55072833097691
 20
-164.8505750455929
 10
87.55072833097691
 20
-165.057969793805
 10
87.55072833097691
 20
-165.057969793805
 10
87.26926402983199
 20
-165.0410888259272
 10
86.92458222653275
 20
-165.0410888259272
 10
86.90132783200731
 20
-165.0410888259272
 97
        0
 97
        0
 92
        1
 93
        1
 72
     4
 94
        3
 73
     0
 74
     1
 95
       23
 96
       19
 40
0.0
 40
0.0
 40
0.0
 40
0.0
 40
1.0
 40
1.0
 40
1.0
 40
2.0
 40
2.0
 40
2.0
 40
3.0
 40
3.0
 40
3.0
 40
4.0
 40
4.0
 40
4.0
 40
5.0
 40
5.0
 40
5.0
 40
6.0
 40
6.0
 40
6.0
 40
6.0
 10
85.7821885636239
 20
-164.4127034094177
 10
85.7821885636239
 20
-164.4337184918777
 10
85.78425562091505
 20
-164.471959051764
 10
85.75893416909847
 20
-164.471959051764
 10
85.74825437309418
 20
-164.471959051764
 10
85.73981388915533
 20
-164.465413370342
 10
85.72930634792532
 20
-164.4485324024643
 10
85.72930634792532
 20
-164.4485324024643
 10
85.6256089738193
 20
-164.2666313608431
 10
85.6256089738193
 20
-164.2666313608431
 10
85.8414442059702
 20
-164.1377847896947
 10
86.03815915817796
 20
-163.8604546031321
 10
86.08466794722884
 20
-163.7884521074904
 10
86.08466794722884
 20
-163.7884521074904
 10
86.15667044287056
 20
-163.9682860918204
 10
86.15667044287056
 20
-163.9682860918204
 10
86.0233452475914
 20
-164.1650010440282
 10
85.84764537784365
 20
-164.3493136524891
 10
85.7821885636239
 20
-164.4127034094177
 97
        0
 97
        0
 92
        1
 93
        1
 72
     4
 94
        3
 73
     0
 74
     1
 95
       17
 96
       13
 40
0.0
 40
0.0
 40
0.0
 40
0.0
 40
1.0
 40
1.0
 40
1.0
 40
2.0
 40
2.0
 40
2.0
 40
3.0
 40
3.0
 40
3.0
 40
4.0
 40
4.0
 40
4.0
 40
4.0
 10
86.03609210088682
 20
-163.5176676023497
 10
85.9745971464751
 20
-163.4415309921257
 10
85.8455783205525
 20
-163.3653943819017
 10
85.74188094644647
 20
-163.3357665607286
 10
85.74188094644647
 20
-163.3357665607286
 10
85.83713783661364
 20
-163.1707464869851
 10
85.83713783661364
 20
-163.1707464869851
 10
85.93876815342851
 20
-163.2069199895802
 10
86.04453258482567
 20
-163.2641085746354
 10
86.13324379357086
 20
-163.3443792994417
 10
86.13324379357086
 20
-163.3443792994417
 10
86.03609210088682
 20
-163.5176676023497
 10
86.03609210088682
 20
-163.5176676023497
 97
        0
 97
        0
 92
        1
 93
        1
 72
     4
 94
        3
 73
     0
 74
     1
 95
       23
 96
       19
 40
0.0
 40
0.0
 40
0.0
 40
0.0
 40
1.0
 40
1.0
 40
1.0
 40
2.0
 40
2.0
 40
2.0
 40
3.0
 40
3.0
 40
3.0
 40
4.0
 40
4.0
 40
4.0
 40
5.0
 40
5.0
 40
5.0
 40
6.0
 40
6.0
 40
6.0
 40
6.0
 10
86.48877764764865
 20
-164.2221896290833
 10
86.46759031041435
 20
-164.245616278383
 10
86.37026636295604
 20
-164.3575818816537
 10
86.23056774102916
 20
-164.4381971160085
 10
86.23056774102916
 20
-164.4381971160085
 10
86.06348060999456
 20
-164.3176187740248
 10
86.06348060999456
 20
-164.3176187740248
 10
86.21368677315144
 20
-164.2414821638008
 10
86.3130777779009
 20
-164.1460530188593
 10
86.36182587901719
 20
-164.093343057935
 10
86.36182587901719
 20
-164.093343057935
 10
86.53528643669952
 20
-164.1756808400325
 10
86.53528643669952
 20
-164.1756808400325
 10
86.54372692063838
 20
-164.1798149546148
 10
86.55216740457723
 20
-164.1863606360367
 10
86.55216740457723
 20
-164.197040432041
 10
86.55216740457723
 20
-164.2221896290833
 10
86.51616615675638
 20
-164.2221896290833
 10
86.48877764764865
 20
-164.2221896290833
 97
        0
 97
        0
 92
        1
 93
        1
 72
     4
 94
        3
 73
     0
 74
     1
 95
       20
 96
       16
 40
0.0
 40
0.0
 40
0.0
 40
0.0
 40
1.0
 40
1.0
 40
1.0
 40
2.0
 40
2.0
 40
2.0
 40
3.0
 40
3.0
 40
3.0
 40
4.0
 40
4.0
 40
4.0
 40
5.0
 40
5.0
 40
5.0
 40
5.0
 10
86.78695066189701
 20
-163.3802082924883
 10
86.748882356785
 20
-163.4291286483788
 10
86.68755965714756
 20
-163.507332315894
 10
86.54803328999493
 20
-163.6172308618735
 10
86.62830401480126
 20
-163.6213649764558
 10
86.65793183597441
 20
-163.6213649764558
 10
86.68118623049985
 20
-163.6213649764558
 10
86.68118623049985
 20
-163.6213649764558
 10
86.90976831594617
 20
-163.6213649764558
 10
86.90976831594617
 20
-163.6213649764558
 10
86.94146319441047
 20
-163.6213649764558
 10
86.99003904075249
 20
-163.6192979191646
 10
87.06410859368536
 20
-163.6172308618735
 10
86.95197073564049
 20
-163.5431613089406
 10
86.90339488929845
 20
-163.4966525198897
 10
86.78695066189701
 20
-163.3802082924883
 97
        0
 97
        0
 92
        1
 93
        1
 72
     4
 94
        3
 73
     0
 74
     1
 95
       17
 96
       13
 40
0.0
 40
0.0
 40
0.0
 40
0.0
 40
1.0
 40
1.0
 40
1.0
 40
2.0
 40
2.0
 40
2.0
 40
3.0
 40
3.0
 40
3.0
 40
4.0
 40
4.0
 40
4.0
 40
4.0
 10
87.34763995212143
 20
-164.4357855491688
 10
87.21224769955111
 20
-164.3238199458982
 10
87.10648326815394
 20
-164.2604301889696
 10
86.98797198346135
 20
-164.197040432041
 10
86.98797198346135
 20
-164.197040432041
 10
87.1149237520928
 20
-164.0847303192219
 10
87.1149237520928
 20
-164.0847303192219
 10
87.24600963530656
 20
-164.1312391082728
 10
87.3560804360603
 20
-164.1884276933279
 10
87.4809651474006
 20
-164.2900580101428
 10
87.4809651474006
 20
-164.2900580101428
 10
87.34763995212143
 20
-164.4357855491688
 10
87.34763995212143
 20
-164.4357855491688
 97
        0
 97
        0
 75
     2
 76
     1
 98
        0
  0
SPLINE
  5
9C
330
90
100
AcDbEntity
  8
_U+30EC_U+30A4_U+30E4_U+30FC 1
370
     0
100
AcDbSpline
210
0.0
220
0.0
230
1.0
 70
    11
 71
     3
 72
   113
 73
   109
 74
     0
 42
0.0000000001
 43
0.0000000001
 12
1.0
 22
0.0
 32
0.0
 13
1.0
 23
0.0
 33
0.0
 40
0.0
 40
0.0
 40
0.0
 40
0.0
 40
1.0
 40
1.0
 40
1.0
 40
2.0
 40
2.0
 40
2.0
 40
3.0
 40
3.0
 40
3.0
 40
4.0
 40
4.0
 40
4.0
 40
5.0
 40
5.0
 40
5.0
 40
6.0
 40
6.0
 40
6.0
 40
7.0
 40
7.0
 40
7.0
 40
8.0
 40
8.0
 40
8.0
 40
9.0
 40
9.0
 40
9.0
 40
10.0
 40
10.0
 40
10.0
 40
11.0
 40
11.0
 40
11.0
 40
12.0
 40
12.0
 40
12.0
 40
13.0
 40
13.0
 40
13.0
 40
14.0
 40
14.0
 40
14.0
 40
15.0
 40
15.0
 40
15.0
 40
16.0
 40
16.0
 40
16.0
 40
17.0
 40
17.0
 40
17.0
 40
18.0
 40
18.0
 40
18.0
 40
19.0
 40
19.0
 40
19.0
 40
20.0
 40
20.0
 40
20.0
 40
21.0
 40
21.0
 40
21.0
 40
22.0
 40
22.0
 40
22.0
 40
23.0
 40
23.0
 40
23.0
 40
24.0
 40
24.0
 40
24.0
 40
25.0
 40
25.0
 40
25.0
 40
26.0
 40
26.0
 40
26.0
 40
27.0
 40
27.0
 40
27.0
 40
28.0
 40
28.0
 40
28.0
 40
29.0
 40
29.0
 40
29.0
 40
30.0
 40
30.0
 40
30.0
 40
31.0
 40
31.0
 40
31.0
 40
32.0
 40
32.0
 40
32.0
 40
33.0
 40
33.0
 40
33.0
 40
34.0
 40
34.0
 40
34.0
 40
35.0
 40
35.0
 40
35.0
 40
36.0
 40
36.0
 40
36.0
 40
36.0
 10
89.22728404887374
 20
-164.4127034094177
 30
0.0
 10
89.22728404887374
 20
-164.4127034094177
 30
0.0
 10
89.32684730839746
 20
-164.5122666689414
 30
0.0
 10
89.32684730839746
 20
-164.5122666689414
 30
0.0
 10
89.33735484962747
 20
-164.5226019553971
 30
0.0
 10
89.34786239085749
 20
-164.5353488086926
 30
0.0
 10
89.34786239085749
 20
-164.5501627192791
 30
0.0
 10
89.34786239085749
 20
-164.5522297765703
 30
0.0
 10
89.34786239085749
 20
-164.5818575977434
 30
0.0
 10
89.30979408574547
 20
-164.5818575977434
 30
0.0
 10
89.30135360180661
 20
-164.5818575977434
 30
0.0
 10
89.26121823940345
 20
-164.5777234831611
 30
0.0
 10
89.25484481275574
 20
-164.5777234831611
 30
0.0
 10
89.21470945035257
 20
-164.6094183616254
 30
0.0
 10
89.16802840652744
 20
-164.6431802973809
 30
0.0
 10
89.06863740177798
 20
-164.700368882436
 30
0.0
 10
89.21470945035257
 20
-164.8082003711243
 30
0.0
 10
89.37335609744834
 20
-164.8653889561795
 30
0.0
 10
89.64620765988012
 20
-164.9036295160658
 30
0.0
 10
89.64620765988012
 20
-164.9036295160658
 30
0.0
 10
89.49600149672322
 20
-165.078984876265
 30
0.0
 10
89.49600149672322
 20
-165.078984876265
 30
0.0
 10
89.23365747552145
 20
-165.0069823806233
 30
0.0
 10
89.07707788571685
 20
-164.9184434266523
 30
0.0
 10
89.00094127549282
 20
-164.8653889561795
 30
0.0
 10
88.85073511233593
 20
-164.7637586393646
 30
0.0
 10
88.70690237582676
 20
-164.6008056229123
 30
0.0
 10
88.63076576560273
 20
-164.4357855491688
 30
0.0
 10
88.56306963931758
 20
-164.5015868729371
 30
0.0
 10
88.48900008638469
 20
-164.5542968338614
 30
0.0
 10
88.41079641886952
 20
-164.603217189752
 30
0.0
 10
88.41079641886952
 20
-164.603217189752
 30
0.0
 10
88.41079641886952
 20
-164.8547091601752
 30
0.0
 10
88.41079641886952
 20
-164.8547091601752
 30
0.0
 10
88.57357718054759
 20
-164.8295599631329
 30
0.0
 10
88.75978459152533
 20
-164.7851182313732
 30
0.0
 10
88.82334660322819
 20
-164.7703043207866
 30
0.0
 10
88.82334660322819
 20
-164.7703043207866
 30
0.0
 10
88.79371878205505
 20
-164.9394585091124
 30
0.0
 10
88.79371878205505
 20
-164.9394585091124
 30
0.0
 10
88.79147946998964
 20
-164.9394585091124
 30
0.0
 10
88.77253144482076
 20
-164.9456596809858
 30
0.0
 10
88.77046438752961
 20
-164.9456596809858
 30
0.0
 10
88.57151012325643
 20
-164.9839002408721
 30
0.0
 10
88.25421682906492
 20
-165.0493570550918
 30
0.0
 10
88.05750187685716
 20
-165.085530557687
 30
0.0
 10
88.04682208085288
 20
-165.1024115255647
 30
0.0
 10
88.02356768632744
 20
-165.134106404029
 30
0.0
 10
88.00031329180202
 20
-165.134106404029
 30
0.0
 10
87.97292478269428
 20
-165.134106404029
 30
0.0
 10
87.96861841333771
 20
-165.1151583788601
 30
0.0
 10
87.96655135604657
 20
-165.0958658441427
 30
0.0
 10
87.96655135604657
 20
-165.0958658441427
 30
0.0
 10
87.94105764945571
 20
-164.9225775412346
 30
0.0
 10
87.94105764945571
 20
-164.9225775412346
 30
0.0
 10
88.01512720238858
 20
-164.9139648025215
 30
0.0
 10
88.12313094585116
 20
-164.9012179492261
 30
0.0
 10
88.23096243453949
 20
-164.8802028667661
 30
0.0
 10
88.23096243453949
 20
-164.8802028667661
 30
0.0
 10
88.23096243453949
 20
-164.7024359397272
 30
0.0
 10
88.23096243453949
 20
-164.7024359397272
 30
0.0
 10
88.08712969803031
 20
-164.7744384353689
 30
0.0
 10
87.99187280786315
 20
-164.8040662565421
 30
0.0
 10
87.82685273411968
 20
-164.8336940777152
 30
0.0
 10
87.82685273411968
 20
-164.8336940777152
 30
0.0
 10
87.70627439213594
 20
-164.6645398893894
 30
0.0
 10
87.70627439213594
 20
-164.6645398893894
 30
0.0
 10
88.02356768632744
 20
-164.6369791255074
 30
0.0
 10
88.21614852395291
 20
-164.5439615474057
 30
0.0
 10
88.3939154509918
 20
-164.4106363521265
 30
0.0
 10
88.2478434024172
 20
-164.4106363521265
 30
0.0
 10
87.94743107610343
 20
-164.4147704667088
 30
0.0
 10
87.75071612389566
 20
-164.4213161481308
 30
0.0
 10
87.75071612389566
 20
-164.4213161481308
 30
0.0
 10
87.75071612389566
 20
-164.2435492210919
 30
0.0
 10
87.75071612389566
 20
-164.2435492210919
 30
0.0
 10
87.90522865640911
 20
-164.2497503929654
 30
0.0
 10
88.20133461336634
 20
-164.2562960743873
 30
0.0
 10
88.38530271227867
 20
-164.2562960743873
 30
0.0
 10
88.38530271227867
 20
-164.2562960743873
 30
0.0
 10
88.59700382984728
 20
-164.2562960743873
 30
0.0
 10
88.59700382984728
 20
-164.2562960743873
 30
0.0
 10
88.59700382984728
 20
-164.1608669294459
 30
0.0
 10
88.59476451778187
 20
-164.1102240258127
 30
0.0
 10
88.58839109113416
 20
-164.0637152367619
 30
0.0
 10
88.58839109113416
 20
-164.0637152367619
 30
0.0
 10
88.80422632328506
 20
-164.0805962046396
 30
0.0
 10
88.80422632328506
 20
-164.0805962046396
 30
0.0
 10
88.85297442440134
 20
-164.0847303192219
 30
0.0
 10
88.86141490834021
 20
-164.0995442298085
 30
0.0
 10
88.86141490834021
 20
-164.114358140395
 30
0.0
 10
88.86141490834021
 20
-164.1398518469859
 30
0.0
 10
88.84436168568821
 20
-164.1481200761505
 30
0.0
 10
88.79371878205505
 20
-164.1736137827413
 30
0.0
 10
88.79147946998964
 20
-164.1991074893322
 30
0.0
 10
88.79147946998964
 20
-164.2053086612056
 30
0.0
 10
88.78941241269848
 20
-164.2562960743873
 30
0.0
 10
88.78941241269848
 20
-164.2562960743873
 30
0.0
 10
89.02006155543596
 20
-164.2562960743873
 30
0.0
 10
89.02006155543596
 20
-164.2562960743873
 30
0.0
 10
89.18508162917942
 20
-164.2562960743873
 30
0.0
 10
89.47705347155436
 20
-164.2497503929654
 30
0.0
 10
89.65671520111013
 20
-164.2435492210919
 30
0.0
 10
89.65671520111013
 20
-164.2435492210919
 30
0.0
 10
89.65671520111013
 20
-164.4213161481308
 30
0.0
 10
89.65671520111013
 20
-164.4213161481308
 30
0.0
 10
89.52769637518753
 20
-164.416837524
 30
0.0
 10
89.5044419806621
 20
-164.416837524
 30
0.0
 10
89.22728404887374
 20
-164.4127034094177
 30
0.0
  0
SPLINE
  5
9D
330
90
100
AcDbEntity
  8
_U+30EC_U+30A4_U+30E4_U+30FC 1
370
     0
100
AcDbSpline
210
0.0
220
0.0
230
1.0
 70
    11
 71
     3
 72
    23
 73
    19
 74
     0
 42
0.0000000001
 43
0.0000000001
 12
1.0
 22
0.0
 32
0.0
 13
1.0
 23
0.0
 33
0.0
 40
0.0
 40
0.0
 40
0.0
 40
0.0
 40
1.0
 40
1.0
 40
1.0
 40
2.0
 40
2.0
 40
2.0
 40
3.0
 40
3.0
 40
3.0
 40
4.0
 40
4.0
 40
4.0
 40
5.0
 40
5.0
 40
5.0
 40
6.0
 40
6.0
 40
6.0
 40
6.0
 10
87.94329696152113
 20
-164.0616481794707
 30
0.0
 10
87.92624373886913
 20
-164.1016112870996
 30
0.0
 10
87.92004256699569
 20
-164.1184922549773
 30
0.0
 10
87.8988552297614
 20
-164.1184922549773
 30
0.0
 10
87.88404131917483
 20
-164.1184922549773
 30
0.0
 10
87.87336152317056
 20
-164.1016112870996
 30
0.0
 10
87.8671603512971
 20
-164.0888644338042
 30
0.0
 10
87.8671603512971
 20
-164.0888644338042
 30
0.0
 10
87.76759709177338
 20
-163.9238443600607
 30
0.0
 10
87.76759709177338
 20
-163.9238443600607
 30
0.0
 10
87.86922740858826
 20
-163.8921494815964
 30
0.0
 10
88.01943357174514
 20
-163.8373724633809
 30
0.0
 10
88.21821558124407
 20
-163.6744194469286
 30
0.0
 10
88.21821558124407
 20
-163.6744194469286
 30
0.0
 10
88.27540416629921
 20
-163.8477077498367
 30
0.0
 10
88.27540416629921
 20
-163.8477077498367
 30
0.0
 10
88.1822143334232
 20
-163.9303900414827
 30
0.0
 10
88.09350312467802
 20
-163.9875786265378
 30
0.0
 10
87.94329696152113
 20
-164.0616481794707
 30
0.0
  0
SPLINE
  5
9E
330
90
100
AcDbEntity
  8
_U+30EC_U+30A4_U+30E4_U+30FC 1
370
     0
100
AcDbSpline
210
0.0
220
0.0
230
1.0
 70
    11
 71
     3
 72
    17
 73
    13
 74
     0
 42
0.0000000001
 43
0.0000000001
 12
1.0
 22
0.0
 32
0.0
 13
1.0
 23
0.0
 33
0.0
 40
0.0
 40
0.0
 40
0.0
 40
0.0
 40
1.0
 40
1.0
 40
1.0
 40
2.0
 40
2.0
 40
2.0
 40
3.0
 40
3.0
 40
3.0
 40
4.0
 40
4.0
 40
4.0
 40
4.0
 10
88.09557018196917
 20
-163.5962157794135
 30
0.0
 10
88.06594236079602
 20
-163.555908162236
 30
0.0
 10
87.99824623451086
 20
-163.458756469552
 30
0.0
 10
87.81634519288967
 20
-163.348513414024
 30
0.0
 10
87.81634519288967
 20
-163.348513414024
 30
0.0
 10
87.94329696152113
 20
-163.2151882187448
 30
0.0
 10
87.94329696152113
 20
-163.2151882187448
 30
0.0
 10
88.12933211772462
 20
-163.3168185355597
 30
0.0
 10
88.18652070277976
 20
-163.4057019990791
 30
0.0
 10
88.21408146666177
 20
-163.4480766735477
 30
0.0
 10
88.21408146666177
 20
-163.4480766735477
 30
0.0
 10
88.09557018196917
 20
-163.5962157794135
 30
0.0
 10
88.09557018196917
 20
-163.5962157794135
 30
0.0
  0
SPLINE
  5
9F
330
90
100
AcDbEntity
  8
_U+30EC_U+30A4_U+30E4_U+30FC 1
370
     0
100
AcDbSpline
210
0.0
220
0.0
230
1.0
 70
    11
 71
     3
 72
    38
 73
    34
 74
     0
 42
0.0000000001
 43
0.0000000001
 12
1.0
 22
0.0
 32
0.0
 13
1.0
 23
0.0
 33
0.0
 40
0.0
 40
0.0
 40
0.0
 40
0.0
 40
1.0
 40
1.0
 40
1.0
 40
2.0
 40
2.0
 40
2.0
 40
3.0
 40
3.0
 40
3.0
 40
4.0
 40
4.0
 40
4.0
 40
5.0
 40
5.0
 40
5.0
 40
6.0
 40
6.0
 40
6.0
 40
7.0
 40
7.0
 40
7.0
 40
8.0
 40
8.0
 40
8.0
 40
9.0
 40
9.0
 40
9.0
 40
10.0
 40
10.0
 40
10.0
 40
11.0
 40
11.0
 40
11.0
 40
11.0
 10
88.46367863456811
 20
-163.2913248289688
 30
0.0
 10
88.46161157727697
 20
-163.3381781275682
 30
0.0
 10
88.45937226521156
 20
-163.4542778454212
 30
0.0
 10
88.45937226521156
 20
-163.4987195771809
 30
0.0
 10
88.45937226521156
 20
-163.4987195771809
 30
0.0
 10
88.45937226521156
 20
-163.8456406925455
 30
0.0
 10
88.45937226521156
 20
-163.8456406925455
 30
0.0
 10
88.45937226521156
 20
-163.9324570987738
 30
0.0
 10
88.46161157727697
 20
-164.0740505232176
 30
0.0
 10
88.47211911850698
 20
-164.1946288652013
 30
0.0
 10
88.47211911850698
 20
-164.1946288652013
 30
0.0
 10
88.28177759294692
 20
-164.1946288652013
 30
0.0
 10
88.28177759294692
 20
-164.1946288652013
 30
0.0
 10
88.28591170752922
 20
-164.1312391082728
 30
0.0
 10
88.29021807688578
 20
-164.0785291473484
 30
0.0
 10
88.29228513417694
 20
-164.0234076195844
 30
0.0
 10
88.29435219146808
 20
-163.9007622203095
 30
0.0
 10
88.29659150353349
 20
-163.885948309723
 30
0.0
 10
88.29659150353349
 20
-163.8415065779632
 30
0.0
 10
88.29659150353349
 20
-163.8415065779632
 30
0.0
 10
88.29659150353349
 20
-163.5200791691894
 30
0.0
 10
88.29659150353349
 20
-163.5200791691894
 30
0.0
 10
88.29659150353349
 20
-163.4649576414254
 30
0.0
 10
88.28384465023807
 20
-163.2258680147491
 30
0.0
 10
88.28177759294692
 20
-163.1752251111159
 30
0.0
 10
88.28177759294692
 20
-163.1752251111159
 30
0.0
 10
88.48262665973698
 20
-163.2027858749979
 30
0.0
 10
88.48262665973698
 20
-163.2027858749979
 30
0.0
 10
88.50381399697127
 20
-163.2048529322891
 30
0.0
 10
88.53550887543557
 20
-163.2089870468714
 30
0.0
 10
88.53550887543557
 20
-163.2344807534622
 30
0.0
 10
88.53550887543557
 20
-163.2616970077957
 30
0.0
 10
88.48486597180239
 20
-163.2830565998042
 30
0.0
 10
88.46367863456811
 20
-163.2913248289688
 30
0.0
  0
SPLINE
  5
A0
330
90
100
AcDbEntity
  8
_U+30EC_U+30A4_U+30E4_U+30FC 1
370
     0
100
AcDbSpline
210
0.0
220
0.0
230
1.0
 70
    11
 71
     3
 72
    83
 73
    79
 74
     0
 42
0.0000000001
 43
0.0000000001
 12
1.0
 22
0.0
 32
0.0
 13
1.0
 23
0.0
 33
0.0
 40
0.0
 40
0.0
 40
0.0
 40
0.0
 40
1.0
 40
1.0
 40
1.0
 40
2.0
 40
2.0
 40
2.0
 40
3.0
 40
3.0
 40
3.0
 40
4.0
 40
4.0
 40
4.0
 40
5.0
 40
5.0
 40
5.0
 40
6.0
 40
6.0
 40
6.0
 40
7.0
 40
7.0
 40
7.0
 40
8.0
 40
8.0
 40
8.0
 40
9.0
 40
9.0
 40
9.0
 40
10.0
 40
10.0
 40
10.0
 40
11.0
 40
11.0
 40
11.0
 40
12.0
 40
12.0
 40
12.0
 40
13.0
 40
13.0
 40
13.0
 40
14.0
 40
14.0
 40
14.0
 40
15.0
 40
15.0
 40
15.0
 40
16.0
 40
16.0
 40
16.0
 40
17.0
 40
17.0
 40
17.0
 40
18.0
 40
18.0
 40
18.0
 40
19.0
 40
19.0
 40
19.0
 40
20.0
 40
20.0
 40
20.0
 40
21.0
 40
21.0
 40
21.0
 40
22.0
 40
22.0
 40
22.0
 40
23.0
 40
23.0
 40
23.0
 40
24.0
 40
24.0
 40
24.0
 40
25.0
 40
25.0
 40
25.0
 40
26.0
 40
26.0
 40
26.0
 40
26.0
 10
89.26535235398575
 20
-163.6130967472912
 30
0.0
 10
89.26535235398575
 20
-163.6130967472912
 30
0.0
 10
89.16802840652744
 20
-163.6130967472912
 30
0.0
 10
89.16802840652744
 20
-163.6130967472912
 30
0.0
 10
89.16802840652744
 20
-163.6130967472912
 30
0.0
 10
89.16802840652744
 20
-163.8604546031321
 30
0.0
 10
89.16802840652744
 20
-163.8604546031321
 30
0.0
 10
89.16802840652744
 20
-163.8604546031321
 30
0.0
 10
89.25053844339918
 20
-163.8604546031321
 30
0.0
 10
89.25053844339918
 20
-163.8604546031321
 30
0.0
 10
89.31616751239318
 20
-163.8604546031321
 30
0.0
 10
89.45586613432006
 20
-163.8563204885498
 30
0.0
 10
89.55525713906952
 20
-163.8477077498367
 30
0.0
 10
89.55525713906952
 20
-163.8477077498367
 30
0.0
 10
89.55525713906952
 20
-164.0275417341667
 30
0.0
 10
89.55525713906952
 20
-164.0275417341667
 30
0.0
 10
89.46223956096777
 20
-164.0192735050021
 30
0.0
 10
89.31203339781088
 20
-164.0151393904198
 30
0.0
 10
89.25053844339918
 20
-164.0151393904198
 30
0.0
 10
89.25053844339918
 20
-164.0151393904198
 30
0.0
 10
88.94599200250309
 20
-164.0151393904198
 30
0.0
 10
88.94599200250309
 20
-164.0151393904198
 30
0.0
 10
88.8931097868045
 20
-164.0151393904198
 30
0.0
 10
88.74720999300418
 20
-164.0192735050021
 30
0.0
 10
88.64127330683274
 20
-164.0275417341667
 30
0.0
 10
88.64127330683274
 20
-164.0275417341667
 30
0.0
 10
88.64127330683274
 20
-163.8477077498367
 30
0.0
 10
88.64127330683274
 20
-163.8477077498367
 30
0.0
 10
88.74083656635646
 20
-163.8563204885498
 30
0.0
 10
88.88036293350908
 20
-163.8604546031321
 30
0.0
 10
88.94599200250309
 20
-163.8604546031321
 30
0.0
 10
88.94599200250309
 20
-163.8604546031321
 30
0.0
 10
88.99043373426281
 20
-163.8604546031321
 30
0.0
 10
88.99043373426281
 20
-163.8604546031321
 30
0.0
 10
88.99043373426281
 20
-163.8604546031321
 30
0.0
 10
88.99043373426281
 20
-163.6130967472912
 30
0.0
 10
88.99043373426281
 20
-163.6130967472912
 30
0.0
 10
88.99043373426281
 20
-163.6130967472912
 30
0.0
 10
88.91636418132994
 20
-163.6130967472912
 30
0.0
 10
88.91636418132994
 20
-163.6130967472912
 30
0.0
 10
88.8550414816925
 20
-163.6130967472912
 30
0.0
 10
88.68795435065788
 20
-163.6172308618735
 30
0.0
 10
88.56737600867413
 20
-163.6258436005866
 30
0.0
 10
88.56737600867413
 20
-163.6258436005866
 30
0.0
 10
88.56737600867413
 20
-163.4480766735477
 30
0.0
 10
88.56737600867413
 20
-163.4480766735477
 30
0.0
 10
88.68158092401016
 20
-163.4542778454212
 30
0.0
 10
88.84022757110591
 20
-163.458756469552
 30
0.0
 10
88.91636418132994
 20
-163.458756469552
 30
0.0
 10
88.91636418132994
 20
-163.458756469552
 30
0.0
 10
88.98836667697167
 20
-163.458756469552
 30
0.0
 10
88.98836667697167
 20
-163.458756469552
 30
0.0
 10
88.9840603076151
 20
-163.3061387395554
 30
0.0
 10
88.98199325032395
 20
-163.2723768038
 30
0.0
 10
88.97561982367624
 20
-163.1793592256982
 30
0.0
 10
88.97561982367624
 20
-163.1793592256982
 30
0.0
 10
89.18714868647058
 20
-163.2027858749979
 30
0.0
 10
89.18714868647058
 20
-163.2027858749979
 30
0.0
 10
89.21247013828716
 20
-163.2048529322891
 30
0.0
 10
89.23589678758687
 20
-163.2089870468714
 30
0.0
 10
89.23589678758687
 20
-163.2320691866225
 30
0.0
 10
89.23589678758687
 20
-163.2641085746354
 30
0.0
 10
89.19145505582713
 20
-163.2809895425131
 30
0.0
 10
89.16802840652744
 20
-163.2892577716777
 30
0.0
 10
89.16802840652744
 20
-163.2892577716777
 30
0.0
 10
89.16802840652744
 20
-163.458756469552
 30
0.0
 10
89.16802840652744
 20
-163.458756469552
 30
0.0
 10
89.16802840652744
 20
-163.458756469552
 30
0.0
 10
89.26535235398575
 20
-163.458756469552
 30
0.0
 10
89.26535235398575
 20
-163.458756469552
 30
0.0
 10
89.34166121898403
 20
-163.458756469552
 30
0.0
 10
89.5003078660798
 20
-163.4542778454212
 30
0.0
 10
89.61657983870697
 20
-163.4480766735477
 30
0.0
 10
89.61657983870697
 20
-163.4480766735477
 30
0.0
 10
89.61657983870697
 20
-163.6258436005866
 30
0.0
 10
89.61657983870697
 20
-163.6258436005866
 30
0.0
 10
89.50874835001865
 20
-163.6192979191646
 30
0.0
 10
89.33528779233632
 20
-163.6130967472912
 30
0.0
 10
89.26535235398575
 20
-163.6130967472912
 30
0.0
  0
SPLINE
  5
A1
330
90
100
AcDbEntity
  8
_U+30EC_U+30A4_U+30E4_U+30FC 1
370
     0
100
AcDbSpline
210
0.0
220
0.0
230
1.0
 70
    11
 71
     3
 72
    17
 73
    13
 74
     0
 42
0.0000000001
 43
0.0000000001
 12
1.0
 22
0.0
 32
0.0
 13
1.0
 23
0.0
 33
0.0
 40
0.0
 40
0.0
 40
0.0
 40
0.0
 40
1.0
 40
1.0
 40
1.0
 40
2.0
 40
2.0
 40
2.0
 40
3.0
 40
3.0
 40
3.0
 40
4.0
 40
4.0
 40
4.0
 40
4.0
 10
89.02006155543596
 20
-164.4106363521265
 30
0.0
 10
89.02006155543596
 20
-164.4106363521265
 30
0.0
 10
88.81697317658049
 20
-164.4106363521265
 30
0.0
 10
88.81697317658049
 20
-164.4106363521265
 30
0.0
 10
88.84436168568821
 20
-164.4698919944728
 30
0.0
 10
88.89948321345221
 20
-164.5418944901145
 30
0.0
 10
88.92687172255995
 20
-164.5711778017392
 30
0.0
 10
88.95443248644195
 20
-164.5567084007011
 30
0.0
 10
89.06863740177798
 20
-164.492974134224
 30
0.0
 10
89.15958792258859
 20
-164.4106363521265
 30
0.0
 10
89.15958792258859
 20
-164.4106363521265
 30
0.0
 10
89.02006155543596
 20
-164.4106363521265
 30
0.0
 10
89.02006155543596
 20
-164.4106363521265
 30
0.0
  0
HATCH
  5
A2
330
90
100
AcDbEntity
  8
_U+30EC_U+30A4_U+30E4_U+30FC 1
 62
   179
420
  2234388
100
AcDbHatch
 10
0.0
 20
0.0
 30
0.0
210
0.0
220
0.0
230
1.0
  2
SOLID
 70
     1
 71
     0
 91
        6
 92
        1
 93
        1
 72
     4
 94
        3
 73
     0
 74
     1
 95
      113
 96
      109
 40
0.0
 40
0.0
 40
0.0
 40
0.0
 40
1.0
 40
1.0
 40
1.0
 40
2.0
 40
2.0
 40
2.0
 40
3.0
 40
3.0
 40
3.0
 40
4.0
 40
4.0
 40
4.0
 40
5.0
 40
5.0
 40
5.0
 40
6.0
 40
6.0
 40
6.0
 40
7.0
 40
7.0
 40
7.0
 40
8.0
 40
8.0
 40
8.0
 40
9.0
 40
9.0
 40
9.0
 40
10.0
 40
10.0
 40
10.0
 40
11.0
 40
11.0
 40
11.0
 40
12.0
 40
12.0
 40
12.0
 40
13.0
 40
13.0
 40
13.0
 40
14.0
 40
14.0
 40
14.0
 40
15.0
 40
15.0
 40
15.0
 40
16.0
 40
16.0
 40
16.0
 40
17.0
 40
17.0
 40
17.0
 40
18.0
 40
18.0
 40
18.0
 40
19.0
 40
19.0
 40
19.0
 40
20.0
 40
20.0
 40
20.0
 40
21.0
 40
21.0
 40
21.0
 40
22.0
 40
22.0
 40
22.0
 40
23.0
 40
23.0
 40
23.0
 40
24.0
 40
24.0
 40
24.0
 40
25.0
 40
25.0
 40
25.0
 40
26.0
 40
26.0
 40
26.0
 40
27.0
 40
27.0
 40
27.0
 40
28.0
 40
28.0
 40
28.0
 40
29.0
 40
29.0
 40
29.0
 40
30.0
 40
30.0
 40
30.0
 40
31.0
 40
31.0
 40
31.0
 40
32.0
 40
32.0
 40
32.0
 40
33.0
 40
33.0
 40
33.0
 40
34.0
 40
34.0
 40
34.0
 40
35.0
 40
35.0
 40
35.0
 40
36.0
 40
36.0
 40
36.0
 40
36.0
 10
89.22728404887374
 20
-164.4127034094177
 10
89.22728404887374
 20
-164.4127034094177
 10
89.32684730839746
 20
-164.5122666689414
 10
89.32684730839746
 20
-164.5122666689414
 10
89.33735484962747
 20
-164.5226019553971
 10
89.34786239085749
 20
-164.5353488086926
 10
89.34786239085749
 20
-164.5501627192791
 10
89.34786239085749
 20
-164.5522297765703
 10
89.34786239085749
 20
-164.5818575977434
 10
89.30979408574547
 20
-164.5818575977434
 10
89.30135360180661
 20
-164.5818575977434
 10
89.26121823940345
 20
-164.5777234831611
 10
89.25484481275574
 20
-164.5777234831611
 10
89.21470945035257
 20
-164.6094183616254
 10
89.16802840652744
 20
-164.6431802973809
 10
89.06863740177798
 20
-164.700368882436
 10
89.21470945035257
 20
-164.8082003711243
 10
89.37335609744834
 20
-164.8653889561795
 10
89.64620765988012
 20
-164.9036295160658
 10
89.64620765988012
 20
-164.9036295160658
 10
89.49600149672322
 20
-165.078984876265
 10
89.49600149672322
 20
-165.078984876265
 10
89.23365747552145
 20
-165.0069823806233
 10
89.07707788571685
 20
-164.9184434266523
 10
89.00094127549282
 20
-164.8653889561795
 10
88.85073511233593
 20
-164.7637586393646
 10
88.70690237582676
 20
-164.6008056229123
 10
88.63076576560273
 20
-164.4357855491688
 10
88.56306963931758
 20
-164.5015868729371
 10
88.48900008638469
 20
-164.5542968338614
 10
88.41079641886952
 20
-164.603217189752
 10
88.41079641886952
 20
-164.603217189752
 10
88.41079641886952
 20
-164.8547091601752
 10
88.41079641886952
 20
-164.8547091601752
 10
88.57357718054759
 20
-164.8295599631329
 10
88.75978459152533
 20
-164.7851182313732
 10
88.82334660322819
 20
-164.7703043207866
 10
88.82334660322819
 20
-164.7703043207866
 10
88.79371878205505
 20
-164.9394585091124
 10
88.79371878205505
 20
-164.9394585091124
 10
88.79147946998964
 20
-164.9394585091124
 10
88.77253144482076
 20
-164.9456596809858
 10
88.77046438752961
 20
-164.9456596809858
 10
88.57151012325643
 20
-164.9839002408721
 10
88.25421682906492
 20
-165.0493570550918
 10
88.05750187685716
 20
-165.085530557687
 10
88.04682208085288
 20
-165.1024115255647
 10
88.02356768632744
 20
-165.134106404029
 10
88.00031329180202
 20
-165.134106404029
 10
87.97292478269428
 20
-165.134106404029
 10
87.96861841333771
 20
-165.1151583788601
 10
87.96655135604657
 20
-165.0958658441427
 10
87.96655135604657
 20
-165.0958658441427
 10
87.94105764945571
 20
-164.9225775412346
 10
87.94105764945571
 20
-164.9225775412346
 10
88.01512720238858
 20
-164.9139648025215
 10
88.12313094585116
 20
-164.9012179492261
 10
88.23096243453949
 20
-164.8802028667661
 10
88.23096243453949
 20
-164.8802028667661
 10
88.23096243453949
 20
-164.7024359397272
 10
88.23096243453949
 20
-164.7024359397272
 10
88.08712969803031
 20
-164.7744384353689
 10
87.99187280786315
 20
-164.8040662565421
 10
87.82685273411968
 20
-164.8336940777152
 10
87.82685273411968
 20
-164.8336940777152
 10
87.70627439213594
 20
-164.6645398893894
 10
87.70627439213594
 20
-164.6645398893894
 10
88.02356768632744
 20
-164.6369791255074
 10
88.21614852395291
 20
-164.5439615474057
 10
88.3939154509918
 20
-164.4106363521265
 10
88.2478434024172
 20
-164.4106363521265
 10
87.94743107610343
 20
-164.4147704667088
 10
87.75071612389566
 20
-164.4213161481308
 10
87.75071612389566
 20
-164.4213161481308
 10
87.75071612389566
 20
-164.2435492210919
 10
87.75071612389566
 20
-164.2435492210919
 10
87.90522865640911
 20
-164.2497503929654
 10
88.20133461336634
 20
-164.2562960743873
 10
88.38530271227867
 20
-164.2562960743873
 10
88.38530271227867
 20
-164.2562960743873
 10
88.59700382984728
 20
-164.2562960743873
 10
88.59700382984728
 20
-164.2562960743873
 10
88.59700382984728
 20
-164.1608669294459
 10
88.59476451778187
 20
-164.1102240258127
 10
88.58839109113416
 20
-164.0637152367619
 10
88.58839109113416
 20
-164.0637152367619
 10
88.80422632328506
 20
-164.0805962046396
 10
88.80422632328506
 20
-164.0805962046396
 10
88.85297442440134
 20
-164.0847303192219
 10
88.86141490834021
 20
-164.0995442298085
 10
88.86141490834021
 20
-164.114358140395
 10
88.86141490834021
 20
-164.1398518469859
 10
88.84436168568821
 20
-164.1481200761505
 10
88.79371878205505
 20
-164.1736137827413
 10
88.79147946998964
 20
-164.1991074893322
 10
88.79147946998964
 20
-164.2053086612056
 10
88.78941241269848
 20
-164.2562960743873
 10
88.78941241269848
 20
-164.2562960743873
 10
89.02006155543596
 20
-164.2562960743873
 10
89.02006155543596
 20
-164.2562960743873
 10
89.18508162917942
 20
-164.2562960743873
 10
89.47705347155436
 20
-164.2497503929654
 10
89.65671520111013
 20
-164.2435492210919
 10
89.65671520111013
 20
-164.2435492210919
 10
89.65671520111013
 20
-164.4213161481308
 10
89.65671520111013
 20
-164.4213161481308
 10
89.52769637518753
 20
-164.416837524
 10
89.5044419806621
 20
-164.416837524
 10
89.22728404887374
 20
-164.4127034094177
 97
        0
 97
        0
 92
        1
 93
        1
 72
     4
 94
        3
 73
     0
 74
     1
 95
       23
 96
       19
 40
0.0
 40
0.0
 40
0.0
 40
0.0
 40
1.0
 40
1.0
 40
1.0
 40
2.0
 40
2.0
 40
2.0
 40
3.0
 40
3.0
 40
3.0
 40
4.0
 40
4.0
 40
4.0
 40
5.0
 40
5.0
 40
5.0
 40
6.0
 40
6.0
 40
6.0
 40
6.0
 10
87.94329696152113
 20
-164.0616481794707
 10
87.92624373886913
 20
-164.1016112870996
 10
87.92004256699569
 20
-164.1184922549773
 10
87.8988552297614
 20
-164.1184922549773
 10
87.88404131917483
 20
-164.1184922549773
 10
87.87336152317056
 20
-164.1016112870996
 10
87.8671603512971
 20
-164.0888644338042
 10
87.8671603512971
 20
-164.0888644338042
 10
87.76759709177338
 20
-163.9238443600607
 10
87.76759709177338
 20
-163.9238443600607
 10
87.86922740858826
 20
-163.8921494815964
 10
88.01943357174514
 20
-163.8373724633809
 10
88.21821558124407
 20
-163.6744194469286
 10
88.21821558124407
 20
-163.6744194469286
 10
88.27540416629921
 20
-163.8477077498367
 10
88.27540416629921
 20
-163.8477077498367
 10
88.1822143334232
 20
-163.9303900414827
 10
88.09350312467802
 20
-163.9875786265378
 10
87.94329696152113
 20
-164.0616481794707
 97
        0
 97
        0
 92
        1
 93
        1
 72
     4
 94
        3
 73
     0
 74
     1
 95
       17
 96
       13
 40
0.0
 40
0.0
 40
0.0
 40
0.0
 40
1.0
 40
1.0
 40
1.0
 40
2.0
 40
2.0
 40
2.0
 40
3.0
 40
3.0
 40
3.0
 40
4.0
 40
4.0
 40
4.0
 40
4.0
 10
88.09557018196917
 20
-163.5962157794135
 10
88.06594236079602
 20
-163.555908162236
 10
87.99824623451086
 20
-163.458756469552
 10
87.81634519288967
 20
-163.348513414024
 10
87.81634519288967
 20
-163.348513414024
 10
87.94329696152113
 20
-163.2151882187448
 10
87.94329696152113
 20
-163.2151882187448
 10
88.12933211772462
 20
-163.3168185355597
 10
88.18652070277976
 20
-163.4057019990791
 10
88.21408146666177
 20
-163.4480766735477
 10
88.21408146666177
 20
-163.4480766735477
 10
88.09557018196917
 20
-163.5962157794135
 10
88.09557018196917
 20
-163.5962157794135
 97
        0
 97
        0
 92
        1
 93
        1
 72
     4
 94
        3
 73
     0
 74
     1
 95
       38
 96
       34
 40
0.0
 40
0.0
 40
0.0
 40
0.0
 40
1.0
 40
1.0
 40
1.0
 40
2.0
 40
2.0
 40
2.0
 40
3.0
 40
3.0
 40
3.0
 40
4.0
 40
4.0
 40
4.0
 40
5.0
 40
5.0
 40
5.0
 40
6.0
 40
6.0
 40
6.0
 40
7.0
 40
7.0
 40
7.0
 40
8.0
 40
8.0
 40
8.0
 40
9.0
 40
9.0
 40
9.0
 40
10.0
 40
10.0
 40
10.0
 40
11.0
 40
11.0
 40
11.0
 40
11.0
 10
88.46367863456811
 20
-163.2913248289688
 10
88.46161157727697
 20
-163.3381781275682
 10
88.45937226521156
 20
-163.4542778454212
 10
88.45937226521156
 20
-163.4987195771809
 10
88.45937226521156
 20
-163.4987195771809
 10
88.45937226521156
 20
-163.8456406925455
 10
88.45937226521156
 20
-163.8456406925455
 10
88.45937226521156
 20
-163.9324570987738
 10
88.46161157727697
 20
-164.0740505232176
 10
88.47211911850698
 20
-164.1946288652013
 10
88.47211911850698
 20
-164.1946288652013
 10
88.28177759294692
 20
-164.1946288652013
 10
88.28177759294692
 20
-164.1946288652013
 10
88.28591170752922
 20
-164.1312391082728
 10
88.29021807688578
 20
-164.0785291473484
 10
88.29228513417694
 20
-164.0234076195844
 10
88.29435219146808
 20
-163.9007622203095
 10
88.29659150353349
 20
-163.885948309723
 10
88.29659150353349
 20
-163.8415065779632
 10
88.29659150353349
 20
-163.8415065779632
 10
88.29659150353349
 20
-163.5200791691894
 10
88.29659150353349
 20
-163.5200791691894
 10
88.29659150353349
 20
-163.4649576414254
 10
88.28384465023807
 20
-163.2258680147491
 10
88.28177759294692
 20
-163.1752251111159
 10
88.28177759294692
 20
-163.1752251111159
 10
88.48262665973698
 20
-163.2027858749979
 10
88.48262665973698
 20
-163.2027858749979
 10
88.50381399697127
 20
-163.2048529322891
 10
88.53550887543557
 20
-163.2089870468714
 10
88.53550887543557
 20
-163.2344807534622
 10
88.53550887543557
 20
-163.2616970077957
 10
88.48486597180239
 20
-163.2830565998042
 10
88.46367863456811
 20
-163.2913248289688
 97
        0
 97
        0
 92
        1
 93
        1
 72
     4
 94
        3
 73
     0
 74
     1
 95
       83
 96
       79
 40
0.0
 40
0.0
 40
0.0
 40
0.0
 40
1.0
 40
1.0
 40
1.0
 40
2.0
 40
2.0
 40
2.0
 40
3.0
 40
3.0
 40
3.0
 40
4.0
 40
4.0
 40
4.0
 40
5.0
 40
5.0
 40
5.0
 40
6.0
 40
6.0
 40
6.0
 40
7.0
 40
7.0
 40
7.0
 40
8.0
 40
8.0
 40
8.0
 40
9.0
 40
9.0
 40
9.0
 40
10.0
 40
10.0
 40
10.0
 40
11.0
 40
11.0
 40
11.0
 40
12.0
 40
12.0
 40
12.0
 40
13.0
 40
13.0
 40
13.0
 40
14.0
 40
14.0
 40
14.0
 40
15.0
 40
15.0
 40
15.0
 40
16.0
 40
16.0
 40
16.0
 40
17.0
 40
17.0
 40
17.0
 40
18.0
 40
18.0
 40
18.0
 40
19.0
 40
19.0
 40
19.0
 40
20.0
 40
20.0
 40
20.0
 40
21.0
 40
21.0
 40
21.0
 40
22.0
 40
22.0
 40
22.0
 40
23.0
 40
23.0
 40
23.0
 40
24.0
 40
24.0
 40
24.0
 40
25.0
 40
25.0
 40
25.0
 40
26.0
 40
26.0
 40
26.0
 40
26.0
 10
89.26535235398575
 20
-163.6130967472912
 10
89.26535235398575
 20
-163.6130967472912
 10
89.16802840652744
 20
-163.6130967472912
 10
89.16802840652744
 20
-163.6130967472912
 10
89.16802840652744
 20
-163.6130967472912
 10
89.16802840652744
 20
-163.8604546031321
 10
89.16802840652744
 20
-163.8604546031321
 10
89.16802840652744
 20
-163.8604546031321
 10
89.25053844339918
 20
-163.8604546031321
 10
89.25053844339918
 20
-163.8604546031321
 10
89.31616751239318
 20
-163.8604546031321
 10
89.45586613432006
 20
-163.8563204885498
 10
89.55525713906952
 20
-163.8477077498367
 10
89.55525713906952
 20
-163.8477077498367
 10
89.55525713906952
 20
-164.0275417341667
 10
89.55525713906952
 20
-164.0275417341667
 10
89.46223956096777
 20
-164.0192735050021
 10
89.31203339781088
 20
-164.0151393904198
 10
89.25053844339918
 20
-164.0151393904198
 10
89.25053844339918
 20
-164.0151393904198
 10
88.94599200250309
 20
-164.0151393904198
 10
88.94599200250309
 20
-164.0151393904198
 10
88.8931097868045
 20
-164.0151393904198
 10
88.74720999300418
 20
-164.0192735050021
 10
88.64127330683274
 20
-164.0275417341667
 10
88.64127330683274
 20
-164.0275417341667
 10
88.64127330683274
 20
-163.8477077498367
 10
88.64127330683274
 20
-163.8477077498367
 10
88.74083656635646
 20
-163.8563204885498
 10
88.88036293350908
 20
-163.8604546031321
 10
88.94599200250309
 20
-163.8604546031321
 10
88.94599200250309
 20
-163.8604546031321
 10
88.99043373426281
 20
-163.8604546031321
 10
88.99043373426281
 20
-163.8604546031321
 10
88.99043373426281
 20
-163.8604546031321
 10
88.99043373426281
 20
-163.6130967472912
 10
88.99043373426281
 20
-163.6130967472912
 10
88.99043373426281
 20
-163.6130967472912
 10
88.91636418132994
 20
-163.6130967472912
 10
88.91636418132994
 20
-163.6130967472912
 10
88.8550414816925
 20
-163.6130967472912
 10
88.68795435065788
 20
-163.6172308618735
 10
88.56737600867413
 20
-163.6258436005866
 10
88.56737600867413
 20
-163.6258436005866
 10
88.56737600867413
 20
-163.4480766735477
 10
88.56737600867413
 20
-163.4480766735477
 10
88.68158092401016
 20
-163.4542778454212
 10
88.84022757110591
 20
-163.458756469552
 10
88.91636418132994
 20
-163.458756469552
 10
88.91636418132994
 20
-163.458756469552
 10
88.98836667697167
 20
-163.458756469552
 10
88.98836667697167
 20
-163.458756469552
 10
88.9840603076151
 20
-163.3061387395554
 10
88.98199325032395
 20
-163.2723768038
 10
88.97561982367624
 20
-163.1793592256982
 10
88.97561982367624
 20
-163.1793592256982
 10
89.18714868647058
 20
-163.2027858749979
 10
89.18714868647058
 20
-163.2027858749979
 10
89.21247013828716
 20
-163.2048529322891
 10
89.23589678758687
 20
-163.2089870468714
 10
89.23589678758687
 20
-163.2320691866225
 10
89.23589678758687
 20
-163.2641085746354
 10
89.19145505582713
 20
-163.2809895425131
 10
89.16802840652744
 20
-163.2892577716777
 10
89.16802840652744
 20
-163.2892577716777
 10
89.16802840652744
 20
-163.458756469552
 10
89.16802840652744
 20
-163.458756469552
 10
89.16802840652744
 20
-163.458756469552
 10
89.26535235398575
 20
-163.458756469552
 10
89.26535235398575
 20
-163.458756469552
 10
89.34166121898403
 20
-163.458756469552
 10
89.5003078660798
 20
-163.4542778454212
 10
89.61657983870697
 20
-163.4480766735477
 10
89.61657983870697
 20
-163.4480766735477
 10
89.61657983870697
 20
-163.6258436005866
 10
89.61657983870697
 20
-163.6258436005866
 10
89.50874835001865
 20
-163.6192979191646
 10
89.33528779233632
 20
-163.6130967472912
 10
89.26535235398575
 20
-163.6130967472912
 97
        0
 97
        0
 92
        1
 93
        1
 72
     4
 94
        3
 73
     0
 74
     1
 95
       17
 96
       13
 40
0.0
 40
0.0
 40
0.0
 40
0.0
 40
1.0
 40
1.0
 40
1.0
 40
2.0
 40
2.0
 40
2.0
 40
3.0
 40
3.0
 40
3.0
 40
4.0
 40
4.0
 40
4.0
 40
4.0
 10
89.02006155543596
 20
-164.4106363521265
 10
89.02006155543596
 20
-164.4106363521265
 10
88.81697317658049
 20
-164.4106363521265
 10
88.81697317658049
 20
-164.4106363521265
 10
88.84436168568821
 20
-164.4698919944728
 10
88.89948321345221
 20
-164.5418944901145
 10
88.92687172255995
 20
-164.5711778017392
 10
88.95443248644195
 20
-164.5567084007011
 10
89.06863740177798
 20
-164.492974134224
 10
89.15958792258859
 20
-164.4106363521265
 10
89.15958792258859
 20
-164.4106363521265
 10
89.02006155543596
 20
-164.4106363521265
 10
89.02006155543596
 20
-164.4106363521265
 97
        0
 97
        0
 75
     2
 76
     1
 98
        0
  0
SPLINE
  5
A3
330
90
100
AcDbEntity
  8
_U+30EC_U+30A4_U+30E4_U+30FC 1
370
     0
100
AcDbSpline
210
0.0
220
0.0
230
1.0
 70
    11
 71
     3
 72
    77
 73
    73
 74
     0
 42
0.0000000001
 43
0.0000000001
 12
1.0
 22
0.0
 32
0.0
 13
1.0
 23
0.0
 33
0.0
 40
0.0
 40
0.0
 40
0.0
 40
0.0
 40
1.0
 40
1.0
 40
1.0
 40
2.0
 40
2.0
 40
2.0
 40
3.0
 40
3.0
 40
3.0
 40
4.0
 40
4.0
 40
4.0
 40
5.0
 40
5.0
 40
5.0
 40
6.0
 40
6.0
 40
6.0
 40
7.0
 40
7.0
 40
7.0
 40
8.0
 40
8.0
 40
8.0
 40
9.0
 40
9.0
 40
9.0
 40
10.0
 40
10.0
 40
10.0
 40
11.0
 40
11.0
 40
11.0
 40
12.0
 40
12.0
 40
12.0
 40
13.0
 40
13.0
 40
13.0
 40
14.0
 40
14.0
 40
14.0
 40
15.0
 40
15.0
 40
15.0
 40
16.0
 40
16.0
 40
16.0
 40
17.0
 40
17.0
 40
17.0
 40
18.0
 40
18.0
 40
18.0
 40
19.0
 40
19.0
 40
19.0
 40
20.0
 40
20.0
 40
20.0
 40
21.0
 40
21.0
 40
21.0
 40
22.0
 40
22.0
 40
22.0
 40
23.0
 40
23.0
 40
23.0
 40
24.0
 40
24.0
 40
24.0
 40
24.0
 10
91.51121010082012
 20
-165.0410888259272
 30
0.0
 10
91.46470131176925
 20
-165.0662380229696
 30
0.0
 10
91.33981660042893
 20
-165.078984876265
 30
0.0
 10
91.26161293291376
 20
-165.078984876265
 30
0.0
 10
91.24886607961834
 20
-165.078984876265
 30
0.0
 10
91.22354462780176
 20
-165.078984876265
 30
0.0
 10
91.18961043727205
 20
-165.0748507616827
 30
0.0
 10
91.18961043727205
 20
-165.0748507616827
 30
0.0
 10
91.09228648981374
 20
-164.8485079883018
 30
0.0
 10
91.09228648981374
 20
-164.8485079883018
 30
0.0
 10
91.12191431098688
 20
-164.8547091601752
 30
0.0
 10
91.17910289604204
 20
-164.8633218988883
 30
0.0
 10
91.29537486866921
 20
-164.8633218988883
 30
0.0
 10
91.37375079095865
 20
-164.8633218988883
 30
0.0
 10
91.3758178482498
 20
-164.8209472244198
 30
0.0
 10
91.3758178482498
 20
-164.7637586393646
 30
0.0
 10
91.3758178482498
 20
-164.7637586393646
 30
0.0
 10
91.3758178482498
 20
-164.4147704667088
 30
0.0
 10
91.3758178482498
 20
-164.4147704667088
 30
0.0
 10
91.3758178482498
 20
-164.4147704667088
 30
0.0
 10
90.91675887484026
 20
-164.4147704667088
 30
0.0
 10
90.91675887484026
 20
-164.4147704667088
 30
0.0
 10
90.91882593213141
 20
-164.5522297765703
 30
0.0
 10
90.92106524419683
 20
-164.7510117860692
 30
0.0
 10
90.92726641607027
 20
-164.8843369813484
 30
0.0
 10
90.92950572813568
 20
-164.9118977452304
 30
0.0
 10
90.92950572813568
 20
-164.9563394769901
 30
0.0
 10
90.94208032665685
 20
-165.0176621766275
 30
0.0
 10
90.94208032665685
 20
-165.0176621766275
 30
0.0
 10
90.70092364268936
 20
-165.0176621766275
 30
0.0
 10
90.70092364268936
 20
-165.0176621766275
 30
0.0
 10
90.72641734928021
 20
-164.8929497200615
 30
0.0
 10
90.72641734928021
 20
-164.5522297765703
 30
0.0
 10
90.72641734928021
 20
-164.4147704667088
 30
0.0
 10
90.72641734928021
 20
-164.4147704667088
 30
0.0
 10
90.28423934374838
 20
-164.4147704667088
 30
0.0
 10
90.28423934374838
 20
-164.4147704667088
 30
0.0
 10
90.26098494922296
 20
-164.6221652149208
 30
0.0
 10
90.19535588022895
 20
-164.8908826627703
 30
0.0
 10
89.99864092802117
 20
-165.0748507616827
 30
0.0
 10
89.99864092802117
 20
-165.0748507616827
 30
0.0
 10
89.81036645975227
 20
-164.9522053624078
 30
0.0
 10
89.81036645975227
 20
-164.9522053624078
 30
0.0
 10
90.06426999701519
 20
-164.7320637609003
 30
0.0
 10
90.09596487547948
 20
-164.3999565561222
 30
0.0
 10
90.09596487547948
 20
-164.0678493513442
 30
0.0
 10
90.09596487547948
 20
-164.0678493513442
 30
0.0
 10
90.09596487547948
 20
-163.6320447724601
 30
0.0
 10
90.09596487547948
 20
-163.6320447724601
 30
0.0
 10
90.09596487547948
 20
-163.5962157794135
 30
0.0
 10
90.09389781818834
 20
-163.3633273246106
 30
0.0
 10
90.08528507947521
 20
-163.2616970077957
 30
0.0
 10
90.2249837014021
 20
-163.2723768038
 30
0.0
 10
90.46614038536958
 20
-163.2723768038
 30
0.0
 10
90.60997312187877
 20
-163.2723768038
 30
0.0
 10
90.60997312187877
 20
-163.2723768038
 30
0.0
 10
91.0690320952883
 20
-163.2723768038
 30
0.0
 10
91.0690320952883
 20
-163.2723768038
 30
0.0
 10
91.08384600587488
 20
-163.2723768038
 30
0.0
 10
91.43300643330495
 20
-163.2723768038
 30
0.0
 10
91.5916530804007
 20
-163.2616970077957
 30
0.0
 10
91.58941376833529
 20
-163.3147514782685
 30
0.0
 10
91.58321259646183
 20
-163.4756374374297
 30
0.0
 10
91.58321259646183
 20
-163.5262803410629
 30
0.0
 10
91.58321259646183
 20
-163.5262803410629
 30
0.0
 10
91.58321259646183
 20
-164.1333061655639
 30
0.0
 10
91.58321259646183
 20
-164.1333061655639
 30
0.0
 10
91.58321259646183
 20
-164.1525987002813
 30
0.0
 10
91.59372013769185
 20
-164.7237955317357
 30
0.0
 10
91.59372013769185
 20
-164.8357611350064
 30
0.0
 10
91.59372013769185
 20
-164.8929497200615
 30
0.0
 10
91.59372013769185
 20
-164.9945800368764
 30
0.0
 10
91.51121010082012
 20
-165.0410888259272
 30
0.0
  0
POLYLINE
  5
A4
330
90
100
AcDbEntity
  8
_U+30EC_U+30A4_U+30E4_U+30FC 1
370
     0
100
AcDb2dPolyline
 66
     1
 10
0.0
 20
0.0
 30
0.0
  0
VERTEX
  5
A5
330
A4
100
AcDbEntity
  8
_U+30EC_U+30A4_U+30E4_U+30FC 1
370
     0
100
AcDbVertex
100
AcDb2dVertex
 10
90.72641734928021
 20
-163.4542778454212
 30
0.0
  0
VERTEX
  5
A6
330
A4
100
AcDbEntity
  8
_U+30EC_U+30A4_U+30E4_U+30FC 1
370
     0
100
AcDbVertex
100
AcDb2dVertex
 10
90.28837345833068
 20
-163.4542778454212
 30
0.0
  0
VERTEX
  5
A7
330
A4
100
AcDbEntity
  8
_U+30EC_U+30A4_U+30E4_U+30FC 1
370
     0
100
AcDbVertex
100
AcDb2dVertex
 10
90.28837345833068
 20
-163.7588242863172
 30
0.0
  0
VERTEX
  5
A8
330
A4
100
AcDbEntity
  8
_U+30EC_U+30A4_U+30E4_U+30FC 1
370
     0
100
AcDbVertex
100
AcDb2dVertex
 10
90.72641734928021
 20
-163.7588242863172
 30
0.0
  0
VERTEX
  5
A9
330
A4
100
AcDbEntity
  8
_U+30EC_U+30A4_U+30E4_U+30FC 1
370
     0
100
AcDbVertex
100
AcDb2dVertex
 10
90.72641734928021
 20
-163.4542778454212
 30
0.0
  0
SEQEND
  5
AA
330
A4
100
AcDbEntity
  8
_U+30EC_U+30A4_U+30E4_U+30FC 1
370
     0
  0
POLYLINE
  5
AB
330
90
100
AcDbEntity
  8
_U+30EC_U+30A4_U+30E4_U+30FC 1
370
     0
100
AcDb2dPolyline
 66
     1
 10
0.0
 20
0.0
 30
0.0
  0
VERTEX
  5
AC
330
AB
100
AcDbEntity
  8
_U+30EC_U+30A4_U+30E4_U+30FC 1
370
     0
100
AcDbVertex
100
AcDb2dVertex
 10
90.72641734928021
 20
-163.9262559269004
 30
0.0
  0
VERTEX
  5
AD
330
AB
100
AcDbEntity
  8
_U+30EC_U+30A4_U+30E4_U+30FC 1
370
     0
100
AcDbVertex
100
AcDb2dVertex
 10
90.28837345833068
 20
-163.9262559269004
 30
0.0
  0
VERTEX
  5
AE
330
AB
100
AcDbEntity
  8
_U+30EC_U+30A4_U+30E4_U+30FC 1
370
     0
100
AcDbVertex
100
AcDb2dVertex
 10
90.28837345833068
 20
-164.2349364823788
 30
0.0
  0
VERTEX
  5
AF
330
AB
100
AcDbEntity
  8
_U+30EC_U+30A4_U+30E4_U+30FC 1
370
     0
100
AcDbVertex
100
AcDb2dVertex
 10
90.72641734928021
 20
-164.2349364823788
 30
0.0
  0
VERTEX
  5
B0
330
AB
100
AcDbEntity
  8
_U+30EC_U+30A4_U+30E4_U+30FC 1
370
     0
100
AcDbVertex
100
AcDb2dVertex
 10
90.72641734928021
 20
-163.9262559269004
 30
0.0
  0
SEQEND
  5
B1
330
AB
100
AcDbEntity
  8
_U+30EC_U+30A4_U+30E4_U+30FC 1
370
     0
  0
POLYLINE
  5
B2
330
90
100
AcDbEntity
  8
_U+30EC_U+30A4_U+30E4_U+30FC 1
370
     0
100
AcDb2dPolyline
 66
     1
 10
0.0
 20
0.0
 30
0.0
  0
VERTEX
  5
B3
330
B2
100
AcDbEntity
  8
_U+30EC_U+30A4_U+30E4_U+30FC 1
370
     0
100
AcDbVertex
100
AcDb2dVertex
 10
91.3758178482498
 20
-163.4542778454212
 30
0.0
  0
VERTEX
  5
B4
330
B2
100
AcDbEntity
  8
_U+30EC_U+30A4_U+30E4_U+30FC 1
370
     0
100
AcDbVertex
100
AcDb2dVertex
 10
90.91675887484026
 20
-163.4542778454212
 30
0.0
  0
VERTEX
  5
B5
330
B2
100
AcDbEntity
  8
_U+30EC_U+30A4_U+30E4_U+30FC 1
370
     0
100
AcDbVertex
100
AcDb2dVertex
 10
90.91675887484026
 20
-163.7588242863172
 30
0.0
  0
VERTEX
  5
B6
330
B2
100
AcDbEntity
  8
_U+30EC_U+30A4_U+30E4_U+30FC 1
370
     0
100
AcDbVertex
100
AcDb2dVertex
 10
91.3758178482498
 20
-163.7588242863172
 30
0.0
  0
VERTEX
  5
B7
330
B2
100
AcDbEntity
  8
_U+30EC_U+30A4_U+30E4_U+30FC 1
370
     0
100
AcDbVertex
100
AcDb2dVertex
 10
91.3758178482498
 20
-163.4542778454212
 30
0.0
  0
SEQEND
  5
B8
330
B2
100
AcDbEntity
  8
_U+30EC_U+30A4_U+30E4_U+30FC 1
370
     0
  0
POLYLINE
  5
B9
330
90
100
AcDbEntity
  8
_U+30EC_U+30A4_U+30E4_U+30FC 1
370
     0
100
AcDb2dPolyline
 66
     1
 10
0.0
 20
0.0
 30
0.0
  0
VERTEX
  5
BA
330
B9
100
AcDbEntity
  8
_U+30EC_U+30A4_U+30E4_U+30FC 1
370
     0
100
AcDbVertex
100
AcDb2dVertex
 10
91.3758178482498
 20
-163.9262559269004
 30
0.0
  0
VERTEX
  5
BB
330
B9
100
AcDbEntity
  8
_U+30EC_U+30A4_U+30E4_U+30FC 1
370
     0
100
AcDbVertex
100
AcDb2dVertex
 10
90.91675887484026
 20
-163.9262559269004
 30
0.0
  0
VERTEX
  5
BC
330
B9
100
AcDbEntity
  8
_U+30EC_U+30A4_U+30E4_U+30FC 1
370
     0
100
AcDbVertex
100
AcDb2dVertex
 10
90.91675887484026
 20
-164.2349364823788
 30
0.0
  0
VERTEX
  5
BD
330
B9
100
AcDbEntity
  8
_U+30EC_U+30A4_U+30E4_U+30FC 1
370
     0
100
AcDbVertex
100
AcDb2dVertex
 10
91.3758178482498
 20
-164.2349364823788
 30
0.0
  0
VERTEX
  5
BE
330
B9
100
AcDbEntity
  8
_U+30EC_U+30A4_U+30E4_U+30FC 1
370
     0
100
AcDbVertex
100
AcDb2dVertex
 10
91.3758178482498
 20
-163.9262559269004
 30
0.0
  0
SEQEND
  5
BF
330
B9
100
AcDbEntity
  8
_U+30EC_U+30A4_U+30E4_U+30FC 1
370
     0
  0
HATCH
  5
C0
330
90
100
AcDbEntity
  8
_U+30EC_U+30A4_U+30E4_U+30FC 1
 62
   179
420
  2234388
100
AcDbHatch
 10
0.0
 20
0.0
 30
0.0
210
0.0
220
0.0
230
1.0
  2
SOLID
 70
     1
 71
     0
 91
        5
 92
        1
 93
        1
 72
     4
 94
        3
 73
     0
 74
     1
 95
       77
 96
       73
 40
0.0
 40
0.0
 40
0.0
 40
0.0
 40
1.0
 40
1.0
 40
1.0
 40
2.0
 40
2.0
 40
2.0
 40
3.0
 40
3.0
 40
3.0
 40
4.0
 40
4.0
 40
4.0
 40
5.0
 40
5.0
 40
5.0
 40
6.0
 40
6.0
 40
6.0
 40
7.0
 40
7.0
 40
7.0
 40
8.0
 40
8.0
 40
8.0
 40
9.0
 40
9.0
 40
9.0
 40
10.0
 40
10.0
 40
10.0
 40
11.0
 40
11.0
 40
11.0
 40
12.0
 40
12.0
 40
12.0
 40
13.0
 40
13.0
 40
13.0
 40
14.0
 40
14.0
 40
14.0
 40
15.0
 40
15.0
 40
15.0
 40
16.0
 40
16.0
 40
16.0
 40
17.0
 40
17.0
 40
17.0
 40
18.0
 40
18.0
 40
18.0
 40
19.0
 40
19.0
 40
19.0
 40
20.0
 40
20.0
 40
20.0
 40
21.0
 40
21.0
 40
21.0
 40
22.0
 40
22.0
 40
22.0
 40
23.0
 40
23.0
 40
23.0
 40
24.0
 40
24.0
 40
24.0
 40
24.0
 10
91.51121010082012
 20
-165.0410888259272
 10
91.46470131176925
 20
-165.0662380229696
 10
91.33981660042893
 20
-165.078984876265
 10
91.26161293291376
 20
-165.078984876265
 10
91.24886607961834
 20
-165.078984876265
 10
91.22354462780176
 20
-165.078984876265
 10
91.18961043727205
 20
-165.0748507616827
 10
91.18961043727205
 20
-165.0748507616827
 10
91.09228648981374
 20
-164.8485079883018
 10
91.09228648981374
 20
-164.8485079883018
 10
91.12191431098688
 20
-164.8547091601752
 10
91.17910289604204
 20
-164.8633218988883
 10
91.29537486866921
 20
-164.8633218988883
 10
91.37375079095865
 20
-164.8633218988883
 10
91.3758178482498
 20
-164.8209472244198
 10
91.3758178482498
 20
-164.7637586393646
 10
91.3758178482498
 20
-164.7637586393646
 10
91.3758178482498
 20
-164.4147704667088
 10
91.3758178482498
 20
-164.4147704667088
 10
91.3758178482498
 20
-164.4147704667088
 10
90.91675887484026
 20
-164.4147704667088
 10
90.91675887484026
 20
-164.4147704667088
 10
90.91882593213141
 20
-164.5522297765703
 10
90.92106524419683
 20
-164.7510117860692
 10
90.92726641607027
 20
-164.8843369813484
 10
90.92950572813568
 20
-164.9118977452304
 10
90.92950572813568
 20
-164.9563394769901
 10
90.94208032665685
 20
-165.0176621766275
 10
90.94208032665685
 20
-165.0176621766275
 10
90.70092364268936
 20
-165.0176621766275
 10
90.70092364268936
 20
-165.0176621766275
 10
90.72641734928021
 20
-164.8929497200615
 10
90.72641734928021
 20
-164.5522297765703
 10
90.72641734928021
 20
-164.4147704667088
 10
90.72641734928021
 20
-164.4147704667088
 10
90.28423934374838
 20
-164.4147704667088
 10
90.28423934374838
 20
-164.4147704667088
 10
90.26098494922296
 20
-164.6221652149208
 10
90.19535588022895
 20
-164.8908826627703
 10
89.99864092802117
 20
-165.0748507616827
 10
89.99864092802117
 20
-165.0748507616827
 10
89.81036645975227
 20
-164.9522053624078
 10
89.81036645975227
 20
-164.9522053624078
 10
90.06426999701519
 20
-164.7320637609003
 10
90.09596487547948
 20
-164.3999565561222
 10
90.09596487547948
 20
-164.0678493513442
 10
90.09596487547948
 20
-164.0678493513442
 10
90.09596487547948
 20
-163.6320447724601
 10
90.09596487547948
 20
-163.6320447724601
 10
90.09596487547948
 20
-163.5962157794135
 10
90.09389781818834
 20
-163.3633273246106
 10
90.08528507947521
 20
-163.2616970077957
 10
90.2249837014021
 20
-163.2723768038
 10
90.46614038536958
 20
-163.2723768038
 10
90.60997312187877
 20
-163.2723768038
 10
90.60997312187877
 20
-163.2723768038
 10
91.0690320952883
 20
-163.2723768038
 10
91.0690320952883
 20
-163.2723768038
 10
91.08384600587488
 20
-163.2723768038
 10
91.43300643330495
 20
-163.2723768038
 10
91.5916530804007
 20
-163.2616970077957
 10
91.58941376833529
 20
-163.3147514782685
 10
91.58321259646183
 20
-163.4756374374297
 10
91.58321259646183
 20
-163.5262803410629
 10
91.58321259646183
 20
-163.5262803410629
 10
91.58321259646183
 20
-164.1333061655639
 10
91.58321259646183
 20
-164.1333061655639
 10
91.58321259646183
 20
-164.1525987002813
 10
91.59372013769185
 20
-164.7237955317357
 10
91.59372013769185
 20
-164.8357611350064
 10
91.59372013769185
 20
-164.8929497200615
 10
91.59372013769185
 20
-164.9945800368764
 10
91.51121010082012
 20
-165.0410888259272
 97
        0
 97
        0
 92
        1
 93
        4
 72
     1
 10
90.72641734928021
 20
-163.4542778454212
 11
90.28837345833068
 21
-163.4542778454212
 72
     1
 10
90.28837345833068
 20
-163.4542778454212
 11
90.28837345833068
 21
-163.7588242863172
 72
     1
 10
90.28837345833068
 20
-163.7588242863172
 11
90.72641734928021
 21
-163.7588242863172
 72
     1
 10
90.72641734928021
 20
-163.7588242863172
 11
90.72641734928021
 21
-163.4542778454212
 97
        0
 92
        1
 93
        4
 72
     1
 10
90.72641734928021
 20
-163.9262559269004
 11
90.28837345833068
 21
-163.9262559269004
 72
     1
 10
90.28837345833068
 20
-163.9262559269004
 11
90.28837345833068
 21
-164.2349364823788
 72
     1
 10
90.28837345833068
 20
-164.2349364823788
 11
90.72641734928021
 21
-164.2349364823788
 72
     1
 10
90.72641734928021
 20
-164.2349364823788
 11
90.72641734928021
 21
-163.9262559269004
 97
        0
 92
        1
 93
        4
 72
     1
 10
91.3758178482498
 20
-163.4542778454212
 11
90.91675887484026
 21
-163.4542778454212
 72
     1
 10
90.91675887484026
 20
-163.4542778454212
 11
90.91675887484026
 21
-163.7588242863172
 72
     1
 10
90.91675887484026
 20
-163.7588242863172
 11
91.3758178482498
 21
-163.7588242863172
 72
     1
 10
91.3758178482498
 20
-163.7588242863172
 11
91.3758178482498
 21
-163.4542778454212
 97
        0
 92
        1
 93
        4
 72
     1
 10
91.3758178482498
 20
-163.9262559269004
 11
90.91675887484026
 21
-163.9262559269004
 72
     1
 10
90.91675887484026
 20
-163.9262559269004
 11
90.91675887484026
 21
-164.2349364823788
 72
     1
 10
90.91675887484026
 20
-164.2349364823788
 11
91.3758178482498
 21
-164.2349364823788
 72
     1
 10
91.3758178482498
 20
-164.2349364823788
 11
91.3758178482498
 21
-163.9262559269004
 97
        0
 75
     2
 76
     1
 98
        0
  0
SPLINE
  5
C1
330
90
100
AcDbEntity
  8
_U+30EC_U+30A4_U+30E4_U+30FC 1
370
     0
100
AcDbSpline
210
0.0
220
0.0
230
1.0
 70
    11
 71
     3
 72
    44
 73
    40
 74
     0
 42
0.0000000001
 43
0.0000000001
 12
1.0
 22
0.0
 32
0.0
 13
1.0
 23
0.0
 33
0.0
 40
0.0
 40
0.0
 40
0.0
 40
0.0
 40
1.0
 40
1.0
 40
1.0
 40
2.0
 40
2.0
 40
2.0
 40
3.0
 40
3.0
 40
3.0
 40
4.0
 40
4.0
 40
4.0
 40
5.0
 40
5.0
 40
5.0
 40
6.0
 40
6.0
 40
6.0
 40
7.0
 40
7.0
 40
7.0
 40
8.0
 40
8.0
 40
8.0
 40
9.0
 40
9.0
 40
9.0
 40
10.0
 40
10.0
 40
10.0
 40
11.0
 40
11.0
 40
11.0
 40
12.0
 40
12.0
 40
12.0
 40
13.0
 40
13.0
 40
13.0
 40
13.0
 10
93.38878714028128
 20
-163.7908636743301
 30
0.0
 10
93.27664928223639
 20
-164.1587998721548
 30
0.0
 10
93.22583412382896
 20
-164.3176187740248
 30
0.0
 10
93.02911917162119
 20
-164.5670436871569
 30
0.0
 10
92.84515107270886
 20
-164.7978650846686
 30
0.0
 10
92.60812850332367
 20
-164.9839002408721
 30
0.0
 10
92.32890351424416
 20
-165.0769178189738
 30
0.0
 10
92.32890351424416
 20
-165.0769178189738
 30
0.0
 10
92.1363226766187
 20
-164.8970838346438
 30
0.0
 10
92.1363226766187
 20
-164.8970838346438
 30
0.0
 10
92.7774549464237
 20
-164.7448106141958
 30
0.0
 10
93.10732283913637
 20
-164.1884276933279
 30
0.0
 10
93.17088485083923
 20
-163.7484889998615
 30
0.0
 10
93.17088485083923
 20
-163.7484889998615
 30
0.0
 10
92.40504012446819
 20
-163.7484889998615
 30
0.0
 10
92.40504012446819
 20
-163.7484889998615
 30
0.0
 10
92.31202254636645
 20
-163.7484889998615
 30
0.0
 10
92.12788219267983
 20
-163.7526231144438
 30
0.0
 10
91.97130260287524
 20
-163.7715711396127
 30
0.0
 10
91.97130260287524
 20
-163.7715711396127
 30
0.0
 10
91.97130260287524
 20
-163.5517740476537
 30
0.0
 10
91.97130260287524
 20
-163.5517740476537
 30
0.0
 10
92.05811900910354
 20
-163.5727891301138
 30
0.0
 10
92.30978323430104
 20
-163.5727891301138
 30
0.0
 10
92.40934649382476
 20
-163.5727891301138
 30
0.0
 10
92.40934649382476
 20
-163.5727891301138
 30
0.0
 10
92.84084470335229
 20
-163.5727891301138
 30
0.0
 10
92.84084470335229
 20
-163.5727891301138
 30
0.0
 10
92.88321937782086
 20
-163.5727891301138
 30
0.0
 10
93.11800263514064
 20
-163.5707220728226
 30
0.0
 10
93.15607094025265
 20
-163.5645209009492
 30
0.0
 10
93.19844561472122
 20
-163.5579752195272
 30
0.0
 10
93.20051267201238
 20
-163.555908162236
 30
0.0
 10
93.26183537164982
 20
-163.5156005450586
 30
0.0
 10
93.26183537164982
 20
-163.5156005450586
 30
0.0
 10
93.45010983991872
 20
-163.6702853323463
 30
0.0
 10
93.45010983991872
 20
-163.6702853323463
 30
0.0
 10
93.42048201874557
 20
-163.6999131535195
 30
0.0
 10
93.405668108159
 20
-163.7316080319838
 30
0.0
 10
93.38878714028128
 20
-163.7908636743301
 30
0.0
  0
SPLINE
  5
C2
330
90
100
AcDbEntity
  8
_U+30EC_U+30A4_U+30E4_U+30FC 1
370
     0
100
AcDbSpline
210
0.0
220
0.0
230
1.0
 70
    11
 71
     3
 72
    17
 73
    13
 74
     0
 42
0.0000000001
 43
0.0000000001
 12
1.0
 22
0.0
 32
0.0
 13
1.0
 23
0.0
 33
0.0
 40
0.0
 40
0.0
 40
0.0
 40
0.0
 40
1.0
 40
1.0
 40
1.0
 40
2.0
 40
2.0
 40
2.0
 40
3.0
 40
3.0
 40
3.0
 40
4.0
 40
4.0
 40
4.0
 40
4.0
 10
93.59824894578448
 20
-163.5917371552826
 30
0.0
 10
93.47129717715302
 20
-163.5917371552826
 30
0.0
 10
93.36966686033814
 20
-163.4904513480163
 30
0.0
 10
93.36966686033814
 20
-163.3633273246106
 30
0.0
 10
93.36966686033814
 20
-163.2365478107534
 30
0.0
 10
93.47129717715302
 20
-163.1328504366473
 30
0.0
 10
93.59824894578448
 20
-163.1328504366473
 30
0.0
 10
93.72520071441592
 20
-163.1328504366473
 30
0.0
 10
93.82872583374768
 20
-163.2365478107534
 30
0.0
 10
93.82872583374768
 20
-163.3633273246106
 30
0.0
 10
93.82872583374768
 20
-163.4904513480163
 30
0.0
 10
93.72520071441592
 20
-163.5917371552826
 30
0.0
 10
93.59824894578448
 20
-163.5917371552826
 30
0.0
  0
SPLINE
  5
C3
330
90
100
AcDbEntity
  8
_U+30EC_U+30A4_U+30E4_U+30FC 1
370
     0
100
AcDbSpline
210
0.0
220
0.0
230
1.0
 70
    11
 71
     3
 72
    17
 73
    13
 74
     0
 42
0.0000000001
 43
0.0000000001
 12
1.0
 22
0.0
 32
0.0
 13
1.0
 23
0.0
 33
0.0
 40
0.0
 40
0.0
 40
0.0
 40
0.0
 40
1.0
 40
1.0
 40
1.0
 40
2.0
 40
2.0
 40
2.0
 40
3.0
 40
3.0
 40
3.0
 40
4.0
 40
4.0
 40
4.0
 40
4.0
 10
93.59600963371906
 20
-163.2616970077957
 30
0.0
 10
93.54106036072932
 20
-163.2616970077957
 30
0.0
 10
93.4966186289696
 20
-163.3061387395554
 30
0.0
 10
93.4966186289696
 20
-163.3612602673194
 30
0.0
 10
93.4966186289696
 20
-163.4184488523746
 30
0.0
 10
93.54106036072932
 20
-163.4670246987166
 30
0.0
 10
93.60031600307562
 20
-163.4670246987166
 30
0.0
 10
93.65957164542192
 20
-163.4670246987166
 30
0.0
 10
93.69970700782508
 20
-163.4163817950834
 30
0.0
 10
93.69970700782508
 20
-163.3633273246106
 30
0.0
 10
93.69970700782508
 20
-163.3061387395554
 30
0.0
 10
93.65319821877421
 20
-163.2616970077957
 30
0.0
 10
93.59600963371906
 20
-163.2616970077957
 30
0.0
  0
HATCH
  5
C4
330
90
100
AcDbEntity
  8
_U+30EC_U+30A4_U+30E4_U+30FC 1
 62
   179
420
  2234388
100
AcDbHatch
 10
0.0
 20
0.0
 30
0.0
210
0.0
220
0.0
230
1.0
  2
SOLID
 70
     1
 71
     0
 91
        3
 92
        1
 93
        1
 72
     4
 94
        3
 73
     0
 74
     1
 95
       44
 96
       40
 40
0.0
 40
0.0
 40
0.0
 40
0.0
 40
1.0
 40
1.0
 40
1.0
 40
2.0
 40
2.0
 40
2.0
 40
3.0
 40
3.0
 40
3.0
 40
4.0
 40
4.0
 40
4.0
 40
5.0
 40
5.0
 40
5.0
 40
6.0
 40
6.0
 40
6.0
 40
7.0
 40
7.0
 40
7.0
 40
8.0
 40
8.0
 40
8.0
 40
9.0
 40
9.0
 40
9.0
 40
10.0
 40
10.0
 40
10.0
 40
11.0
 40
11.0
 40
11.0
 40
12.0
 40
12.0
 40
12.0
 40
13.0
 40
13.0
 40
13.0
 40
13.0
 10
93.38878714028128
 20
-163.7908636743301
 10
93.27664928223639
 20
-164.1587998721548
 10
93.22583412382896
 20
-164.3176187740248
 10
93.02911917162119
 20
-164.5670436871569
 10
92.84515107270886
 20
-164.7978650846686
 10
92.60812850332367
 20
-164.9839002408721
 10
92.32890351424416
 20
-165.0769178189738
 10
92.32890351424416
 20
-165.0769178189738
 10
92.1363226766187
 20
-164.8970838346438
 10
92.1363226766187
 20
-164.8970838346438
 10
92.7774549464237
 20
-164.7448106141958
 10
93.10732283913637
 20
-164.1884276933279
 10
93.17088485083923
 20
-163.7484889998615
 10
93.17088485083923
 20
-163.7484889998615
 10
92.40504012446819
 20
-163.7484889998615
 10
92.40504012446819
 20
-163.7484889998615
 10
92.31202254636645
 20
-163.7484889998615
 10
92.12788219267983
 20
-163.7526231144438
 10
91.97130260287524
 20
-163.7715711396127
 10
91.97130260287524
 20
-163.7715711396127
 10
91.97130260287524
 20
-163.5517740476537
 10
91.97130260287524
 20
-163.5517740476537
 10
92.05811900910354
 20
-163.5727891301138
 10
92.30978323430104
 20
-163.5727891301138
 10
92.40934649382476
 20
-163.5727891301138
 10
92.40934649382476
 20
-163.5727891301138
 10
92.84084470335229
 20
-163.5727891301138
 10
92.84084470335229
 20
-163.5727891301138
 10
92.88321937782086
 20
-163.5727891301138
 10
93.11800263514064
 20
-163.5707220728226
 10
93.15607094025265
 20
-163.5645209009492
 10
93.19844561472122
 20
-163.5579752195272
 10
93.20051267201238
 20
-163.555908162236
 10
93.26183537164982
 20
-163.5156005450586
 10
93.26183537164982
 20
-163.5156005450586
 10
93.45010983991872
 20
-163.6702853323463
 10
93.45010983991872
 20
-163.6702853323463
 10
93.42048201874557
 20
-163.6999131535195
 10
93.405668108159
 20
-163.7316080319838
 10
93.38878714028128
 20
-163.7908636743301
 97
        0
 97
        0
 92
        1
 93
        1
 72
     4
 94
        3
 73
     0
 74
     1
 95
       17
 96
       13
 40
0.0
 40
0.0
 40
0.0
 40
0.0
 40
1.0
 40
1.0
 40
1.0
 40
2.0
 40
2.0
 40
2.0
 40
3.0
 40
3.0
 40
3.0
 40
4.0
 40
4.0
 40
4.0
 40
4.0
 10
93.59824894578448
 20
-163.5917371552826
 10
93.47129717715302
 20
-163.5917371552826
 10
93.36966686033814
 20
-163.4904513480163
 10
93.36966686033814
 20
-163.3633273246106
 10
93.36966686033814
 20
-163.2365478107534
 10
93.47129717715302
 20
-163.1328504366473
 10
93.59824894578448
 20
-163.1328504366473
 10
93.72520071441592
 20
-163.1328504366473
 10
93.82872583374768
 20
-163.2365478107534
 10
93.82872583374768
 20
-163.3633273246106
 10
93.82872583374768
 20
-163.4904513480163
 10
93.72520071441592
 20
-163.5917371552826
 10
93.59824894578448
 20
-163.5917371552826
 97
        0
 97
        0
 92
        1
 93
        1
 72
     4
 94
        3
 73
     0
 74
     1
 95
       17
 96
       13
 40
0.0
 40
0.0
 40
0.0
 40
0.0
 40
1.0
 40
1.0
 40
1.0
 40
2.0
 40
2.0
 40
2.0
 40
3.0
 40
3.0
 40
3.0
 40
4.0
 40
4.0
 40
4.0
 40
4.0
 10
93.59600963371906
 20
-163.2616970077957
 10
93.54106036072932
 20
-163.2616970077957
 10
93.4966186289696
 20
-163.3061387395554
 10
93.4966186289696
 20
-163.3612602673194
 10
93.4966186289696
 20
-163.4184488523746
 10
93.54106036072932
 20
-163.4670246987166
 10
93.60031600307562
 20
-163.4670246987166
 10
93.65957164542192
 20
-163.4670246987166
 10
93.69970700782508
 20
-163.4163817950834
 10
93.69970700782508
 20
-163.3633273246106
 10
93.69970700782508
 20
-163.3061387395554
 10
93.65319821877421
 20
-163.2616970077957
 10
93.59600963371906
 20
-163.2616970077957
 97
        0
 97
        0
 75
     2
 76
     1
 98
        0
  0
SPLINE
  5
C5
330
90
100
AcDbEntity
  8
_U+30EC_U+30A4_U+30E4_U+30FC 1
370
     0
100
AcDbSpline
210
0.0
220
0.0
230
1.0
 70
    11
 71
     3
 72
    50
 73
    46
 74
     0
 42
0.0000000001
 43
0.0000000001
 12
1.0
 22
0.0
 32
0.0
 13
1.0
 23
0.0
 33
0.0
 40
0.0
 40
0.0
 40
0.0
 40
0.0
 40
1.0
 40
1.0
 40
1.0
 40
2.0
 40
2.0
 40
2.0
 40
3.0
 40
3.0
 40
3.0
 40
4.0
 40
4.0
 40
4.0
 40
5.0
 40
5.0
 40
5.0
 40
6.0
 40
6.0
 40
6.0
 40
7.0
 40
7.0
 40
7.0
 40
8.0
 40
8.0
 40
8.0
 40
9.0
 40
9.0
 40
9.0
 40
10.0
 40
10.0
 40
10.0
 40
11.0
 40
11.0
 40
11.0
 40
12.0
 40
12.0
 40
12.0
 40
13.0
 40
13.0
 40
13.0
 40
14.0
 40
14.0
 40
14.0
 40
15.0
 40
15.0
 40
15.0
 40
15.0
 10
95.39314369359964
 20
-164.0995442298085
 30
0.0
 10
95.31494002608446
 20
-164.2773111568473
 30
0.0
 10
95.17954777351414
 20
-164.4847059050594
 30
0.0
 10
95.04208846365268
 20
-164.624232272212
 30
0.0
 10
94.87276202055264
 20
-164.7954535178289
 30
0.0
 10
94.70980900410034
 20
-164.8843369813484
 30
0.0
 10
94.39044865261766
 20
-165.0262749153407
 30
0.0
 10
94.39044865261766
 20
-165.0262749153407
 30
0.0
 10
94.22112220951765
 20
-164.8378281922975
 30
0.0
 10
94.22112220951765
 20
-164.8378281922975
 30
0.0
 10
94.40732962049539
 20
-164.8147460525463
 30
0.0
 10
94.57872312088658
 20
-164.727929646318
 30
0.0
 10
94.73099634133462
 20
-164.6221652149208
 30
0.0
 10
94.99334036253639
 20
-164.4402641732997
 30
0.0
 10
95.18368188809644
 20
-164.1271049936905
 30
0.0
 10
95.23242998921273
 20
-163.9452039520692
 30
0.0
 10
95.23242998921273
 20
-163.9452039520692
 30
0.0
 10
94.56184215300885
 20
-163.9452039520692
 30
0.0
 10
94.56184215300885
 20
-163.9452039520692
 30
0.0
 10
94.40319550591309
 20
-163.9452039520692
 30
0.0
 10
94.11122366353817
 20
-163.9534721812338
 30
0.0
 10
93.95895044309013
 20
-163.9706976586601
 30
0.0
 10
93.95895044309013
 20
-163.9706976586601
 30
0.0
 10
93.95895044309013
 20
-163.7419433184395
 30
0.0
 10
93.95895044309013
 20
-163.7419433184395
 30
0.0
 10
93.99271237884558
 20
-163.7484889998615
 30
0.0
 10
94.01803383066216
 20
-163.7546901717349
 30
0.0
 10
94.07091604636075
 20
-163.7588242863172
 30
0.0
 10
94.17254636317561
 20
-163.7653699677392
 30
0.0
 10
94.36926131538338
 20
-163.7674370250304
 30
0.0
 10
94.45383840954626
 20
-163.7674370250304
 30
0.0
 10
94.45383840954626
 20
-163.7674370250304
 30
0.0
 10
94.95957842678094
 20
-163.7674370250304
 30
0.0
 10
94.95957842678094
 20
-163.7674370250304
 30
0.0
 10
95.0272745530661
 20
-163.7674370250304
 30
0.0
 10
95.17317434686643
 20
-163.7633029104481
 30
0.0
 10
95.23449704650388
 20
-163.7567572290261
 30
0.0
 10
95.3064995421456
 20
-163.7484889998615
 30
0.0
 10
95.33388805125334
 20
-163.7336750892749
 30
0.0
 10
95.36782224178305
 20
-163.7102484399752
 30
0.0
 10
95.36782224178305
 20
-163.7102484399752
 30
0.0
 10
95.53284231552652
 20
-163.8773355710098
 30
0.0
 10
95.53284231552652
 20
-163.8773355710098
 30
0.0
 10
95.46290687717594
 20
-163.9452039520692
 30
0.0
 10
95.41639808812508
 20
-164.0489013261753
 30
0.0
 10
95.39314369359964
 20
-164.0995442298085
 30
0.0
  0
SPLINE
  5
C6
330
90
100
AcDbEntity
  8
_U+30EC_U+30A4_U+30E4_U+30FC 1
370
     0
100
AcDbSpline
210
0.0
220
0.0
230
1.0
 70
    11
 71
     3
 72
    29
 73
    25
 74
     0
 42
0.0000000001
 43
0.0000000001
 12
1.0
 22
0.0
 32
0.0
 13
1.0
 23
0.0
 33
0.0
 40
0.0
 40
0.0
 40
0.0
 40
0.0
 40
1.0
 40
1.0
 40
1.0
 40
2.0
 40
2.0
 40
2.0
 40
3.0
 40
3.0
 40
3.0
 40
4.0
 40
4.0
 40
4.0
 40
5.0
 40
5.0
 40
5.0
 40
6.0
 40
6.0
 40
6.0
 40
7.0
 40
7.0
 40
7.0
 40
8.0
 40
8.0
 40
8.0
 40
8.0
 10
94.90032278443465
 20
-163.4735703801386
 30
0.0
 10
94.90032278443465
 20
-163.4735703801386
 30
0.0
 10
94.55960284094344
 20
-163.4735703801386
 30
0.0
 10
94.55960284094344
 20
-163.4735703801386
 30
0.0
 10
94.44539792560741
 20
-163.4735703801386
 30
0.0
 10
94.32912595298022
 20
-163.4777044947209
 30
0.0
 10
94.21492103764419
 20
-163.4925184053074
 30
0.0
 10
94.21492103764419
 20
-163.4925184053074
 30
0.0
 10
94.21492103764419
 20
-163.2830565998042
 30
0.0
 10
94.21492103764419
 20
-163.2830565998042
 30
0.0
 10
94.33326006756252
 20
-163.2978705103908
 30
0.0
 10
94.50672062524485
 20
-163.3020046249731
 30
0.0
 10
94.55960284094344
 20
-163.3020046249731
 30
0.0
 10
94.55960284094344
 20
-163.3020046249731
 30
0.0
 10
94.90032278443465
 20
-163.3020046249731
 30
0.0
 10
94.90032278443465
 20
-163.3020046249731
 30
0.0
 10
95.01659475706182
 20
-163.3020046249731
 30
0.0
 10
95.13303898446327
 20
-163.2978705103908
 30
0.0
 10
95.24931095709046
 20
-163.2830565998042
 30
0.0
 10
95.24931095709046
 20
-163.2830565998042
 30
0.0
 10
95.24931095709046
 20
-163.4925184053074
 30
0.0
 10
95.24931095709046
 20
-163.4925184053074
 30
0.0
 10
95.09910479393356
 20
-163.4735703801386
 30
0.0
 10
94.91513669502122
 20
-163.4735703801386
 30
0.0
 10
94.90032278443465
 20
-163.4735703801386
 30
0.0
  0
HATCH
  5
C7
330
90
100
AcDbEntity
  8
_U+30EC_U+30A4_U+30E4_U+30FC 1
 62
   179
420
  2234388
100
AcDbHatch
 10
0.0
 20
0.0
 30
0.0
210
0.0
220
0.0
230
1.0
  2
SOLID
 70
     1
 71
     0
 91
        2
 92
        1
 93
        1
 72
     4
 94
        3
 73
     0
 74
     1
 95
       50
 96
       46
 40
0.0
 40
0.0
 40
0.0
 40
0.0
 40
1.0
 40
1.0
 40
1.0
 40
2.0
 40
2.0
 40
2.0
 40
3.0
 40
3.0
 40
3.0
 40
4.0
 40
4.0
 40
4.0
 40
5.0
 40
5.0
 40
5.0
 40
6.0
 40
6.0
 40
6.0
 40
7.0
 40
7.0
 40
7.0
 40
8.0
 40
8.0
 40
8.0
 40
9.0
 40
9.0
 40
9.0
 40
10.0
 40
10.0
 40
10.0
 40
11.0
 40
11.0
 40
11.0
 40
12.0
 40
12.0
 40
12.0
 40
13.0
 40
13.0
 40
13.0
 40
14.0
 40
14.0
 40
14.0
 40
15.0
 40
15.0
 40
15.0
 40
15.0
 10
95.39314369359964
 20
-164.0995442298085
 10
95.31494002608446
 20
-164.2773111568473
 10
95.17954777351414
 20
-164.4847059050594
 10
95.04208846365268
 20
-164.624232272212
 10
94.87276202055264
 20
-164.7954535178289
 10
94.70980900410034
 20
-164.8843369813484
 10
94.39044865261766
 20
-165.0262749153407
 10
94.39044865261766
 20
-165.0262749153407
 10
94.22112220951765
 20
-164.8378281922975
 10
94.22112220951765
 20
-164.8378281922975
 10
94.40732962049539
 20
-164.8147460525463
 10
94.57872312088658
 20
-164.727929646318
 10
94.73099634133462
 20
-164.6221652149208
 10
94.99334036253639
 20
-164.4402641732997
 10
95.18368188809644
 20
-164.1271049936905
 10
95.23242998921273
 20
-163.9452039520692
 10
95.23242998921273
 20
-163.9452039520692
 10
94.56184215300885
 20
-163.9452039520692
 10
94.56184215300885
 20
-163.9452039520692
 10
94.40319550591309
 20
-163.9452039520692
 10
94.11122366353817
 20
-163.9534721812338
 10
93.95895044309013
 20
-163.9706976586601
 10
93.95895044309013
 20
-163.9706976586601
 10
93.95895044309013
 20
-163.7419433184395
 10
93.95895044309013
 20
-163.7419433184395
 10
93.99271237884558
 20
-163.7484889998615
 10
94.01803383066216
 20
-163.7546901717349
 10
94.07091604636075
 20
-163.7588242863172
 10
94.17254636317561
 20
-163.7653699677392
 10
94.36926131538338
 20
-163.7674370250304
 10
94.45383840954626
 20
-163.7674370250304
 10
94.45383840954626
 20
-163.7674370250304
 10
94.95957842678094
 20
-163.7674370250304
 10
94.95957842678094
 20
-163.7674370250304
 10
95.0272745530661
 20
-163.7674370250304
 10
95.17317434686643
 20
-163.7633029104481
 10
95.23449704650388
 20
-163.7567572290261
 10
95.3064995421456
 20
-163.7484889998615
 10
95.33388805125334
 20
-163.7336750892749
 10
95.36782224178305
 20
-163.7102484399752
 10
95.36782224178305
 20
-163.7102484399752
 10
95.53284231552652
 20
-163.8773355710098
 10
95.53284231552652
 20
-163.8773355710098
 10
95.46290687717594
 20
-163.9452039520692
 10
95.41639808812508
 20
-164.0489013261753
 10
95.39314369359964
 20
-164.0995442298085
 97
        0
 97
        0
 92
        1
 93
        1
 72
     4
 94
        3
 73
     0
 74
     1
 95
       29
 96
       25
 40
0.0
 40
0.0
 40
0.0
 40
0.0
 40
1.0
 40
1.0
 40
1.0
 40
2.0
 40
2.0
 40
2.0
 40
3.0
 40
3.0
 40
3.0
 40
4.0
 40
4.0
 40
4.0
 40
5.0
 40
5.0
 40
5.0
 40
6.0
 40
6.0
 40
6.0
 40
7.0
 40
7.0
 40
7.0
 40
8.0
 40
8.0
 40
8.0
 40
8.0
 10
94.90032278443465
 20
-163.4735703801386
 10
94.90032278443465
 20
-163.4735703801386
 10
94.55960284094344
 20
-163.4735703801386
 10
94.55960284094344
 20
-163.4735703801386
 10
94.44539792560741
 20
-163.4735703801386
 10
94.32912595298022
 20
-163.4777044947209
 10
94.21492103764419
 20
-163.4925184053074
 10
94.21492103764419
 20
-163.4925184053074
 10
94.21492103764419
 20
-163.2830565998042
 10
94.21492103764419
 20
-163.2830565998042
 10
94.33326006756252
 20
-163.2978705103908
 10
94.50672062524485
 20
-163.3020046249731
 10
94.55960284094344
 20
-163.3020046249731
 10
94.55960284094344
 20
-163.3020046249731
 10
94.90032278443465
 20
-163.3020046249731
 10
94.90032278443465
 20
-163.3020046249731
 10
95.01659475706182
 20
-163.3020046249731
 10
95.13303898446327
 20
-163.2978705103908
 10
95.24931095709046
 20
-163.2830565998042
 10
95.24931095709046
 20
-163.2830565998042
 10
95.24931095709046
 20
-163.4925184053074
 10
95.24931095709046
 20
-163.4925184053074
 10
95.09910479393356
 20
-163.4735703801386
 10
94.91513669502122
 20
-163.4735703801386
 10
94.90032278443465
 20
-163.4735703801386
 97
        0
 97
        0
 75
     2
 76
     1
 98
        0
  0
SPLINE
  5
C8
330
90
100
AcDbEntity
  8
_U+30EC_U+30A4_U+30E4_U+30FC 1
370
     0
100
AcDbSpline
210
0.0
220
0.0
230
1.0
 70
    11
 71
     3
 72
    50
 73
    46
 74
     0
 42
0.0000000001
 43
0.0000000001
 12
1.0
 22
0.0
 32
0.0
 13
1.0
 23
0.0
 33
0.0
 40
0.0
 40
0.0
 40
0.0
 40
0.0
 40
1.0
 40
1.0
 40
1.0
 40
2.0
 40
2.0
 40
2.0
 40
3.0
 40
3.0
 40
3.0
 40
4.0
 40
4.0
 40
4.0
 40
5.0
 40
5.0
 40
5.0
 40
6.0
 40
6.0
 40
6.0
 40
7.0
 40
7.0
 40
7.0
 40
8.0
 40
8.0
 40
8.0
 40
9.0
 40
9.0
 40
9.0
 40
10.0
 40
10.0
 40
10.0
 40
11.0
 40
11.0
 40
11.0
 40
12.0
 40
12.0
 40
12.0
 40
13.0
 40
13.0
 40
13.0
 40
14.0
 40
14.0
 40
14.0
 40
15.0
 40
15.0
 40
15.0
 40
15.0
 10
97.10346134725192
 20
-163.458756469552
 30
0.0
 10
96.89399954174873
 20
-163.6723523896375
 30
0.0
 10
96.821997046107
 20
-163.7443548852792
 30
0.0
 10
96.68023136688898
 20
-163.8625216604233
 30
0.0
 10
96.68023136688898
 20
-163.8625216604233
 30
0.0
 10
96.68023136688898
 20
-164.4295843772954
 30
0.0
 10
96.68023136688898
 20
-164.4295843772954
 30
0.0
 10
96.68023136688898
 20
-164.5797905404523
 30
0.0
 10
96.68660479353669
 20
-164.5987385656211
 30
0.0
 10
96.69091116289324
 20
-164.77650549266
 30
0.0
 10
96.6929782201844
 20
-164.9077636306481
 30
0.0
 10
96.69935164683211
 20
-164.9563394769901
 30
0.0
 10
96.70572507347983
 20
-165.0155951193364
 30
0.0
 10
96.70572507347983
 20
-165.0155951193364
 30
0.0
 10
96.4793823000989
 20
-165.0155951193364
 30
0.0
 10
96.4793823000989
 20
-165.0155951193364
 30
0.0
 10
96.4835164146812
 20
-164.9711533875767
 30
0.0
 10
96.48782278403777
 20
-164.9246445985258
 30
0.0
 10
96.48782278403777
 20
-164.9160318598127
 30
0.0
 10
96.48782278403777
 20
-164.8357611350064
 30
0.0
 10
96.49195689862007
 20
-164.4847059050594
 30
0.0
 10
96.49195689862007
 20
-164.4127034094177
 30
0.0
 10
96.49195689862007
 20
-164.4127034094177
 30
0.0
 10
96.49195689862007
 20
-164.0065266517067
 30
0.0
 10
96.49195689862007
 20
-164.0065266517067
 30
0.0
 10
96.31005585699889
 20
-164.1312391082728
 30
0.0
 10
96.11540796208226
 20
-164.2414821638008
 30
0.0
 10
95.91231958322679
 20
-164.3279540604805
 30
0.0
 10
95.91231958322679
 20
-164.3279540604805
 30
0.0
 10
95.7092312043713
 20
-164.1650010440282
 30
0.0
 10
95.7092312043713
 20
-164.1650010440282
 30
0.0
 10
95.83187660364621
 20
-164.1291720509816
 30
0.0
 10
96.08801945297452
 20
-164.0551024980487
 30
0.0
 10
96.43270125627377
 20
-163.7991319034947
 30
0.0
 10
96.64853648842468
 20
-163.6406575111732
 30
0.0
 10
96.84111732605014
 20
-163.45221078813
 30
0.0
 10
96.99339054649819
 20
-163.2320691866225
 30
0.0
 10
96.99339054649819
 20
-163.2320691866225
 30
0.0
 10
97.18579912934939
 20
-163.376074177906
 30
0.0
 10
97.18579912934939
 20
-163.376074177906
 30
0.0
 10
97.19854598264482
 20
-163.3867539739103
 30
0.0
 10
97.20698646658367
 20
-163.4015678844968
 30
0.0
 10
97.20698646658367
 20
-163.4143147377923
 30
0.0
 10
97.20698646658367
 20
-163.4542778454212
 30
0.0
 10
97.16891816147167
 20
-163.4542778454212
 30
0.0
 10
97.10346134725192
 20
-163.458756469552
 30
0.0
  0
HATCH
  5
C9
330
90
100
AcDbEntity
  8
_U+30EC_U+30A4_U+30E4_U+30FC 1
 62
   179
420
  2234388
100
AcDbHatch
 10
0.0
 20
0.0
 30
0.0
210
0.0
220
0.0
230
1.0
  2
SOLID
 70
     1
 71
     0
 91
        1
 92
        1
 93
        1
 72
     4
 94
        3
 73
     0
 74
     1
 95
       50
 96
       46
 40
0.0
 40
0.0
 40
0.0
 40
0.0
 40
1.0
 40
1.0
 40
1.0
 40
2.0
 40
2.0
 40
2.0
 40
3.0
 40
3.0
 40
3.0
 40
4.0
 40
4.0
 40
4.0
 40
5.0
 40
5.0
 40
5.0
 40
6.0
 40
6.0
 40
6.0
 40
7.0
 40
7.0
 40
7.0
 40
8.0
 40
8.0
 40
8.0
 40
9.0
 40
9.0
 40
9.0
 40
10.0
 40
10.0
 40
10.0
 40
11.0
 40
11.0
 40
11.0
 40
12.0
 40
12.0
 40
12.0
 40
13.0
 40
13.0
 40
13.0
 40
14.0
 40
14.0
 40
14.0
 40
15.0
 40
15.0
 40
15.0
 40
15.0
 10
97.10346134725192
 20
-163.458756469552
 10
96.89399954174873
 20
-163.6723523896375
 10
96.821997046107
 20
-163.7443548852792
 10
96.68023136688898
 20
-163.8625216604233
 10
96.68023136688898
 20
-163.8625216604233
 10
96.68023136688898
 20
-164.4295843772954
 10
96.68023136688898
 20
-164.4295843772954
 10
96.68023136688898
 20
-164.5797905404523
 10
96.68660479353669
 20
-164.5987385656211
 10
96.69091116289324
 20
-164.77650549266
 10
96.6929782201844
 20
-164.9077636306481
 10
96.69935164683211
 20
-164.9563394769901
 10
96.70572507347983
 20
-165.0155951193364
 10
96.70572507347983
 20
-165.0155951193364
 10
96.4793823000989
 20
-165.0155951193364
 10
96.4793823000989
 20
-165.0155951193364
 10
96.4835164146812
 20
-164.9711533875767
 10
96.48782278403777
 20
-164.9246445985258
 10
96.48782278403777
 20
-164.9160318598127
 10
96.48782278403777
 20
-164.8357611350064
 10
96.49195689862007
 20
-164.4847059050594
 10
96.49195689862007
 20
-164.4127034094177
 10
96.49195689862007
 20
-164.4127034094177
 10
96.49195689862007
 20
-164.0065266517067
 10
96.49195689862007
 20
-164.0065266517067
 10
96.31005585699889
 20
-164.1312391082728
 10
96.11540796208226
 20
-164.2414821638008
 10
95.91231958322679
 20
-164.3279540604805
 10
95.91231958322679
 20
-164.3279540604805
 10
95.7092312043713
 20
-164.1650010440282
 10
95.7092312043713
 20
-164.1650010440282
 10
95.83187660364621
 20
-164.1291720509816
 10
96.08801945297452
 20
-164.0551024980487
 10
96.43270125627377
 20
-163.7991319034947
 10
96.64853648842468
 20
-163.6406575111732
 10
96.84111732605014
 20
-163.45221078813
 10
96.99339054649819
 20
-163.2320691866225
 10
96.99339054649819
 20
-163.2320691866225
 10
97.18579912934939
 20
-163.376074177906
 10
97.18579912934939
 20
-163.376074177906
 10
97.19854598264482
 20
-163.3867539739103
 10
97.20698646658367
 20
-163.4015678844968
 10
97.20698646658367
 20
-163.4143147377923
 10
97.20698646658367
 20
-163.4542778454212
 10
97.16891816147167
 20
-163.4542778454212
 10
97.10346134725192
 20
-163.458756469552
 97
        0
 97
        0
 75
     2
 76
     1
 98
        0
  0
SPLINE
  5
CA
330
90
100
AcDbEntity
  8
_U+30EC_U+30A4_U+30E4_U+30FC 1
370
     0
100
AcDbSpline
210
0.0
220
0.0
230
1.0
 70
    11
 71
     3
 72
    50
 73
    46
 74
     0
 42
0.0000000001
 43
0.0000000001
 12
1.0
 22
0.0
 32
0.0
 13
1.0
 23
0.0
 33
0.0
 40
0.0
 40
0.0
 40
0.0
 40
0.0
 40
1.0
 40
1.0
 40
1.0
 40
2.0
 40
2.0
 40
2.0
 40
3.0
 40
3.0
 40
3.0
 40
4.0
 40
4.0
 40
4.0
 40
5.0
 40
5.0
 40
5.0
 40
6.0
 40
6.0
 40
6.0
 40
7.0
 40
7.0
 40
7.0
 40
8.0
 40
8.0
 40
8.0
 40
9.0
 40
9.0
 40
9.0
 40
10.0
 40
10.0
 40
10.0
 40
11.0
 40
11.0
 40
11.0
 40
12.0
 40
12.0
 40
12.0
 40
13.0
 40
13.0
 40
13.0
 40
14.0
 40
14.0
 40
14.0
 40
15.0
 40
15.0
 40
15.0
 40
15.0
 10
98.8137790009042
 20
-163.9855115692467
 30
0.0
 10
98.75228404649249
 20
-164.0571695553399
 30
0.0
 10
98.49217933735612
 20
-164.3744628495314
 30
0.0
 10
98.43499075230098
 20
-164.4381971160085
 30
0.0
 10
98.51956784646386
 20
-164.5353488086926
 30
0.0
 10
98.5703830048713
 20
-164.5987385656211
 30
0.0
 10
98.6360120738653
 20
-164.6896890864317
 30
0.0
 10
98.6360120738653
 20
-164.6896890864317
 30
0.0
 10
98.4518717201787
 20
-164.8274929058418
 30
0.0
 10
98.4518717201787
 20
-164.8274929058418
 30
0.0
 10
98.31647946760839
 20
-164.6156195334989
 30
0.0
 10
98.14525822199147
 20
-164.3916883269576
 30
0.0
 10
97.85121932232539
 20
-164.1925618079102
 30
0.0
 10
97.85121932232539
 20
-164.1925618079102
 30
0.0
 10
97.99918617341687
 20
-164.038221530171
 30
0.0
 10
97.99918617341687
 20
-164.038221530171
 30
0.0
 10
98.1092569741706
 20
-164.1184922549773
 30
0.0
 10
98.21295434827663
 20
-164.2073757184968
 30
0.0
 10
98.31027829573493
 20
-164.3028048634382
 30
0.0
 10
98.37797442202009
 20
-164.2266682532142
 30
0.0
 10
98.58106280087557
 20
-163.983100002407
 30
0.0
 10
98.71421574138049
 20
-163.7546901717349
 30
0.0
 10
98.71421574138049
 20
-163.7546901717349
 30
0.0
 10
98.04156084788545
 20
-163.7546901717349
 30
0.0
 10
98.04156084788545
 20
-163.7546901717349
 30
0.0
 10
97.91667613654514
 20
-163.7546901717349
 30
0.0
 10
97.66501191134763
 20
-163.7633029104481
 30
0.0
 10
97.45555010584445
 20
-163.7736381969038
 30
0.0
 10
97.45555010584445
 20
-163.7736381969038
 30
0.0
 10
97.45555010584445
 20
-163.5538411049449
 30
0.0
 10
97.45555010584445
 20
-163.5538411049449
 30
0.0
 10
97.6395182047568
 20
-163.5727891301138
 30
0.0
 10
97.84484589567768
 20
-163.576923244696
 30
0.0
 10
98.03312036394658
 20
-163.576923244696
 30
0.0
 10
98.03312036394658
 20
-163.576923244696
 30
0.0
 10
98.53662106911585
 20
-163.576923244696
 30
0.0
 10
98.53662106911585
 20
-163.576923244696
 30
0.0
 10
98.87510170054165
 20
-163.576923244696
 30
0.0
 10
98.91954343230137
 20
-163.5621093341095
 30
0.0
 10
99.0020534691731
 20
-163.5221462264806
 30
0.0
 10
99.0020534691731
 20
-163.5221462264806
 30
0.0
 10
99.16914060020773
 20
-163.6806206188021
 30
0.0
 10
99.16914060020773
 20
-163.6806206188021
 30
0.0
 10
99.01686737975967
 20
-163.7526231144438
 30
0.0
 10
98.87286238847624
 20
-163.9155761308961
 30
0.0
 10
98.8137790009042
 20
-163.9855115692467
 30
0.0
  0
HATCH
  5
CB
330
90
100
AcDbEntity
  8
_U+30EC_U+30A4_U+30E4_U+30FC 1
 62
   179
420
  2234388
100
AcDbHatch
 10
0.0
 20
0.0
 30
0.0
210
0.0
220
0.0
230
1.0
  2
SOLID
 70
     1
 71
     0
 91
        1
 92
        1
 93
        1
 72
     4
 94
        3
 73
     0
 74
     1
 95
       50
 96
       46
 40
0.0
 40
0.0
 40
0.0
 40
0.0
 40
1.0
 40
1.0
 40
1.0
 40
2.0
 40
2.0
 40
2.0
 40
3.0
 40
3.0
 40
3.0
 40
4.0
 40
4.0
 40
4.0
 40
5.0
 40
5.0
 40
5.0
 40
6.0
 40
6.0
 40
6.0
 40
7.0
 40
7.0
 40
7.0
 40
8.0
 40
8.0
 40
8.0
 40
9.0
 40
9.0
 40
9.0
 40
10.0
 40
10.0
 40
10.0
 40
11.0
 40
11.0
 40
11.0
 40
12.0
 40
12.0
 40
12.0
 40
13.0
 40
13.0
 40
13.0
 40
14.0
 40
14.0
 40
14.0
 40
15.0
 40
15.0
 40
15.0
 40
15.0
 10
98.8137790009042
 20
-163.9855115692467
 10
98.75228404649249
 20
-164.0571695553399
 10
98.49217933735612
 20
-164.3744628495314
 10
98.43499075230098
 20
-164.4381971160085
 10
98.51956784646386
 20
-164.5353488086926
 10
98.5703830048713
 20
-164.5987385656211
 10
98.6360120738653
 20
-164.6896890864317
 10
98.6360120738653
 20
-164.6896890864317
 10
98.4518717201787
 20
-164.8274929058418
 10
98.4518717201787
 20
-164.8274929058418
 10
98.31647946760839
 20
-164.6156195334989
 10
98.14525822199147
 20
-164.3916883269576
 10
97.85121932232539
 20
-164.1925618079102
 10
97.85121932232539
 20
-164.1925618079102
 10
97.99918617341687
 20
-164.038221530171
 10
97.99918617341687
 20
-164.038221530171
 10
98.1092569741706
 20
-164.1184922549773
 10
98.21295434827663
 20
-164.2073757184968
 10
98.31027829573493
 20
-164.3028048634382
 10
98.37797442202009
 20
-164.2266682532142
 10
98.58106280087557
 20
-163.983100002407
 10
98.71421574138049
 20
-163.7546901717349
 10
98.71421574138049
 20
-163.7546901717349
 10
98.04156084788545
 20
-163.7546901717349
 10
98.04156084788545
 20
-163.7546901717349
 10
97.91667613654514
 20
-163.7546901717349
 10
97.66501191134763
 20
-163.7633029104481
 10
97.45555010584445
 20
-163.7736381969038
 10
97.45555010584445
 20
-163.7736381969038
 10
97.45555010584445
 20
-163.5538411049449
 10
97.45555010584445
 20
-163.5538411049449
 10
97.6395182047568
 20
-163.5727891301138
 10
97.84484589567768
 20
-163.576923244696
 10
98.03312036394658
 20
-163.576923244696
 10
98.03312036394658
 20
-163.576923244696
 10
98.53662106911585
 20
-163.576923244696
 10
98.53662106911585
 20
-163.576923244696
 10
98.87510170054165
 20
-163.576923244696
 10
98.91954343230137
 20
-163.5621093341095
 10
99.0020534691731
 20
-163.5221462264806
 10
99.0020534691731
 20
-163.5221462264806
 10
99.16914060020773
 20
-163.6806206188021
 10
99.16914060020773
 20
-163.6806206188021
 10
99.01686737975967
 20
-163.7526231144438
 10
98.87286238847624
 20
-163.9155761308961
 10
98.8137790009042
 20
-163.9855115692467
 97
        0
 97
        0
 75
     2
 76
     1
 98
        0
  0
SPLINE
  5
CC
330
90
100
AcDbEntity
  8
_U+30EC_U+30A4_U+30E4_U+30FC 1
370
     0
100
AcDbSpline
210
0.0
220
0.0
230
1.0
 70
    11
 71
     3
 72
    29
 73
    25
 74
     0
 42
0.0000000001
 43
0.0000000001
 12
1.0
 22
0.0
 32
0.0
 13
1.0
 23
0.0
 33
0.0
 40
0.0
 40
0.0
 40
0.0
 40
0.0
 40
1.0
 40
1.0
 40
1.0
 40
2.0
 40
2.0
 40
2.0
 40
3.0
 40
3.0
 40
3.0
 40
4.0
 40
4.0
 40
4.0
 40
5.0
 40
5.0
 40
5.0
 40
6.0
 40
6.0
 40
6.0
 40
7.0
 40
7.0
 40
7.0
 40
8.0
 40
8.0
 40
8.0
 40
8.0
 10
100.4372802483282
 20
-164.2287353105053
 30
0.0
 10
100.4372802483282
 20
-164.2287353105053
 30
0.0
 10
99.95289982310206
 20
-164.2287353105053
 30
0.0
 10
99.95289982310206
 20
-164.2287353105053
 30
0.0
 10
99.92533905922006
 20
-164.2287353105053
 30
0.0
 10
99.60804576502855
 20
-164.2287353105053
 30
0.0
 10
99.39651690223421
 20
-164.2538845075476
 30
0.0
 10
99.39651690223421
 20
-164.2538845075476
 30
0.0
 10
99.39651690223421
 20
-164.0234076195844
 30
0.0
 10
99.39651690223421
 20
-164.0234076195844
 30
0.0
 10
99.55516354932996
 20
-164.0468342688841
 30
0.0
 10
99.74550507489002
 20
-164.0489013261753
 30
0.0
 10
99.95289982310206
 20
-164.0489013261753
 30
0.0
 10
99.95289982310206
 20
-164.0489013261753
 30
0.0
 10
100.4372802483282
 20
-164.0489013261753
 30
0.0
 10
100.4372802483282
 20
-164.0489013261753
 30
0.0
 10
100.6234876593059
 20
-164.0489013261753
 30
0.0
 10
100.8096950702837
 20
-164.0468342688841
 30
0.0
 10
100.993663169196
 20
-164.0234076195844
 30
0.0
 10
100.993663169196
 20
-164.0234076195844
 30
0.0
 10
100.993663169196
 20
-164.2538845075476
 30
0.0
 10
100.993663169196
 20
-164.2538845075476
 30
0.0
 10
100.8096950702837
 20
-164.2308023677965
 30
0.0
 10
100.5621649596685
 20
-164.2287353105053
 30
0.0
 10
100.4372802483282
 20
-164.2287353105053
 30
0.0
  0
HATCH
  5
CD
330
90
100
AcDbEntity
  8
_U+30EC_U+30A4_U+30E4_U+30FC 1
 62
   179
420
  2234388
100
AcDbHatch
 10
0.0
 20
0.0
 30
0.0
210
0.0
220
0.0
230
1.0
  2
SOLID
 70
     1
 71
     0
 91
        1
 92
        1
 93
        1
 72
     4
 94
        3
 73
     0
 74
     1
 95
       29
 96
       25
 40
0.0
 40
0.0
 40
0.0
 40
0.0
 40
1.0
 40
1.0
 40
1.0
 40
2.0
 40
2.0
 40
2.0
 40
3.0
 40
3.0
 40
3.0
 40
4.0
 40
4.0
 40
4.0
 40
5.0
 40
5.0
 40
5.0
 40
6.0
 40
6.0
 40
6.0
 40
7.0
 40
7.0
 40
7.0
 40
8.0
 40
8.0
 40
8.0
 40
8.0
 10
100.4372802483282
 20
-164.2287353105053
 10
100.4372802483282
 20
-164.2287353105053
 10
99.95289982310206
 20
-164.2287353105053
 10
99.95289982310206
 20
-164.2287353105053
 10
99.92533905922006
 20
-164.2287353105053
 10
99.60804576502855
 20
-164.2287353105053
 10
99.39651690223421
 20
-164.2538845075476
 10
99.39651690223421
 20
-164.2538845075476
 10
99.39651690223421
 20
-164.0234076195844
 10
99.39651690223421
 20
-164.0234076195844
 10
99.55516354932996
 20
-164.0468342688841
 10
99.74550507489002
 20
-164.0489013261753
 10
99.95289982310206
 20
-164.0489013261753
 10
99.95289982310206
 20
-164.0489013261753
 10
100.4372802483282
 20
-164.0489013261753
 10
100.4372802483282
 20
-164.0489013261753
 10
100.6234876593059
 20
-164.0489013261753
 10
100.8096950702837
 20
-164.0468342688841
 10
100.993663169196
 20
-164.0234076195844
 10
100.993663169196
 20
-164.0234076195844
 10
100.993663169196
 20
-164.2538845075476
 10
100.993663169196
 20
-164.2538845075476
 10
100.8096950702837
 20
-164.2308023677965
 10
100.5621649596685
 20
-164.2287353105053
 10
100.4372802483282
 20
-164.2287353105053
 97
        0
 97
        0
 75
     2
 76
     1
 98
        0
  0
ENDBLK
  5
93
330
90
100
AcDbEntity
  8
0
100
AcDbBlockEnd
  0
ENDSEC
  0
SECTION
  2
ENTITIES
  0
POLYLINE
  5
41
330
1F
100
AcDbEntity
  8
_U+30EC_U+30A4_U+30E4_U+30FC 1
 62
   179
420
  2234388
370
     9
100
AcDb2dPolyline
 66
     1
 10
0.0
 20
0.0
 30
0.0
  0
VERTEX
  5
42
330
41
100
AcDbEntity
  8
_U+30EC_U+30A4_U+30E4_U+30FC 1
 62
   179
420
  2234388
370
     9
100
AcDbVertex
100
AcDb2dVertex
 10
112.3939362986702
 20
-174.7742587182422
 30
0.0
  0
VERTEX
  5
43
330
41
100
AcDbEntity
  8
_U+30EC_U+30A4_U+30E4_U+30FC 1
 62
   179
420
  2234388
370
     9
100
AcDbVertex
100
AcDb2dVertex
 10
114.2682404974204
 20
-177.0895566709511
 30
0.0
  0
SEQEND
  5
44
330
41
100
AcDbEntity
  8
_U+30EC_U+30A4_U+30E4_U+30FC 1
 62
   179
420
  2234388
370
     9
  0
POLYLINE
  5
45
330
1F
100
AcDbEntity
  8
_U+30EC_U+30A4_U+30E4_U+30FC 1
 62
   179
420
  2234388
370
     9
100
AcDb2dPolyline
 66
     1
 10
0.0
 20
0.0
 30
0.0
  0
VERTEX
  5
46
330
45
100
AcDbEntity
  8
_U+30EC_U+30A4_U+30E4_U+30FC 1
 62
   179
420
  2234388
370
     9
100
AcDbVertex
100
AcDb2dVertex
 10
123.1757071293081
 20
-170.82755733034
 30
0.0
  0
VERTEX
  5
47
330
45
100
AcDbEntity
  8
_U+30EC_U+30A4_U+30E4_U+30FC 1
 62
   179
420
  2234388
370
     9
100
AcDbVertex
100
AcDb2dVertex
 10
125.0500113280582
 20
-173.1428552830489
 30
0.0
  0
SEQEND
  5
48
330
45
100
AcDbEntity
  8
_U+30EC_U+30A4_U+30E4_U+30FC 1
 62
   179
420
  2234388
370
     9
  0
POLYLINE
  5
49
330
1F
100
AcDbEntity
  8
_U+30EC_U+30A4_U+30E4_U+30FC 1
 62
   179
420
  2234388
370
     9
100
AcDb2dPolyline
 66
     1
 10
0.0
 20
0.0
 30
0.0
  0
VERTEX
  5
4A
330
49
100
AcDbEntity
  8
_U+30EC_U+30A4_U+30E4_U+30FC 1
 62
   179
420
  2234388
370
     9
100
AcDbVertex
100
AcDb2dVertex
 10
120.7390018585143
 20
-173.5698748684457
 30
0.0
  0
VERTEX
  5
4B
330
49
100
AcDbEntity
  8
_U+30EC_U+30A4_U+30E4_U+30FC 1
 62
   179
420
  2234388
370
     9
100
AcDbVertex
100
AcDb2dVertex
 10
124.3221595453355
 20
-172.2607170522039
 30
0.0
  0
SEQEND
  5
4C
330
49
100
AcDbEntity
  8
_U+30EC_U+30A4_U+30E4_U+30FC 1
 62
   179
420
  2234388
370
     9
  0
POLYLINE
  5
4D
330
1F
100
AcDbEntity
  8
_U+30EC_U+30A4_U+30E4_U+30FC 1
 62
   179
420
  2234388
370
     9
100
AcDb2dPolyline
 66
     1
 10
0.0
 20
0.0
 30
0.0
  0
VERTEX
  5
4E
330
4D
100
AcDbEntity
  8
_U+30EC_U+30A4_U+30E4_U+30FC 1
 62
   179
420
  2234388
370
     9
100
AcDbVertex
100
AcDb2dVertex
 10
113.577972553257
 20
-176.1867478671946
 30
0.0
  0
VERTEX
  5
4F
330
4D
100
AcDbEntity
  8
_U+30EC_U+30A4_U+30E4_U+30FC 1
 62
   179
420
  2234388
370
     9
100
AcDbVertex
100
AcDb2dVertex
 10
117.5005044431455
 20
-174.7534158905565
 30
0.0
  0
SEQEND
  5
50
330
4D
100
AcDbEntity
  8
_U+30EC_U+30A4_U+30E4_U+30FC 1
 62
   179
420
  2234388
370
     9
  0
SPLINE
  5
51
330
1F
100
AcDbEntity
  8
_U+30EC_U+30A4_U+30E4_U+30FC 1
370
     0
100
AcDbSpline
210
0.0
220
0.0
230
1.0
 70
    11
 71
     3
 72
    17
 73
    13
 74
     0
 42
0.0000000001
 43
0.0000000001
 12
1.0
 22
0.0
 32
0.0
 13
1.0
 23
0.0
 33
0.0
 40
0.0
 40
0.0
 40
0.0
 40
0.0
 40
1.0
 40
1.0
 40
1.0
 40
2.0
 40
2.0
 40
2.0
 40
3.0
 40
3.0
 40
3.0
 40
4.0
 40
4.0
 40
4.0
 40
4.0
 10
113.78987822337
 20
-176.1602206319582
 30
0.0
 10
113.78987822337
 20
-176.2918232794948
 30
0.0
 10
113.6833386454887
 20
-176.3983628573761
 30
0.0
 10
113.5517467638755
 20
-176.3983628573761
 30
0.0
 10
113.4201656481858
 20
-176.3983628573761
 30
0.0
 10
113.3132707948325
 20
-176.2918232794948
 30
0.0
 10
113.3132707948325
 20
-176.1602206319582
 30
0.0
 10
113.3132707948325
 20
-176.0290055576638
 30
0.0
 10
113.4201656481858
 20
-175.9220999383871
 30
0.0
 10
113.5517467638755
 20
-175.9220999383871
 30
0.0
 10
113.6833386454887
 20
-175.9220999383871
 30
0.0
 10
113.78987822337
 20
-176.0290055576638
 30
0.0
 10
113.78987822337
 20
-176.1602206319582
 30
0.0
  0
HATCH
  5
52
330
1F
100
AcDbEntity
  8
_U+30EC_U+30A4_U+30E4_U+30FC 1
 62
   179
420
  2234388
100
AcDbHatch
 10
0.0
 20
0.0
 30
0.0
210
0.0
220
0.0
230
1.0
  2
SOLID
 70
     1
 71
     0
 91
        1
 92
        1
 93
        2
 72
     4
 94
        3
 73
     0
 74
     0
 95
       17
 96
       13
 40
0.0
 40
0.0
 40
0.0
 40
0.0
 40
0.3527777776895833
 40
0.3527777776895833
 40
0.3527777776895833
 40
0.7055555553791667
 40
0.7055555553791667
 40
0.7055555553791667
 40
1.05833333306875
 40
1.05833333306875
 40
1.05833333306875
 40
1.411111110758333
 40
1.411111110758333
 40
1.411111110758333
 40
1.411111110758333
 10
113.78987822337
 20
-176.1602206319582
 10
113.78987822337
 20
-176.2918232794948
 10
113.6833386454887
 20
-176.3983628573761
 10
113.5517467638755
 20
-176.3983628573761
 10
113.4201656481858
 20
-176.3983628573761
 10
113.3132707948325
 20
-176.2918232794948
 10
113.3132707948325
 20
-176.1602206319582
 10
113.3132707948325
 20
-176.0290055576638
 10
113.4201656481858
 20
-175.9220999383871
 10
113.5517467638755
 20
-175.9220999383871
 10
113.6833386454887
 20
-175.9220999383871
 10
113.78987822337
 20
-176.0290055576638
 10
113.78987822337
 20
-176.1602206319582
 97
        0
 72
     1
 10
113.78987822337
 20
-176.1602206319582
 11
113.78987822337
 21
-176.1602206319582
 97
        0
 75
     2
 76
     1
 98
        0
  0
SPLINE
  5
53
330
1F
100
AcDbEntity
  8
_U+30EC_U+30A4_U+30E4_U+30FC 1
370
     0
100
AcDbSpline
210
0.0
220
0.0
230
1.0
 70
    11
 71
     3
 72
    17
 73
    13
 74
     0
 42
0.0000000001
 43
0.0000000001
 12
1.0
 22
0.0
 32
0.0
 13
1.0
 23
0.0
 33
0.0
 40
0.0
 40
0.0
 40
0.0
 40
0.0
 40
1.0
 40
1.0
 40
1.0
 40
2.0
 40
2.0
 40
2.0
 40
3.0
 40
3.0
 40
3.0
 40
4.0
 40
4.0
 40
4.0
 40
4.0
 10
124.5275518317967
 20
-172.2355678551616
 30
0.0
 10
124.5275518317967
 20
-172.3671705026981
 30
0.0
 10
124.4206569784434
 20
-172.4737100805795
 30
0.0
 10
124.2890650968303
 20
-172.4737100805795
 30
0.0
 10
124.1574839811405
 20
-172.4737100805795
 30
0.0
 10
124.0505891277873
 20
-172.3671705026981
 30
0.0
 10
124.0505891277873
 20
-172.2355678551616
 30
0.0
 10
124.0505891277873
 20
-172.1043527808671
 30
0.0
 10
124.1574839811405
 20
-171.9974471615905
 30
0.0
 10
124.2890650968303
 20
-171.9974471615905
 30
0.0
 10
124.4206569784434
 20
-171.9974471615905
 30
0.0
 10
124.5275518317967
 20
-172.1043527808671
 30
0.0
 10
124.5275518317967
 20
-172.2355678551616
 30
0.0
  0
HATCH
  5
54
330
1F
100
AcDbEntity
  8
_U+30EC_U+30A4_U+30E4_U+30FC 1
 62
   179
420
  2234388
100
AcDbHatch
 10
0.0
 20
0.0
 30
0.0
210
0.0
220
0.0
230
1.0
  2
SOLID
 70
     1
 71
     0
 91
        1
 92
        1
 93
        2
 72
     4
 94
        3
 73
     0
 74
     0
 95
       17
 96
       13
 40
0.0
 40
0.0
 40
0.0
 40
0.0
 40
0.3527777776895833
 40
0.3527777776895833
 40
0.3527777776895833
 40
0.7055555553791667
 40
0.7055555553791667
 40
0.7055555553791667
 40
1.05833333306875
 40
1.05833333306875
 40
1.05833333306875
 40
1.411111110758333
 40
1.411111110758333
 40
1.411111110758333
 40
1.411111110758333
 10
124.5275518317967
 20
-172.2355678551616
 10
124.5275518317967
 20
-172.3671705026981
 10
124.4206569784434
 20
-172.4737100805795
 10
124.2890650968303
 20
-172.4737100805795
 10
124.1574839811405
 20
-172.4737100805795
 10
124.0505891277873
 20
-172.3671705026981
 10
124.0505891277873
 20
-172.2355678551616
 10
124.0505891277873
 20
-172.1043527808671
 10
124.1574839811405
 20
-171.9974471615905
 10
124.2890650968303
 20
-171.9974471615905
 10
124.4206569784434
 20
-171.9974471615905
 10
124.5275518317967
 20
-172.1043527808671
 10
124.5275518317967
 20
-172.2355678551616
 97
        0
 72
     1
 10
124.5275518317967
 20
-172.2355678551616
 11
124.5275518317967
 21
-172.2355678551616
 97
        0
 75
     2
 76
     1
 98
        0
  0
INSERT
  5
56
330
1F
100
AcDbEntity
  8
_U+30EC_U+30A4_U+30E4_U+30FC 1
100
AcDbBlockReference
  2
block 2
 10
0.0
 20
0.0
 30
0.0
  0
SPLINE
  5
5D
330
1F
100
AcDbEntity
  8
_U+30EC_U+30A4_U+30E4_U+30FC 1
 62
   179
420
  2234388
370
     9
100
AcDbSpline
210
0.0
220
0.0
230
1.0
 70
    11
 71
     3
 72
    71
 73
    67
 74
     0
 42
0.0000000001
 43
0.0000000001
 12
1.0
 22
0.0
 32
0.0
 13
1.0
 23
0.0
 33
0.0
 40
0.0
 40
0.0
 40
0.0
 40
0.0
 40
1.0
 40
1.0
 40
1.0
 40
2.0
 40
2.0
 40
2.0
 40
3.0
 40
3.0
 40
3.0
 40
4.0
 40
4.0
 40
4.0
 40
5.0
 40
5.0
 40
5.0
 40
6.0
 40
6.0
 40
6.0
 40
7.0
 40
7.0
 40
7.0
 40
8.0
 40
8.0
 40
8.0
 40
9.0
 40
9.0
 40
9.0
 40
10.0
 40
10.0
 40
10.0
 40
11.0
 40
11.0
 40
11.0
 40
12.0
 40
12.0
 40
12.0
 40
13.0
 40
13.0
 40
13.0
 40
14.0
 40
14.0
 40
14.0
 40
15.0
 40
15.0
 40
15.0
 40
16.0
 40
16.0
 40
16.0
 40
17.0
 40
17.0
 40
17.0
 40
18.0
 40
18.0
 40
18.0
 40
19.0
 40
19.0
 40
19.0
 40
20.0
 40
20.0
 40
20.0
 40
21.0
 40
21.0
 40
21.0
 40
22.0
 40
22.0
 40
22.0
 40
22.0
 10
120.1609040701659
 20
-168.2403336846109
 30
0.0
 10
120.1609040701659
 20
-168.2403336846109
 30
0.0
 10
110.5723958904613
 20
-171.3239740579177
 30
0.0
 10
110.5723958904613
 20
-171.3239740579177
 30
0.0
 10
110.5723958904613
 20
-171.3239740579177
 30
0.0
 10
110.522657324393
 20
-172.3241068091325
 30
0.0
 10
110.522657324393
 20
-172.3241068091325
 30
0.0
 10
110.522657324393
 20
-172.3241068091325
 30
0.0
 10
110.0566327985492
 20
-172.4740330582812
 30
0.0
 10
110.0566327985492
 20
-172.4740330582812
 30
0.0
 10
110.0566327985492
 20
-172.4740330582812
 30
0.0
 10
110.673993909506
 20
-158.4952136173315
 30
0.0
 10
110.673993909506
 20
-158.4952136173315
 30
0.0
 10
110.673993909506
 20
-158.4952136173315
 30
0.0
 10
108.1971425103856
 20
-155.3480758278622
 30
0.0
 10
107.3226157873783
 20
-154.2618802850565
 30
0.0
 10
106.352476898732
 20
-153.0564413747676
 30
0.0
 10
102.2369658320525
 20
-147.3238024873118
 30
0.0
 10
100.5023602552292
 20
-144.5897747102176
 30
0.0
 10
99.29515573350412
 20
-142.6868762189398
 30
0.0
 10
96.89132959274765
 20
-139.5870223650056
 30
0.0
 10
96.82747690111323
 20
-136.1523913572922
 30
0.0
 10
96.7981935894886
 20
-134.5648913576891
 30
0.0
 10
97.44483801207001
 20
-132.536419135974
 30
0.0
 10
98.06219912302677
 20
-131.213502469638
 30
0.0
 10
98.67956023398354
 20
-129.8905858033021
 30
0.0
 10
100.4011067457331
 20
-127.4923902404793
 30
0.0
 10
101.9427546776122
 20
-126.4510024708287
 30
0.0
 10
104.5226144317415
 20
-124.7093344482606
 30
0.0
 10
108.0281713427575
 20
-123.393824737218
 30
0.0
 10
110.467977199488
 20
-122.5704469162432
 30
0.0
 10
112.8742687367011
 20
-121.7586962925313
 30
0.0
 10
118.9642716852112
 20
-120.3952136268565
 30
0.0
 10
118.9642716852112
 20
-120.3952136268565
 30
0.0
 10
118.9642716852112
 20
-120.3952136268565
 30
0.0
 10
118.9642716852112
 20
-120.8065580277953
 30
0.0
 10
118.9642716852112
 20
-120.8065580277953
 30
0.0
 10
118.9642716852112
 20
-120.8065580277953
 30
0.0
 10
112.4527074744639
 20
-122.3499608051873
 30
0.0
 10
110.9826744649844
 20
-122.8205608484724
 30
0.0
 10
109.592384650065
 20
-123.2654088030053
 30
0.0
 10
104.3825605343431
 20
-125.1062094481614
 30
0.0
 10
101.678171344345
 20
-127.2521594259235
 30
0.0
 10
99.34066329167992
 20
-129.1074079402712
 30
0.0
 10
97.14602980834154
 20
-133.2334911437207
 30
0.0
 10
97.35664356764761
 20
-136.2702136228878
 30
0.0
 10
97.65085472208794
 20
-140.5035469551628
 30
0.0
 10
101.7663657887674
 20
-145.4424358428169
 30
0.0
 10
103.9712268993273
 20
-148.793824730868
 30
0.0
 10
106.1760880098872
 20
-152.145213618919
 30
0.0
 10
111.114966131618
 20
-158.3777358612845
 30
0.0
 10
111.114966131618
 20
-158.3777358612845
 30
0.0
 10
111.114966131618
 20
-158.3777358612845
 30
0.0
 10
110.576982173826
 20
-170.7246135708714
 30
0.0
 10
110.576982173826
 20
-170.7246135708714
 30
0.0
 10
110.576982173826
 20
-170.7246135708714
 30
0.0
 10
120.0727096257435
 20
-167.69635310749
 30
0.0
 10
120.0727096257435
 20
-167.69635310749
 30
0.0
 10
120.0727096257435
 20
-167.69635310749
 30
0.0
 10
121.0428485143899
 20
-166.5794746830188
 30
0.0
 10
121.0428485143899
 20
-166.5794746830188
 30
0.0
 10
121.0428485143899
 20
-166.5794746830188
 30
0.0
 10
121.0428485143899
 20
-167.3876725520116
 30
0.0
 10
121.0428485143899
 20
-167.3876725520116
 30
0.0
 10
121.0428485143899
 20
-167.3876725520116
 30
0.0
 10
120.1609040701659
 20
-168.2403336846109
 30
0.0
 10
120.1609040701659
 20
-168.2403336846109
 30
0.0
  0
SPLINE
  5
5E
330
1F
100
AcDbEntity
  8
_U+30EC_U+30A4_U+30E4_U+30FC 1
 62
   179
420
  2234388
370
     9
100
AcDbSpline
210
0.0
220
0.0
230
1.0
 70
     8
 71
     3
 72
    20
 73
    16
 74
     0
 42
0.0000000001
 43
0.0000000001
 12
1.0
 22
0.0
 32
0.0
 13
1.0
 23
0.0
 33
0.0
 40
0.0
 40
0.0
 40
0.0
 40
0.0
 40
1.0
 40
1.0
 40
1.0
 40
2.0
 40
2.0
 40
2.0
 40
3.0
 40
3.0
 40
3.0
 40
4.0
 40
4.0
 40
4.0
 40
5.0
 40
5.0
 40
5.0
 40
5.0
 10
110.0567835214767
 20
-172.4739899945877
 30
0.0
 10
110.0567835214767
 20
-172.4739899945877
 30
0.0
 10
104.1477557451762
 20
-166.1239899961752
 30
0.0
 10
102.560255745573
 20
-163.8750316634041
 30
0.0
 10
100.9727557459699
 20
-161.626073330633
 30
0.0
 10
98.9051170949572
 20
-158.4334387489116
 30
0.0
 10
98.12125021282863
 20
-157.2015371989266
 30
0.0
 10
97.29786162593054
 20
-155.9082698856106
 30
0.0
 10
96.00458354669114
 20
-152.7332698864044
 30
0.0
 10
96.00458354669114
 20
-152.7332698864044
 30
0.0
 10
96.00458354669114
 20
-152.7332698864044
 30
0.0
 10
95.94567241389336
 20
-148.7937816671744
 30
0.0
 10
96.063139404017
 20
-144.7957698883891
 30
0.0
 10
96.14322710812566
 20
-142.0804317543023
 30
0.0
 10
96.85724467929047
 20
-135.24112053775
 30
0.0
 10
96.85724467929047
 20
-135.24112053775
 30
0.0
  0
POLYLINE
  5
5F
330
1F
100
AcDbEntity
  8
_U+30EC_U+30A4_U+30E4_U+30FC 1
 62
   179
420
  2234388
370
     9
100
AcDb2dPolyline
 66
     1
 10
0.0
 20
0.0
 30
0.0
  0
VERTEX
  5
60
330
5F
100
AcDbEntity
  8
_U+30EC_U+30A4_U+30E4_U+30FC 1
 62
   179
420
  2234388
370
     9
100
AcDbVertex
100
AcDb2dVertex
 10
110.8708272868711
 20
-165.2858197964607
 30
0.0
  0
VERTEX
  5
61
330
5F
100
AcDbEntity
  8
_U+30EC_U+30A4_U+30E4_U+30FC 1
 62
   179
420
  2234388
370
     9
100
AcDbVertex
100
AcDb2dVertex
 10
116.4274217950305
 20
-163.463019775215
 30
0.0
  0
VERTEX
  5
62
330
5F
100
AcDbEntity
  8
_U+30EC_U+30A4_U+30E4_U+30FC 1
 62
   179
420
  2234388
370
     9
100
AcDbVertex
100
AcDb2dVertex
 10
118.3087884395255
 20
-163.8454469059245
 30
0.0
  0
VERTEX
  5
63
330
5F
100
AcDbEntity
  8
_U+30EC_U+30A4_U+30E4_U+30FC 1
 62
   179
420
  2234388
370
     9
100
AcDbVertex
100
AcDb2dVertex
 10
121.0428162166197
 20
-166.5794746830188
 30
0.0
  0
SEQEND
  5
64
330
5F
100
AcDbEntity
  8
_U+30EC_U+30A4_U+30E4_U+30FC 1
 62
   179
420
  2234388
370
     9
  0
POLYLINE
  5
65
330
1F
100
AcDbEntity
  8
_U+30EC_U+30A4_U+30E4_U+30FC 1
 62
   179
420
  2234388
370
     9
100
AcDb2dPolyline
 66
     1
 10
0.0
 20
0.0
 30
0.0
  0
VERTEX
  5
66
330
65
100
AcDbEntity
  8
_U+30EC_U+30A4_U+30E4_U+30FC 1
 62
   179
420
  2234388
370
     9
100
AcDbVertex
100
AcDb2dVertex
 10
110.9976068007282
 20
-162.1700539077539
 30
0.0
  0
VERTEX
  5
67
330
65
100
AcDbEntity
  8
_U+30EC_U+30A4_U+30E4_U+30FC 1
 62
   179
420
  2234388
370
     9
100
AcDbVertex
100
AcDb2dVertex
 10
113.701995990726
 20
-161.0824587949074
 30
0.0
  0
VERTEX
  5
68
330
65
100
AcDbEntity
  8
_U+30EC_U+30A4_U+30E4_U+30FC 1
 62
   179
420
  2234388
370
     9
100
AcDbVertex
100
AcDb2dVertex
 10
114.6724901548443
 20
-159.8180872199739
 30
0.0
  0
VERTEX
  5
69
330
65
100
AcDbEntity
  8
_U+30EC_U+30A4_U+30E4_U+30FC 1
 62
   179
420
  2234388
370
     9
100
AcDbVertex
100
AcDb2dVertex
 10
114.6724901548443
 20
-160.406165019306
 30
0.0
  0
VERTEX
  5
6A
330
65
100
AcDbEntity
  8
_U+30EC_U+30A4_U+30E4_U+30FC 1
 62
   179
420
  2234388
370
     9
100
AcDbVertex
100
AcDb2dVertex
 10
113.8198290222449
 20
-161.3763039079524
 30
0.0
  0
VERTEX
  5
6B
330
65
100
AcDbEntity
  8
_U+30EC_U+30A4_U+30E4_U+30FC 1
 62
   179
420
  2234388
370
     9
100
AcDbVertex
100
AcDb2dVertex
 10
110.9679682136317
 20
-162.5521149970681
 30
0.0
  0
SEQEND
  5
6C
330
65
100
AcDbEntity
  8
_U+30EC_U+30A4_U+30E4_U+30FC 1
 62
   179
420
  2234388
370
     9
  0
POLYLINE
  5
6D
330
1F
100
AcDbEntity
  8
_U+30EC_U+30A4_U+30E4_U+30FC 1
 62
   179
420
  2234388
370
     9
100
AcDb2dPolyline
 66
     1
 10
0.0
 20
0.0
 30
0.0
  0
VERTEX
  5
6E
330
6D
100
AcDbEntity
  8
_U+30EC_U+30A4_U+30E4_U+30FC 1
 62
   179
420
  2234388
370
     9
100
AcDbVertex
100
AcDb2dVertex
 10
110.4977557435887
 20
-157.5839427977893
 30
0.0
  0
VERTEX
  5
6F
330
6D
100
AcDbEntity
  8
_U+30EC_U+30A4_U+30E4_U+30FC 1
 62
   179
420
  2234388
370
     9
100
AcDbVertex
100
AcDb2dVertex
 10
111.3797001878126
 20
-157.2900976847443
 30
0.0
  0
VERTEX
  5
70
330
6D
100
AcDbEntity
  8
_U+30EC_U+30A4_U+30E4_U+30FC 1
 62
   179
420
  2234388
370
     9
100
AcDbVertex
100
AcDb2dVertex
 10
112.3791116221602
 20
-157.2311650200998
 30
0.0
  0
VERTEX
  5
71
330
6D
100
AcDbEntity
  8
_U+30EC_U+30A4_U+30E4_U+30FC 1
 62
   179
420
  2234388
370
     9
100
AcDbVertex
100
AcDb2dVertex
 10
114.6725224526144
 20
-159.8180872199739
 30
0.0
  0
SEQEND
  5
72
330
6D
100
AcDbEntity
  8
_U+30EC_U+30A4_U+30E4_U+30FC 1
 62
   179
420
  2234388
370
     9
  0
POLYLINE
  5
73
330
1F
100
AcDbEntity
  8
_U+30EC_U+30A4_U+30E4_U+30FC 1
 62
   179
420
  2234388
370
     9
100
AcDb2dPolyline
 66
     1
 10
0.0
 20
0.0
 30
0.0
  0
VERTEX
  5
74
330
73
100
AcDbEntity
  8
_U+30EC_U+30A4_U+30E4_U+30FC 1
 62
   179
420
  2234388
370
     9
100
AcDbVertex
100
AcDb2dVertex
 10
105.6146774027956
 20
-160.2087395161544
 30
0.0
  0
VERTEX
  5
75
330
73
100
AcDbEntity
  8
_U+30EC_U+30A4_U+30E4_U+30FC 1
 62
   179
420
  2234388
370
     9
100
AcDbVertex
100
AcDb2dVertex
 10
105.6146774027956
 20
-169.6663663651898
 30
0.0
  0
SEQEND
  5
76
330
73
100
AcDbEntity
  8
_U+30EC_U+30A4_U+30E4_U+30FC 1
 62
   179
420
  2234388
370
     9
  0
POLYLINE
  5
77
330
1F
100
AcDbEntity
  8
_U+30EC_U+30A4_U+30E4_U+30FC 1
 62
   179
420
  2234388
370
     9
100
AcDb2dPolyline
 66
     1
 10
0.0
 20
0.0
 30
0.0
  0
VERTEX
  5
78
330
77
100
AcDbEntity
  8
_U+30EC_U+30A4_U+30E4_U+30FC 1
 62
   179
420
  2234388
370
     9
100
AcDbVertex
100
AcDb2dVertex
 10
105.5705801805844
 20
-173.9314376396226
 30
0.0
  0
VERTEX
  5
79
330
77
100
AcDbEntity
  8
_U+30EC_U+30A4_U+30E4_U+30FC 1
 62
   179
420
  2234388
370
     9
100
AcDbVertex
100
AcDb2dVertex
 10
105.5705801805844
 20
-171.959421920172
 30
0.0
  0
SEQEND
  5
7A
330
77
100
AcDbEntity
  8
_U+30EC_U+30A4_U+30E4_U+30FC 1
 62
   179
420
  2234388
370
     9
  0
SPLINE
  5
7B
330
1F
100
AcDbEntity
  8
_U+30EC_U+30A4_U+30E4_U+30FC 1
370
     0
100
AcDbSpline
210
0.0
220
0.0
230
1.0
 70
    11
 71
     3
 72
    17
 73
    13
 74
     0
 42
0.0000000001
 43
0.0000000001
 12
1.0
 22
0.0
 32
0.0
 13
1.0
 23
0.0
 33
0.0
 40
0.0
 40
0.0
 40
0.0
 40
0.0
 40
1.0
 40
1.0
 40
1.0
 40
2.0
 40
2.0
 40
2.0
 40
3.0
 40
3.0
 40
3.0
 40
4.0
 40
4.0
 40
4.0
 40
4.0
 10
105.8413431538782
 20
-174.0079187593952
 30
0.0
 10
105.8413431538782
 20
-174.1395214069317
 30
0.0
 10
105.7344483005249
 20
-174.2464054943616
 30
0.0
 10
105.6028564189118
 20
-174.2464054943616
 30
0.0
 10
105.471275303222
 20
-174.2464054943616
 30
0.0
 10
105.3650910008126
 20
-174.1395214069317
 30
0.0
 10
105.3650910008126
 20
-174.0079187593952
 30
0.0
 10
105.3650910008126
 20
-173.8763376437054
 30
0.0
 10
105.471275303222
 20
-173.7697980658241
 30
0.0
 10
105.6028564189118
 20
-173.7697980658241
 30
0.0
 10
105.7344483005249
 20
-173.7697980658241
 30
0.0
 10
105.8413431538782
 20
-173.8763376437054
 30
0.0
 10
105.8413431538782
 20
-174.0079187593952
 30
0.0
  0
HATCH
  5
7C
330
1F
100
AcDbEntity
  8
_U+30EC_U+30A4_U+30E4_U+30FC 1
 62
   179
420
  2234388
100
AcDbHatch
 10
0.0
 20
0.0
 30
0.0
210
0.0
220
0.0
230
1.0
  2
SOLID
 70
     1
 71
     0
 91
        1
 92
        1
 93
        2
 72
     4
 94
        3
 73
     0
 74
     0
 95
       17
 96
       13
 40
0.0
 40
0.0
 40
0.0
 40
0.0
 40
0.3527777776895833
 40
0.3527777776895833
 40
0.3527777776895833
 40
0.7055555553791667
 40
0.7055555553791667
 40
0.7055555553791667
 40
1.05833333306875
 40
1.05833333306875
 40
1.05833333306875
 40
1.411111110758333
 40
1.411111110758333
 40
1.411111110758333
 40
1.411111110758333
 10
105.8413431538782
 20
-174.0079187593952
 10
105.8413431538782
 20
-174.1395214069317
 10
105.7344483005249
 20
-174.2464054943616
 10
105.6028564189118
 20
-174.2464054943616
 10
105.471275303222
 20
-174.2464054943616
 10
105.3650910008126
 20
-174.1395214069317
 10
105.3650910008126
 20
-174.0079187593952
 10
105.3650910008126
 20
-173.8763376437054
 10
105.471275303222
 20
-173.7697980658241
 10
105.6028564189118
 20
-173.7697980658241
 10
105.7344483005249
 20
-173.7697980658241
 10
105.8413431538782
 20
-173.8763376437054
 10
105.8413431538782
 20
-174.0079187593952
 97
        0
 72
     1
 10
105.8413431538782
 20
-174.0079187593952
 11
105.8413431538782
 21
-174.0079187593952
 97
        0
 75
     2
 76
     1
 98
        0
  0
SPLINE
  5
7D
330
1F
100
AcDbEntity
  8
_U+30EC_U+30A4_U+30E4_U+30FC 1
370
     0
100
AcDbSpline
210
0.0
220
0.0
230
1.0
 70
    11
 71
     3
 72
    17
 73
    13
 74
     0
 42
0.0000000001
 43
0.0000000001
 12
1.0
 22
0.0
 32
0.0
 13
1.0
 23
0.0
 33
0.0
 40
0.0
 40
0.0
 40
0.0
 40
0.0
 40
1.0
 40
1.0
 40
1.0
 40
2.0
 40
2.0
 40
2.0
 40
3.0
 40
3.0
 40
3.0
 40
4.0
 40
4.0
 40
4.0
 40
4.0
 10
105.8413431538782
 20
-160.1970261915046
 30
0.0
 10
105.8413431538782
 20
-160.3286288390411
 30
0.0
 10
105.7344483005249
 20
-160.435512926471
 30
0.0
 10
105.6028564189118
 20
-160.435512926471
 30
0.0
 10
105.471275303222
 20
-160.435512926471
 30
0.0
 10
105.3650910008126
 20
-160.3286288390411
 30
0.0
 10
105.3650910008126
 20
-160.1970261915046
 30
0.0
 10
105.3650910008126
 20
-160.0654450758148
 30
0.0
 10
105.471275303222
 20
-159.9589054979335
 30
0.0
 10
105.6028564189118
 20
-159.9589054979335
 30
0.0
 10
105.7344483005249
 20
-159.9589054979335
 30
0.0
 10
105.8413431538782
 20
-160.0654450758148
 30
0.0
 10
105.8413431538782
 20
-160.1970261915046
 30
0.0
  0
HATCH
  5
7E
330
1F
100
AcDbEntity
  8
_U+30EC_U+30A4_U+30E4_U+30FC 1
 62
   179
420
  2234388
100
AcDbHatch
 10
0.0
 20
0.0
 30
0.0
210
0.0
220
0.0
230
1.0
  2
SOLID
 70
     1
 71
     0
 91
        1
 92
        1
 93
        2
 72
     4
 94
        3
 73
     0
 74
     0
 95
       17
 96
       13
 40
0.0
 40
0.0
 40
0.0
 40
0.0
 40
0.3527777776895833
 40
0.3527777776895833
 40
0.3527777776895833
 40
0.7055555553791667
 40
0.7055555553791667
 40
0.7055555553791667
 40
1.05833333306875
 40
1.05833333306875
 40
1.05833333306875
 40
1.411111110758333
 40
1.411111110758333
 40
1.411111110758333
 40
1.411111110758333
 10
105.8413431538782
 20
-160.1970261915046
 10
105.8413431538782
 20
-160.3286288390411
 10
105.7344483005249
 20
-160.435512926471
 10
105.6028564189118
 20
-160.435512926471
 10
105.471275303222
 20
-160.435512926471
 10
105.3650910008126
 20
-160.3286288390411
 10
105.3650910008126
 20
-160.1970261915046
 10
105.3650910008126
 20
-160.0654450758148
 10
105.471275303222
 20
-159.9589054979335
 10
105.6028564189118
 20
-159.9589054979335
 10
105.7344483005249
 20
-159.9589054979335
 10
105.8413431538782
 20
-160.0654450758148
 10
105.8413431538782
 20
-160.1970261915046
 97
        0
 72
     1
 10
105.8413431538782
 20
-160.1970261915046
 11
105.8413431538782
 21
-160.1970261915046
 97
        0
 75
     2
 76
     1
 98
        0
  0
INSERT
  5
80
330
1F
100
AcDbEntity
  8
_U+30EC_U+30A4_U+30E4_U+30FC 1
100
AcDbBlockReference
  2
block 3
 10
0.0
 20
0.0
 30
0.0
  0
POLYLINE
  5
88
330
1F
100
AcDbEntity
  8
_U+30EC_U+30A4_U+30E4_U+30FC 1
 62
   179
420
  2234388
370
     9
100
AcDb2dPolyline
 66
     1
 10
0.0
 20
0.0
 30
0.0
  0
VERTEX
  5
89
330
88
100
AcDbEntity
  8
_U+30EC_U+30A4_U+30E4_U+30FC 1
 62
   179
420
  2234388
370
     9
100
AcDbVertex
100
AcDb2dVertex
 10
103.7508807452754
 20
-160.8323233308314
 30
0.0
  0
VERTEX
  5
8A
330
88
100
AcDbEntity
  8
_U+30EC_U+30A4_U+30E4_U+30FC 1
 62
   179
420
  2234388
370
     9
100
AcDbVertex
100
AcDb2dVertex
 10
109.2189362994639
 20
-158.8920455535387
 30
0.0
  0
SEQEND
  5
8B
330
88
100
AcDbEntity
  8
_U+30EC_U+30A4_U+30E4_U+30FC 1
 62
   179
420
  2234388
370
     9
  0
POLYLINE
  5
8C
330
1F
100
AcDbEntity
  8
_U+30EC_U+30A4_U+30E4_U+30FC 1
 62
   179
420
  2234388
370
     9
100
AcDb2dPolyline
 66
     1
 10
0.0
 20
0.0
 30
0.0
  0
VERTEX
  5
8D
330
8C
100
AcDbEntity
  8
_U+30EC_U+30A4_U+30E4_U+30FC 1
 62
   179
420
  2234388
370
     9
100
AcDbVertex
100
AcDb2dVertex
 10
103.7508807452754
 20
-174.6788511051476
 30
0.0
  0
VERTEX
  5
8E
330
8C
100
AcDbEntity
  8
_U+30EC_U+30A4_U+30E4_U+30FC 1
 62
   179
420
  2234388
370
     9
100
AcDbVertex
100
AcDb2dVertex
 10
109.2189362994639
 20
-172.7385733278549
 30
0.0
  0
SEQEND
  5
8F
330
8C
100
AcDbEntity
  8
_U+30EC_U+30A4_U+30E4_U+30FC 1
 62
   179
420
  2234388
370
     9
  0
INSERT
  5
91
330
1F
100
AcDbEntity
  8
_U+30EC_U+30A4_U+30E4_U+30FC 1
100
AcDbBlockReference
  2
block 4
 10
0.0
 20
0.0
 30
0.0
  0
POLYLINE
  5
CE
330
1F
100
AcDbEntity
  8
_U+30EC_U+30A4_U+30E4_U+30FC 1
 62
   179
420
  2234388
370
     9
100
AcDb2dPolyline
 66
     1
 10
0.0
 20
0.0
 30
0.0
  0
VERTEX
  5
CF
330
CE
100
AcDbEntity
  8
_U+30EC_U+30A4_U+30E4_U+30FC 1
 62
   179
420
  2234388
370
     9
100
AcDbVertex
100
AcDb2dVertex
 10
101.5315287018307
 20
-157.0625275960968
 30
0.0
  0
VERTEX
  5
D0
330
CE
100
AcDbEntity
  8
_U+30EC_U+30A4_U+30E4_U+30FC 1
 62
   179
420
  2234388
370
     9
100
AcDbVertex
100
AcDb2dVertex
 10
102.0490466392555
 20
-156.2063567724718
 30
0.0
  0
SEQEND
  5
D1
330
CE
100
AcDbEntity
  8
_U+30EC_U+30A4_U+30E4_U+30FC 1
 62
   179
420
  2234388
370
     9
  0
POLYLINE
  5
D2
330
1F
100
AcDbEntity
  8
_U+30EC_U+30A4_U+30E4_U+30FC 1
 62
   179
420
  2234388
370
     9
100
AcDb2dPolyline
 66
     1
 10
0.0
 20
0.0
 30
0.0
  0
VERTEX
  5
D3
330
D2
100
AcDbEntity
  8
_U+30EC_U+30A4_U+30E4_U+30FC 1
 62
   179
420
  2234388
370
     9
100
AcDbVertex
100
AcDb2dVertex
 10
101.1732495372881
 20
-156.6887347359472
 30
0.0
  0
VERTEX
  5
D4
330
D2
100
AcDbEntity
  8
_U+30EC_U+30A4_U+30E4_U+30FC 1
 62
   179
420
  2234388
370
     9
100
AcDbVertex
100
AcDb2dVertex
 10
102.0488420867111
 20
-156.2065074953993
 30
0.0
  0
SEQEND
  5
D5
330
D2
100
AcDbEntity
  8
_U+30EC_U+30A4_U+30E4_U+30FC 1
 62
   179
420
  2234388
370
     9
  0
POLYLINE
  5
D6
330
1F
100
AcDbEntity
  8
_U+30EC_U+30A4_U+30E4_U+30FC 1
 62
   179
420
  2234388
370
     9
100
AcDb2dPolyline
 66
     1
 10
0.0
 20
0.0
 30
0.0
  0
VERTEX
  5
D7
330
D6
100
AcDbEntity
  8
_U+30EC_U+30A4_U+30E4_U+30FC 1
 62
   179
420
  2234388
370
     9
100
AcDbVertex
100
AcDb2dVertex
 10
95.35685176584721
 20
-162.573840630472
 30
0.0
  0
VERTEX
  5
D8
330
D6
100
AcDbEntity
  8
_U+30EC_U+30A4_U+30E4_U+30FC 1
 62
   179
420
  2234388
370
     9
100
AcDbVertex
100
AcDb2dVertex
 10
102.0490358733321
 20
-156.2065720909397
 30
0.0
  0
SEQEND
  5
D9
330
D6
100
AcDbEntity
  8
_U+30EC_U+30A4_U+30E4_U+30FC 1
 62
   179
420
  2234388
370
     9
  0
POLYLINE
  5
DA
330
1F
100
AcDbEntity
  8
_U+30EC_U+30A4_U+30E4_U+30FC 1
 62
   179
420
  2234388
370
     9
100
AcDb2dPolyline
 66
     1
 10
0.0
 20
0.0
 30
0.0
  0
VERTEX
  5
DB
330
DA
100
AcDbEntity
  8
_U+30EC_U+30A4_U+30E4_U+30FC 1
 62
   179
420
  2234388
370
     9
100
AcDbVertex
100
AcDb2dVertex
 10
107.9252706469824
 20
-154.2030983433394
 30
0.0
  0
VERTEX
  5
DC
330
DA
100
AcDbEntity
  8
_U+30EC_U+30A4_U+30E4_U+30FC 1
 62
   179
420
  2234388
370
     9
100
AcDbVertex
100
AcDb2dVertex
 10
109.2337179122803
 20
-153.3063399885289
 30
0.0
  0
VERTEX
  5
DD
330
DA
100
AcDbEntity
  8
_U+30EC_U+30A4_U+30E4_U+30FC 1
 62
   179
420
  2234388
370
     9
100
AcDbVertex
100
AcDb2dVertex
 10
109.5275845571721
 20
-152.3217532306913
 30
0.0
  0
VERTEX
  5
DE
330
DA
100
AcDbEntity
  8
_U+30EC_U+30A4_U+30E4_U+30FC 1
 62
   179
420
  2234388
370
     9
100
AcDbVertex
100
AcDb2dVertex
 10
107.2048904150933
 20
-149.6462705449995
 30
0.0
  0
VERTEX
  5
DF
330
DA
100
AcDbEntity
  8
_U+30EC_U+30A4_U+30E4_U+30FC 1
 62
   179
420
  2234388
370
     9
100
AcDbVertex
100
AcDb2dVertex
 10
106.2936734251681
 20
-149.7344649894219
 30
0.0
  0
VERTEX
  5
E0
330
DA
100
AcDbEntity
  8
_U+30EC_U+30A4_U+30E4_U+30FC 1
 62
   179
420
  2234388
370
     9
100
AcDbVertex
100
AcDb2dVertex
 10
105.1178623360524
 20
-150.440020544801
 30
0.0
  0
SEQEND
  5
E1
330
DA
100
AcDbEntity
  8
_U+30EC_U+30A4_U+30E4_U+30FC 1
 62
   179
420
  2234388
370
     9
  0
POLYLINE
  5
E2
330
1F
100
AcDbEntity
  8
_U+30EC_U+30A4_U+30E4_U+30FC 1
 62
   179
420
  2234388
370
     9
100
AcDb2dPolyline
 66
     1
 10
0.0
 20
0.0
 30
0.0
  0
VERTEX
  5
E3
330
E2
100
AcDbEntity
  8
_U+30EC_U+30A4_U+30E4_U+30FC 1
 62
   179
420
  2234388
370
     9
100
AcDbVertex
100
AcDb2dVertex
 10
109.5276168549423
 20
-152.3215594440702
 30
0.0
  0
VERTEX
  5
E4
330
E2
100
AcDbEntity
  8
_U+30EC_U+30A4_U+30E4_U+30FC 1
 62
   179
420
  2234388
370
     9
100
AcDbVertex
100
AcDb2dVertex
 10
109.5861727122682
 20
-152.615426088962
 30
0.0
  0
VERTEX
  5
E5
330
E2
100
AcDbEntity
  8
_U+30EC_U+30A4_U+30E4_U+30FC 1
 62
   179
420
  2234388
370
     9
100
AcDbVertex
100
AcDb2dVertex
 10
109.3805005117988
 20
-153.4388254417835
 30
0.0
  0
VERTEX
  5
E6
330
E2
100
AcDbEntity
  8
_U+30EC_U+30A4_U+30E4_U+30FC 1
 62
   179
420
  2234388
370
     9
100
AcDbVertex
100
AcDb2dVertex
 10
108.0283112997616
 20
-154.37931497741
 30
0.0
  0
SEQEND
  5
E7
330
E2
100
AcDbEntity
  8
_U+30EC_U+30A4_U+30E4_U+30FC 1
 62
   179
420
  2234388
370
     9
  0
POLYLINE
  5
E8
330
1F
100
AcDbEntity
  8
_U+30EC_U+30A4_U+30E4_U+30FC 1
 62
   179
420
  2234388
370
     9
100
AcDb2dPolyline
 66
     1
 10
0.0
 20
0.0
 30
0.0
  0
VERTEX
  5
E9
330
E8
100
AcDbEntity
  8
_U+30EC_U+30A4_U+30E4_U+30FC 1
 62
   179
420
  2234388
370
     9
100
AcDbVertex
100
AcDb2dVertex
 10
103.1188887444297
 20
-147.5003205672373
 30
0.0
  0
VERTEX
  5
EA
330
E8
100
AcDbEntity
  8
_U+30EC_U+30A4_U+30E4_U+30FC 1
 62
   179
420
  2234388
370
     9
100
AcDbVertex
100
AcDb2dVertex
 10
104.853494321253
 20
-147.2650205455948
 30
0.0
  0
VERTEX
  5
EB
330
E8
100
AcDbEntity
  8
_U+30EC_U+30A4_U+30E4_U+30FC 1
 62
   179
420
  2234388
370
     9
100
AcDbVertex
100
AcDb2dVertex
 10
105.397119622902
 20
-146.8536976765031
 30
0.0
  0
VERTEX
  5
EC
330
E8
100
AcDbEntity
  8
_U+30EC_U+30A4_U+30E4_U+30FC 1
 62
   179
420
  2234388
370
     9
100
AcDbVertex
100
AcDb2dVertex
 10
105.2503693211538
 20
-144.0607372347639
 30
0.0
  0
VERTEX
  5
ED
330
E8
100
AcDbEntity
  8
_U+30EC_U+30A4_U+30E4_U+30FC 1
 62
   179
420
  2234388
370
     9
100
AcDbVertex
100
AcDb2dVertex
 10
104.529999855188
 20
-143.5608538798542
 30
0.0
  0
VERTEX
  5
EE
330
E8
100
AcDbEntity
  8
_U+30EC_U+30A4_U+30E4_U+30FC 1
 62
   179
420
  2234388
370
     9
100
AcDbVertex
100
AcDb2dVertex
 10
100.5023279574591
 20
-143.7079594570743
 30
0.0
  0
SEQEND
  5
EF
330
E8
100
AcDbEntity
  8
_U+30EC_U+30A4_U+30E4_U+30FC 1
 62
   179
420
  2234388
370
     9
  0
POLYLINE
  5
F0
330
1F
100
AcDbEntity
  8
_U+30EC_U+30A4_U+30E4_U+30FC 1
 62
   179
420
  2234388
370
     9
100
AcDb2dPolyline
 66
     1
 10
0.0
 20
0.0
 30
0.0
  0
VERTEX
  5
F1
330
F0
100
AcDbEntity
  8
_U+30EC_U+30A4_U+30E4_U+30FC 1
 62
   179
420
  2234388
370
     9
100
AcDbVertex
100
AcDb2dVertex
 10
103.2070831888521
 20
-147.6472538896832
 30
0.0
  0
VERTEX
  5
F2
330
F0
100
AcDbEntity
  8
_U+30EC_U+30A4_U+30E4_U+30FC 1
 62
   179
420
  2234388
370
     9
100
AcDbVertex
100
AcDb2dVertex
 10
104.8753599116609
 20
-147.4377059567929
 30
0.0
  0
VERTEX
  5
F3
330
F0
100
AcDbEntity
  8
_U+30EC_U+30A4_U+30E4_U+30FC 1
 62
   179
420
  2234388
370
     9
100
AcDbVertex
100
AcDb2dVertex
 10
105.3826609877874
 20
-147.0517691350578
 30
0.0
  0
VERTEX
  5
F4
330
F0
100
AcDbEntity
  8
_U+30EC_U+30A4_U+30E4_U+30FC 1
 62
   179
420
  2234388
370
     9
100
AcDbVertex
100
AcDb2dVertex
 10
105.397119622902
 20
-146.8535038898817
 30
0.0
  0
SEQEND
  5
F5
330
F0
100
AcDbEntity
  8
_U+30EC_U+30A4_U+30E4_U+30FC 1
 62
   179
420
  2234388
370
     9
  0
SPLINE
  5
F6
330
1F
100
AcDbEntity
  8
_U+30EC_U+30A4_U+30E4_U+30FC 1
 62
   179
420
  2234388
370
     9
100
AcDbSpline
210
0.0
220
0.0
230
1.0
 70
     8
 71
     3
 72
    14
 73
    10
 74
     0
 42
0.0000000001
 43
0.0000000001
 12
1.0
 22
0.0
 32
0.0
 13
1.0
 23
0.0
 33
0.0
 40
0.0
 40
0.0
 40
0.0
 40
0.0
 40
1.0
 40
1.0
 40
1.0
 40
2.0
 40
2.0
 40
2.0
 40
3.0
 40
3.0
 40
3.0
 40
3.0
 10
99.71598491295079
 20
-142.3996844465507
 30
0.0
 10
99.71598491295079
 20
-142.3996844465507
 30
0.0
 10
101.2861948395876
 20
-140.2234176285184
 30
0.0
 10
103.3100807779377
 20
-139.0041983362885
 30
0.0
 10
105.1399432449281
 20
-137.9017677810085
 30
0.0
 10
111.6885529980653
 20
-135.0795455594918
 30
0.0
 10
113.2319557754572
 20
-134.4621844485351
 30
0.0
 10
114.7753585528491
 20
-133.8448233375783
 30
0.0
 10
120.3757057736713
 20
-131.8163511158632
 30
0.0
 10
120.3757057736713
 20
-131.8163511158632
 30
0.0
  0
POLYLINE
  5
F7
330
1F
100
AcDbEntity
  8
_U+30EC_U+30A4_U+30E4_U+30FC 1
 62
   179
420
  2234388
370
     9
100
AcDb2dPolyline
 66
     1
 10
0.0
 20
0.0
 30
0.0
  0
VERTEX
  5
F8
330
F7
100
AcDbEntity
  8
_U+30EC_U+30A4_U+30E4_U+30FC 1
 62
   179
420
  2234388
370
     9
100
AcDbVertex
100
AcDb2dVertex
 10
118.1120842532411
 20
-132.654198337876
 30
0.0
  0
VERTEX
  5
F9
330
F7
100
AcDbEntity
  8
_U+30EC_U+30A4_U+30E4_U+30FC 1
 62
   179
420
  2234388
370
     9
100
AcDbVertex
100
AcDb2dVertex
 10
120.522606798347
 20
-134.4473705379485
 30
0.0
  0
SEQEND
  5
FA
330
F7
100
AcDbEntity
  8
_U+30EC_U+30A4_U+30E4_U+30FC 1
 62
   179
420
  2234388
370
     9
  0
POLYLINE
  5
FB
330
1F
100
AcDbEntity
  8
_U+30EC_U+30A4_U+30E4_U+30FC 1
 62
   179
420
  2234388
370
     9
100
AcDb2dPolyline
 66
     1
 10
0.0
 20
0.0
 30
0.0
  0
VERTEX
  5
FC
330
FB
100
AcDbEntity
  8
_U+30EC_U+30A4_U+30E4_U+30FC 1
 62
   179
420
  2234388
370
     9
100
AcDbVertex
100
AcDb2dVertex
 10
117.9060890750699
 20
-132.7718483486972
 30
0.0
  0
VERTEX
  5
FD
330
FB
100
AcDbEntity
  8
_U+30EC_U+30A4_U+30E4_U+30FC 1
 62
   179
420
  2234388
370
     9
100
AcDbVertex
100
AcDb2dVertex
 10
120.2873390744746
 20
-134.4768261043474
 30
0.0
  0
SEQEND
  5
FE
330
FB
100
AcDbEntity
  8
_U+30EC_U+30A4_U+30E4_U+30FC 1
 62
   179
420
  2234388
370
     9
  0
POLYLINE
  5
FF
330
1F
100
AcDbEntity
  8
_U+30EC_U+30A4_U+30E4_U+30FC 1
 62
   179
420
  2234388
370
     9
100
AcDb2dPolyline
 66
     1
 10
0.0
 20
0.0
 30
0.0
  0
VERTEX
  5
100
330
FF
100
AcDbEntity
  8
_U+30EC_U+30A4_U+30E4_U+30FC 1
 62
   179
420
  2234388
370
     9
100
AcDbVertex
100
AcDb2dVertex
 10
113.4374234233822
 20
-134.3888039146993
 30
0.0
  0
VERTEX
  5
101
330
FF
100
AcDbEntity
  8
_U+30EC_U+30A4_U+30E4_U+30FC 1
 62
   179
420
  2234388
370
     9
100
AcDbVertex
100
AcDb2dVertex
 10
116.730245688184
 20
-136.7993372257286
 30
0.0
  0
VERTEX
  5
102
330
FF
100
AcDbEntity
  8
_U+30EC_U+30A4_U+30E4_U+30FC 1
 62
   179
420
  2234388
370
     9
100
AcDbVertex
100
AcDb2dVertex
 10
116.7009623765594
 20
-137.5930872255301
 30
0.0
  0
VERTEX
  5
103
330
FF
100
AcDbEntity
  8
_U+30EC_U+30A4_U+30E4_U+30FC 1
 62
   179
420
  2234388
370
     9
100
AcDbVertex
100
AcDb2dVertex
 10
114.2608012443569
 20
-138.7396150030213
 30
0.0
  0
VERTEX
  5
104
330
FF
100
AcDbEntity
  8
_U+30EC_U+30A4_U+30E4_U+30FC 1
 62
   179
420
  2234388
370
     9
100
AcDbVertex
100
AcDb2dVertex
 10
112.1441345782194
 20
-138.3868372253317
 30
0.0
  0
VERTEX
  5
105
330
FF
100
AcDbEntity
  8
_U+30EC_U+30A4_U+30E4_U+30FC 1
 62
   179
420
  2234388
370
     9
100
AcDbVertex
100
AcDb2dVertex
 10
109.4612557031577
 20
-136.1047198485151
 30
0.0
  0
SEQEND
  5
106
330
FF
100
AcDbEntity
  8
_U+30EC_U+30A4_U+30E4_U+30FC 1
 62
   179
420
  2234388
370
     9
  0
POLYLINE
  5
107
330
1F
100
AcDbEntity
  8
_U+30EC_U+30A4_U+30E4_U+30FC 1
 62
   179
420
  2234388
370
     9
100
AcDb2dPolyline
 66
     1
 10
0.0
 20
0.0
 30
0.0
  0
VERTEX
  5
108
330
107
100
AcDbEntity
  8
_U+30EC_U+30A4_U+30E4_U+30FC 1
 62
   179
420
  2234388
370
     9
100
AcDbVertex
100
AcDb2dVertex
 10
116.730245688184
 20
-136.7993372257286
 30
0.0
  0
VERTEX
  5
109
330
107
100
AcDbEntity
  8
_U+30EC_U+30A4_U+30E4_U+30FC 1
 62
   179
420
  2234388
370
     9
100
AcDbVertex
100
AcDb2dVertex
 10
116.7926772779307
 20
-137.1080177812069
 30
0.0
  0
VERTEX
  5
10A
330
107
100
AcDbEntity
  8
_U+30EC_U+30A4_U+30E4_U+30FC 1
 62
   179
420
  2234388
370
     9
100
AcDbVertex
100
AcDb2dVertex
 10
116.7595182338852
 20
-137.8026566902676
 30
0.0
  0
VERTEX
  5
10B
330
107
100
AcDbEntity
  8
_U+30EC_U+30A4_U+30E4_U+30FC 1
 62
   179
420
  2234388
370
     9
100
AcDbVertex
100
AcDb2dVertex
 10
114.3010119682238
 20
-138.9823435118042
 30
0.0
  0
VERTEX
  5
10C
330
107
100
AcDbEntity
  8
_U+30EC_U+30A4_U+30E4_U+30FC 1
 62
   179
420
  2234388
370
     9
100
AcDbVertex
100
AcDb2dVertex
 10
112.1293099017094
 20
-138.6295657341146
 30
0.0
  0
VERTEX
  5
10D
330
107
100
AcDbEntity
  8
_U+30EC_U+30A4_U+30E4_U+30FC 1
 62
   179
420
  2234388
370
     9
100
AcDbVertex
100
AcDb2dVertex
 10
109.2852220897848
 20
-136.1819761147718
 30
0.0
  0
SEQEND
  5
10E
330
107
100
AcDbEntity
  8
_U+30EC_U+30A4_U+30E4_U+30FC 1
 62
   179
420
  2234388
370
     9
  0
POLYLINE
  5
10F
330
1F
100
AcDbEntity
  8
_U+30EC_U+30A4_U+30E4_U+30FC 1
 62
   179
420
  2234388
370
     9
100
AcDb2dPolyline
 66
     1
 10
0.0
 20
0.0
 30
0.0
  0
VERTEX
  5
110
330
10F
100
AcDbEntity
  8
_U+30EC_U+30A4_U+30E4_U+30FC 1
 62
   179
420
  2234388
370
     9
100
AcDbVertex
100
AcDb2dVertex
 10
105.5733039592024
 20
-137.8283872471727
 30
0.0
  0
VERTEX
  5
111
330
10F
100
AcDbEntity
  8
_U+30EC_U+30A4_U+30E4_U+30FC 1
 62
   179
420
  2234388
370
     9
100
AcDbVertex
100
AcDb2dVertex
 10
109.4686734243744
 20
-139.7686650244654
 30
0.0
  0
VERTEX
  5
112
330
10F
100
AcDbEntity
  8
_U+30EC_U+30A4_U+30E4_U+30FC 1
 62
   179
420
  2234388
370
     9
100
AcDbVertex
100
AcDb2dVertex
 10
109.5716817793833
 20
-141.1797761352237
 30
0.0
  0
VERTEX
  5
113
330
10F
100
AcDbEntity
  8
_U+30EC_U+30A4_U+30E4_U+30FC 1
 62
   179
420
  2234388
370
     9
100
AcDbVertex
100
AcDb2dVertex
 10
107.7340678475511
 20
-142.6790816904044
 30
0.0
  0
VERTEX
  5
114
330
10F
100
AcDbEntity
  8
_U+30EC_U+30A4_U+30E4_U+30FC 1
 62
   179
420
  2234388
370
     9
100
AcDbVertex
100
AcDb2dVertex
 10
105.8675151136427
 20
-142.5175282439934
 30
0.0
  0
VERTEX
  5
115
330
10F
100
AcDbEntity
  8
_U+30EC_U+30A4_U+30E4_U+30FC 1
 62
   179
420
  2234388
370
     9
100
AcDbVertex
100
AcDb2dVertex
 10
101.7809428490394
 20
-140.1655400243662
 30
0.0
  0
SEQEND
  5
116
330
10F
100
AcDbEntity
  8
_U+30EC_U+30A4_U+30E4_U+30FC 1
 62
   179
420
  2234388
370
     9
  0
POLYLINE
  5
117
330
1F
100
AcDbEntity
  8
_U+30EC_U+30A4_U+30E4_U+30FC 1
 62
   179
420
  2234388
370
     9
100
AcDb2dPolyline
 66
     1
 10
0.0
 20
0.0
 30
0.0
  0
VERTEX
  5
118
330
117
100
AcDbEntity
  8
_U+30EC_U+30A4_U+30E4_U+30FC 1
 62
   179
420
  2234388
370
     9
100
AcDbVertex
100
AcDb2dVertex
 10
101.6929529571614
 20
-140.2683761246009
 30
0.0
  0
VERTEX
  5
119
330
117
100
AcDbEntity
  8
_U+30EC_U+30A4_U+30E4_U+30FC 1
 62
   179
420
  2234388
370
     9
100
AcDbVertex
100
AcDb2dVertex
 10
105.823267168504
 20
-142.6937233462168
 30
0.0
  0
VERTEX
  5
11A
330
117
100
AcDbEntity
  8
_U+30EC_U+30A4_U+30E4_U+30FC 1
 62
   179
420
  2234388
370
     9
100
AcDbVertex
100
AcDb2dVertex
 10
107.7783696223067
 20
-142.8849476774952
 30
0.0
  0
VERTEX
  5
11B
330
117
100
AcDbEntity
  8
_U+30EC_U+30A4_U+30E4_U+30FC 1
 62
   179
420
  2234388
370
     9
100
AcDbVertex
100
AcDb2dVertex
 10
109.5863557329658
 20
-141.3856421223145
 30
0.0
  0
VERTEX
  5
11C
330
117
100
AcDbEntity
  8
_U+30EC_U+30A4_U+30E4_U+30FC 1
 62
   179
420
  2234388
370
     9
100
AcDbVertex
100
AcDb2dVertex
 10
109.5715310564559
 20
-141.1796038804495
 30
0.0
  0
SEQEND
  5
11D
330
117
100
AcDbEntity
  8
_U+30EC_U+30A4_U+30E4_U+30FC 1
 62
   179
420
  2234388
370
     9
  0
SPLINE
  5
11E
330
1F
100
AcDbEntity
  8
_U+30EC_U+30A4_U+30E4_U+30FC 1
  6
AI-Linetype-1
 62
   154
420
    23468
370
    25
100
AcDbSpline
210
0.0
220
0.0
230
1.0
 70
     8
 71
     3
 72
    14
 73
    10
 74
     0
 42
0.0000000001
 43
0.0000000001
 12
1.0
 22
0.0
 32
0.0
 13
1.0
 23
0.0
 33
0.0
 40
0.0
 40
0.0
 40
0.0
 40
0.0
 40
1.0
 40
1.0
 40
1.0
 40
2.0
 40
2.0
 40
2.0
 40
3.0
 40
3.0
 40
3.0
 40
3.0
 10
110.5145936477728
 20
-161.2467467858602
 30
0.0
 10
110.5145936477728
 20
-161.2467467858602
 30
0.0
 10
108.1001738383992
 20
-158.4714639903301
 30
0.0
 10
107.2259916249405
 20
-157.3852469156776
 30
0.0
 10
106.2558527362941
 20
-156.1801525149372
 30
0.0
 10
102.2811061179573
 20
-150.7590363867351
 30
0.0
 10
100.546500541134
 20
-148.0250086096409
 30
0.0
 10
99.33929601940889
 20
-146.1217656088146
 30
0.0
 10
97.04624046442659
 20
-143.0345940126355
 30
0.0
 10
96.76013605029999
 20
-139.6990956275104
 30
0.0
  0
SPLINE
  5
120
330
1F
100
AcDbEntity
  8
_U+30EC_U+30A4_U+30E4_U+30FC 1
  6
AI-Linetype-2
 62
   154
420
    23468
370
    25
100
AcDbSpline
210
0.0
220
0.0
230
1.0
 70
     8
 71
     3
 72
    14
 73
    10
 74
     0
 42
0.0000000001
 43
0.0000000001
 12
1.0
 22
0.0
 32
0.0
 13
1.0
 23
0.0
 33
0.0
 40
0.0
 40
0.0
 40
0.0
 40
0.0
 40
1.0
 40
1.0
 40
1.0
 40
2.0
 40
2.0
 40
2.0
 40
3.0
 40
3.0
 40
3.0
 40
3.0
 10
110.3547842809508
 20
-163.9983445499292
 30
0.0
 10
110.3547842809508
 20
-163.9983445499292
 30
0.0
 10
107.880753553759
 20
-161.2477372508122
 30
0.0
 10
107.0065605743768
 20
-160.1615417080065
 30
0.0
 10
106.0364216857305
 20
-158.9564473072661
 30
0.0
 10
102.2027947912082
 20
-153.8471769160195
 30
0.0
 10
100.4681784484615
 20
-151.11278309753
 30
0.0
 10
99.26097392673641
 20
-149.209906138099
 30
0.0
 10
97.07868895752829
 20
-146.1354598633685
 30
0.0
 10
96.56998831136097
 20
-142.8987065275891
 30
0.0
  0
SPLINE
  5
122
330
1F
100
AcDbEntity
  8
_U+30EC_U+30A4_U+30E4_U+30FC 1
  6
AI-Linetype-3
 62
   154
420
    23468
370
    25
100
AcDbSpline
210
0.0
220
0.0
230
1.0
 70
     8
 71
     3
 72
    14
 73
    10
 74
     0
 42
0.0000000001
 43
0.0000000001
 12
1.0
 22
0.0
 32
0.0
 13
1.0
 23
0.0
 33
0.0
 40
0.0
 40
0.0
 40
0.0
 40
0.0
 40
1.0
 40
1.0
 40
1.0
 40
2.0
 40
2.0
 40
2.0
 40
3.0
 40
3.0
 40
3.0
 40
3.0
 10
110.195254828137
 20
-166.7503083553936
 30
0.0
 10
110.195254828137
 20
-166.7503083553936
 30
0.0
 10
107.6612471417316
 20
-164.0240535749879
 30
0.0
 10
106.7870649282729
 20
-162.9378580321822
 30
0.0
 10
105.8169260396265
 20
-161.7323975900465
 30
0.0
 10
102.124397337072
 20
-156.9349729357554
 30
0.0
 10
100.3897917602487
 20
-154.2009451586611
 30
0.0
 10
99.18258723852358
 20
-152.2977236896816
 30
0.0
 10
97.11107285508965
 20
-149.2363041822547
 30
0.0
 10
96.37976521095823
 20
-146.0987050009105
 30
0.0
  0
SPLINE
  5
124
330
1F
100
AcDbEntity
  8
_U+30EC_U+30A4_U+30E4_U+30FC 1
  6
AI-Linetype-4
 62
   154
420
    23468
370
    25
100
AcDbSpline
210
0.0
220
0.0
230
1.0
 70
     8
 71
     3
 72
    14
 73
    10
 74
     0
 42
0.0000000001
 43
0.0000000001
 12
1.0
 22
0.0
 32
0.0
 13
1.0
 23
0.0
 33
0.0
 40
0.0
 40
0.0
 40
0.0
 40
0.0
 40
1.0
 40
1.0
 40
1.0
 40
2.0
 40
2.0
 40
2.0
 40
3.0
 40
3.0
 40
3.0
 40
3.0
 10
110.0353700998512
 20
-169.5019061194626
 30
0.0
 10
110.0353700998512
 20
-169.5019061194626
 30
0.0
 10
107.4417407297042
 20
-166.8006928768654
 30
0.0
 10
106.5675585162455
 20
-165.7144973340597
 30
0.0
 10
105.5974196275991
 20
-164.5090584237707
 30
0.0
 10
102.0460106488595
 20
-160.0227689554913
 30
0.0
 10
100.3113943061125
 20
-157.288741178397
 30
0.0
 10
99.10418978438737
 20
-155.3855197094175
 30
0.0
 10
97.14345675265099
 20
-152.3371700329878
 30
0.0
 10
96.1898973860274
 20
-149.2979713914407
 30
0.0
  0
ENDSEC
  0
SECTION
  2
OBJECTS
  0
DICTIONARY
  5
C
330
0
100
AcDbDictionary
281
     1
  3
ACAD_GROUP
350
D
  3
ACAD_LAYOUT
350
1A
  3
ACAD_MATERIAL
350
3B
  3
ACAD_MLEADERSTYLE
350
127
  3
ACAD_MLINESTYLE
350
17
  3
ACAD_PLOTSETTINGS
350
19
  3
ACAD_PLOTSTYLENAME
350
E
  3
ACAD_TABLESTYLE
350
126
  3
ACAD_VISUALSTYLE
350
2A
  0
SUN
  5
3F
330
29
100
AcDbSun
 90
        1
290
     0
 63
     7
421
 16777215
 40
1.0
291
     1
 91
  2455826
 92
 54000000
292
     0
 70
     2
 71
   256
280
     1
  0
DICTIONARY
  5
D
102
{ACAD_REACTORS
330
C
102
}
330
C
100
AcDbDictionary
281
     1
  0
DICTIONARY
  5
1A
102
{ACAD_REACTORS
330
C
102
}
330
C
100
AcDbDictionary
281
     1
  3
Layout1
350
1E
  3
Layout2
350
26
  3
Model
350
22
  0
DICTIONARY
  5
3B
102
{ACAD_REACTORS
330
C
102
}
330
C
100
AcDbDictionary
281
     1
  3
ByBlock
350
3D
  3
ByLayer
350
3C
  3
Global
350
3E
  0
DICTIONARY
  5
127
102
{ACAD_REACTORS
330
C
102
}
330
C
100
AcDbDictionary
281
     1
  0
DICTIONARY
  5
17
102
{ACAD_REACTORS
330
C
102
}
330
C
100
AcDbDictionary
281
     1
  3
Standard
350
18
  0
DICTIONARY
  5
19
102
{ACAD_REACTORS
330
C
102
}
330
C
100
AcDbDictionary
281
     1
  0
ACDBDICTIONARYWDFLT
  5
E
102
{ACAD_REACTORS
330
C
102
}
330
C
100
AcDbDictionary
281
     1
  3
Normal
350
F
100
AcDbDictionaryWithDefault
340
F
  0
DICTIONARY
  5
126
102
{ACAD_REACTORS
330
C
102
}
330
C
100
AcDbDictionary
281
     1
  0
DICTIONARY
  5
2A
102
{ACAD_REACTORS
330
C
102
}
330
C
100
AcDbDictionary
281
     1
  3
2dWireframe
350
2F
  3
3D Hidden
350
31
  3
3dWireframe
350
30
  3
Basic
350
32
  3
Brighten
350
36
  3
ColorChange
350
3A
  3
Conceptual
350
34
  3
Dim
350
35
  3
Facepattern
350
39
  3
Flat
350
2B
  3
FlatWithEdges
350
2C
  3
Gouraud
350
2D
  3
GouraudWithEdges
350
2E
  3
Linepattern
350
38
  3
Realistic
350
33
  3
Thicken
350
37
  0
LAYOUT
  5
1E
102
{ACAD_REACTORS
330
1A
102
}
330
1A
100
AcDbPlotSettings
  1

  2
none_device
  4

  6

 40
0.0
 41
0.0
 42
0.0
 43
0.0
 44
0.0
 45
0.0
 46
0.0
 47
0.0
 48
0.0
 49
0.0
140
0.0
141
0.0
142
1.0
143
1.0
 70
   688
 72
     0
 73
     0
 74
     5
  7

 75
    16
 76
     0
 77
     2
 78
   300
147
1.0
148
0.0
149
0.0
100
AcDbLayout
  1
Layout1
 70
     1
 71
     1
 10
0.0
 20
0.0
 11
12.0
 21
9.0
 12
0.0
 22
0.0
 32
0.0
 14
1.000000000000000E+20
 24
1.000000000000000E+20
 34
1.000000000000000E+20
 15
-1.000000000000000E+20
 25
-1.000000000000000E+20
 35
-1.000000000000000E+20
146
0.0
 13
0.0
 23
0.0
 33
0.0
 16
1.0
 26
0.0
 36
0.0
 17
0.0
 27
1.0
 37
0.0
 76
     0
330
1B
  0
LAYOUT
  5
26
102
{ACAD_REACTORS
330
1A
102
}
330
1A
100
AcDbPlotSettings
  1

  2
none_device
  4

  6

 40
0.0
 41
0.0
 42
0.0
 43
0.0
 44
0.0
 45
0.0
 46
0.0
 47
0.0
 48
0.0
 49
0.0
140
0.0
141
0.0
142
1.0
143
1.0
 70
   688
 72
     0
 73
     0
 74
     5
  7

 75
    16
 76
     0
 77
     2
 78
   300
147
1.0
148
0.0
149
0.0
100
AcDbLayout
  1
Layout2
 70
     1
 71
     2
 10
0.0
 20
0.0
 11
0.0
 21
0.0
 12
0.0
 22
0.0
 32
0.0
 14
0.0
 24
0.0
 34
0.0
 15
0.0
 25
0.0
 35
0.0
146
0.0
 13
0.0
 23
0.0
 33
0.0
 16
1.0
 26
0.0
 36
0.0
 17
0.0
 27
1.0
 37
0.0
 76
     0
330
23
  0
LAYOUT
  5
22
102
{ACAD_REACTORS
330
1A
102
}
330
1A
100
AcDbPlotSettings
  1

  2
none_device
  4

  6

 40
0.0
 41
0.0
 42
0.0
 43
0.0
 44
0.0
 45
0.0
 46
0.0
 47
0.0
 48
0.0
 49
0.0
140
0.0
141
0.0
142
1.0
143
1.0
 70
  1712
 72
     0
 73
     0
 74
     0
  7

 75
     0
 76
     0
 77
     2
 78
   300
147
1.0
148
0.0
149
0.0
100
AcDbLayout
  1
Model
 70
     1
 71
     0
 10
0.0
 20
0.0
 11
12.0
 21
9.0
 12
0.0
 22
0.0
 32
0.0
 14
1.000000000000000E+20
 24
1.000000000000000E+20
 34
1.000000000000000E+20
 15
-1.000000000000000E+20
 25
-1.000000000000000E+20
 35
-1.000000000000000E+20
146
0.0
 13
0.0
 23
0.0
 33
0.0
 16
1.0
 26
0.0
 36
0.0
 17
0.0
 27
1.0
 37
0.0
 76
     0
330
1F
331
29
  0
MATERIAL
  5
3D
102
{ACAD_REACTORS
330
3B
102
}
330
3B
100
AcDbMaterial
  1
ByBlock
 72
     1
 94
      127
  0
MATERIAL
  5
3C
102
{ACAD_REACTORS
330
3B
102
}
330
3B
100
AcDbMaterial
  1
ByLayer
 72
     1
 94
      127
  0
MATERIAL
  5
3E
102
{ACAD_REACTORS
330
3B
102
}
330
3B
100
AcDbMaterial
  1
Global
 72
     1
 94
      127
  0
MLINESTYLE
  5
18
102
{ACAD_REACTORS
330
17
102
}
330
17
100
AcDbMlineStyle
  2
Standard
 70
     0
  3

 62
   256
 51
90.0
 52
90.0
 71
     2
 49
0.5
 62
   256
  6
BYLAYER
 49
-0.5
 62
   256
  6
BYLAYER
  0
ACDBPLACEHOLDER
  5
F
102
{ACAD_REACTORS
330
E
102
}
330
E
  0
VISUALSTYLE
  5
2F
102
{ACAD_REACTORS
330
2A
102
}
330
2A
100
AcDbVisualStyle
  2
2dWireframe
 70
     4
177
     2
291
     0
 71
     0
176
     1
 72
     2
176
     1
 73
     0
176
     1
 90
        0
176
     1
 40
-0.6
176
     1
 41
-30.0
176
     1
 62
     5
 63
     7
421
 16777215
176
     1
 74
     1
176
     1
 91
        4
176
     1
 64
     7
176
     1
 65
   257
176
     1
 75
     1
176
     1
175
     1
176
     1
 42
1.0
176
     1
 92
        0
176
     1
 66
   257
176
     1
 43
1.0
176
     1
 76
     1
176
     1
 77
     6
176
     1
 78
     2
176
     1
 67
     7
176
     1
 79
     5
176
     1
170
     0
176
     1
171
     0
176
     1
290
     0
176
     1
 93
        1
176
     1
 44
0.0
176
     1
173
     0
176
     1
  0
VISUALSTYLE
  5
31
102
{ACAD_REACTORS
330
2A
102
}
330
2A
100
AcDbVisualStyle
  2
3D Hidden
 70
     6
177
     2
291
     0
 71
     1
176
     1
 72
     2
176
     1
 73
     2
176
     1
 90
        0
176
     1
 40
-0.6
176
     1
 41
-30.0
176
     1
 62
     5
 63
     7
421
 16777215
176
     1
 74
     2
176
     1
 91
        2
176
     1
 64
     7
176
     1
 65
   257
176
     1
 75
     2
176
     1
175
     1
176
     1
 42
40.0
176
     1
 92
        0
176
     1
 66
   257
176
     1
 43
1.0
176
     1
 76
     1
176
     1
 77
     6
176
     1
 78
     2
176
     1
 67
     7
176
     1
 79
     3
176
     1
170
     0
176
     1
171
     0
176
     1
290
     0
176
     1
 93
        1
176
     1
 44
0.0
176
     1
173
     0
176
     1
  0
VISUALSTYLE
  5
30
102
{ACAD_REACTORS
330
2A
102
}
330
2A
100
AcDbVisualStyle
  2
3dWireframe
 70
     5
177
     2
291
     0
 71
     0
176
     1
 72
     2
176
     1
 73
     0
176
     1
 90
        0
176
     1
 40
-0.6
176
     1
 41
-30.0
176
     1
 62
     5
 63
     7
421
 16777215
176
     1
 74
     1
176
     1
 91
        4
176
     1
 64
     7
176
     1
 65
   257
176
     1
 75
     1
176
     1
175
     1
176
     1
 42
1.0
176
     1
 92
        0
176
     1
 66
   257
176
     1
 43
1.0
176
     1
 76
     1
176
     1
 77
     6
176
     1
 78
     2
176
     1
 67
     7
176
     1
 79
     5
176
     1
170
     0
176
     1
171
     0
176
     1
290
     0
176
     1
 93
        1
176
     1
 44
0.0
176
     1
173
     0
176
     1
  0
VISUALSTYLE
  5
32
102
{ACAD_REACTORS
330
2A
102
}
330
2A
100
AcDbVisualStyle
  2
Basic
 70
     7
177
     2
291
     1
 71
     1
176
     1
 72
     0
176
     1
 73
     1
176
     1
 90
        0
176
     1
 40
-0.6
176
     1
 41
-30.0
176
     1
 62
     5
 63
     7
421
 16777215
176
     1
 74
     0
176
     1
 91
        4
176
     1
 64
     7
176
     1
 65
   257
176
     1
 75
     1
176
     1
175
     1
176
     1
 42
1.0
176
     1
 92
        8
176
     1
 66
     7
176
     1
 43
1.0
176
     1
 76
     1
176
     1
 77
     6
176
     1
 78
     2
176
     1
 67
     7
176
     1
 79
     5
176
     1
170
     0
176
     1
171
     0
176
     1
290
     0
176
     1
 93
        1
176
     1
 44
0.0
176
     1
173
     0
176
     1
  0
VISUALSTYLE
  5
36
102
{ACAD_REACTORS
330
2A
102
}
330
2A
100
AcDbVisualStyle
  2
Brighten
 70
    12
177
     2
291
     1
 71
     2
176
     1
 72
     2
176
     1
 73
     0
176
     1
 90
        0
176
     1
 40
-0.6
176
     1
 41
-30.0
176
     1
 62
     5
 63
     7
421
 16777215
176
     1
 74
     1
176
     1
 91
        4
176
     1
 64
     7
176
     1
 65
   257
176
     1
 75
     1
176
     1
175
     1
176
     1
 42
1.0
176
     1
 92
        8
176
     1
 66
     7
176
     1
 43
1.0
176
     1
 76
     1
176
     1
 77
     6
176
     1
 78
     2
176
     1
 67
     7
176
     1
 79
     5
176
     1
170
     0
176
     1
171
     0
176
     1
290
     0
176
     1
 93
        1
176
     1
 44
50.0
176
     1
173
     0
176
     1
  0
VISUALSTYLE
  5
3A
102
{ACAD_REACTORS
330
2A
102
}
330
2A
100
AcDbVisualStyle
  2
ColorChange
 70
    16
177
     2
291
     1
 71
     2
176
     1
 72
     2
176
     1
 73
     3
176
     1
 90
        0
176
     1
 40
-0.6
176
     1
 41
-30.0
176
     1
 62
     5
 63
     8
421
  8421504
176
     1
 74
     1
176
     1
 91
        4
176
     1
 64
     7
176
     1
 65
   257
176
     1
 75
     1
176
     1
175
     1
176
     1
 42
1.0
176
     1
 92
        8
176
     1
 66
     8
424
  8421504
176
     1
 43
1.0
176
     1
 76
     1
176
     1
 77
     6
176
     1
 78
     2
176
     1
 67
     7
176
     1
 79
     5
176
     1
170
     0
176
     1
171
     0
176
     1
290
     0
176
     1
 93
        1
176
     1
 44
0.0
176
     1
173
     0
176
     1
  0
VISUALSTYLE
  5
34
102
{ACAD_REACTORS
330
2A
102
}
330
2A
100
AcDbVisualStyle
  2
Conceptual
 70
     9
177
     2
291
     0
 71
     3
176
     1
 72
     2
176
     1
 73
     0
176
     1
 90
        0
176
     1
 40
-0.6
176
     1
 41
-30.0
176
     1
 62
     5
 63
     7
421
 16777215
176
     1
 74
     2
176
     1
 91
        2
176
     1
 64
     7
176
     1
 65
   257
176
     1
 75
     1
176
     1
175
     1
176
     1
 42
40.0
176
     1
 92
        8
176
     1
 66
     7
176
     1
 43
1.0
176
     1
 76
     1
176
     1
 77
     6
176
     1
 78
     2
176
     1
 67
     7
176
     1
 79
     3
176
     1
170
     0
176
     1
171
     0
176
     1
290
     0
176
     1
 93
        1
176
     1
 44
0.0
176
     1
173
     0
176
     1
  0
VISUALSTYLE
  5
35
102
{ACAD_REACTORS
330
2A
102
}
330
2A
100
AcDbVisualStyle
  2
Dim
 70
    11
177
     2
291
     1
 71
     2
176
     1
 72
     2
176
     1
 73
     0
176
     1
 90
        0
176
     1
 40
-0.6
176
     1
 41
-30.0
176
     1
 62
     5
 63
     7
421
 16777215
176
     1
 74
     1
176
     1
 91
        4
176
     1
 64
     7
176
     1
 65
   257
176
     1
 75
     1
176
     1
175
     1
176
     1
 42
1.0
176
     1
 92
        8
176
     1
 66
     7
176
     1
 43
1.0
176
     1
 76
     1
176
     1
 77
     6
176
     1
 78
     2
176
     1
 67
     7
176
     1
 79
     5
176
     1
170
     0
176
     1
171
     0
176
     1
290
     0
176
     1
 93
        1
176
     1
 44
-50.0
176
     1
173
     0
176
     1
  0
VISUALSTYLE
  5
39
102
{ACAD_REACTORS
330
2A
102
}
330
2A
100
AcDbVisualStyle
  2
Facepattern
 70
    15
177
     2
291
     1
 71
     2
176
     1
 72
     2
176
     1
 73
     0
176
     1
 90
        0
176
     1
 40
-0.6
176
     1
 41
-30.0
176
     1
 62
     5
 63
     7
421
 16777215
176
     1
 74
     1
176
     1
 91
        4
176
     1
 64
     7
176
     1
 65
   257
176
     1
 75
     1
176
     1
175
     1
176
     1
 42
1.0
176
     1
 92
        8
176
     1
 66
     7
176
     1
 43
1.0
176
     1
 76
     1
176
     1
 77
     6
176
     1
 78
     2
176
     1
 67
     7
176
     1
 79
     5
176
     1
170
     0
176
     1
171
     0
176
     1
290
     0
176
     1
 93
        1
176
     1
 44
0.0
176
     1
173
     0
176
     1
  0
VISUALSTYLE
  5
2B
102
{ACAD_REACTORS
330
2A
102
}
330
2A
100
AcDbVisualStyle
  2
Flat
 70
     0
177
     2
291
     1
 71
     2
176
     1
 72
     1
176
     1
 73
     1
176
     1
 90
        2
176
     1
 40
-0.6
176
     1
 41
30.0
176
     1
 62
     5
 63
     7
421
 16777215
176
     1
 74
     0
176
     1
 91
        4
176
     1
 64
     7
176
     1
 65
   257
176
     1
 75
     1
176
     1
175
     1
176
     1
 42
1.0
176
     1
 92
        8
176
     1
 66
     7
176
     1
 43
1.0
176
     1
 76
     1
176
     1
 77
     6
176
     1
 78
     2
176
     1
 67
     7
176
     1
 79
     5
176
     1
170
     0
176
     1
171
     0
176
     1
290
     0
176
     1
 93
       13
176
     1
 44
0.0
176
     1
173
     0
176
     1
  0
VISUALSTYLE
  5
2C
102
{ACAD_REACTORS
330
2A
102
}
330
2A
100
AcDbVisualStyle
  2
FlatWithEdges
 70
     1
177
     2
291
     1
 71
     2
176
     1
 72
     1
176
     1
 73
     1
176
     1
 90
        2
176
     1
 40
-0.6
176
     1
 41
30.0
176
     1
 62
     5
 63
     7
421
 16777215
176
     1
 74
     1
176
     1
 91
        4
176
     1
 64
     7
176
     1
 65
   257
176
     1
 75
     1
176
     1
175
     1
176
     1
 42
1.0
176
     1
 92
        0
176
     1
 66
   257
176
     1
 43
1.0
176
     1
 76
     1
176
     1
 77
     6
176
     1
 78
     2
176
     1
 67
     7
176
     1
 79
     5
176
     1
170
     0
176
     1
171
     0
176
     1
290
     0
176
     1
 93
       13
176
     1
 44
0.0
176
     1
173
     0
176
     1
  0
VISUALSTYLE
  5
2D
102
{ACAD_REACTORS
330
2A
102
}
330
2A
100
AcDbVisualStyle
  2
Gouraud
 70
     2
177
     2
291
     1
 71
     2
176
     1
 72
     2
176
     1
 73
     1
176
     1
 90
        2
176
     1
 40
-0.6
176
     1
 41
30.0
176
     1
 62
     5
 63
     7
421
 16777215
176
     1
 74
     0
176
     1
 91
        4
176
     1
 64
     7
176
     1
 65
   257
176
     1
 75
     1
176
     1
175
     1
176
     1
 42
1.0
176
     1
 92
        0
176
     1
 66
     7
176
     1
 43
1.0
176
     1
 76
     1
176
     1
 77
     6
176
     1
 78
     2
176
     1
 67
     7
176
     1
 79
     5
176
     1
170
     0
176
     1
171
     0
176
     1
290
     0
176
     1
 93
       13
176
     1
 44
0.0
176
     1
173
     0
176
     1
  0
VISUALSTYLE
  5
2E
102
{ACAD_REACTORS
330
2A
102
}
330
2A
100
AcDbVisualStyle
  2
GouraudWithEdges
 70
     3
177
     2
291
     1
 71
     2
176
     1
 72
     2
176
     1
 73
     1
176
     1
 90
        2
176
     1
 40
-0.6
176
     1
 41
30.0
176
     1
 62
     5
 63
     7
421
 16777215
176
     1
 74
     1
176
     1
 91
        4
176
     1
 64
     7
176
     1
 65
   257
176
     1
 75
     1
176
     1
175
     1
176
     1
 42
1.0
176
     1
 92
        0
176
     1
 66
   257
176
     1
 43
1.0
176
     1
 76
     1
176
     1
 77
     6
176
     1
 78
     2
176
     1
 67
     7
176
     1
 79
     5
176
     1
170
     0
176
     1
171
     0
176
     1
290
     0
176
     1
 93
       13
176
     1
 44
0.0
176
     1
173
     0
176
     1
  0
VISUALSTYLE
  5
38
102
{ACAD_REACTORS
330
2A
102
}
330
2A
100
AcDbVisualStyle
  2
Linepattern
 70
    14
177
     2
291
     1
 71
     2
176
     1
 72
     2
176
     1
 73
     0
176
     1
 90
        0
176
     1
 40
-0.6
176
     1
 41
-30.0
176
     1
 62
     5
 63
     7
421
 16777215
176
     1
 74
     1
176
     1
 91
        4
176
     1
 64
     7
176
     1
 65
   257
176
     1
 75
     7
176
     1
175
     7
176
     1
 42
1.0
176
     1
 92
        8
176
     1
 66
     7
176
     1
 43
1.0
176
     1
 76
     1
176
     1
 77
     6
176
     1
 78
     2
176
     1
 67
     7
176
     1
 79
     5
176
     1
170
     0
176
     1
171
     0
176
     1
290
     0
176
     1
 93
        1
176
     1
 44
0.0
176
     1
173
     0
176
     1
  0
VISUALSTYLE
  5
33
102
{ACAD_REACTORS
330
2A
102
}
330
2A
100
AcDbVisualStyle
  2
Realistic
 70
     8
177
     2
291
     0
 71
     2
176
     1
 72
     2
176
     1
 73
     0
176
     1
 90
        0
176
     1
 40
-0.6
176
     1
 41
-30.0
176
     1
 62
     5
 63
     7
421
 16777215
176
     1
 74
     1
176
     1
 91
        0
176
     1
 64
     7
176
     1
 65
   257
176
     1
 75
     1
176
     1
175
     1
176
     1
 42
1.0
176
     1
 92
        8
176
     1
 66
     8
424
  7895160
176
     1
 43
1.0
176
     1
 76
     1
176
     1
 77
     6
176
     1
 78
     2
176
     1
 67
     7
176
     1
 79
     5
176
     1
170
     0
176
     1
171
     0
176
     1
290
     0
176
     1
 93
       13
176
     1
 44
0.0
176
     1
173
     0
176
     1
  0
VISUALSTYLE
  5
37
102
{ACAD_REACTORS
330
2A
102
}
330
2A
100
AcDbVisualStyle
  2
Thicken
 70
    13
177
     2
291
     1
 71
     2
176
     1
 72
     2
176
     1
 73
     0
176
     1
 90
        0
176
     1
 40
-0.6
176
     1
 41
-30.0
176
     1
 62
     5
 63
     7
421
 16777215
176
     1
 74
     1
176
     1
 91
        4
176
     1
 64
     7
176
     1
 65
   257
176
     1
 75
     1
176
     1
175
     1
176
     1
 42
1.0
176
     1
 92
       12
176
     1
 66
     7
176
     1
 43
1.0
176
     1
 76
     1
176
     1
 77
     6
176
     1
 78
     2
176
     1
 67
     7
176
     1
 79
     5
176
     1
170
     0
176
     1
171
     0
176
     1
290
     0
176
     1
 93
        1
176
     1
 44
0.0
176
     1
173
     0
176
     1
  0
ENDSEC
  0
EOF
