  0
SECTION
  2
HEADER
  9
$ACADVER
  1
AC1024
  9
$ACADMAINTVER
 70
   226
  9
$DWGCODEPAGE
  3
ANSI_932
  9
$INSBASE
 10
0.0
 20
0.0
 30
0.0
  9
$EXTMIN
 10
1.000000000000000E+20
 20
1.000000000000000E+20
 30
1.000000000000000E+20
  9
$EXTMAX
 10
-1.000000000000000E+20
 20
-1.000000000000000E+20
 30
-1.000000000000000E+20
  9
$LIMMIN
 10
0.0
 20
0.0
  9
$LIMMAX
 10
12.0
 20
9.0
  9
$ORTHOMODE
 70
     0
  9
$REGENMODE
 70
     1
  9
$FILLMODE
 70
     1
  9
$QTEXTMODE
 70
     0
  9
$MIRRTEXT
 70
     0
  9
$LTSCALE
 40
1.0
  9
$ATTMODE
 70
     1
  9
$TEXTSIZE
 40
0.2
  9
$TRACEWID
 40
0.05
  9
$TEXTSTYLE
  7
Standard
  9
$CLAYER
  8
0
  9
$CELTYPE
  6
ByLayer
  9
$CECOLOR
 62
   256
  9
$CELTSCALE
 40
1.0
  9
$DISPSILH
 70
     0
  9
$DIMSCALE
 40
1.0
  9
$DIMASZ
 40
0.18
  9
$DIMEXO
 40
0.0625
  9
$DIMDLI
 40
0.38
  9
$DIMRND
 40
0.0
  9
$DIMDLE
 40
0.0
  9
$DIMEXE
 40
0.18
  9
$DIMTP
 40
0.0
  9
$DIMTM
 40
0.0
  9
$DIMTXT
 40
0.18
  9
$DIMCEN
 40
0.09
  9
$DIMTSZ
 40
0.0
  9
$DIMTOL
 70
     0
  9
$DIMLIM
 70
     0
  9
$DIMTIH
 70
     1
  9
$DIMTOH
 70
     1
  9
$DIMSE1
 70
     0
  9
$DIMSE2
 70
     0
  9
$DIMTAD
 70
     0
  9
$DIMZIN
 70
     0
  9
$DIMBLK
  1

  9
$DIMASO
 70
     1
  9
$DIMSHO
 70
     1
  9
$DIMPOST
  1

  9
$DIMAPOST
  1

  9
$DIMALT
 70
     0
  9
$DIMALTD
 70
     2
  9
$DIMALTF
 40
25.4
  9
$DIMLFAC
 40
1.0
  9
$DIMTOFL
 70
     0
  9
$DIMTVP
 40
0.0
  9
$DIMTIX
 70
     0
  9
$DIMSOXD
 70
     0
  9
$DIMSAH
 70
     0
  9
$DIMBLK1
  1

  9
$DIMBLK2
  1

  9
$DIMSTYLE
  2
Standard
  9
$DIMCLRD
 70
     0
  9
$DIMCLRE
 70
     0
  9
$DIMCLRT
 70
     0
  9
$DIMTFAC
 40
1.0
  9
$DIMGAP
 40
0.09
  9
$DIMJUST
 70
     0
  9
$DIMSD1
 70
     0
  9
$DIMSD2
 70
     0
  9
$DIMTOLJ
 70
     1
  9
$DIMTZIN
 70
     0
  9
$DIMALTZ
 70
     0
  9
$DIMALTTZ
 70
     0
  9
$DIMUPT
 70
     0
  9
$DIMDEC
 70
     4
  9
$DIMTDEC
 70
     4
  9
$DIMALTU
 70
     2
  9
$DIMALTTD
 70
     2
  9
$DIMTXSTY
  7
Standard
  9
$DIMAUNIT
 70
     0
  9
$DIMADEC
 70
     0
  9
$DIMALTRND
 40
0.0
  9
$DIMAZIN
 70
     0
  9
$DIMDSEP
 70
    46
  9
$DIMATFIT
 70
     3
  9
$DIMFRAC
 70
     0
  9
$DIMLDRBLK
  1

  9
$DIMLUNIT
 70
     2
  9
$DIMLWD
 70
    -2
  9
$DIMLWE
 70
    -2
  9
$DIMTMOVE
 70
     0
  9
$DIMFXL
 40
1.0
  9
$DIMFXLON
 70
     0
  9
$DIMJOGANG
 40
0.7853981633974483
  9
$DIMTFILL
 70
     0
  9
$DIMTFILLCLR
 70
     0
  9
$DIMARCSYM
 70
     0
  9
$DIMLTYPE
  6

  9
$DIMLTEX1
  6

  9
$DIMLTEX2
  6

  9
$DIMTXTDIRECTION
 70
     0
  9
$LUNITS
 70
     2
  9
$LUPREC
 70
     4
  9
$SKETCHINC
 40
0.1
  9
$FILLETRAD
 40
0.0
  9
$AUNITS
 70
     0
  9
$AUPREC
 70
     0
  9
$MENU
  1
.
  9
$ELEVATION
 40
0.0
  9
$PELEVATION
 40
0.0
  9
$THICKNESS
 40
0.0
  9
$LIMCHECK
 70
     0
  9
$CHAMFERA
 40
0.0
  9
$CHAMFERB
 40
0.0
  9
$CHAMFERC
 40
0.0
  9
$CHAMFERD
 40
0.0
  9
$SKPOLY
 70
     0
  9
$TDCREATE
 40
2459649.442754630
  9
$TDUCREATE
 40
2459649.067754630
  9
$TDUPDATE
 40
2459649.442754630
  9
$TDUUPDATE
 40
2459649.067754630
  9
$TDINDWG
 40
0.0000000000
  9
$TDUSRTIMER
 40
0.0000000000
  9
$USRTIMER
 70
     1
  9
$ANGBASE
 50
0.0
  9
$ANGDIR
 70
     0
  9
$PDMODE
 70
     0
  9
$PDSIZE
 40
0.0
  9
$PLINEWID
 40
0.0
  9
$SPLFRAME
 70
     0
  9
$SPLINETYPE
 70
     6
  9
$SPLINESEGS
 70
     8
  9
$HANDSEED
  5
133
  9
$SURFTAB1
 70
     6
  9
$SURFTAB2
 70
     6
  9
$SURFTYPE
 70
     6
  9
$SURFU
 70
     6
  9
$SURFV
 70
     6
  9
$UCSBASE
  2

  9
$UCSNAME
  2

  9
$UCSORG
 10
0.0
 20
0.0
 30
0.0
  9
$UCSXDIR
 10
1.0
 20
0.0
 30
0.0
  9
$UCSYDIR
 10
0.0
 20
1.0
 30
0.0
  9
$UCSORTHOREF
  2

  9
$UCSORTHOVIEW
 70
     0
  9
$UCSORGTOP
 10
0.0
 20
0.0
 30
0.0
  9
$UCSORGBOTTOM
 10
0.0
 20
0.0
 30
0.0
  9
$UCSORGLEFT
 10
0.0
 20
0.0
 30
0.0
  9
$UCSORGRIGHT
 10
0.0
 20
0.0
 30
0.0
  9
$UCSORGFRONT
 10
0.0
 20
0.0
 30
0.0
  9
$UCSORGBACK
 10
0.0
 20
0.0
 30
0.0
  9
$PUCSBASE
  2

  9
$PUCSNAME
  2

  9
$PUCSORG
 10
0.0
 20
0.0
 30
0.0
  9
$PUCSXDIR
 10
1.0
 20
0.0
 30
0.0
  9
$PUCSYDIR
 10
0.0
 20
1.0
 30
0.0
  9
$PUCSORTHOREF
  2

  9
$PUCSORTHOVIEW
 70
     0
  9
$PUCSORGTOP
 10
0.0
 20
0.0
 30
0.0
  9
$PUCSORGBOTTOM
 10
0.0
 20
0.0
 30
0.0
  9
$PUCSORGLEFT
 10
0.0
 20
0.0
 30
0.0
  9
$PUCSORGRIGHT
 10
0.0
 20
0.0
 30
0.0
  9
$PUCSORGFRONT
 10
0.0
 20
0.0
 30
0.0
  9
$PUCSORGBACK
 10
0.0
 20
0.0
 30
0.0
  9
$USERI1
 70
     0
  9
$USERI2
 70
     0
  9
$USERI3
 70
     0
  9
$USERI4
 70
     0
  9
$USERI5
 70
     0
  9
$USERR1
 40
0.0
  9
$USERR2
 40
0.0
  9
$USERR3
 40
0.0
  9
$USERR4
 40
0.0
  9
$USERR5
 40
0.0
  9
$WORLDVIEW
 70
     1
  9
$SHADEDGE
 70
     3
  9
$SHADEDIF
 70
    70
  9
$TILEMODE
 70
     1
  9
$MAXACTVP
 70
    64
  9
$PINSBASE
 10
0.0
 20
0.0
 30
0.0
  9
$PLIMCHECK
 70
     0
  9
$PEXTMIN
 10
1.000000000000000E+20
 20
1.000000000000000E+20
 30
1.000000000000000E+20
  9
$PEXTMAX
 10
-1.000000000000000E+20
 20
-1.000000000000000E+20
 30
-1.000000000000000E+20
  9
$PLIMMIN
 10
0.0
 20
0.0
  9
$PLIMMAX
 10
12.0
 20
9.0
  9
$UNITMODE
 70
     0
  9
$VISRETAIN
 70
     1
  9
$PLINEGEN
 70
     0
  9
$PSLTSCALE
 70
     1
  9
$TREEDEPTH
 70
  3020
  9
$CMLSTYLE
  2
Standard
  9
$CMLJUST
 70
     0
  9
$CMLSCALE
 40
1.0
  9
$PROXYGRAPHICS
 70
     1
  9
$MEASUREMENT
 70
     0
  9
$CELWEIGHT
370
    -1
  9
$ENDCAPS
280
     0
  9
$JOINSTYLE
280
     0
  9
$LWDISPLAY
290
     1
  9
$INSUNITS
 70
     4
  9
$HYPERLINKBASE
  1

  9
$STYLESHEET
  1

  9
$XEDIT
290
     1
  9
$CEPSNTYPE
380
     0
  9
$PSTYLEMODE
290
     1
  9
$FINGERPRINTGUID
  2
{D6D0D31D-94EC-9142-ADF9-98191905CF79}
  9
$VERSIONGUID
  2
{8774088D-10B7-3146-B7F8-2A4518D8B194}
  9
$EXTNAMES
290
     1
  9
$PSVPSCALE
 40
0.0
  9
$OLESTARTUP
290
     0
  9
$SORTENTS
280
   127
  9
$INDEXCTL
280
     0
  9
$HIDETEXT
280
     1
  9
$XCLIPFRAME
280
     2
  9
$HALOGAP
280
     0
  9
$OBSCOLOR
 70
   257
  9
$OBSLTYPE
280
     0
  9
$INTERSECTIONDISPLAY
280
     0
  9
$INTERSECTIONCOLOR
 70
   257
  9
$DIMASSOC
280
     2
  9
$PROJECTNAME
  1

  9
$CAMERADISPLAY
290
     0
  9
$LENSLENGTH
 40
50.0
  9
$CAMERAHEIGHT
 40
0.0
  9
$STEPSPERSEC
 40
2.0
  9
$STEPSIZE
 40
6.0
  9
$3DDWFPREC
 40
2.0
  9
$PSOLWIDTH
 40
0.25
  9
$PSOLHEIGHT
 40
4.0
  9
$LOFTANG1
 40
1.570796326794896
  9
$LOFTANG2
 40
1.570796326794896
  9
$LOFTMAG1
 40
0.0
  9
$LOFTMAG2
 40
0.0
  9
$LOFTPARAM
 70
     7
  9
$LOFTNORMALS
280
     1
  9
$LATITUDE
 40
37.795
  9
$LONGITUDE
 40
-122.394
  9
$NORTHDIRECTION
 40
0.0
  9
$TIMEZONE
 70
 -8000
  9
$LIGHTGLYPHDISPLAY
280
     1
  9
$TILEMODELIGHTSYNCH
280
     1
  9
$CMATERIAL
347
11
  9
$SOLIDHIST
280
     0
  9
$SHOWHIST
280
     1
  9
$DWFFRAME
280
     2
  9
$DGNFRAME
280
     0
  9
$REALWORLDSCALE
290
     1
  9
$INTERFERECOLOR
 62
     1
  9
$INTERFEREOBJVS
345
33
  9
$INTERFEREVPVS
346
30
  9
$CSHADOW
280
     0
  9
$SHADOWPLANELOCATION
 40
0.0
  0
ENDSEC
  0
SECTION
  2
CLASSES
  0
CLASS
  1
ACDBDICTIONARYWDFLT
  2
AcDbDictionaryWithDefault
  3
ObjectDBX Classes
 90
        0
 91
        1
280
     0
281
     0
  0
CLASS
  1
MATERIAL
  2
AcDbMaterial
  3
ObjectDBX Classes
 90
     1153
 91
        3
280
     0
281
     0
  0
CLASS
  1
VISUALSTYLE
  2
AcDbVisualStyle
  3
ObjectDBX Classes
 90
     4095
 91
       24
280
     0
281
     0
  0
CLASS
  1
SCALE
  2
AcDbScale
  3
ObjectDBX Classes
 90
     1153
 91
       17
280
     0
281
     0
  0
CLASS
  1
TABLESTYLE
  2
AcDbTableStyle
  3
ObjectDBX Classes
 90
     4095
 91
        1
280
     0
281
     0
  0
CLASS
  1
MLEADERSTYLE
  2
AcDbMLeaderStyle
  3
ACDB_MLEADERSTYLE_CLASS
 90
     4095
 91
        1
280
     0
281
     0
  0
CLASS
  1
ACDBSECTIONVIEWSTYLE
  2
AcDbSectionViewStyle
  3
ObjectDBX Classes
 90
     1025
 91
        1
280
     0
281
     0
  0
CLASS
  1
ACDBDETAILVIEWSTYLE
  2
AcDbDetailViewStyle
  3
ObjectDBX Classes
 90
     1025
 91
        1
280
     0
281
     0
  0
CLASS
  1
DICTIONARYVAR
  2
AcDbDictionaryVar
  3
ObjectDBX Classes
 90
        0
 91
        5
280
     0
281
     0
  0
CLASS
  1
CELLSTYLEMAP
  2
AcDbCellStyleMap
  3
ObjectDBX Classes
 90
     1152
 91
        1
280
     0
281
     0
  0
ENDSEC
  0
SECTION
  2
TABLES
  0
TABLE
  2
VPORT
  5
8
330
0
100
AcDbSymbolTable
 70
     1
  0
VPORT
  5
57
330
8
100
AcDbSymbolTableRecord
100
AcDbViewportTableRecord
  2
*Active
 70
     0
 10
0.0
 20
0.0
 11
1.0
 21
1.0
 12
0.0
 22
0.0
 13
0.0
 23
0.0
 14
1.0
 24
1.0
 15
0.0
 25
0.0
 16
0.0
 26
0.0
 36
1.0
 17
104.9999999737534
 27
-148.4999999628701
 37
0.0
 40
302.939999924255
 41
0.7070707070707534
 42
50.0
 43
0.0
 44
0.0
 50
0.0
 51
0.0
 71
     0
 72
   100
 73
     1
 74
     0
 75
     1
 76
     0
 77
     0
 78
     0
281
     0
 65
     1
110
0.0
120
0.0
130
0.0
111
1.0
121
0.0
131
0.0
112
0.0
122
1.0
132
0.0
 79
     0
146
0.0
 60
     3
 61
     5
292
     1
282
     1
141
0.0
142
0.0
 63
   250
421
  3355443
  0
ENDTAB
  0
TABLE
  2
LTYPE
  5
5
330
0
100
AcDbSymbolTable
 70
     1
  0
LTYPE
  5
5B
330
5
100
AcDbSymbolTableRecord
100
AcDbLinetypeTableRecord
  2
ByBlock
 70
     0
  3

 72
    65
 73
     0
 40
0.0
  0
LTYPE
  5
5C
330
5
100
AcDbSymbolTableRecord
100
AcDbLinetypeTableRecord
  2
ByLayer
 70
     0
  3

 72
    65
 73
     0
 40
0.0
  0
LTYPE
  5
5D
330
5
100
AcDbSymbolTableRecord
100
AcDbLinetypeTableRecord
  2
Continuous
 70
     0
  3
Solid line
 72
    65
 73
     0
 40
0.0
  0
ENDTAB
  0
TABLE
  2
LAYER
  5
2
330
0
100
AcDbSymbolTable
 70
     2
  0
LAYER
  5
54
330
2
100
AcDbSymbolTableRecord
100
AcDbLayerTableRecord
  2
0
 70
     0
 62
     7
  6
Continuous
370
    -3
390
F
347
21
  0
LAYER
  5
78
330
2
100
AcDbSymbolTableRecord
100
AcDbLayerTableRecord
  2
レイヤー 1
 70
     0
 62
     7
  6
Continuous
370
     0
390
F
347
21
  0
ENDTAB
  0
TABLE
  2
STYLE
  5
3
330
0
100
AcDbSymbolTable
 70
     2
  0
STYLE
  5
55
330
3
100
AcDbSymbolTableRecord
100
AcDbTextStyleTableRecord
  2
Standard
 70
     0
 40
0.0
 41
1.0
 50
0.0
 71
     0
 42
0.2
  3
txt
  4

  0
STYLE
  5
5A
330
3
100
AcDbSymbolTableRecord
100
AcDbTextStyleTableRecord
  2
Annotative
 70
     0
 40
0.0
 41
1.0
 50
0.0
 71
     0
 42
0.2
  3
txt
  4

1001
AcadAnnotative
1000
AnnotativeData
1002
{
1070
     1
1070
     1
1002
}
  0
ENDTAB
  0
TABLE
  2
VIEW
  5
6
330
0
100
AcDbSymbolTable
 70
     0
  0
ENDTAB
  0
TABLE
  2
UCS
  5
7
330
0
100
AcDbSymbolTable
 70
     0
  0
ENDTAB
  0
TABLE
  2
APPID
  5
9
330
0
100
AcDbSymbolTable
 70
     2
  0
APPID
  5
56
330
9
100
AcDbSymbolTableRecord
100
AcDbRegAppTableRecord
  2
ACAD
 70
     0
  0
APPID
  5
5E
330
9
100
AcDbSymbolTableRecord
100
AcDbRegAppTableRecord
  2
AcadAnnotative
 70
     0
  0
ENDTAB
  0
TABLE
  2
DIMSTYLE
  5
A
330
0
100
AcDbSymbolTable
 70
     2
100
AcDbDimStyleTable
 71
     0
  0
DIMSTYLE
105
58
330
A
100
AcDbSymbolTableRecord
100
AcDbDimStyleTableRecord
  2
Standard
 70
     0
340
55
  0
DIMSTYLE
105
59
330
A
100
AcDbSymbolTableRecord
100
AcDbDimStyleTableRecord
  2
Annotative
 70
     0
340
55
1001
AcadAnnotative
1000
AnnotativeData
1002
{
1070
     1
1070
     1
1002
}
  0
ENDTAB
  0
TABLE
  2
BLOCK_RECORD
  5
1
330
0
100
AcDbSymbolTable
 70
    11
  0
BLOCK_RECORD
  5
70
330
1
100
AcDbSymbolTableRecord
100
AcDbBlockTableRecord
  2
*Model_Space
340
73
 70
     0
280
     1
281
     0
  0
BLOCK_RECORD
  5
6C
330
1
100
AcDbSymbolTableRecord
100
AcDbBlockTableRecord
  2
*Paper_Space
340
6F
 70
     0
280
     1
281
     0
  0
BLOCK_RECORD
  5
74
330
1
100
AcDbSymbolTableRecord
100
AcDbBlockTableRecord
  2
*Paper_Space0
340
77
 70
     0
280
     1
281
     0
  0
BLOCK_RECORD
  5
A8
330
1
100
AcDbSymbolTableRecord
100
AcDbBlockTableRecord
  2
Block_0
340
0
102
{BLKREFS
331
A9
102
}
 70
     0
280
     1
281
     0
  0
BLOCK_RECORD
  5
AC
330
1
100
AcDbSymbolTableRecord
100
AcDbBlockTableRecord
  2
Block_1
340
0
102
{BLKREFS
331
AD
102
}
 70
     0
280
     1
281
     0
  0
BLOCK_RECORD
  5
B4
330
1
100
AcDbSymbolTableRecord
100
AcDbBlockTableRecord
  2
Block_2
340
0
102
{BLKREFS
331
B5
102
}
 70
     0
280
     1
281
     0
  0
BLOCK_RECORD
  5
B8
330
1
100
AcDbSymbolTableRecord
100
AcDbBlockTableRecord
  2
Block_3
340
0
102
{BLKREFS
331
B9
102
}
 70
     0
280
     1
281
     0
  0
BLOCK_RECORD
  5
C0
330
1
100
AcDbSymbolTableRecord
100
AcDbBlockTableRecord
  2
Block_4
340
0
102
{BLKREFS
331
C1
102
}
 70
     0
280
     1
281
     0
  0
BLOCK_RECORD
  5
C4
330
1
100
AcDbSymbolTableRecord
100
AcDbBlockTableRecord
  2
Block_5
340
0
102
{BLKREFS
331
C5
102
}
 70
     0
280
     1
281
     0
  0
BLOCK_RECORD
  5
CC
330
1
100
AcDbSymbolTableRecord
100
AcDbBlockTableRecord
  2
Block_6
340
0
102
{BLKREFS
331
CD
102
}
 70
     0
280
     1
281
     0
  0
BLOCK_RECORD
  5
D0
330
1
100
AcDbSymbolTableRecord
100
AcDbBlockTableRecord
  2
Block_7
340
0
102
{BLKREFS
331
D1
102
}
 70
     0
280
     1
281
     0
  0
BLOCK_RECORD
  5
DA
330
1
100
AcDbSymbolTableRecord
100
AcDbBlockTableRecord
  2
Block_8
340
0
102
{BLKREFS
331
DB
102
}
 70
     0
280
     1
281
     0
  0
BLOCK_RECORD
  5
DE
330
1
100
AcDbSymbolTableRecord
100
AcDbBlockTableRecord
  2
Block_9
340
0
102
{BLKREFS
331
DF
102
}
 70
     0
280
     1
281
     0
  0
ENDTAB
  0
ENDSEC
  0
SECTION
  2
BLOCKS
  0
BLOCK
  5
71
330
70
100
AcDbEntity
  8
0
100
AcDbBlockBegin
  2
*Model_Space
 70
     0
 10
0.0
 20
0.0
 30
0.0
  3
*Model_Space
  1

  0
ENDBLK
  5
72
330
70
100
AcDbEntity
  8
0
100
AcDbBlockEnd
  0
BLOCK
  5
6D
330
6C
100
AcDbEntity
 67
     1
  8
0
100
AcDbBlockBegin
  2
*Paper_Space
 70
     0
 10
0.0
 20
0.0
 30
0.0
  3
*Paper_Space
  1

  0
ENDBLK
  5
6E
330
6C
100
AcDbEntity
 67
     1
  8
0
100
AcDbBlockEnd
  0
BLOCK
  5
75
330
74
100
AcDbEntity
 67
     1
  8
0
100
AcDbBlockBegin
  2
*Paper_Space0
 70
     0
 10
0.0
 20
0.0
 30
0.0
  3
*Paper_Space0
  1

  0
ENDBLK
  5
76
330
74
100
AcDbEntity
 67
     1
  8
0
100
AcDbBlockEnd
  0
BLOCK
  5
AA
330
A8
100
AcDbEntity
  8
0
100
AcDbBlockBegin
  2
Block_0
 70
     0
 10
0.0
 20
0.0
 30
0.0
  3
Block_0
  1

  0
INSERT
  5
AD
330
A8
100
AcDbEntity
  8
レイヤー 1
100
AcDbBlockReference
  2
Block_1
 10
0.0
 20
0.0
 30
0.0
  0
ENDBLK
  5
AB
330
A8
100
AcDbEntity
  8
0
100
AcDbBlockEnd
  0
BLOCK
  5
AE
330
AC
100
AcDbEntity
  8
0
100
AcDbBlockBegin
  2
Block_1
 70
     0
 10
0.0
 20
0.0
 30
0.0
  3
Block_1
  1

  0
SPLINE
  5
B0
330
AC
100
AcDbEntity
  8
レイヤー 1
100
AcDbSpline
210
0.0
220
0.0
230
1.0
 70
    11
 71
     3
 72
    26
 73
    22
 74
     0
 42
0.0000000001
 43
0.0000000001
 40
0.0
 40
0.0
 40
0.0
 40
0.0
 40
1.0
 40
1.0
 40
1.0
 40
2.0
 40
2.0
 40
2.0
 40
3.0
 40
3.0
 40
3.0
 40
4.0
 40
4.0
 40
4.0
 40
5.0
 40
5.0
 40
5.0
 40
6.0
 40
6.0
 40
6.0
 40
7.0
 40
7.0
 40
7.0
 40
7.0
 10
98.49028453483924
 20
-162.2643418648158
 30
0.0
 10
98.49028453483924
 20
-162.2643418648158
 30
0.0
 10
98.49028453483924
 20
-161.1601887617933
 30
0.0
 10
98.49028453483924
 20
-161.1601887617933
 30
0.0
 10
98.49028453483924
 20
-161.1601887617933
 30
0.0
 10
98.16024438735231
 20
-161.1601887617933
 30
0.0
 10
98.16024438735231
 20
-161.1601887617933
 30
0.0
 10
98.16024438735231
 20
-161.1601887617933
 30
0.0
 10
98.16024438735231
 20
-161.0120496559275
 30
0.0
 10
98.16024438735231
 20
-161.0120496559275
 30
0.0
 10
98.49235159213039
 20
-160.997235745341
 30
0.0
 10
98.53886038118126
 20
-160.8342827288886
 30
0.0
 10
98.56848820235441
 20
-160.7199055587783
 30
0.0
 10
98.56848820235441
 20
-160.7199055587783
 30
0.0
 10
98.714560250929
 20
-160.7199055587783
 30
0.0
 10
98.714560250929
 20
-160.7199055587783
 30
0.0
 10
98.714560250929
 20
-160.7199055587783
 30
0.0
 10
98.714560250929
 20
-162.2643418648158
 30
0.0
 10
98.714560250929
 20
-162.2643418648158
 30
0.0
 10
98.714560250929
 20
-162.2643418648158
 30
0.0
 10
98.49028453483924
 20
-162.2643418648158
 30
0.0
 10
98.49028453483924
 20
-162.2643418648158
 30
0.0
  0
HATCH
  5
B1
330
AC
100
AcDbEntity
  8
レイヤー 1
 62
   250
420
  2299925
440
 33554687
100
AcDbHatch
 10
0.0
 20
0.0
 30
0.0
210
0.0
220
0.0
230
1.0
  2
SOLID
 70
     1
 71
     1
 91
        1
 92
        1
 93
        1
 72
     4
 94
        3
 73
     0
 74
     0
 95
       26
 96
       22
 40
0.0
 40
0.0
 40
0.0
 40
0.0
 40
1.0
 40
1.0
 40
1.0
 40
2.0
 40
2.0
 40
2.0
 40
3.0
 40
3.0
 40
3.0
 40
4.0
 40
4.0
 40
4.0
 40
5.0
 40
5.0
 40
5.0
 40
6.0
 40
6.0
 40
6.0
 40
7.0
 40
7.0
 40
7.0
 40
7.0
 10
98.49028453483924
 20
-162.2643418648158
 10
98.49028453483924
 20
-162.2643418648158
 10
98.49028453483924
 20
-161.1601887617933
 10
98.49028453483924
 20
-161.1601887617933
 10
98.49028453483924
 20
-161.1601887617933
 10
98.16024438735231
 20
-161.1601887617933
 10
98.16024438735231
 20
-161.1601887617933
 10
98.16024438735231
 20
-161.1601887617933
 10
98.16024438735231
 20
-161.0120496559275
 10
98.16024438735231
 20
-161.0120496559275
 10
98.49235159213039
 20
-160.997235745341
 10
98.53886038118126
 20
-160.8342827288886
 10
98.56848820235441
 20
-160.7199055587783
 10
98.56848820235441
 20
-160.7199055587783
 10
98.714560250929
 20
-160.7199055587783
 10
98.714560250929
 20
-160.7199055587783
 10
98.714560250929
 20
-160.7199055587783
 10
98.714560250929
 20
-162.2643418648158
 10
98.714560250929
 20
-162.2643418648158
 10
98.714560250929
 20
-162.2643418648158
 10
98.49028453483924
 20
-162.2643418648158
 10
98.49028453483924
 20
-162.2643418648158
 97
        0
 97
        1
330
B0
 75
     2
 76
     1
 98
        1
 10
0.0
 20
0.0
450
        0
451
        0
460
0.0
461
0.0
452
        0
462
0.0
453
        0
470

  0
SPLINE
  5
B2
330
AC
100
AcDbEntity
  8
レイヤー 1
100
AcDbSpline
210
0.0
220
0.0
230
1.0
 70
     9
 71
     3
 72
    53
 73
    49
 74
     0
 42
0.0000000001
 43
0.0000000001
 40
0.0
 40
0.0
 40
0.0
 40
0.0
 40
1.0
 40
1.0
 40
1.0
 40
2.0
 40
2.0
 40
2.0
 40
3.0
 40
3.0
 40
3.0
 40
4.0
 40
4.0
 40
4.0
 40
5.0
 40
5.0
 40
5.0
 40
6.0
 40
6.0
 40
6.0
 40
7.0
 40
7.0
 40
7.0
 40
8.0
 40
8.0
 40
8.0
 40
9.0
 40
9.0
 40
9.0
 40
10.0
 40
10.0
 40
10.0
 40
11.0
 40
11.0
 40
11.0
 40
12.0
 40
12.0
 40
12.0
 40
13.0
 40
13.0
 40
13.0
 40
14.0
 40
14.0
 40
14.0
 40
15.0
 40
15.0
 40
15.0
 40
16.0
 40
16.0
 40
16.0
 40
16.0
 10
99.69675697377374
 20
-162.314984768449
 30
0.0
 10
99.6183810514843
 20
-162.314984768449
 30
0.0
 10
99.51692298944369
 20
-162.2981038005713
 30
0.0
 10
99.41529267262882
 20
-162.2347140436427
 30
0.0
 10
99.2418321149465
 20
-162.1248154976632
 30
0.0
 10
99.22081703248647
 20
-161.9935573596752
 30
0.0
 10
99.20169675254333
 20
-161.8857258709869
 30
0.0
 10
99.20169675254333
 20
-161.8857258709869
 30
0.0
 10
99.42373315656768
 20
-161.8857258709869
 30
0.0
 10
99.42373315656768
 20
-161.8857258709869
 30
0.0
 10
99.47885468433169
 20
-162.0845078804858
 30
0.0
 10
99.60580645296314
 20
-162.114135701659
 30
0.0
 10
99.69882403106488
 20
-162.114135701659
 30
0.0
 10
99.83852265299177
 20
-162.114135701659
 30
0.0
 10
99.99079587343981
 20
-162.0145724421352
 30
0.0
 10
99.99079587343981
 20
-161.7820284968809
 30
0.0
 10
99.99079587343981
 20
-161.5260579023268
 30
0.0
 10
99.81096188910976
 20
-161.4561224639762
 30
0.0
 10
99.69038354712601
 20
-161.4561224639762
 30
0.0
 10
99.65868866866173
 20
-161.4561224639762
 30
0.0
 10
99.51692298944369
 20
-161.4561224639762
 30
0.0
 10
99.42803952592425
 20
-161.5853135446731
 30
0.0
 10
99.42803952592425
 20
-161.5853135446731
 30
0.0
 10
99.25251191095076
 20
-161.5663655195042
 30
0.0
 10
99.25251191095076
 20
-161.5663655195042
 30
0.0
 10
99.25251191095076
 20
-161.5663655195042
 30
0.0
 10
99.37309025293451
 20
-160.7199055587783
 30
0.0
 10
99.37309025293451
 20
-160.7199055587783
 30
0.0
 10
99.37309025293451
 20
-160.7199055587783
 30
0.0
 10
100.1515095778267
 20
-160.7199055587783
 30
0.0
 10
100.1515095778267
 20
-160.7199055587783
 30
0.0
 10
100.1515095778267
 20
-160.7199055587783
 30
0.0
 10
100.1515095778267
 20
-160.914553453695
 30
0.0
 10
100.1515095778267
 20
-160.914553453695
 30
0.0
 10
100.1515095778267
 20
-160.914553453695
 30
0.0
 10
99.53587101461257
 20
-160.914553453695
 30
0.0
 10
99.53587101461257
 20
-160.914553453695
 30
0.0
 10
99.53587101461257
 20
-160.914553453695
 30
0.0
 10
99.47041420039283
 20
-161.3376111792836
 30
0.0
 10
99.47041420039283
 20
-161.3376111792836
 30
0.0
 10
99.53173690003026
 20
-161.3038492435282
 30
0.0
 10
99.61424693690199
 20
-161.2635416263508
 30
0.0
 10
99.73275822159459
 20
-161.2635416263508
 30
0.0
 10
99.98648950408323
 20
-161.2635416263508
 30
0.0
 10
100.2235120734684
 20
-161.4499212921028
 30
0.0
 10
100.2235120734684
 20
-161.763080471712
 30
0.0
 10
100.2235120734684
 20
-162.0803737659035
 30
0.0
 10
99.99923635737866
 20
-162.314984768449
 30
0.0
 10
99.69675697377374
 20
-162.314984768449
 30
0.0
  0
HATCH
  5
B3
330
AC
100
AcDbEntity
  8
レイヤー 1
 62
   250
420
  2299925
440
 33554687
100
AcDbHatch
 10
0.0
 20
0.0
 30
0.0
210
0.0
220
0.0
230
1.0
  2
SOLID
 70
     1
 71
     1
 91
        1
 92
        1
 93
        1
 72
     4
 94
        3
 73
     0
 74
     0
 95
       53
 96
       49
 40
0.0
 40
0.0
 40
0.0
 40
0.0
 40
1.0
 40
1.0
 40
1.0
 40
2.0
 40
2.0
 40
2.0
 40
3.0
 40
3.0
 40
3.0
 40
4.0
 40
4.0
 40
4.0
 40
5.0
 40
5.0
 40
5.0
 40
6.0
 40
6.0
 40
6.0
 40
7.0
 40
7.0
 40
7.0
 40
8.0
 40
8.0
 40
8.0
 40
9.0
 40
9.0
 40
9.0
 40
10.0
 40
10.0
 40
10.0
 40
11.0
 40
11.0
 40
11.0
 40
12.0
 40
12.0
 40
12.0
 40
13.0
 40
13.0
 40
13.0
 40
14.0
 40
14.0
 40
14.0
 40
15.0
 40
15.0
 40
15.0
 40
16.0
 40
16.0
 40
16.0
 40
16.0
 10
99.69675697377374
 20
-162.314984768449
 10
99.6183810514843
 20
-162.314984768449
 10
99.51692298944369
 20
-162.2981038005713
 10
99.41529267262882
 20
-162.2347140436427
 10
99.2418321149465
 20
-162.1248154976632
 10
99.22081703248647
 20
-161.9935573596752
 10
99.20169675254333
 20
-161.8857258709869
 10
99.20169675254333
 20
-161.8857258709869
 10
99.42373315656768
 20
-161.8857258709869
 10
99.42373315656768
 20
-161.8857258709869
 10
99.47885468433169
 20
-162.0845078804858
 10
99.60580645296314
 20
-162.114135701659
 10
99.69882403106488
 20
-162.114135701659
 10
99.83852265299177
 20
-162.114135701659
 10
99.99079587343981
 20
-162.0145724421352
 10
99.99079587343981
 20
-161.7820284968809
 10
99.99079587343981
 20
-161.5260579023268
 10
99.81096188910976
 20
-161.4561224639762
 10
99.69038354712601
 20
-161.4561224639762
 10
99.65868866866173
 20
-161.4561224639762
 10
99.51692298944369
 20
-161.4561224639762
 10
99.42803952592425
 20
-161.5853135446731
 10
99.42803952592425
 20
-161.5853135446731
 10
99.25251191095076
 20
-161.5663655195042
 10
99.25251191095076
 20
-161.5663655195042
 10
99.25251191095076
 20
-161.5663655195042
 10
99.37309025293451
 20
-160.7199055587783
 10
99.37309025293451
 20
-160.7199055587783
 10
99.37309025293451
 20
-160.7199055587783
 10
100.1515095778267
 20
-160.7199055587783
 10
100.1515095778267
 20
-160.7199055587783
 10
100.1515095778267
 20
-160.7199055587783
 10
100.1515095778267
 20
-160.914553453695
 10
100.1515095778267
 20
-160.914553453695
 10
100.1515095778267
 20
-160.914553453695
 10
99.53587101461257
 20
-160.914553453695
 10
99.53587101461257
 20
-160.914553453695
 10
99.53587101461257
 20
-160.914553453695
 10
99.47041420039283
 20
-161.3376111792836
 10
99.47041420039283
 20
-161.3376111792836
 10
99.53173690003026
 20
-161.3038492435282
 10
99.61424693690199
 20
-161.2635416263508
 10
99.73275822159459
 20
-161.2635416263508
 10
99.98648950408323
 20
-161.2635416263508
 10
100.2235120734684
 20
-161.4499212921028
 10
100.2235120734684
 20
-161.763080471712
 10
100.2235120734684
 20
-162.0803737659035
 10
99.99923635737866
 20
-162.314984768449
 10
99.69675697377374
 20
-162.314984768449
 97
        0
 97
        1
330
B2
 75
     2
 76
     1
 98
        1
 10
0.0
 20
0.0
450
        0
451
        0
460
0.0
461
0.0
452
        0
462
0.0
453
        0
470

  0
ENDBLK
  5
AF
330
AC
100
AcDbEntity
  8
0
100
AcDbBlockEnd
  0
BLOCK
  5
B6
330
B4
100
AcDbEntity
  8
0
100
AcDbBlockBegin
  2
Block_2
 70
     0
 10
0.0
 20
0.0
 30
0.0
  3
Block_2
  1

  0
INSERT
  5
B9
330
B4
100
AcDbEntity
  8
レイヤー 1
100
AcDbBlockReference
  2
Block_3
 10
0.0
 20
0.0
 30
0.0
  0
ENDBLK
  5
B7
330
B4
100
AcDbEntity
  8
0
100
AcDbBlockEnd
  0
BLOCK
  5
BA
330
B8
100
AcDbEntity
  8
0
100
AcDbBlockBegin
  2
Block_3
 70
     0
 10
0.0
 20
0.0
 30
0.0
  3
Block_3
  1

  0
SPLINE
  5
BC
330
B8
100
AcDbEntity
  8
レイヤー 1
100
AcDbSpline
210
0.0
220
0.0
230
1.0
 70
    11
 71
     3
 72
    26
 73
    22
 74
     0
 42
0.0000000001
 43
0.0000000001
 40
0.0
 40
0.0
 40
0.0
 40
0.0
 40
1.0
 40
1.0
 40
1.0
 40
2.0
 40
2.0
 40
2.0
 40
3.0
 40
3.0
 40
3.0
 40
4.0
 40
4.0
 40
4.0
 40
5.0
 40
5.0
 40
5.0
 40
6.0
 40
6.0
 40
6.0
 40
7.0
 40
7.0
 40
7.0
 40
7.0
 10
105.1048678665189
 20
-167.2914251968924
 30
0.0
 10
105.1048678665189
 20
-167.2914251968924
 30
0.0
 10
105.1048678665189
 20
-166.1872720938698
 30
0.0
 10
105.1048678665189
 20
-166.1872720938698
 30
0.0
 10
105.1048678665189
 20
-166.1872720938698
 30
0.0
 10
104.774827719032
 20
-166.1872720938698
 30
0.0
 10
104.774827719032
 20
-166.1872720938698
 30
0.0
 10
104.774827719032
 20
-166.1872720938698
 30
0.0
 10
104.774827719032
 20
-166.0391329880041
 30
0.0
 10
104.774827719032
 20
-166.0391329880041
 30
0.0
 10
105.10693492381
 20
-166.0243190774175
 30
0.0
 10
105.1534437128609
 20
-165.8613660609652
 30
0.0
 10
105.1830715340341
 20
-165.7469888908549
 30
0.0
 10
105.1830715340341
 20
-165.7469888908549
 30
0.0
 10
105.3291435826087
 20
-165.7469888908549
 30
0.0
 10
105.3291435826087
 20
-165.7469888908549
 30
0.0
 10
105.3291435826087
 20
-165.7469888908549
 30
0.0
 10
105.3291435826087
 20
-167.2914251968924
 30
0.0
 10
105.3291435826087
 20
-167.2914251968924
 30
0.0
 10
105.3291435826087
 20
-167.2914251968924
 30
0.0
 10
105.1048678665189
 20
-167.2914251968924
 30
0.0
 10
105.1048678665189
 20
-167.2914251968924
 30
0.0
  0
HATCH
  5
BD
330
B8
100
AcDbEntity
  8
レイヤー 1
 62
   250
420
  2299925
440
 33554687
100
AcDbHatch
 10
0.0
 20
0.0
 30
0.0
210
0.0
220
0.0
230
1.0
  2
SOLID
 70
     1
 71
     1
 91
        1
 92
        1
 93
        1
 72
     4
 94
        3
 73
     0
 74
     0
 95
       26
 96
       22
 40
0.0
 40
0.0
 40
0.0
 40
0.0
 40
1.0
 40
1.0
 40
1.0
 40
2.0
 40
2.0
 40
2.0
 40
3.0
 40
3.0
 40
3.0
 40
4.0
 40
4.0
 40
4.0
 40
5.0
 40
5.0
 40
5.0
 40
6.0
 40
6.0
 40
6.0
 40
7.0
 40
7.0
 40
7.0
 40
7.0
 10
105.1048678665189
 20
-167.2914251968924
 10
105.1048678665189
 20
-167.2914251968924
 10
105.1048678665189
 20
-166.1872720938698
 10
105.1048678665189
 20
-166.1872720938698
 10
105.1048678665189
 20
-166.1872720938698
 10
104.774827719032
 20
-166.1872720938698
 10
104.774827719032
 20
-166.1872720938698
 10
104.774827719032
 20
-166.1872720938698
 10
104.774827719032
 20
-166.0391329880041
 10
104.774827719032
 20
-166.0391329880041
 10
105.10693492381
 20
-166.0243190774175
 10
105.1534437128609
 20
-165.8613660609652
 10
105.1830715340341
 20
-165.7469888908549
 10
105.1830715340341
 20
-165.7469888908549
 10
105.3291435826087
 20
-165.7469888908549
 10
105.3291435826087
 20
-165.7469888908549
 10
105.3291435826087
 20
-165.7469888908549
 10
105.3291435826087
 20
-167.2914251968924
 10
105.3291435826087
 20
-167.2914251968924
 10
105.3291435826087
 20
-167.2914251968924
 10
105.1048678665189
 20
-167.2914251968924
 10
105.1048678665189
 20
-167.2914251968924
 97
        0
 97
        1
330
BC
 75
     2
 76
     1
 98
        1
 10
0.0
 20
0.0
450
        0
451
        0
460
0.0
461
0.0
452
        0
462
0.0
453
        0
470

  0
SPLINE
  5
BE
330
B8
100
AcDbEntity
  8
レイヤー 1
100
AcDbSpline
210
0.0
220
0.0
230
1.0
 70
     9
 71
     3
 72
    53
 73
    49
 74
     0
 42
0.0000000001
 43
0.0000000001
 40
0.0
 40
0.0
 40
0.0
 40
0.0
 40
1.0
 40
1.0
 40
1.0
 40
2.0
 40
2.0
 40
2.0
 40
3.0
 40
3.0
 40
3.0
 40
4.0
 40
4.0
 40
4.0
 40
5.0
 40
5.0
 40
5.0
 40
6.0
 40
6.0
 40
6.0
 40
7.0
 40
7.0
 40
7.0
 40
8.0
 40
8.0
 40
8.0
 40
9.0
 40
9.0
 40
9.0
 40
10.0
 40
10.0
 40
10.0
 40
11.0
 40
11.0
 40
11.0
 40
12.0
 40
12.0
 40
12.0
 40
13.0
 40
13.0
 40
13.0
 40
14.0
 40
14.0
 40
14.0
 40
15.0
 40
15.0
 40
15.0
 40
16.0
 40
16.0
 40
16.0
 40
16.0
 10
106.3111680506791
 20
-167.3420681005256
 30
0.0
 10
106.232964383164
 20
-167.3420681005256
 30
0.0
 10
106.1313340663491
 20
-167.3251871326479
 30
0.0
 10
106.0300482590827
 20
-167.2617973757193
 30
0.0
 10
105.8564154466262
 20
-167.1518988297398
 30
0.0
 10
105.8354003641661
 20
-167.0206406917518
 30
0.0
 10
105.8161078294487
 20
-166.9128092030634
 30
0.0
 10
105.8161078294487
 20
-166.9128092030634
 30
0.0
 10
106.0383164882473
 20
-166.9128092030634
 30
0.0
 10
106.0383164882473
 20
-166.9128092030634
 30
0.0
 10
106.0934380160113
 20
-167.1115912125624
 30
0.0
 10
106.2202175298685
 20
-167.1412190337355
 30
0.0
 10
106.3135796175188
 20
-167.1412190337355
 30
0.0
 10
106.4531059846714
 20
-167.1412190337355
 30
0.0
 10
106.6053792051195
 20
-167.0416557742118
 30
0.0
 10
106.6053792051195
 20
-166.8091118289574
 30
0.0
 10
106.6053792051195
 20
-166.5531412344034
 30
0.0
 10
106.4255452207894
 20
-166.4832057960528
 30
0.0
 10
106.3049668788057
 20
-166.4832057960528
 30
0.0
 10
106.2732720003414
 20
-166.4832057960528
 30
0.0
 10
106.1313340663491
 20
-166.4832057960528
 30
0.0
 10
106.0427951123782
 20
-166.6123968767497
 30
0.0
 10
106.0427951123782
 20
-166.6123968767497
 30
0.0
 10
105.8670952426304
 20
-166.5934488515808
 30
0.0
 10
105.8670952426304
 20
-166.5934488515808
 30
0.0
 10
105.8670952426304
 20
-166.5934488515808
 30
0.0
 10
105.9876735846142
 20
-165.7469888908549
 30
0.0
 10
105.9876735846142
 20
-165.7469888908549
 30
0.0
 10
105.9876735846142
 20
-165.7469888908549
 30
0.0
 10
106.7662651642806
 20
-165.7469888908549
 30
0.0
 10
106.7662651642806
 20
-165.7469888908549
 30
0.0
 10
106.7662651642806
 20
-165.7469888908549
 30
0.0
 10
106.7662651642806
 20
-165.9416367857715
 30
0.0
 10
106.7662651642806
 20
-165.9416367857715
 30
0.0
 10
106.7662651642806
 20
-165.9416367857715
 30
0.0
 10
106.1506266010665
 20
-165.9416367857715
 30
0.0
 10
106.1506266010665
 20
-165.9416367857715
 30
0.0
 10
106.1506266010665
 20
-165.9416367857715
 30
0.0
 10
106.0848252772982
 20
-166.3646945113602
 30
0.0
 10
106.0848252772982
 20
-166.3646945113602
 30
0.0
 10
106.1461479769357
 20
-166.3309325756048
 30
0.0
 10
106.2288302685817
 20
-166.2906249584273
 30
0.0
 10
106.3473415532742
 20
-166.2906249584273
 30
0.0
 10
106.6012450905372
 20
-166.2906249584273
 30
0.0
 10
106.8379231503738
 20
-166.4770046241793
 30
0.0
 10
106.8379231503738
 20
-166.7901638037885
 30
0.0
 10
106.8379231503738
 20
-167.10745709798
 30
0.0
 10
106.6139919438326
 20
-167.3420681005256
 30
0.0
 10
106.3111680506791
 20
-167.3420681005256
 30
0.0
  0
HATCH
  5
BF
330
B8
100
AcDbEntity
  8
レイヤー 1
 62
   250
420
  2299925
440
 33554687
100
AcDbHatch
 10
0.0
 20
0.0
 30
0.0
210
0.0
220
0.0
230
1.0
  2
SOLID
 70
     1
 71
     1
 91
        1
 92
        1
 93
        1
 72
     4
 94
        3
 73
     0
 74
     0
 95
       53
 96
       49
 40
0.0
 40
0.0
 40
0.0
 40
0.0
 40
1.0
 40
1.0
 40
1.0
 40
2.0
 40
2.0
 40
2.0
 40
3.0
 40
3.0
 40
3.0
 40
4.0
 40
4.0
 40
4.0
 40
5.0
 40
5.0
 40
5.0
 40
6.0
 40
6.0
 40
6.0
 40
7.0
 40
7.0
 40
7.0
 40
8.0
 40
8.0
 40
8.0
 40
9.0
 40
9.0
 40
9.0
 40
10.0
 40
10.0
 40
10.0
 40
11.0
 40
11.0
 40
11.0
 40
12.0
 40
12.0
 40
12.0
 40
13.0
 40
13.0
 40
13.0
 40
14.0
 40
14.0
 40
14.0
 40
15.0
 40
15.0
 40
15.0
 40
16.0
 40
16.0
 40
16.0
 40
16.0
 10
106.3111680506791
 20
-167.3420681005256
 10
106.232964383164
 20
-167.3420681005256
 10
106.1313340663491
 20
-167.3251871326479
 10
106.0300482590827
 20
-167.2617973757193
 10
105.8564154466262
 20
-167.1518988297398
 10
105.8354003641661
 20
-167.0206406917518
 10
105.8161078294487
 20
-166.9128092030634
 10
105.8161078294487
 20
-166.9128092030634
 10
106.0383164882473
 20
-166.9128092030634
 10
106.0383164882473
 20
-166.9128092030634
 10
106.0934380160113
 20
-167.1115912125624
 10
106.2202175298685
 20
-167.1412190337355
 10
106.3135796175188
 20
-167.1412190337355
 10
106.4531059846714
 20
-167.1412190337355
 10
106.6053792051195
 20
-167.0416557742118
 10
106.6053792051195
 20
-166.8091118289574
 10
106.6053792051195
 20
-166.5531412344034
 10
106.4255452207894
 20
-166.4832057960528
 10
106.3049668788057
 20
-166.4832057960528
 10
106.2732720003414
 20
-166.4832057960528
 10
106.1313340663491
 20
-166.4832057960528
 10
106.0427951123782
 20
-166.6123968767497
 10
106.0427951123782
 20
-166.6123968767497
 10
105.8670952426304
 20
-166.5934488515808
 10
105.8670952426304
 20
-166.5934488515808
 10
105.8670952426304
 20
-166.5934488515808
 10
105.9876735846142
 20
-165.7469888908549
 10
105.9876735846142
 20
-165.7469888908549
 10
105.9876735846142
 20
-165.7469888908549
 10
106.7662651642806
 20
-165.7469888908549
 10
106.7662651642806
 20
-165.7469888908549
 10
106.7662651642806
 20
-165.7469888908549
 10
106.7662651642806
 20
-165.9416367857715
 10
106.7662651642806
 20
-165.9416367857715
 10
106.7662651642806
 20
-165.9416367857715
 10
106.1506266010665
 20
-165.9416367857715
 10
106.1506266010665
 20
-165.9416367857715
 10
106.1506266010665
 20
-165.9416367857715
 10
106.0848252772982
 20
-166.3646945113602
 10
106.0848252772982
 20
-166.3646945113602
 10
106.1461479769357
 20
-166.3309325756048
 10
106.2288302685817
 20
-166.2906249584273
 10
106.3473415532742
 20
-166.2906249584273
 10
106.6012450905372
 20
-166.2906249584273
 10
106.8379231503738
 20
-166.4770046241793
 10
106.8379231503738
 20
-166.7901638037885
 10
106.8379231503738
 20
-167.10745709798
 10
106.6139919438326
 20
-167.3420681005256
 10
106.3111680506791
 20
-167.3420681005256
 97
        0
 97
        1
330
BE
 75
     2
 76
     1
 98
        1
 10
0.0
 20
0.0
450
        0
451
        0
460
0.0
461
0.0
452
        0
462
0.0
453
        0
470

  0
ENDBLK
  5
BB
330
B8
100
AcDbEntity
  8
0
100
AcDbBlockEnd
  0
BLOCK
  5
C2
330
C0
100
AcDbEntity
  8
0
100
AcDbBlockBegin
  2
Block_4
 70
     0
 10
0.0
 20
0.0
 30
0.0
  3
Block_4
  1

  0
INSERT
  5
C5
330
C0
100
AcDbEntity
  8
レイヤー 1
100
AcDbBlockReference
  2
Block_5
 10
0.0
 20
0.0
 30
0.0
  0
ENDBLK
  5
C3
330
C0
100
AcDbEntity
  8
0
100
AcDbBlockEnd
  0
BLOCK
  5
C6
330
C4
100
AcDbEntity
  8
0
100
AcDbBlockBegin
  2
Block_5
 70
     0
 10
0.0
 20
0.0
 30
0.0
  3
Block_5
  1

  0
SPLINE
  5
C8
330
C4
100
AcDbEntity
  8
レイヤー 1
100
AcDbSpline
210
0.0
220
0.0
230
1.0
 70
     9
 71
     3
 72
    44
 73
    40
 74
     0
 42
0.0000000001
 43
0.0000000001
 40
0.0
 40
0.0
 40
0.0
 40
0.0
 40
1.0
 40
1.0
 40
1.0
 40
2.0
 40
2.0
 40
2.0
 40
3.0
 40
3.0
 40
3.0
 40
4.0
 40
4.0
 40
4.0
 40
5.0
 40
5.0
 40
5.0
 40
6.0
 40
6.0
 40
6.0
 40
7.0
 40
7.0
 40
7.0
 40
8.0
 40
8.0
 40
8.0
 40
9.0
 40
9.0
 40
9.0
 40
10.0
 40
10.0
 40
10.0
 40
11.0
 40
11.0
 40
11.0
 40
12.0
 40
12.0
 40
12.0
 40
13.0
 40
13.0
 40
13.0
 40
13.0
 10
119.8865668103061
 20
-168.2529513468256
 30
0.0
 10
119.6688367756383
 20
-168.4117702486957
 30
0.0
 10
119.5758191975366
 20
-168.4858398016285
 30
0.0
 10
119.526898841646
 20
-168.6295002833634
 30
0.0
 10
119.526898841646
 20
-168.6295002833634
 30
0.0
 10
120.3054904213125
 20
-168.6295002833634
 30
0.0
 10
120.3054904213125
 20
-168.6295002833634
 30
0.0
 10
120.3054904213125
 20
-168.6295002833634
 30
0.0
 10
120.3054904213125
 20
-168.8348279742843
 30
0.0
 10
120.3054904213125
 20
-168.8348279742843
 30
0.0
 10
120.3054904213125
 20
-168.8348279742843
 30
0.0
 10
119.2774739285139
 20
-168.8348279742843
 30
0.0
 10
119.2774739285139
 20
-168.8348279742843
 30
0.0
 10
119.3091688069782
 20
-168.4772270629154
 30
0.0
 10
119.374625621198
 20
-168.3990233954002
 30
0.0
 10
119.7597872964489
 20
-168.1006781263776
 30
0.0
 10
120.015757891003
 20
-167.9018961168787
 30
0.0
 10
120.0812147052227
 20
-167.8340277358193
 30
0.0
 10
120.0812147052227
 20
-167.6965684259578
 30
0.0
 10
120.0812147052227
 20
-167.5780571412652
 30
0.0
 10
120.009212209581
 20
-167.4471435128257
 30
0.0
 10
119.8124972573732
 20
-167.4471435128257
 30
0.0
 10
119.5523925482369
 20
-167.4471435128257
 30
0.0
 10
119.5441243190723
 20
-167.6776204007889
 30
0.0
 10
119.5396456949415
 20
-167.7940646281903
 30
0.0
 10
119.5396456949415
 20
-167.7940646281903
 30
0.0
 10
119.3153699788517
 20
-167.7940646281903
 30
0.0
 10
119.3153699788517
 20
-167.7940646281903
 30
0.0
 10
119.3239827175648
 20
-167.6669406047846
 30
0.0
 10
119.3346625135691
 20
-167.554975001514
 30
0.0
 10
119.4149332383754
 20
-167.4364637168214
 30
0.0
 10
119.5248317843549
 20
-167.2755777576602
 30
0.0
 10
119.7112114501069
 20
-167.2418158219048
 30
0.0
 10
119.8273111679598
 20
-167.2418158219048
 30
0.0
 10
120.1046413545224
 20
-167.2418158219048
 30
0.0
 10
120.3120361027345
 20
-167.4257839208171
 30
0.0
 10
120.3120361027345
 20
-167.6986354832489
 30
0.0
 10
120.3120361027345
 20
-167.9273898234695
 30
0.0
 10
120.195591875333
 20
-168.0266085734447
 30
0.0
 10
119.8865668103061
 20
-168.2529513468256
 30
0.0
  0
HATCH
  5
C9
330
C4
100
AcDbEntity
  8
レイヤー 1
 62
   250
420
  2299925
440
 33554687
100
AcDbHatch
 10
0.0
 20
0.0
 30
0.0
210
0.0
220
0.0
230
1.0
  2
SOLID
 70
     1
 71
     1
 91
        1
 92
        1
 93
        1
 72
     4
 94
        3
 73
     0
 74
     0
 95
       44
 96
       40
 40
0.0
 40
0.0
 40
0.0
 40
0.0
 40
1.0
 40
1.0
 40
1.0
 40
2.0
 40
2.0
 40
2.0
 40
3.0
 40
3.0
 40
3.0
 40
4.0
 40
4.0
 40
4.0
 40
5.0
 40
5.0
 40
5.0
 40
6.0
 40
6.0
 40
6.0
 40
7.0
 40
7.0
 40
7.0
 40
8.0
 40
8.0
 40
8.0
 40
9.0
 40
9.0
 40
9.0
 40
10.0
 40
10.0
 40
10.0
 40
11.0
 40
11.0
 40
11.0
 40
12.0
 40
12.0
 40
12.0
 40
13.0
 40
13.0
 40
13.0
 40
13.0
 10
119.8865668103061
 20
-168.2529513468256
 10
119.6688367756383
 20
-168.4117702486957
 10
119.5758191975366
 20
-168.4858398016285
 10
119.526898841646
 20
-168.6295002833634
 10
119.526898841646
 20
-168.6295002833634
 10
120.3054904213125
 20
-168.6295002833634
 10
120.3054904213125
 20
-168.6295002833634
 10
120.3054904213125
 20
-168.6295002833634
 10
120.3054904213125
 20
-168.8348279742843
 10
120.3054904213125
 20
-168.8348279742843
 10
120.3054904213125
 20
-168.8348279742843
 10
119.2774739285139
 20
-168.8348279742843
 10
119.2774739285139
 20
-168.8348279742843
 10
119.3091688069782
 20
-168.4772270629154
 10
119.374625621198
 20
-168.3990233954002
 10
119.7597872964489
 20
-168.1006781263776
 10
120.015757891003
 20
-167.9018961168787
 10
120.0812147052227
 20
-167.8340277358193
 10
120.0812147052227
 20
-167.6965684259578
 10
120.0812147052227
 20
-167.5780571412652
 10
120.009212209581
 20
-167.4471435128257
 10
119.8124972573732
 20
-167.4471435128257
 10
119.5523925482369
 20
-167.4471435128257
 10
119.5441243190723
 20
-167.6776204007889
 10
119.5396456949415
 20
-167.7940646281903
 10
119.5396456949415
 20
-167.7940646281903
 10
119.3153699788517
 20
-167.7940646281903
 10
119.3153699788517
 20
-167.7940646281903
 10
119.3239827175648
 20
-167.6669406047846
 10
119.3346625135691
 20
-167.554975001514
 10
119.4149332383754
 20
-167.4364637168214
 10
119.5248317843549
 20
-167.2755777576602
 10
119.7112114501069
 20
-167.2418158219048
 10
119.8273111679598
 20
-167.2418158219048
 10
120.1046413545224
 20
-167.2418158219048
 10
120.3120361027345
 20
-167.4257839208171
 10
120.3120361027345
 20
-167.6986354832489
 10
120.3120361027345
 20
-167.9273898234695
 10
120.195591875333
 20
-168.0266085734447
 10
119.8865668103061
 20
-168.2529513468256
 97
        0
 97
        1
330
C8
 75
     2
 76
     1
 98
        1
 10
0.0
 20
0.0
450
        0
451
        0
460
0.0
461
0.0
452
        0
462
0.0
453
        0
470

  0
SPLINE
  5
CA
330
C4
100
AcDbEntity
  8
レイヤー 1
100
AcDbSpline
210
0.0
220
0.0
230
1.0
 70
     9
 71
     3
 72
    53
 73
    49
 74
     0
 42
0.0000000001
 43
0.0000000001
 40
0.0
 40
0.0
 40
0.0
 40
0.0
 40
1.0
 40
1.0
 40
1.0
 40
2.0
 40
2.0
 40
2.0
 40
3.0
 40
3.0
 40
3.0
 40
4.0
 40
4.0
 40
4.0
 40
5.0
 40
5.0
 40
5.0
 40
6.0
 40
6.0
 40
6.0
 40
7.0
 40
7.0
 40
7.0
 40
8.0
 40
8.0
 40
8.0
 40
9.0
 40
9.0
 40
9.0
 40
10.0
 40
10.0
 40
10.0
 40
11.0
 40
11.0
 40
11.0
 40
12.0
 40
12.0
 40
12.0
 40
13.0
 40
13.0
 40
13.0
 40
14.0
 40
14.0
 40
14.0
 40
15.0
 40
15.0
 40
15.0
 40
16.0
 40
16.0
 40
16.0
 40
16.0
 10
120.9514458247968
 20
-168.8854708779175
 30
0.0
 10
120.8732421572817
 20
-168.8854708779175
 30
0.0
 10
120.7716118404668
 20
-168.8685899100398
 30
0.0
 10
120.6699815236519
 20
-168.8052001531112
 30
0.0
 10
120.4966932207439
 20
-168.6953016071317
 30
0.0
 10
120.4753336287353
 20
-168.5640434691437
 30
0.0
 10
120.4563856035664
 20
-168.4562119804554
 30
0.0
 10
120.4563856035664
 20
-168.4562119804554
 30
0.0
 10
120.6785942623651
 20
-168.4562119804554
 30
0.0
 10
120.6785942623651
 20
-168.4562119804554
 30
0.0
 10
120.7333712805805
 20
-168.6549939899543
 30
0.0
 10
120.8604953039863
 20
-168.6846218111274
 30
0.0
 10
120.953512882088
 20
-168.6846218111274
 30
0.0
 10
121.0930392492406
 20
-168.6846218111274
 30
0.0
 10
121.2453124696887
 20
-168.5850585516037
 30
0.0
 10
121.2453124696887
 20
-168.3525146063494
 30
0.0
 10
121.2453124696887
 20
-168.0965440117953
 30
0.0
 10
121.0654784853586
 20
-168.0266085734447
 30
0.0
 10
120.9449001433749
 20
-168.0266085734447
 30
0.0
 10
120.9132052649106
 20
-168.0266085734447
 30
0.0
 10
120.7716118404668
 20
-168.0266085734447
 30
0.0
 10
120.6827283769474
 20
-168.1557996541416
 30
0.0
 10
120.6827283769474
 20
-168.1557996541416
 30
0.0
 10
120.5070285071996
 20
-168.1368516289727
 30
0.0
 10
120.5070285071996
 20
-168.1368516289727
 30
0.0
 10
120.5070285071996
 20
-168.1368516289727
 30
0.0
 10
120.6276068491834
 20
-167.2903916682468
 30
0.0
 10
120.6276068491834
 20
-167.2903916682468
 30
0.0
 10
120.6276068491834
 20
-167.2903916682468
 30
0.0
 10
121.4061984288498
 20
-167.2903916682468
 30
0.0
 10
121.4061984288498
 20
-167.2903916682468
 30
0.0
 10
121.4061984288498
 20
-167.2903916682468
 30
0.0
 10
121.4061984288498
 20
-167.4850395631635
 30
0.0
 10
121.4061984288498
 20
-167.4850395631635
 30
0.0
 10
121.4061984288498
 20
-167.4850395631635
 30
0.0
 10
120.7905598656357
 20
-167.4850395631635
 30
0.0
 10
120.7905598656357
 20
-167.4850395631635
 30
0.0
 10
120.7905598656357
 20
-167.4850395631635
 30
0.0
 10
120.7251030514159
 20
-167.9080972887521
 30
0.0
 10
120.7251030514159
 20
-167.9080972887521
 30
0.0
 10
120.7864257510534
 20
-167.8743353529967
 30
0.0
 10
120.8687635331509
 20
-167.8340277358193
 30
0.0
 10
120.9872748178435
 20
-167.8340277358193
 30
0.0
 10
121.2411783551063
 20
-167.8340277358193
 30
0.0
 10
121.4782009244915
 20
-168.0204074015713
 30
0.0
 10
121.4782009244915
 20
-168.3335665811805
 30
0.0
 10
121.4782009244915
 20
-168.650859875372
 30
0.0
 10
121.2539252084018
 20
-168.8854708779175
 30
0.0
 10
120.9514458247968
 20
-168.8854708779175
 30
0.0
  0
HATCH
  5
CB
330
C4
100
AcDbEntity
  8
レイヤー 1
 62
   250
420
  2299925
440
 33554687
100
AcDbHatch
 10
0.0
 20
0.0
 30
0.0
210
0.0
220
0.0
230
1.0
  2
SOLID
 70
     1
 71
     1
 91
        1
 92
        1
 93
        1
 72
     4
 94
        3
 73
     0
 74
     0
 95
       53
 96
       49
 40
0.0
 40
0.0
 40
0.0
 40
0.0
 40
1.0
 40
1.0
 40
1.0
 40
2.0
 40
2.0
 40
2.0
 40
3.0
 40
3.0
 40
3.0
 40
4.0
 40
4.0
 40
4.0
 40
5.0
 40
5.0
 40
5.0
 40
6.0
 40
6.0
 40
6.0
 40
7.0
 40
7.0
 40
7.0
 40
8.0
 40
8.0
 40
8.0
 40
9.0
 40
9.0
 40
9.0
 40
10.0
 40
10.0
 40
10.0
 40
11.0
 40
11.0
 40
11.0
 40
12.0
 40
12.0
 40
12.0
 40
13.0
 40
13.0
 40
13.0
 40
14.0
 40
14.0
 40
14.0
 40
15.0
 40
15.0
 40
15.0
 40
16.0
 40
16.0
 40
16.0
 40
16.0
 10
120.9514458247968
 20
-168.8854708779175
 10
120.8732421572817
 20
-168.8854708779175
 10
120.7716118404668
 20
-168.8685899100398
 10
120.6699815236519
 20
-168.8052001531112
 10
120.4966932207439
 20
-168.6953016071317
 10
120.4753336287353
 20
-168.5640434691437
 10
120.4563856035664
 20
-168.4562119804554
 10
120.4563856035664
 20
-168.4562119804554
 10
120.6785942623651
 20
-168.4562119804554
 10
120.6785942623651
 20
-168.4562119804554
 10
120.7333712805805
 20
-168.6549939899543
 10
120.8604953039863
 20
-168.6846218111274
 10
120.953512882088
 20
-168.6846218111274
 10
121.0930392492406
 20
-168.6846218111274
 10
121.2453124696887
 20
-168.5850585516037
 10
121.2453124696887
 20
-168.3525146063494
 10
121.2453124696887
 20
-168.0965440117953
 10
121.0654784853586
 20
-168.0266085734447
 10
120.9449001433749
 20
-168.0266085734447
 10
120.9132052649106
 20
-168.0266085734447
 10
120.7716118404668
 20
-168.0266085734447
 10
120.6827283769474
 20
-168.1557996541416
 10
120.6827283769474
 20
-168.1557996541416
 10
120.5070285071996
 20
-168.1368516289727
 10
120.5070285071996
 20
-168.1368516289727
 10
120.5070285071996
 20
-168.1368516289727
 10
120.6276068491834
 20
-167.2903916682468
 10
120.6276068491834
 20
-167.2903916682468
 10
120.6276068491834
 20
-167.2903916682468
 10
121.4061984288498
 20
-167.2903916682468
 10
121.4061984288498
 20
-167.2903916682468
 10
121.4061984288498
 20
-167.2903916682468
 10
121.4061984288498
 20
-167.4850395631635
 10
121.4061984288498
 20
-167.4850395631635
 10
121.4061984288498
 20
-167.4850395631635
 10
120.7905598656357
 20
-167.4850395631635
 10
120.7905598656357
 20
-167.4850395631635
 10
120.7905598656357
 20
-167.4850395631635
 10
120.7251030514159
 20
-167.9080972887521
 10
120.7251030514159
 20
-167.9080972887521
 10
120.7864257510534
 20
-167.8743353529967
 10
120.8687635331509
 20
-167.8340277358193
 10
120.9872748178435
 20
-167.8340277358193
 10
121.2411783551063
 20
-167.8340277358193
 10
121.4782009244915
 20
-168.0204074015713
 10
121.4782009244915
 20
-168.3335665811805
 10
121.4782009244915
 20
-168.650859875372
 10
121.2539252084018
 20
-168.8854708779175
 10
120.9514458247968
 20
-168.8854708779175
 97
        0
 97
        1
330
CA
 75
     2
 76
     1
 98
        1
 10
0.0
 20
0.0
450
        0
451
        0
460
0.0
461
0.0
452
        0
462
0.0
453
        0
470

  0
ENDBLK
  5
C7
330
C4
100
AcDbEntity
  8
0
100
AcDbBlockEnd
  0
BLOCK
  5
CE
330
CC
100
AcDbEntity
  8
0
100
AcDbBlockBegin
  2
Block_6
 70
     0
 10
0.0
 20
0.0
 30
0.0
  3
Block_6
  1

  0
INSERT
  5
D1
330
CC
100
AcDbEntity
  8
レイヤー 1
100
AcDbBlockReference
  2
Block_7
 10
0.0
 20
0.0
 30
0.0
  0
ENDBLK
  5
CF
330
CC
100
AcDbEntity
  8
0
100
AcDbBlockEnd
  0
BLOCK
  5
D2
330
D0
100
AcDbEntity
  8
0
100
AcDbBlockBegin
  2
Block_7
 70
     0
 10
0.0
 20
0.0
 30
0.0
  3
Block_7
  1

  0
SPLINE
  5
D4
330
D0
100
AcDbEntity
  8
レイヤー 1
100
AcDbSpline
210
0.0
220
0.0
230
1.0
 70
     9
 71
     3
 72
    44
 73
    40
 74
     0
 42
0.0000000001
 43
0.0000000001
 40
0.0
 40
0.0
 40
0.0
 40
0.0
 40
1.0
 40
1.0
 40
1.0
 40
2.0
 40
2.0
 40
2.0
 40
3.0
 40
3.0
 40
3.0
 40
4.0
 40
4.0
 40
4.0
 40
5.0
 40
5.0
 40
5.0
 40
6.0
 40
6.0
 40
6.0
 40
7.0
 40
7.0
 40
7.0
 40
8.0
 40
8.0
 40
8.0
 40
9.0
 40
9.0
 40
9.0
 40
10.0
 40
10.0
 40
10.0
 40
11.0
 40
11.0
 40
11.0
 40
12.0
 40
12.0
 40
12.0
 40
13.0
 40
13.0
 40
13.0
 40
13.0
 10
125.0900390312275
 20
-157.0081596829702
 30
0.0
 10
124.8723089965597
 20
-157.1669785848402
 30
0.0
 10
124.7792914184579
 20
-157.2410481377731
 30
0.0
 10
124.7303710625674
 20
-157.384708619508
 30
0.0
 10
124.7303710625674
 20
-157.384708619508
 30
0.0
 10
125.5089626422339
 20
-157.384708619508
 30
0.0
 10
125.5089626422339
 20
-157.384708619508
 30
0.0
 10
125.5089626422339
 20
-157.384708619508
 30
0.0
 10
125.5089626422339
 20
-157.5900363104289
 30
0.0
 10
125.5089626422339
 20
-157.5900363104289
 30
0.0
 10
125.5089626422339
 20
-157.5900363104289
 30
0.0
 10
124.4809461494353
 20
-157.5900363104289
 30
0.0
 10
124.4809461494353
 20
-157.5900363104289
 30
0.0
 10
124.5126410278996
 20
-157.2324353990599
 30
0.0
 10
124.5780978421193
 20
-157.1542317315447
 30
0.0
 10
124.9632595173703
 20
-156.8558864625221
 30
0.0
 10
125.2192301119243
 20
-156.6571044530232
 30
0.0
 10
125.2846869261441
 20
-156.5892360719638
 30
0.0
 10
125.2846869261441
 20
-156.4517767621023
 30
0.0
 10
125.2846869261441
 20
-156.3332654774097
 30
0.0
 10
125.2126844305024
 20
-156.2023518489702
 30
0.0
 10
125.0159694782946
 20
-156.2023518489702
 30
0.0
 10
124.7558647691582
 20
-156.2023518489702
 30
0.0
 10
124.7475965399936
 20
-156.4328287369334
 30
0.0
 10
124.7431179158628
 20
-156.5492729643349
 30
0.0
 10
124.7431179158628
 20
-156.5492729643349
 30
0.0
 10
124.518842199773
 20
-156.5492729643349
 30
0.0
 10
124.518842199773
 20
-156.5492729643349
 30
0.0
 10
124.5274549384862
 20
-156.4221489409292
 30
0.0
 10
124.5381347344904
 20
-156.3101833376586
 30
0.0
 10
124.6184054592968
 20
-156.191672052966
 30
0.0
 10
124.7283040052762
 20
-156.0307860938048
 30
0.0
 10
124.9146836710283
 20
-155.9970241580493
 30
0.0
 10
125.0307833888812
 20
-155.9970241580493
 30
0.0
 10
125.3081135754438
 20
-155.9970241580493
 30
0.0
 10
125.5155083236558
 20
-156.1809922569617
 30
0.0
 10
125.5155083236558
 20
-156.4538438193935
 30
0.0
 10
125.5155083236558
 20
-156.6825981596141
 30
0.0
 10
125.3990640962544
 20
-156.7818169095892
 30
0.0
 10
125.0900390312275
 20
-157.0081596829702
 30
0.0
  0
HATCH
  5
D5
330
D0
100
AcDbEntity
  8
レイヤー 1
 62
   250
420
  2299925
440
 33554687
100
AcDbHatch
 10
0.0
 20
0.0
 30
0.0
210
0.0
220
0.0
230
1.0
  2
SOLID
 70
     1
 71
     1
 91
        1
 92
        1
 93
        1
 72
     4
 94
        3
 73
     0
 74
     0
 95
       44
 96
       40
 40
0.0
 40
0.0
 40
0.0
 40
0.0
 40
1.0
 40
1.0
 40
1.0
 40
2.0
 40
2.0
 40
2.0
 40
3.0
 40
3.0
 40
3.0
 40
4.0
 40
4.0
 40
4.0
 40
5.0
 40
5.0
 40
5.0
 40
6.0
 40
6.0
 40
6.0
 40
7.0
 40
7.0
 40
7.0
 40
8.0
 40
8.0
 40
8.0
 40
9.0
 40
9.0
 40
9.0
 40
10.0
 40
10.0
 40
10.0
 40
11.0
 40
11.0
 40
11.0
 40
12.0
 40
12.0
 40
12.0
 40
13.0
 40
13.0
 40
13.0
 40
13.0
 10
125.0900390312275
 20
-157.0081596829702
 10
124.8723089965597
 20
-157.1669785848402
 10
124.7792914184579
 20
-157.2410481377731
 10
124.7303710625674
 20
-157.384708619508
 10
124.7303710625674
 20
-157.384708619508
 10
125.5089626422339
 20
-157.384708619508
 10
125.5089626422339
 20
-157.384708619508
 10
125.5089626422339
 20
-157.384708619508
 10
125.5089626422339
 20
-157.5900363104289
 10
125.5089626422339
 20
-157.5900363104289
 10
125.5089626422339
 20
-157.5900363104289
 10
124.4809461494353
 20
-157.5900363104289
 10
124.4809461494353
 20
-157.5900363104289
 10
124.5126410278996
 20
-157.2324353990599
 10
124.5780978421193
 20
-157.1542317315447
 10
124.9632595173703
 20
-156.8558864625221
 10
125.2192301119243
 20
-156.6571044530232
 10
125.2846869261441
 20
-156.5892360719638
 10
125.2846869261441
 20
-156.4517767621023
 10
125.2846869261441
 20
-156.3332654774097
 10
125.2126844305024
 20
-156.2023518489702
 10
125.0159694782946
 20
-156.2023518489702
 10
124.7558647691582
 20
-156.2023518489702
 10
124.7475965399936
 20
-156.4328287369334
 10
124.7431179158628
 20
-156.5492729643349
 10
124.7431179158628
 20
-156.5492729643349
 10
124.518842199773
 20
-156.5492729643349
 10
124.518842199773
 20
-156.5492729643349
 10
124.5274549384862
 20
-156.4221489409292
 10
124.5381347344904
 20
-156.3101833376586
 10
124.6184054592968
 20
-156.191672052966
 10
124.7283040052762
 20
-156.0307860938048
 10
124.9146836710283
 20
-155.9970241580493
 10
125.0307833888812
 20
-155.9970241580493
 10
125.3081135754438
 20
-155.9970241580493
 10
125.5155083236558
 20
-156.1809922569617
 10
125.5155083236558
 20
-156.4538438193935
 10
125.5155083236558
 20
-156.6825981596141
 10
125.3990640962544
 20
-156.7818169095892
 10
125.0900390312275
 20
-157.0081596829702
 97
        0
 97
        1
330
D4
 75
     2
 76
     1
 98
        1
 10
0.0
 20
0.0
450
        0
451
        0
460
0.0
461
0.0
452
        0
462
0.0
453
        0
470

  0
SPLINE
  5
D6
330
D0
100
AcDbEntity
  8
レイヤー 1
100
AcDbSpline
210
0.0
220
0.0
230
1.0
 70
     9
 71
     3
 72
    17
 73
    13
 74
     0
 42
0.0000000001
 43
0.0000000001
 40
0.0
 40
0.0
 40
0.0
 40
0.0
 40
1.0
 40
1.0
 40
1.0
 40
2.0
 40
2.0
 40
2.0
 40
3.0
 40
3.0
 40
3.0
 40
4.0
 40
4.0
 40
4.0
 40
4.0
 10
126.1952256628956
 20
-156.7818169095892
 30
0.0
 10
125.9327093869196
 20
-156.7818169095892
 30
0.0
 10
125.8948133365818
 20
-156.9933457723836
 30
0.0
 10
125.8948133365818
 20
-157.109789999785
 30
0.0
 10
125.8948133365818
 20
-157.2854898695328
 30
0.0
 10
125.9898979719747
 20
-157.4484428859851
 30
0.0
 10
126.1738660708871
 20
-157.4484428859851
 30
0.0
 10
126.2944444128708
 20
-157.4484428859851
 30
0.0
 10
126.4701442826186
 20
-157.3891872436388
 30
0.0
 10
126.4701442826186
 20
-157.1035888279116
 30
0.0
 10
126.4701442826186
 20
-156.8793131118218
 30
0.0
 10
126.3306179154659
 20
-156.7818169095892
 30
0.0
 10
126.1952256628956
 20
-156.7818169095892
 30
0.0
  0
SPLINE
  5
D7
330
D0
100
AcDbEntity
  8
レイヤー 1
100
AcDbSpline
210
0.0
220
0.0
230
1.0
 70
     9
 71
     3
 72
    32
 73
    28
 74
     0
 42
0.0000000001
 43
0.0000000001
 40
0.0
 40
0.0
 40
0.0
 40
0.0
 40
1.0
 40
1.0
 40
1.0
 40
2.0
 40
2.0
 40
2.0
 40
3.0
 40
3.0
 40
3.0
 40
4.0
 40
4.0
 40
4.0
 40
5.0
 40
5.0
 40
5.0
 40
6.0
 40
6.0
 40
6.0
 40
7.0
 40
7.0
 40
7.0
 40
8.0
 40
8.0
 40
8.0
 40
9.0
 40
9.0
 40
9.0
 40
9.0
 10
126.1780001854694
 20
-157.640679214062
 30
0.0
 10
125.661924881779
 20
-157.640679214062
 30
0.0
 10
125.6536566526143
 20
-157.0867078600339
 30
0.0
 10
125.6536566526143
 20
-156.8727674303999
 30
0.0
 10
125.6536566526143
 20
-156.6422905424366
 30
0.0
 10
125.6726046777832
 20
-155.9949571007582
 30
0.0
 10
126.2162407453556
 20
-155.9949571007582
 30
0.0
 10
126.3895290482637
 20
-155.9949571007582
 30
0.0
 10
126.635164356362
 20
-156.0648925391088
 30
0.0
 10
126.6730604066998
 20
-156.3969997438868
 30
0.0
 10
126.6730604066998
 20
-156.3969997438868
 30
0.0
 10
126.4594644866143
 20
-156.3969997438868
 30
0.0
 10
126.4594644866143
 20
-156.3969997438868
 30
0.0
 10
126.44878469061
 20
-156.3398111588317
 30
0.0
 10
126.4170898121457
 20
-156.191672052966
 30
0.0
 10
126.2141736880645
 20
-156.191672052966
 30
0.0
 10
125.9220295909153
 20
-156.191672052966
 30
0.0
 10
125.8820664832864
 20
-156.5196451431617
 30
0.0
 10
125.869319629991
 20
-156.7246283245341
 30
0.0
 10
125.9623372080927
 20
-156.6464246570189
 30
0.0
 10
126.0302055891521
 20
-156.5871690146726
 30
0.0
 10
126.2121066307733
 20
-156.5871690146726
 30
0.0
 10
126.3919406151034
 20
-156.5871690146726
 30
0.0
 10
126.6944199987083
 20
-156.6953450129095
 30
0.0
 10
126.6944199987083
 20
-157.1015217706204
 30
0.0
 10
126.6944199987083
 20
-157.4208821221031
 30
0.0
 10
126.4956379892094
 20
-157.640679214062
 30
0.0
 10
126.1780001854694
 20
-157.640679214062
 30
0.0
  0
HATCH
  5
D8
330
D0
100
AcDbEntity
  8
レイヤー 1
 62
   250
420
  2299925
440
 33554687
100
AcDbHatch
 10
0.0
 20
0.0
 30
0.0
210
0.0
220
0.0
230
1.0
  2
SOLID
 70
     1
 71
     1
 91
        2
 92
        1
 93
        1
 72
     4
 94
        3
 73
     0
 74
     0
 95
       17
 96
       13
 40
0.0
 40
0.0
 40
0.0
 40
0.0
 40
1.0
 40
1.0
 40
1.0
 40
2.0
 40
2.0
 40
2.0
 40
3.0
 40
3.0
 40
3.0
 40
4.0
 40
4.0
 40
4.0
 40
4.0
 10
126.1952256628956
 20
-156.7818169095892
 10
125.9327093869196
 20
-156.7818169095892
 10
125.8948133365818
 20
-156.9933457723836
 10
125.8948133365818
 20
-157.109789999785
 10
125.8948133365818
 20
-157.2854898695328
 10
125.9898979719747
 20
-157.4484428859851
 10
126.1738660708871
 20
-157.4484428859851
 10
126.2944444128708
 20
-157.4484428859851
 10
126.4701442826186
 20
-157.3891872436388
 10
126.4701442826186
 20
-157.1035888279116
 10
126.4701442826186
 20
-156.8793131118218
 10
126.3306179154659
 20
-156.7818169095892
 10
126.1952256628956
 20
-156.7818169095892
 97
        0
 97
        1
330
D6
 92
        1
 93
        1
 72
     4
 94
        3
 73
     0
 74
     0
 95
       32
 96
       28
 40
0.0
 40
0.0
 40
0.0
 40
0.0
 40
1.0
 40
1.0
 40
1.0
 40
2.0
 40
2.0
 40
2.0
 40
3.0
 40
3.0
 40
3.0
 40
4.0
 40
4.0
 40
4.0
 40
5.0
 40
5.0
 40
5.0
 40
6.0
 40
6.0
 40
6.0
 40
7.0
 40
7.0
 40
7.0
 40
8.0
 40
8.0
 40
8.0
 40
9.0
 40
9.0
 40
9.0
 40
9.0
 10
126.1780001854694
 20
-157.640679214062
 10
125.661924881779
 20
-157.640679214062
 10
125.6536566526143
 20
-157.0867078600339
 10
125.6536566526143
 20
-156.8727674303999
 10
125.6536566526143
 20
-156.6422905424366
 10
125.6726046777832
 20
-155.9949571007582
 10
126.2162407453556
 20
-155.9949571007582
 10
126.3895290482637
 20
-155.9949571007582
 10
126.635164356362
 20
-156.0648925391088
 10
126.6730604066998
 20
-156.3969997438868
 10
126.6730604066998
 20
-156.3969997438868
 10
126.4594644866143
 20
-156.3969997438868
 10
126.4594644866143
 20
-156.3969997438868
 10
126.44878469061
 20
-156.3398111588317
 10
126.4170898121457
 20
-156.191672052966
 10
126.2141736880645
 20
-156.191672052966
 10
125.9220295909153
 20
-156.191672052966
 10
125.8820664832864
 20
-156.5196451431617
 10
125.869319629991
 20
-156.7246283245341
 10
125.9623372080927
 20
-156.6464246570189
 10
126.0302055891521
 20
-156.5871690146726
 10
126.2121066307733
 20
-156.5871690146726
 10
126.3919406151034
 20
-156.5871690146726
 10
126.6944199987083
 20
-156.6953450129095
 10
126.6944199987083
 20
-157.1015217706204
 10
126.6944199987083
 20
-157.4208821221031
 10
126.4956379892094
 20
-157.640679214062
 10
126.1780001854694
 20
-157.640679214062
 97
        0
 97
        1
330
D7
 75
     2
 76
     1
 98
        1
 10
0.0
 20
0.0
450
        0
451
        0
460
0.0
461
0.0
452
        0
462
0.0
453
        0
470

  0
ENDBLK
  5
D3
330
D0
100
AcDbEntity
  8
0
100
AcDbBlockEnd
  0
BLOCK
  5
DC
330
DA
100
AcDbEntity
  8
0
100
AcDbBlockBegin
  2
Block_8
 70
     0
 10
0.0
 20
0.0
 30
0.0
  3
Block_8
  1

  0
INSERT
  5
DF
330
DA
100
AcDbEntity
  8
レイヤー 1
100
AcDbBlockReference
  2
Block_9
 10
0.0
 20
0.0
 30
0.0
  0
ENDBLK
  5
DD
330
DA
100
AcDbEntity
  8
0
100
AcDbBlockEnd
  0
BLOCK
  5
E0
330
DE
100
AcDbEntity
  8
0
100
AcDbBlockBegin
  2
Block_9
 70
     0
 10
0.0
 20
0.0
 30
0.0
  3
Block_9
  1

  0
SPLINE
  5
E2
330
DE
100
AcDbEntity
  8
レイヤー 1
100
AcDbSpline
210
0.0
220
0.0
230
1.0
 70
     9
 71
     3
 72
    17
 73
    13
 74
     0
 42
0.0000000001
 43
0.0000000001
 40
0.0
 40
0.0
 40
0.0
 40
0.0
 40
1.0
 40
1.0
 40
1.0
 40
2.0
 40
2.0
 40
2.0
 40
3.0
 40
3.0
 40
3.0
 40
4.0
 40
4.0
 40
4.0
 40
4.0
 10
99.57635088656425
 20
-143.7209431606843
 30
0.0
 10
99.55946991868653
 20
-143.7505709818575
 30
0.0
 10
99.50882701505335
 20
-143.8435885599592
 30
0.0
 10
99.49814721904907
 20
-143.8628810946766
 30
0.0
 10
99.6886609993834
 20
-143.9221367370229
 30
0.0
 10
99.70967608184341
 20
-143.9283379088964
 30
0.0
 10
99.78167857748514
 20
-143.9558986727784
 30
0.0
 10
99.83680010524913
 20
-143.8690822665501
 30
0.0
 10
99.85988224500031
 20
-143.7950127136172
 30
0.0
 10
99.87469615558689
 20
-143.7209431606843
 30
0.0
 10
99.87469615558689
 20
-143.7209431606843
 30
0.0
 10
99.57635088656425
 20
-143.7209431606843
 30
0.0
 10
99.57635088656425
 20
-143.7209431606843
 30
0.0
  0
SPLINE
  5
E3
330
DE
100
AcDbEntity
  8
レイヤー 1
100
AcDbSpline
210
0.0
220
0.0
230
1.0
 70
    11
 71
     3
 72
    20
 73
    16
 74
     0
 42
0.0000000001
 43
0.0000000001
 40
0.0
 40
0.0
 40
0.0
 40
0.0
 40
1.0
 40
1.0
 40
1.0
 40
2.0
 40
2.0
 40
2.0
 40
3.0
 40
3.0
 40
3.0
 40
4.0
 40
4.0
 40
4.0
 40
5.0
 40
5.0
 40
5.0
 40
5.0
 10
99.51296112963566
 20
-142.8706935949247
 30
0.0
 10
99.51296112963566
 20
-142.8706935949247
 30
0.0
 10
99.48126625117135
 20
-142.8706935949247
 30
0.0
 10
99.48126625117135
 20
-142.8706935949247
 30
0.0
 10
99.52777504022222
 20
-142.9699123448999
 30
0.0
 10
99.55946991868653
 20
-143.0505275792547
 30
0.0
 10
99.59323185444198
 20
-143.1773070931119
 30
0.0
 10
99.59323185444198
 20
-143.1773070931119
 30
0.0
 10
99.80062660265403
 20
-143.1773070931119
 30
0.0
 10
99.80062660265403
 20
-143.1773070931119
 30
0.0
 10
99.83232148111831
 20
-143.0842895150102
 30
0.0
 10
99.855748130418
 20
-142.999540166073
 30
0.0
 10
99.8788302701692
 20
-142.8706935949247
 30
0.0
 10
99.8788302701692
 20
-142.8706935949247
 30
0.0
 10
99.51296112963566
 20
-142.8706935949247
 30
0.0
 10
99.51296112963566
 20
-142.8706935949247
 30
0.0
  0
SPLINE
  5
E4
330
DE
100
AcDbEntity
  8
レイヤー 1
100
AcDbSpline
210
0.0
220
0.0
230
1.0
 70
     9
 71
     3
 72
   242
 73
   238
 74
     0
 42
0.0000000001
 43
0.0000000001
 40
0.0
 40
0.0
 40
0.0
 40
0.0
 40
1.0
 40
1.0
 40
1.0
 40
2.0
 40
2.0
 40
2.0
 40
3.0
 40
3.0
 40
3.0
 40
4.0
 40
4.0
 40
4.0
 40
5.0
 40
5.0
 40
5.0
 40
6.0
 40
6.0
 40
6.0
 40
7.0
 40
7.0
 40
7.0
 40
8.0
 40
8.0
 40
8.0
 40
9.0
 40
9.0
 40
9.0
 40
10.0
 40
10.0
 40
10.0
 40
11.0
 40
11.0
 40
11.0
 40
12.0
 40
12.0
 40
12.0
 40
13.0
 40
13.0
 40
13.0
 40
14.0
 40
14.0
 40
14.0
 40
15.0
 40
15.0
 40
15.0
 40
16.0
 40
16.0
 40
16.0
 40
17.0
 40
17.0
 40
17.0
 40
18.0
 40
18.0
 40
18.0
 40
19.0
 40
19.0
 40
19.0
 40
20.0
 40
20.0
 40
20.0
 40
21.0
 40
21.0
 40
21.0
 40
22.0
 40
22.0
 40
22.0
 40
23.0
 40
23.0
 40
23.0
 40
24.0
 40
24.0
 40
24.0
 40
25.0
 40
25.0
 40
25.0
 40
26.0
 40
26.0
 40
26.0
 40
27.0
 40
27.0
 40
27.0
 40
28.0
 40
28.0
 40
28.0
 40
29.0
 40
29.0
 40
29.0
 40
30.0
 40
30.0
 40
30.0
 40
31.0
 40
31.0
 40
31.0
 40
32.0
 40
32.0
 40
32.0
 40
33.0
 40
33.0
 40
33.0
 40
34.0
 40
34.0
 40
34.0
 40
35.0
 40
35.0
 40
35.0
 40
36.0
 40
36.0
 40
36.0
 40
37.0
 40
37.0
 40
37.0
 40
38.0
 40
38.0
 40
38.0
 40
39.0
 40
39.0
 40
39.0
 40
40.0
 40
40.0
 40
40.0
 40
41.0
 40
41.0
 40
41.0
 40
42.0
 40
42.0
 40
42.0
 40
43.0
 40
43.0
 40
43.0
 40
44.0
 40
44.0
 40
44.0
 40
45.0
 40
45.0
 40
45.0
 40
46.0
 40
46.0
 40
46.0
 40
47.0
 40
47.0
 40
47.0
 40
48.0
 40
48.0
 40
48.0
 40
49.0
 40
49.0
 40
49.0
 40
50.0
 40
50.0
 40
50.0
 40
51.0
 40
51.0
 40
51.0
 40
52.0
 40
52.0
 40
52.0
 40
53.0
 40
53.0
 40
53.0
 40
54.0
 40
54.0
 40
54.0
 40
55.0
 40
55.0
 40
55.0
 40
56.0
 40
56.0
 40
56.0
 40
57.0
 40
57.0
 40
57.0
 40
58.0
 40
58.0
 40
58.0
 40
59.0
 40
59.0
 40
59.0
 40
60.0
 40
60.0
 40
60.0
 40
61.0
 40
61.0
 40
61.0
 40
62.0
 40
62.0
 40
62.0
 40
63.0
 40
63.0
 40
63.0
 40
64.0
 40
64.0
 40
64.0
 40
65.0
 40
65.0
 40
65.0
 40
66.0
 40
66.0
 40
66.0
 40
67.0
 40
67.0
 40
67.0
 40
68.0
 40
68.0
 40
68.0
 40
69.0
 40
69.0
 40
69.0
 40
70.0
 40
70.0
 40
70.0
 40
71.0
 40
71.0
 40
71.0
 40
72.0
 40
72.0
 40
72.0
 40
73.0
 40
73.0
 40
73.0
 40
74.0
 40
74.0
 40
74.0
 40
75.0
 40
75.0
 40
75.0
 40
76.0
 40
76.0
 40
76.0
 40
77.0
 40
77.0
 40
77.0
 40
78.0
 40
78.0
 40
78.0
 40
79.0
 40
79.0
 40
79.0
 40
79.0
 10
100.1413465461452
 20
-143.3361259949819
 30
0.0
 10
100.1413465461452
 20
-143.3361259949819
 30
0.0
 10
99.88744300888232
 20
-143.3361259949819
 30
0.0
 10
99.88744300888232
 20
-143.3361259949819
 30
0.0
 10
99.88744300888232
 20
-143.3361259949819
 30
0.0
 10
99.61045733186821
 20
-143.3361259949819
 30
0.0
 10
99.61045733186821
 20
-143.3361259949819
 30
0.0
 10
99.61045733186821
 20
-143.3361259949819
 30
0.0
 10
99.73723684572542
 20
-143.3785006694505
 30
0.0
 10
99.73723684572542
 20
-143.3785006694505
 30
0.0
 10
99.74791664172968
 20
-143.3826347840328
 30
0.0
 10
99.76066349502511
 20
-143.3888359559063
 30
0.0
 10
99.76066349502511
 20
-143.4015828092017
 30
0.0
 10
99.76066349502511
 20
-143.4225978916617
 30
0.0
 10
99.7286241070123
 20
-143.4291435730837
 30
0.0
 10
99.70760902455227
 20
-143.433277687666
 30
0.0
 10
99.696929228548
 20
-143.4567043369657
 30
0.0
 10
99.66730140737485
 20
-143.5221611511854
 30
0.0
 10
99.64835338220597
 20
-143.5666028829451
 30
0.0
 10
99.64835338220597
 20
-143.5666028829451
 30
0.0
 10
99.91913788734661
 20
-143.5666028829451
 30
0.0
 10
99.91913788734661
 20
-143.5666028829451
 30
0.0
 10
100.0100884081572
 20
-143.5666028829451
 30
0.0
 10
100.206803360365
 20
-143.5624687683628
 30
0.0
 10
100.3487412943572
 20
-143.5538560296497
 30
0.0
 10
100.3487412943572
 20
-143.5538560296497
 30
0.0
 10
100.3487412943572
 20
-143.7316229566886
 30
0.0
 10
100.3487412943572
 20
-143.7316229566886
 30
0.0
 10
100.2660590027113
 20
-143.7274888421063
 30
0.0
 10
100.2450439202512
 20
-143.7274888421063
 30
0.0
 10
100.0652099359212
 20
-143.7230102179755
 30
0.0
 10
100.0335150574569
 20
-143.8776950052632
 30
0.0
 10
99.98907332569718
 20
-143.9579657300695
 30
0.0
 10
99.94463159393745
 20
-144.0279011684201
 30
0.0
 10
100.0652099359212
 20
-144.0871568107664
 30
0.0
 10
100.1709743673183
 20
-144.1546806822773
 30
0.0
 10
100.2746717414244
 20
-144.2373629739233
 30
0.0
 10
100.2746717414244
 20
-144.2373629739233
 30
0.0
 10
100.1561604567318
 20
-144.4044501049579
 30
0.0
 10
100.1561604567318
 20
-144.4044501049579
 30
0.0
 10
100.1327338074321
 20
-144.3851575702405
 30
0.0
 10
100.1199869541367
 20
-144.3768893410759
 30
0.0
 10
100.008021350866
 20
-144.2921399921387
 30
0.0
 10
99.95944550452403
 20
-144.254243941801
 30
0.0
 10
99.90018986217775
 20
-144.2180704392059
 30
0.0
 10
99.8195746278229
 20
-144.1736287074461
 30
0.0
 10
99.60804576502855
 20
-144.3600083731982
 30
0.0
 10
99.40306258365618
 20
-144.3830905129494
 30
0.0
 10
99.11298554379815
 20
-144.4127183341225
 30
0.0
 10
99.11298554379815
 20
-144.4127183341225
 30
0.0
 10
99.00963267924066
 20
-144.2328843497924
 30
0.0
 10
99.00963267924066
 20
-144.2328843497924
 30
0.0
 10
99.32692597343217
 20
-144.2287502352102
 30
0.0
 10
99.50228133363138
 20
-144.2032565286193
 30
0.0
 10
99.65455455407942
 20
-144.0933579826398
 30
0.0
 10
99.53638777893536
 20
-144.0427150790067
 30
0.0
 10
99.44750431541592
 20
-144.0151543151247
 30
0.0
 10
99.41133081282078
 20
-144.0024074618293
 30
0.0
 10
99.39238278765191
 20
-144.0299682257112
 30
0.0
 10
99.37756887706534
 20
-144.0489162508801
 30
0.0
 10
99.35000811318333
 20
-144.0826781866356
 30
0.0
 10
99.35000811318333
 20
-144.0826781866356
 30
0.0
 10
99.15329316097556
 20
-144.0003404045381
 30
0.0
 10
99.15329316097556
 20
-144.0003404045381
 30
0.0
 10
99.23597545262156
 20
-143.9200696797318
 30
0.0
 10
99.29729815225902
 20
-143.8246405347904
 30
0.0
 10
99.35414222776564
 20
-143.7230102179755
 30
0.0
 10
99.16397295697985
 20
-143.7274888421063
 30
0.0
 10
99.1426133649713
 20
-143.7274888421063
 30
0.0
 10
99.06027558287384
 20
-143.7316229566886
 30
0.0
 10
99.06027558287384
 20
-143.7316229566886
 30
0.0
 10
99.06027558287384
 20
-143.5538560296497
 30
0.0
 10
99.06027558287384
 20
-143.5538560296497
 30
0.0
 10
99.19980195002644
 20
-143.5604017110717
 30
0.0
 10
99.40926375552963
 20
-143.564535825654
 30
0.0
 10
99.43475746212049
 20
-143.564535825654
 30
0.0
 10
99.45163842999821
 20
-143.5307738898985
 30
0.0
 10
99.5067599577622
 20
-143.4101955479148
 30
0.0
 10
99.52570798293109
 20
-143.3361259949819
 30
0.0
 10
99.5067599577622
 20
-143.3361259949819
 30
0.0
 10
99.32899303072332
 20
-143.3423271668554
 30
0.0
 10
99.1343451358067
 20
-143.3550740201508
 30
0.0
 10
99.1343451358067
 20
-143.3550740201508
 30
0.0
 10
99.1343451358067
 20
-143.48839921543
 30
0.0
 10
99.1343451358067
 20
-143.48839921543
 30
0.0
 10
99.08576928946468
 20
-143.5135484124723
 30
0.0
 10
99.02651364711838
 20
-143.5455878004851
 30
0.0
 10
98.89318845183922
 20
-143.6110446147049
 30
0.0
 10
98.89318845183922
 20
-143.6110446147049
 30
0.0
 10
98.89318845183922
 20
-143.7571166632795
 30
0.0
 10
98.89318845183922
 20
-143.7571166632795
 30
0.0
 10
98.89318845183922
 20
-143.7571166632795
 30
0.0
 10
98.89318845183922
 20
-144.2246161206278
 30
0.0
 10
98.89318845183922
 20
-144.2246161206278
 30
0.0
 10
98.89318845183922
 20
-144.351395634485
 30
0.0
 10
98.85701494924409
 20
-144.4106512768313
 30
0.0
 10
98.57382810035655
 20
-144.4023830476667
 30
0.0
 10
98.57382810035655
 20
-144.4023830476667
 30
0.0
 10
98.47013072625053
 20
-144.1949882994547
 30
0.0
 10
98.47013072625053
 20
-144.1949882994547
 30
0.0
 10
98.53352048317912
 20
-144.2077351527501
 30
0.0
 10
98.58209632952116
 20
-144.2118692673324
 30
0.0
 10
98.62240394669857
 20
-144.2118692673324
 30
0.0
 10
98.69854055692259
 20
-144.2118692673324
 30
0.0
 10
98.70922035292686
 20
-144.1884426180327
 30
0.0
 10
98.70922035292686
 20
-144.122985803813
 30
0.0
 10
98.70922035292686
 20
-144.122985803813
 30
0.0
 10
98.70922035292686
 20
-143.6933823968023
 30
0.0
 10
98.70922035292686
 20
-143.6933823968023
 30
0.0
 10
98.61172415069431
 20
-143.7336900139797
 30
0.0
 10
98.59484318281658
 20
-143.7402356954017
 30
0.0
 10
98.54833439376569
 20
-143.7591837205706
 30
0.0
 10
98.5442002791834
 20
-143.7801988030306
 30
0.0
 10
98.53972165505258
 20
-143.8098266242038
 30
0.0
 10
98.52077362988371
 20
-143.8098266242038
 30
0.0
 10
98.51250540071911
 20
-143.8098266242038
 30
0.0
 10
98.50182560471482
 20
-143.8056925096215
 30
0.0
 10
98.49527992329285
 20
-143.7822658603218
 30
0.0
 10
98.49527992329285
 20
-143.7822658603218
 30
0.0
 10
98.44256996236852
 20
-143.5900295322448
 30
0.0
 10
98.44256996236852
 20
-143.5900295322448
 30
0.0
 10
98.58864201094313
 20
-143.5431762336454
 30
0.0
 10
98.65409882516287
 20
-143.5200940938943
 30
0.0
 10
98.70922035292686
 20
-143.4990790114343
 30
0.0
 10
98.70922035292686
 20
-143.4990790114343
 30
0.0
 10
98.70922035292686
 20
-143.0863565723013
 30
0.0
 10
98.70922035292686
 20
-143.0863565723013
 30
0.0
 10
98.70922035292686
 20
-143.0863565723013
 30
0.0
 10
98.65616588245401
 20
-143.0863565723013
 30
0.0
 10
98.65616588245401
 20
-143.0863565723013
 30
0.0
 10
98.65616588245401
 20
-143.0863565723013
 30
0.0
 10
98.57796221493885
 20
-143.0863565723013
 30
0.0
 10
98.57796221493885
 20
-143.0863565723013
 30
0.0
 10
98.51009383387943
 20
-143.0863565723013
 30
0.0
 10
98.50182560471482
 20
-143.0863565723013
 30
0.0
 10
98.4656521021197
 20
-143.0929022537233
 30
0.0
 10
98.4656521021197
 20
-143.0929022537233
 30
0.0
 10
98.4656521021197
 20
-142.8982543588067
 30
0.0
 10
98.4656521021197
 20
-142.8982543588067
 30
0.0
 10
98.4932128660017
 20
-142.9044555306801
 30
0.0
 10
98.50182560471482
 20
-142.9044555306801
 30
0.0
 10
98.57141653351687
 20
-142.9044555306801
 30
0.0
 10
98.57141653351687
 20
-142.9044555306801
 30
0.0
 10
98.70474172879603
 20
-142.9044555306801
 30
0.0
 10
98.70474172879603
 20
-142.9044555306801
 30
0.0
 10
98.70474172879603
 20
-142.8345200923295
 30
0.0
 10
98.70474172879603
 20
-142.7521823102321
 30
0.0
 10
98.7026746715049
 20
-142.7480481956498
 30
0.0
 10
98.6944064423403
 20
-142.5682142113197
 30
0.0
 10
98.6944064423403
 20
-142.5489216766023
 30
0.0
 10
98.69199487550062
 20
-142.5024128875515
 30
0.0
 10
98.69199487550062
 20
-142.5024128875515
 30
0.0
 10
98.90800236242577
 20
-142.5110256262646
 30
0.0
 10
98.90800236242577
 20
-142.5110256262646
 30
0.0
 10
98.91868215843006
 20
-142.5110256262646
 30
0.0
 10
98.93969724089009
 20
-142.5130926835557
 30
0.0
 10
98.93969724089009
 20
-142.5299736514335
 30
0.0
 10
98.93969724089009
 20
-142.5489216766023
 30
0.0
 10
98.9248833303035
 20
-142.5596014726066
 30
0.0
 10
98.89938962371266
 20
-142.5785494977755
 30
0.0
 10
98.89938962371266
 20
-142.6295369109572
 30
0.0
 10
98.89318845183922
 20
-142.8579467416292
 30
0.0
 10
98.89525550913035
 20
-142.9044555306801
 30
0.0
 10
99.02444658982723
 20
-142.9044555306801
 30
0.0
 10
99.03684893357413
 20
-142.9044555306801
 30
0.0
 10
99.1343451358067
 20
-142.895842791967
 30
0.0
 10
99.1343451358067
 20
-142.895842791967
 30
0.0
 10
99.1343451358067
 20
-143.0904906868836
 30
0.0
 10
99.1343451358067
 20
-143.0904906868836
 30
0.0
 10
99.09610457592043
 20
-143.0884236295925
 30
0.0
 10
99.02858070440952
 20
-143.0842895150102
 30
0.0
 10
98.89318845183922
 20
-143.0863565723013
 30
0.0
 10
98.89318845183922
 20
-143.0863565723013
 30
0.0
 10
98.89318845183922
 20
-143.4250094585014
 30
0.0
 10
98.89318845183922
 20
-143.4250094585014
 30
0.0
 10
98.94830997960321
 20
-143.4015828092017
 30
0.0
 10
99.01376679382295
 20
-143.3740220453197
 30
0.0
 10
99.06234264016497
 20
-143.3509399055685
 30
0.0
 10
99.06234264016497
 20
-143.3509399055685
 30
0.0
 10
99.06234264016497
 20
-143.1731729785296
 30
0.0
 10
99.06234264016497
 20
-143.1731729785296
 30
0.0
 10
99.17671981027528
 20
-143.185919831825
 30
0.0
 10
99.29523109496786
 20
-143.185919831825
 30
0.0
 10
99.41133081282078
 20
-143.185919831825
 30
0.0
 10
99.38824867306962
 20
-143.0904906868836
 30
0.0
 10
99.3606879091876
 20
-143.0081529047861
 30
0.0
 10
99.29729815225902
 20
-142.874827709507
 30
0.0
 10
99.25285642049928
 20
-142.8768947667981
 30
0.0
 10
99.17017412885329
 20
-142.8810288813804
 30
0.0
 10
99.13227807851555
 20
-142.8834404482201
 30
0.0
 10
99.13227807851555
 20
-142.8834404482201
 30
0.0
 10
99.13227807851555
 20
-142.7036064638901
 30
0.0
 10
99.13227807851555
 20
-142.7036064638901
 30
0.0
 10
99.25699053508159
 20
-142.7118746930547
 30
0.0
 10
99.43062334753818
 20
-142.7160088076369
 30
0.0
 10
99.51296112963566
 20
-142.7160088076369
 30
0.0
 10
99.51296112963566
 20
-142.7160088076369
 30
0.0
 10
99.59564342128166
 20
-142.7160088076369
 30
0.0
 10
99.59564342128166
 20
-142.7160088076369
 30
0.0
 10
99.59564342128166
 20
-142.5534003007332
 30
0.0
 10
99.59564342128166
 20
-142.5427205047289
 30
0.0
 10
99.59323185444198
 20
-142.4875989769649
 30
0.0
 10
99.59323185444198
 20
-142.4875989769649
 30
0.0
 10
99.81750757053175
 20
-142.5130926835557
 30
0.0
 10
99.81750757053175
 20
-142.5130926835557
 30
0.0
 10
99.82198619466256
 20
-142.5130926835557
 30
0.0
 10
99.84300127712259
 20
-142.5151597408469
 30
0.0
 10
99.84300127712259
 20
-142.5320407087246
 30
0.0
 10
99.84300127712259
 20
-142.5468546193112
 30
0.0
 10
99.83232148111831
 20
-142.5554673580243
 30
0.0
 10
99.80476071723632
 20
-142.5702812686109
 30
0.0
 10
99.79855954536287
 20
-142.6357380828306
 30
0.0
 10
99.79649248807172
 20
-142.6570976748392
 30
0.0
 10
99.79649248807172
 20
-142.7160088076369
 30
0.0
 10
99.79649248807172
 20
-142.7160088076369
 30
0.0
 10
99.89157712346461
 20
-142.7160088076369
 30
0.0
 10
99.89157712346461
 20
-142.7160088076369
 30
0.0
 10
99.9742594151106
 20
-142.7160088076369
 30
0.0
 10
100.1475477180187
 20
-142.7118746930547
 30
0.0
 10
100.2726046841332
 20
-142.7036064638901
 30
0.0
 10
100.2726046841332
 20
-142.7036064638901
 30
0.0
 10
100.2726046841332
 20
-142.8834404482201
 30
0.0
 10
100.2726046841332
 20
-142.8834404482201
 30
0.0
 10
100.2429768629601
 20
-142.8810288813804
 30
0.0
 10
100.1244655782675
 20
-142.8768947667981
 30
0.0
 10
100.08415796109
 20
-142.874827709507
 30
0.0
 10
100.0693440505035
 20
-142.9254706131401
 30
0.0
 10
100.035582114748
 20
-143.0377807259593
 30
0.0
 10
99.96978079097978
 20
-143.1773070931119
 30
0.0
 10
100.0121554654483
 20
-143.1773070931119
 30
0.0
 10
100.2894856520109
 20
-143.158359067943
 30
0.0
 10
100.3508083516484
 20
-143.1562920106519
 30
0.0
 10
100.3508083516484
 20
-143.1562920106519
 30
0.0
 10
100.3508083516484
 20
-143.3402601095642
 30
0.0
 10
100.3508083516484
 20
-143.3402601095642
 30
0.0
 10
100.3211805304752
 20
-143.3402601095642
 30
0.0
 10
100.3042995625975
 20
-143.3361259949819
 30
0.0
 10
100.1413465461452
 20
-143.3361259949819
 30
0.0
  0
HATCH
  5
E5
330
DE
100
AcDbEntity
  8
レイヤー 1
 62
   250
420
  2299925
440
 33554687
100
AcDbHatch
 10
0.0
 20
0.0
 30
0.0
210
0.0
220
0.0
230
1.0
  2
SOLID
 70
     1
 71
     1
 91
        3
 92
        1
 93
        1
 72
     4
 94
        3
 73
     0
 74
     0
 95
       17
 96
       13
 40
0.0
 40
0.0
 40
0.0
 40
0.0
 40
1.0
 40
1.0
 40
1.0
 40
2.0
 40
2.0
 40
2.0
 40
3.0
 40
3.0
 40
3.0
 40
4.0
 40
4.0
 40
4.0
 40
4.0
 10
99.57635088656425
 20
-143.7209431606843
 10
99.55946991868653
 20
-143.7505709818575
 10
99.50882701505335
 20
-143.8435885599592
 10
99.49814721904907
 20
-143.8628810946766
 10
99.6886609993834
 20
-143.9221367370229
 10
99.70967608184341
 20
-143.9283379088964
 10
99.78167857748514
 20
-143.9558986727784
 10
99.83680010524913
 20
-143.8690822665501
 10
99.85988224500031
 20
-143.7950127136172
 10
99.87469615558689
 20
-143.7209431606843
 10
99.87469615558689
 20
-143.7209431606843
 10
99.57635088656425
 20
-143.7209431606843
 10
99.57635088656425
 20
-143.7209431606843
 97
        0
 97
        1
330
E2
 92
        1
 93
        1
 72
     4
 94
        3
 73
     0
 74
     0
 95
       20
 96
       16
 40
0.0
 40
0.0
 40
0.0
 40
0.0
 40
1.0
 40
1.0
 40
1.0
 40
2.0
 40
2.0
 40
2.0
 40
3.0
 40
3.0
 40
3.0
 40
4.0
 40
4.0
 40
4.0
 40
5.0
 40
5.0
 40
5.0
 40
5.0
 10
99.51296112963566
 20
-142.8706935949247
 10
99.51296112963566
 20
-142.8706935949247
 10
99.48126625117135
 20
-142.8706935949247
 10
99.48126625117135
 20
-142.8706935949247
 10
99.52777504022222
 20
-142.9699123448999
 10
99.55946991868653
 20
-143.0505275792547
 10
99.59323185444198
 20
-143.1773070931119
 10
99.59323185444198
 20
-143.1773070931119
 10
99.80062660265403
 20
-143.1773070931119
 10
99.80062660265403
 20
-143.1773070931119
 10
99.83232148111831
 20
-143.0842895150102
 10
99.855748130418
 20
-142.999540166073
 10
99.8788302701692
 20
-142.8706935949247
 10
99.8788302701692
 20
-142.8706935949247
 10
99.51296112963566
 20
-142.8706935949247
 10
99.51296112963566
 20
-142.8706935949247
 97
        0
 97
        1
330
E3
 92
        1
 93
        1
 72
     4
 94
        3
 73
     0
 74
     0
 95
      242
 96
      238
 40
0.0
 40
0.0
 40
0.0
 40
0.0
 40
1.0
 40
1.0
 40
1.0
 40
2.0
 40
2.0
 40
2.0
 40
3.0
 40
3.0
 40
3.0
 40
4.0
 40
4.0
 40
4.0
 40
5.0
 40
5.0
 40
5.0
 40
6.0
 40
6.0
 40
6.0
 40
7.0
 40
7.0
 40
7.0
 40
8.0
 40
8.0
 40
8.0
 40
9.0
 40
9.0
 40
9.0
 40
10.0
 40
10.0
 40
10.0
 40
11.0
 40
11.0
 40
11.0
 40
12.0
 40
12.0
 40
12.0
 40
13.0
 40
13.0
 40
13.0
 40
14.0
 40
14.0
 40
14.0
 40
15.0
 40
15.0
 40
15.0
 40
16.0
 40
16.0
 40
16.0
 40
17.0
 40
17.0
 40
17.0
 40
18.0
 40
18.0
 40
18.0
 40
19.0
 40
19.0
 40
19.0
 40
20.0
 40
20.0
 40
20.0
 40
21.0
 40
21.0
 40
21.0
 40
22.0
 40
22.0
 40
22.0
 40
23.0
 40
23.0
 40
23.0
 40
24.0
 40
24.0
 40
24.0
 40
25.0
 40
25.0
 40
25.0
 40
26.0
 40
26.0
 40
26.0
 40
27.0
 40
27.0
 40
27.0
 40
28.0
 40
28.0
 40
28.0
 40
29.0
 40
29.0
 40
29.0
 40
30.0
 40
30.0
 40
30.0
 40
31.0
 40
31.0
 40
31.0
 40
32.0
 40
32.0
 40
32.0
 40
33.0
 40
33.0
 40
33.0
 40
34.0
 40
34.0
 40
34.0
 40
35.0
 40
35.0
 40
35.0
 40
36.0
 40
36.0
 40
36.0
 40
37.0
 40
37.0
 40
37.0
 40
38.0
 40
38.0
 40
38.0
 40
39.0
 40
39.0
 40
39.0
 40
40.0
 40
40.0
 40
40.0
 40
41.0
 40
41.0
 40
41.0
 40
42.0
 40
42.0
 40
42.0
 40
43.0
 40
43.0
 40
43.0
 40
44.0
 40
44.0
 40
44.0
 40
45.0
 40
45.0
 40
45.0
 40
46.0
 40
46.0
 40
46.0
 40
47.0
 40
47.0
 40
47.0
 40
48.0
 40
48.0
 40
48.0
 40
49.0
 40
49.0
 40
49.0
 40
50.0
 40
50.0
 40
50.0
 40
51.0
 40
51.0
 40
51.0
 40
52.0
 40
52.0
 40
52.0
 40
53.0
 40
53.0
 40
53.0
 40
54.0
 40
54.0
 40
54.0
 40
55.0
 40
55.0
 40
55.0
 40
56.0
 40
56.0
 40
56.0
 40
57.0
 40
57.0
 40
57.0
 40
58.0
 40
58.0
 40
58.0
 40
59.0
 40
59.0
 40
59.0
 40
60.0
 40
60.0
 40
60.0
 40
61.0
 40
61.0
 40
61.0
 40
62.0
 40
62.0
 40
62.0
 40
63.0
 40
63.0
 40
63.0
 40
64.0
 40
64.0
 40
64.0
 40
65.0
 40
65.0
 40
65.0
 40
66.0
 40
66.0
 40
66.0
 40
67.0
 40
67.0
 40
67.0
 40
68.0
 40
68.0
 40
68.0
 40
69.0
 40
69.0
 40
69.0
 40
70.0
 40
70.0
 40
70.0
 40
71.0
 40
71.0
 40
71.0
 40
72.0
 40
72.0
 40
72.0
 40
73.0
 40
73.0
 40
73.0
 40
74.0
 40
74.0
 40
74.0
 40
75.0
 40
75.0
 40
75.0
 40
76.0
 40
76.0
 40
76.0
 40
77.0
 40
77.0
 40
77.0
 40
78.0
 40
78.0
 40
78.0
 40
79.0
 40
79.0
 40
79.0
 40
79.0
 10
100.1413465461452
 20
-143.3361259949819
 10
100.1413465461452
 20
-143.3361259949819
 10
99.88744300888232
 20
-143.3361259949819
 10
99.88744300888232
 20
-143.3361259949819
 10
99.88744300888232
 20
-143.3361259949819
 10
99.61045733186821
 20
-143.3361259949819
 10
99.61045733186821
 20
-143.3361259949819
 10
99.61045733186821
 20
-143.3361259949819
 10
99.73723684572542
 20
-143.3785006694505
 10
99.73723684572542
 20
-143.3785006694505
 10
99.74791664172968
 20
-143.3826347840328
 10
99.76066349502511
 20
-143.3888359559063
 10
99.76066349502511
 20
-143.4015828092017
 10
99.76066349502511
 20
-143.4225978916617
 10
99.7286241070123
 20
-143.4291435730837
 10
99.70760902455227
 20
-143.433277687666
 10
99.696929228548
 20
-143.4567043369657
 10
99.66730140737485
 20
-143.5221611511854
 10
99.64835338220597
 20
-143.5666028829451
 10
99.64835338220597
 20
-143.5666028829451
 10
99.91913788734661
 20
-143.5666028829451
 10
99.91913788734661
 20
-143.5666028829451
 10
100.0100884081572
 20
-143.5666028829451
 10
100.206803360365
 20
-143.5624687683628
 10
100.3487412943572
 20
-143.5538560296497
 10
100.3487412943572
 20
-143.5538560296497
 10
100.3487412943572
 20
-143.7316229566886
 10
100.3487412943572
 20
-143.7316229566886
 10
100.2660590027113
 20
-143.7274888421063
 10
100.2450439202512
 20
-143.7274888421063
 10
100.0652099359212
 20
-143.7230102179755
 10
100.0335150574569
 20
-143.8776950052632
 10
99.98907332569718
 20
-143.9579657300695
 10
99.94463159393745
 20
-144.0279011684201
 10
100.0652099359212
 20
-144.0871568107664
 10
100.1709743673183
 20
-144.1546806822773
 10
100.2746717414244
 20
-144.2373629739233
 10
100.2746717414244
 20
-144.2373629739233
 10
100.1561604567318
 20
-144.4044501049579
 10
100.1561604567318
 20
-144.4044501049579
 10
100.1327338074321
 20
-144.3851575702405
 10
100.1199869541367
 20
-144.3768893410759
 10
100.008021350866
 20
-144.2921399921387
 10
99.95944550452403
 20
-144.254243941801
 10
99.90018986217775
 20
-144.2180704392059
 10
99.8195746278229
 20
-144.1736287074461
 10
99.60804576502855
 20
-144.3600083731982
 10
99.40306258365618
 20
-144.3830905129494
 10
99.11298554379815
 20
-144.4127183341225
 10
99.11298554379815
 20
-144.4127183341225
 10
99.00963267924066
 20
-144.2328843497924
 10
99.00963267924066
 20
-144.2328843497924
 10
99.32692597343217
 20
-144.2287502352102
 10
99.50228133363138
 20
-144.2032565286193
 10
99.65455455407942
 20
-144.0933579826398
 10
99.53638777893536
 20
-144.0427150790067
 10
99.44750431541592
 20
-144.0151543151247
 10
99.41133081282078
 20
-144.0024074618293
 10
99.39238278765191
 20
-144.0299682257112
 10
99.37756887706534
 20
-144.0489162508801
 10
99.35000811318333
 20
-144.0826781866356
 10
99.35000811318333
 20
-144.0826781866356
 10
99.15329316097556
 20
-144.0003404045381
 10
99.15329316097556
 20
-144.0003404045381
 10
99.23597545262156
 20
-143.9200696797318
 10
99.29729815225902
 20
-143.8246405347904
 10
99.35414222776564
 20
-143.7230102179755
 10
99.16397295697985
 20
-143.7274888421063
 10
99.1426133649713
 20
-143.7274888421063
 10
99.06027558287384
 20
-143.7316229566886
 10
99.06027558287384
 20
-143.7316229566886
 10
99.06027558287384
 20
-143.5538560296497
 10
99.06027558287384
 20
-143.5538560296497
 10
99.19980195002644
 20
-143.5604017110717
 10
99.40926375552963
 20
-143.564535825654
 10
99.43475746212049
 20
-143.564535825654
 10
99.45163842999821
 20
-143.5307738898985
 10
99.5067599577622
 20
-143.4101955479148
 10
99.52570798293109
 20
-143.3361259949819
 10
99.5067599577622
 20
-143.3361259949819
 10
99.32899303072332
 20
-143.3423271668554
 10
99.1343451358067
 20
-143.3550740201508
 10
99.1343451358067
 20
-143.3550740201508
 10
99.1343451358067
 20
-143.48839921543
 10
99.1343451358067
 20
-143.48839921543
 10
99.08576928946468
 20
-143.5135484124723
 10
99.02651364711838
 20
-143.5455878004851
 10
98.89318845183922
 20
-143.6110446147049
 10
98.89318845183922
 20
-143.6110446147049
 10
98.89318845183922
 20
-143.7571166632795
 10
98.89318845183922
 20
-143.7571166632795
 10
98.89318845183922
 20
-143.7571166632795
 10
98.89318845183922
 20
-144.2246161206278
 10
98.89318845183922
 20
-144.2246161206278
 10
98.89318845183922
 20
-144.351395634485
 10
98.85701494924409
 20
-144.4106512768313
 10
98.57382810035655
 20
-144.4023830476667
 10
98.57382810035655
 20
-144.4023830476667
 10
98.47013072625053
 20
-144.1949882994547
 10
98.47013072625053
 20
-144.1949882994547
 10
98.53352048317912
 20
-144.2077351527501
 10
98.58209632952116
 20
-144.2118692673324
 10
98.62240394669857
 20
-144.2118692673324
 10
98.69854055692259
 20
-144.2118692673324
 10
98.70922035292686
 20
-144.1884426180327
 10
98.70922035292686
 20
-144.122985803813
 10
98.70922035292686
 20
-144.122985803813
 10
98.70922035292686
 20
-143.6933823968023
 10
98.70922035292686
 20
-143.6933823968023
 10
98.61172415069431
 20
-143.7336900139797
 10
98.59484318281658
 20
-143.7402356954017
 10
98.54833439376569
 20
-143.7591837205706
 10
98.5442002791834
 20
-143.7801988030306
 10
98.53972165505258
 20
-143.8098266242038
 10
98.52077362988371
 20
-143.8098266242038
 10
98.51250540071911
 20
-143.8098266242038
 10
98.50182560471482
 20
-143.8056925096215
 10
98.49527992329285
 20
-143.7822658603218
 10
98.49527992329285
 20
-143.7822658603218
 10
98.44256996236852
 20
-143.5900295322448
 10
98.44256996236852
 20
-143.5900295322448
 10
98.58864201094313
 20
-143.5431762336454
 10
98.65409882516287
 20
-143.5200940938943
 10
98.70922035292686
 20
-143.4990790114343
 10
98.70922035292686
 20
-143.4990790114343
 10
98.70922035292686
 20
-143.0863565723013
 10
98.70922035292686
 20
-143.0863565723013
 10
98.70922035292686
 20
-143.0863565723013
 10
98.65616588245401
 20
-143.0863565723013
 10
98.65616588245401
 20
-143.0863565723013
 10
98.65616588245401
 20
-143.0863565723013
 10
98.57796221493885
 20
-143.0863565723013
 10
98.57796221493885
 20
-143.0863565723013
 10
98.51009383387943
 20
-143.0863565723013
 10
98.50182560471482
 20
-143.0863565723013
 10
98.4656521021197
 20
-143.0929022537233
 10
98.4656521021197
 20
-143.0929022537233
 10
98.4656521021197
 20
-142.8982543588067
 10
98.4656521021197
 20
-142.8982543588067
 10
98.4932128660017
 20
-142.9044555306801
 10
98.50182560471482
 20
-142.9044555306801
 10
98.57141653351687
 20
-142.9044555306801
 10
98.57141653351687
 20
-142.9044555306801
 10
98.70474172879603
 20
-142.9044555306801
 10
98.70474172879603
 20
-142.9044555306801
 10
98.70474172879603
 20
-142.8345200923295
 10
98.70474172879603
 20
-142.7521823102321
 10
98.7026746715049
 20
-142.7480481956498
 10
98.6944064423403
 20
-142.5682142113197
 10
98.6944064423403
 20
-142.5489216766023
 10
98.69199487550062
 20
-142.5024128875515
 10
98.69199487550062
 20
-142.5024128875515
 10
98.90800236242577
 20
-142.5110256262646
 10
98.90800236242577
 20
-142.5110256262646
 10
98.91868215843006
 20
-142.5110256262646
 10
98.93969724089009
 20
-142.5130926835557
 10
98.93969724089009
 20
-142.5299736514335
 10
98.93969724089009
 20
-142.5489216766023
 10
98.9248833303035
 20
-142.5596014726066
 10
98.89938962371266
 20
-142.5785494977755
 10
98.89938962371266
 20
-142.6295369109572
 10
98.89318845183922
 20
-142.8579467416292
 10
98.89525550913035
 20
-142.9044555306801
 10
99.02444658982723
 20
-142.9044555306801
 10
99.03684893357413
 20
-142.9044555306801
 10
99.1343451358067
 20
-142.895842791967
 10
99.1343451358067
 20
-142.895842791967
 10
99.1343451358067
 20
-143.0904906868836
 10
99.1343451358067
 20
-143.0904906868836
 10
99.09610457592043
 20
-143.0884236295925
 10
99.02858070440952
 20
-143.0842895150102
 10
98.89318845183922
 20
-143.0863565723013
 10
98.89318845183922
 20
-143.0863565723013
 10
98.89318845183922
 20
-143.4250094585014
 10
98.89318845183922
 20
-143.4250094585014
 10
98.94830997960321
 20
-143.4015828092017
 10
99.01376679382295
 20
-143.3740220453197
 10
99.06234264016497
 20
-143.3509399055685
 10
99.06234264016497
 20
-143.3509399055685
 10
99.06234264016497
 20
-143.1731729785296
 10
99.06234264016497
 20
-143.1731729785296
 10
99.17671981027528
 20
-143.185919831825
 10
99.29523109496786
 20
-143.185919831825
 10
99.41133081282078
 20
-143.185919831825
 10
99.38824867306962
 20
-143.0904906868836
 10
99.3606879091876
 20
-143.0081529047861
 10
99.29729815225902
 20
-142.874827709507
 10
99.25285642049928
 20
-142.8768947667981
 10
99.17017412885329
 20
-142.8810288813804
 10
99.13227807851555
 20
-142.8834404482201
 10
99.13227807851555
 20
-142.8834404482201
 10
99.13227807851555
 20
-142.7036064638901
 10
99.13227807851555
 20
-142.7036064638901
 10
99.25699053508159
 20
-142.7118746930547
 10
99.43062334753818
 20
-142.7160088076369
 10
99.51296112963566
 20
-142.7160088076369
 10
99.51296112963566
 20
-142.7160088076369
 10
99.59564342128166
 20
-142.7160088076369
 10
99.59564342128166
 20
-142.7160088076369
 10
99.59564342128166
 20
-142.5534003007332
 10
99.59564342128166
 20
-142.5427205047289
 10
99.59323185444198
 20
-142.4875989769649
 10
99.59323185444198
 20
-142.4875989769649
 10
99.81750757053175
 20
-142.5130926835557
 10
99.81750757053175
 20
-142.5130926835557
 10
99.82198619466256
 20
-142.5130926835557
 10
99.84300127712259
 20
-142.5151597408469
 10
99.84300127712259
 20
-142.5320407087246
 10
99.84300127712259
 20
-142.5468546193112
 10
99.83232148111831
 20
-142.5554673580243
 10
99.80476071723632
 20
-142.5702812686109
 10
99.79855954536287
 20
-142.6357380828306
 10
99.79649248807172
 20
-142.6570976748392
 10
99.79649248807172
 20
-142.7160088076369
 10
99.79649248807172
 20
-142.7160088076369
 10
99.89157712346461
 20
-142.7160088076369
 10
99.89157712346461
 20
-142.7160088076369
 10
99.9742594151106
 20
-142.7160088076369
 10
100.1475477180187
 20
-142.7118746930547
 10
100.2726046841332
 20
-142.7036064638901
 10
100.2726046841332
 20
-142.7036064638901
 10
100.2726046841332
 20
-142.8834404482201
 10
100.2726046841332
 20
-142.8834404482201
 10
100.2429768629601
 20
-142.8810288813804
 10
100.1244655782675
 20
-142.8768947667981
 10
100.08415796109
 20
-142.874827709507
 10
100.0693440505035
 20
-142.9254706131401
 10
100.035582114748
 20
-143.0377807259593
 10
99.96978079097978
 20
-143.1773070931119
 10
100.0121554654483
 20
-143.1773070931119
 10
100.2894856520109
 20
-143.158359067943
 10
100.3508083516484
 20
-143.1562920106519
 10
100.3508083516484
 20
-143.1562920106519
 10
100.3508083516484
 20
-143.3402601095642
 10
100.3508083516484
 20
-143.3402601095642
 10
100.3211805304752
 20
-143.3402601095642
 10
100.3042995625975
 20
-143.3361259949819
 10
100.1413465461452
 20
-143.3361259949819
 97
        0
 97
        1
330
E4
 75
     2
 76
     1
 98
        1
 10
0.0
 20
0.0
450
        0
451
        0
460
0.0
461
0.0
452
        0
462
0.0
453
        0
470

  0
SPLINE
  5
E6
330
DE
100
AcDbEntity
  8
レイヤー 1
100
AcDbSpline
210
0.0
220
0.0
230
1.0
 70
    11
 71
     3
 72
    17
 73
    13
 74
     0
 42
0.0000000001
 43
0.0000000001
 40
0.0
 40
0.0
 40
0.0
 40
0.0
 40
1.0
 40
1.0
 40
1.0
 40
2.0
 40
2.0
 40
2.0
 40
3.0
 40
3.0
 40
3.0
 40
4.0
 40
4.0
 40
4.0
 40
4.0
 10
101.9979085031463
 20
-144.1357326571084
 30
0.0
 10
101.9979085031463
 20
-144.1357326571084
 30
0.0
 10
101.2913194191216
 20
-144.1357326571084
 30
0.0
 10
101.2913194191216
 20
-144.1357326571084
 30
0.0
 10
101.2913194191216
 20
-144.1357326571084
 30
0.0
 10
101.2913194191216
 20
-144.2497653176702
 30
0.0
 10
101.2913194191216
 20
-144.2497653176702
 30
0.0
 10
101.2913194191216
 20
-144.2497653176702
 30
0.0
 10
101.9979085031463
 20
-144.2497653176702
 30
0.0
 10
101.9979085031463
 20
-144.2497653176702
 30
0.0
 10
101.9979085031463
 20
-144.2497653176702
 30
0.0
 10
101.9979085031463
 20
-144.1357326571084
 30
0.0
 10
101.9979085031463
 20
-144.1357326571084
 30
0.0
  0
SPLINE
  5
E7
330
DE
100
AcDbEntity
  8
レイヤー 1
100
AcDbSpline
210
0.0
220
0.0
230
1.0
 70
    11
 71
     3
 72
    17
 73
    13
 74
     0
 42
0.0000000001
 43
0.0000000001
 40
0.0
 40
0.0
 40
0.0
 40
0.0
 40
1.0
 40
1.0
 40
1.0
 40
2.0
 40
2.0
 40
2.0
 40
3.0
 40
3.0
 40
3.0
 40
4.0
 40
4.0
 40
4.0
 40
4.0
 10
101.9979085031463
 20
-143.8925089158498
 30
0.0
 10
101.9979085031463
 20
-143.8925089158498
 30
0.0
 10
101.2913194191216
 20
-143.8925089158498
 30
0.0
 10
101.2913194191216
 20
-143.8925089158498
 30
0.0
 10
101.2913194191216
 20
-143.8925089158498
 30
0.0
 10
101.2913194191216
 20
-144.0065415764115
 30
0.0
 10
101.2913194191216
 20
-144.0065415764115
 30
0.0
 10
101.2913194191216
 20
-144.0065415764115
 30
0.0
 10
101.9979085031463
 20
-144.0065415764115
 30
0.0
 10
101.9979085031463
 20
-144.0065415764115
 30
0.0
 10
101.9979085031463
 20
-144.0065415764115
 30
0.0
 10
101.9979085031463
 20
-143.8925089158498
 30
0.0
 10
101.9979085031463
 20
-143.8925089158498
 30
0.0
  0
SPLINE
  5
E8
330
DE
100
AcDbEntity
  8
レイヤー 1
100
AcDbSpline
210
0.0
220
0.0
230
1.0
 70
    11
 71
     3
 72
    17
 73
    13
 74
     0
 42
0.0000000001
 43
0.0000000001
 40
0.0
 40
0.0
 40
0.0
 40
0.0
 40
1.0
 40
1.0
 40
1.0
 40
2.0
 40
2.0
 40
2.0
 40
3.0
 40
3.0
 40
3.0
 40
4.0
 40
4.0
 40
4.0
 40
4.0
 10
101.9979085031463
 20
-143.6596204610469
 30
0.0
 10
101.9979085031463
 20
-143.6596204610469
 30
0.0
 10
101.2913194191216
 20
-143.6596204610469
 30
0.0
 10
101.2913194191216
 20
-143.6596204610469
 30
0.0
 10
101.2913194191216
 20
-143.6596204610469
 30
0.0
 10
101.2913194191216
 20
-143.7674519497352
 30
0.0
 10
101.2913194191216
 20
-143.7674519497352
 30
0.0
 10
101.2913194191216
 20
-143.7674519497352
 30
0.0
 10
101.9979085031463
 20
-143.7674519497352
 30
0.0
 10
101.9979085031463
 20
-143.7674519497352
 30
0.0
 10
101.9979085031463
 20
-143.7674519497352
 30
0.0
 10
101.9979085031463
 20
-143.6596204610469
 30
0.0
 10
101.9979085031463
 20
-143.6596204610469
 30
0.0
  0
SPLINE
  5
E9
330
DE
100
AcDbEntity
  8
レイヤー 1
100
AcDbSpline
210
0.0
220
0.0
230
1.0
 70
     9
 71
     3
 72
   203
 73
   199
 74
     0
 42
0.0000000001
 43
0.0000000001
 40
0.0
 40
0.0
 40
0.0
 40
0.0
 40
1.0
 40
1.0
 40
1.0
 40
2.0
 40
2.0
 40
2.0
 40
3.0
 40
3.0
 40
3.0
 40
4.0
 40
4.0
 40
4.0
 40
5.0
 40
5.0
 40
5.0
 40
6.0
 40
6.0
 40
6.0
 40
7.0
 40
7.0
 40
7.0
 40
8.0
 40
8.0
 40
8.0
 40
9.0
 40
9.0
 40
9.0
 40
10.0
 40
10.0
 40
10.0
 40
11.0
 40
11.0
 40
11.0
 40
12.0
 40
12.0
 40
12.0
 40
13.0
 40
13.0
 40
13.0
 40
14.0
 40
14.0
 40
14.0
 40
15.0
 40
15.0
 40
15.0
 40
16.0
 40
16.0
 40
16.0
 40
17.0
 40
17.0
 40
17.0
 40
18.0
 40
18.0
 40
18.0
 40
19.0
 40
19.0
 40
19.0
 40
20.0
 40
20.0
 40
20.0
 40
21.0
 40
21.0
 40
21.0
 40
22.0
 40
22.0
 40
22.0
 40
23.0
 40
23.0
 40
23.0
 40
24.0
 40
24.0
 40
24.0
 40
25.0
 40
25.0
 40
25.0
 40
26.0
 40
26.0
 40
26.0
 40
27.0
 40
27.0
 40
27.0
 40
28.0
 40
28.0
 40
28.0
 40
29.0
 40
29.0
 40
29.0
 40
30.0
 40
30.0
 40
30.0
 40
31.0
 40
31.0
 40
31.0
 40
32.0
 40
32.0
 40
32.0
 40
33.0
 40
33.0
 40
33.0
 40
34.0
 40
34.0
 40
34.0
 40
35.0
 40
35.0
 40
35.0
 40
36.0
 40
36.0
 40
36.0
 40
37.0
 40
37.0
 40
37.0
 40
38.0
 40
38.0
 40
38.0
 40
39.0
 40
39.0
 40
39.0
 40
40.0
 40
40.0
 40
40.0
 40
41.0
 40
41.0
 40
41.0
 40
42.0
 40
42.0
 40
42.0
 40
43.0
 40
43.0
 40
43.0
 40
44.0
 40
44.0
 40
44.0
 40
45.0
 40
45.0
 40
45.0
 40
46.0
 40
46.0
 40
46.0
 40
47.0
 40
47.0
 40
47.0
 40
48.0
 40
48.0
 40
48.0
 40
49.0
 40
49.0
 40
49.0
 40
50.0
 40
50.0
 40
50.0
 40
51.0
 40
51.0
 40
51.0
 40
52.0
 40
52.0
 40
52.0
 40
53.0
 40
53.0
 40
53.0
 40
54.0
 40
54.0
 40
54.0
 40
55.0
 40
55.0
 40
55.0
 40
56.0
 40
56.0
 40
56.0
 40
57.0
 40
57.0
 40
57.0
 40
58.0
 40
58.0
 40
58.0
 40
59.0
 40
59.0
 40
59.0
 40
60.0
 40
60.0
 40
60.0
 40
61.0
 40
61.0
 40
61.0
 40
62.0
 40
62.0
 40
62.0
 40
63.0
 40
63.0
 40
63.0
 40
64.0
 40
64.0
 40
64.0
 40
65.0
 40
65.0
 40
65.0
 40
66.0
 40
66.0
 40
66.0
 40
66.0
 10
101.8328884294029
 20
-143.4036498664928
 30
0.0
 10
101.8328884294029
 20
-143.4036498664928
 30
0.0
 10
101.2740939416953
 20
-143.4036498664928
 30
0.0
 10
101.2740939416953
 20
-143.4036498664928
 30
0.0
 10
101.2637586552396
 20
-143.4480915982526
 30
0.0
 10
101.2551459165265
 20
-143.4797864767168
 30
0.0
 10
101.242399063231
 20
-143.5180270366031
 30
0.0
 10
101.2678927698219
 20
-143.5180270366031
 30
0.0
 10
101.2827066804085
 20
-143.5200940938943
 30
0.0
 10
101.2889078522819
 20
-143.5200940938943
 30
0.0
 10
101.2889078522819
 20
-143.5200940938943
 30
0.0
 10
101.4773545753251
 20
-143.5200940938943
 30
0.0
 10
101.4773545753251
 20
-143.5200940938943
 30
0.0
 10
101.4773545753251
 20
-143.5200940938943
 30
0.0
 10
101.8518364545717
 20
-143.5200940938943
 30
0.0
 10
101.8518364545717
 20
-143.5200940938943
 30
0.0
 10
101.9024793582049
 20
-143.5200940938943
 30
0.0
 10
102.186010716641
 20
-143.5073472405989
 30
0.0
 10
102.2177055951053
 20
-143.5073472405989
 30
0.0
 10
102.2156385378141
 20
-143.5349080044808
 30
0.0
 10
102.213571480523
 20
-143.5538560296497
 30
0.0
 10
102.213571480523
 20
-143.5834838508229
 30
0.0
 10
102.2115044232318
 20
-143.6151787292871
 30
0.0
 10
102.2115044232318
 20
-143.7505709818575
 30
0.0
 10
102.2115044232318
 20
-143.7781317457395
 30
0.0
 10
102.2115044232318
 20
-143.7781317457395
 30
0.0
 10
102.2115044232318
 20
-144.0234225442893
 30
0.0
 10
102.2115044232318
 20
-144.0234225442893
 30
0.0
 10
102.2115044232318
 20
-144.067864276049
 30
0.0
 10
102.2156385378141
 20
-144.2645792282568
 30
0.0
 10
102.2197726523964
 20
-144.4171969582533
 30
0.0
 10
102.2197726523964
 20
-144.4171969582533
 30
0.0
 10
101.9934298790155
 20
-144.4171969582533
 30
0.0
 10
101.9934298790155
 20
-144.4171969582533
 30
0.0
 10
101.9934298790155
 20
-144.4171969582533
 30
0.0
 10
101.9954969363066
 20
-144.3830905129494
 30
0.0
 10
101.9954969363066
 20
-144.3830905129494
 30
0.0
 10
101.9954969363066
 20
-144.3830905129494
 30
0.0
 10
101.2933864764127
 20
-144.3830905129494
 30
0.0
 10
101.2933864764127
 20
-144.3830905129494
 30
0.0
 10
101.2933864764127
 20
-144.3830905129494
 30
0.0
 10
101.2954535337039
 20
-144.4171969582533
 30
0.0
 10
101.2954535337039
 20
-144.4171969582533
 30
0.0
 10
101.2954535337039
 20
-144.4171969582533
 30
0.0
 10
101.0773789894876
 20
-144.4171969582533
 30
0.0
 10
101.0773789894876
 20
-144.4171969582533
 30
0.0
 10
101.0818576136184
 20
-144.3620754304893
 30
0.0
 10
101.0818576136184
 20
-144.3493285771939
 30
0.0
 10
101.0880587854918
 20
-144.2349514070836
 30
0.0
 10
101.090125842783
 20
-144.2077351527501
 30
0.0
 10
101.0921929000742
 20
-144.074409957471
 30
0.0
 10
101.0921929000742
 20
-144.0551174227536
 30
0.0
 10
101.0921929000742
 20
-144.0551174227536
 30
0.0
 10
101.0921929000742
 20
-143.8522012986723
 30
0.0
 10
101.0921929000742
 20
-143.8522012986723
 30
0.0
 10
100.9526665329215
 20
-144.101970721353
 30
0.0
 10
100.7835123445958
 20
-144.2328843497924
 30
0.0
 10
100.6777479131986
 20
-144.2986856735607
 30
0.0
 10
100.6777479131986
 20
-144.2986856735607
 30
0.0
 10
100.504115100742
 20
-144.1588147968596
 30
0.0
 10
100.504115100742
 20
-144.1588147968596
 30
0.0
 10
100.5929985642614
 20
-144.1081718932264
 30
0.0
 10
100.7370035555449
 20
-144.0213554869981
 30
0.0
 10
100.8744628654064
 20
-143.8267075920815
 30
0.0
 10
100.965413386217
 20
-143.6999280782243
 30
0.0
 10
101.0308702004367
 20
-143.5559230869408
 30
0.0
 10
101.0649766457407
 20
-143.4036498664928
 30
0.0
 10
100.8362223055201
 20
-143.405716923784
 30
0.0
 10
100.6563883211901
 20
-143.4122626052059
 30
0.0
 10
100.5613036857972
 20
-143.4143296624971
 30
0.0
 10
100.5613036857972
 20
-143.4143296624971
 30
0.0
 10
100.5613036857972
 20
-143.2365627354582
 30
0.0
 10
100.5613036857972
 20
-143.2365627354582
 30
0.0
 10
100.7580186380049
 20
-143.2427639073316
 30
0.0
 10
101.041549996441
 20
-143.2472425314625
 30
0.0
 10
101.1917561595979
 20
-143.2472425314625
 30
0.0
 10
101.1917561595979
 20
-143.2472425314625
 30
0.0
 10
101.4053520796833
 20
-143.2472425314625
 30
0.0
 10
101.4053520796833
 20
-143.2472425314625
 30
0.0
 10
101.4053520796833
 20
-143.2472425314625
 30
0.0
 10
101.4053520796833
 20
-143.1394110427742
 30
0.0
 10
101.4053520796833
 20
-143.1394110427742
 30
0.0
 10
101.4053520796833
 20
-143.1394110427742
 30
0.0
 10
101.2592800311088
 20
-143.1394110427742
 30
0.0
 10
101.2592800311088
 20
-143.1394110427742
 30
0.0
 10
101.090125842783
 20
-143.1394110427742
 30
0.0
 10
100.9209716544572
 20
-143.1435451573564
 30
0.0
 10
100.7538845234226
 20
-143.1497463292299
 30
0.0
 10
100.7538845234226
 20
-143.1497463292299
 30
0.0
 10
100.7538845234226
 20
-142.978525083613
 30
0.0
 10
100.7538845234226
 20
-142.978525083613
 30
0.0
 10
100.9082248011618
 20
-142.9892048796173
 30
0.0
 10
101.0942599573653
 20
-142.9892048796173
 30
0.0
 10
101.2592800311088
 20
-142.9892048796173
 30
0.0
 10
101.2592800311088
 20
-142.9892048796173
 30
0.0
 10
101.4053520796833
 20
-142.9892048796173
 30
0.0
 10
101.4053520796833
 20
-142.9892048796173
 30
0.0
 10
101.4053520796833
 20
-142.9892048796173
 30
0.0
 10
101.4053520796833
 20
-142.8706935949247
 30
0.0
 10
101.4053520796833
 20
-142.8706935949247
 30
0.0
 10
101.4053520796833
 20
-142.8706935949247
 30
0.0
 10
101.2740939416953
 20
-142.8706935949247
 30
0.0
 10
101.2740939416953
 20
-142.8706935949247
 30
0.0
 10
101.2275851526445
 20
-142.8706935949247
 30
0.0
 10
101.0246690285633
 20
-142.8789618240893
 30
0.0
 10
100.9822943540947
 20
-142.8789618240893
 30
0.0
 10
100.7793782300135
 20
-142.8834404482201
 30
0.0
 10
100.7028971102409
 20
-142.8855075055112
 30
0.0
 10
100.6246934427257
 20
-142.8875745628024
 30
0.0
 10
100.6246934427257
 20
-142.8875745628024
 30
0.0
 10
100.6246934427257
 20
-142.7036064638901
 30
0.0
 10
100.6246934427257
 20
-142.7036064638901
 30
0.0
 10
100.739070612836
 20
-142.7118746930547
 30
0.0
 10
100.7835123445958
 20
-142.7118746930547
 30
0.0
 10
101.166262453007
 20
-142.7204874317678
 30
0.0
 10
101.1028726960784
 20
-142.6250582868263
 30
0.0
 10
101.0753119321964
 20
-142.5978420324929
 30
0.0
 10
101.0394829391498
 20
-142.5616685298978
 30
0.0
 10
101.0394829391498
 20
-142.5616685298978
 30
0.0
 10
101.214838299349
 20
-142.4793307478003
 30
0.0
 10
101.214838299349
 20
-142.4793307478003
 30
0.0
 10
101.2551459165265
 20
-142.5151597408469
 30
0.0
 10
101.2995876482862
 20
-142.5575344153154
 30
0.0
 10
101.3736572012191
 20
-142.6674329612949
 30
0.0
 10
101.3736572012191
 20
-142.6674329612949
 30
0.0
 10
101.2592800311088
 20
-142.7225544890589
 30
0.0
 10
101.2592800311088
 20
-142.7225544890589
 30
0.0
 10
101.2592800311088
 20
-142.7225544890589
 30
0.0
 10
101.269959827113
 20
-142.7225544890589
 30
0.0
 10
101.269959827113
 20
-142.7225544890589
 30
0.0
 10
101.269959827113
 20
-142.7225544890589
 30
0.0
 10
101.7925808122254
 20
-142.7225544890589
 30
0.0
 10
101.7925808122254
 20
-142.7225544890589
 30
0.0
 10
101.7925808122254
 20
-142.7225544890589
 30
0.0
 10
101.6974961768325
 20
-142.6781127572992
 30
0.0
 10
101.6974961768325
 20
-142.6781127572992
 30
0.0
 10
101.724712431166
 20
-142.6398721974129
 30
0.0
 10
101.7819010162212
 20
-142.5596014726066
 30
0.0
 10
101.7967149268077
 20
-142.4855319196737
 30
0.0
 10
101.7967149268077
 20
-142.4855319196737
 30
0.0
 10
102.0103108468932
 20
-142.5489216766023
 30
0.0
 10
102.0103108468932
 20
-142.5489216766023
 30
0.0
 10
102.0189235856064
 20
-142.551333243442
 30
0.0
 10
102.0399386680664
 20
-142.5616685298978
 30
0.0
 10
102.0399386680664
 20
-142.5830281219063
 30
0.0
 10
102.0399386680664
 20
-142.6209241722441
 30
0.0
 10
101.9744818538466
 20
-142.6209241722441
 30
0.0
 10
101.9555338286778
 20
-142.6209241722441
 30
0.0
 10
101.9448540326735
 20
-142.6398721974129
 30
0.0
 10
101.9214273833738
 20
-142.6801798145904
 30
0.0
 10
101.8917995622006
 20
-142.7204874317678
 30
0.0
 10
102.2917751480381
 20
-142.7139417503458
 30
0.0
 10
102.3214029692113
 20
-142.7118746930547
 30
0.0
 10
102.3975395794353
 20
-142.7056735211812
 30
0.0
 10
102.3975395794353
 20
-142.7056735211812
 30
0.0
 10
102.3975395794353
 20
-142.8875745628024
 30
0.0
 10
102.3975395794353
 20
-142.8875745628024
 30
0.0
 10
102.3785915542664
 20
-142.8875745628024
 30
0.0
 10
102.3530978476756
 20
-142.8855075055112
 30
0.0
 10
102.1333007557166
 20
-142.8768947667981
 30
0.0
 10
102.082313342535
 20
-142.874827709507
 30
0.0
 10
101.862516250576
 20
-142.8706935949247
 30
0.0
 10
101.8180745188163
 20
-142.8706935949247
 30
0.0
 10
101.8180745188163
 20
-142.8706935949247
 30
0.0
 10
101.6020670318911
 20
-142.8706935949247
 30
0.0
 10
101.6020670318911
 20
-142.8706935949247
 30
0.0
 10
101.6020670318911
 20
-142.8706935949247
 30
0.0
 10
101.6020670318911
 20
-142.9892048796173
 30
0.0
 10
101.6020670318911
 20
-142.9892048796173
 30
0.0
 10
101.6020670318911
 20
-142.9892048796173
 30
0.0
 10
101.7756998443477
 20
-142.9892048796173
 30
0.0
 10
101.7756998443477
 20
-142.9892048796173
 30
0.0
 10
101.9386528608
 20
-142.9892048796173
 30
0.0
 10
102.1288221315858
 20
-142.9892048796173
 30
0.0
 10
102.2855739761647
 20
-142.978525083613
 30
0.0
 10
102.2855739761647
 20
-142.978525083613
 30
0.0
 10
102.2855739761647
 20
-143.1497463292299
 30
0.0
 10
102.2855739761647
 20
-143.1497463292299
 30
0.0
 10
102.0761121706615
 20
-143.1414781000653
 30
0.0
 10
101.8793972184537
 20
-143.1394110427742
 30
0.0
 10
101.7756998443477
 20
-143.1394110427742
 30
0.0
 10
101.7756998443477
 20
-143.1394110427742
 30
0.0
 10
101.6020670318911
 20
-143.1394110427742
 30
0.0
 10
101.6020670318911
 20
-143.1394110427742
 30
0.0
 10
101.6020670318911
 20
-143.1394110427742
 30
0.0
 10
101.6020670318911
 20
-143.2472425314625
 30
0.0
 10
101.6020670318911
 20
-143.2472425314625
 30
0.0
 10
101.6020670318911
 20
-143.2472425314625
 30
0.0
 10
101.8328884294029
 20
-143.2472425314625
 30
0.0
 10
101.8328884294029
 20
-143.2472425314625
 30
0.0
 10
101.9658691151335
 20
-143.2472425314625
 30
0.0
 10
102.2538790977004
 20
-143.2427639073316
 30
0.0
 10
102.4629963936551
 20
-143.2365627354582
 30
0.0
 10
102.4629963936551
 20
-143.2365627354582
 30
0.0
 10
102.4629963936551
 20
-143.4143296624971
 30
0.0
 10
102.4629963936551
 20
-143.4143296624971
 30
0.0
 10
102.2707600655781
 20
-143.4077839810751
 30
0.0
 10
101.9576008859689
 20
-143.4036498664928
 30
0.0
 10
101.8328884294029
 20
-143.4036498664928
 30
0.0
  0
HATCH
  5
EA
330
DE
100
AcDbEntity
  8
レイヤー 1
 62
   250
420
  2299925
440
 33554687
100
AcDbHatch
 10
0.0
 20
0.0
 30
0.0
210
0.0
220
0.0
230
1.0
  2
SOLID
 70
     1
 71
     1
 91
        4
 92
        1
 93
        1
 72
     4
 94
        3
 73
     0
 74
     0
 95
       17
 96
       13
 40
0.0
 40
0.0
 40
0.0
 40
0.0
 40
1.0
 40
1.0
 40
1.0
 40
2.0
 40
2.0
 40
2.0
 40
3.0
 40
3.0
 40
3.0
 40
4.0
 40
4.0
 40
4.0
 40
4.0
 10
101.9979085031463
 20
-144.1357326571084
 10
101.9979085031463
 20
-144.1357326571084
 10
101.2913194191216
 20
-144.1357326571084
 10
101.2913194191216
 20
-144.1357326571084
 10
101.2913194191216
 20
-144.1357326571084
 10
101.2913194191216
 20
-144.2497653176702
 10
101.2913194191216
 20
-144.2497653176702
 10
101.2913194191216
 20
-144.2497653176702
 10
101.9979085031463
 20
-144.2497653176702
 10
101.9979085031463
 20
-144.2497653176702
 10
101.9979085031463
 20
-144.2497653176702
 10
101.9979085031463
 20
-144.1357326571084
 10
101.9979085031463
 20
-144.1357326571084
 97
        0
 97
        1
330
E6
 92
        1
 93
        1
 72
     4
 94
        3
 73
     0
 74
     0
 95
       17
 96
       13
 40
0.0
 40
0.0
 40
0.0
 40
0.0
 40
1.0
 40
1.0
 40
1.0
 40
2.0
 40
2.0
 40
2.0
 40
3.0
 40
3.0
 40
3.0
 40
4.0
 40
4.0
 40
4.0
 40
4.0
 10
101.9979085031463
 20
-143.8925089158498
 10
101.9979085031463
 20
-143.8925089158498
 10
101.2913194191216
 20
-143.8925089158498
 10
101.2913194191216
 20
-143.8925089158498
 10
101.2913194191216
 20
-143.8925089158498
 10
101.2913194191216
 20
-144.0065415764115
 10
101.2913194191216
 20
-144.0065415764115
 10
101.2913194191216
 20
-144.0065415764115
 10
101.9979085031463
 20
-144.0065415764115
 10
101.9979085031463
 20
-144.0065415764115
 10
101.9979085031463
 20
-144.0065415764115
 10
101.9979085031463
 20
-143.8925089158498
 10
101.9979085031463
 20
-143.8925089158498
 97
        0
 97
        1
330
E7
 92
        1
 93
        1
 72
     4
 94
        3
 73
     0
 74
     0
 95
       17
 96
       13
 40
0.0
 40
0.0
 40
0.0
 40
0.0
 40
1.0
 40
1.0
 40
1.0
 40
2.0
 40
2.0
 40
2.0
 40
3.0
 40
3.0
 40
3.0
 40
4.0
 40
4.0
 40
4.0
 40
4.0
 10
101.9979085031463
 20
-143.6596204610469
 10
101.9979085031463
 20
-143.6596204610469
 10
101.2913194191216
 20
-143.6596204610469
 10
101.2913194191216
 20
-143.6596204610469
 10
101.2913194191216
 20
-143.6596204610469
 10
101.2913194191216
 20
-143.7674519497352
 10
101.2913194191216
 20
-143.7674519497352
 10
101.2913194191216
 20
-143.7674519497352
 10
101.9979085031463
 20
-143.7674519497352
 10
101.9979085031463
 20
-143.7674519497352
 10
101.9979085031463
 20
-143.7674519497352
 10
101.9979085031463
 20
-143.6596204610469
 10
101.9979085031463
 20
-143.6596204610469
 97
        0
 97
        1
330
E8
 92
        1
 93
        1
 72
     4
 94
        3
 73
     0
 74
     0
 95
      203
 96
      199
 40
0.0
 40
0.0
 40
0.0
 40
0.0
 40
1.0
 40
1.0
 40
1.0
 40
2.0
 40
2.0
 40
2.0
 40
3.0
 40
3.0
 40
3.0
 40
4.0
 40
4.0
 40
4.0
 40
5.0
 40
5.0
 40
5.0
 40
6.0
 40
6.0
 40
6.0
 40
7.0
 40
7.0
 40
7.0
 40
8.0
 40
8.0
 40
8.0
 40
9.0
 40
9.0
 40
9.0
 40
10.0
 40
10.0
 40
10.0
 40
11.0
 40
11.0
 40
11.0
 40
12.0
 40
12.0
 40
12.0
 40
13.0
 40
13.0
 40
13.0
 40
14.0
 40
14.0
 40
14.0
 40
15.0
 40
15.0
 40
15.0
 40
16.0
 40
16.0
 40
16.0
 40
17.0
 40
17.0
 40
17.0
 40
18.0
 40
18.0
 40
18.0
 40
19.0
 40
19.0
 40
19.0
 40
20.0
 40
20.0
 40
20.0
 40
21.0
 40
21.0
 40
21.0
 40
22.0
 40
22.0
 40
22.0
 40
23.0
 40
23.0
 40
23.0
 40
24.0
 40
24.0
 40
24.0
 40
25.0
 40
25.0
 40
25.0
 40
26.0
 40
26.0
 40
26.0
 40
27.0
 40
27.0
 40
27.0
 40
28.0
 40
28.0
 40
28.0
 40
29.0
 40
29.0
 40
29.0
 40
30.0
 40
30.0
 40
30.0
 40
31.0
 40
31.0
 40
31.0
 40
32.0
 40
32.0
 40
32.0
 40
33.0
 40
33.0
 40
33.0
 40
34.0
 40
34.0
 40
34.0
 40
35.0
 40
35.0
 40
35.0
 40
36.0
 40
36.0
 40
36.0
 40
37.0
 40
37.0
 40
37.0
 40
38.0
 40
38.0
 40
38.0
 40
39.0
 40
39.0
 40
39.0
 40
40.0
 40
40.0
 40
40.0
 40
41.0
 40
41.0
 40
41.0
 40
42.0
 40
42.0
 40
42.0
 40
43.0
 40
43.0
 40
43.0
 40
44.0
 40
44.0
 40
44.0
 40
45.0
 40
45.0
 40
45.0
 40
46.0
 40
46.0
 40
46.0
 40
47.0
 40
47.0
 40
47.0
 40
48.0
 40
48.0
 40
48.0
 40
49.0
 40
49.0
 40
49.0
 40
50.0
 40
50.0
 40
50.0
 40
51.0
 40
51.0
 40
51.0
 40
52.0
 40
52.0
 40
52.0
 40
53.0
 40
53.0
 40
53.0
 40
54.0
 40
54.0
 40
54.0
 40
55.0
 40
55.0
 40
55.0
 40
56.0
 40
56.0
 40
56.0
 40
57.0
 40
57.0
 40
57.0
 40
58.0
 40
58.0
 40
58.0
 40
59.0
 40
59.0
 40
59.0
 40
60.0
 40
60.0
 40
60.0
 40
61.0
 40
61.0
 40
61.0
 40
62.0
 40
62.0
 40
62.0
 40
63.0
 40
63.0
 40
63.0
 40
64.0
 40
64.0
 40
64.0
 40
65.0
 40
65.0
 40
65.0
 40
66.0
 40
66.0
 40
66.0
 40
66.0
 10
101.8328884294029
 20
-143.4036498664928
 10
101.8328884294029
 20
-143.4036498664928
 10
101.2740939416953
 20
-143.4036498664928
 10
101.2740939416953
 20
-143.4036498664928
 10
101.2637586552396
 20
-143.4480915982526
 10
101.2551459165265
 20
-143.4797864767168
 10
101.242399063231
 20
-143.5180270366031
 10
101.2678927698219
 20
-143.5180270366031
 10
101.2827066804085
 20
-143.5200940938943
 10
101.2889078522819
 20
-143.5200940938943
 10
101.2889078522819
 20
-143.5200940938943
 10
101.4773545753251
 20
-143.5200940938943
 10
101.4773545753251
 20
-143.5200940938943
 10
101.4773545753251
 20
-143.5200940938943
 10
101.8518364545717
 20
-143.5200940938943
 10
101.8518364545717
 20
-143.5200940938943
 10
101.9024793582049
 20
-143.5200940938943
 10
102.186010716641
 20
-143.5073472405989
 10
102.2177055951053
 20
-143.5073472405989
 10
102.2156385378141
 20
-143.5349080044808
 10
102.213571480523
 20
-143.5538560296497
 10
102.213571480523
 20
-143.5834838508229
 10
102.2115044232318
 20
-143.6151787292871
 10
102.2115044232318
 20
-143.7505709818575
 10
102.2115044232318
 20
-143.7781317457395
 10
102.2115044232318
 20
-143.7781317457395
 10
102.2115044232318
 20
-144.0234225442893
 10
102.2115044232318
 20
-144.0234225442893
 10
102.2115044232318
 20
-144.067864276049
 10
102.2156385378141
 20
-144.2645792282568
 10
102.2197726523964
 20
-144.4171969582533
 10
102.2197726523964
 20
-144.4171969582533
 10
101.9934298790155
 20
-144.4171969582533
 10
101.9934298790155
 20
-144.4171969582533
 10
101.9934298790155
 20
-144.4171969582533
 10
101.9954969363066
 20
-144.3830905129494
 10
101.9954969363066
 20
-144.3830905129494
 10
101.9954969363066
 20
-144.3830905129494
 10
101.2933864764127
 20
-144.3830905129494
 10
101.2933864764127
 20
-144.3830905129494
 10
101.2933864764127
 20
-144.3830905129494
 10
101.2954535337039
 20
-144.4171969582533
 10
101.2954535337039
 20
-144.4171969582533
 10
101.2954535337039
 20
-144.4171969582533
 10
101.0773789894876
 20
-144.4171969582533
 10
101.0773789894876
 20
-144.4171969582533
 10
101.0818576136184
 20
-144.3620754304893
 10
101.0818576136184
 20
-144.3493285771939
 10
101.0880587854918
 20
-144.2349514070836
 10
101.090125842783
 20
-144.2077351527501
 10
101.0921929000742
 20
-144.074409957471
 10
101.0921929000742
 20
-144.0551174227536
 10
101.0921929000742
 20
-144.0551174227536
 10
101.0921929000742
 20
-143.8522012986723
 10
101.0921929000742
 20
-143.8522012986723
 10
100.9526665329215
 20
-144.101970721353
 10
100.7835123445958
 20
-144.2328843497924
 10
100.6777479131986
 20
-144.2986856735607
 10
100.6777479131986
 20
-144.2986856735607
 10
100.504115100742
 20
-144.1588147968596
 10
100.504115100742
 20
-144.1588147968596
 10
100.5929985642614
 20
-144.1081718932264
 10
100.7370035555449
 20
-144.0213554869981
 10
100.8744628654064
 20
-143.8267075920815
 10
100.965413386217
 20
-143.6999280782243
 10
101.0308702004367
 20
-143.5559230869408
 10
101.0649766457407
 20
-143.4036498664928
 10
100.8362223055201
 20
-143.405716923784
 10
100.6563883211901
 20
-143.4122626052059
 10
100.5613036857972
 20
-143.4143296624971
 10
100.5613036857972
 20
-143.4143296624971
 10
100.5613036857972
 20
-143.2365627354582
 10
100.5613036857972
 20
-143.2365627354582
 10
100.7580186380049
 20
-143.2427639073316
 10
101.041549996441
 20
-143.2472425314625
 10
101.1917561595979
 20
-143.2472425314625
 10
101.1917561595979
 20
-143.2472425314625
 10
101.4053520796833
 20
-143.2472425314625
 10
101.4053520796833
 20
-143.2472425314625
 10
101.4053520796833
 20
-143.2472425314625
 10
101.4053520796833
 20
-143.1394110427742
 10
101.4053520796833
 20
-143.1394110427742
 10
101.4053520796833
 20
-143.1394110427742
 10
101.2592800311088
 20
-143.1394110427742
 10
101.2592800311088
 20
-143.1394110427742
 10
101.090125842783
 20
-143.1394110427742
 10
100.9209716544572
 20
-143.1435451573564
 10
100.7538845234226
 20
-143.1497463292299
 10
100.7538845234226
 20
-143.1497463292299
 10
100.7538845234226
 20
-142.978525083613
 10
100.7538845234226
 20
-142.978525083613
 10
100.9082248011618
 20
-142.9892048796173
 10
101.0942599573653
 20
-142.9892048796173
 10
101.2592800311088
 20
-142.9892048796173
 10
101.2592800311088
 20
-142.9892048796173
 10
101.4053520796833
 20
-142.9892048796173
 10
101.4053520796833
 20
-142.9892048796173
 10
101.4053520796833
 20
-142.9892048796173
 10
101.4053520796833
 20
-142.8706935949247
 10
101.4053520796833
 20
-142.8706935949247
 10
101.4053520796833
 20
-142.8706935949247
 10
101.2740939416953
 20
-142.8706935949247
 10
101.2740939416953
 20
-142.8706935949247
 10
101.2275851526445
 20
-142.8706935949247
 10
101.0246690285633
 20
-142.8789618240893
 10
100.9822943540947
 20
-142.8789618240893
 10
100.7793782300135
 20
-142.8834404482201
 10
100.7028971102409
 20
-142.8855075055112
 10
100.6246934427257
 20
-142.8875745628024
 10
100.6246934427257
 20
-142.8875745628024
 10
100.6246934427257
 20
-142.7036064638901
 10
100.6246934427257
 20
-142.7036064638901
 10
100.739070612836
 20
-142.7118746930547
 10
100.7835123445958
 20
-142.7118746930547
 10
101.166262453007
 20
-142.7204874317678
 10
101.1028726960784
 20
-142.6250582868263
 10
101.0753119321964
 20
-142.5978420324929
 10
101.0394829391498
 20
-142.5616685298978
 10
101.0394829391498
 20
-142.5616685298978
 10
101.214838299349
 20
-142.4793307478003
 10
101.214838299349
 20
-142.4793307478003
 10
101.2551459165265
 20
-142.5151597408469
 10
101.2995876482862
 20
-142.5575344153154
 10
101.3736572012191
 20
-142.6674329612949
 10
101.3736572012191
 20
-142.6674329612949
 10
101.2592800311088
 20
-142.7225544890589
 10
101.2592800311088
 20
-142.7225544890589
 10
101.2592800311088
 20
-142.7225544890589
 10
101.269959827113
 20
-142.7225544890589
 10
101.269959827113
 20
-142.7225544890589
 10
101.269959827113
 20
-142.7225544890589
 10
101.7925808122254
 20
-142.7225544890589
 10
101.7925808122254
 20
-142.7225544890589
 10
101.7925808122254
 20
-142.7225544890589
 10
101.6974961768325
 20
-142.6781127572992
 10
101.6974961768325
 20
-142.6781127572992
 10
101.724712431166
 20
-142.6398721974129
 10
101.7819010162212
 20
-142.5596014726066
 10
101.7967149268077
 20
-142.4855319196737
 10
101.7967149268077
 20
-142.4855319196737
 10
102.0103108468932
 20
-142.5489216766023
 10
102.0103108468932
 20
-142.5489216766023
 10
102.0189235856064
 20
-142.551333243442
 10
102.0399386680664
 20
-142.5616685298978
 10
102.0399386680664
 20
-142.5830281219063
 10
102.0399386680664
 20
-142.6209241722441
 10
101.9744818538466
 20
-142.6209241722441
 10
101.9555338286778
 20
-142.6209241722441
 10
101.9448540326735
 20
-142.6398721974129
 10
101.9214273833738
 20
-142.6801798145904
 10
101.8917995622006
 20
-142.7204874317678
 10
102.2917751480381
 20
-142.7139417503458
 10
102.3214029692113
 20
-142.7118746930547
 10
102.3975395794353
 20
-142.7056735211812
 10
102.3975395794353
 20
-142.7056735211812
 10
102.3975395794353
 20
-142.8875745628024
 10
102.3975395794353
 20
-142.8875745628024
 10
102.3785915542664
 20
-142.8875745628024
 10
102.3530978476756
 20
-142.8855075055112
 10
102.1333007557166
 20
-142.8768947667981
 10
102.082313342535
 20
-142.874827709507
 10
101.862516250576
 20
-142.8706935949247
 10
101.8180745188163
 20
-142.8706935949247
 10
101.8180745188163
 20
-142.8706935949247
 10
101.6020670318911
 20
-142.8706935949247
 10
101.6020670318911
 20
-142.8706935949247
 10
101.6020670318911
 20
-142.8706935949247
 10
101.6020670318911
 20
-142.9892048796173
 10
101.6020670318911
 20
-142.9892048796173
 10
101.6020670318911
 20
-142.9892048796173
 10
101.7756998443477
 20
-142.9892048796173
 10
101.7756998443477
 20
-142.9892048796173
 10
101.9386528608
 20
-142.9892048796173
 10
102.1288221315858
 20
-142.9892048796173
 10
102.2855739761647
 20
-142.978525083613
 10
102.2855739761647
 20
-142.978525083613
 10
102.2855739761647
 20
-143.1497463292299
 10
102.2855739761647
 20
-143.1497463292299
 10
102.0761121706615
 20
-143.1414781000653
 10
101.8793972184537
 20
-143.1394110427742
 10
101.7756998443477
 20
-143.1394110427742
 10
101.7756998443477
 20
-143.1394110427742
 10
101.6020670318911
 20
-143.1394110427742
 10
101.6020670318911
 20
-143.1394110427742
 10
101.6020670318911
 20
-143.1394110427742
 10
101.6020670318911
 20
-143.2472425314625
 10
101.6020670318911
 20
-143.2472425314625
 10
101.6020670318911
 20
-143.2472425314625
 10
101.8328884294029
 20
-143.2472425314625
 10
101.8328884294029
 20
-143.2472425314625
 10
101.9658691151335
 20
-143.2472425314625
 10
102.2538790977004
 20
-143.2427639073316
 10
102.4629963936551
 20
-143.2365627354582
 10
102.4629963936551
 20
-143.2365627354582
 10
102.4629963936551
 20
-143.4143296624971
 10
102.4629963936551
 20
-143.4143296624971
 10
102.2707600655781
 20
-143.4077839810751
 10
101.9576008859689
 20
-143.4036498664928
 10
101.8328884294029
 20
-143.4036498664928
 97
        0
 97
        1
330
E9
 75
     2
 76
     1
 98
        1
 10
0.0
 20
0.0
450
        0
451
        0
460
0.0
461
0.0
452
        0
462
0.0
453
        0
470

  0
SPLINE
  5
EB
330
DE
100
AcDbEntity
  8
レイヤー 1
100
AcDbSpline
210
0.0
220
0.0
230
1.0
 70
     9
 71
     3
 72
    29
 73
    25
 74
     0
 42
0.0000000001
 43
0.0000000001
 40
0.0
 40
0.0
 40
0.0
 40
0.0
 40
1.0
 40
1.0
 40
1.0
 40
2.0
 40
2.0
 40
2.0
 40
3.0
 40
3.0
 40
3.0
 40
4.0
 40
4.0
 40
4.0
 40
5.0
 40
5.0
 40
5.0
 40
6.0
 40
6.0
 40
6.0
 40
7.0
 40
7.0
 40
7.0
 40
8.0
 40
8.0
 40
8.0
 40
8.0
 10
103.7080539020243
 20
-142.8514010602073
 30
0.0
 10
103.7080539020243
 20
-142.8514010602073
 30
0.0
 10
103.3545871052377
 20
-142.8514010602073
 30
0.0
 10
103.3545871052377
 20
-142.8514010602073
 30
0.0
 10
103.2426215019671
 20
-142.8514010602073
 30
0.0
 10
103.1030951348145
 20
-142.8579467416292
 30
0.0
 10
102.9952636461262
 20
-142.8706935949247
 30
0.0
 10
102.9952636461262
 20
-142.8706935949247
 30
0.0
 10
102.9952636461262
 20
-142.6357380828306
 30
0.0
 10
102.9952636461262
 20
-142.6357380828306
 30
0.0
 10
103.1134304212702
 20
-142.6505519934172
 30
0.0
 10
103.2977430297311
 20
-142.6546861079995
 30
0.0
 10
103.3545871052377
 20
-142.6546861079995
 30
0.0
 10
103.3545871052377
 20
-142.6546861079995
 30
0.0
 10
103.7080539020243
 20
-142.6546861079995
 30
0.0
 10
103.7080539020243
 20
-142.6546861079995
 30
0.0
 10
103.7270019271932
 20
-142.6546861079995
 30
0.0
 10
103.930262560823
 20
-142.6546861079995
 30
0.0
 10
104.0718559852667
 20
-142.6357380828306
 30
0.0
 10
104.0718559852667
 20
-142.6357380828306
 30
0.0
 10
104.0718559852667
 20
-142.8706935949247
 30
0.0
 10
104.0718559852667
 20
-142.8706935949247
 30
0.0
 10
103.9154486502364
 20
-142.8514010602073
 30
0.0
 10
103.7249348699021
 20
-142.8514010602073
 30
0.0
 10
103.7080539020243
 20
-142.8514010602073
 30
0.0
  0
SPLINE
  5
EC
330
DE
100
AcDbEntity
  8
レイヤー 1
100
AcDbSpline
210
0.0
220
0.0
230
1.0
 70
     9
 71
     3
 72
    47
 73
    43
 74
     0
 42
0.0000000001
 43
0.0000000001
 40
0.0
 40
0.0
 40
0.0
 40
0.0
 40
1.0
 40
1.0
 40
1.0
 40
2.0
 40
2.0
 40
2.0
 40
3.0
 40
3.0
 40
3.0
 40
4.0
 40
4.0
 40
4.0
 40
5.0
 40
5.0
 40
5.0
 40
6.0
 40
6.0
 40
6.0
 40
7.0
 40
7.0
 40
7.0
 40
8.0
 40
8.0
 40
8.0
 40
9.0
 40
9.0
 40
9.0
 40
10.0
 40
10.0
 40
10.0
 40
11.0
 40
11.0
 40
11.0
 40
12.0
 40
12.0
 40
12.0
 40
13.0
 40
13.0
 40
13.0
 40
14.0
 40
14.0
 40
14.0
 40
14.0
 10
103.8096842188392
 20
-143.3805677267416
 30
0.0
 10
103.8096842188392
 20
-143.3805677267416
 30
0.0
 10
103.7080539020243
 20
-143.3805677267416
 30
0.0
 10
103.7080539020243
 20
-143.3805677267416
 30
0.0
 10
103.7080539020243
 20
-143.4670396234214
 30
0.0
 10
103.6870388195643
 20
-143.8563354132546
 30
0.0
 10
103.4903238673566
 20
-144.0764770147621
 30
0.0
 10
103.33770613736
 20
-144.2456312030879
 30
0.0
 10
103.1306558986965
 20
-144.3155666414384
 30
0.0
 10
103.0459065497593
 20
-144.3431274053204
 30
0.0
 10
103.0459065497593
 20
-144.3431274053204
 30
0.0
 10
102.8512586548427
 20
-144.1760402742858
 30
0.0
 10
102.8512586548427
 20
-144.1760402742858
 30
0.0
 10
102.9487548570753
 20
-144.1632934209904
 30
0.0
 10
103.1241102172745
 20
-144.1398667716907
 30
0.0
 10
103.3125569403177
 20
-143.9517645581961
 30
0.0
 10
103.3866264932505
 20
-143.8797620625543
 30
0.0
 10
103.4903238673566
 20
-143.7402356954017
 30
0.0
 10
103.4903238673566
 20
-143.3805677267416
 30
0.0
 10
103.4903238673566
 20
-143.3805677267416
 30
0.0
 10
103.2595024698448
 20
-143.3805677267416
 30
0.0
 10
103.2595024698448
 20
-143.3805677267416
 30
0.0
 10
103.0734673136413
 20
-143.3805677267416
 30
0.0
 10
102.8870876478893
 20
-143.3847018413239
 30
0.0
 10
102.7010524916858
 20
-143.3995157519105
 30
0.0
 10
102.7010524916858
 20
-143.3995157519105
 30
0.0
 10
102.7010524916858
 20
-143.179374150403
 30
0.0
 10
102.7010524916858
 20
-143.179374150403
 30
0.0
 10
102.889499214729
 20
-143.1941880609896
 30
0.0
 10
103.1750976304562
 20
-143.1986666851205
 30
0.0
 10
103.2595024698448
 20
-143.1986666851205
 30
0.0
 10
103.2595024698448
 20
-143.1986666851205
 30
0.0
 10
103.8096842188392
 20
-143.1986666851205
 30
0.0
 10
103.8096842188392
 20
-143.1986666851205
 30
0.0
 10
103.8286322440081
 20
-143.1986666851205
 30
0.0
 10
104.1459255381996
 20
-143.1986666851205
 30
0.0
 10
104.3743353688717
 20
-143.179374150403
 30
0.0
 10
104.3743353688717
 20
-143.179374150403
 30
0.0
 10
104.3743353688717
 20
-143.3995157519105
 30
0.0
 10
104.3743353688717
 20
-143.3995157519105
 30
0.0
 10
104.186233155377
 20
-143.3847018413239
 30
0.0
 10
103.9977864323339
 20
-143.3805677267416
 30
0.0
 10
103.8096842188392
 20
-143.3805677267416
 30
0.0
  0
HATCH
  5
ED
330
DE
100
AcDbEntity
  8
レイヤー 1
 62
   250
420
  2299925
440
 33554687
100
AcDbHatch
 10
0.0
 20
0.0
 30
0.0
210
0.0
220
0.0
230
1.0
  2
SOLID
 70
     1
 71
     1
 91
        2
 92
        1
 93
        1
 72
     4
 94
        3
 73
     0
 74
     0
 95
       29
 96
       25
 40
0.0
 40
0.0
 40
0.0
 40
0.0
 40
1.0
 40
1.0
 40
1.0
 40
2.0
 40
2.0
 40
2.0
 40
3.0
 40
3.0
 40
3.0
 40
4.0
 40
4.0
 40
4.0
 40
5.0
 40
5.0
 40
5.0
 40
6.0
 40
6.0
 40
6.0
 40
7.0
 40
7.0
 40
7.0
 40
8.0
 40
8.0
 40
8.0
 40
8.0
 10
103.7080539020243
 20
-142.8514010602073
 10
103.7080539020243
 20
-142.8514010602073
 10
103.3545871052377
 20
-142.8514010602073
 10
103.3545871052377
 20
-142.8514010602073
 10
103.2426215019671
 20
-142.8514010602073
 10
103.1030951348145
 20
-142.8579467416292
 10
102.9952636461262
 20
-142.8706935949247
 10
102.9952636461262
 20
-142.8706935949247
 10
102.9952636461262
 20
-142.6357380828306
 10
102.9952636461262
 20
-142.6357380828306
 10
103.1134304212702
 20
-142.6505519934172
 10
103.2977430297311
 20
-142.6546861079995
 10
103.3545871052377
 20
-142.6546861079995
 10
103.3545871052377
 20
-142.6546861079995
 10
103.7080539020243
 20
-142.6546861079995
 10
103.7080539020243
 20
-142.6546861079995
 10
103.7270019271932
 20
-142.6546861079995
 10
103.930262560823
 20
-142.6546861079995
 10
104.0718559852667
 20
-142.6357380828306
 10
104.0718559852667
 20
-142.6357380828306
 10
104.0718559852667
 20
-142.8706935949247
 10
104.0718559852667
 20
-142.8706935949247
 10
103.9154486502364
 20
-142.8514010602073
 10
103.7249348699021
 20
-142.8514010602073
 10
103.7080539020243
 20
-142.8514010602073
 97
        0
 97
        1
330
EB
 92
        1
 93
        1
 72
     4
 94
        3
 73
     0
 74
     0
 95
       47
 96
       43
 40
0.0
 40
0.0
 40
0.0
 40
0.0
 40
1.0
 40
1.0
 40
1.0
 40
2.0
 40
2.0
 40
2.0
 40
3.0
 40
3.0
 40
3.0
 40
4.0
 40
4.0
 40
4.0
 40
5.0
 40
5.0
 40
5.0
 40
6.0
 40
6.0
 40
6.0
 40
7.0
 40
7.0
 40
7.0
 40
8.0
 40
8.0
 40
8.0
 40
9.0
 40
9.0
 40
9.0
 40
10.0
 40
10.0
 40
10.0
 40
11.0
 40
11.0
 40
11.0
 40
12.0
 40
12.0
 40
12.0
 40
13.0
 40
13.0
 40
13.0
 40
14.0
 40
14.0
 40
14.0
 40
14.0
 10
103.8096842188392
 20
-143.3805677267416
 10
103.8096842188392
 20
-143.3805677267416
 10
103.7080539020243
 20
-143.3805677267416
 10
103.7080539020243
 20
-143.3805677267416
 10
103.7080539020243
 20
-143.4670396234214
 10
103.6870388195643
 20
-143.8563354132546
 10
103.4903238673566
 20
-144.0764770147621
 10
103.33770613736
 20
-144.2456312030879
 10
103.1306558986965
 20
-144.3155666414384
 10
103.0459065497593
 20
-144.3431274053204
 10
103.0459065497593
 20
-144.3431274053204
 10
102.8512586548427
 20
-144.1760402742858
 10
102.8512586548427
 20
-144.1760402742858
 10
102.9487548570753
 20
-144.1632934209904
 10
103.1241102172745
 20
-144.1398667716907
 10
103.3125569403177
 20
-143.9517645581961
 10
103.3866264932505
 20
-143.8797620625543
 10
103.4903238673566
 20
-143.7402356954017
 10
103.4903238673566
 20
-143.3805677267416
 10
103.4903238673566
 20
-143.3805677267416
 10
103.2595024698448
 20
-143.3805677267416
 10
103.2595024698448
 20
-143.3805677267416
 10
103.0734673136413
 20
-143.3805677267416
 10
102.8870876478893
 20
-143.3847018413239
 10
102.7010524916858
 20
-143.3995157519105
 10
102.7010524916858
 20
-143.3995157519105
 10
102.7010524916858
 20
-143.179374150403
 10
102.7010524916858
 20
-143.179374150403
 10
102.889499214729
 20
-143.1941880609896
 10
103.1750976304562
 20
-143.1986666851205
 10
103.2595024698448
 20
-143.1986666851205
 10
103.2595024698448
 20
-143.1986666851205
 10
103.8096842188392
 20
-143.1986666851205
 10
103.8096842188392
 20
-143.1986666851205
 10
103.8286322440081
 20
-143.1986666851205
 10
104.1459255381996
 20
-143.1986666851205
 10
104.3743353688717
 20
-143.179374150403
 10
104.3743353688717
 20
-143.179374150403
 10
104.3743353688717
 20
-143.3995157519105
 10
104.3743353688717
 20
-143.3995157519105
 10
104.186233155377
 20
-143.3847018413239
 10
103.9977864323339
 20
-143.3805677267416
 10
103.8096842188392
 20
-143.3805677267416
 97
        0
 97
        1
330
EC
 75
     2
 76
     1
 98
        1
 10
0.0
 20
0.0
450
        0
451
        0
460
0.0
461
0.0
452
        0
462
0.0
453
        0
470

  0
SPLINE
  5
EE
330
DE
100
AcDbEntity
  8
レイヤー 1
100
AcDbSpline
210
0.0
220
0.0
230
1.0
 70
     9
 71
     3
 72
    29
 73
    25
 74
     0
 42
0.0000000001
 43
0.0000000001
 40
0.0
 40
0.0
 40
0.0
 40
0.0
 40
1.0
 40
1.0
 40
1.0
 40
2.0
 40
2.0
 40
2.0
 40
3.0
 40
3.0
 40
3.0
 40
4.0
 40
4.0
 40
4.0
 40
5.0
 40
5.0
 40
5.0
 40
6.0
 40
6.0
 40
6.0
 40
7.0
 40
7.0
 40
7.0
 40
8.0
 40
8.0
 40
8.0
 40
8.0
 10
105.6555663798361
 20
-143.5431762336454
 30
0.0
 10
105.6555663798361
 20
-143.5431762336454
 30
0.0
 10
105.17118595461
 20
-143.5431762336454
 30
0.0
 10
105.17118595461
 20
-143.5431762336454
 30
0.0
 10
105.143625190728
 20
-143.5431762336454
 30
0.0
 10
104.8263318965364
 20
-143.5431762336454
 30
0.0
 10
104.6148030337421
 20
-143.5686699402363
 30
0.0
 10
104.6148030337421
 20
-143.5686699402363
 30
0.0
 10
104.6148030337421
 20
-143.3381930522731
 30
0.0
 10
104.6148030337421
 20
-143.3381930522731
 30
0.0
 10
104.7732774260636
 20
-143.3612751920242
 30
0.0
 10
104.9637912063979
 20
-143.3636867588639
 30
0.0
 10
105.17118595461
 20
-143.3636867588639
 30
0.0
 10
105.17118595461
 20
-143.3636867588639
 30
0.0
 10
105.6555663798361
 20
-143.3636867588639
 30
0.0
 10
105.6555663798361
 20
-143.3636867588639
 30
0.0
 10
105.8416015360396
 20
-143.3636867588639
 30
0.0
 10
106.0279812017916
 20
-143.3612751920242
 30
0.0
 10
106.2119493007039
 20
-143.3381930522731
 30
0.0
 10
106.2119493007039
 20
-143.3381930522731
 30
0.0
 10
106.2119493007039
 20
-143.5686699402363
 30
0.0
 10
106.2119493007039
 20
-143.5686699402363
 30
0.0
 10
106.0279812017916
 20
-143.5455878004851
 30
0.0
 10
105.7802788364021
 20
-143.5431762336454
 30
0.0
 10
105.6555663798361
 20
-143.5431762336454
 30
0.0
  0
HATCH
  5
EF
330
DE
100
AcDbEntity
  8
レイヤー 1
 62
   250
420
  2299925
440
 33554687
100
AcDbHatch
 10
0.0
 20
0.0
 30
0.0
210
0.0
220
0.0
230
1.0
  2
SOLID
 70
     1
 71
     1
 91
        1
 92
        1
 93
        1
 72
     4
 94
        3
 73
     0
 74
     0
 95
       29
 96
       25
 40
0.0
 40
0.0
 40
0.0
 40
0.0
 40
1.0
 40
1.0
 40
1.0
 40
2.0
 40
2.0
 40
2.0
 40
3.0
 40
3.0
 40
3.0
 40
4.0
 40
4.0
 40
4.0
 40
5.0
 40
5.0
 40
5.0
 40
6.0
 40
6.0
 40
6.0
 40
7.0
 40
7.0
 40
7.0
 40
8.0
 40
8.0
 40
8.0
 40
8.0
 10
105.6555663798361
 20
-143.5431762336454
 10
105.6555663798361
 20
-143.5431762336454
 10
105.17118595461
 20
-143.5431762336454
 10
105.17118595461
 20
-143.5431762336454
 10
105.143625190728
 20
-143.5431762336454
 10
104.8263318965364
 20
-143.5431762336454
 10
104.6148030337421
 20
-143.5686699402363
 10
104.6148030337421
 20
-143.5686699402363
 10
104.6148030337421
 20
-143.3381930522731
 10
104.6148030337421
 20
-143.3381930522731
 10
104.7732774260636
 20
-143.3612751920242
 10
104.9637912063979
 20
-143.3636867588639
 10
105.17118595461
 20
-143.3636867588639
 10
105.17118595461
 20
-143.3636867588639
 10
105.6555663798361
 20
-143.3636867588639
 10
105.6555663798361
 20
-143.3636867588639
 10
105.8416015360396
 20
-143.3636867588639
 10
106.0279812017916
 20
-143.3612751920242
 10
106.2119493007039
 20
-143.3381930522731
 10
106.2119493007039
 20
-143.3381930522731
 10
106.2119493007039
 20
-143.5686699402363
 10
106.2119493007039
 20
-143.5686699402363
 10
106.0279812017916
 20
-143.5455878004851
 10
105.7802788364021
 20
-143.5431762336454
 10
105.6555663798361
 20
-143.5431762336454
 97
        0
 97
        1
330
EE
 75
     2
 76
     1
 98
        1
 10
0.0
 20
0.0
450
        0
451
        0
460
0.0
461
0.0
452
        0
462
0.0
453
        0
470

  0
SPLINE
  5
F0
330
DE
100
AcDbEntity
  8
レイヤー 1
100
AcDbSpline
210
0.0
220
0.0
230
1.0
 70
     9
 71
     3
 72
    17
 73
    13
 74
     0
 42
0.0000000001
 43
0.0000000001
 40
0.0
 40
0.0
 40
0.0
 40
0.0
 40
1.0
 40
1.0
 40
1.0
 40
2.0
 40
2.0
 40
2.0
 40
3.0
 40
3.0
 40
3.0
 40
4.0
 40
4.0
 40
4.0
 40
4.0
 10
108.07436792003
 20
-142.5764824404843
 30
0.0
 10
108.0195909018145
 20
-142.5764824404843
 30
0.0
 10
107.9751491700548
 20
-142.6209241722441
 30
0.0
 10
107.9751491700548
 20
-142.676045700008
 30
0.0
 10
107.9751491700548
 20
-142.7332342850632
 30
0.0
 10
108.0195909018145
 20
-142.7818101314052
 30
0.0
 10
108.0785020346123
 20
-142.7818101314052
 30
0.0
 10
108.1377576769586
 20
-142.7818101314052
 30
0.0
 10
108.178065294136
 20
-142.7308227182235
 30
0.0
 10
108.178065294136
 20
-142.6781127572992
 30
0.0
 10
108.178065294136
 20
-142.6209241722441
 30
0.0
 10
108.1315565050851
 20
-142.5764824404843
 30
0.0
 10
108.07436792003
 20
-142.5764824404843
 30
0.0
  0
SPLINE
  5
F1
330
DE
100
AcDbEntity
  8
レイヤー 1
100
AcDbSpline
210
0.0
220
0.0
230
1.0
 70
     9
 71
     3
 72
    17
 73
    13
 74
     0
 42
0.0000000001
 43
0.0000000001
 40
0.0
 40
0.0
 40
0.0
 40
0.0
 40
1.0
 40
1.0
 40
1.0
 40
2.0
 40
2.0
 40
2.0
 40
3.0
 40
3.0
 40
3.0
 40
4.0
 40
4.0
 40
4.0
 40
4.0
 10
108.0764349773212
 20
-142.9065225879713
 30
0.0
 10
107.949655463464
 20
-142.9065225879713
 30
0.0
 10
107.8480251466491
 20
-142.8048922711564
 30
0.0
 10
107.8480251466491
 20
-142.6781127572992
 30
0.0
 10
107.8480251466491
 20
-142.551333243442
 30
0.0
 10
107.949655463464
 20
-142.447635869336
 30
0.0
 10
108.0764349773212
 20
-142.447635869336
 30
0.0
 10
108.2035590007269
 20
-142.447635869336
 30
0.0
 10
108.3072563748329
 20
-142.551333243442
 30
0.0
 10
108.3072563748329
 20
-142.6781127572992
 30
0.0
 10
108.3072563748329
 20
-142.8048922711564
 30
0.0
 10
108.2035590007269
 20
-142.9065225879713
 30
0.0
 10
108.0764349773212
 20
-142.9065225879713
 30
0.0
  0
SPLINE
  5
F2
330
DE
100
AcDbEntity
  8
レイヤー 1
100
AcDbSpline
210
0.0
220
0.0
230
1.0
 70
     9
 71
     3
 72
    44
 73
    40
 74
     0
 42
0.0000000001
 43
0.0000000001
 40
0.0
 40
0.0
 40
0.0
 40
0.0
 40
1.0
 40
1.0
 40
1.0
 40
2.0
 40
2.0
 40
2.0
 40
3.0
 40
3.0
 40
3.0
 40
4.0
 40
4.0
 40
4.0
 40
5.0
 40
5.0
 40
5.0
 40
6.0
 40
6.0
 40
6.0
 40
7.0
 40
7.0
 40
7.0
 40
8.0
 40
8.0
 40
8.0
 40
9.0
 40
9.0
 40
9.0
 40
10.0
 40
10.0
 40
10.0
 40
11.0
 40
11.0
 40
11.0
 40
12.0
 40
12.0
 40
12.0
 40
13.0
 40
13.0
 40
13.0
 40
13.0
 10
107.866973171818
 20
-143.1053045974702
 30
0.0
 10
107.7550075685473
 20
-143.4735853048434
 30
0.0
 10
107.7043646649142
 20
-143.6320596971649
 30
0.0
 10
107.5076497127064
 20
-143.8818291198455
 30
0.0
 10
107.3233371042455
 20
-144.1123060078087
 30
0.0
 10
107.0866590444089
 20
-144.2986856735607
 30
0.0
 10
106.8072618005551
 20
-144.3917032516625
 30
0.0
 10
106.8072618005551
 20
-144.3917032516625
 30
0.0
 10
106.6146809629296
 20
-144.2118692673324
 30
0.0
 10
106.6146809629296
 20
-144.2118692673324
 30
0.0
 10
107.2558132327346
 20
-144.0595960468844
 30
0.0
 10
107.5858533802216
 20
-143.5032131260165
 30
0.0
 10
107.6492431371502
 20
-143.0632744325501
 30
0.0
 10
107.6492431371502
 20
-143.0632744325501
 30
0.0
 10
106.8833984107791
 20
-143.0632744325501
 30
0.0
 10
106.8833984107791
 20
-143.0632744325501
 30
0.0
 10
106.7903808326774
 20
-143.0632744325501
 30
0.0
 10
106.606412733765
 20
-143.0674085471324
 30
0.0
 10
106.4496608891862
 20
-143.0863565723013
 30
0.0
 10
106.4496608891862
 20
-143.0863565723013
 30
0.0
 10
106.4496608891862
 20
-142.8662149707938
 30
0.0
 10
106.4496608891862
 20
-142.8662149707938
 30
0.0
 10
106.5364772954145
 20
-142.8875745628024
 30
0.0
 10
106.7883137753862
 20
-142.8875745628024
 30
0.0
 10
106.8875325253614
 20
-142.8875745628024
 30
0.0
 10
106.8875325253614
 20
-142.8875745628024
 30
0.0
 10
107.3192029896632
 20
-142.8875745628024
 30
0.0
 10
107.3192029896632
 20
-142.8875745628024
 30
0.0
 10
107.3615776641318
 20
-142.8875745628024
 30
0.0
 10
107.5961886666773
 20
-142.8855075055112
 30
0.0
 10
107.6344292265636
 20
-142.8789618240893
 30
0.0
 10
107.6768039010322
 20
-142.8727606522158
 30
0.0
 10
107.6788709583233
 20
-142.8706935949247
 30
0.0
 10
107.7401936579608
 20
-142.8303859777473
 30
0.0
 10
107.7401936579608
 20
-142.8303859777473
 30
0.0
 10
107.9282958714554
 20
-142.9847262554864
 30
0.0
 10
107.9282958714554
 20
-142.9847262554864
 30
0.0
 10
107.8990125598308
 20
-143.0143540766596
 30
0.0
 10
107.8841986492442
 20
-143.0460489551239
 30
0.0
 10
107.866973171818
 20
-143.1053045974702
 30
0.0
  0
HATCH
  5
F3
330
DE
100
AcDbEntity
  8
レイヤー 1
 62
   250
420
  2299925
440
 33554687
100
AcDbHatch
 10
0.0
 20
0.0
 30
0.0
210
0.0
220
0.0
230
1.0
  2
SOLID
 70
     1
 71
     1
 91
        3
 92
        1
 93
        1
 72
     4
 94
        3
 73
     0
 74
     0
 95
       17
 96
       13
 40
0.0
 40
0.0
 40
0.0
 40
0.0
 40
1.0
 40
1.0
 40
1.0
 40
2.0
 40
2.0
 40
2.0
 40
3.0
 40
3.0
 40
3.0
 40
4.0
 40
4.0
 40
4.0
 40
4.0
 10
108.07436792003
 20
-142.5764824404843
 10
108.0195909018145
 20
-142.5764824404843
 10
107.9751491700548
 20
-142.6209241722441
 10
107.9751491700548
 20
-142.676045700008
 10
107.9751491700548
 20
-142.7332342850632
 10
108.0195909018145
 20
-142.7818101314052
 10
108.0785020346123
 20
-142.7818101314052
 10
108.1377576769586
 20
-142.7818101314052
 10
108.178065294136
 20
-142.7308227182235
 10
108.178065294136
 20
-142.6781127572992
 10
108.178065294136
 20
-142.6209241722441
 10
108.1315565050851
 20
-142.5764824404843
 10
108.07436792003
 20
-142.5764824404843
 97
        0
 97
        1
330
F0
 92
        1
 93
        1
 72
     4
 94
        3
 73
     0
 74
     0
 95
       17
 96
       13
 40
0.0
 40
0.0
 40
0.0
 40
0.0
 40
1.0
 40
1.0
 40
1.0
 40
2.0
 40
2.0
 40
2.0
 40
3.0
 40
3.0
 40
3.0
 40
4.0
 40
4.0
 40
4.0
 40
4.0
 10
108.0764349773212
 20
-142.9065225879713
 10
107.949655463464
 20
-142.9065225879713
 10
107.8480251466491
 20
-142.8048922711564
 10
107.8480251466491
 20
-142.6781127572992
 10
107.8480251466491
 20
-142.551333243442
 10
107.949655463464
 20
-142.447635869336
 10
108.0764349773212
 20
-142.447635869336
 10
108.2035590007269
 20
-142.447635869336
 10
108.3072563748329
 20
-142.551333243442
 10
108.3072563748329
 20
-142.6781127572992
 10
108.3072563748329
 20
-142.8048922711564
 10
108.2035590007269
 20
-142.9065225879713
 10
108.0764349773212
 20
-142.9065225879713
 97
        0
 97
        1
330
F1
 92
        1
 93
        1
 72
     4
 94
        3
 73
     0
 74
     0
 95
       44
 96
       40
 40
0.0
 40
0.0
 40
0.0
 40
0.0
 40
1.0
 40
1.0
 40
1.0
 40
2.0
 40
2.0
 40
2.0
 40
3.0
 40
3.0
 40
3.0
 40
4.0
 40
4.0
 40
4.0
 40
5.0
 40
5.0
 40
5.0
 40
6.0
 40
6.0
 40
6.0
 40
7.0
 40
7.0
 40
7.0
 40
8.0
 40
8.0
 40
8.0
 40
9.0
 40
9.0
 40
9.0
 40
10.0
 40
10.0
 40
10.0
 40
11.0
 40
11.0
 40
11.0
 40
12.0
 40
12.0
 40
12.0
 40
13.0
 40
13.0
 40
13.0
 40
13.0
 10
107.866973171818
 20
-143.1053045974702
 10
107.7550075685473
 20
-143.4735853048434
 10
107.7043646649142
 20
-143.6320596971649
 10
107.5076497127064
 20
-143.8818291198455
 10
107.3233371042455
 20
-144.1123060078087
 10
107.0866590444089
 20
-144.2986856735607
 10
106.8072618005551
 20
-144.3917032516625
 10
106.8072618005551
 20
-144.3917032516625
 10
106.6146809629296
 20
-144.2118692673324
 10
106.6146809629296
 20
-144.2118692673324
 10
107.2558132327346
 20
-144.0595960468844
 10
107.5858533802216
 20
-143.5032131260165
 10
107.6492431371502
 20
-143.0632744325501
 10
107.6492431371502
 20
-143.0632744325501
 10
106.8833984107791
 20
-143.0632744325501
 10
106.8833984107791
 20
-143.0632744325501
 10
106.7903808326774
 20
-143.0632744325501
 10
106.606412733765
 20
-143.0674085471324
 10
106.4496608891862
 20
-143.0863565723013
 10
106.4496608891862
 20
-143.0863565723013
 10
106.4496608891862
 20
-142.8662149707938
 10
106.4496608891862
 20
-142.8662149707938
 10
106.5364772954145
 20
-142.8875745628024
 10
106.7883137753862
 20
-142.8875745628024
 10
106.8875325253614
 20
-142.8875745628024
 10
106.8875325253614
 20
-142.8875745628024
 10
107.3192029896632
 20
-142.8875745628024
 10
107.3192029896632
 20
-142.8875745628024
 10
107.3615776641318
 20
-142.8875745628024
 10
107.5961886666773
 20
-142.8855075055112
 10
107.6344292265636
 20
-142.8789618240893
 10
107.6768039010322
 20
-142.8727606522158
 10
107.6788709583233
 20
-142.8706935949247
 10
107.7401936579608
 20
-142.8303859777473
 10
107.7401936579608
 20
-142.8303859777473
 10
107.9282958714554
 20
-142.9847262554864
 10
107.9282958714554
 20
-142.9847262554864
 10
107.8990125598308
 20
-143.0143540766596
 10
107.8841986492442
 20
-143.0460489551239
 10
107.866973171818
 20
-143.1053045974702
 97
        0
 97
        1
330
F2
 75
     2
 76
     1
 98
        1
 10
0.0
 20
0.0
450
        0
451
        0
460
0.0
461
0.0
452
        0
462
0.0
453
        0
470

  0
ENDBLK
  5
E1
330
DE
100
AcDbEntity
  8
0
100
AcDbBlockEnd
  0
ENDSEC
  0
SECTION
  2
ENTITIES
  0
LWPOLYLINE
  5
79
330
70
100
AcDbEntity
  8
レイヤー 1
100
AcDbPolyline
 90
        4
 70
     1
 43
0.0
 10
84.19828463735775
 20
-134.2607192368875
 10
121.7687571002884
 20
-157.8968303420895
 10
121.4104659594445
 20
-149.9006730200228
 10
83.83999349651391
 20
-126.2645619148208
  0
HATCH
  5
7A
330
70
100
AcDbEntity
  8
レイヤー 1
 62
   254
420
 12306406
440
 33554687
100
AcDbHatch
 10
0.0
 20
0.0
 30
0.0
210
0.0
220
0.0
230
1.0
  2
SOLID
 70
     1
 71
     1
 91
        1
 92
        1
 93
        4
 72
     1
 10
84.19828463735775
 20
-134.2607192368875
 11
121.7687571002884
 21
-157.8968303420895
 72
     1
 10
121.7687571002884
 20
-157.8968303420895
 11
121.4104659594445
 21
-149.9006730200228
 72
     1
 10
121.4104659594445
 20
-149.9006730200228
 11
83.83999349651391
 21
-126.2645619148208
 72
     1
 10
83.83999349651391
 20
-126.2645619148208
 11
84.19828463735775
 21
-134.2607192368875
 97
        1
330
79
 75
     2
 76
     1
 98
        1
 10
0.0
 20
0.0
450
        0
451
        0
460
0.0
461
0.0
452
        0
462
0.0
453
        0
470

  0
LWPOLYLINE
  5
7B
330
70
100
AcDbEntity
  8
レイヤー 1
 62
   250
420
  2299925
370
     9
100
AcDbPolyline
 90
        8
 70
     0
 43
0.0
 10
83.83999349651391
 20
-126.2645619148208
 10
121.4104659594445
 20
-149.9006730200228
 10
121.9988992777657
 20
-162.8356230167895
 10
113.7671836556988
 20
-166.2455730159361
 10
110.5921836564926
 20
-166.1870119048405
 10
105.9475114354317
 20
-163.306228572227
 10
107.1229669906929
 20
-161.8358507948163
 10
115.5896336552436
 20
-158.8372396844548
  0
LWPOLYLINE
  5
7C
330
70
100
AcDbEntity
  8
レイヤー 1
 62
   250
420
  2299925
370
     9
100
AcDbPolyline
 90
        6
 70
     0
 43
0.0
 10
105.9475114354317
 20
-163.306228572227
 10
105.9475114354317
 20
-163.8353952387614
 10
110.5921836564926
 20
-166.7161785713749
 10
113.9435725445436
 20
-166.7161785713749
 10
122.0574603873828
 20
-163.306228572227
 10
122.0574603873828
 20
-163.6590063499166
  0
LINE
  5
7D
330
70
100
AcDbEntity
  8
レイヤー 1
 62
   250
420
  2299925
370
     9
100
AcDbLine
 10
108.9309531013527
 20
-155.2509007964634
 30
0.0
 11
114.9281753220756
 21
-159.0873591288376
 31
0.0
  0
LINE
  5
7E
330
70
100
AcDbEntity
  8
レイヤー 1
 62
   250
420
  2299925
370
     9
100
AcDbLine
 10
84.19277127420349
 20
-139.2436091337983
 30
0.0
 11
90.54241143928285
 21
-143.2564563550173
 31
0.0
  0
LINE
  5
7F
330
70
100
AcDbEntity
  8
レイヤー 1
 62
   250
420
  2299925
370
     9
100
AcDbLine
 10
96.84831421548416
 20
-147.4456924650811
 30
0.0
 11
102.1399808808279
 21
-150.8411785753436
 31
0.0
  0
LWPOLYLINE
  5
80
330
70
100
AcDbEntity
  8
レイヤー 1
 62
   250
420
  2299925
370
     9
100
AcDbPolyline
 90
        8
 70
     1
 43
0.0
 10
90.98338366139484
 20
-143.1682619105949
 10
83.13443794113474
 20
-145.2849285767324
 10
82.03200738585479
 20
-146.4314563542235
 10
82.03200738585479
 20
-146.7842341319131
 10
86.70595310690863
 20
-149.3418730201629
 10
89.96914755053728
 20
-149.4741646867965
 10
97.59796699307452
 20
-147.1811091318139
 10
97.59796699307452
 20
-146.8283313541243
  0
LINE
  5
81
330
70
100
AcDbEntity
  8
レイヤー 1
 62
   250
420
  2299925
370
     9
100
AcDbLine
 10
115.6489003218947
 20
-158.8372396844548
 30
0.0
 11
121.9988992777657
 21
-162.8941841278851
 31
0.0
  0
LWPOLYLINE
  5
82
330
70
100
AcDbEntity
  8
レイヤー 1
 62
   250
420
  2299925
370
     9
100
AcDbPolyline
 90
        5
 70
     0
 43
0.0
 10
121.7632437282222
 20
-163.4826174610718
 10
122.2336728828872
 20
-163.8353952387614
 10
122.5278895420478
 20
-163.4826174610718
 10
121.8225103933769
 20
-149.6064563534301
 10
83.83999349651391
 20
-125.9703452482277
  0
LINE
  5
83
330
70
100
AcDbEntity
  8
レイヤー 1
 62
   250
420
  2299925
370
     9
100
AcDbLine
 10
110.5921836564926
 20
-166.1870119048405
 30
0.0
 11
110.5921836564926
 21
-166.7161785713749
 31
0.0
  0
LINE
  5
84
330
70
100
AcDbEntity
  8
レイヤー 1
 62
   250
420
  2299925
370
     9
100
AcDbLine
 10
113.9056842112195
 20
-166.2752063492629
 30
0.0
 11
113.9056842112195
 21
-166.6720813491637
 31
0.0
  0
LWPOLYLINE
  5
85
330
70
100
AcDbEntity
  8
レイヤー 1
 62
   250
420
  2299925
370
     9
100
AcDbPolyline
 90
        4
 70
     0
 43
0.0
 10
97.59796699307452
 20
-146.8724285763355
 10
89.8368558839037
 20
-149.1654841313181
 10
86.61775866248623
 20
-148.9449980202621
 10
82.03200738585479
 20
-146.4314563542235
  0
LINE
  5
86
330
70
100
AcDbEntity
  8
レイヤー 1
 62
   250
420
  2299925
370
     9
100
AcDbLine
 10
86.61775866248623
 20
-148.9449980202621
 30
0.0
 11
86.61775866248623
 21
-149.3418730201629
 31
0.0
  0
LINE
  5
87
330
70
100
AcDbEntity
  8
レイヤー 1
 62
   250
420
  2299925
370
     9
100
AcDbLine
 10
89.93711532832309
 20
-149.1544774646538
 30
0.0
 11
89.93711532832309
 21
-149.4852066312377
 31
0.0
  0
LWPOLYLINE
  5
88
330
70
100
AcDbEntity
  8
レイヤー 1
 62
   250
420
  2299925
370
     9
100
AcDbPolyline
 90
        8
 70
     1
 43
0.0
 10
102.9337308806294
 20
-150.6647896864988
 10
109.5042169900983
 20
-154.5894424632955
 10
109.5042169900983
 20
-154.9863174631962
 10
101.1698419921815
 20
-157.5439563514457
 10
97.77435588191933
 20
-157.4557619070233
 10
93.10005032753233
 20
-154.6776369077179
 10
93.10005032753233
 20
-154.3248591300283
 10
94.29067532723468
 20
-153.0460396859036
  0
LWPOLYLINE
  5
89
330
70
100
AcDbEntity
  8
レイヤー 1
 62
   250
420
  2299925
370
     9
100
AcDbPolyline
 90
        4
 70
     0
 43
0.0
 10
109.5042169900983
 20
-154.5894424632955
 10
101.2139392143927
 20
-157.0588869071225
 10
97.90664754855292
 20
-157.0588869071225
 10
93.10005032753233
 20
-154.3248591300283
  0
LINE
  5
8A
330
70
100
AcDbEntity
  8
レイヤー 1
 62
   250
420
  2299925
370
     9
100
AcDbLine
 10
101.2139392143927
 20
-157.0919774626694
 30
0.0
 11
101.2139392143927
 21
-157.5109010736758
 31
0.0
  0
LINE
  5
8B
330
70
100
AcDbEntity
  8
レイヤー 1
 62
   250
420
  2299925
370
     9
100
AcDbLine
 10
97.90664754855292
 20
-157.0588869071225
 30
0.0
 11
97.90664754855292
 21
-157.4557619070233
 31
0.0
  0
LINE
  5
8C
330
70
100
AcDbEntity
  8
レイヤー 1
 62
   250
420
  2299925
370
     9
100
AcDbLine
 10
123.2183109133226
 20
-149.6064563534301
 30
0.0
 11
127.1870608120713
 21
-149.6064563534301
 31
0.0
  0
LINE
  5
8D
330
70
100
AcDbEntity
  8
レイヤー 1
 62
   250
420
  2299925
370
     9
100
AcDbLine
 10
125.643658073669
 20
-149.6505535756413
 30
0.0
 11
125.643658073669
 21
-155.603678574153
 31
0.0
  0
LINE
  5
8E
330
70
100
AcDbEntity
  8
レイヤー 1
 62
   250
420
  2299925
370
     9
100
AcDbLine
 10
123.1301164711281
 20
-163.7616646832246
 30
0.0
 11
127.2311580331685
 21
-163.7616646832246
 31
0.0
  0
LINE
  5
8F
330
70
100
AcDbEntity
  8
レイヤー 1
 62
   250
420
  2299925
370
     9
100
AcDbLine
 10
125.5995608525718
 20
-163.6734702388022
 30
0.0
 11
125.5995608525718
 21
-157.8967341291353
 31
0.0
  0
LINE
  5
90
330
70
100
AcDbEntity
  8
レイヤー 1
 62
   250
420
  2299925
370
     9
100
AcDbLine
 10
113.1642864336277
 20
-168.965136904146
 30
0.0
 11
115.4132447663988
 21
-170.8613174592275
 31
0.0
  0
LINE
  5
91
330
70
100
AcDbEntity
  8
レイヤー 1
 62
   250
420
  2299925
370
     9
100
AcDbLine
 10
114.7517864332308
 20
-170.2880535704819
 30
0.0
 11
118.0149799349595
 21
-168.8328452375124
 31
0.0
  0
LINE
  5
92
330
70
100
AcDbEntity
  8
レイヤー 1
 62
   250
420
  2299925
370
     9
100
AcDbLine
 10
121.939632612611
 20
-167.0689563490645
 30
0.0
 11
125.0262969783081
 21
-165.7019424605173
 31
0.0
  0
LINE
  5
93
330
70
100
AcDbEntity
  8
レイヤー 1
 62
   250
420
  2299925
370
     9
100
AcDbLine
 10
123.4387970188086
 20
-164.4231230163926
 30
0.0
 11
125.643658073669
 21
-166.4074980158965
 31
0.0
  0
LINE
  5
94
330
70
100
AcDbEntity
  8
レイヤー 1
 62
   250
420
  2299925
370
     9
100
AcDbLine
 10
95.08442532703623
 20
-159.396039684316
 30
0.0
 11
98.1271336596089
 21
-158.4699980178809
 31
0.0
  0
LINE
  5
95
330
70
100
AcDbEntity
  8
レイヤー 1
 62
   250
420
  2299925
370
     9
100
AcDbLine
 10
95.7899808824154
 20
-159.17555357326
 30
0.0
 11
97.64206421528571
 21
-160.4543730173848
 31
0.0
  0
LINE
  5
96
330
70
100
AcDbEntity
  8
レイヤー 1
 62
   250
420
  2299925
370
     9
100
AcDbLine
 10
100.6406753256471
 20
-162.5710396835223
 30
0.0
 11
104.5653281024438
 21
-165.3050674606166
 31
0.0
  0
LINE
  5
97
330
70
100
AcDbEntity
  8
レイヤー 1
 62
   250
420
  2299925
370
     9
100
AcDbLine
 10
101.1257447699703
 20
-163.849859127647
 30
0.0
 11
104.1243558803318
 21
-162.8797202390007
 31
0.0
  0
LINE
  5
98
330
70
100
AcDbEntity
  8
レイヤー 1
 62
   250
420
  2299925
370
     9
100
AcDbLine
 10
108.4458836570295
 20
-169.0092341263572
 30
0.0
 11
111.3122031007574
 21
-167.7304146822324
 31
0.0
  0
LINE
  5
99
330
70
100
AcDbEntity
  8
レイヤー 1
 62
   250
420
  2299925
370
     9
100
AcDbLine
 10
107.4757447683825
 20
-167.421734126754
 30
0.0
 11
109.3278281012535
 21
-168.6564563486676
 31
0.0
  0
SPLINE
  5
9A
330
70
100
AcDbEntity
  8
レイヤー 1
100
AcDbSpline
210
0.0
220
0.0
230
1.0
 70
     9
 71
     3
 72
    17
 73
    13
 74
     0
 42
0.0000000001
 43
0.0000000001
 40
0.0
 40
0.0
 40
0.0
 40
0.0
 40
1.0
 40
1.0
 40
1.0
 40
2.0
 40
2.0
 40
2.0
 40
3.0
 40
3.0
 40
3.0
 40
4.0
 40
4.0
 40
4.0
 40
4.0
 10
96.00185921569568
 20
-159.1931219065886
 30
0.0
 10
96.00185921569568
 20
-159.3247432954442
 30
0.0
 10
95.89542616016675
 20
-159.4311763509731
 30
0.0
 10
95.76380477131083
 20
-159.4311763509731
 30
0.0
 10
95.63221866023244
 20
-159.4311763509731
 30
0.0
 10
95.52539754914823
 20
-159.3247432954442
 30
0.0
 10
95.52539754914823
 20
-159.1931219065886
 30
0.0
 10
95.52539754914823
 20
-159.0618885732876
 30
0.0
 10
95.63221866023244
 20
-158.9550674622041
 30
0.0
 10
95.76380477131083
 20
-158.9550674622041
 30
0.0
 10
95.89542616016675
 20
-158.9550674622041
 30
0.0
 10
96.00185921569568
 20
-159.0618885732876
 30
0.0
 10
96.00185921569568
 20
-159.1931219065886
 30
0.0
  0
HATCH
  5
9B
330
70
100
AcDbEntity
  8
レイヤー 1
 62
   250
420
  2299925
440
 33554687
100
AcDbHatch
 10
0.0
 20
0.0
 30
0.0
210
0.0
220
0.0
230
1.0
  2
SOLID
 70
     1
 71
     1
 91
        1
 92
        1
 93
        1
 72
     4
 94
        3
 73
     0
 74
     0
 95
       17
 96
       13
 40
0.0
 40
0.0
 40
0.0
 40
0.0
 40
1.0
 40
1.0
 40
1.0
 40
2.0
 40
2.0
 40
2.0
 40
3.0
 40
3.0
 40
3.0
 40
4.0
 40
4.0
 40
4.0
 40
4.0
 10
96.00185921569568
 20
-159.1931219065886
 10
96.00185921569568
 20
-159.3247432954442
 10
95.89542616016675
 20
-159.4311763509731
 10
95.76380477131083
 20
-159.4311763509731
 10
95.63221866023244
 20
-159.4311763509731
 10
95.52539754914823
 20
-159.3247432954442
 10
95.52539754914823
 20
-159.1931219065886
 10
95.52539754914823
 20
-159.0618885732876
 10
95.63221866023244
 20
-158.9550674622041
 10
95.76380477131083
 20
-158.9550674622041
 10
95.89542616016675
 20
-158.9550674622041
 10
96.00185921569568
 20
-159.0618885732876
 10
96.00185921569568
 20
-159.1931219065886
 97
        0
 97
        1
330
9A
 75
     2
 76
     1
 98
        1
 10
0.0
 20
0.0
450
        0
451
        0
460
0.0
461
0.0
452
        0
462
0.0
453
        0
470

  0
SPLINE
  5
9C
330
70
100
AcDbEntity
  8
レイヤー 1
100
AcDbSpline
210
0.0
220
0.0
230
1.0
 70
     9
 71
     3
 72
    17
 73
    13
 74
     0
 42
0.0000000001
 43
0.0000000001
 40
0.0
 40
0.0
 40
0.0
 40
0.0
 40
1.0
 40
1.0
 40
1.0
 40
2.0
 40
2.0
 40
2.0
 40
3.0
 40
3.0
 40
3.0
 40
4.0
 40
4.0
 40
4.0
 40
4.0
 10
102.2195675474746
 20
-163.5587469054972
 30
0.0
 10
102.2195675474746
 20
-163.6903682943528
 30
0.0
 10
102.1131344919456
 20
-163.7968013498817
 30
0.0
 10
101.9815131030897
 20
-163.7968013498817
 30
0.0
 10
101.8499269920113
 20
-163.7968013498817
 30
0.0
 10
101.7431058809271
 20
-163.6903682943528
 30
0.0
 10
101.7431058809271
 20
-163.5587469054972
 30
0.0
 10
101.7431058809271
 20
-163.4275135721962
 30
0.0
 10
101.8499269920113
 20
-163.3206924611127
 30
0.0
 10
101.9815131030897
 20
-163.3206924611127
 30
0.0
 10
102.1131344919456
 20
-163.3206924611127
 30
0.0
 10
102.2195675474746
 20
-163.4275135721962
 30
0.0
 10
102.2195675474746
 20
-163.5587469054972
 30
0.0
  0
HATCH
  5
9D
330
70
100
AcDbEntity
  8
レイヤー 1
 62
   250
420
  2299925
440
 33554687
100
AcDbHatch
 10
0.0
 20
0.0
 30
0.0
210
0.0
220
0.0
230
1.0
  2
SOLID
 70
     1
 71
     1
 91
        1
 92
        1
 93
        1
 72
     4
 94
        3
 73
     0
 74
     0
 95
       17
 96
       13
 40
0.0
 40
0.0
 40
0.0
 40
0.0
 40
1.0
 40
1.0
 40
1.0
 40
2.0
 40
2.0
 40
2.0
 40
3.0
 40
3.0
 40
3.0
 40
4.0
 40
4.0
 40
4.0
 40
4.0
 10
102.2195675474746
 20
-163.5587469054972
 10
102.2195675474746
 20
-163.6903682943528
 10
102.1131344919456
 20
-163.7968013498817
 10
101.9815131030897
 20
-163.7968013498817
 10
101.8499269920113
 20
-163.7968013498817
 10
101.7431058809271
 20
-163.6903682943528
 10
101.7431058809271
 20
-163.5587469054972
 10
101.7431058809271
 20
-163.4275135721962
 10
101.8499269920113
 20
-163.3206924611127
 10
101.9815131030897
 20
-163.3206924611127
 10
102.1131344919456
 20
-163.3206924611127
 10
102.2195675474746
 20
-163.4275135721962
 10
102.2195675474746
 20
-163.5587469054972
 97
        0
 97
        1
330
9C
 75
     2
 76
     1
 98
        1
 10
0.0
 20
0.0
450
        0
451
        0
460
0.0
461
0.0
452
        0
462
0.0
453
        0
470

  0
SPLINE
  5
9E
330
70
100
AcDbEntity
  8
レイヤー 1
100
AcDbSpline
210
0.0
220
0.0
230
1.0
 70
     9
 71
     3
 72
    17
 73
    13
 74
     0
 42
0.0000000001
 43
0.0000000001
 40
0.0
 40
0.0
 40
0.0
 40
0.0
 40
1.0
 40
1.0
 40
1.0
 40
2.0
 40
2.0
 40
2.0
 40
3.0
 40
3.0
 40
3.0
 40
4.0
 40
4.0
 40
4.0
 40
4.0
 10
109.5397064345331
 20
-168.5858302375737
 30
0.0
 10
109.5397064345331
 20
-168.7174516264293
 30
0.0
 10
109.4332733790042
 20
-168.8238846819583
 30
0.0
 10
109.3016519901486
 20
-168.8238846819583
 30
0.0
 10
109.1700658790698
 20
-168.8238846819583
 30
0.0
 10
109.0632447679863
 20
-168.7174516264293
 30
0.0
 10
109.0632447679863
 20
-168.5858302375737
 30
0.0
 10
109.0632447679863
 20
-168.4545969042728
 30
0.0
 10
109.1700658790698
 20
-168.3477757931892
 30
0.0
 10
109.3016519901486
 20
-168.3477757931892
 30
0.0
 10
109.4332733790042
 20
-168.3477757931892
 30
0.0
 10
109.5397064345331
 20
-168.4545969042728
 30
0.0
 10
109.5397064345331
 20
-168.5858302375737
 30
0.0
  0
HATCH
  5
9F
330
70
100
AcDbEntity
  8
レイヤー 1
 62
   250
420
  2299925
440
 33554687
100
AcDbHatch
 10
0.0
 20
0.0
 30
0.0
210
0.0
220
0.0
230
1.0
  2
SOLID
 70
     1
 71
     1
 91
        1
 92
        1
 93
        1
 72
     4
 94
        3
 73
     0
 74
     0
 95
       17
 96
       13
 40
0.0
 40
0.0
 40
0.0
 40
0.0
 40
1.0
 40
1.0
 40
1.0
 40
2.0
 40
2.0
 40
2.0
 40
3.0
 40
3.0
 40
3.0
 40
4.0
 40
4.0
 40
4.0
 40
4.0
 10
109.5397064345331
 20
-168.5858302375737
 10
109.5397064345331
 20
-168.7174516264293
 10
109.4332733790042
 20
-168.8238846819583
 10
109.3016519901486
 20
-168.8238846819583
 10
109.1700658790698
 20
-168.8238846819583
 10
109.0632447679863
 20
-168.7174516264293
 10
109.0632447679863
 20
-168.5858302375737
 10
109.0632447679863
 20
-168.4545969042728
 10
109.1700658790698
 20
-168.3477757931892
 10
109.3016519901486
 20
-168.3477757931892
 10
109.4332733790042
 20
-168.3477757931892
 10
109.5397064345331
 20
-168.4545969042728
 10
109.5397064345331
 20
-168.5858302375737
 97
        0
 97
        1
330
9E
 75
     2
 76
     1
 98
        1
 10
0.0
 20
0.0
450
        0
451
        0
460
0.0
461
0.0
452
        0
462
0.0
453
        0
470

  0
SPLINE
  5
A0
330
70
100
AcDbEntity
  8
レイヤー 1
100
AcDbSpline
210
0.0
220
0.0
230
1.0
 70
     9
 71
     3
 72
    17
 73
    13
 74
     0
 42
0.0000000001
 43
0.0000000001
 40
0.0
 40
0.0
 40
0.0
 40
0.0
 40
1.0
 40
1.0
 40
1.0
 40
2.0
 40
2.0
 40
2.0
 40
3.0
 40
3.0
 40
3.0
 40
4.0
 40
4.0
 40
4.0
 40
4.0
 10
114.9636647665104
 20
-170.2615246815993
 30
0.0
 10
114.9636647665104
 20
-170.3931460704549
 30
0.0
 10
114.8572317109815
 20
-170.4995791259838
 30
0.0
 10
114.7256103221259
 20
-170.4995791259838
 30
0.0
 10
114.5940242110472
 20
-170.4995791259838
 30
0.0
 10
114.4872030999636
 20
-170.3931460704549
 30
0.0
 10
114.4872030999636
 20
-170.2615246815993
 30
0.0
 10
114.4872030999636
 20
-170.1302913482983
 30
0.0
 10
114.5940242110472
 20
-170.0234702372147
 30
0.0
 10
114.7256103221259
 20
-170.0234702372147
 30
0.0
 10
114.8572317109815
 20
-170.0234702372147
 30
0.0
 10
114.9636647665104
 20
-170.1302913482983
 30
0.0
 10
114.9636647665104
 20
-170.2615246815993
 30
0.0
  0
HATCH
  5
A1
330
70
100
AcDbEntity
  8
レイヤー 1
 62
   250
420
  2299925
440
 33554687
100
AcDbHatch
 10
0.0
 20
0.0
 30
0.0
210
0.0
220
0.0
230
1.0
  2
SOLID
 70
     1
 71
     1
 91
        1
 92
        1
 93
        1
 72
     4
 94
        3
 73
     0
 74
     0
 95
       17
 96
       13
 40
0.0
 40
0.0
 40
0.0
 40
0.0
 40
1.0
 40
1.0
 40
1.0
 40
2.0
 40
2.0
 40
2.0
 40
3.0
 40
3.0
 40
3.0
 40
4.0
 40
4.0
 40
4.0
 40
4.0
 10
114.9636647665104
 20
-170.2615246815993
 10
114.9636647665104
 20
-170.3931460704549
 10
114.8572317109815
 20
-170.4995791259838
 10
114.7256103221259
 20
-170.4995791259838
 10
114.5940242110472
 20
-170.4995791259838
 10
114.4872030999636
 20
-170.3931460704549
 10
114.4872030999636
 20
-170.2615246815993
 10
114.4872030999636
 20
-170.1302913482983
 10
114.5940242110472
 20
-170.0234702372147
 10
114.7256103221259
 20
-170.0234702372147
 10
114.8572317109815
 20
-170.0234702372147
 10
114.9636647665104
 20
-170.1302913482983
 10
114.9636647665104
 20
-170.2615246815993
 97
        0
 97
        1
330
A0
 75
     2
 76
     1
 98
        1
 10
0.0
 20
0.0
450
        0
451
        0
460
0.0
461
0.0
452
        0
462
0.0
453
        0
470

  0
SPLINE
  5
A2
330
70
100
AcDbEntity
  8
レイヤー 1
100
AcDbSpline
210
0.0
220
0.0
230
1.0
 70
     9
 71
     3
 72
    17
 73
    13
 74
     0
 42
0.0000000001
 43
0.0000000001
 40
0.0
 40
0.0
 40
0.0
 40
0.0
 40
1.0
 40
1.0
 40
1.0
 40
2.0
 40
2.0
 40
2.0
 40
3.0
 40
3.0
 40
3.0
 40
4.0
 40
4.0
 40
4.0
 40
4.0
 10
125.1943967083979
 20
-165.7195107938459
 30
0.0
 10
125.1943967083979
 20
-165.8511321827015
 30
0.0
 10
125.0876097545217
 20
-165.9575652382304
 30
0.0
 10
124.9559883689907
 20
-165.9575652382304
 30
0.0
 10
124.8244022612366
 20
-165.9575652382304
 30
0.0
 10
124.7176164306276
 20
-165.8511321827015
 30
0.0
 10
124.7176164306276
 20
-165.7195107938459
 30
0.0
 10
124.7176164306276
 20
-165.5882774605449
 30
0.0
 10
124.8244022612366
 20
-165.4814563494614
 30
0.0
 10
124.9559883689907
 20
-165.4814563494614
 30
0.0
 10
125.0876097545217
 20
-165.4814563494614
 30
0.0
 10
125.1943967083979
 20
-165.5882774605449
 30
0.0
 10
125.1943967083979
 20
-165.7195107938459
 30
0.0
  0
HATCH
  5
A3
330
70
100
AcDbEntity
  8
レイヤー 1
 62
   250
420
  2299925
440
 33554687
100
AcDbHatch
 10
0.0
 20
0.0
 30
0.0
210
0.0
220
0.0
230
1.0
  2
SOLID
 70
     1
 71
     1
 91
        1
 92
        1
 93
        1
 72
     4
 94
        3
 73
     0
 74
     0
 95
       17
 96
       13
 40
0.0
 40
0.0
 40
0.0
 40
0.0
 40
1.0
 40
1.0
 40
1.0
 40
2.0
 40
2.0
 40
2.0
 40
3.0
 40
3.0
 40
3.0
 40
4.0
 40
4.0
 40
4.0
 40
4.0
 10
125.1943967083979
 20
-165.7195107938459
 10
125.1943967083979
 20
-165.8511321827015
 10
125.0876097545217
 20
-165.9575652382304
 10
124.9559883689907
 20
-165.9575652382304
 10
124.8244022612366
 20
-165.9575652382304
 10
124.7176164306276
 20
-165.8511321827015
 10
124.7176164306276
 20
-165.7195107938459
 10
124.7176164306276
 20
-165.5882774605449
 10
124.8244022612366
 20
-165.4814563494614
 10
124.9559883689907
 20
-165.4814563494614
 10
125.0876097545217
 20
-165.4814563494614
 10
125.1943967083979
 20
-165.5882774605449
 10
125.1943967083979
 20
-165.7195107938459
 97
        0
 97
        1
330
A2
 75
     2
 76
     1
 98
        1
 10
0.0
 20
0.0
450
        0
451
        0
460
0.0
461
0.0
452
        0
462
0.0
453
        0
470

  0
SPLINE
  5
A4
330
70
100
AcDbEntity
  8
レイヤー 1
100
AcDbSpline
210
0.0
220
0.0
230
1.0
 70
     9
 71
     3
 72
    17
 73
    13
 74
     0
 42
0.0000000001
 43
0.0000000001
 40
0.0
 40
0.0
 40
0.0
 40
0.0
 40
1.0
 40
1.0
 40
1.0
 40
2.0
 40
2.0
 40
2.0
 40
3.0
 40
3.0
 40
3.0
 40
4.0
 40
4.0
 40
4.0
 40
4.0
 10
125.8703189304509
 20
-163.7499524610047
 30
0.0
 10
125.8703189304509
 20
-163.881573849861
 30
0.0
 10
125.7635319594997
 20
-163.9883596831677
 30
0.0
 10
125.6319458517456
 20
-163.9883596831677
 30
0.0
 10
125.5003244662147
 20
-163.9883596831677
 30
0.0
 10
125.3942089133663
 20
-163.881573849861
 30
0.0
 10
125.3942089133663
 20
-163.7499524610047
 30
0.0
 10
125.3942089133663
 20
-163.6183663499267
 30
0.0
 10
125.5003244662147
 20
-163.5118980166196
 30
0.0
 10
125.6319458517456
 20
-163.5118980166196
 30
0.0
 10
125.7635319594997
 20
-163.5118980166196
 30
0.0
 10
125.8703189304509
 20
-163.6183663499267
 30
0.0
 10
125.8703189304509
 20
-163.7499524610047
 30
0.0
  0
HATCH
  5
A5
330
70
100
AcDbEntity
  8
レイヤー 1
 62
   250
420
  2299925
440
 33554687
100
AcDbHatch
 10
0.0
 20
0.0
 30
0.0
210
0.0
220
0.0
230
1.0
  2
SOLID
 70
     1
 71
     1
 91
        1
 92
        1
 93
        1
 72
     4
 94
        3
 73
     0
 74
     0
 95
       17
 96
       13
 40
0.0
 40
0.0
 40
0.0
 40
0.0
 40
1.0
 40
1.0
 40
1.0
 40
2.0
 40
2.0
 40
2.0
 40
3.0
 40
3.0
 40
3.0
 40
4.0
 40
4.0
 40
4.0
 40
4.0
 10
125.8703189304509
 20
-163.7499524610047
 10
125.8703189304509
 20
-163.881573849861
 10
125.7635319594997
 20
-163.9883596831677
 10
125.6319458517456
 20
-163.9883596831677
 10
125.5003244662147
 20
-163.9883596831677
 10
125.3942089133663
 20
-163.881573849861
 10
125.3942089133663
 20
-163.7499524610047
 10
125.3942089133663
 20
-163.6183663499267
 10
125.5003244662147
 20
-163.5118980166196
 10
125.6319458517456
 20
-163.5118980166196
 10
125.7635319594997
 20
-163.5118980166196
 10
125.8703189304509
 20
-163.6183663499267
 10
125.8703189304509
 20
-163.7499524610047
 97
        0
 97
        1
330
A4
 75
     2
 76
     1
 98
        1
 10
0.0
 20
0.0
450
        0
451
        0
460
0.0
461
0.0
452
        0
462
0.0
453
        0
470

  0
SPLINE
  5
A6
330
70
100
AcDbEntity
  8
レイヤー 1
100
AcDbSpline
210
0.0
220
0.0
230
1.0
 70
     9
 71
     3
 72
    17
 73
    13
 74
     0
 42
0.0000000001
 43
0.0000000001
 40
0.0
 40
0.0
 40
0.0
 40
0.0
 40
1.0
 40
1.0
 40
1.0
 40
2.0
 40
2.0
 40
2.0
 40
3.0
 40
3.0
 40
3.0
 40
4.0
 40
4.0
 40
4.0
 40
4.0
 10
125.8703189304509
 20
-149.6388413534214
 30
0.0
 10
125.8703189304509
 20
-149.7704627422776
 30
0.0
 10
125.7635319594997
 20
-149.8772485755843
 30
0.0
 10
125.6319458517456
 20
-149.8772485755843
 30
0.0
 10
125.5003244662147
 20
-149.8772485755843
 30
0.0
 10
125.3942089133663
 20
-149.7704627422776
 30
0.0
 10
125.3942089133663
 20
-149.6388413534214
 30
0.0
 10
125.3942089133663
 20
-149.5072552423434
 30
0.0
 10
125.5003244662147
 20
-149.4007869090362
 30
0.0
 10
125.6319458517456
 20
-149.4007869090362
 30
0.0
 10
125.7635319594997
 20
-149.4007869090362
 30
0.0
 10
125.8703189304509
 20
-149.5072552423434
 30
0.0
 10
125.8703189304509
 20
-149.6388413534214
 30
0.0
  0
HATCH
  5
A7
330
70
100
AcDbEntity
  8
レイヤー 1
 62
   250
420
  2299925
440
 33554687
100
AcDbHatch
 10
0.0
 20
0.0
 30
0.0
210
0.0
220
0.0
230
1.0
  2
SOLID
 70
     1
 71
     1
 91
        1
 92
        1
 93
        1
 72
     4
 94
        3
 73
     0
 74
     0
 95
       17
 96
       13
 40
0.0
 40
0.0
 40
0.0
 40
0.0
 40
1.0
 40
1.0
 40
1.0
 40
2.0
 40
2.0
 40
2.0
 40
3.0
 40
3.0
 40
3.0
 40
4.0
 40
4.0
 40
4.0
 40
4.0
 10
125.8703189304509
 20
-149.6388413534214
 10
125.8703189304509
 20
-149.7704627422776
 10
125.7635319594997
 20
-149.8772485755843
 10
125.6319458517456
 20
-149.8772485755843
 10
125.5003244662147
 20
-149.8772485755843
 10
125.3942089133663
 20
-149.7704627422776
 10
125.3942089133663
 20
-149.6388413534214
 10
125.3942089133663
 20
-149.5072552423434
 10
125.5003244662147
 20
-149.4007869090362
 10
125.6319458517456
 20
-149.4007869090362
 10
125.7635319594997
 20
-149.4007869090362
 10
125.8703189304509
 20
-149.5072552423434
 10
125.8703189304509
 20
-149.6388413534214
 97
        0
 97
        1
330
A6
 75
     2
 76
     1
 98
        1
 10
0.0
 20
0.0
450
        0
451
        0
460
0.0
461
0.0
452
        0
462
0.0
453
        0
470

  0
INSERT
  5
A9
330
70
100
AcDbEntity
  8
レイヤー 1
100
AcDbBlockReference
  2
Block_0
 10
0.0
 20
0.0
 30
0.0
  0
INSERT
  5
B5
330
70
100
AcDbEntity
  8
レイヤー 1
100
AcDbBlockReference
  2
Block_2
 10
0.0
 20
0.0
 30
0.0
  0
INSERT
  5
C1
330
70
100
AcDbEntity
  8
レイヤー 1
100
AcDbBlockReference
  2
Block_4
 10
0.0
 20
0.0
 30
0.0
  0
INSERT
  5
CD
330
70
100
AcDbEntity
  8
レイヤー 1
100
AcDbBlockReference
  2
Block_6
 10
0.0
 20
0.0
 30
0.0
  0
LWPOLYLINE
  5
D9
330
70
100
AcDbEntity
  8
レイヤー 1
 62
   250
420
  2299925
370
     9
100
AcDbPolyline
 90
        1
 70
     0
 43
0.0
 10
121.4104659594445
 20
-149.9006730200228
  0
INSERT
  5
DB
330
70
100
AcDbEntity
  8
レイヤー 1
100
AcDbBlockReference
  2
Block_8
 10
0.0
 20
0.0
 30
0.0
  0
ENDSEC
  0
SECTION
  2
OBJECTS
  0
DICTIONARY
  5
C
330
0
100
AcDbDictionary
281
     1
  3
ACAD_COLOR
350
63
  3
ACAD_DETAILVIEWSTYLE
350
6A
  3
ACAD_GROUP
350
D
  3
ACAD_LAYOUT
350
62
  3
ACAD_MATERIAL
350
10
  3
ACAD_MLEADERSTYLE
350
66
  3
ACAD_MLINESTYLE
350
5F
  3
ACAD_PLOTSETTINGS
350
61
  3
ACAD_PLOTSTYLENAME
350
E
  3
ACAD_SCALELIST
350
42
  3
ACAD_SECTIONVIEWSTYLE
350
68
  3
ACAD_TABLESTYLE
350
64
  3
ACAD_VISUALSTYLE
350
29
  3
ACDB_RECOMPOSE_DATA
350
FC
  3
AcDbVariableDictionary
350
F4
  0
DICTIONARY
  5
63
102
{ACAD_REACTORS
330
C
102
}
330
C
100
AcDbDictionary
281
     1
  0
DICTIONARY
  5
6A
102
{ACAD_REACTORS
330
C
102
}
330
C
100
AcDbDictionary
281
     1
  3
Imperial24
350
6B
  0
DICTIONARY
  5
D
102
{ACAD_REACTORS
330
C
102
}
330
C
100
AcDbDictionary
281
     1
  0
DICTIONARY
  5
62
102
{ACAD_REACTORS
330
C
102
}
330
C
100
AcDbDictionary
281
     1
  3
Layout1
350
6F
  3
Layout2
350
77
  3
Model
350
73
  0
DICTIONARY
  5
10
102
{ACAD_REACTORS
330
C
102
}
330
C
100
AcDbDictionary
281
     1
  3
ByBlock
350
19
  3
ByLayer
350
11
  3
Global
350
21
  0
DICTIONARY
  5
66
102
{ACAD_REACTORS
330
C
102
}
330
C
100
AcDbDictionary
281
     1
  3
Standard
350
67
  0
DICTIONARY
  5
5F
102
{ACAD_REACTORS
330
C
102
}
330
C
100
AcDbDictionary
281
     1
  3
Standard
350
60
  0
DICTIONARY
  5
61
102
{ACAD_REACTORS
330
C
102
}
330
C
100
AcDbDictionary
281
     1
  0
ACDBDICTIONARYWDFLT
  5
E
102
{ACAD_REACTORS
330
C
102
}
330
C
100
AcDbDictionary
281
     1
  3
Normal
350
F
100
AcDbDictionaryWithDefault
340
F
  0
DICTIONARY
  5
42
102
{ACAD_REACTORS
330
C
102
}
330
C
100
AcDbDictionary
281
     1
  3
A0
350
43
  3
A1
350
44
  3
A2
350
45
  3
A3
350
46
  3
A4
350
47
  3
A5
350
48
  3
A6
350
49
  3
A7
350
4A
  3
A8
350
4B
  3
A9
350
4C
  3
B0
350
4D
  3
B1
350
4E
  3
B2
350
4F
  3
B3
350
50
  3
B4
350
51
  3
B5
350
52
  3
B6
350
53
  0
DICTIONARY
  5
68
102
{ACAD_REACTORS
330
C
102
}
330
C
100
AcDbDictionary
281
     1
  3
Imperial24
350
69
  0
DICTIONARY
  5
64
102
{ACAD_REACTORS
330
C
102
}
330
C
100
AcDbDictionary
281
     1
  3
Standard
350
65
  0
DICTIONARY
  5
29
102
{ACAD_REACTORS
330
C
102
}
330
C
100
AcDbDictionary
281
     1
  3
2dWireframe
350
2F
  3
Basic
350
2E
  3
Brighten
350
35
  3
ColorChange
350
39
  3
Conceptual
350
32
  3
Dim
350
34
  3
EdgeColorOff
350
41
  3
Facepattern
350
38
  3
Flat
350
2A
  3
FlatWithEdges
350
2B
  3
Gouraud
350
2C
  3
GouraudWithEdges
350
2D
  3
Hidden
350
31
  3
JitterOff
350
3F
  3
Linepattern
350
37
  3
OverhangOff
350
40
  3
Realistic
350
33
  3
Shaded
350
3E
  3
Shaded with edges
350
3D
  3
Shades of Gray
350
3A
  3
Sketchy
350
3B
  3
Thicken
350
36
  3
Wireframe
350
30
  3
X-Ray
350
3C
  0
XRECORD
  5
FC
102
{ACAD_REACTORS
330
C
102
}
330
C
100
AcDbXrecord
280
     1
 90
        1
330
65
  0
DICTIONARY
  5
F4
102
{ACAD_REACTORS
330
C
102
}
330
C
100
AcDbDictionary
281
     1
  3
CANNOSCALE
350
F9
  3
CMLEADERSTYLE
350
F6
  3
CTABLESTYLE
350
F5
  3
CVIEWDETAILSTYLE
350
F7
  3
CVIEWSECTIONSTYLE
350
F8
  0
ACDBDETAILVIEWSTYLE
  5
6B
102
{ACAD_XDICTIONARY
360
131
102
}
102
{ACAD_REACTORS
330
6A
102
}
330
6A
100
AcDbModelDocViewStyle
 70
     0
  3
Imperial24
290
     0
100
AcDbDetailViewStyle
 70
     0
 71
     0
 90
        3
 71
     1
340
55
 62
   256
 40
0.24
340
0
 62
   256
 40
0.24
300

 40
0.36
280
     3
 71
     2
340
5D
 90
       25
 62
   256
 71
     3
340
55
 62
   256
 40
0.24
 90
        1
 40
0.75
 90
        1
300
%<\AcVar ViewType \f "%tc1">% %<\AcVar ViewDetailId>%\PSCALE %<\AcVar ViewScale \f "%sn">%
 71
     4
340
5D
 90
       25
 62
   256
340
5D
 90
       25
 62
   256
280
     0
  0
LAYOUT
  5
6F
102
{ACAD_REACTORS
330
62
102
}
330
62
100
AcDbPlotSettings
  1

  2

  4

  6

 40
0.0
 41
0.0
 42
0.0
 43
0.0
 44
0.0
 45
0.0
 46
0.0
 47
0.0
 48
0.0
 49
0.0
140
0.0
141
0.0
142
1.0
143
1.0
 70
   688
 72
     0
 73
     0
 74
     5
  7

 75
    16
147
1.0
 76
     0
 77
     2
 78
   300
148
0.0
149
0.0
100
AcDbLayout
  1
Layout1
 70
     1
 71
     1
 10
0.0
 20
0.0
 11
12.0
 21
9.0
 12
0.0
 22
0.0
 32
0.0
 14
0.0
 24
0.0
 34
0.0
 15
0.0
 25
0.0
 35
0.0
146
0.0
 13
0.0
 23
0.0
 33
0.0
 16
1.0
 26
0.0
 36
0.0
 17
0.0
 27
1.0
 37
0.0
 76
     0
330
6C
  0
LAYOUT
  5
77
102
{ACAD_REACTORS
330
62
102
}
330
62
100
AcDbPlotSettings
  1

  2

  4

  6

 40
0.0
 41
0.0
 42
0.0
 43
0.0
 44
0.0
 45
0.0
 46
0.0
 47
0.0
 48
0.0
 49
0.0
140
0.0
141
0.0
142
1.0
143
1.0
 70
   688
 72
     0
 73
     0
 74
     5
  7

 75
    16
147
1.0
 76
     0
 77
     2
 78
   300
148
0.0
149
0.0
100
AcDbLayout
  1
Layout2
 70
     1
 71
     2
 10
0.0
 20
0.0
 11
12.0
 21
9.0
 12
0.0
 22
0.0
 32
0.0
 14
0.0
 24
0.0
 34
0.0
 15
0.0
 25
0.0
 35
0.0
146
0.0
 13
0.0
 23
0.0
 33
0.0
 16
1.0
 26
0.0
 36
0.0
 17
0.0
 27
1.0
 37
0.0
 76
     0
330
74
  0
LAYOUT
  5
73
102
{ACAD_REACTORS
330
62
102
}
330
62
100
AcDbPlotSettings
  1

  2

  4

  6

 40
0.0
 41
0.0
 42
0.0
 43
0.0
 44
0.0
 45
0.0
 46
0.0
 47
0.0
 48
0.0
 49
0.0
140
0.0
141
0.0
142
1.0
143
1.0
 70
  1712
 72
     0
 73
     0
 74
     0
  7

 75
     0
147
1.0
 76
     0
 77
     2
 78
   300
148
0.0
149
0.0
100
AcDbLayout
  1
Model
 70
     1
 71
     0
 10
0.0
 20
0.0
 11
12.0
 21
9.0
 12
0.0
 22
0.0
 32
0.0
 14
0.0
 24
0.0
 34
0.0
 15
0.0
 25
0.0
 35
0.0
146
0.0
 13
0.0
 23
0.0
 33
0.0
 16
1.0
 26
0.0
 36
0.0
 17
0.0
 27
1.0
 37
0.0
 76
     0
330
70
  0
MATERIAL
  5
19
102
{ACAD_XDICTIONARY
360
1A
102
}
102
{ACAD_REACTORS
330
10
102
}
330
10
100
AcDbMaterial
  1
ByBlock
 72
     0
 43
0.0208333333333333
 43
0.0
 43
0.0
 43
0.0
 43
0.0
 43
0.0208333333333333
 43
0.0
 43
0.0
 43
0.0
 43
0.0
 43
1.0
 43
0.0
 43
0.0
 43
0.0
 43
0.0
 43
1.0
 77
     0
 47
0.0208333333333333
 47
0.0
 47
0.0
 47
0.0
 47
0.0
 47
0.0208333333333333
 47
0.0
 47
0.0
 47
0.0
 47
0.0
 47
1.0
 47
0.0
 47
0.0
 47
0.0
 47
0.0
 47
1.0
171
     0
 49
0.0208333333333333
 49
0.0
 49
0.0
 49
0.0
 49
0.0
 49
0.0208333333333333
 49
0.0
 49
0.0
 49
0.0
 49
0.0
 49
1.0
 49
0.0
 49
0.0
 49
0.0
 49
0.0
 49
1.0
175
     0
142
0.0208333333333333
142
0.0
142
0.0
142
0.0
142
0.0
142
0.0208333333333333
142
0.0
142
0.0
142
0.0
142
0.0
142
1.0
142
0.0
142
0.0
142
0.0
142
0.0
142
1.0
179
     0
144
0.0208333333333333
144
0.0
144
0.0
144
0.0
144
0.0
144
0.0208333333333333
144
0.0
144
0.0
144
0.0
144
0.0
144
1.0
144
0.0
144
0.0
144
0.0
144
0.0
144
1.0
147
0.0208333333333333
147
0.0
147
0.0
147
0.0
147
0.0
147
0.0208333333333333
147
0.0
147
0.0
147
0.0
147
0.0
147
1.0
147
0.0
147
0.0
147
0.0
147
0.0
147
1.0
  0
MATERIAL
  5
11
102
{ACAD_XDICTIONARY
360
12
102
}
102
{ACAD_REACTORS
330
10
102
}
330
10
100
AcDbMaterial
  1
ByLayer
 72
     0
 43
0.0208333333333333
 43
0.0
 43
0.0
 43
0.0
 43
0.0
 43
0.0208333333333333
 43
0.0
 43
0.0
 43
0.0
 43
0.0
 43
1.0
 43
0.0
 43
0.0
 43
0.0
 43
0.0
 43
1.0
 77
     0
 47
0.0208333333333333
 47
0.0
 47
0.0
 47
0.0
 47
0.0
 47
0.0208333333333333
 47
0.0
 47
0.0
 47
0.0
 47
0.0
 47
1.0
 47
0.0
 47
0.0
 47
0.0
 47
0.0
 47
1.0
171
     0
 49
0.0208333333333333
 49
0.0
 49
0.0
 49
0.0
 49
0.0
 49
0.0208333333333333
 49
0.0
 49
0.0
 49
0.0
 49
0.0
 49
1.0
 49
0.0
 49
0.0
 49
0.0
 49
0.0
 49
1.0
175
     0
142
0.0208333333333333
142
0.0
142
0.0
142
0.0
142
0.0
142
0.0208333333333333
142
0.0
142
0.0
142
0.0
142
0.0
142
1.0
142
0.0
142
0.0
142
0.0
142
0.0
142
1.0
179
     0
144
0.0208333333333333
144
0.0
144
0.0
144
0.0
144
0.0
144
0.0208333333333333
144
0.0
144
0.0
144
0.0
144
0.0
144
1.0
144
0.0
144
0.0
144
0.0
144
0.0
144
1.0
147
0.0208333333333333
147
0.0
147
0.0
147
0.0
147
0.0
147
0.0208333333333333
147
0.0
147
0.0
147
0.0
147
0.0
147
1.0
147
0.0
147
0.0
147
0.0
147
0.0
147
1.0
  0
MATERIAL
  5
21
102
{ACAD_XDICTIONARY
360
22
102
}
102
{ACAD_REACTORS
330
10
102
}
330
10
100
AcDbMaterial
  1
Global
 72
     0
 43
0.0208333333333333
 43
0.0
 43
0.0
 43
0.0
 43
0.0
 43
0.0208333333333333
 43
0.0
 43
0.0
 43
0.0
 43
0.0
 43
1.0
 43
0.0
 43
0.0
 43
0.0
 43
0.0
 43
1.0
 77
     0
 47
0.0208333333333333
 47
0.0
 47
0.0
 47
0.0
 47
0.0
 47
0.0208333333333333
 47
0.0
 47
0.0
 47
0.0
 47
0.0
 47
1.0
 47
0.0
 47
0.0
 47
0.0
 47
0.0
 47
1.0
171
     0
 49
0.0208333333333333
 49
0.0
 49
0.0
 49
0.0
 49
0.0
 49
0.0208333333333333
 49
0.0
 49
0.0
 49
0.0
 49
0.0
 49
1.0
 49
0.0
 49
0.0
 49
0.0
 49
0.0
 49
1.0
175
     0
142
0.0208333333333333
142
0.0
142
0.0
142
0.0
142
0.0
142
0.0208333333333333
142
0.0
142
0.0
142
0.0
142
0.0
142
1.0
142
0.0
142
0.0
142
0.0
142
0.0
142
1.0
179
     0
144
0.0208333333333333
144
0.0
144
0.0
144
0.0
144
0.0
144
0.0208333333333333
144
0.0
144
0.0
144
0.0
144
0.0
144
1.0
144
0.0
144
0.0
144
0.0
144
0.0
144
1.0
147
0.0208333333333333
147
0.0
147
0.0
147
0.0
147
0.0
147
0.0208333333333333
147
0.0
147
0.0
147
0.0
147
0.0
147
1.0
147
0.0
147
0.0
147
0.0
147
0.0
147
1.0
  0
MLEADERSTYLE
  5
67
102
{ACAD_XDICTIONARY
360
12D
102
}
102
{ACAD_REACTORS
330
66
102
}
330
66
100
AcDbMLeaderStyle
179
     2
170
     2
171
     1
172
     0
 90
        2
 40
0.0
 41
0.0
173
     1
 91
-1056964608
340
5B
 92
       -2
290
     1
 42
0.09
291
     1
 43
0.36
  3
Standard
 44
0.18
300

342
55
174
     1
178
     6
175
     1
176
     0
 93
-1056964608
 45
0.18
292
     0
297
     0
 46
0.18
 94
-1056964608
 47
1.0
 49
1.0
140
1.0
293
     1
141
0.0
294
     1
177
     0
142
1.0
295
     0
296
     0
143
0.125
271
     0
272
     9
273
     9
  0
MLINESTYLE
  5
60
102
{ACAD_REACTORS
330
5F
102
}
330
5F
100
AcDbMlineStyle
  2
STANDARD
 70
     0
  3

 62
   256
 51
90.0
 52
90.0
 71
     2
 49
0.5
 62
   256
  6
BYLAYER
 49
-0.5
 62
   256
  6
BYLAYER
  0
ACDBPLACEHOLDER
  5
F
102
{ACAD_REACTORS
330
E
102
}
330
E
  0
SCALE
  5
43
102
{ACAD_REACTORS
330
42
102
}
330
42
100
AcDbScale
 70
     0
300
1:1
140
1.0
141
1.0
290
     1
  0
SCALE
  5
44
102
{ACAD_REACTORS
330
42
102
}
330
42
100
AcDbScale
 70
     0
300
1/128" = 1'-0"
140
0.0078125
141
12.0
290
     0
  0
SCALE
  5
45
102
{ACAD_REACTORS
330
42
102
}
330
42
100
AcDbScale
 70
     0
300
1/64" = 1'-0"
140
0.015625
141
12.0
290
     0
  0
SCALE
  5
46
102
{ACAD_REACTORS
330
42
102
}
330
42
100
AcDbScale
 70
     0
300
1/32" = 1'-0"
140
0.03125
141
12.0
290
     0
  0
SCALE
  5
47
102
{ACAD_REACTORS
330
42
102
}
330
42
100
AcDbScale
 70
     0
300
1/16" = 1'-0"
140
0.0625
141
12.0
290
     0
  0
SCALE
  5
48
102
{ACAD_REACTORS
330
42
102
}
330
42
100
AcDbScale
 70
     0
300
3/32" = 1'-0"
140
0.09375
141
12.0
290
     0
  0
SCALE
  5
49
102
{ACAD_REACTORS
330
42
102
}
330
42
100
AcDbScale
 70
     0
300
1/8" = 1'-0"
140
0.125
141
12.0
290
     0
  0
SCALE
  5
4A
102
{ACAD_REACTORS
330
42
102
}
330
42
100
AcDbScale
 70
     0
300
3/16" = 1'-0"
140
0.1875
141
12.0
290
     0
  0
SCALE
  5
4B
102
{ACAD_REACTORS
330
42
102
}
330
42
100
AcDbScale
 70
     0
300
1/4" = 1'-0"
140
0.25
141
12.0
290
     0
  0
SCALE
  5
4C
102
{ACAD_REACTORS
330
42
102
}
330
42
100
AcDbScale
 70
     0
300
3/8" = 1'-0"
140
0.375
141
12.0
290
     0
  0
SCALE
  5
4D
102
{ACAD_REACTORS
330
42
102
}
330
42
100
AcDbScale
 70
     0
300
1/2" = 1'-0"
140
0.5
141
12.0
290
     0
  0
SCALE
  5
4E
102
{ACAD_REACTORS
330
42
102
}
330
42
100
AcDbScale
 70
     0
300
3/4" = 1'-0"
140
0.75
141
12.0
290
     0
  0
SCALE
  5
4F
102
{ACAD_REACTORS
330
42
102
}
330
42
100
AcDbScale
 70
     0
300
1" = 1'-0"
140
1.0
141
12.0
290
     0
  0
SCALE
  5
50
102
{ACAD_REACTORS
330
42
102
}
330
42
100
AcDbScale
 70
     0
300
1-1/2" = 1'-0"
140
1.5
141
12.0
290
     0
  0
SCALE
  5
51
102
{ACAD_REACTORS
330
42
102
}
330
42
100
AcDbScale
 70
     0
300
3" = 1'-0"
140
3.0
141
12.0
290
     0
  0
SCALE
  5
52
102
{ACAD_REACTORS
330
42
102
}
330
42
100
AcDbScale
 70
     0
300
6" = 1'-0"
140
6.0
141
12.0
290
     0
  0
SCALE
  5
53
102
{ACAD_REACTORS
330
42
102
}
330
42
100
AcDbScale
 70
     0
300
1'-0" = 1'-0"
140
12.0
141
12.0
290
     0
  0
ACDBSECTIONVIEWSTYLE
  5
69
102
{ACAD_XDICTIONARY
360
12F
102
}
102
{ACAD_REACTORS
330
68
102
}
330
68
100
AcDbModelDocViewStyle
 70
     0
  3
Imperial24
290
     0
100
AcDbSectionViewStyle
 70
     0
 71
     0
 90
       78
 71
     1
340
55
 62
   256
 40
0.24
340
0
340
0
 62
   256
 40
0.24
300
I, O, Q, S, X, Z
 40
0.48
 90
        3
 40
0.18
 90
        1
 71
     2
340
5D
 90
       25
 62
   256
340
5D
 90
       50
 62
   256
 40
0.24
 40
0.0
 40
0.24
 71
     3
340
55
 62
   256
 40
0.24
 90
        1
 40
0.75
 90
        1
300
%<\AcVar ViewType \f "%tc1">% %<\AcVar ViewSectionStartId>%-%<\AcVar ViewSectionEndId>%\PSCALE %<\AcVar ViewScale \f "%sn">%
 71
     4
 62
   256
 62
   257
300
ANSI31
 40
1.0
 90
        0
290
     0
290
     0
 90
        6
 40
0.0
 40
1.570796326794896
 40
0.2617993877991494
 40
1.308996938995747
 40
-0.2617993877991494
 40
1.832595714594046
  0
TABLESTYLE
  5
65
102
{ACAD_XDICTIONARY
360
FA
102
}
102
{ACAD_REACTORS
330
64
102
}
330
64
100
AcDbTableStyle
280
     0
  3
Standard
 70
     0
 71
     0
 40
0.06
 41
0.06
280
     0
281
     0
  7
Standard
140
0.18
170
     2
 62
     0
 63
     7
283
     0
 90
      512
 91
        0
  1

274
    -2
284
     1
 64
     0
275
    -2
285
     1
 65
     0
276
    -2
286
     1
 66
     0
277
    -2
287
     1
 67
     0
278
    -2
288
     1
 68
     0
279
    -2
289
     1
 69
     0
  7
Standard
140
0.25
170
     5
 62
     0
 63
     7
283
     0
 90
      512
 91
        0
  1

274
    -2
284
     1
 64
     0
275
    -2
285
     1
 65
     0
276
    -2
286
     1
 66
     0
277
    -2
287
     1
 67
     0
278
    -2
288
     1
 68
     0
279
    -2
289
     1
 69
     0
  7
Standard
140
0.18
170
     5
 62
     0
 63
     7
283
     0
 90
      512
 91
        0
  1

274
    -2
284
     1
 64
     0
275
    -2
285
     1
 65
     0
276
    -2
286
     1
 66
     0
277
    -2
287
     1
 67
     0
278
    -2
288
     1
 68
     0
279
    -2
289
     1
 69
     0
  0
VISUALSTYLE
  5
2F
102
{ACAD_XDICTIONARY
360
107
102
}
102
{ACAD_REACTORS
330
29
102
}
330
29
100
AcDbVisualStyle
  2
2dWireframe
 70
     4
177
     2
291
     0
 71
     0
176
     1
 72
     2
176
     1
 73
     0
176
     1
 90
        0
176
     1
 40
0.6
176
     1
 41
30.0
176
     1
 63
     7
421
 16777215
176
     1
 74
     1
176
     1
 91
        4
176
     1
 64
     7
176
     1
 65
   257
176
     1
 75
     1
176
     1
175
     1
176
     1
 42
1.0
176
     1
 92
        0
176
     1
 66
   257
176
     1
 43
1.0
176
     1
 76
     1
176
     1
 77
     6
176
     1
 78
     2
176
     1
 67
     7
176
     1
 79
     5
176
     1
170
     0
176
     1
171
     0
176
     1
290
     0
176
     1
 93
        1
176
     1
 44
0.0
176
     1
173
     0
176
     1
1001
ACAD
1000
AcDbSavedByObjectVersion
1070
     0
  0
VISUALSTYLE
  5
2E
102
{ACAD_XDICTIONARY
360
105
102
}
102
{ACAD_REACTORS
330
29
102
}
330
29
100
AcDbVisualStyle
  2
Basic
 70
     7
177
     2
291
     1
 71
     1
176
     1
 72
     0
176
     1
 73
     1
176
     1
 90
        0
176
     1
 40
0.6
176
     1
 41
30.0
176
     1
 63
     7
421
 16777215
176
     1
 74
     0
176
     1
 91
        4
176
     1
 64
     7
176
     1
 65
   257
176
     1
 75
     1
176
     1
175
     1
176
     1
 42
1.0
176
     1
 92
        8
176
     1
 66
     7
176
     1
 43
1.0
176
     1
 76
     1
176
     1
 77
     6
176
     1
 78
     2
176
     1
 67
     7
176
     1
 79
     5
176
     1
170
     0
176
     1
171
     0
176
     1
290
     0
176
     1
 93
        1
176
     1
 44
0.0
176
     1
173
     0
176
     1
1001
ACAD
1000
AcDbSavedByObjectVersion
1070
     0
  0
VISUALSTYLE
  5
35
102
{ACAD_XDICTIONARY
360
113
102
}
102
{ACAD_REACTORS
330
29
102
}
330
29
100
AcDbVisualStyle
  2
Brighten
 70
    12
177
     2
291
     1
 71
     2
176
     1
 72
     2
176
     1
 73
     0
176
     1
 90
        0
176
     1
 40
0.6
176
     1
 41
30.0
176
     1
 63
     7
421
 16777215
176
     1
 74
     1
176
     1
 91
        4
176
     1
 64
     7
176
     1
 65
   257
176
     1
 75
     1
176
     1
175
     1
176
     1
 42
1.0
176
     1
 92
        8
176
     1
 66
     7
176
     1
 43
1.0
176
     1
 76
     1
176
     1
 77
     6
176
     1
 78
     2
176
     1
 67
     7
176
     1
 79
     5
176
     1
170
     0
176
     1
171
     0
176
     1
290
     0
176
     1
 93
        1
176
     1
 44
50.0
176
     1
173
     0
176
     1
1001
ACAD
1000
AcDbSavedByObjectVersion
1070
     0
  0
VISUALSTYLE
  5
39
102
{ACAD_XDICTIONARY
360
11B
102
}
102
{ACAD_REACTORS
330
29
102
}
330
29
100
AcDbVisualStyle
  2
ColorChange
 70
    16
177
     2
291
     1
 71
     2
176
     1
 72
     2
176
     1
 73
     3
176
     1
 90
        0
176
     1
 40
0.6
176
     1
 41
30.0
176
     1
 63
     8
421
  8421504
176
     1
 74
     1
176
     1
 91
        4
176
     1
 64
     7
176
     1
 65
   257
176
     1
 75
     1
176
     1
175
     1
176
     1
 42
1.0
176
     1
 92
        8
176
     1
 66
     8
424
  8421504
176
     1
 43
1.0
176
     1
 76
     1
176
     1
 77
     6
176
     1
 78
     2
176
     1
 67
     7
176
     1
 79
     5
176
     1
170
     0
176
     1
171
     0
176
     1
290
     0
176
     1
 93
        1
176
     1
 44
0.0
176
     1
173
     0
176
     1
1001
ACAD
1000
AcDbSavedByObjectVersion
1070
     0
  0
VISUALSTYLE
  5
32
102
{ACAD_XDICTIONARY
360
10D
102
}
102
{ACAD_REACTORS
330
29
102
}
330
29
100
AcDbVisualStyle
  2
Conceptual
 70
     9
177
     2
291
     0
 71
     3
176
     1
 72
     2
176
     1
 73
     0
176
     1
 90
        0
176
     1
 40
0.6
176
     1
 41
30.0
176
     1
 63
     7
421
 16777215
176
     1
 74
     2
176
     1
 91
        2
176
     1
 64
     7
176
     1
 65
   257
176
     1
 75
     1
176
     1
175
     1
176
     1
 42
179.0
176
     1
 92
        8
176
     1
 66
     7
176
     1
 43
1.0
176
     1
 76
     1
176
     1
 77
     6
176
     1
 78
     2
176
     1
 67
     7
176
     1
 79
     3
176
     1
170
     0
176
     1
171
     0
176
     1
290
     0
176
     1
 93
        1
176
     1
 44
0.0
176
     1
173
     0
176
     1
1001
ACAD
1000
AcDbSavedByObjectVersion
1070
     0
  0
VISUALSTYLE
  5
34
102
{ACAD_XDICTIONARY
360
111
102
}
102
{ACAD_REACTORS
330
29
102
}
330
29
100
AcDbVisualStyle
  2
Dim
 70
    11
177
     2
291
     1
 71
     2
176
     1
 72
     2
176
     1
 73
     0
176
     1
 90
        0
176
     1
 40
0.6
176
     1
 41
30.0
176
     1
 63
     7
421
 16777215
176
     1
 74
     1
176
     1
 91
        4
176
     1
 64
     7
176
     1
 65
   257
176
     1
 75
     1
176
     1
175
     1
176
     1
 42
1.0
176
     1
 92
        8
176
     1
 66
     7
176
     1
 43
1.0
176
     1
 76
     1
176
     1
 77
     6
176
     1
 78
     2
176
     1
 67
     7
176
     1
 79
     5
176
     1
170
     0
176
     1
171
     0
176
     1
290
     0
176
     1
 93
        1
176
     1
 44
-50.0
176
     1
173
     0
176
     1
1001
ACAD
1000
AcDbSavedByObjectVersion
1070
     0
  0
VISUALSTYLE
  5
41
102
{ACAD_XDICTIONARY
360
12B
102
}
102
{ACAD_REACTORS
330
29
102
}
330
29
100
AcDbVisualStyle
  2
EdgeColorOff
 70
    22
177
     2
291
     1
 71
     2
176
     0
 72
     2
176
     0
 73
     0
176
     0
 90
        0
176
     0
 40
0.6
176
     0
 41
30.0
176
     0
 63
     7
421
 16777215
176
     0
 74
     1
176
     0
 91
        4
176
     0
 64
     7
176
     0
 65
   257
176
     0
 75
     1
176
     0
175
     1
176
     0
 42
1.0
176
     0
 92
        8
176
     2
 66
     7
176
     0
 43
1.0
176
     0
 76
     1
176
     0
 77
     6
176
     0
 78
     2
176
     0
 67
     7
176
     0
 79
     5
176
     0
170
     0
176
     0
171
     0
176
     0
290
     0
176
     0
 93
        1
176
     0
 44
0.0
176
     0
173
     0
176
     0
1001
ACAD
1000
AcDbSavedByObjectVersion
1070
     0
  0
VISUALSTYLE
  5
38
102
{ACAD_XDICTIONARY
360
119
102
}
102
{ACAD_REACTORS
330
29
102
}
330
29
100
AcDbVisualStyle
  2
Facepattern
 70
    15
177
     2
291
     1
 71
     2
176
     1
 72
     2
176
     1
 73
     0
176
     1
 90
        0
176
     1
 40
0.6
176
     1
 41
30.0
176
     1
 63
     7
421
 16777215
176
     1
 74
     1
176
     1
 91
        4
176
     1
 64
     7
176
     1
 65
   257
176
     1
 75
     1
176
     1
175
     1
176
     1
 42
1.0
176
     1
 92
        8
176
     1
 66
     7
176
     1
 43
1.0
176
     1
 76
     1
176
     1
 77
     6
176
     1
 78
     2
176
     1
 67
     7
176
     1
 79
     5
176
     1
170
     0
176
     1
171
     0
176
     1
290
     0
176
     1
 93
        1
176
     1
 44
0.0
176
     1
173
     0
176
     1
1001
ACAD
1000
AcDbSavedByObjectVersion
1070
     0
  0
VISUALSTYLE
  5
2A
102
{ACAD_XDICTIONARY
360
FD
102
}
102
{ACAD_REACTORS
330
29
102
}
330
29
100
AcDbVisualStyle
  2
Flat
 70
     0
177
     2
291
     1
 71
     2
176
     1
 72
     1
176
     1
 73
     1
176
     1
 90
        2
176
     1
 40
0.6
176
     1
 41
30.0
176
     1
 63
     7
421
 16777215
176
     1
 74
     0
176
     1
 91
        0
176
     1
 64
     7
176
     1
 65
   257
176
     1
 75
     1
176
     1
175
     1
176
     1
 42
1.0
176
     1
 92
        8
176
     1
 66
     7
176
     1
 43
1.0
176
     1
 76
     1
176
     1
 77
     6
176
     1
 78
     2
176
     1
 67
     7
176
     1
 79
     5
176
     1
170
     0
176
     1
171
     0
176
     1
290
     0
176
     1
 93
       13
176
     1
 44
0.0
176
     1
173
     0
176
     1
1001
ACAD
1000
AcDbSavedByObjectVersion
1070
     0
  0
VISUALSTYLE
  5
2B
102
{ACAD_XDICTIONARY
360
FF
102
}
102
{ACAD_REACTORS
330
29
102
}
330
29
100
AcDbVisualStyle
  2
FlatWithEdges
 70
     1
177
     2
291
     1
 71
     2
176
     1
 72
     1
176
     1
 73
     1
176
     1
 90
        2
176
     1
 40
0.6
176
     1
 41
30.0
176
     1
 63
     7
421
 16777215
176
     1
 74
     1
176
     1
 91
        0
176
     1
 64
     7
176
     1
 65
   257
176
     1
 75
     1
176
     1
175
     1
176
     1
 42
1.0
176
     1
 92
        0
176
     1
 66
   257
176
     1
 43
1.0
176
     1
 76
     1
176
     1
 77
     6
176
     1
 78
     2
176
     1
 67
     7
176
     1
 79
     5
176
     1
170
     0
176
     1
171
     0
176
     1
290
     0
176
     1
 93
       13
176
     1
 44
0.0
176
     1
173
     0
176
     1
1001
ACAD
1000
AcDbSavedByObjectVersion
1070
     0
  0
VISUALSTYLE
  5
2C
102
{ACAD_XDICTIONARY
360
101
102
}
102
{ACAD_REACTORS
330
29
102
}
330
29
100
AcDbVisualStyle
  2
Gouraud
 70
     2
177
     2
291
     1
 71
     2
176
     1
 72
     2
176
     1
 73
     1
176
     1
 90
        2
176
     1
 40
0.6
176
     1
 41
30.0
176
     1
 63
     7
421
 16777215
176
     1
 74
     0
176
     1
 91
        0
176
     1
 64
     7
176
     1
 65
   257
176
     1
 75
     1
176
     1
175
     1
176
     1
 42
1.0
176
     1
 92
        0
176
     1
 66
     7
176
     1
 43
1.0
176
     1
 76
     1
176
     1
 77
     6
176
     1
 78
     2
176
     1
 67
     7
176
     1
 79
     5
176
     1
170
     0
176
     1
171
     0
176
     1
290
     0
176
     1
 93
       13
176
     1
 44
0.0
176
     1
173
     0
176
     1
1001
ACAD
1000
AcDbSavedByObjectVersion
1070
     0
  0
VISUALSTYLE
  5
2D
102
{ACAD_XDICTIONARY
360
103
102
}
102
{ACAD_REACTORS
330
29
102
}
330
29
100
AcDbVisualStyle
  2
GouraudWithEdges
 70
     3
177
     2
291
     1
 71
     2
176
     1
 72
     2
176
     1
 73
     1
176
     1
 90
        2
176
     1
 40
0.6
176
     1
 41
30.0
176
     1
 63
     7
421
 16777215
176
     1
 74
     1
176
     1
 91
        0
176
     1
 64
     7
176
     1
 65
   257
176
     1
 75
     1
176
     1
175
     1
176
     1
 42
1.0
176
     1
 92
        0
176
     1
 66
   257
176
     1
 43
1.0
176
     1
 76
     1
176
     1
 77
     6
176
     1
 78
     2
176
     1
 67
     7
176
     1
 79
     5
176
     1
170
     0
176
     1
171
     0
176
     1
290
     0
176
     1
 93
       13
176
     1
 44
0.0
176
     1
173
     0
176
     1
1001
ACAD
1000
AcDbSavedByObjectVersion
1070
     0
  0
VISUALSTYLE
  5
31
102
{ACAD_XDICTIONARY
360
10B
102
}
102
{ACAD_REACTORS
330
29
102
}
330
29
100
AcDbVisualStyle
  2
Hidden
 70
     6
177
     2
291
     0
 71
     1
176
     1
 72
     2
176
     1
 73
     2
176
     1
 90
        0
176
     1
 40
0.6
176
     1
 41
30.0
176
     1
 63
     7
421
 16777215
176
     1
 74
     2
176
     1
 91
        2
176
     1
 64
     7
176
     1
 65
   257
176
     1
 75
     2
176
     1
175
     1
176
     1
 42
40.0
176
     1
 92
        0
176
     1
 66
   257
176
     1
 43
1.0
176
     1
 76
     1
176
     1
 77
     6
176
     1
 78
     2
176
     1
 67
     7
176
     1
 79
     3
176
     1
170
     0
176
     1
171
     0
176
     1
290
     0
176
     1
 93
        1
176
     1
 44
0.0
176
     1
173
     0
176
     1
1001
ACAD
1000
AcDbSavedByObjectVersion
1070
     0
  0
VISUALSTYLE
  5
3F
102
{ACAD_XDICTIONARY
360
127
102
}
102
{ACAD_REACTORS
330
29
102
}
330
29
100
AcDbVisualStyle
  2
JitterOff
 70
    20
177
     2
291
     1
 71
     2
176
     0
 72
     2
176
     0
 73
     0
176
     0
 90
        0
176
     0
 40
0.6
176
     0
 41
30.0
176
     0
 63
     7
421
 16777215
176
     0
 74
     1
176
     0
 91
        4
176
     0
 64
     7
176
     0
 65
   257
176
     0
 75
     1
176
     0
175
     1
176
     0
 42
1.0
176
     0
 92
       10
176
     2
 66
     7
176
     0
 43
1.0
176
     0
 76
     1
176
     0
 77
     6
176
     0
 78
     2
176
     0
 67
     7
176
     0
 79
     5
176
     0
170
     0
176
     0
171
     0
176
     0
290
     0
176
     0
 93
        1
176
     0
 44
0.0
176
     0
173
     0
176
     0
1001
ACAD
1000
AcDbSavedByObjectVersion
1070
     0
  0
VISUALSTYLE
  5
37
102
{ACAD_XDICTIONARY
360
117
102
}
102
{ACAD_REACTORS
330
29
102
}
330
29
100
AcDbVisualStyle
  2
Linepattern
 70
    14
177
     2
291
     1
 71
     2
176
     1
 72
     2
176
     1
 73
     0
176
     1
 90
        0
176
     1
 40
0.6
176
     1
 41
30.0
176
     1
 63
     7
421
 16777215
176
     1
 74
     1
176
     1
 91
        4
176
     1
 64
     7
176
     1
 65
   257
176
     1
 75
     7
176
     1
175
     7
176
     1
 42
1.0
176
     1
 92
        8
176
     1
 66
     7
176
     1
 43
1.0
176
     1
 76
     1
176
     1
 77
     6
176
     1
 78
     2
176
     1
 67
     7
176
     1
 79
     5
176
     1
170
     0
176
     1
171
     0
176
     1
290
     0
176
     1
 93
        1
176
     1
 44
0.0
176
     1
173
     0
176
     1
1001
ACAD
1000
AcDbSavedByObjectVersion
1070
     0
  0
VISUALSTYLE
  5
40
102
{ACAD_XDICTIONARY
360
129
102
}
102
{ACAD_REACTORS
330
29
102
}
330
29
100
AcDbVisualStyle
  2
OverhangOff
 70
    21
177
     2
291
     1
 71
     2
176
     0
 72
     2
176
     0
 73
     0
176
     0
 90
        0
176
     0
 40
0.6
176
     0
 41
30.0
176
     0
 63
     7
421
 16777215
176
     0
 74
     1
176
     0
 91
        4
176
     0
 64
     7
176
     0
 65
   257
176
     0
 75
     1
176
     0
175
     1
176
     0
 42
1.0
176
     0
 92
        9
176
     2
 66
     7
176
     0
 43
1.0
176
     0
 76
     1
176
     0
 77
     6
176
     0
 78
     2
176
     0
 67
     7
176
     0
 79
     5
176
     0
170
     0
176
     0
171
     0
176
     0
290
     0
176
     0
 93
        1
176
     0
 44
0.0
176
     0
173
     0
176
     0
1001
ACAD
1000
AcDbSavedByObjectVersion
1070
     0
  0
VISUALSTYLE
  5
33
102
{ACAD_XDICTIONARY
360
10F
102
}
102
{ACAD_REACTORS
330
29
102
}
330
29
100
AcDbVisualStyle
  2
Realistic
 70
     8
177
     2
291
     0
 71
     2
176
     1
 72
     3
176
     1
 73
     0
176
     1
 90
        2
176
     1
 40
0.6
176
     1
 41
30.0
176
     1
 63
     7
421
 16777215
176
     1
 74
     0
176
     1
 91
        0
176
     1
 64
     7
176
     1
 65
   257
176
     1
 75
     1
176
     1
175
     1
176
     1
 42
1.0
176
     1
 92
        8
176
     1
 66
   257
176
     1
 43
1.0
176
     1
 76
     1
176
     1
 77
     6
176
     1
 78
     2
176
     1
 67
     7
176
     1
 79
     3
176
     1
170
     0
176
     1
171
     0
176
     1
290
     0
176
     1
 93
       13
176
     1
 44
0.0
176
     1
173
     0
176
     1
1001
ACAD
1000
AcDbSavedByObjectVersion
1070
     0
  0
VISUALSTYLE
  5
3E
102
{ACAD_XDICTIONARY
360
125
102
}
102
{ACAD_REACTORS
330
29
102
}
330
29
100
AcDbVisualStyle
  2
Shaded
 70
    27
177
     2
291
     0
 71
     2
176
     1
 72
     2
176
     1
 73
     1
176
     1
 90
        2
176
     1
 40
0.6
176
     1
 41
30.0
176
     1
 63
     7
421
 16777215
176
     1
 74
     0
176
     1
 91
        4
176
     1
 64
     7
176
     1
 65
   257
176
     1
 75
     1
176
     1
175
     1
176
     1
 42
1.0
176
     1
 92
        8
176
     1
 66
   257
176
     1
 43
1.0
176
     1
 76
     1
176
     1
 77
     6
176
     1
 78
     2
176
     1
 67
     8
425
  7895160
176
     1
 79
     3
176
     1
170
     0
176
     1
171
     0
176
     1
290
     0
176
     1
 93
        5
176
     1
 44
0.0
176
     1
173
     0
176
     1
1001
ACAD
1000
AcDbSavedByObjectVersion
1070
     0
  0
VISUALSTYLE
  5
3D
102
{ACAD_XDICTIONARY
360
123
102
}
102
{ACAD_REACTORS
330
29
102
}
330
29
100
AcDbVisualStyle
  2
Shaded with edges
 70
    26
177
     2
291
     0
 71
     2
176
     1
 72
     2
176
     1
 73
     1
176
     1
 90
        2
176
     1
 40
0.6
176
     1
 41
30.0
176
     1
 63
     7
421
 16777215
176
     1
 74
     1
176
     1
 91
        2
176
     1
 64
     7
176
     1
 65
   257
176
     1
 75
     2
176
     1
175
     1
176
     1
 42
1.0
176
     1
 92
        8
176
     1
 66
   257
176
     1
 43
1.0
176
     1
 76
     1
176
     1
 77
     6
176
     1
 78
     2
176
     1
 67
     7
176
     1
 79
     3
176
     1
170
     0
176
     1
171
     0
176
     1
290
     0
176
     1
 93
        5
176
     1
 44
0.0
176
     1
173
     0
176
     1
1001
ACAD
1000
AcDbSavedByObjectVersion
1070
     0
  0
VISUALSTYLE
  5
3A
102
{ACAD_XDICTIONARY
360
11D
102
}
102
{ACAD_REACTORS
330
29
102
}
330
29
100
AcDbVisualStyle
  2
Shades of Gray
 70
    23
177
     2
291
     0
 71
     2
176
     1
 72
     2
176
     1
 73
     3
176
     1
 90
        0
176
     1
 40
0.6
176
     1
 41
30.0
176
     1
 63
     7
421
 16777215
176
     1
 74
     2
176
     1
 91
        2
176
     1
 64
     7
176
     1
 65
     7
176
     1
 75
     1
176
     1
175
     1
176
     1
 42
40.0
176
     1
 92
        8
176
     1
 66
     7
176
     1
 43
1.0
176
     1
 76
     1
176
     1
 77
     6
176
     1
 78
     2
176
     1
 67
     7
176
     1
 79
     3
176
     1
170
     0
176
     1
171
     0
176
     1
290
     0
176
     1
 93
        1
176
     1
 44
0.0
176
     1
173
     0
176
     1
1001
ACAD
1000
AcDbSavedByObjectVersion
1070
     0
  0
VISUALSTYLE
  5
3B
102
{ACAD_XDICTIONARY
360
11F
102
}
102
{ACAD_REACTORS
330
29
102
}
330
29
100
AcDbVisualStyle
  2
Sketchy
 70
    24
177
     2
291
     0
 71
     1
176
     1
 72
     2
176
     1
 73
     2
176
     1
 90
        0
176
     1
 40
0.6
176
     1
 41
30.0
176
     1
 63
     7
421
 16777215
176
     1
 74
     2
176
     1
 91
        2
176
     1
 64
     7
176
     1
 65
     7
176
     1
 75
     1
176
     1
175
     1
176
     1
 42
40.0
176
     1
 92
       11
176
     1
 66
     7
176
     1
 43
1.0
176
     1
 76
     1
176
     1
 77
     6
176
     1
 78
     2
176
     1
 67
     7
176
     1
 79
     6
176
     1
170
     0
176
     1
171
     0
176
     1
290
     0
176
     1
 93
        1
176
     1
 44
0.0
176
     1
173
     0
176
     1
1001
ACAD
1000
AcDbSavedByObjectVersion
1070
     0
  0
VISUALSTYLE
  5
36
102
{ACAD_XDICTIONARY
360
115
102
}
102
{ACAD_REACTORS
330
29
102
}
330
29
100
AcDbVisualStyle
  2
Thicken
 70
    13
177
     2
291
     1
 71
     2
176
     1
 72
     2
176
     1
 73
     0
176
     1
 90
        0
176
     1
 40
0.6
176
     1
 41
30.0
176
     1
 63
     7
421
 16777215
176
     1
 74
     1
176
     1
 91
        4
176
     1
 64
     7
176
     1
 65
   257
176
     1
 75
     1
176
     1
175
     1
176
     1
 42
1.0
176
     1
 92
       12
176
     1
 66
     7
176
     1
 43
1.0
176
     1
 76
     1
176
     1
 77
     6
176
     1
 78
     2
176
     1
 67
     7
176
     1
 79
     5
176
     1
170
     0
176
     1
171
     0
176
     1
290
     0
176
     1
 93
        1
176
     1
 44
0.0
176
     1
173
     0
176
     1
1001
ACAD
1000
AcDbSavedByObjectVersion
1070
     0
  0
VISUALSTYLE
  5
30
102
{ACAD_XDICTIONARY
360
109
102
}
102
{ACAD_REACTORS
330
29
102
}
330
29
100
AcDbVisualStyle
  2
Wireframe
 70
     5
177
     2
291
     0
 71
     0
176
     1
 72
     2
176
     1
 73
     0
176
     1
 90
        0
176
     1
 40
0.6
176
     1
 41
30.0
176
     1
 63
     7
421
 16777215
176
     1
 74
     1
176
     1
 91
        4
176
     1
 64
     7
176
     1
 65
   257
176
     1
 75
     1
176
     1
175
     1
176
     1
 42
1.0
176
     1
 92
        0
176
     1
 66
   257
176
     1
 43
1.0
176
     1
 76
     1
176
     1
 77
     6
176
     1
 78
     2
176
     1
 67
     7
176
     1
 79
     3
176
     1
170
     0
176
     1
171
     0
176
     1
290
     0
176
     1
 93
        1
176
     1
 44
0.0
176
     1
173
     0
176
     1
1001
ACAD
1000
AcDbSavedByObjectVersion
1070
     0
  0
VISUALSTYLE
  5
3C
102
{ACAD_XDICTIONARY
360
121
102
}
102
{ACAD_REACTORS
330
29
102
}
330
29
100
AcDbVisualStyle
  2
X-Ray
 70
    25
177
     2
291
     0
 71
     2
176
     1
 72
     2
176
     1
 73
     1
176
     1
 90
        1
176
     1
 40
0.5
176
     1
 41
30.0
176
     1
 63
     7
421
 16777215
176
     1
 74
     1
176
     1
 91
        0
176
     1
 64
     7
176
     1
 65
   257
176
     1
 75
     1
176
     1
175
     1
176
     1
 42
1.0
176
     1
 92
        8
176
     1
 66
     7
176
     1
 43
1.0
176
     1
 76
     1
176
     1
 77
     6
176
     1
 78
     2
176
     1
 67
     7
176
     1
 79
     3
176
     1
170
     0
176
     1
171
     0
176
     1
290
     0
176
     1
 93
       13
176
     1
 44
0.0
176
     1
173
     0
176
     1
1001
ACAD
1000
AcDbSavedByObjectVersion
1070
     0
  0
DICTIONARYVAR
  5
F9
102
{ACAD_REACTORS
330
F4
102
}
330
F4
100
DictionaryVariables
280
     0
  1
1:1
  0
DICTIONARYVAR
  5
F6
102
{ACAD_REACTORS
330
F4
102
}
330
F4
100
DictionaryVariables
280
     0
  1
STANDARD
  0
DICTIONARYVAR
  5
F5
102
{ACAD_REACTORS
330
F4
102
}
330
F4
100
DictionaryVariables
280
     0
  1
STANDARD
  0
DICTIONARYVAR
  5
F7
102
{ACAD_REACTORS
330
F4
102
}
330
F4
100
DictionaryVariables
280
     0
  1
Imperial24
  0
DICTIONARYVAR
  5
F8
102
{ACAD_REACTORS
330
F4
102
}
330
F4
100
DictionaryVariables
280
     0
  1
Imperial24
  0
DICTIONARY
  5
131
330
6B
100
AcDbDictionary
280
     1
281
     1
  3
ACAD_XREC_ROUNDTRIP
360
132
  0
DICTIONARY
  5
1A
330
19
100
AcDbDictionary
280
     1
281
     1
  3
BUMPTILE
360
1C
  3
DIFFUSETILE
360
1B
  3
OPACITYTILE
360
1F
  3
REFLECTIONTILE
360
1E
  3
REFRACTIONTILE
360
20
  3
SPECULARTILE
360
1D
  0
DICTIONARY
  5
12
330
11
100
AcDbDictionary
280
     1
281
     1
  3
BUMPTILE
360
14
  3
DIFFUSETILE
360
13
  3
OPACITYTILE
360
17
  3
REFLECTIONTILE
360
16
  3
REFRACTIONTILE
360
18
  3
SPECULARTILE
360
15
  0
DICTIONARY
  5
22
330
21
100
AcDbDictionary
280
     1
281
     1
  3
BUMPTILE
360
24
  3
DIFFUSETILE
360
23
  3
OPACITYTILE
360
27
  3
REFLECTIONTILE
360
26
  3
REFRACTIONTILE
360
28
  3
SPECULARTILE
360
25
  0
DICTIONARY
  5
12D
330
67
100
AcDbDictionary
280
     1
281
     1
  3
ACAD_XREC_ROUNDTRIP
360
12E
  0
DICTIONARY
  5
12F
330
69
100
AcDbDictionary
280
     1
281
     1
  3
ACAD_XREC_ROUNDTRIP
360
130
  0
DICTIONARY
  5
FA
330
65
100
AcDbDictionary
280
     1
281
     1
  3
ACAD_ROUNDTRIP_2008_TABLESTYLE_CELLSTYLEMAP
360
FB
  0
DICTIONARY
  5
107
330
2F
100
AcDbDictionary
280
     1
281
     1
  3
ACAD_XREC_ROUNDTRIP
360
108
  0
DICTIONARY
  5
105
330
2E
100
AcDbDictionary
280
     1
281
     1
  3
ACAD_XREC_ROUNDTRIP
360
106
  0
DICTIONARY
  5
113
330
35
100
AcDbDictionary
280
     1
281
     1
  3
ACAD_XREC_ROUNDTRIP
360
114
  0
DICTIONARY
  5
11B
330
39
100
AcDbDictionary
280
     1
281
     1
  3
ACAD_XREC_ROUNDTRIP
360
11C
  0
DICTIONARY
  5
10D
330
32
100
AcDbDictionary
280
     1
281
     1
  3
ACAD_XREC_ROUNDTRIP
360
10E
  0
DICTIONARY
  5
111
330
34
100
AcDbDictionary
280
     1
281
     1
  3
ACAD_XREC_ROUNDTRIP
360
112
  0
DICTIONARY
  5
12B
330
41
100
AcDbDictionary
280
     1
281
     1
  3
ACAD_XREC_ROUNDTRIP
360
12C
  0
DICTIONARY
  5
119
330
38
100
AcDbDictionary
280
     1
281
     1
  3
ACAD_XREC_ROUNDTRIP
360
11A
  0
DICTIONARY
  5
FD
330
2A
100
AcDbDictionary
280
     1
281
     1
  3
ACAD_XREC_ROUNDTRIP
360
FE
  0
DICTIONARY
  5
FF
330
2B
100
AcDbDictionary
280
     1
281
     1
  3
ACAD_XREC_ROUNDTRIP
360
100
  0
DICTIONARY
  5
101
330
2C
100
AcDbDictionary
280
     1
281
     1
  3
ACAD_XREC_ROUNDTRIP
360
102
  0
DICTIONARY
  5
103
330
2D
100
AcDbDictionary
280
     1
281
     1
  3
ACAD_XREC_ROUNDTRIP
360
104
  0
DICTIONARY
  5
10B
330
31
100
AcDbDictionary
280
     1
281
     1
  3
ACAD_XREC_ROUNDTRIP
360
10C
  0
DICTIONARY
  5
127
330
3F
100
AcDbDictionary
280
     1
281
     1
  3
ACAD_XREC_ROUNDTRIP
360
128
  0
DICTIONARY
  5
117
330
37
100
AcDbDictionary
280
     1
281
     1
  3
ACAD_XREC_ROUNDTRIP
360
118
  0
DICTIONARY
  5
129
330
40
100
AcDbDictionary
280
     1
281
     1
  3
ACAD_XREC_ROUNDTRIP
360
12A
  0
DICTIONARY
  5
10F
330
33
100
AcDbDictionary
280
     1
281
     1
  3
ACAD_XREC_ROUNDTRIP
360
110
  0
DICTIONARY
  5
125
330
3E
100
AcDbDictionary
280
     1
281
     1
  3
ACAD_XREC_ROUNDTRIP
360
126
  0
DICTIONARY
  5
123
330
3D
100
AcDbDictionary
280
     1
281
     1
  3
ACAD_XREC_ROUNDTRIP
360
124
  0
DICTIONARY
  5
11D
330
3A
100
AcDbDictionary
280
     1
281
     1
  3
ACAD_XREC_ROUNDTRIP
360
11E
  0
DICTIONARY
  5
11F
330
3B
100
AcDbDictionary
280
     1
281
     1
  3
ACAD_XREC_ROUNDTRIP
360
120
  0
DICTIONARY
  5
115
330
36
100
AcDbDictionary
280
     1
281
     1
  3
ACAD_XREC_ROUNDTRIP
360
116
  0
DICTIONARY
  5
109
330
30
100
AcDbDictionary
280
     1
281
     1
  3
ACAD_XREC_ROUNDTRIP
360
10A
  0
DICTIONARY
  5
121
330
3C
100
AcDbDictionary
280
     1
281
     1
  3
ACAD_XREC_ROUNDTRIP
360
122
  0
XRECORD
  5
132
102
{ACAD_REACTORS
330
131
102
}
330
131
100
AcDbXrecord
280
     1
102
DISPLAYNAME
  1
Imperial24
102
FLAGS
 90
        0
  0
XRECORD
  5
1C
102
{ACAD_REACTORS
330
1A
102
}
330
1A
100
AcDbXrecord
280
     1
270
     1
271
     1
  0
XRECORD
  5
1B
102
{ACAD_REACTORS
330
1A
102
}
330
1A
100
AcDbXrecord
280
     1
270
     1
271
     1
  0
XRECORD
  5
1F
102
{ACAD_REACTORS
330
1A
102
}
330
1A
100
AcDbXrecord
280
     1
270
     1
271
     1
  0
XRECORD
  5
1E
102
{ACAD_REACTORS
330
1A
102
}
330
1A
100
AcDbXrecord
280
     1
270
     1
271
     1
  0
XRECORD
  5
20
102
{ACAD_REACTORS
330
1A
102
}
330
1A
100
AcDbXrecord
280
     1
270
     1
271
     1
  0
XRECORD
  5
1D
102
{ACAD_REACTORS
330
1A
102
}
330
1A
100
AcDbXrecord
280
     1
270
     1
271
     1
  0
XRECORD
  5
14
102
{ACAD_REACTORS
330
12
102
}
330
12
100
AcDbXrecord
280
     1
270
     1
271
     1
  0
XRECORD
  5
13
102
{ACAD_REACTORS
330
12
102
}
330
12
100
AcDbXrecord
280
     1
270
     1
271
     1
  0
XRECORD
  5
17
102
{ACAD_REACTORS
330
12
102
}
330
12
100
AcDbXrecord
280
     1
270
     1
271
     1
  0
XRECORD
  5
16
102
{ACAD_REACTORS
330
12
102
}
330
12
100
AcDbXrecord
280
     1
270
     1
271
     1
  0
XRECORD
  5
18
102
{ACAD_REACTORS
330
12
102
}
330
12
100
AcDbXrecord
280
     1
270
     1
271
     1
  0
XRECORD
  5
15
102
{ACAD_REACTORS
330
12
102
}
330
12
100
AcDbXrecord
280
     1
270
     1
271
     1
  0
XRECORD
  5
24
102
{ACAD_REACTORS
330
22
102
}
330
22
100
AcDbXrecord
280
     1
270
     1
271
     1
  0
XRECORD
  5
23
102
{ACAD_REACTORS
330
22
102
}
330
22
100
AcDbXrecord
280
     1
270
     1
271
     1
  0
XRECORD
  5
27
102
{ACAD_REACTORS
330
22
102
}
330
22
100
AcDbXrecord
280
     1
270
     1
271
     1
  0
XRECORD
  5
26
102
{ACAD_REACTORS
330
22
102
}
330
22
100
AcDbXrecord
280
     1
270
     1
271
     1
  0
XRECORD
  5
28
102
{ACAD_REACTORS
330
22
102
}
330
22
100
AcDbXrecord
280
     1
270
     1
271
     1
  0
XRECORD
  5
25
102
{ACAD_REACTORS
330
22
102
}
330
22
100
AcDbXrecord
280
     1
270
     1
271
     1
  0
XRECORD
  5
12E
102
{ACAD_REACTORS
330
12D
102
}
330
12D
100
AcDbXrecord
280
     1
102
ACAD_ROUNDTRIP_2012_MLEADER_STYLE
298
     1
  0
XRECORD
  5
130
102
{ACAD_REACTORS
330
12F
102
}
330
12F
100
AcDbXrecord
280
     1
102
DISPLAYNAME
  1
Imperial24
102
FLAGS
 90
        0
  0
CELLSTYLEMAP
  5
FB
102
{ACAD_REACTORS
330
FA
102
}
330
FA
100
AcDbCellStyleMap
 90
        3
300
CELLSTYLE
  1
TABLEFORMAT_BEGIN
 90
        5
170
     1
 91
        0
 92
    32768
 62
   257
 93
        1
300
CONTENTFORMAT
  1
CONTENTFORMAT_BEGIN
 90
        0
 91
        0
 92
      512
 93
        0
300

 40
0.0
140
1.0
 94
        5
 62
     0
340
55
144
0.25
309
CONTENTFORMAT_END
171
     0
 94
        0
309
TABLEFORMAT_END
  1
CELLSTYLE_BEGIN
 90
        1
 91
        1
300
_TITLE
309
CELLSTYLE_END
300
CELLSTYLE
  1
TABLEFORMAT_BEGIN
 90
        5
170
     1
 91
        0
 92
        0
 62
   257
 93
        1
300
CONTENTFORMAT
  1
CONTENTFORMAT_BEGIN
 90
        0
 91
        0
 92
      512
 93
        0
300

 40
0.0
140
1.0
 94
        5
 62
     0
340
55
144
0.18
309
CONTENTFORMAT_END
171
     0
 94
        0
309
TABLEFORMAT_END
  1
CELLSTYLE_BEGIN
 90
        2
 91
        1
300
_HEADER
309
CELLSTYLE_END
300
CELLSTYLE
  1
TABLEFORMAT_BEGIN
 90
        5
170
     1
 91
        0
 92
        0
 62
   257
 93
        1
300
CONTENTFORMAT
  1
CONTENTFORMAT_BEGIN
 90
        0
 91
        0
 92
      512
 93
        0
300

 40
0.0
140
1.0
 94
        2
 62
     0
340
55
144
0.18
309
CONTENTFORMAT_END
171
     0
 94
        0
309
TABLEFORMAT_END
  1
CELLSTYLE_BEGIN
 90
        3
 91
        2
300
_DATA
309
CELLSTYLE_END
  0
XRECORD
  5
108
102
{ACAD_REACTORS
330
107
102
}
330
107
100
AcDbXrecord
280
     1
102
RTVSPost2010Prop28
280
     1
102
RTVSPost2010PropOp28
 70
     1
102
RTVSPost2010Prop29
280
     1
102
RTVSPost2010PropOp29
 70
     1
102
RTVSPost2010Prop30
280
     0
102
RTVSPost2010PropOp30
 70
     1
102
RTVSPost2010Prop31
280
     0
102
RTVSPost2010PropOp31
 70
     1
102
RTVSPost2010Prop32
280
     0
102
RTVSPost2010PropOp32
 70
     1
102
RTVSPost2010Prop33
280
     0
102
RTVSPost2010PropOp33
 70
     1
102
RTVSPost2010Prop34
280
     0
102
RTVSPost2010PropOp34
 70
     1
102
RTVSPost2010Prop35
280
     0
102
RTVSPost2010PropOp35
 70
     1
102
RTVSPost2010Prop36
280
     0
102
RTVSPost2010PropOp36
 70
     1
102
RTVSPost2010Prop37
 90
       50
102
RTVSPost2010PropOp37
 70
     1
102
RTVSPost2010Prop38
140
0.0
102
RTVSPost2010PropOp38
 70
     1
102
RTVSPost2010Prop39
140
1.0
102
RTVSPost2010PropOp39
 70
     1
102
RTVSPost2010Prop40
 90
        0
102
RTVSPost2010PropOp40
 70
     1
102
RTVSPost2010Prop41ColorIndex
 90
       18
102
RTVSPost2010Prop41ColorRGB
 90
        0
102
RTVSPost2010PropOp41
 70
     1
102
RTVSPost2010Prop42
 90
       50
102
RTVSPost2010PropOp42
 70
     1
102
RTVSPost2010Prop43
 90
        3
102
RTVSPost2010PropOp43
 70
     1
102
RTVSPost2010Prop44ColorIndex
 90
        5
102
RTVSPost2010Prop44ColorRGB
 90
      255
102
RTVSPost2010PropOp44
 70
     1
102
RTVSPost2010Prop45
280
     0
102
RTVSPost2010PropOp45
 70
     1
102
RTVSPost2010Prop46
 90
       50
102
RTVSPost2010PropOp46
 70
     1
102
RTVSPost2010Prop47
 90
       50
102
RTVSPost2010PropOp47
 70
     1
102
RTVSPost2010Prop48
 90
       50
102
RTVSPost2010PropOp48
 70
     1
102
RTVSPost2010Prop49
280
     0
102
RTVSPost2010PropOp49
 70
     1
102
RTVSPost2010Prop50
 90
       50
102
RTVSPost2010PropOp50
 70
     1
102
RTVSPost2010Prop51ColorIndex
 90
      256
102
RTVSPost2010Prop51ColorRGB
 90
-16777216
102
RTVSPost2010PropOp51
 70
     0
102
RTVSPost2010Prop52
140
1.0
102
RTVSPost2010PropOp52
 70
     0
102
RTVSPost2010Prop53
 90
        2
102
RTVSPost2010PropOp53
 70
     1
102
RTVSPost2010Prop54
  1
strokes_ogs.tif
102
RTVSPost2010PropOp54
 70
     1
102
RTVSPost2010Prop55
280
     0
102
RTVSPost2010PropOp55
 70
     1
102
RTVSPost2010Prop56
140
1.0
102
RTVSPost2010PropOp56
 70
     1
102
RTVSPost2010Prop57
140
1.0
102
RTVSPost2010PropOp57
 70
     1
  0
XRECORD
  5
106
102
{ACAD_REACTORS
330
105
102
}
330
105
100
AcDbXrecord
280
     1
102
RTVSPost2010Prop28
280
     0
102
RTVSPost2010PropOp28
 70
     1
102
RTVSPost2010Prop29
280
     1
102
RTVSPost2010PropOp29
 70
     1
102
RTVSPost2010Prop30
280
     1
102
RTVSPost2010PropOp30
 70
     1
102
RTVSPost2010Prop31
280
     0
102
RTVSPost2010PropOp31
 70
     1
102
RTVSPost2010Prop32
280
     0
102
RTVSPost2010PropOp32
 70
     1
102
RTVSPost2010Prop33
280
     0
102
RTVSPost2010PropOp33
 70
     1
102
RTVSPost2010Prop34
280
     0
102
RTVSPost2010PropOp34
 70
     1
102
RTVSPost2010Prop35
280
     0
102
RTVSPost2010PropOp35
 70
     1
102
RTVSPost2010Prop36
280
     0
102
RTVSPost2010PropOp36
 70
     1
102
RTVSPost2010Prop37
 90
       50
102
RTVSPost2010PropOp37
 70
     1
102
RTVSPost2010Prop38
140
0.0
102
RTVSPost2010PropOp38
 70
     1
102
RTVSPost2010Prop39
140
1.0
102
RTVSPost2010PropOp39
 70
     1
102
RTVSPost2010Prop40
 90
        0
102
RTVSPost2010PropOp40
 70
     1
102
RTVSPost2010Prop41ColorIndex
 90
       18
102
RTVSPost2010Prop41ColorRGB
 90
        0
102
RTVSPost2010PropOp41
 70
     1
102
RTVSPost2010Prop42
 90
       50
102
RTVSPost2010PropOp42
 70
     1
102
RTVSPost2010Prop43
 90
        3
102
RTVSPost2010PropOp43
 70
     1
102
RTVSPost2010Prop44ColorIndex
 90
        5
102
RTVSPost2010Prop44ColorRGB
 90
      255
102
RTVSPost2010PropOp44
 70
     1
102
RTVSPost2010Prop45
280
     0
102
RTVSPost2010PropOp45
 70
     1
102
RTVSPost2010Prop46
 90
       50
102
RTVSPost2010PropOp46
 70
     1
102
RTVSPost2010Prop47
 90
       50
102
RTVSPost2010PropOp47
 70
     1
102
RTVSPost2010Prop48
 90
       50
102
RTVSPost2010PropOp48
 70
     1
102
RTVSPost2010Prop49
280
     0
102
RTVSPost2010PropOp49
 70
     1
102
RTVSPost2010Prop50
 90
       50
102
RTVSPost2010PropOp50
 70
     1
102
RTVSPost2010Prop51ColorIndex
 90
      256
102
RTVSPost2010Prop51ColorRGB
 90
-16777216
102
RTVSPost2010PropOp51
 70
     0
102
RTVSPost2010Prop52
140
1.0
102
RTVSPost2010PropOp52
 70
     0
102
RTVSPost2010Prop53
 90
        2
102
RTVSPost2010PropOp53
 70
     1
102
RTVSPost2010Prop54
  1
strokes_ogs.tif
102
RTVSPost2010PropOp54
 70
     1
102
RTVSPost2010Prop55
280
     0
102
RTVSPost2010PropOp55
 70
     1
102
RTVSPost2010Prop56
140
1.0
102
RTVSPost2010PropOp56
 70
     1
102
RTVSPost2010Prop57
140
1.0
102
RTVSPost2010PropOp57
 70
     1
  0
XRECORD
  5
114
102
{ACAD_REACTORS
330
113
102
}
330
113
100
AcDbXrecord
280
     1
102
RTVSPost2010Prop28
280
     0
102
RTVSPost2010PropOp28
 70
     1
102
RTVSPost2010Prop29
280
     1
102
RTVSPost2010PropOp29
 70
     1
102
RTVSPost2010Prop30
280
     1
102
RTVSPost2010PropOp30
 70
     1
102
RTVSPost2010Prop31
280
     0
102
RTVSPost2010PropOp31
 70
     1
102
RTVSPost2010Prop32
280
     0
102
RTVSPost2010PropOp32
 70
     1
102
RTVSPost2010Prop33
280
     0
102
RTVSPost2010PropOp33
 70
     1
102
RTVSPost2010Prop34
280
     0
102
RTVSPost2010PropOp34
 70
     1
102
RTVSPost2010Prop35
280
     0
102
RTVSPost2010PropOp35
 70
     1
102
RTVSPost2010Prop36
280
     0
102
RTVSPost2010PropOp36
 70
     1
102
RTVSPost2010Prop37
 90
       50
102
RTVSPost2010PropOp37
 70
     1
102
RTVSPost2010Prop38
140
0.0
102
RTVSPost2010PropOp38
 70
     1
102
RTVSPost2010Prop39
140
1.0
102
RTVSPost2010PropOp39
 70
     1
102
RTVSPost2010Prop40
 90
        0
102
RTVSPost2010PropOp40
 70
     1
102
RTVSPost2010Prop41ColorIndex
 90
       18
102
RTVSPost2010Prop41ColorRGB
 90
        0
102
RTVSPost2010PropOp41
 70
     1
102
RTVSPost2010Prop42
 90
       50
102
RTVSPost2010PropOp42
 70
     1
102
RTVSPost2010Prop43
 90
        3
102
RTVSPost2010PropOp43
 70
     1
102
RTVSPost2010Prop44ColorIndex
 90
        5
102
RTVSPost2010Prop44ColorRGB
 90
      255
102
RTVSPost2010PropOp44
 70
     1
102
RTVSPost2010Prop45
280
     0
102
RTVSPost2010PropOp45
 70
     1
102
RTVSPost2010Prop46
 90
       50
102
RTVSPost2010PropOp46
 70
     1
102
RTVSPost2010Prop47
 90
       50
102
RTVSPost2010PropOp47
 70
     1
102
RTVSPost2010Prop48
 90
       50
102
RTVSPost2010PropOp48
 70
     1
102
RTVSPost2010Prop49
280
     0
102
RTVSPost2010PropOp49
 70
     1
102
RTVSPost2010Prop50
 90
       50
102
RTVSPost2010PropOp50
 70
     1
102
RTVSPost2010Prop51ColorIndex
 90
      256
102
RTVSPost2010Prop51ColorRGB
 90
-16777216
102
RTVSPost2010PropOp51
 70
     0
102
RTVSPost2010Prop52
140
1.0
102
RTVSPost2010PropOp52
 70
     0
102
RTVSPost2010Prop53
 90
        2
102
RTVSPost2010PropOp53
 70
     1
102
RTVSPost2010Prop54
  1
strokes_ogs.tif
102
RTVSPost2010PropOp54
 70
     1
102
RTVSPost2010Prop55
280
     0
102
RTVSPost2010PropOp55
 70
     1
102
RTVSPost2010Prop56
140
1.0
102
RTVSPost2010PropOp56
 70
     1
102
RTVSPost2010Prop57
140
1.0
102
RTVSPost2010PropOp57
 70
     1
  0
XRECORD
  5
11C
102
{ACAD_REACTORS
330
11B
102
}
330
11B
100
AcDbXrecord
280
     1
102
RTVSPost2010Prop28
280
     0
102
RTVSPost2010PropOp28
 70
     1
102
RTVSPost2010Prop29
280
     1
102
RTVSPost2010PropOp29
 70
     1
102
RTVSPost2010Prop30
280
     1
102
RTVSPost2010PropOp30
 70
     1
102
RTVSPost2010Prop31
280
     0
102
RTVSPost2010PropOp31
 70
     1
102
RTVSPost2010Prop32
280
     0
102
RTVSPost2010PropOp32
 70
     1
102
RTVSPost2010Prop33
280
     0
102
RTVSPost2010PropOp33
 70
     1
102
RTVSPost2010Prop34
280
     0
102
RTVSPost2010PropOp34
 70
     1
102
RTVSPost2010Prop35
280
     0
102
RTVSPost2010PropOp35
 70
     1
102
RTVSPost2010Prop36
280
     0
102
RTVSPost2010PropOp36
 70
     1
102
RTVSPost2010Prop37
 90
       50
102
RTVSPost2010PropOp37
 70
     1
102
RTVSPost2010Prop38
140
0.0
102
RTVSPost2010PropOp38
 70
     1
102
RTVSPost2010Prop39
140
1.0
102
RTVSPost2010PropOp39
 70
     1
102
RTVSPost2010Prop40
 90
        0
102
RTVSPost2010PropOp40
 70
     1
102
RTVSPost2010Prop41ColorIndex
 90
       18
102
RTVSPost2010Prop41ColorRGB
 90
        0
102
RTVSPost2010PropOp41
 70
     1
102
RTVSPost2010Prop42
 90
       50
102
RTVSPost2010PropOp42
 70
     1
102
RTVSPost2010Prop43
 90
        3
102
RTVSPost2010PropOp43
 70
     1
102
RTVSPost2010Prop44ColorIndex
 90
        5
102
RTVSPost2010Prop44ColorRGB
 90
      255
102
RTVSPost2010PropOp44
 70
     1
102
RTVSPost2010Prop45
280
     0
102
RTVSPost2010PropOp45
 70
     1
102
RTVSPost2010Prop46
 90
       50
102
RTVSPost2010PropOp46
 70
     1
102
RTVSPost2010Prop47
 90
       50
102
RTVSPost2010PropOp47
 70
     1
102
RTVSPost2010Prop48
 90
       50
102
RTVSPost2010PropOp48
 70
     1
102
RTVSPost2010Prop49
280
     0
102
RTVSPost2010PropOp49
 70
     1
102
RTVSPost2010Prop50
 90
       50
102
RTVSPost2010PropOp50
 70
     1
102
RTVSPost2010Prop51ColorIndex
 90
      256
102
RTVSPost2010Prop51ColorRGB
 90
-16777216
102
RTVSPost2010PropOp51
 70
     0
102
RTVSPost2010Prop52
140
1.0
102
RTVSPost2010PropOp52
 70
     0
102
RTVSPost2010Prop53
 90
        2
102
RTVSPost2010PropOp53
 70
     1
102
RTVSPost2010Prop54
  1
strokes_ogs.tif
102
RTVSPost2010PropOp54
 70
     1
102
RTVSPost2010Prop55
280
     0
102
RTVSPost2010PropOp55
 70
     1
102
RTVSPost2010Prop56
140
1.0
102
RTVSPost2010PropOp56
 70
     1
102
RTVSPost2010Prop57
140
1.0
102
RTVSPost2010PropOp57
 70
     1
  0
XRECORD
  5
10E
102
{ACAD_REACTORS
330
10D
102
}
330
10D
100
AcDbXrecord
280
     1
102
RTVSPost2010Prop28
280
     0
102
RTVSPost2010PropOp28
 70
     1
102
RTVSPost2010Prop29
280
     1
102
RTVSPost2010PropOp29
 70
     1
102
RTVSPost2010Prop30
280
     1
102
RTVSPost2010PropOp30
 70
     1
102
RTVSPost2010Prop31
280
     0
102
RTVSPost2010PropOp31
 70
     1
102
RTVSPost2010Prop32
280
     0
102
RTVSPost2010PropOp32
 70
     1
102
RTVSPost2010Prop33
280
     0
102
RTVSPost2010PropOp33
 70
     1
102
RTVSPost2010Prop34
280
     0
102
RTVSPost2010PropOp34
 70
     1
102
RTVSPost2010Prop35
280
     0
102
RTVSPost2010PropOp35
 70
     1
102
RTVSPost2010Prop36
280
     0
102
RTVSPost2010PropOp36
 70
     1
102
RTVSPost2010Prop37
 90
       50
102
RTVSPost2010PropOp37
 70
     1
102
RTVSPost2010Prop38
140
0.0
102
RTVSPost2010PropOp38
 70
     1
102
RTVSPost2010Prop39
140
1.0
102
RTVSPost2010PropOp39
 70
     1
102
RTVSPost2010Prop40
 90
        0
102
RTVSPost2010PropOp40
 70
     1
102
RTVSPost2010Prop41ColorIndex
 90
       18
102
RTVSPost2010Prop41ColorRGB
 90
        0
102
RTVSPost2010PropOp41
 70
     1
102
RTVSPost2010Prop42
 90
       50
102
RTVSPost2010PropOp42
 70
     1
102
RTVSPost2010Prop43
 90
        3
102
RTVSPost2010PropOp43
 70
     1
102
RTVSPost2010Prop44ColorIndex
 90
        5
102
RTVSPost2010Prop44ColorRGB
 90
      255
102
RTVSPost2010PropOp44
 70
     1
102
RTVSPost2010Prop45
280
     0
102
RTVSPost2010PropOp45
 70
     1
102
RTVSPost2010Prop46
 90
       50
102
RTVSPost2010PropOp46
 70
     1
102
RTVSPost2010Prop47
 90
       50
102
RTVSPost2010PropOp47
 70
     1
102
RTVSPost2010Prop48
 90
       50
102
RTVSPost2010PropOp48
 70
     1
102
RTVSPost2010Prop49
280
     0
102
RTVSPost2010PropOp49
 70
     1
102
RTVSPost2010Prop50
 90
       50
102
RTVSPost2010PropOp50
 70
     1
102
RTVSPost2010Prop51ColorIndex
 90
      256
102
RTVSPost2010Prop51ColorRGB
 90
-16777216
102
RTVSPost2010PropOp51
 70
     0
102
RTVSPost2010Prop52
140
1.0
102
RTVSPost2010PropOp52
 70
     0
102
RTVSPost2010Prop53
 90
        2
102
RTVSPost2010PropOp53
 70
     1
102
RTVSPost2010Prop54
  1
strokes_ogs.tif
102
RTVSPost2010PropOp54
 70
     1
102
RTVSPost2010Prop55
280
     0
102
RTVSPost2010PropOp55
 70
     1
102
RTVSPost2010Prop56
140
1.0
102
RTVSPost2010PropOp56
 70
     1
102
RTVSPost2010Prop57
140
1.0
102
RTVSPost2010PropOp57
 70
     1
  0
XRECORD
  5
112
102
{ACAD_REACTORS
330
111
102
}
330
111
100
AcDbXrecord
280
     1
102
RTVSPost2010Prop28
280
     0
102
RTVSPost2010PropOp28
 70
     1
102
RTVSPost2010Prop29
280
     1
102
RTVSPost2010PropOp29
 70
     1
102
RTVSPost2010Prop30
280
     1
102
RTVSPost2010PropOp30
 70
     1
102
RTVSPost2010Prop31
280
     0
102
RTVSPost2010PropOp31
 70
     1
102
RTVSPost2010Prop32
280
     0
102
RTVSPost2010PropOp32
 70
     1
102
RTVSPost2010Prop33
280
     0
102
RTVSPost2010PropOp33
 70
     1
102
RTVSPost2010Prop34
280
     0
102
RTVSPost2010PropOp34
 70
     1
102
RTVSPost2010Prop35
280
     0
102
RTVSPost2010PropOp35
 70
     1
102
RTVSPost2010Prop36
280
     0
102
RTVSPost2010PropOp36
 70
     1
102
RTVSPost2010Prop37
 90
       50
102
RTVSPost2010PropOp37
 70
     1
102
RTVSPost2010Prop38
140
0.0
102
RTVSPost2010PropOp38
 70
     1
102
RTVSPost2010Prop39
140
1.0
102
RTVSPost2010PropOp39
 70
     1
102
RTVSPost2010Prop40
 90
        0
102
RTVSPost2010PropOp40
 70
     1
102
RTVSPost2010Prop41ColorIndex
 90
       18
102
RTVSPost2010Prop41ColorRGB
 90
        0
102
RTVSPost2010PropOp41
 70
     1
102
RTVSPost2010Prop42
 90
       50
102
RTVSPost2010PropOp42
 70
     1
102
RTVSPost2010Prop43
 90
        3
102
RTVSPost2010PropOp43
 70
     1
102
RTVSPost2010Prop44ColorIndex
 90
        5
102
RTVSPost2010Prop44ColorRGB
 90
      255
102
RTVSPost2010PropOp44
 70
     1
102
RTVSPost2010Prop45
280
     0
102
RTVSPost2010PropOp45
 70
     1
102
RTVSPost2010Prop46
 90
       50
102
RTVSPost2010PropOp46
 70
     1
102
RTVSPost2010Prop47
 90
       50
102
RTVSPost2010PropOp47
 70
     1
102
RTVSPost2010Prop48
 90
       50
102
RTVSPost2010PropOp48
 70
     1
102
RTVSPost2010Prop49
280
     0
102
RTVSPost2010PropOp49
 70
     1
102
RTVSPost2010Prop50
 90
       50
102
RTVSPost2010PropOp50
 70
     1
102
RTVSPost2010Prop51ColorIndex
 90
      256
102
RTVSPost2010Prop51ColorRGB
 90
-16777216
102
RTVSPost2010PropOp51
 70
     0
102
RTVSPost2010Prop52
140
1.0
102
RTVSPost2010PropOp52
 70
     0
102
RTVSPost2010Prop53
 90
        2
102
RTVSPost2010PropOp53
 70
     1
102
RTVSPost2010Prop54
  1
strokes_ogs.tif
102
RTVSPost2010PropOp54
 70
     1
102
RTVSPost2010Prop55
280
     0
102
RTVSPost2010PropOp55
 70
     1
102
RTVSPost2010Prop56
140
1.0
102
RTVSPost2010PropOp56
 70
     1
102
RTVSPost2010Prop57
140
1.0
102
RTVSPost2010PropOp57
 70
     1
  0
XRECORD
  5
12C
102
{ACAD_REACTORS
330
12B
102
}
330
12B
100
AcDbXrecord
280
     1
102
RTVSPost2010Prop28
280
     0
102
RTVSPost2010PropOp28
 70
     0
102
RTVSPost2010Prop29
280
     1
102
RTVSPost2010PropOp29
 70
     0
102
RTVSPost2010Prop30
280
     1
102
RTVSPost2010PropOp30
 70
     0
102
RTVSPost2010Prop31
280
     0
102
RTVSPost2010PropOp31
 70
     0
102
RTVSPost2010Prop32
280
     0
102
RTVSPost2010PropOp32
 70
     0
102
RTVSPost2010Prop33
280
     0
102
RTVSPost2010PropOp33
 70
     0
102
RTVSPost2010Prop34
280
     0
102
RTVSPost2010PropOp34
 70
     0
102
RTVSPost2010Prop35
280
     0
102
RTVSPost2010PropOp35
 70
     0
102
RTVSPost2010Prop36
280
     0
102
RTVSPost2010PropOp36
 70
     0
102
RTVSPost2010Prop37
 90
       50
102
RTVSPost2010PropOp37
 70
     0
102
RTVSPost2010Prop38
140
0.0
102
RTVSPost2010PropOp38
 70
     0
102
RTVSPost2010Prop39
140
1.0
102
RTVSPost2010PropOp39
 70
     0
102
RTVSPost2010Prop40
 90
        0
102
RTVSPost2010PropOp40
 70
     0
102
RTVSPost2010Prop41ColorIndex
 90
       18
102
RTVSPost2010Prop41ColorRGB
 90
        0
102
RTVSPost2010PropOp41
 70
     0
102
RTVSPost2010Prop42
 90
       50
102
RTVSPost2010PropOp42
 70
     0
102
RTVSPost2010Prop43
 90
        3
102
RTVSPost2010PropOp43
 70
     0
102
RTVSPost2010Prop44ColorIndex
 90
        5
102
RTVSPost2010Prop44ColorRGB
 90
      255
102
RTVSPost2010PropOp44
 70
     0
102
RTVSPost2010Prop45
280
     0
102
RTVSPost2010PropOp45
 70
     0
102
RTVSPost2010Prop46
 90
       50
102
RTVSPost2010PropOp46
 70
     0
102
RTVSPost2010Prop47
 90
       50
102
RTVSPost2010PropOp47
 70
     0
102
RTVSPost2010Prop48
 90
       50
102
RTVSPost2010PropOp48
 70
     0
102
RTVSPost2010Prop49
280
     0
102
RTVSPost2010PropOp49
 70
     0
102
RTVSPost2010Prop50
 90
       50
102
RTVSPost2010PropOp50
 70
     0
102
RTVSPost2010Prop51ColorIndex
 90
      256
102
RTVSPost2010Prop51ColorRGB
 90
-16777216
102
RTVSPost2010PropOp51
 70
     0
102
RTVSPost2010Prop52
140
1.0
102
RTVSPost2010PropOp52
 70
     0
102
RTVSPost2010Prop53
 90
        2
102
RTVSPost2010PropOp53
 70
     0
102
RTVSPost2010Prop54
  1
strokes_ogs.tif
102
RTVSPost2010PropOp54
 70
     0
102
RTVSPost2010Prop55
280
     0
102
RTVSPost2010PropOp55
 70
     0
102
RTVSPost2010Prop56
140
1.0
102
RTVSPost2010PropOp56
 70
     0
102
RTVSPost2010Prop57
140
1.0
102
RTVSPost2010PropOp57
 70
     0
  0
XRECORD
  5
11A
102
{ACAD_REACTORS
330
119
102
}
330
119
100
AcDbXrecord
280
     1
102
RTVSPost2010Prop28
280
     0
102
RTVSPost2010PropOp28
 70
     1
102
RTVSPost2010Prop29
280
     1
102
RTVSPost2010PropOp29
 70
     1
102
RTVSPost2010Prop30
280
     1
102
RTVSPost2010PropOp30
 70
     1
102
RTVSPost2010Prop31
280
     0
102
RTVSPost2010PropOp31
 70
     1
102
RTVSPost2010Prop32
280
     0
102
RTVSPost2010PropOp32
 70
     1
102
RTVSPost2010Prop33
280
     0
102
RTVSPost2010PropOp33
 70
     1
102
RTVSPost2010Prop34
280
     0
102
RTVSPost2010PropOp34
 70
     1
102
RTVSPost2010Prop35
280
     0
102
RTVSPost2010PropOp35
 70
     1
102
RTVSPost2010Prop36
280
     0
102
RTVSPost2010PropOp36
 70
     1
102
RTVSPost2010Prop37
 90
       50
102
RTVSPost2010PropOp37
 70
     1
102
RTVSPost2010Prop38
140
0.0
102
RTVSPost2010PropOp38
 70
     1
102
RTVSPost2010Prop39
140
1.0
102
RTVSPost2010PropOp39
 70
     1
102
RTVSPost2010Prop40
 90
        0
102
RTVSPost2010PropOp40
 70
     1
102
RTVSPost2010Prop41ColorIndex
 90
       18
102
RTVSPost2010Prop41ColorRGB
 90
        0
102
RTVSPost2010PropOp41
 70
     1
102
RTVSPost2010Prop42
 90
       50
102
RTVSPost2010PropOp42
 70
     1
102
RTVSPost2010Prop43
 90
        3
102
RTVSPost2010PropOp43
 70
     1
102
RTVSPost2010Prop44ColorIndex
 90
        5
102
RTVSPost2010Prop44ColorRGB
 90
      255
102
RTVSPost2010PropOp44
 70
     1
102
RTVSPost2010Prop45
280
     0
102
RTVSPost2010PropOp45
 70
     1
102
RTVSPost2010Prop46
 90
       50
102
RTVSPost2010PropOp46
 70
     1
102
RTVSPost2010Prop47
 90
       50
102
RTVSPost2010PropOp47
 70
     1
102
RTVSPost2010Prop48
 90
       50
102
RTVSPost2010PropOp48
 70
     1
102
RTVSPost2010Prop49
280
     0
102
RTVSPost2010PropOp49
 70
     1
102
RTVSPost2010Prop50
 90
       50
102
RTVSPost2010PropOp50
 70
     1
102
RTVSPost2010Prop51ColorIndex
 90
      256
102
RTVSPost2010Prop51ColorRGB
 90
-16777216
102
RTVSPost2010PropOp51
 70
     0
102
RTVSPost2010Prop52
140
1.0
102
RTVSPost2010PropOp52
 70
     0
102
RTVSPost2010Prop53
 90
        2
102
RTVSPost2010PropOp53
 70
     1
102
RTVSPost2010Prop54
  1
strokes_ogs.tif
102
RTVSPost2010PropOp54
 70
     1
102
RTVSPost2010Prop55
280
     0
102
RTVSPost2010PropOp55
 70
     1
102
RTVSPost2010Prop56
140
1.0
102
RTVSPost2010PropOp56
 70
     1
102
RTVSPost2010Prop57
140
1.0
102
RTVSPost2010PropOp57
 70
     1
  0
XRECORD
  5
FE
102
{ACAD_REACTORS
330
FD
102
}
330
FD
100
AcDbXrecord
280
     1
102
RTVSPost2010Prop28
280
     0
102
RTVSPost2010PropOp28
 70
     1
102
RTVSPost2010Prop29
280
     1
102
RTVSPost2010PropOp29
 70
     1
102
RTVSPost2010Prop30
280
     1
102
RTVSPost2010PropOp30
 70
     1
102
RTVSPost2010Prop31
280
     0
102
RTVSPost2010PropOp31
 70
     1
102
RTVSPost2010Prop32
280
     0
102
RTVSPost2010PropOp32
 70
     1
102
RTVSPost2010Prop33
280
     0
102
RTVSPost2010PropOp33
 70
     1
102
RTVSPost2010Prop34
280
     0
102
RTVSPost2010PropOp34
 70
     1
102
RTVSPost2010Prop35
280
     0
102
RTVSPost2010PropOp35
 70
     1
102
RTVSPost2010Prop36
280
     0
102
RTVSPost2010PropOp36
 70
     1
102
RTVSPost2010Prop37
 90
       50
102
RTVSPost2010PropOp37
 70
     1
102
RTVSPost2010Prop38
140
0.0
102
RTVSPost2010PropOp38
 70
     1
102
RTVSPost2010Prop39
140
1.0
102
RTVSPost2010PropOp39
 70
     1
102
RTVSPost2010Prop40
 90
        0
102
RTVSPost2010PropOp40
 70
     1
102
RTVSPost2010Prop41ColorIndex
 90
       18
102
RTVSPost2010Prop41ColorRGB
 90
        0
102
RTVSPost2010PropOp41
 70
     1
102
RTVSPost2010Prop42
 90
       50
102
RTVSPost2010PropOp42
 70
     1
102
RTVSPost2010Prop43
 90
        3
102
RTVSPost2010PropOp43
 70
     1
102
RTVSPost2010Prop44ColorIndex
 90
        5
102
RTVSPost2010Prop44ColorRGB
 90
      255
102
RTVSPost2010PropOp44
 70
     1
102
RTVSPost2010Prop45
280
     0
102
RTVSPost2010PropOp45
 70
     1
102
RTVSPost2010Prop46
 90
       50
102
RTVSPost2010PropOp46
 70
     1
102
RTVSPost2010Prop47
 90
       50
102
RTVSPost2010PropOp47
 70
     1
102
RTVSPost2010Prop48
 90
       50
102
RTVSPost2010PropOp48
 70
     1
102
RTVSPost2010Prop49
280
     0
102
RTVSPost2010PropOp49
 70
     1
102
RTVSPost2010Prop50
 90
       50
102
RTVSPost2010PropOp50
 70
     1
102
RTVSPost2010Prop51ColorIndex
 90
      256
102
RTVSPost2010Prop51ColorRGB
 90
-16777216
102
RTVSPost2010PropOp51
 70
     0
102
RTVSPost2010Prop52
140
1.0
102
RTVSPost2010PropOp52
 70
     0
102
RTVSPost2010Prop53
 90
        2
102
RTVSPost2010PropOp53
 70
     1
102
RTVSPost2010Prop54
  1
strokes_ogs.tif
102
RTVSPost2010PropOp54
 70
     1
102
RTVSPost2010Prop55
280
     0
102
RTVSPost2010PropOp55
 70
     1
102
RTVSPost2010Prop56
140
1.0
102
RTVSPost2010PropOp56
 70
     1
102
RTVSPost2010Prop57
140
1.0
102
RTVSPost2010PropOp57
 70
     1
  0
XRECORD
  5
100
102
{ACAD_REACTORS
330
FF
102
}
330
FF
100
AcDbXrecord
280
     1
102
RTVSPost2010Prop28
280
     0
102
RTVSPost2010PropOp28
 70
     1
102
RTVSPost2010Prop29
280
     1
102
RTVSPost2010PropOp29
 70
     1
102
RTVSPost2010Prop30
280
     1
102
RTVSPost2010PropOp30
 70
     1
102
RTVSPost2010Prop31
280
     0
102
RTVSPost2010PropOp31
 70
     1
102
RTVSPost2010Prop32
280
     0
102
RTVSPost2010PropOp32
 70
     1
102
RTVSPost2010Prop33
280
     0
102
RTVSPost2010PropOp33
 70
     1
102
RTVSPost2010Prop34
280
     0
102
RTVSPost2010PropOp34
 70
     1
102
RTVSPost2010Prop35
280
     0
102
RTVSPost2010PropOp35
 70
     1
102
RTVSPost2010Prop36
280
     0
102
RTVSPost2010PropOp36
 70
     1
102
RTVSPost2010Prop37
 90
       50
102
RTVSPost2010PropOp37
 70
     1
102
RTVSPost2010Prop38
140
0.0
102
RTVSPost2010PropOp38
 70
     1
102
RTVSPost2010Prop39
140
1.0
102
RTVSPost2010PropOp39
 70
     1
102
RTVSPost2010Prop40
 90
        0
102
RTVSPost2010PropOp40
 70
     1
102
RTVSPost2010Prop41ColorIndex
 90
       18
102
RTVSPost2010Prop41ColorRGB
 90
        0
102
RTVSPost2010PropOp41
 70
     1
102
RTVSPost2010Prop42
 90
       50
102
RTVSPost2010PropOp42
 70
     1
102
RTVSPost2010Prop43
 90
        3
102
RTVSPost2010PropOp43
 70
     1
102
RTVSPost2010Prop44ColorIndex
 90
        5
102
RTVSPost2010Prop44ColorRGB
 90
      255
102
RTVSPost2010PropOp44
 70
     1
102
RTVSPost2010Prop45
280
     0
102
RTVSPost2010PropOp45
 70
     1
102
RTVSPost2010Prop46
 90
       50
102
RTVSPost2010PropOp46
 70
     1
102
RTVSPost2010Prop47
 90
       50
102
RTVSPost2010PropOp47
 70
     1
102
RTVSPost2010Prop48
 90
       50
102
RTVSPost2010PropOp48
 70
     1
102
RTVSPost2010Prop49
280
     0
102
RTVSPost2010PropOp49
 70
     1
102
RTVSPost2010Prop50
 90
       50
102
RTVSPost2010PropOp50
 70
     1
102
RTVSPost2010Prop51ColorIndex
 90
      256
102
RTVSPost2010Prop51ColorRGB
 90
-16777216
102
RTVSPost2010PropOp51
 70
     0
102
RTVSPost2010Prop52
140
1.0
102
RTVSPost2010PropOp52
 70
     0
102
RTVSPost2010Prop53
 90
        2
102
RTVSPost2010PropOp53
 70
     1
102
RTVSPost2010Prop54
  1
strokes_ogs.tif
102
RTVSPost2010PropOp54
 70
     1
102
RTVSPost2010Prop55
280
     0
102
RTVSPost2010PropOp55
 70
     1
102
RTVSPost2010Prop56
140
1.0
102
RTVSPost2010PropOp56
 70
     1
102
RTVSPost2010Prop57
140
1.0
102
RTVSPost2010PropOp57
 70
     1
  0
XRECORD
  5
102
102
{ACAD_REACTORS
330
101
102
}
330
101
100
AcDbXrecord
280
     1
102
RTVSPost2010Prop28
280
     0
102
RTVSPost2010PropOp28
 70
     1
102
RTVSPost2010Prop29
280
     1
102
RTVSPost2010PropOp29
 70
     1
102
RTVSPost2010Prop30
280
     1
102
RTVSPost2010PropOp30
 70
     1
102
RTVSPost2010Prop31
280
     0
102
RTVSPost2010PropOp31
 70
     1
102
RTVSPost2010Prop32
280
     0
102
RTVSPost2010PropOp32
 70
     1
102
RTVSPost2010Prop33
280
     0
102
RTVSPost2010PropOp33
 70
     1
102
RTVSPost2010Prop34
280
     0
102
RTVSPost2010PropOp34
 70
     1
102
RTVSPost2010Prop35
280
     0
102
RTVSPost2010PropOp35
 70
     1
102
RTVSPost2010Prop36
280
     0
102
RTVSPost2010PropOp36
 70
     1
102
RTVSPost2010Prop37
 90
       50
102
RTVSPost2010PropOp37
 70
     1
102
RTVSPost2010Prop38
140
0.0
102
RTVSPost2010PropOp38
 70
     1
102
RTVSPost2010Prop39
140
1.0
102
RTVSPost2010PropOp39
 70
     1
102
RTVSPost2010Prop40
 90
        0
102
RTVSPost2010PropOp40
 70
     1
102
RTVSPost2010Prop41ColorIndex
 90
       18
102
RTVSPost2010Prop41ColorRGB
 90
        0
102
RTVSPost2010PropOp41
 70
     1
102
RTVSPost2010Prop42
 90
       50
102
RTVSPost2010PropOp42
 70
     1
102
RTVSPost2010Prop43
 90
        3
102
RTVSPost2010PropOp43
 70
     1
102
RTVSPost2010Prop44ColorIndex
 90
        5
102
RTVSPost2010Prop44ColorRGB
 90
      255
102
RTVSPost2010PropOp44
 70
     1
102
RTVSPost2010Prop45
280
     0
102
RTVSPost2010PropOp45
 70
     1
102
RTVSPost2010Prop46
 90
       50
102
RTVSPost2010PropOp46
 70
     1
102
RTVSPost2010Prop47
 90
       50
102
RTVSPost2010PropOp47
 70
     1
102
RTVSPost2010Prop48
 90
       50
102
RTVSPost2010PropOp48
 70
     1
102
RTVSPost2010Prop49
280
     0
102
RTVSPost2010PropOp49
 70
     1
102
RTVSPost2010Prop50
 90
       50
102
RTVSPost2010PropOp50
 70
     1
102
RTVSPost2010Prop51ColorIndex
 90
      256
102
RTVSPost2010Prop51ColorRGB
 90
-16777216
102
RTVSPost2010PropOp51
 70
     0
102
RTVSPost2010Prop52
140
1.0
102
RTVSPost2010PropOp52
 70
     0
102
RTVSPost2010Prop53
 90
        2
102
RTVSPost2010PropOp53
 70
     1
102
RTVSPost2010Prop54
  1
strokes_ogs.tif
102
RTVSPost2010PropOp54
 70
     1
102
RTVSPost2010Prop55
280
     0
102
RTVSPost2010PropOp55
 70
     1
102
RTVSPost2010Prop56
140
1.0
102
RTVSPost2010PropOp56
 70
     1
102
RTVSPost2010Prop57
140
1.0
102
RTVSPost2010PropOp57
 70
     1
  0
XRECORD
  5
104
102
{ACAD_REACTORS
330
103
102
}
330
103
100
AcDbXrecord
280
     1
102
RTVSPost2010Prop28
280
     0
102
RTVSPost2010PropOp28
 70
     1
102
RTVSPost2010Prop29
280
     1
102
RTVSPost2010PropOp29
 70
     1
102
RTVSPost2010Prop30
280
     1
102
RTVSPost2010PropOp30
 70
     1
102
RTVSPost2010Prop31
280
     0
102
RTVSPost2010PropOp31
 70
     1
102
RTVSPost2010Prop32
280
     0
102
RTVSPost2010PropOp32
 70
     1
102
RTVSPost2010Prop33
280
     0
102
RTVSPost2010PropOp33
 70
     1
102
RTVSPost2010Prop34
280
     0
102
RTVSPost2010PropOp34
 70
     1
102
RTVSPost2010Prop35
280
     0
102
RTVSPost2010PropOp35
 70
     1
102
RTVSPost2010Prop36
280
     0
102
RTVSPost2010PropOp36
 70
     1
102
RTVSPost2010Prop37
 90
       50
102
RTVSPost2010PropOp37
 70
     1
102
RTVSPost2010Prop38
140
0.0
102
RTVSPost2010PropOp38
 70
     1
102
RTVSPost2010Prop39
140
1.0
102
RTVSPost2010PropOp39
 70
     1
102
RTVSPost2010Prop40
 90
        0
102
RTVSPost2010PropOp40
 70
     1
102
RTVSPost2010Prop41ColorIndex
 90
       18
102
RTVSPost2010Prop41ColorRGB
 90
        0
102
RTVSPost2010PropOp41
 70
     1
102
RTVSPost2010Prop42
 90
       50
102
RTVSPost2010PropOp42
 70
     1
102
RTVSPost2010Prop43
 90
        3
102
RTVSPost2010PropOp43
 70
     1
102
RTVSPost2010Prop44ColorIndex
 90
        5
102
RTVSPost2010Prop44ColorRGB
 90
      255
102
RTVSPost2010PropOp44
 70
     1
102
RTVSPost2010Prop45
280
     0
102
RTVSPost2010PropOp45
 70
     1
102
RTVSPost2010Prop46
 90
       50
102
RTVSPost2010PropOp46
 70
     1
102
RTVSPost2010Prop47
 90
       50
102
RTVSPost2010PropOp47
 70
     1
102
RTVSPost2010Prop48
 90
       50
102
RTVSPost2010PropOp48
 70
     1
102
RTVSPost2010Prop49
280
     0
102
RTVSPost2010PropOp49
 70
     1
102
RTVSPost2010Prop50
 90
       50
102
RTVSPost2010PropOp50
 70
     1
102
RTVSPost2010Prop51ColorIndex
 90
      256
102
RTVSPost2010Prop51ColorRGB
 90
-16777216
102
RTVSPost2010PropOp51
 70
     0
102
RTVSPost2010Prop52
140
1.0
102
RTVSPost2010PropOp52
 70
     0
102
RTVSPost2010Prop53
 90
        2
102
RTVSPost2010PropOp53
 70
     1
102
RTVSPost2010Prop54
  1
strokes_ogs.tif
102
RTVSPost2010PropOp54
 70
     1
102
RTVSPost2010Prop55
280
     0
102
RTVSPost2010PropOp55
 70
     1
102
RTVSPost2010Prop56
140
1.0
102
RTVSPost2010PropOp56
 70
     1
102
RTVSPost2010Prop57
140
1.0
102
RTVSPost2010PropOp57
 70
     1
  0
XRECORD
  5
10C
102
{ACAD_REACTORS
330
10B
102
}
330
10B
100
AcDbXrecord
280
     1
102
RTVSPost2010Prop28
280
     0
102
RTVSPost2010PropOp28
 70
     1
102
RTVSPost2010Prop29
280
     1
102
RTVSPost2010PropOp29
 70
     1
102
RTVSPost2010Prop30
280
     1
102
RTVSPost2010PropOp30
 70
     1
102
RTVSPost2010Prop31
280
     0
102
RTVSPost2010PropOp31
 70
     1
102
RTVSPost2010Prop32
280
     0
102
RTVSPost2010PropOp32
 70
     1
102
RTVSPost2010Prop33
280
     0
102
RTVSPost2010PropOp33
 70
     1
102
RTVSPost2010Prop34
280
     0
102
RTVSPost2010PropOp34
 70
     1
102
RTVSPost2010Prop35
280
     0
102
RTVSPost2010PropOp35
 70
     1
102
RTVSPost2010Prop36
280
     0
102
RTVSPost2010PropOp36
 70
     1
102
RTVSPost2010Prop37
 90
       50
102
RTVSPost2010PropOp37
 70
     1
102
RTVSPost2010Prop38
140
0.0
102
RTVSPost2010PropOp38
 70
     1
102
RTVSPost2010Prop39
140
1.0
102
RTVSPost2010PropOp39
 70
     1
102
RTVSPost2010Prop40
 90
        0
102
RTVSPost2010PropOp40
 70
     1
102
RTVSPost2010Prop41ColorIndex
 90
       18
102
RTVSPost2010Prop41ColorRGB
 90
        0
102
RTVSPost2010PropOp41
 70
     1
102
RTVSPost2010Prop42
 90
       50
102
RTVSPost2010PropOp42
 70
     1
102
RTVSPost2010Prop43
 90
        3
102
RTVSPost2010PropOp43
 70
     1
102
RTVSPost2010Prop44ColorIndex
 90
        5
102
RTVSPost2010Prop44ColorRGB
 90
      255
102
RTVSPost2010PropOp44
 70
     1
102
RTVSPost2010Prop45
280
     0
102
RTVSPost2010PropOp45
 70
     1
102
RTVSPost2010Prop46
 90
       50
102
RTVSPost2010PropOp46
 70
     1
102
RTVSPost2010Prop47
 90
       50
102
RTVSPost2010PropOp47
 70
     1
102
RTVSPost2010Prop48
 90
       50
102
RTVSPost2010PropOp48
 70
     1
102
RTVSPost2010Prop49
280
     0
102
RTVSPost2010PropOp49
 70
     1
102
RTVSPost2010Prop50
 90
       50
102
RTVSPost2010PropOp50
 70
     1
102
RTVSPost2010Prop51ColorIndex
 90
      256
102
RTVSPost2010Prop51ColorRGB
 90
-16777216
102
RTVSPost2010PropOp51
 70
     0
102
RTVSPost2010Prop52
140
1.0
102
RTVSPost2010PropOp52
 70
     0
102
RTVSPost2010Prop53
 90
        2
102
RTVSPost2010PropOp53
 70
     1
102
RTVSPost2010Prop54
  1
strokes_ogs.tif
102
RTVSPost2010PropOp54
 70
     1
102
RTVSPost2010Prop55
280
     0
102
RTVSPost2010PropOp55
 70
     1
102
RTVSPost2010Prop56
140
1.0
102
RTVSPost2010PropOp56
 70
     1
102
RTVSPost2010Prop57
140
1.0
102
RTVSPost2010PropOp57
 70
     1
  0
XRECORD
  5
128
102
{ACAD_REACTORS
330
127
102
}
330
127
100
AcDbXrecord
280
     1
102
RTVSPost2010Prop28
280
     0
102
RTVSPost2010PropOp28
 70
     0
102
RTVSPost2010Prop29
280
     1
102
RTVSPost2010PropOp29
 70
     0
102
RTVSPost2010Prop30
280
     1
102
RTVSPost2010PropOp30
 70
     0
102
RTVSPost2010Prop31
280
     0
102
RTVSPost2010PropOp31
 70
     0
102
RTVSPost2010Prop32
280
     0
102
RTVSPost2010PropOp32
 70
     0
102
RTVSPost2010Prop33
280
     0
102
RTVSPost2010PropOp33
 70
     0
102
RTVSPost2010Prop34
280
     0
102
RTVSPost2010PropOp34
 70
     0
102
RTVSPost2010Prop35
280
     0
102
RTVSPost2010PropOp35
 70
     0
102
RTVSPost2010Prop36
280
     0
102
RTVSPost2010PropOp36
 70
     0
102
RTVSPost2010Prop37
 90
       50
102
RTVSPost2010PropOp37
 70
     0
102
RTVSPost2010Prop38
140
0.0
102
RTVSPost2010PropOp38
 70
     0
102
RTVSPost2010Prop39
140
1.0
102
RTVSPost2010PropOp39
 70
     0
102
RTVSPost2010Prop40
 90
        0
102
RTVSPost2010PropOp40
 70
     0
102
RTVSPost2010Prop41ColorIndex
 90
       18
102
RTVSPost2010Prop41ColorRGB
 90
        0
102
RTVSPost2010PropOp41
 70
     0
102
RTVSPost2010Prop42
 90
       50
102
RTVSPost2010PropOp42
 70
     0
102
RTVSPost2010Prop43
 90
        3
102
RTVSPost2010PropOp43
 70
     0
102
RTVSPost2010Prop44ColorIndex
 90
        5
102
RTVSPost2010Prop44ColorRGB
 90
      255
102
RTVSPost2010PropOp44
 70
     0
102
RTVSPost2010Prop45
280
     0
102
RTVSPost2010PropOp45
 70
     0
102
RTVSPost2010Prop46
 90
       50
102
RTVSPost2010PropOp46
 70
     0
102
RTVSPost2010Prop47
 90
       50
102
RTVSPost2010PropOp47
 70
     0
102
RTVSPost2010Prop48
 90
       50
102
RTVSPost2010PropOp48
 70
     0
102
RTVSPost2010Prop49
280
     0
102
RTVSPost2010PropOp49
 70
     0
102
RTVSPost2010Prop50
 90
       50
102
RTVSPost2010PropOp50
 70
     0
102
RTVSPost2010Prop51ColorIndex
 90
      256
102
RTVSPost2010Prop51ColorRGB
 90
-16777216
102
RTVSPost2010PropOp51
 70
     0
102
RTVSPost2010Prop52
140
1.0
102
RTVSPost2010PropOp52
 70
     0
102
RTVSPost2010Prop53
 90
        2
102
RTVSPost2010PropOp53
 70
     0
102
RTVSPost2010Prop54
  1
strokes_ogs.tif
102
RTVSPost2010PropOp54
 70
     0
102
RTVSPost2010Prop55
280
     0
102
RTVSPost2010PropOp55
 70
     0
102
RTVSPost2010Prop56
140
1.0
102
RTVSPost2010PropOp56
 70
     0
102
RTVSPost2010Prop57
140
1.0
102
RTVSPost2010PropOp57
 70
     0
  0
XRECORD
  5
118
102
{ACAD_REACTORS
330
117
102
}
330
117
100
AcDbXrecord
280
     1
102
RTVSPost2010Prop28
280
     0
102
RTVSPost2010PropOp28
 70
     1
102
RTVSPost2010Prop29
280
     1
102
RTVSPost2010PropOp29
 70
     1
102
RTVSPost2010Prop30
280
     1
102
RTVSPost2010PropOp30
 70
     1
102
RTVSPost2010Prop31
280
     0
102
RTVSPost2010PropOp31
 70
     1
102
RTVSPost2010Prop32
280
     0
102
RTVSPost2010PropOp32
 70
     1
102
RTVSPost2010Prop33
280
     0
102
RTVSPost2010PropOp33
 70
     1
102
RTVSPost2010Prop34
280
     0
102
RTVSPost2010PropOp34
 70
     1
102
RTVSPost2010Prop35
280
     0
102
RTVSPost2010PropOp35
 70
     1
102
RTVSPost2010Prop36
280
     0
102
RTVSPost2010PropOp36
 70
     1
102
RTVSPost2010Prop37
 90
       50
102
RTVSPost2010PropOp37
 70
     1
102
RTVSPost2010Prop38
140
0.0
102
RTVSPost2010PropOp38
 70
     1
102
RTVSPost2010Prop39
140
1.0
102
RTVSPost2010PropOp39
 70
     1
102
RTVSPost2010Prop40
 90
        0
102
RTVSPost2010PropOp40
 70
     1
102
RTVSPost2010Prop41ColorIndex
 90
       18
102
RTVSPost2010Prop41ColorRGB
 90
        0
102
RTVSPost2010PropOp41
 70
     1
102
RTVSPost2010Prop42
 90
       50
102
RTVSPost2010PropOp42
 70
     1
102
RTVSPost2010Prop43
 90
        3
102
RTVSPost2010PropOp43
 70
     1
102
RTVSPost2010Prop44ColorIndex
 90
        5
102
RTVSPost2010Prop44ColorRGB
 90
      255
102
RTVSPost2010PropOp44
 70
     1
102
RTVSPost2010Prop45
280
     0
102
RTVSPost2010PropOp45
 70
     1
102
RTVSPost2010Prop46
 90
       50
102
RTVSPost2010PropOp46
 70
     1
102
RTVSPost2010Prop47
 90
       50
102
RTVSPost2010PropOp47
 70
     1
102
RTVSPost2010Prop48
 90
       50
102
RTVSPost2010PropOp48
 70
     1
102
RTVSPost2010Prop49
280
     0
102
RTVSPost2010PropOp49
 70
     1
102
RTVSPost2010Prop50
 90
       50
102
RTVSPost2010PropOp50
 70
     1
102
RTVSPost2010Prop51ColorIndex
 90
      256
102
RTVSPost2010Prop51ColorRGB
 90
-16777216
102
RTVSPost2010PropOp51
 70
     0
102
RTVSPost2010Prop52
140
1.0
102
RTVSPost2010PropOp52
 70
     0
102
RTVSPost2010Prop53
 90
        2
102
RTVSPost2010PropOp53
 70
     1
102
RTVSPost2010Prop54
  1
strokes_ogs.tif
102
RTVSPost2010PropOp54
 70
     1
102
RTVSPost2010Prop55
280
     0
102
RTVSPost2010PropOp55
 70
     1
102
RTVSPost2010Prop56
140
1.0
102
RTVSPost2010PropOp56
 70
     1
102
RTVSPost2010Prop57
140
1.0
102
RTVSPost2010PropOp57
 70
     1
  0
XRECORD
  5
12A
102
{ACAD_REACTORS
330
129
102
}
330
129
100
AcDbXrecord
280
     1
102
RTVSPost2010Prop28
280
     0
102
RTVSPost2010PropOp28
 70
     0
102
RTVSPost2010Prop29
280
     1
102
RTVSPost2010PropOp29
 70
     0
102
RTVSPost2010Prop30
280
     1
102
RTVSPost2010PropOp30
 70
     0
102
RTVSPost2010Prop31
280
     0
102
RTVSPost2010PropOp31
 70
     0
102
RTVSPost2010Prop32
280
     0
102
RTVSPost2010PropOp32
 70
     0
102
RTVSPost2010Prop33
280
     0
102
RTVSPost2010PropOp33
 70
     0
102
RTVSPost2010Prop34
280
     0
102
RTVSPost2010PropOp34
 70
     0
102
RTVSPost2010Prop35
280
     0
102
RTVSPost2010PropOp35
 70
     0
102
RTVSPost2010Prop36
280
     0
102
RTVSPost2010PropOp36
 70
     0
102
RTVSPost2010Prop37
 90
       50
102
RTVSPost2010PropOp37
 70
     0
102
RTVSPost2010Prop38
140
0.0
102
RTVSPost2010PropOp38
 70
     0
102
RTVSPost2010Prop39
140
1.0
102
RTVSPost2010PropOp39
 70
     0
102
RTVSPost2010Prop40
 90
        0
102
RTVSPost2010PropOp40
 70
     0
102
RTVSPost2010Prop41ColorIndex
 90
       18
102
RTVSPost2010Prop41ColorRGB
 90
        0
102
RTVSPost2010PropOp41
 70
     0
102
RTVSPost2010Prop42
 90
       50
102
RTVSPost2010PropOp42
 70
     0
102
RTVSPost2010Prop43
 90
        3
102
RTVSPost2010PropOp43
 70
     0
102
RTVSPost2010Prop44ColorIndex
 90
        5
102
RTVSPost2010Prop44ColorRGB
 90
      255
102
RTVSPost2010PropOp44
 70
     0
102
RTVSPost2010Prop45
280
     0
102
RTVSPost2010PropOp45
 70
     0
102
RTVSPost2010Prop46
 90
       50
102
RTVSPost2010PropOp46
 70
     0
102
RTVSPost2010Prop47
 90
       50
102
RTVSPost2010PropOp47
 70
     0
102
RTVSPost2010Prop48
 90
       50
102
RTVSPost2010PropOp48
 70
     0
102
RTVSPost2010Prop49
280
     0
102
RTVSPost2010PropOp49
 70
     0
102
RTVSPost2010Prop50
 90
       50
102
RTVSPost2010PropOp50
 70
     0
102
RTVSPost2010Prop51ColorIndex
 90
      256
102
RTVSPost2010Prop51ColorRGB
 90
-16777216
102
RTVSPost2010PropOp51
 70
     0
102
RTVSPost2010Prop52
140
1.0
102
RTVSPost2010PropOp52
 70
     0
102
RTVSPost2010Prop53
 90
        2
102
RTVSPost2010PropOp53
 70
     0
102
RTVSPost2010Prop54
  1
strokes_ogs.tif
102
RTVSPost2010PropOp54
 70
     0
102
RTVSPost2010Prop55
280
     0
102
RTVSPost2010PropOp55
 70
     0
102
RTVSPost2010Prop56
140
1.0
102
RTVSPost2010PropOp56
 70
     0
102
RTVSPost2010Prop57
140
1.0
102
RTVSPost2010PropOp57
 70
     0
  0
XRECORD
  5
110
102
{ACAD_REACTORS
330
10F
102
}
330
10F
100
AcDbXrecord
280
     1
102
RTVSPost2010Prop28
280
     0
102
RTVSPost2010PropOp28
 70
     1
102
RTVSPost2010Prop29
280
     1
102
RTVSPost2010PropOp29
 70
     1
102
RTVSPost2010Prop30
280
     1
102
RTVSPost2010PropOp30
 70
     1
102
RTVSPost2010Prop31
280
     0
102
RTVSPost2010PropOp31
 70
     1
102
RTVSPost2010Prop32
280
     0
102
RTVSPost2010PropOp32
 70
     1
102
RTVSPost2010Prop33
280
     0
102
RTVSPost2010PropOp33
 70
     1
102
RTVSPost2010Prop34
280
     0
102
RTVSPost2010PropOp34
 70
     1
102
RTVSPost2010Prop35
280
     0
102
RTVSPost2010PropOp35
 70
     1
102
RTVSPost2010Prop36
280
     0
102
RTVSPost2010PropOp36
 70
     1
102
RTVSPost2010Prop37
 90
       50
102
RTVSPost2010PropOp37
 70
     1
102
RTVSPost2010Prop38
140
0.0
102
RTVSPost2010PropOp38
 70
     1
102
RTVSPost2010Prop39
140
1.0
102
RTVSPost2010PropOp39
 70
     1
102
RTVSPost2010Prop40
 90
        0
102
RTVSPost2010PropOp40
 70
     1
102
RTVSPost2010Prop41ColorIndex
 90
       18
102
RTVSPost2010Prop41ColorRGB
 90
        0
102
RTVSPost2010PropOp41
 70
     1
102
RTVSPost2010Prop42
 90
       50
102
RTVSPost2010PropOp42
 70
     1
102
RTVSPost2010Prop43
 90
        3
102
RTVSPost2010PropOp43
 70
     1
102
RTVSPost2010Prop44ColorIndex
 90
        5
102
RTVSPost2010Prop44ColorRGB
 90
      255
102
RTVSPost2010PropOp44
 70
     1
102
RTVSPost2010Prop45
280
     0
102
RTVSPost2010PropOp45
 70
     1
102
RTVSPost2010Prop46
 90
       50
102
RTVSPost2010PropOp46
 70
     1
102
RTVSPost2010Prop47
 90
       50
102
RTVSPost2010PropOp47
 70
     1
102
RTVSPost2010Prop48
 90
       50
102
RTVSPost2010PropOp48
 70
     1
102
RTVSPost2010Prop49
280
     0
102
RTVSPost2010PropOp49
 70
     1
102
RTVSPost2010Prop50
 90
       50
102
RTVSPost2010PropOp50
 70
     1
102
RTVSPost2010Prop51ColorIndex
 90
      256
102
RTVSPost2010Prop51ColorRGB
 90
-16777216
102
RTVSPost2010PropOp51
 70
     0
102
RTVSPost2010Prop52
140
1.0
102
RTVSPost2010PropOp52
 70
     0
102
RTVSPost2010Prop53
 90
        2
102
RTVSPost2010PropOp53
 70
     1
102
RTVSPost2010Prop54
  1
strokes_ogs.tif
102
RTVSPost2010PropOp54
 70
     1
102
RTVSPost2010Prop55
280
     0
102
RTVSPost2010PropOp55
 70
     1
102
RTVSPost2010Prop56
140
1.0
102
RTVSPost2010PropOp56
 70
     1
102
RTVSPost2010Prop57
140
1.0
102
RTVSPost2010PropOp57
 70
     1
  0
XRECORD
  5
126
102
{ACAD_REACTORS
330
125
102
}
330
125
100
AcDbXrecord
280
     1
102
RTVSPost2010Prop28
280
     0
102
RTVSPost2010PropOp28
 70
     1
102
RTVSPost2010Prop29
280
     1
102
RTVSPost2010PropOp29
 70
     1
102
RTVSPost2010Prop30
280
     1
102
RTVSPost2010PropOp30
 70
     1
102
RTVSPost2010Prop31
280
     0
102
RTVSPost2010PropOp31
 70
     1
102
RTVSPost2010Prop32
280
     0
102
RTVSPost2010PropOp32
 70
     1
102
RTVSPost2010Prop33
280
     0
102
RTVSPost2010PropOp33
 70
     1
102
RTVSPost2010Prop34
280
     0
102
RTVSPost2010PropOp34
 70
     1
102
RTVSPost2010Prop35
280
     0
102
RTVSPost2010PropOp35
 70
     1
102
RTVSPost2010Prop36
280
     0
102
RTVSPost2010PropOp36
 70
     1
102
RTVSPost2010Prop37
 90
       50
102
RTVSPost2010PropOp37
 70
     1
102
RTVSPost2010Prop38
140
0.0
102
RTVSPost2010PropOp38
 70
     1
102
RTVSPost2010Prop39
140
1.0
102
RTVSPost2010PropOp39
 70
     1
102
RTVSPost2010Prop40
 90
        0
102
RTVSPost2010PropOp40
 70
     1
102
RTVSPost2010Prop41ColorIndex
 90
       18
102
RTVSPost2010Prop41ColorRGB
 90
        0
102
RTVSPost2010PropOp41
 70
     1
102
RTVSPost2010Prop42
 90
       50
102
RTVSPost2010PropOp42
 70
     1
102
RTVSPost2010Prop43
 90
        3
102
RTVSPost2010PropOp43
 70
     1
102
RTVSPost2010Prop44ColorIndex
 90
        5
102
RTVSPost2010Prop44ColorRGB
 90
      255
102
RTVSPost2010PropOp44
 70
     1
102
RTVSPost2010Prop45
280
     0
102
RTVSPost2010PropOp45
 70
     1
102
RTVSPost2010Prop46
 90
       50
102
RTVSPost2010PropOp46
 70
     1
102
RTVSPost2010Prop47
 90
       50
102
RTVSPost2010PropOp47
 70
     1
102
RTVSPost2010Prop48
 90
       50
102
RTVSPost2010PropOp48
 70
     1
102
RTVSPost2010Prop49
280
     0
102
RTVSPost2010PropOp49
 70
     1
102
RTVSPost2010Prop50
 90
       50
102
RTVSPost2010PropOp50
 70
     1
102
RTVSPost2010Prop51ColorIndex
 90
      256
102
RTVSPost2010Prop51ColorRGB
 90
-16777216
102
RTVSPost2010PropOp51
 70
     0
102
RTVSPost2010Prop52
140
1.0
102
RTVSPost2010PropOp52
 70
     0
102
RTVSPost2010Prop53
 90
        2
102
RTVSPost2010PropOp53
 70
     1
102
RTVSPost2010Prop54
  1
strokes_ogs.tif
102
RTVSPost2010PropOp54
 70
     1
102
RTVSPost2010Prop55
280
     0
102
RTVSPost2010PropOp55
 70
     1
102
RTVSPost2010Prop56
140
1.0
102
RTVSPost2010PropOp56
 70
     1
102
RTVSPost2010Prop57
140
1.0
102
RTVSPost2010PropOp57
 70
     1
  0
XRECORD
  5
124
102
{ACAD_REACTORS
330
123
102
}
330
123
100
AcDbXrecord
280
     1
102
RTVSPost2010Prop28
280
     0
102
RTVSPost2010PropOp28
 70
     1
102
RTVSPost2010Prop29
280
     1
102
RTVSPost2010PropOp29
 70
     1
102
RTVSPost2010Prop30
280
     1
102
RTVSPost2010PropOp30
 70
     1
102
RTVSPost2010Prop31
280
     0
102
RTVSPost2010PropOp31
 70
     1
102
RTVSPost2010Prop32
280
     0
102
RTVSPost2010PropOp32
 70
     1
102
RTVSPost2010Prop33
280
     0
102
RTVSPost2010PropOp33
 70
     1
102
RTVSPost2010Prop34
280
     0
102
RTVSPost2010PropOp34
 70
     1
102
RTVSPost2010Prop35
280
     0
102
RTVSPost2010PropOp35
 70
     1
102
RTVSPost2010Prop36
280
     0
102
RTVSPost2010PropOp36
 70
     1
102
RTVSPost2010Prop37
 90
       50
102
RTVSPost2010PropOp37
 70
     1
102
RTVSPost2010Prop38
140
0.0
102
RTVSPost2010PropOp38
 70
     1
102
RTVSPost2010Prop39
140
1.0
102
RTVSPost2010PropOp39
 70
     1
102
RTVSPost2010Prop40
 90
        0
102
RTVSPost2010PropOp40
 70
     1
102
RTVSPost2010Prop41ColorIndex
 90
       18
102
RTVSPost2010Prop41ColorRGB
 90
        0
102
RTVSPost2010PropOp41
 70
     1
102
RTVSPost2010Prop42
 90
       50
102
RTVSPost2010PropOp42
 70
     1
102
RTVSPost2010Prop43
 90
        3
102
RTVSPost2010PropOp43
 70
     1
102
RTVSPost2010Prop44ColorIndex
 90
        5
102
RTVSPost2010Prop44ColorRGB
 90
      255
102
RTVSPost2010PropOp44
 70
     1
102
RTVSPost2010Prop45
280
     0
102
RTVSPost2010PropOp45
 70
     1
102
RTVSPost2010Prop46
 90
       50
102
RTVSPost2010PropOp46
 70
     1
102
RTVSPost2010Prop47
 90
       50
102
RTVSPost2010PropOp47
 70
     1
102
RTVSPost2010Prop48
 90
       50
102
RTVSPost2010PropOp48
 70
     1
102
RTVSPost2010Prop49
280
     0
102
RTVSPost2010PropOp49
 70
     1
102
RTVSPost2010Prop50
 90
       50
102
RTVSPost2010PropOp50
 70
     1
102
RTVSPost2010Prop51ColorIndex
 90
      256
102
RTVSPost2010Prop51ColorRGB
 90
-16777216
102
RTVSPost2010PropOp51
 70
     0
102
RTVSPost2010Prop52
140
1.0
102
RTVSPost2010PropOp52
 70
     0
102
RTVSPost2010Prop53
 90
        2
102
RTVSPost2010PropOp53
 70
     1
102
RTVSPost2010Prop54
  1
strokes_ogs.tif
102
RTVSPost2010PropOp54
 70
     1
102
RTVSPost2010Prop55
280
     0
102
RTVSPost2010PropOp55
 70
     1
102
RTVSPost2010Prop56
140
1.0
102
RTVSPost2010PropOp56
 70
     1
102
RTVSPost2010Prop57
140
1.0
102
RTVSPost2010PropOp57
 70
     1
  0
XRECORD
  5
11E
102
{ACAD_REACTORS
330
11D
102
}
330
11D
100
AcDbXrecord
280
     1
102
RTVSPost2010Prop28
280
     0
102
RTVSPost2010PropOp28
 70
     1
102
RTVSPost2010Prop29
280
     1
102
RTVSPost2010PropOp29
 70
     1
102
RTVSPost2010Prop30
280
     1
102
RTVSPost2010PropOp30
 70
     1
102
RTVSPost2010Prop31
280
     0
102
RTVSPost2010PropOp31
 70
     1
102
RTVSPost2010Prop32
280
     0
102
RTVSPost2010PropOp32
 70
     1
102
RTVSPost2010Prop33
280
     0
102
RTVSPost2010PropOp33
 70
     1
102
RTVSPost2010Prop34
280
     0
102
RTVSPost2010PropOp34
 70
     1
102
RTVSPost2010Prop35
280
     0
102
RTVSPost2010PropOp35
 70
     1
102
RTVSPost2010Prop36
280
     0
102
RTVSPost2010PropOp36
 70
     1
102
RTVSPost2010Prop37
 90
       50
102
RTVSPost2010PropOp37
 70
     1
102
RTVSPost2010Prop38
140
0.0
102
RTVSPost2010PropOp38
 70
     1
102
RTVSPost2010Prop39
140
1.0
102
RTVSPost2010PropOp39
 70
     1
102
RTVSPost2010Prop40
 90
        0
102
RTVSPost2010PropOp40
 70
     1
102
RTVSPost2010Prop41ColorIndex
 90
       18
102
RTVSPost2010Prop41ColorRGB
 90
        0
102
RTVSPost2010PropOp41
 70
     1
102
RTVSPost2010Prop42
 90
       50
102
RTVSPost2010PropOp42
 70
     1
102
RTVSPost2010Prop43
 90
        3
102
RTVSPost2010PropOp43
 70
     1
102
RTVSPost2010Prop44ColorIndex
 90
        5
102
RTVSPost2010Prop44ColorRGB
 90
      255
102
RTVSPost2010PropOp44
 70
     1
102
RTVSPost2010Prop45
280
     0
102
RTVSPost2010PropOp45
 70
     1
102
RTVSPost2010Prop46
 90
       50
102
RTVSPost2010PropOp46
 70
     1
102
RTVSPost2010Prop47
 90
       50
102
RTVSPost2010PropOp47
 70
     1
102
RTVSPost2010Prop48
 90
       50
102
RTVSPost2010PropOp48
 70
     1
102
RTVSPost2010Prop49
280
     0
102
RTVSPost2010PropOp49
 70
     1
102
RTVSPost2010Prop50
 90
       50
102
RTVSPost2010PropOp50
 70
     1
102
RTVSPost2010Prop51ColorIndex
 90
      256
102
RTVSPost2010Prop51ColorRGB
 90
-16777216
102
RTVSPost2010PropOp51
 70
     0
102
RTVSPost2010Prop52
140
1.0
102
RTVSPost2010PropOp52
 70
     0
102
RTVSPost2010Prop53
 90
        2
102
RTVSPost2010PropOp53
 70
     1
102
RTVSPost2010Prop54
  1
strokes_ogs.tif
102
RTVSPost2010PropOp54
 70
     1
102
RTVSPost2010Prop55
280
     0
102
RTVSPost2010PropOp55
 70
     1
102
RTVSPost2010Prop56
140
1.0
102
RTVSPost2010PropOp56
 70
     1
102
RTVSPost2010Prop57
140
1.0
102
RTVSPost2010PropOp57
 70
     1
  0
XRECORD
  5
120
102
{ACAD_REACTORS
330
11F
102
}
330
11F
100
AcDbXrecord
280
     1
102
RTVSPost2010Prop28
280
     0
102
RTVSPost2010PropOp28
 70
     1
102
RTVSPost2010Prop29
280
     1
102
RTVSPost2010PropOp29
 70
     1
102
RTVSPost2010Prop30
280
     1
102
RTVSPost2010PropOp30
 70
     1
102
RTVSPost2010Prop31
280
     0
102
RTVSPost2010PropOp31
 70
     1
102
RTVSPost2010Prop32
280
     0
102
RTVSPost2010PropOp32
 70
     1
102
RTVSPost2010Prop33
280
     0
102
RTVSPost2010PropOp33
 70
     1
102
RTVSPost2010Prop34
280
     0
102
RTVSPost2010PropOp34
 70
     1
102
RTVSPost2010Prop35
280
     0
102
RTVSPost2010PropOp35
 70
     1
102
RTVSPost2010Prop36
280
     0
102
RTVSPost2010PropOp36
 70
     1
102
RTVSPost2010Prop37
 90
       50
102
RTVSPost2010PropOp37
 70
     1
102
RTVSPost2010Prop38
140
0.0
102
RTVSPost2010PropOp38
 70
     1
102
RTVSPost2010Prop39
140
1.0
102
RTVSPost2010PropOp39
 70
     1
102
RTVSPost2010Prop40
 90
        0
102
RTVSPost2010PropOp40
 70
     1
102
RTVSPost2010Prop41ColorIndex
 90
       18
102
RTVSPost2010Prop41ColorRGB
 90
        0
102
RTVSPost2010PropOp41
 70
     1
102
RTVSPost2010Prop42
 90
       50
102
RTVSPost2010PropOp42
 70
     1
102
RTVSPost2010Prop43
 90
        3
102
RTVSPost2010PropOp43
 70
     1
102
RTVSPost2010Prop44ColorIndex
 90
        5
102
RTVSPost2010Prop44ColorRGB
 90
      255
102
RTVSPost2010PropOp44
 70
     1
102
RTVSPost2010Prop45
280
     0
102
RTVSPost2010PropOp45
 70
     1
102
RTVSPost2010Prop46
 90
       50
102
RTVSPost2010PropOp46
 70
     1
102
RTVSPost2010Prop47
 90
       50
102
RTVSPost2010PropOp47
 70
     1
102
RTVSPost2010Prop48
 90
       50
102
RTVSPost2010PropOp48
 70
     1
102
RTVSPost2010Prop49
280
     0
102
RTVSPost2010PropOp49
 70
     1
102
RTVSPost2010Prop50
 90
       50
102
RTVSPost2010PropOp50
 70
     1
102
RTVSPost2010Prop51ColorIndex
 90
      256
102
RTVSPost2010Prop51ColorRGB
 90
-16777216
102
RTVSPost2010PropOp51
 70
     0
102
RTVSPost2010Prop52
140
1.0
102
RTVSPost2010PropOp52
 70
     0
102
RTVSPost2010Prop53
 90
        2
102
RTVSPost2010PropOp53
 70
     1
102
RTVSPost2010Prop54
  1
strokes_ogs.tif
102
RTVSPost2010PropOp54
 70
     1
102
RTVSPost2010Prop55
280
     0
102
RTVSPost2010PropOp55
 70
     1
102
RTVSPost2010Prop56
140
1.0
102
RTVSPost2010PropOp56
 70
     1
102
RTVSPost2010Prop57
140
1.0
102
RTVSPost2010PropOp57
 70
     1
  0
XRECORD
  5
116
102
{ACAD_REACTORS
330
115
102
}
330
115
100
AcDbXrecord
280
     1
102
RTVSPost2010Prop28
280
     0
102
RTVSPost2010PropOp28
 70
     1
102
RTVSPost2010Prop29
280
     1
102
RTVSPost2010PropOp29
 70
     1
102
RTVSPost2010Prop30
280
     1
102
RTVSPost2010PropOp30
 70
     1
102
RTVSPost2010Prop31
280
     0
102
RTVSPost2010PropOp31
 70
     1
102
RTVSPost2010Prop32
280
     0
102
RTVSPost2010PropOp32
 70
     1
102
RTVSPost2010Prop33
280
     0
102
RTVSPost2010PropOp33
 70
     1
102
RTVSPost2010Prop34
280
     0
102
RTVSPost2010PropOp34
 70
     1
102
RTVSPost2010Prop35
280
     0
102
RTVSPost2010PropOp35
 70
     1
102
RTVSPost2010Prop36
280
     0
102
RTVSPost2010PropOp36
 70
     1
102
RTVSPost2010Prop37
 90
       50
102
RTVSPost2010PropOp37
 70
     1
102
RTVSPost2010Prop38
140
0.0
102
RTVSPost2010PropOp38
 70
     1
102
RTVSPost2010Prop39
140
1.0
102
RTVSPost2010PropOp39
 70
     1
102
RTVSPost2010Prop40
 90
        0
102
RTVSPost2010PropOp40
 70
     1
102
RTVSPost2010Prop41ColorIndex
 90
       18
102
RTVSPost2010Prop41ColorRGB
 90
        0
102
RTVSPost2010PropOp41
 70
     1
102
RTVSPost2010Prop42
 90
       50
102
RTVSPost2010PropOp42
 70
     1
102
RTVSPost2010Prop43
 90
        3
102
RTVSPost2010PropOp43
 70
     1
102
RTVSPost2010Prop44ColorIndex
 90
        5
102
RTVSPost2010Prop44ColorRGB
 90
      255
102
RTVSPost2010PropOp44
 70
     1
102
RTVSPost2010Prop45
280
     0
102
RTVSPost2010PropOp45
 70
     1
102
RTVSPost2010Prop46
 90
       50
102
RTVSPost2010PropOp46
 70
     1
102
RTVSPost2010Prop47
 90
       50
102
RTVSPost2010PropOp47
 70
     1
102
RTVSPost2010Prop48
 90
       50
102
RTVSPost2010PropOp48
 70
     1
102
RTVSPost2010Prop49
280
     0
102
RTVSPost2010PropOp49
 70
     1
102
RTVSPost2010Prop50
 90
       50
102
RTVSPost2010PropOp50
 70
     1
102
RTVSPost2010Prop51ColorIndex
 90
      256
102
RTVSPost2010Prop51ColorRGB
 90
-16777216
102
RTVSPost2010PropOp51
 70
     0
102
RTVSPost2010Prop52
140
1.0
102
RTVSPost2010PropOp52
 70
     0
102
RTVSPost2010Prop53
 90
        2
102
RTVSPost2010PropOp53
 70
     1
102
RTVSPost2010Prop54
  1
strokes_ogs.tif
102
RTVSPost2010PropOp54
 70
     1
102
RTVSPost2010Prop55
280
     0
102
RTVSPost2010PropOp55
 70
     1
102
RTVSPost2010Prop56
140
1.0
102
RTVSPost2010PropOp56
 70
     1
102
RTVSPost2010Prop57
140
1.0
102
RTVSPost2010PropOp57
 70
     1
  0
XRECORD
  5
10A
102
{ACAD_REACTORS
330
109
102
}
330
109
100
AcDbXrecord
280
     1
102
RTVSPost2010Prop28
280
     0
102
RTVSPost2010PropOp28
 70
     1
102
RTVSPost2010Prop29
280
     1
102
RTVSPost2010PropOp29
 70
     1
102
RTVSPost2010Prop30
280
     1
102
RTVSPost2010PropOp30
 70
     1
102
RTVSPost2010Prop31
280
     0
102
RTVSPost2010PropOp31
 70
     1
102
RTVSPost2010Prop32
280
     0
102
RTVSPost2010PropOp32
 70
     1
102
RTVSPost2010Prop33
280
     0
102
RTVSPost2010PropOp33
 70
     1
102
RTVSPost2010Prop34
280
     0
102
RTVSPost2010PropOp34
 70
     1
102
RTVSPost2010Prop35
280
     0
102
RTVSPost2010PropOp35
 70
     1
102
RTVSPost2010Prop36
280
     0
102
RTVSPost2010PropOp36
 70
     1
102
RTVSPost2010Prop37
 90
       50
102
RTVSPost2010PropOp37
 70
     1
102
RTVSPost2010Prop38
140
0.0
102
RTVSPost2010PropOp38
 70
     1
102
RTVSPost2010Prop39
140
1.0
102
RTVSPost2010PropOp39
 70
     1
102
RTVSPost2010Prop40
 90
        0
102
RTVSPost2010PropOp40
 70
     1
102
RTVSPost2010Prop41ColorIndex
 90
       18
102
RTVSPost2010Prop41ColorRGB
 90
        0
102
RTVSPost2010PropOp41
 70
     1
102
RTVSPost2010Prop42
 90
       50
102
RTVSPost2010PropOp42
 70
     1
102
RTVSPost2010Prop43
 90
        3
102
RTVSPost2010PropOp43
 70
     1
102
RTVSPost2010Prop44ColorIndex
 90
        5
102
RTVSPost2010Prop44ColorRGB
 90
      255
102
RTVSPost2010PropOp44
 70
     1
102
RTVSPost2010Prop45
280
     0
102
RTVSPost2010PropOp45
 70
     1
102
RTVSPost2010Prop46
 90
       50
102
RTVSPost2010PropOp46
 70
     1
102
RTVSPost2010Prop47
 90
       50
102
RTVSPost2010PropOp47
 70
     1
102
RTVSPost2010Prop48
 90
       50
102
RTVSPost2010PropOp48
 70
     1
102
RTVSPost2010Prop49
280
     0
102
RTVSPost2010PropOp49
 70
     1
102
RTVSPost2010Prop50
 90
       50
102
RTVSPost2010PropOp50
 70
     1
102
RTVSPost2010Prop51ColorIndex
 90
      256
102
RTVSPost2010Prop51ColorRGB
 90
-16777216
102
RTVSPost2010PropOp51
 70
     0
102
RTVSPost2010Prop52
140
1.0
102
RTVSPost2010PropOp52
 70
     0
102
RTVSPost2010Prop53
 90
        2
102
RTVSPost2010PropOp53
 70
     1
102
RTVSPost2010Prop54
  1
strokes_ogs.tif
102
RTVSPost2010PropOp54
 70
     1
102
RTVSPost2010Prop55
280
     0
102
RTVSPost2010PropOp55
 70
     1
102
RTVSPost2010Prop56
140
1.0
102
RTVSPost2010PropOp56
 70
     1
102
RTVSPost2010Prop57
140
1.0
102
RTVSPost2010PropOp57
 70
     1
  0
XRECORD
  5
122
102
{ACAD_REACTORS
330
121
102
}
330
121
100
AcDbXrecord
280
     1
102
RTVSPost2010Prop28
280
     0
102
RTVSPost2010PropOp28
 70
     1
102
RTVSPost2010Prop29
280
     1
102
RTVSPost2010PropOp29
 70
     1
102
RTVSPost2010Prop30
280
     1
102
RTVSPost2010PropOp30
 70
     1
102
RTVSPost2010Prop31
280
     0
102
RTVSPost2010PropOp31
 70
     1
102
RTVSPost2010Prop32
280
     0
102
RTVSPost2010PropOp32
 70
     1
102
RTVSPost2010Prop33
280
     0
102
RTVSPost2010PropOp33
 70
     1
102
RTVSPost2010Prop34
280
     0
102
RTVSPost2010PropOp34
 70
     1
102
RTVSPost2010Prop35
280
     0
102
RTVSPost2010PropOp35
 70
     1
102
RTVSPost2010Prop36
280
     0
102
RTVSPost2010PropOp36
 70
     1
102
RTVSPost2010Prop37
 90
       50
102
RTVSPost2010PropOp37
 70
     1
102
RTVSPost2010Prop38
140
0.0
102
RTVSPost2010PropOp38
 70
     1
102
RTVSPost2010Prop39
140
1.0
102
RTVSPost2010PropOp39
 70
     1
102
RTVSPost2010Prop40
 90
        0
102
RTVSPost2010PropOp40
 70
     1
102
RTVSPost2010Prop41ColorIndex
 90
       18
102
RTVSPost2010Prop41ColorRGB
 90
        0
102
RTVSPost2010PropOp41
 70
     1
102
RTVSPost2010Prop42
 90
       50
102
RTVSPost2010PropOp42
 70
     1
102
RTVSPost2010Prop43
 90
        3
102
RTVSPost2010PropOp43
 70
     1
102
RTVSPost2010Prop44ColorIndex
 90
        5
102
RTVSPost2010Prop44ColorRGB
 90
      255
102
RTVSPost2010PropOp44
 70
     1
102
RTVSPost2010Prop45
280
     0
102
RTVSPost2010PropOp45
 70
     1
102
RTVSPost2010Prop46
 90
       50
102
RTVSPost2010PropOp46
 70
     1
102
RTVSPost2010Prop47
 90
       50
102
RTVSPost2010PropOp47
 70
     1
102
RTVSPost2010Prop48
 90
       50
102
RTVSPost2010PropOp48
 70
     1
102
RTVSPost2010Prop49
280
     0
102
RTVSPost2010PropOp49
 70
     1
102
RTVSPost2010Prop50
 90
       50
102
RTVSPost2010PropOp50
 70
     1
102
RTVSPost2010Prop51ColorIndex
 90
      256
102
RTVSPost2010Prop51ColorRGB
 90
-16777216
102
RTVSPost2010PropOp51
 70
     0
102
RTVSPost2010Prop52
140
1.0
102
RTVSPost2010PropOp52
 70
     0
102
RTVSPost2010Prop53
 90
        2
102
RTVSPost2010PropOp53
 70
     1
102
RTVSPost2010Prop54
  1
strokes_ogs.tif
102
RTVSPost2010PropOp54
 70
     1
102
RTVSPost2010Prop55
280
     0
102
RTVSPost2010PropOp55
 70
     1
102
RTVSPost2010Prop56
140
1.0
102
RTVSPost2010PropOp56
 70
     1
102
RTVSPost2010Prop57
140
1.0
102
RTVSPost2010PropOp57
 70
     1
  0
ENDSEC
  0
EOF
