  0
SECTION
  2
HEADER
  9
$ACADVER
  1
AC1024
  9
$ACADMAINTVER
 70
     6
  9
$DWGCODEPAGE
  3
UNDEFINED
  9
$INSBASE
 10
0.0
 20
0.0
 30
0.0
  9
$EXTMIN
 10
1.000000000000000E+20
 20
1.000000000000000E+20
 30
1.000000000000000E+20
  9
$EXTMAX
 10
-1.000000000000000E+20
 20
-1.000000000000000E+20
 30
-1.000000000000000E+20
  9
$LIMMIN
 10
0.0
 20
0.0
  9
$LIMMAX
 10
12.0
 20
9.0
  9
$ORTHOMODE
 70
     0
  9
$REGENMODE
 70
     1
  9
$FILLMODE
 70
     1
  9
$QTEXTMODE
 70
     0
  9
$MIRRTEXT
 70
     1
  9
$LTSCALE
 40
1.0
  9
$ATTMODE
 70
     1
  9
$TEXTSIZE
 40
0.2
  9
$TRACEWID
 40
0.05
  9
$TEXTSTYLE
  7
Standard
  9
$CLAYER
  8
0
  9
$CELTYPE
  6
ByLayer
  9
$CECOLOR
 62
   256
  9
$CELTSCALE
 40
1.0
  9
$DISPSILH
 70
     0
  9
$DIMSCALE
 40
1.0
  9
$DIMASZ
 40
0.18
  9
$DIMEXO
 40
0.0625
  9
$DIMDLI
 40
0.38
  9
$DIMRND
 40
0.0
  9
$DIMDLE
 40
0.0
  9
$DIMEXE
 40
0.18
  9
$DIMTP
 40
0.0
  9
$DIMTM
 40
0.0
  9
$DIMTXT
 40
0.18
  9
$DIMCEN
 40
0.09
  9
$DIMTSZ
 40
0.0
  9
$DIMTOL
 70
     0
  9
$DIMLIM
 70
     0
  9
$DIMTIH
 70
     1
  9
$DIMTOH
 70
     1
  9
$DIMSE1
 70
     0
  9
$DIMSE2
 70
     0
  9
$DIMTAD
 70
     0
  9
$DIMZIN
 70
     0
  9
$DIMBLK
  1

  9
$DIMASO
 70
     1
  9
$DIMSHO
 70
     1
  9
$DIMPOST
  1

  9
$DIMAPOST
  1

  9
$DIMALT
 70
     0
  9
$DIMALTD
 70
     2
  9
$DIMALTF
 40
25.4
  9
$DIMLFAC
 40
1.0
  9
$DIMTOFL
 70
     0
  9
$DIMTVP
 40
0.0
  9
$DIMTIX
 70
     0
  9
$DIMSOXD
 70
     0
  9
$DIMSAH
 70
     0
  9
$DIMBLK1
  1

  9
$DIMBLK2
  1

  9
$DIMSTYLE
  2
Standard
  9
$DIMCLRD
 70
     0
  9
$DIMCLRE
 70
     0
  9
$DIMCLRT
 70
     0
  9
$DIMTFAC
 40
1.0
  9
$DIMGAP
 40
0.09
  9
$DIMJUST
 70
     0
  9
$DIMSD1
 70
     0
  9
$DIMSD2
 70
     0
  9
$DIMTOLJ
 70
     1
  9
$DIMTZIN
 70
     0
  9
$DIMALTZ
 70
     0
  9
$DIMALTTZ
 70
     0
  9
$DIMUPT
 70
     0
  9
$DIMDEC
 70
     4
  9
$DIMTDEC
 70
     4
  9
$DIMALTU
 70
     2
  9
$DIMALTTD
 70
     2
  9
$DIMTXSTY
  7
Standard
  9
$DIMAUNIT
 70
     0
  9
$DIMADEC
 70
     0
  9
$DIMALTRND
 40
0.0
  9
$DIMAZIN
 70
     0
  9
$DIMDSEP
 70
    46
  9
$DIMATFIT
 70
     3
  9
$DIMFRAC
 70
     0
  9
$DIMLDRBLK
  1

  9
$DIMLUNIT
 70
     2
  9
$DIMLWD
 70
    -2
  9
$DIMLWE
 70
    -2
  9
$DIMTMOVE
 70
     0
  9
$DIMFXL
 40
1.0
  9
$DIMFXLON
 70
     0
  9
$DIMJOGANG
 40
0.7853981633974483
  9
$DIMTFILL
 70
     0
  9
$DIMTFILLCLR
 70
     0
  9
$DIMARCSYM
 70
     0
  9
$DIMLTYPE
  6

  9
$DIMLTEX1
  6

  9
$DIMLTEX2
  6

  9
$DIMTXTDIRECTION
 70
     0
  9
$LUNITS
 70
     2
  9
$LUPREC
 70
     4
  9
$SKETCHINC
 40
0.1
  9
$FILLETRAD
 40
0.5
  9
$AUNITS
 70
     0
  9
$AUPREC
 70
     0
  9
$MENU
  1
.
  9
$ELEVATION
 40
0.0
  9
$PELEVATION
 40
0.0
  9
$THICKNESS
 40
0.0
  9
$LIMCHECK
 70
     0
  9
$CHAMFERA
 40
0.5
  9
$CHAMFERB
 40
0.5
  9
$CHAMFERC
 40
1.0
  9
$CHAMFERD
 40
0.0
  9
$SKPOLY
 70
     0
  9
$TDCREATE
 40
2457917.583657396
  9
$TDUCREATE
 40
2457917.208657407
  9
$TDUPDATE
 40
2457917.583657396
  9
$TDUUPDATE
 40
2457917.208657407
  9
$TDINDWG
 40
0.0000000116
  9
$TDUSRTIMER
 40
0.0000000116
  9
$USRTIMER
 70
     1
  9
$ANGBASE
 50
0.0
  9
$ANGDIR
 70
     0
  9
$PDMODE
 70
     0
  9
$PDSIZE
 40
0.0
  9
$PLINEWID
 40
0.0
  9
$SPLFRAME
 70
     0
  9
$SPLINETYPE
 70
     6
  9
$SPLINESEGS
 70
     8
  9
$HANDSEED
  5
123
  9
$SURFTAB1
 70
     6
  9
$SURFTAB2
 70
     6
  9
$SURFTYPE
 70
     6
  9
$SURFU
 70
     6
  9
$SURFV
 70
     6
  9
$UCSBASE
  2

  9
$UCSNAME
  2

  9
$UCSORG
 10
0.0
 20
0.0
 30
0.0
  9
$UCSXDIR
 10
1.0
 20
0.0
 30
0.0
  9
$UCSYDIR
 10
0.0
 20
1.0
 30
0.0
  9
$UCSORTHOREF
  2

  9
$UCSORTHOVIEW
 70
     0
  9
$UCSORGTOP
 10
0.0
 20
0.0
 30
0.0
  9
$UCSORGBOTTOM
 10
0.0
 20
0.0
 30
0.0
  9
$UCSORGLEFT
 10
0.0
 20
0.0
 30
0.0
  9
$UCSORGRIGHT
 10
0.0
 20
0.0
 30
0.0
  9
$UCSORGFRONT
 10
0.0
 20
0.0
 30
0.0
  9
$UCSORGBACK
 10
0.0
 20
0.0
 30
0.0
  9
$PUCSBASE
  2

  9
$PUCSNAME
  2

  9
$PUCSORG
 10
0.0
 20
0.0
 30
0.0
  9
$PUCSXDIR
 10
1.0
 20
0.0
 30
0.0
  9
$PUCSYDIR
 10
0.0
 20
1.0
 30
0.0
  9
$PUCSORTHOREF
  2

  9
$PUCSORTHOVIEW
 70
     0
  9
$PUCSORGTOP
 10
0.0
 20
0.0
 30
0.0
  9
$PUCSORGBOTTOM
 10
0.0
 20
0.0
 30
0.0
  9
$PUCSORGLEFT
 10
0.0
 20
0.0
 30
0.0
  9
$PUCSORGRIGHT
 10
0.0
 20
0.0
 30
0.0
  9
$PUCSORGFRONT
 10
0.0
 20
0.0
 30
0.0
  9
$PUCSORGBACK
 10
0.0
 20
0.0
 30
0.0
  9
$USERI1
 70
     0
  9
$USERI2
 70
     0
  9
$USERI3
 70
     0
  9
$USERI4
 70
     0
  9
$USERI5
 70
     0
  9
$USERR1
 40
0.0
  9
$USERR2
 40
0.0
  9
$USERR3
 40
0.0
  9
$USERR4
 40
0.0
  9
$USERR5
 40
0.0
  9
$WORLDVIEW
 70
     1
  9
$SHADEDGE
 70
     3
  9
$SHADEDIF
 70
    70
  9
$TILEMODE
 70
     1
  9
$MAXACTVP
 70
    64
  9
$PINSBASE
 10
0.0
 20
0.0
 30
0.0
  9
$PLIMCHECK
 70
     0
  9
$PEXTMIN
 10
1.000000000000000E+20
 20
1.000000000000000E+20
 30
1.000000000000000E+20
  9
$PEXTMAX
 10
-1.000000000000000E+20
 20
-1.000000000000000E+20
 30
-1.000000000000000E+20
  9
$PLIMMIN
 10
0.0
 20
0.0
  9
$PLIMMAX
 10
12.0
 20
9.0
  9
$UNITMODE
 70
     0
  9
$VISRETAIN
 70
     1
  9
$PLINEGEN
 70
     0
  9
$PSLTSCALE
 70
     1
  9
$TREEDEPTH
 70
  3020
  9
$CMLSTYLE
  2
Standard
  9
$CMLJUST
 70
     0
  9
$CMLSCALE
 40
1.0
  9
$PROXYGRAPHICS
 70
     1
  9
$MEASUREMENT
 70
     0
  9
$CELWEIGHT
370
    -1
  9
$ENDCAPS
280
     0
  9
$JOINSTYLE
280
     0
  9
$LWDISPLAY
290
     1
  9
$INSUNITS
 70
     1
  9
$HYPERLINKBASE
  1

  9
$STYLESHEET
  1

  9
$XEDIT
290
     1
  9
$CEPSNTYPE
380
     0
  9
$PSTYLEMODE
290
     1
  9
$FINGERPRINTGUID
  2
{A5E0F93A-220A-9845-D8EB-24D72121FCD0}
  9
$VERSIONGUID
  2
{FAEB1C32-E019-11D5-929B-00C0DF256EC4}
  9
$EXTNAMES
290
     1
  9
$PSVPSCALE
 40
0.0
  9
$OLESTARTUP
290
     0
  9
$SORTENTS
280
   127
  9
$INDEXCTL
280
     0
  9
$HIDETEXT
280
     1
  9
$XCLIPFRAME
280
     2
  9
$HALOGAP
280
     0
  9
$OBSCOLOR
 70
   257
  9
$OBSLTYPE
280
     0
  9
$INTERSECTIONDISPLAY
280
     0
  9
$INTERSECTIONCOLOR
 70
   257
  9
$DIMASSOC
280
     2
  9
$PROJECTNAME
  1

  9
$CAMERADISPLAY
290
     0
  9
$LENSLENGTH
 40
50.0
  9
$CAMERAHEIGHT
 40
0.0
  9
$STEPSPERSEC
 40
2.0
  9
$STEPSIZE
 40
6.0
  9
$3DDWFPREC
 40
2.0
  9
$PSOLWIDTH
 40
0.25
  9
$PSOLHEIGHT
 40
4.0
  9
$LOFTANG1
 40
1.570796326794897
  9
$LOFTANG2
 40
1.570796326794897
  9
$LOFTMAG1
 40
0.0
  9
$LOFTMAG2
 40
0.0
  9
$LOFTPARAM
 70
     7
  9
$LOFTNORMALS
280
     1
  9
$LATITUDE
 40
37.795
  9
$LONGITUDE
 40
-122.394
  9
$NORTHDIRECTION
 40
0.0
  9
$TIMEZONE
 70
 -8000
  9
$LIGHTGLYPHDISPLAY
280
     1
  9
$TILEMODELIGHTSYNCH
280
     1
  9
$CMATERIAL
347
3C
  9
$SOLIDHIST
280
     1
  9
$SHOWHIST
280
     1
  9
$DWFFRAME
280
     2
  9
$DGNFRAME
280
     2
  9
$REALWORLDSCALE
290
     1
  9
$INTERFERECOLOR
 62
   256
  9
$CSHADOW
280
     0
  9
$SHADOWPLANELOCATION
 40
0.0
  0
ENDSEC
  0
SECTION
  2
CLASSES
  0
CLASS
  1
ACDBDICTIONARYWDFLT
  2
AcDbDictionaryWithDefault
  3
ObjectDBX Classes
 90
        0
 91
        4
280
     0
281
     0
  0
CLASS
  1
VISUALSTYLE
  2
AcDbVisualStyle
  3
ObjectDBX Classes
 90
     4095
 91
        4
280
     0
281
     0
  0
CLASS
  1
MATERIAL
  2
AcDbMaterial
  3
ObjectDBX Classes
 90
     1153
 91
        4
280
     0
281
     0
  0
CLASS
  1
SUN
  2
AcDbSun
  3
SCENEOE
 90
     1024
 91
        4
280
     0
281
     0
  0
ENDSEC
  0
SECTION
  2
TABLES
  0
TABLE
  2
VPORT
  5
8
330
0
100
AcDbSymbolTable
 70
     1
  0
VPORT
  5
29
330
8
100
AcDbSymbolTableRecord
100
AcDbViewportTableRecord
  2
*Active
 70
     0
 10
0.0
 20
0.0
 11
1.0
 21
1.0
 12
0.0
 22
0.0
 13
0.0
 23
0.0
 14
0.5
 24
0.5
 15
0.5
 25
0.5
 16
0.0
 26
0.0
 36
1.0
 17
91.00082462281999
 27
-128.4993055234307
 37
0.0
 40
256.9986110468615
 41
0.7081814508812795
 42
50.0
 43
0.0
 44
0.0
 50
0.0
 51
0.0
 71
     0
 72
   100
 73
     1
 74
     3
 75
     0
 76
     0
 77
     0
 78
     0
281
     0
 65
     1
110
0.0
120
0.0
130
0.0
111
1.0
121
0.0
131
0.0
112
0.0
122
1.0
132
0.0
 79
     0
146
0.0
 60
     3
 61
     5
292
     1
282
     1
141
0.0
142
0.0
 63
   250
361
3F
  0
ENDTAB
  0
TABLE
  2
LTYPE
  5
5
330
0
100
AcDbSymbolTable
 70
     1
  0
LTYPE
  5
14
330
5
100
AcDbSymbolTableRecord
100
AcDbLinetypeTableRecord
  2
ByBlock
 70
     0
  3

 72
    65
 73
     0
 40
0.0
  0
LTYPE
  5
15
330
5
100
AcDbSymbolTableRecord
100
AcDbLinetypeTableRecord
  2
ByLayer
 70
     0
  3

 72
    65
 73
     0
 40
0.0
  0
LTYPE
  5
16
330
5
100
AcDbSymbolTableRecord
100
AcDbLinetypeTableRecord
  2
Continuous
 70
     0
  3
Solid line
 72
    65
 73
     0
 40
0.0
  0
ENDTAB
  0
TABLE
  2
LAYER
  5
2
330
0
100
AcDbSymbolTable
 70
     2
  0
LAYER
  5
10
330
2
100
AcDbSymbolTableRecord
100
AcDbLayerTableRecord
  2
0
 70
     0
 62
     7
  6
Continuous
370
    -3
390
F
347
3E
  0
LAYER
  5
40
330
2
100
AcDbSymbolTableRecord
100
AcDbLayerTableRecord
  2
_U+30EC_U+30A4_U+30E4_U+30FC 1
 70
     0
 62
     7
  6
Continuous
370
    -3
390
F
347
3E
  0
ENDTAB
  0
TABLE
  2
STYLE
  5
3
330
0
100
AcDbSymbolTable
 70
     1
  0
STYLE
  5
11
330
3
100
AcDbSymbolTableRecord
100
AcDbTextStyleTableRecord
  2
Standard
 70
     0
 40
0.0
 41
1.0
 50
0.0
 71
     0
 42
0.2
  3
txt
  4

  0
ENDTAB
  0
TABLE
  2
VIEW
  5
6
330
0
100
AcDbSymbolTable
 70
     0
  0
ENDTAB
  0
TABLE
  2
UCS
  5
7
330
0
100
AcDbSymbolTable
 70
     0
  0
ENDTAB
  0
TABLE
  2
APPID
  5
9
330
0
100
AcDbSymbolTable
 70
     1
  0
APPID
  5
12
330
9
100
AcDbSymbolTableRecord
100
AcDbRegAppTableRecord
  2
ACAD
 70
     0
  0
ENDTAB
  0
TABLE
  2
DIMSTYLE
  5
A
330
0
100
AcDbSymbolTable
 70
     1
100
AcDbDimStyleTable
  0
DIMSTYLE
105
27
330
A
100
AcDbSymbolTableRecord
100
AcDbDimStyleTableRecord
  2
Standard
 70
     0
178
     0
340
11
  0
ENDTAB
  0
TABLE
  2
BLOCK_RECORD
  5
1
330
0
100
AcDbSymbolTable
 70
     5
  0
BLOCK_RECORD
  5
1F
330
1
100
AcDbSymbolTableRecord
100
AcDbBlockTableRecord
  2
*Model_Space
340
22
 70
     0
280
     1
281
     0
  0
BLOCK_RECORD
  5
1B
330
1
100
AcDbSymbolTableRecord
100
AcDbBlockTableRecord
  2
*Paper_Space
340
1E
 70
     0
280
     1
281
     0
  0
BLOCK_RECORD
  5
23
330
1
100
AcDbSymbolTableRecord
100
AcDbBlockTableRecord
  2
*Paper_Space0
340
26
 70
     0
280
     1
281
     0
  0
BLOCK_RECORD
  5
41
330
1
100
AcDbSymbolTableRecord
100
AcDbBlockTableRecord
  2
block 2
340
0
102
{BLKREFS
331
42
102
}
 70
     0
280
     1
281
     0
  0
BLOCK_RECORD
  5
77
330
1
100
AcDbSymbolTableRecord
100
AcDbBlockTableRecord
  2
block 3
340
0
102
{BLKREFS
331
78
102
}
 70
     0
280
     1
281
     0
  0
BLOCK_RECORD
  5
DD
330
1
100
AcDbSymbolTableRecord
100
AcDbBlockTableRecord
  2
block 4
340
0
102
{BLKREFS
331
DE
102
}
 70
     0
280
     1
281
     0
  0
BLOCK_RECORD
  5
105
330
1
100
AcDbSymbolTableRecord
100
AcDbBlockTableRecord
  2
block 5
340
0
102
{BLKREFS
331
106
102
}
 70
     0
280
     1
281
     0
  0
ENDTAB
  0
ENDSEC
  0
SECTION
  2
BLOCKS
  0
BLOCK
  5
20
330
1F
100
AcDbEntity
  8
0
100
AcDbBlockBegin
  2
*Model_Space
 70
     0
 10
0.0
 20
0.0
 30
0.0
  3
*Model_Space
  1

  0
ENDBLK
  5
21
330
1F
100
AcDbEntity
  8
0
100
AcDbBlockEnd
  0
BLOCK
  5
1C
330
1B
100
AcDbEntity
 67
     1
  8
0
100
AcDbBlockBegin
  2
*Paper_Space
 70
     0
 10
0.0
 20
0.0
 30
0.0
  3
*Paper_Space
  1

  0
ENDBLK
  5
1D
330
1B
100
AcDbEntity
 67
     1
  8
0
100
AcDbBlockEnd
  0
BLOCK
  5
24
330
23
100
AcDbEntity
  8
0
100
AcDbBlockBegin
  2
*Paper_Space0
 70
     0
 10
0.0
 20
0.0
 30
0.0
  3
*Paper_Space0
  1

  0
ENDBLK
  5
25
330
23
100
AcDbEntity
  8
0
100
AcDbBlockEnd
  0
BLOCK
  5
43
330
41
100
AcDbEntity
  8
0
100
AcDbBlockBegin
  2
block 2
 70
     0
 10
0.0
 20
0.0
 30
0.0
  3
block 2
  1

  0
POLYLINE
  5
45
330
41
100
AcDbEntity
  8
_U+30EC_U+30A4_U+30E4_U+30FC 1
 62
   179
420
  2234388
370
     9
100
AcDb2dPolyline
 66
     1
 10
0.0
 20
0.0
 30
0.0
  0
VERTEX
  5
46
330
45
100
AcDbEntity
  8
_U+30EC_U+30A4_U+30E4_U+30FC 1
 62
   179
420
  2234388
370
     9
100
AcDbVertex
100
AcDb2dVertex
 10
91.1014015646985
 20
-120.8468852475661
 30
0.0
  0
VERTEX
  5
47
330
45
100
AcDbEntity
  8
_U+30EC_U+30A4_U+30E4_U+30FC 1
 62
   179
420
  2234388
370
     9
100
AcDbVertex
100
AcDb2dVertex
 10
91.1014015646985
 20
-125.4481658019712
 30
0.0
  0
SEQEND
  5
48
330
45
100
AcDbEntity
  8
_U+30EC_U+30A4_U+30E4_U+30FC 1
 62
   179
420
  2234388
370
     9
  0
POLYLINE
  5
49
330
41
100
AcDbEntity
  8
_U+30EC_U+30A4_U+30E4_U+30FC 1
 62
   179
420
  2234388
370
     9
100
AcDb2dPolyline
 66
     1
 10
0.0
 20
0.0
 30
0.0
  0
VERTEX
  5
4A
330
49
100
AcDbEntity
  8
_U+30EC_U+30A4_U+30E4_U+30FC 1
 62
   179
420
  2234388
370
     9
100
AcDbVertex
100
AcDb2dVertex
 10
90.84302712684574
 20
-124.4821544133239
 30
0.0
  0
VERTEX
  5
4B
330
49
100
AcDbEntity
  8
_U+30EC_U+30A4_U+30E4_U+30FC 1
 62
   179
420
  2234388
370
     9
100
AcDbVertex
100
AcDb2dVertex
 10
91.1014015646985
 20
-125.4481658019712
 30
0.0
  0
SEQEND
  5
4C
330
49
100
AcDbEntity
  8
_U+30EC_U+30A4_U+30E4_U+30FC 1
 62
   179
420
  2234388
370
     9
  0
POLYLINE
  5
4D
330
41
100
AcDbEntity
  8
_U+30EC_U+30A4_U+30E4_U+30FC 1
 62
   179
420
  2234388
370
     9
100
AcDb2dPolyline
 66
     1
 10
0.0
 20
0.0
 30
0.0
  0
VERTEX
  5
4E
330
4D
100
AcDbEntity
  8
_U+30EC_U+30A4_U+30E4_U+30FC 1
 62
   179
420
  2234388
370
     9
100
AcDbVertex
100
AcDb2dVertex
 10
91.36048155808882
 20
-124.4821544133239
 30
0.0
  0
VERTEX
  5
4F
330
4D
100
AcDbEntity
  8
_U+30EC_U+30A4_U+30E4_U+30FC 1
 62
   179
420
  2234388
370
     9
100
AcDbVertex
100
AcDb2dVertex
 10
91.1014015646985
 20
-125.4481658019712
 30
0.0
  0
SEQEND
  5
50
330
4D
100
AcDbEntity
  8
_U+30EC_U+30A4_U+30E4_U+30FC 1
 62
   179
420
  2234388
370
     9
  0
POLYLINE
  5
51
330
41
100
AcDbEntity
  8
_U+30EC_U+30A4_U+30E4_U+30FC 1
 62
   179
420
  2234388
370
    25
100
AcDb2dPolyline
 66
     1
 10
0.0
 20
0.0
 30
0.0
  0
VERTEX
  5
52
330
51
100
AcDbEntity
  8
_U+30EC_U+30A4_U+30E4_U+30FC 1
 62
   179
420
  2234388
370
    25
100
AcDbVertex
100
AcDb2dVertex
 10
92.49462680693215
 20
-127.2630310792954
 30
0.0
  0
VERTEX
  5
53
330
51
100
AcDbEntity
  8
_U+30EC_U+30A4_U+30E4_U+30FC 1
 62
   179
420
  2234388
370
    25
100
AcDbVertex
100
AcDb2dVertex
 10
129.6017360787107
 20
-139.2597332985185
 30
0.0
  0
SEQEND
  5
54
330
51
100
AcDbEntity
  8
_U+30EC_U+30A4_U+30E4_U+30FC 1
 62
   179
420
  2234388
370
    25
  0
POLYLINE
  5
55
330
41
100
AcDbEntity
  8
_U+30EC_U+30A4_U+30E4_U+30FC 1
 62
   179
420
  2234388
370
    25
100
AcDb2dPolyline
 66
     1
 10
0.0
 20
0.0
 30
0.0
  0
VERTEX
  5
56
330
55
100
AcDbEntity
  8
_U+30EC_U+30A4_U+30E4_U+30FC 1
 62
   179
420
  2234388
370
    25
100
AcDbVertex
100
AcDb2dVertex
 10
129.6017360787107
 20
-139.2597332985185
 30
0.0
  0
VERTEX
  5
57
330
55
100
AcDbEntity
  8
_U+30EC_U+30A4_U+30E4_U+30FC 1
 62
   179
420
  2234388
370
    25
100
AcDbVertex
100
AcDb2dVertex
 10
129.4776961411932
 20
-139.6400630206453
 30
0.0
  0
SEQEND
  5
58
330
55
100
AcDbEntity
  8
_U+30EC_U+30A4_U+30E4_U+30FC 1
 62
   179
420
  2234388
370
    25
  0
POLYLINE
  5
59
330
41
100
AcDbEntity
  8
_U+30EC_U+30A4_U+30E4_U+30FC 1
 62
   179
420
  2234388
370
    25
100
AcDb2dPolyline
 66
     1
 10
0.0
 20
0.0
 30
0.0
  0
VERTEX
  5
5A
330
59
100
AcDbEntity
  8
_U+30EC_U+30A4_U+30E4_U+30FC 1
 62
   179
420
  2234388
370
    25
100
AcDbVertex
100
AcDb2dVertex
 10
91.95096098746889
 20
-128.4584891345519
 30
0.0
  0
VERTEX
  5
5B
330
59
100
AcDbEntity
  8
_U+30EC_U+30A4_U+30E4_U+30FC 1
 62
   179
420
  2234388
370
    25
100
AcDbVertex
100
AcDb2dVertex
 10
129.4776961411932
 20
-139.6400630206453
 30
0.0
  0
SEQEND
  5
5C
330
59
100
AcDbEntity
  8
_U+30EC_U+30A4_U+30E4_U+30FC 1
 62
   179
420
  2234388
370
    25
  0
POLYLINE
  5
5D
330
41
100
AcDbEntity
  8
_U+30EC_U+30A4_U+30E4_U+30FC 1
 62
   179
420
  2234388
370
    25
100
AcDb2dPolyline
 66
     1
 10
0.0
 20
0.0
 30
0.0
  0
VERTEX
  5
5E
330
5D
100
AcDbEntity
  8
_U+30EC_U+30A4_U+30E4_U+30FC 1
 62
   179
420
  2234388
370
    25
100
AcDbVertex
100
AcDb2dVertex
 10
89.71650187780801
 20
-127.2602794126293
 30
0.0
  0
VERTEX
  5
5F
330
5D
100
AcDbEntity
  8
_U+30EC_U+30A4_U+30E4_U+30FC 1
 62
   179
420
  2234388
370
    25
100
AcDbVertex
100
AcDb2dVertex
 10
52.60177588023912
 20
-139.2597332985185
 30
0.0
  0
SEQEND
  5
60
330
5D
100
AcDbEntity
  8
_U+30EC_U+30A4_U+30E4_U+30FC 1
 62
   179
420
  2234388
370
    25
  0
POLYLINE
  5
61
330
41
100
AcDbEntity
  8
_U+30EC_U+30A4_U+30E4_U+30FC 1
 62
   179
420
  2234388
370
    25
100
AcDb2dPolyline
 66
     1
 10
0.0
 20
0.0
 30
0.0
  0
VERTEX
  5
62
330
61
100
AcDbEntity
  8
_U+30EC_U+30A4_U+30E4_U+30FC 1
 62
   179
420
  2234388
370
    25
100
AcDbVertex
100
AcDb2dVertex
 10
52.60177588023912
 20
-139.2597332985185
 30
0.0
  0
VERTEX
  5
63
330
61
100
AcDbEntity
  8
_U+30EC_U+30A4_U+30E4_U+30FC 1
 62
   179
420
  2234388
370
    25
100
AcDbVertex
100
AcDb2dVertex
 10
52.72546109792962
 20
-139.6400630206453
 30
0.0
  0
SEQEND
  5
64
330
61
100
AcDbEntity
  8
_U+30EC_U+30A4_U+30E4_U+30FC 1
 62
   179
420
  2234388
370
    25
  0
POLYLINE
  5
65
330
41
100
AcDbEntity
  8
_U+30EC_U+30A4_U+30E4_U+30FC 1
 62
   179
420
  2234388
370
    25
100
AcDb2dPolyline
 66
     1
 10
0.0
 20
0.0
 30
0.0
  0
VERTEX
  5
66
330
65
100
AcDbEntity
  8
_U+30EC_U+30A4_U+30E4_U+30FC 1
 62
   179
420
  2234388
370
    25
100
AcDbVertex
100
AcDb2dVertex
 10
90.2518444218816
 20
-128.4584891345519
 30
0.0
  0
VERTEX
  5
67
330
65
100
AcDbEntity
  8
_U+30EC_U+30A4_U+30E4_U+30FC 1
 62
   179
420
  2234388
370
    25
100
AcDbVertex
100
AcDb2dVertex
 10
52.72546109792962
 20
-139.6400630206453
 30
0.0
  0
SEQEND
  5
68
330
65
100
AcDbEntity
  8
_U+30EC_U+30A4_U+30E4_U+30FC 1
 62
   179
420
  2234388
370
    25
  0
POLYLINE
  5
69
330
41
100
AcDbEntity
  8
_U+30EC_U+30A4_U+30E4_U+30FC 1
 62
   179
420
  2234388
370
    25
100
AcDb2dPolyline
 66
     1
 10
0.0
 20
0.0
 30
0.0
  0
VERTEX
  5
6A
330
69
100
AcDbEntity
  8
_U+30EC_U+30A4_U+30E4_U+30FC 1
 62
   179
420
  2234388
370
    25
100
AcDbVertex
100
AcDb2dVertex
 10
94.36907620355541
 20
-127.9871780235589
 30
0.0
  0
VERTEX
  5
6B
330
69
100
AcDbEntity
  8
_U+30EC_U+30A4_U+30E4_U+30FC 1
 62
   179
420
  2234388
370
    25
100
AcDbVertex
100
AcDb2dVertex
 10
94.03146787883517
 20
-129.0146785788575
 30
0.0
  0
SEQEND
  5
6C
330
69
100
AcDbEntity
  8
_U+30EC_U+30A4_U+30E4_U+30FC 1
 62
   179
420
  2234388
370
    25
  0
POLYLINE
  5
6D
330
41
100
AcDbEntity
  8
_U+30EC_U+30A4_U+30E4_U+30FC 1
 62
   179
420
  2234388
370
    25
100
AcDb2dPolyline
 66
     1
 10
0.0
 20
0.0
 30
0.0
  0
VERTEX
  5
6E
330
6D
100
AcDbEntity
  8
_U+30EC_U+30A4_U+30E4_U+30FC 1
 62
   179
420
  2234388
370
    25
100
AcDbVertex
100
AcDb2dVertex
 10
87.82476637051465
 20
-127.914153023577
 30
0.0
  0
VERTEX
  5
6F
330
6D
100
AcDbEntity
  8
_U+30EC_U+30A4_U+30E4_U+30FC 1
 62
   179
420
  2234388
370
    25
100
AcDbVertex
100
AcDb2dVertex
 10
88.16240997301176
 20
-128.9850805233094
 30
0.0
  0
SEQEND
  5
70
330
6D
100
AcDbEntity
  8
_U+30EC_U+30A4_U+30E4_U+30FC 1
 62
   179
420
  2234388
370
    25
  0
SPLINE
  5
71
330
41
100
AcDbEntity
  8
_U+30EC_U+30A4_U+30E4_U+30FC 1
 62
   179
420
  2234388
370
    25
100
AcDbSpline
210
0.0
220
0.0
230
1.0
 70
     8
 71
     3
 72
     8
 73
     4
 74
     0
 42
0.0000000001
 43
0.0000000001
 12
1.0
 22
0.0
 32
0.0
 13
1.0
 23
0.0
 33
0.0
 40
0.0
 40
0.0
 40
0.0
 40
0.0
 40
1.0
 40
1.0
 40
1.0
 40
1.0
 10
91.95096098746889
 20
-128.4584891345519
 30
0.0
 10
91.39632377939664
 20
-128.2944827457041
 30
0.0
 10
90.80651462777725
 20
-128.2944827457041
 30
0.0
 10
90.2518444218816
 20
-128.4584891345519
 30
0.0
  0
SPLINE
  5
72
330
41
100
AcDbEntity
  8
_U+30EC_U+30A4_U+30E4_U+30FC 1
 62
   179
420
  2234388
370
    25
100
AcDbSpline
210
0.0
220
0.0
230
1.0
 70
     8
 71
     3
 72
     8
 73
     4
 74
     0
 42
0.0000000001
 43
0.0000000001
 12
1.0
 22
0.0
 32
0.0
 13
1.0
 23
0.0
 33
0.0
 40
0.0
 40
0.0
 40
0.0
 40
0.0
 40
1.0
 40
1.0
 40
1.0
 40
1.0
 10
92.48633886576705
 20
-127.2602794126293
 30
0.0
 10
91.5864709967678
 20
-126.9674385793692
 30
0.0
 10
90.61633213262921
 20
-126.9674385793692
 30
0.0
 10
89.71650187780801
 20
-127.2602794126293
 30
0.0
  0
SPLINE
  5
73
330
41
100
AcDbEntity
  8
_U+30EC_U+30A4_U+30E4_U+30FC 1
 62
   179
420
  2234388
370
     9
100
AcDbSpline
210
0.0
220
0.0
230
1.0
 70
    11
 71
     3
 72
    17
 73
    13
 74
     0
 42
0.0000000001
 43
0.0000000001
 12
1.0
 22
0.0
 32
0.0
 13
1.0
 23
0.0
 33
0.0
 40
0.0
 40
0.0
 40
0.0
 40
0.0
 40
1.0
 40
1.0
 40
1.0
 40
2.0
 40
2.0
 40
2.0
 40
3.0
 40
3.0
 40
3.0
 40
4.0
 40
4.0
 40
4.0
 40
4.0
 10
130.9394694117094
 20
-135.4563302439136
 30
0.0
 10
130.9394694117094
 20
-135.4012263550387
 30
0.0
 10
130.8946666339433
 20
-135.356423577272
 30
0.0
 10
130.838853884245
 20
-135.356423577272
 30
0.0
 10
130.7837499967619
 20
-135.356423577272
 30
0.0
 10
130.7392999978959
 20
-135.4012263550387
 30
0.0
 10
130.7392999978959
 20
-135.4563302439136
 30
0.0
 10
130.7392999978959
 20
-135.5114694105667
 30
0.0
 10
130.7837499967619
 20
-135.5562369105553
 30
0.0
 10
130.838853884245
 20
-135.5562369105553
 30
0.0
 10
130.8946666339433
 20
-135.5562369105553
 30
0.0
 10
130.9394694117094
 20
-135.5114694105667
 30
0.0
 10
130.9394694117094
 20
-135.4563302439136
 30
0.0
  0
SPLINE
  5
74
330
41
100
AcDbEntity
  8
_U+30EC_U+30A4_U+30E4_U+30FC 1
 62
   179
420
  2234388
370
     9
100
AcDbSpline
210
0.0
220
0.0
230
1.0
 70
    11
 71
     3
 72
    17
 73
    13
 74
     0
 42
0.0000000001
 43
0.0000000001
 12
1.0
 22
0.0
 32
0.0
 13
1.0
 23
0.0
 33
0.0
 40
0.0
 40
0.0
 40
0.0
 40
0.0
 40
1.0
 40
1.0
 40
1.0
 40
2.0
 40
2.0
 40
2.0
 40
3.0
 40
3.0
 40
3.0
 40
4.0
 40
4.0
 40
4.0
 40
4.0
 10
89.49943771667913
 20
-123.0751708025645
 30
0.0
 10
89.49943771667913
 20
-123.0200669136896
 30
0.0
 10
89.45467021782123
 20
-122.9752641359229
 30
0.0
 10
89.39886077480061
 20
-122.9752641359229
 30
0.0
 10
89.34372160954065
 20
-122.9752641359229
 30
0.0
 10
89.29895411068277
 20
-123.0200669136896
 30
0.0
 10
89.29895411068277
 20
-123.0751708025645
 30
0.0
 10
89.29895411068277
 20
-123.1303099692176
 30
0.0
 10
89.34372160954065
 20
-123.1750774692061
 30
0.0
 10
89.39886077480061
 20
-123.1750774692061
 30
0.0
 10
89.45467021782123
 20
-123.1750774692061
 30
0.0
 10
89.49943771667913
 20
-123.1303099692176
 30
0.0
 10
89.49943771667913
 20
-123.0751708025645
 30
0.0
  0
SPLINE
  5
75
330
41
100
AcDbEntity
  8
_U+30EC_U+30A4_U+30E4_U+30FC 1
 62
   179
420
  2234388
370
     9
100
AcDbSpline
210
0.0
220
0.0
230
1.0
 70
    11
 71
     3
 72
    17
 73
    13
 74
     0
 42
0.0000000001
 43
0.0000000001
 12
1.0
 22
0.0
 32
0.0
 13
1.0
 23
0.0
 33
0.0
 40
0.0
 40
0.0
 40
0.0
 40
0.0
 40
1.0
 40
1.0
 40
1.0
 40
2.0
 40
2.0
 40
2.0
 40
3.0
 40
3.0
 40
3.0
 40
4.0
 40
4.0
 40
4.0
 40
4.0
 10
92.90388429649111
 20
-123.0751708025645
 30
0.0
 10
92.90388429649111
 20
-123.0200669136896
 30
0.0
 10
92.85911679763323
 20
-122.9752641359229
 30
0.0
 10
92.80397763237328
 20
-122.9752641359229
 30
0.0
 10
92.7488737448902
 20
-122.9752641359229
 30
0.0
 10
92.70407096825545
 20
-123.0200669136896
 30
0.0
 10
92.70407096825545
 20
-123.0751708025645
 30
0.0
 10
92.70407096825545
 20
-123.1303099692176
 30
0.0
 10
92.7488737448902
 20
-123.1750774692061
 30
0.0
 10
92.80397763237328
 20
-123.1750774692061
 30
0.0
 10
92.85911679763323
 20
-123.1750774692061
 30
0.0
 10
92.90388429649111
 20
-123.1303099692176
 30
0.0
 10
92.90388429649111
 20
-123.0751708025645
 30
0.0
  0
SPLINE
  5
76
330
41
100
AcDbEntity
  8
_U+30EC_U+30A4_U+30E4_U+30FC 1
 62
   179
420
  2234388
370
     9
100
AcDbSpline
210
0.0
220
0.0
230
1.0
 70
    11
 71
     3
 72
    17
 73
    13
 74
     0
 42
0.0000000001
 43
0.0000000001
 12
1.0
 22
0.0
 32
0.0
 13
1.0
 23
0.0
 33
0.0
 40
0.0
 40
0.0
 40
0.0
 40
0.0
 40
1.0
 40
1.0
 40
1.0
 40
2.0
 40
2.0
 40
2.0
 40
3.0
 40
3.0
 40
3.0
 40
4.0
 40
4.0
 40
4.0
 40
4.0
 10
51.46353840927797
 20
-135.4563302439136
 30
0.0
 10
51.46353840927797
 20
-135.4012263550387
 30
0.0
 10
51.41873563264321
 20
-135.356423577272
 30
0.0
 10
51.36363174516014
 20
-135.356423577272
 30
0.0
 10
51.30849257990019
 20
-135.356423577272
 30
0.0
 10
51.2637250810423
 20
-135.4012263550387
 30
0.0
 10
51.2637250810423
 20
-135.4563302439136
 30
0.0
 10
51.2637250810423
 20
-135.5114694105667
 30
0.0
 10
51.30849257990019
 20
-135.5562369105553
 30
0.0
 10
51.36363174516014
 20
-135.5562369105553
 30
0.0
 10
51.41873563264321
 20
-135.5562369105553
 30
0.0
 10
51.46353840927797
 20
-135.5114694105667
 30
0.0
 10
51.46353840927797
 20
-135.4563302439136
 30
0.0
  0
INSERT
  5
78
330
41
100
AcDbEntity
  8
_U+30EC_U+30A4_U+30E4_U+30FC 1
100
AcDbBlockReference
  2
block 3
 10
0.0
 20
0.0
 30
0.0
  0
POLYLINE
  5
D1
330
41
100
AcDbEntity
  8
_U+30EC_U+30A4_U+30E4_U+30FC 1
 62
   179
420
  2234388
370
     9
100
AcDb2dPolyline
 66
     1
 10
0.0
 20
0.0
 30
0.0
  0
VERTEX
  5
D2
330
D1
100
AcDbEntity
  8
_U+30EC_U+30A4_U+30E4_U+30FC 1
 62
   179
420
  2234388
370
     9
100
AcDbVertex
100
AcDb2dVertex
 10
92.80397763237328
 20
-123.0751708025645
 30
0.0
  0
VERTEX
  5
D3
330
D1
100
AcDbEntity
  8
_U+30EC_U+30A4_U+30E4_U+30FC 1
 62
   179
420
  2234388
370
     9
100
AcDbVertex
100
AcDb2dVertex
 10
130.838853884245
 20
-135.4563302439136
 30
0.0
  0
SEQEND
  5
D4
330
D1
100
AcDbEntity
  8
_U+30EC_U+30A4_U+30E4_U+30FC 1
 62
   179
420
  2234388
370
     9
  0
POLYLINE
  5
D5
330
41
100
AcDbEntity
  8
_U+30EC_U+30A4_U+30E4_U+30FC 1
 62
   179
420
  2234388
370
     9
100
AcDb2dPolyline
 66
     1
 10
0.0
 20
0.0
 30
0.0
  0
VERTEX
  5
D6
330
D5
100
AcDbEntity
  8
_U+30EC_U+30A4_U+30E4_U+30FC 1
 62
   179
420
  2234388
370
     9
100
AcDbVertex
100
AcDb2dVertex
 10
91.88760210019642
 20
-125.8898083018609
 30
0.0
  0
VERTEX
  5
D7
330
D5
100
AcDbEntity
  8
_U+30EC_U+30A4_U+30E4_U+30FC 1
 62
   179
420
  2234388
370
     9
100
AcDbVertex
100
AcDb2dVertex
 10
93.11336373559129
 20
-122.124328858358
 30
0.0
  0
SEQEND
  5
D8
330
D5
100
AcDbEntity
  8
_U+30EC_U+30A4_U+30E4_U+30FC 1
 62
   179
420
  2234388
370
     9
  0
POLYLINE
  5
D9
330
41
100
AcDbEntity
  8
_U+30EC_U+30A4_U+30E4_U+30FC 1
 62
   179
420
  2234388
370
     9
100
AcDb2dPolyline
 66
     1
 10
0.0
 20
0.0
 30
0.0
  0
VERTEX
  5
DA
330
D9
100
AcDbEntity
  8
_U+30EC_U+30A4_U+30E4_U+30FC 1
 62
   179
420
  2234388
370
     9
100
AcDbVertex
100
AcDb2dVertex
 10
130.3878980624165
 20
-136.844722465789
 30
0.0
  0
VERTEX
  5
DB
330
D9
100
AcDbEntity
  8
_U+30EC_U+30A4_U+30E4_U+30FC 1
 62
   179
420
  2234388
370
     9
100
AcDbVertex
100
AcDb2dVertex
 10
131.1489102652237
 20
-134.5054882997071
 30
0.0
  0
SEQEND
  5
DC
330
D9
100
AcDbEntity
  8
_U+30EC_U+30A4_U+30E4_U+30FC 1
 62
   179
420
  2234388
370
     9
  0
INSERT
  5
DE
330
41
100
AcDbEntity
  8
_U+30EC_U+30A4_U+30E4_U+30FC 1
100
AcDbBlockReference
  2
block 4
 10
0.0
 20
0.0
 30
0.0
  0
POLYLINE
  5
F9
330
41
100
AcDbEntity
  8
_U+30EC_U+30A4_U+30E4_U+30FC 1
 62
   179
420
  2234388
370
     9
100
AcDb2dPolyline
 66
     1
 10
0.0
 20
0.0
 30
0.0
  0
VERTEX
  5
FA
330
F9
100
AcDbEntity
  8
_U+30EC_U+30A4_U+30E4_U+30FC 1
 62
   179
420
  2234388
370
     9
100
AcDbVertex
100
AcDb2dVertex
 10
51.36363174516014
 20
-135.4563302439136
 30
0.0
  0
VERTEX
  5
FB
330
F9
100
AcDbEntity
  8
_U+30EC_U+30A4_U+30E4_U+30FC 1
 62
   179
420
  2234388
370
     9
100
AcDbVertex
100
AcDb2dVertex
 10
89.39886077480061
 20
-123.0751708025645
 30
0.0
  0
SEQEND
  5
FC
330
F9
100
AcDbEntity
  8
_U+30EC_U+30A4_U+30E4_U+30FC 1
 62
   179
420
  2234388
370
     9
  0
POLYLINE
  5
FD
330
41
100
AcDbEntity
  8
_U+30EC_U+30A4_U+30E4_U+30FC 1
 62
   179
420
  2234388
370
     9
100
AcDb2dPolyline
 66
     1
 10
0.0
 20
0.0
 30
0.0
  0
VERTEX
  5
FE
330
FD
100
AcDbEntity
  8
_U+30EC_U+30A4_U+30E4_U+30FC 1
 62
   179
420
  2234388
370
     9
100
AcDbVertex
100
AcDb2dVertex
 10
51.81561062251809
 20
-136.844722465789
 30
0.0
  0
VERTEX
  5
FF
330
FD
100
AcDbEntity
  8
_U+30EC_U+30A4_U+30E4_U+30FC 1
 62
   179
420
  2234388
370
     9
100
AcDbVertex
100
AcDb2dVertex
 10
51.05424564194212
 20
-134.5054882997071
 30
0.0
  0
SEQEND
  5
100
330
FD
100
AcDbEntity
  8
_U+30EC_U+30A4_U+30E4_U+30FC 1
 62
   179
420
  2234388
370
     9
  0
POLYLINE
  5
101
330
41
100
AcDbEntity
  8
_U+30EC_U+30A4_U+30E4_U+30FC 1
 62
   179
420
  2234388
370
     9
100
AcDb2dPolyline
 66
     1
 10
0.0
 20
0.0
 30
0.0
  0
VERTEX
  5
102
330
101
100
AcDbEntity
  8
_U+30EC_U+30A4_U+30E4_U+30FC 1
 62
   179
420
  2234388
370
     9
100
AcDbVertex
100
AcDb2dVertex
 10
90.31523630697747
 20
-125.8898083018609
 30
0.0
  0
VERTEX
  5
103
330
101
100
AcDbEntity
  8
_U+30EC_U+30A4_U+30E4_U+30FC 1
 62
   179
420
  2234388
370
     9
100
AcDbVertex
100
AcDb2dVertex
 10
89.0894746715826
 20
-122.124328858358
 30
0.0
  0
SEQEND
  5
104
330
101
100
AcDbEntity
  8
_U+30EC_U+30A4_U+30E4_U+30FC 1
 62
   179
420
  2234388
370
     9
  0
INSERT
  5
106
330
41
100
AcDbEntity
  8
_U+30EC_U+30A4_U+30E4_U+30FC 1
100
AcDbBlockReference
  2
block 5
 10
0.0
 20
0.0
 30
0.0
  0
ENDBLK
  5
44
330
41
100
AcDbEntity
  8
0
100
AcDbBlockEnd
  0
BLOCK
  5
79
330
77
100
AcDbEntity
  8
0
100
AcDbBlockBegin
  2
block 3
 70
     0
 10
0.0
 20
0.0
 30
0.0
  3
block 3
  1

  0
SPLINE
  5
7B
330
77
100
AcDbEntity
  8
_U+30EC_U+30A4_U+30E4_U+30FC 1
370
     0
100
AcDbSpline
210
0.0
220
0.0
230
1.0
 70
    11
 71
     3
 72
   197
 73
   193
 74
     0
 42
0.0000000001
 43
0.0000000001
 12
1.0
 22
0.0
 32
0.0
 13
1.0
 23
0.0
 33
0.0
 40
0.0
 40
0.0
 40
0.0
 40
0.0
 40
1.0
 40
1.0
 40
1.0
 40
2.0
 40
2.0
 40
2.0
 40
3.0
 40
3.0
 40
3.0
 40
4.0
 40
4.0
 40
4.0
 40
5.0
 40
5.0
 40
5.0
 40
6.0
 40
6.0
 40
6.0
 40
7.0
 40
7.0
 40
7.0
 40
8.0
 40
8.0
 40
8.0
 40
9.0
 40
9.0
 40
9.0
 40
10.0
 40
10.0
 40
10.0
 40
11.0
 40
11.0
 40
11.0
 40
12.0
 40
12.0
 40
12.0
 40
13.0
 40
13.0
 40
13.0
 40
14.0
 40
14.0
 40
14.0
 40
15.0
 40
15.0
 40
15.0
 40
16.0
 40
16.0
 40
16.0
 40
17.0
 40
17.0
 40
17.0
 40
18.0
 40
18.0
 40
18.0
 40
19.0
 40
19.0
 40
19.0
 40
20.0
 40
20.0
 40
20.0
 40
21.0
 40
21.0
 40
21.0
 40
22.0
 40
22.0
 40
22.0
 40
23.0
 40
23.0
 40
23.0
 40
24.0
 40
24.0
 40
24.0
 40
25.0
 40
25.0
 40
25.0
 40
26.0
 40
26.0
 40
26.0
 40
27.0
 40
27.0
 40
27.0
 40
28.0
 40
28.0
 40
28.0
 40
29.0
 40
29.0
 40
29.0
 40
30.0
 40
30.0
 40
30.0
 40
31.0
 40
31.0
 40
31.0
 40
32.0
 40
32.0
 40
32.0
 40
33.0
 40
33.0
 40
33.0
 40
34.0
 40
34.0
 40
34.0
 40
35.0
 40
35.0
 40
35.0
 40
36.0
 40
36.0
 40
36.0
 40
37.0
 40
37.0
 40
37.0
 40
38.0
 40
38.0
 40
38.0
 40
39.0
 40
39.0
 40
39.0
 40
40.0
 40
40.0
 40
40.0
 40
41.0
 40
41.0
 40
41.0
 40
42.0
 40
42.0
 40
42.0
 40
43.0
 40
43.0
 40
43.0
 40
44.0
 40
44.0
 40
44.0
 40
45.0
 40
45.0
 40
45.0
 40
46.0
 40
46.0
 40
46.0
 40
47.0
 40
47.0
 40
47.0
 40
48.0
 40
48.0
 40
48.0
 40
49.0
 40
49.0
 40
49.0
 40
50.0
 40
50.0
 40
50.0
 40
51.0
 40
51.0
 40
51.0
 40
52.0
 40
52.0
 40
52.0
 40
53.0
 40
53.0
 40
53.0
 40
54.0
 40
54.0
 40
54.0
 40
55.0
 40
55.0
 40
55.0
 40
56.0
 40
56.0
 40
56.0
 40
57.0
 40
57.0
 40
57.0
 40
58.0
 40
58.0
 40
58.0
 40
59.0
 40
59.0
 40
59.0
 40
60.0
 40
60.0
 40
60.0
 40
61.0
 40
61.0
 40
61.0
 40
62.0
 40
62.0
 40
62.0
 40
63.0
 40
63.0
 40
63.0
 40
64.0
 40
64.0
 40
64.0
 40
64.0
 10
89.7188991746189
 20
-118.1090697946915
 30
0.0
 10
89.70821937861461
 20
-118.1385253610904
 30
0.0
 10
89.68479272931492
 20
-118.1852064049155
 30
0.0
 10
89.67445744285916
 20
-118.2125949140232
 30
0.0
 10
89.67445744285916
 20
-118.2125949140232
 30
0.0
 10
89.61313474322172
 20
-118.3650403892456
 30
0.0
 10
89.61313474322172
 20
-118.3650403892456
 30
0.0
 10
89.60245494721745
 20
-118.3903618410621
 30
0.0
 10
89.55387910087542
 20
-118.502499699107
 30
0.0
 10
89.54113224758
 20
-118.5257540936325
 30
0.0
 10
89.53906519028885
 20
-118.5321275202802
 30
0.0
 10
89.53458656615803
 20
-118.540568004219
 30
0.0
 10
89.53251950886687
 20
-118.5469414308667
 30
0.0
 10
89.53251950886687
 20
-118.5469414308667
 30
0.0
 10
89.32305770336369
 20
-118.4940592151682
 30
0.0
 10
89.32305770336369
 20
-118.4940592151682
 30
0.0
 10
89.40160588042738
 20
-118.3839884144144
 30
0.0
 10
89.46292858006483
 20
-118.2485961618441
 30
0.0
 10
89.49462345852912
 20
-118.1385253610904
 30
0.0
 10
89.49462345852912
 20
-118.1385253610904
 30
0.0
 10
89.02919105847187
 20
-118.1385253610904
 30
0.0
 10
89.02919105847187
 20
-118.1385253610904
 30
0.0
 10
88.94857582411703
 20
-118.3035454348338
 30
0.0
 10
88.88105195260613
 20
-118.3819213571233
 30
0.0
 10
88.84729001685068
 20
-118.4220567195264
 30
0.0
 10
88.84729001685068
 20
-118.4220567195264
 30
0.0
 10
88.72464461757579
 20
-118.3564276505324
 30
0.0
 10
88.72464461757579
 20
-118.3564276505324
 30
0.0
 10
88.72464461757579
 20
-118.3564276505324
 30
0.0
 10
88.72464461757579
 20
-118.5278211509236
 30
0.0
 10
88.72464461757579
 20
-118.5278211509236
 30
0.0
 10
88.72464461757579
 20
-118.6358248943862
 30
0.0
 10
88.72671167486693
 20
-118.6844007407282
 30
0.0
 10
88.73704696132269
 20
-118.7901651721254
 30
0.0
 10
88.66538897522949
 20
-118.7880981148342
 30
0.0
 10
88.64402938322094
 20
-118.7880981148342
 30
0.0
 10
88.43904620184857
 20
-118.7880981148342
 30
0.0
 10
88.43904620184857
 20
-118.7880981148342
 30
0.0
 10
88.38392467408458
 20
-118.7880981148342
 30
0.0
 10
88.38392467408458
 20
-118.7880981148342
 30
0.0
 10
88.38392467408458
 20
-118.7880981148342
 30
0.0
 10
88.38392467408458
 20
-118.9234903674046
 30
0.0
 10
88.38392467408458
 20
-118.9234903674046
 30
0.0
 10
88.38392467408458
 20
-118.9234903674046
 30
0.0
 10
88.4559271697263
 20
-118.9234903674046
 30
0.0
 10
88.4559271697263
 20
-118.9234903674046
 30
0.0
 10
88.52138398394605
 20
-118.9234903674046
 30
0.0
 10
88.66745603252065
 20
-118.919183998048
 30
0.0
 10
88.77322046391781
 20
-118.9107435141091
 30
0.0
 10
88.77322046391781
 20
-118.9107435141091
 30
0.0
 10
88.77322046391781
 20
-119.088510441148
 30
0.0
 10
88.77322046391781
 20
-119.088510441148
 30
0.0
 10
88.67572426168525
 20
-119.0821370145003
 30
0.0
 10
88.51724986936375
 20
-119.0778306451437
 30
0.0
 10
88.4559271697263
 20
-119.0778306451437
 30
0.0
 10
88.4559271697263
 20
-119.0778306451437
 30
0.0
 10
88.38392467408458
 20
-119.0778306451437
 30
0.0
 10
88.38392467408458
 20
-119.0778306451437
 30
0.0
 10
88.38599173137573
 20
-119.1667141086632
 30
0.0
 10
88.39012584595802
 20
-119.4058037353395
 30
0.0
 10
88.39219290324918
 20
-119.4798732882724
 30
0.0
 10
88.39219290324918
 20
-119.4798732882724
 30
0.0
 10
88.19134383645911
 20
-119.4798732882724
 30
0.0
 10
88.19134383645911
 20
-119.4798732882724
 30
0.0
 10
88.20409068975454
 20
-119.2661051134126
 30
0.0
 10
88.20409068975454
 20
-119.2364772922395
 30
0.0
 10
88.20822480433684
 20
-119.0778306451437
 30
0.0
 10
88.20822480433684
 20
-119.0778306451437
 30
0.0
 10
88.1386338755348
 20
-119.0778306451437
 30
0.0
 10
88.1386338755348
 20
-119.0778306451437
 30
0.0
 10
88.08144529047965
 20
-119.0778306451437
 30
0.0
 10
87.9291720700316
 20
-119.0821370145003
 30
0.0
 10
87.81892901450361
 20
-119.088510441148
 30
0.0
 10
87.81892901450361
 20
-119.088510441148
 30
0.0
 10
87.81892901450361
 20
-118.9107435141091
 30
0.0
 10
87.81892901450361
 20
-118.9107435141091
 30
0.0
 10
87.92469344590077
 20
-118.919183998048
 30
0.0
 10
88.06869843718422
 20
-118.9234903674046
 30
0.0
 10
88.1386338755348
 20
-118.9234903674046
 30
0.0
 10
88.1386338755348
 20
-118.9234903674046
 30
0.0
 10
88.21235891891914
 20
-118.9234903674046
 30
0.0
 10
88.21235891891914
 20
-118.9234903674046
 30
0.0
 10
88.21235891891914
 20
-118.9234903674046
 30
0.0
 10
88.21235891891914
 20
-118.7880981148342
 30
0.0
 10
88.21235891891914
 20
-118.7880981148342
 30
0.0
 10
88.21235891891914
 20
-118.7880981148342
 30
0.0
 10
88.16826169670794
 20
-118.7880981148342
 30
0.0
 10
88.16826169670794
 20
-118.7880981148342
 30
0.0
 10
88.09178057693539
 20
-118.7880981148342
 30
0.0
 10
87.89954424885845
 20
-118.7901651721254
 30
0.0
 10
87.86543780355447
 20
-118.7901651721254
 30
0.0
 10
87.87198348497645
 20
-118.7183349312579
 30
0.0
 10
87.88025171414105
 20
-118.6378919516773
 30
0.0
 10
87.88025171414105
 20
-118.5173136096936
 30
0.0
 10
87.88025171414105
 20
-118.5173136096936
 30
0.0
 10
87.88025171414105
 20
-118.3438530520113
 30
0.0
 10
87.88025171414105
 20
-118.3438530520113
 30
0.0
 10
87.88025171414105
 20
-118.2718505563695
 30
0.0
 10
87.87198348497645
 20
-118.1512722143858
 30
0.0
 10
87.86543780355447
 20
-118.0710014895795
 30
0.0
 10
87.94398598061818
 20
-118.0751356041618
 30
0.0
 10
87.98188203095592
 20
-118.0772026614529
 30
0.0
 10
88.10900605436164
 20
-118.0772026614529
 30
0.0
 10
88.10900605436164
 20
-118.0772026614529
 30
0.0
 10
88.21235891891914
 20
-118.0772026614529
 30
0.0
 10
88.21235891891914
 20
-118.0772026614529
 30
0.0
 10
88.21235891891914
 20
-118.0772026614529
 30
0.0
 10
88.21235891891914
 20
-117.9313028676526
 30
0.0
 10
88.21235891891914
 20
-117.9313028676526
 30
0.0
 10
88.21235891891914
 20
-117.9313028676526
 30
0.0
 10
88.13415525140397
 20
-117.9313028676526
 30
0.0
 10
88.13415525140397
 20
-117.9313028676526
 30
0.0
 10
88.07937823318849
 20
-117.9313028676526
 30
0.0
 10
87.90781247802305
 20
-117.9356092370092
 30
0.0
 10
87.82340763863444
 20
-117.9418104088826
 30
0.0
 10
87.82340763863444
 20
-117.9418104088826
 30
0.0
 10
87.82340763863444
 20
-117.764215736618
 30
0.0
 10
87.82340763863444
 20
-117.764215736618
 30
0.0
 10
87.9057454207319
 20
-117.7705891632657
 30
0.0
 10
88.06869843718422
 20
-117.774723277848
 30
0.0
 10
88.13415525140397
 20
-117.774723277848
 30
0.0
 10
88.13415525140397
 20
-117.774723277848
 30
0.0
 10
88.21235891891914
 20
-117.774723277848
 30
0.0
 10
88.21235891891914
 20
-117.774723277848
 30
0.0
 10
88.21235891891914
 20
-117.7409613420925
 30
0.0
 10
88.20822480433684
 20
-117.5864488095791
 30
0.0
 10
88.20822480433684
 20
-117.5547539311148
 30
0.0
 10
88.20822480433684
 20
-117.5547539311148
 30
0.0
 10
88.40493975654461
 20
-117.5716348989925
 30
0.0
 10
88.40493975654461
 20
-117.5716348989925
 30
0.0
 10
88.42182072442233
 20
-117.5737019562837
 30
0.0
 10
88.44318031643087
 20
-117.5759412683491
 30
0.0
 10
88.44318031643087
 20
-117.5969563508091
 30
0.0
 10
88.44318031643087
 20
-117.6203830001088
 30
0.0
 10
88.42182072442233
 20
-117.6288234840477
 30
0.0
 10
88.39460447008885
 20
-117.6413980825688
 30
0.0
 10
88.39460447008885
 20
-117.6625854198031
 30
0.0
 10
88.39219290324918
 20
-117.7578423099703
 30
0.0
 10
88.39219290324918
 20
-117.774723277848
 30
0.0
 10
88.39219290324918
 20
-117.774723277848
 30
0.0
 10
88.45144854559547
 20
-117.774723277848
 30
0.0
 10
88.45144854559547
 20
-117.774723277848
 30
0.0
 10
88.5193169266549
 20
-117.774723277848
 30
0.0
 10
88.66297740838982
 20
-117.7705891632657
 30
0.0
 10
88.76874183978698
 20
-117.764215736618
 30
0.0
 10
88.76874183978698
 20
-117.764215736618
 30
0.0
 10
88.76874183978698
 20
-117.9418104088826
 30
0.0
 10
88.76874183978698
 20
-117.9418104088826
 30
0.0
 10
88.67159014710295
 20
-117.9356092370092
 30
0.0
 10
88.5151828120726
 20
-117.9313028676526
 30
0.0
 10
88.45144854559547
 20
-117.9313028676526
 30
0.0
 10
88.45144854559547
 20
-117.9313028676526
 30
0.0
 10
88.38392467408458
 20
-117.9313028676526
 30
0.0
 10
88.38392467408458
 20
-117.9313028676526
 30
0.0
 10
88.38392467408458
 20
-117.9313028676526
 30
0.0
 10
88.38392467408458
 20
-118.0772026614529
 30
0.0
 10
88.38392467408458
 20
-118.0772026614529
 30
0.0
 10
88.38392467408458
 20
-118.0772026614529
 30
0.0
 10
88.45386011243515
 20
-118.0772026614529
 30
0.0
 10
88.45386011243515
 20
-118.0772026614529
 30
0.0
 10
88.60372176604352
 20
-118.0772026614529
 30
0.0
 10
88.67572426168525
 20
-118.0730685468706
 30
0.0
 10
88.73704696132269
 20
-118.0710014895795
 30
0.0
 10
88.72877873215809
 20
-118.1660861249724
 30
0.0
 10
88.72671167486693
 20
-118.2444620472618
 30
0.0
 10
88.72464461757579
 20
-118.2825303523738
 30
0.0
 10
88.87898489531499
 20
-118.0710014895795
 30
0.0
 10
88.98474932671215
 20
-117.8234713789643
 30
0.0
 10
89.00163029458987
 20
-117.5611273577625
 30
0.0
 10
89.00163029458987
 20
-117.5611273577625
 30
0.0
 10
89.21729327196651
 20
-117.6117702613957
 30
0.0
 10
89.21729327196651
 20
-117.6117702613957
 30
0.0
 10
89.2321071825531
 20
-117.6160766307522
 30
0.0
 10
89.24692109313966
 20
-117.6224500573999
 30
0.0
 10
89.24692109313966
 20
-117.6393310252777
 30
0.0
 10
89.24692109313966
 20
-117.6562119931554
 30
0.0
 10
89.24278697855736
 20
-117.6584513052208
 30
0.0
 10
89.19214407492419
 20
-117.6794663876808
 30
0.0
 10
89.17491859749794
 20
-117.7557752526791
 30
0.0
 10
89.14976940045561
 20
-117.8467257734897
 30
0.0
 10
89.10119355411359
 20
-117.9736775421212
 30
0.0
 10
89.10119355411359
 20
-117.9736775421212
 30
0.0
 10
89.43950193076513
 20
-117.9736775421212
 30
0.0
 10
89.43950193076513
 20
-117.9736775421212
 30
0.0
 10
89.47774249065141
 20
-117.9736775421212
 30
0.0
 10
89.60658906179975
 20
-117.9693711727646
 30
0.0
 10
89.65516490814177
 20
-117.9629977461169
 30
0.0
 10
89.65516490814177
 20
-117.9629977461169
 30
0.0
 10
89.74852699579203
 20
-118.0327609296932
 30
0.0
 10
89.74852699579203
 20
-118.0327609296932
 30
0.0
 10
89.73991425707891
 20
-118.0539482669275
 30
0.0
 10
89.73371308520547
 20
-118.0730685468706
 30
0.0
 10
89.7188991746189
 20
-118.1090697946915
 30
0.0
  0
POLYLINE
  5
7C
330
77
100
AcDbEntity
  8
_U+30EC_U+30A4_U+30E4_U+30FC 1
370
     0
100
AcDb2dPolyline
 66
     1
 10
0.0
 20
0.0
 30
0.0
  0
VERTEX
  5
7D
330
7C
100
AcDbEntity
  8
_U+30EC_U+30A4_U+30E4_U+30FC 1
370
     0
100
AcDbVertex
100
AcDb2dVertex
 10
88.21235891891914
 20
-118.2337822512575
 30
0.0
  0
VERTEX
  5
7E
330
7C
100
AcDbEntity
  8
_U+30EC_U+30A4_U+30E4_U+30FC 1
370
     0
100
AcDbVertex
100
AcDb2dVertex
 10
88.05388452659764
 20
-118.2337822512575
 30
0.0
  0
VERTEX
  5
7F
330
7C
100
AcDbEntity
  8
_U+30EC_U+30A4_U+30E4_U+30FC 1
370
     0
100
AcDbVertex
100
AcDb2dVertex
 10
88.05388452659764
 20
-118.3628010771801
 30
0.0
  0
VERTEX
  5
80
330
7C
100
AcDbEntity
  8
_U+30EC_U+30A4_U+30E4_U+30FC 1
370
     0
100
AcDbVertex
100
AcDb2dVertex
 10
88.21235891891914
 20
-118.3628010771801
 30
0.0
  0
VERTEX
  5
81
330
7C
100
AcDbEntity
  8
_U+30EC_U+30A4_U+30E4_U+30FC 1
370
     0
100
AcDbVertex
100
AcDb2dVertex
 10
88.21235891891914
 20
-118.2337822512575
 30
0.0
  0
SEQEND
  5
82
330
7C
100
AcDbEntity
  8
_U+30EC_U+30A4_U+30E4_U+30FC 1
370
     0
  0
POLYLINE
  5
83
330
77
100
AcDbEntity
  8
_U+30EC_U+30A4_U+30E4_U+30FC 1
370
     0
100
AcDb2dPolyline
 66
     1
 10
0.0
 20
0.0
 30
0.0
  0
VERTEX
  5
84
330
83
100
AcDbEntity
  8
_U+30EC_U+30A4_U+30E4_U+30FC 1
370
     0
100
AcDbVertex
100
AcDb2dVertex
 10
88.21235891891914
 20
-118.5066338136893
 30
0.0
  0
VERTEX
  5
85
330
83
100
AcDbEntity
  8
_U+30EC_U+30A4_U+30E4_U+30FC 1
370
     0
100
AcDbVertex
100
AcDb2dVertex
 10
88.05388452659764
 20
-118.5066338136893
 30
0.0
  0
VERTEX
  5
86
330
83
100
AcDbEntity
  8
_U+30EC_U+30A4_U+30E4_U+30FC 1
370
     0
100
AcDbVertex
100
AcDb2dVertex
 10
88.05388452659764
 20
-118.6358248943862
 30
0.0
  0
VERTEX
  5
87
330
83
100
AcDbEntity
  8
_U+30EC_U+30A4_U+30E4_U+30FC 1
370
     0
100
AcDbVertex
100
AcDb2dVertex
 10
88.21235891891914
 20
-118.6358248943862
 30
0.0
  0
VERTEX
  5
88
330
83
100
AcDbEntity
  8
_U+30EC_U+30A4_U+30E4_U+30FC 1
370
     0
100
AcDbVertex
100
AcDb2dVertex
 10
88.21235891891914
 20
-118.5066338136893
 30
0.0
  0
SEQEND
  5
89
330
83
100
AcDbEntity
  8
_U+30EC_U+30A4_U+30E4_U+30FC 1
370
     0
  0
POLYLINE
  5
8A
330
77
100
AcDbEntity
  8
_U+30EC_U+30A4_U+30E4_U+30FC 1
370
     0
100
AcDb2dPolyline
 66
     1
 10
0.0
 20
0.0
 30
0.0
  0
VERTEX
  5
8B
330
8A
100
AcDbEntity
  8
_U+30EC_U+30A4_U+30E4_U+30FC 1
370
     0
100
AcDbVertex
100
AcDb2dVertex
 10
88.54481063324575
 20
-118.2337822512575
 30
0.0
  0
VERTEX
  5
8C
330
8A
100
AcDbEntity
  8
_U+30EC_U+30A4_U+30E4_U+30FC 1
370
     0
100
AcDbVertex
100
AcDb2dVertex
 10
88.38392467408458
 20
-118.2337822512575
 30
0.0
  0
VERTEX
  5
8D
330
8A
100
AcDbEntity
  8
_U+30EC_U+30A4_U+30E4_U+30FC 1
370
     0
100
AcDbVertex
100
AcDb2dVertex
 10
88.38392467408458
 20
-118.3628010771801
 30
0.0
  0
VERTEX
  5
8E
330
8A
100
AcDbEntity
  8
_U+30EC_U+30A4_U+30E4_U+30FC 1
370
     0
100
AcDbVertex
100
AcDb2dVertex
 10
88.54481063324575
 20
-118.3628010771801
 30
0.0
  0
VERTEX
  5
8F
330
8A
100
AcDbEntity
  8
_U+30EC_U+30A4_U+30E4_U+30FC 1
370
     0
100
AcDbVertex
100
AcDb2dVertex
 10
88.54481063324575
 20
-118.2337822512575
 30
0.0
  0
SEQEND
  5
90
330
8A
100
AcDbEntity
  8
_U+30EC_U+30A4_U+30E4_U+30FC 1
370
     0
  0
POLYLINE
  5
91
330
77
100
AcDbEntity
  8
_U+30EC_U+30A4_U+30E4_U+30FC 1
370
     0
100
AcDb2dPolyline
 66
     1
 10
0.0
 20
0.0
 30
0.0
  0
VERTEX
  5
92
330
91
100
AcDbEntity
  8
_U+30EC_U+30A4_U+30E4_U+30FC 1
370
     0
100
AcDbVertex
100
AcDb2dVertex
 10
88.54481063324575
 20
-118.5066338136893
 30
0.0
  0
VERTEX
  5
93
330
91
100
AcDbEntity
  8
_U+30EC_U+30A4_U+30E4_U+30FC 1
370
     0
100
AcDbVertex
100
AcDb2dVertex
 10
88.38392467408458
 20
-118.5066338136893
 30
0.0
  0
VERTEX
  5
94
330
91
100
AcDbEntity
  8
_U+30EC_U+30A4_U+30E4_U+30FC 1
370
     0
100
AcDbVertex
100
AcDb2dVertex
 10
88.38392467408458
 20
-118.6358248943862
 30
0.0
  0
VERTEX
  5
95
330
91
100
AcDbEntity
  8
_U+30EC_U+30A4_U+30E4_U+30FC 1
370
     0
100
AcDbVertex
100
AcDb2dVertex
 10
88.54481063324575
 20
-118.6358248943862
 30
0.0
  0
VERTEX
  5
96
330
91
100
AcDbEntity
  8
_U+30EC_U+30A4_U+30E4_U+30FC 1
370
     0
100
AcDbVertex
100
AcDb2dVertex
 10
88.54481063324575
 20
-118.5066338136893
 30
0.0
  0
SEQEND
  5
97
330
91
100
AcDbEntity
  8
_U+30EC_U+30A4_U+30E4_U+30FC 1
370
     0
  0
SPLINE
  5
98
330
77
100
AcDbEntity
  8
_U+30EC_U+30A4_U+30E4_U+30FC 1
370
     0
100
AcDbSpline
210
0.0
220
0.0
230
1.0
 70
    11
 71
     3
 72
    41
 73
    37
 74
     0
 42
0.0000000001
 43
0.0000000001
 12
1.0
 22
0.0
 32
0.0
 13
1.0
 23
0.0
 33
0.0
 40
0.0
 40
0.0
 40
0.0
 40
0.0
 40
1.0
 40
1.0
 40
1.0
 40
2.0
 40
2.0
 40
2.0
 40
3.0
 40
3.0
 40
3.0
 40
4.0
 40
4.0
 40
4.0
 40
5.0
 40
5.0
 40
5.0
 40
6.0
 40
6.0
 40
6.0
 40
7.0
 40
7.0
 40
7.0
 40
8.0
 40
8.0
 40
8.0
 40
9.0
 40
9.0
 40
9.0
 40
10.0
 40
10.0
 40
10.0
 40
11.0
 40
11.0
 40
11.0
 40
12.0
 40
12.0
 40
12.0
 40
12.0
 10
89.63414982568175
 20
-119.4650593776858
 30
0.0
 10
89.39299314171426
 20
-119.3296671251155
 30
0.0
 10
89.21522621467537
 20
-119.033388913384
 30
0.0
 10
89.17491859749794
 20
-118.9043700874614
 30
0.0
 10
89.05434025551419
 20
-119.1687811659543
 30
0.0
 10
88.89173174861041
 20
-119.3465480929932
 30
0.0
 10
88.70983070698921
 20
-119.4607530083293
 30
0.0
 10
88.70983070698921
 20
-119.4607530083293
 30
0.0
 10
88.51277124523293
 20
-119.3232936984678
 30
0.0
 10
88.51277124523293
 20
-119.3232936984678
 30
0.0
 10
88.5827066835835
 20
-119.2979722466512
 30
0.0
 10
88.72877873215809
 20
-119.2364772922395
 30
0.0
 10
88.85142413143298
 20
-119.0821370145003
 30
0.0
 10
88.97613658799902
 20
-118.9255574246957
 30
0.0
 10
89.06502005151847
 20
-118.6928412246671
 30
0.0
 10
89.06502005151847
 20
-118.4327365155307
 30
0.0
 10
89.06502005151847
 20
-118.3311061987158
 30
0.0
 10
89.05227319822305
 20
-118.2592759578484
 30
0.0
 10
89.04193791176729
 20
-118.2125949140232
 30
0.0
 10
89.04193791176729
 20
-118.2125949140232
 30
0.0
 10
89.24692109313966
 20
-118.2337822512575
 30
0.0
 10
89.24692109313966
 20
-118.2337822512575
 30
0.0
 10
89.26828068514821
 20
-118.2358493085487
 30
0.0
 10
89.28929576760824
 20
-118.2380886206141
 30
0.0
 10
89.28929576760824
 20
-118.2592759578484
 30
0.0
 10
89.28929576760824
 20
-118.2782239830173
 30
0.0
 10
89.27861597160395
 20
-118.2866644669561
 30
0.0
 10
89.24485403584852
 20
-118.3078518041904
 30
0.0
 10
89.23658580668392
 20
-118.5088731257547
 30
0.0
 10
89.29342988219054
 20
-118.7520968670134
 30
0.0
 10
89.35475258182798
 20
-118.8726752089971
 30
0.0
 10
89.44570310263857
 20
-119.0482028239706
 30
0.0
 10
89.64035099755519
 20
-119.2280368083006
 30
0.0
 10
89.77574325012552
 20
-119.2852253933558
 30
0.0
 10
89.77574325012552
 20
-119.2852253933558
 30
0.0
 10
89.63414982568175
 20
-119.4650593776858
 30
0.0
 10
89.63414982568175
 20
-119.4650593776858
 30
0.0
  0
HATCH
  5
99
330
77
100
AcDbEntity
  8
_U+30EC_U+30A4_U+30E4_U+30FC 1
 62
   179
420
  2234388
100
AcDbHatch
 10
0.0
 20
0.0
 30
0.0
210
0.0
220
0.0
230
1.0
  2
SOLID
 70
     1
 71
     0
 91
        6
 92
        1
 93
        1
 72
     4
 94
        3
 73
     0
 74
     1
 95
      197
 96
      193
 40
0.0
 40
0.0
 40
0.0
 40
0.0
 40
1.0
 40
1.0
 40
1.0
 40
2.0
 40
2.0
 40
2.0
 40
3.0
 40
3.0
 40
3.0
 40
4.0
 40
4.0
 40
4.0
 40
5.0
 40
5.0
 40
5.0
 40
6.0
 40
6.0
 40
6.0
 40
7.0
 40
7.0
 40
7.0
 40
8.0
 40
8.0
 40
8.0
 40
9.0
 40
9.0
 40
9.0
 40
10.0
 40
10.0
 40
10.0
 40
11.0
 40
11.0
 40
11.0
 40
12.0
 40
12.0
 40
12.0
 40
13.0
 40
13.0
 40
13.0
 40
14.0
 40
14.0
 40
14.0
 40
15.0
 40
15.0
 40
15.0
 40
16.0
 40
16.0
 40
16.0
 40
17.0
 40
17.0
 40
17.0
 40
18.0
 40
18.0
 40
18.0
 40
19.0
 40
19.0
 40
19.0
 40
20.0
 40
20.0
 40
20.0
 40
21.0
 40
21.0
 40
21.0
 40
22.0
 40
22.0
 40
22.0
 40
23.0
 40
23.0
 40
23.0
 40
24.0
 40
24.0
 40
24.0
 40
25.0
 40
25.0
 40
25.0
 40
26.0
 40
26.0
 40
26.0
 40
27.0
 40
27.0
 40
27.0
 40
28.0
 40
28.0
 40
28.0
 40
29.0
 40
29.0
 40
29.0
 40
30.0
 40
30.0
 40
30.0
 40
31.0
 40
31.0
 40
31.0
 40
32.0
 40
32.0
 40
32.0
 40
33.0
 40
33.0
 40
33.0
 40
34.0
 40
34.0
 40
34.0
 40
35.0
 40
35.0
 40
35.0
 40
36.0
 40
36.0
 40
36.0
 40
37.0
 40
37.0
 40
37.0
 40
38.0
 40
38.0
 40
38.0
 40
39.0
 40
39.0
 40
39.0
 40
40.0
 40
40.0
 40
40.0
 40
41.0
 40
41.0
 40
41.0
 40
42.0
 40
42.0
 40
42.0
 40
43.0
 40
43.0
 40
43.0
 40
44.0
 40
44.0
 40
44.0
 40
45.0
 40
45.0
 40
45.0
 40
46.0
 40
46.0
 40
46.0
 40
47.0
 40
47.0
 40
47.0
 40
48.0
 40
48.0
 40
48.0
 40
49.0
 40
49.0
 40
49.0
 40
50.0
 40
50.0
 40
50.0
 40
51.0
 40
51.0
 40
51.0
 40
52.0
 40
52.0
 40
52.0
 40
53.0
 40
53.0
 40
53.0
 40
54.0
 40
54.0
 40
54.0
 40
55.0
 40
55.0
 40
55.0
 40
56.0
 40
56.0
 40
56.0
 40
57.0
 40
57.0
 40
57.0
 40
58.0
 40
58.0
 40
58.0
 40
59.0
 40
59.0
 40
59.0
 40
60.0
 40
60.0
 40
60.0
 40
61.0
 40
61.0
 40
61.0
 40
62.0
 40
62.0
 40
62.0
 40
63.0
 40
63.0
 40
63.0
 40
64.0
 40
64.0
 40
64.0
 40
64.0
 10
89.7188991746189
 20
-118.1090697946915
 10
89.70821937861461
 20
-118.1385253610904
 10
89.68479272931492
 20
-118.1852064049155
 10
89.67445744285916
 20
-118.2125949140232
 10
89.67445744285916
 20
-118.2125949140232
 10
89.61313474322172
 20
-118.3650403892456
 10
89.61313474322172
 20
-118.3650403892456
 10
89.60245494721745
 20
-118.3903618410621
 10
89.55387910087542
 20
-118.502499699107
 10
89.54113224758
 20
-118.5257540936325
 10
89.53906519028885
 20
-118.5321275202802
 10
89.53458656615803
 20
-118.540568004219
 10
89.53251950886687
 20
-118.5469414308667
 10
89.53251950886687
 20
-118.5469414308667
 10
89.32305770336369
 20
-118.4940592151682
 10
89.32305770336369
 20
-118.4940592151682
 10
89.40160588042738
 20
-118.3839884144144
 10
89.46292858006483
 20
-118.2485961618441
 10
89.49462345852912
 20
-118.1385253610904
 10
89.49462345852912
 20
-118.1385253610904
 10
89.02919105847187
 20
-118.1385253610904
 10
89.02919105847187
 20
-118.1385253610904
 10
88.94857582411703
 20
-118.3035454348338
 10
88.88105195260613
 20
-118.3819213571233
 10
88.84729001685068
 20
-118.4220567195264
 10
88.84729001685068
 20
-118.4220567195264
 10
88.72464461757579
 20
-118.3564276505324
 10
88.72464461757579
 20
-118.3564276505324
 10
88.72464461757579
 20
-118.3564276505324
 10
88.72464461757579
 20
-118.5278211509236
 10
88.72464461757579
 20
-118.5278211509236
 10
88.72464461757579
 20
-118.6358248943862
 10
88.72671167486693
 20
-118.6844007407282
 10
88.73704696132269
 20
-118.7901651721254
 10
88.66538897522949
 20
-118.7880981148342
 10
88.64402938322094
 20
-118.7880981148342
 10
88.43904620184857
 20
-118.7880981148342
 10
88.43904620184857
 20
-118.7880981148342
 10
88.38392467408458
 20
-118.7880981148342
 10
88.38392467408458
 20
-118.7880981148342
 10
88.38392467408458
 20
-118.7880981148342
 10
88.38392467408458
 20
-118.9234903674046
 10
88.38392467408458
 20
-118.9234903674046
 10
88.38392467408458
 20
-118.9234903674046
 10
88.4559271697263
 20
-118.9234903674046
 10
88.4559271697263
 20
-118.9234903674046
 10
88.52138398394605
 20
-118.9234903674046
 10
88.66745603252065
 20
-118.919183998048
 10
88.77322046391781
 20
-118.9107435141091
 10
88.77322046391781
 20
-118.9107435141091
 10
88.77322046391781
 20
-119.088510441148
 10
88.77322046391781
 20
-119.088510441148
 10
88.67572426168525
 20
-119.0821370145003
 10
88.51724986936375
 20
-119.0778306451437
 10
88.4559271697263
 20
-119.0778306451437
 10
88.4559271697263
 20
-119.0778306451437
 10
88.38392467408458
 20
-119.0778306451437
 10
88.38392467408458
 20
-119.0778306451437
 10
88.38599173137573
 20
-119.1667141086632
 10
88.39012584595802
 20
-119.4058037353395
 10
88.39219290324918
 20
-119.4798732882724
 10
88.39219290324918
 20
-119.4798732882724
 10
88.19134383645911
 20
-119.4798732882724
 10
88.19134383645911
 20
-119.4798732882724
 10
88.20409068975454
 20
-119.2661051134126
 10
88.20409068975454
 20
-119.2364772922395
 10
88.20822480433684
 20
-119.0778306451437
 10
88.20822480433684
 20
-119.0778306451437
 10
88.1386338755348
 20
-119.0778306451437
 10
88.1386338755348
 20
-119.0778306451437
 10
88.08144529047965
 20
-119.0778306451437
 10
87.9291720700316
 20
-119.0821370145003
 10
87.81892901450361
 20
-119.088510441148
 10
87.81892901450361
 20
-119.088510441148
 10
87.81892901450361
 20
-118.9107435141091
 10
87.81892901450361
 20
-118.9107435141091
 10
87.92469344590077
 20
-118.919183998048
 10
88.06869843718422
 20
-118.9234903674046
 10
88.1386338755348
 20
-118.9234903674046
 10
88.1386338755348
 20
-118.9234903674046
 10
88.21235891891914
 20
-118.9234903674046
 10
88.21235891891914
 20
-118.9234903674046
 10
88.21235891891914
 20
-118.9234903674046
 10
88.21235891891914
 20
-118.7880981148342
 10
88.21235891891914
 20
-118.7880981148342
 10
88.21235891891914
 20
-118.7880981148342
 10
88.16826169670794
 20
-118.7880981148342
 10
88.16826169670794
 20
-118.7880981148342
 10
88.09178057693539
 20
-118.7880981148342
 10
87.89954424885845
 20
-118.7901651721254
 10
87.86543780355447
 20
-118.7901651721254
 10
87.87198348497645
 20
-118.7183349312579
 10
87.88025171414105
 20
-118.6378919516773
 10
87.88025171414105
 20
-118.5173136096936
 10
87.88025171414105
 20
-118.5173136096936
 10
87.88025171414105
 20
-118.3438530520113
 10
87.88025171414105
 20
-118.3438530520113
 10
87.88025171414105
 20
-118.2718505563695
 10
87.87198348497645
 20
-118.1512722143858
 10
87.86543780355447
 20
-118.0710014895795
 10
87.94398598061818
 20
-118.0751356041618
 10
87.98188203095592
 20
-118.0772026614529
 10
88.10900605436164
 20
-118.0772026614529
 10
88.10900605436164
 20
-118.0772026614529
 10
88.21235891891914
 20
-118.0772026614529
 10
88.21235891891914
 20
-118.0772026614529
 10
88.21235891891914
 20
-118.0772026614529
 10
88.21235891891914
 20
-117.9313028676526
 10
88.21235891891914
 20
-117.9313028676526
 10
88.21235891891914
 20
-117.9313028676526
 10
88.13415525140397
 20
-117.9313028676526
 10
88.13415525140397
 20
-117.9313028676526
 10
88.07937823318849
 20
-117.9313028676526
 10
87.90781247802305
 20
-117.9356092370092
 10
87.82340763863444
 20
-117.9418104088826
 10
87.82340763863444
 20
-117.9418104088826
 10
87.82340763863444
 20
-117.764215736618
 10
87.82340763863444
 20
-117.764215736618
 10
87.9057454207319
 20
-117.7705891632657
 10
88.06869843718422
 20
-117.774723277848
 10
88.13415525140397
 20
-117.774723277848
 10
88.13415525140397
 20
-117.774723277848
 10
88.21235891891914
 20
-117.774723277848
 10
88.21235891891914
 20
-117.774723277848
 10
88.21235891891914
 20
-117.7409613420925
 10
88.20822480433684
 20
-117.5864488095791
 10
88.20822480433684
 20
-117.5547539311148
 10
88.20822480433684
 20
-117.5547539311148
 10
88.40493975654461
 20
-117.5716348989925
 10
88.40493975654461
 20
-117.5716348989925
 10
88.42182072442233
 20
-117.5737019562837
 10
88.44318031643087
 20
-117.5759412683491
 10
88.44318031643087
 20
-117.5969563508091
 10
88.44318031643087
 20
-117.6203830001088
 10
88.42182072442233
 20
-117.6288234840477
 10
88.39460447008885
 20
-117.6413980825688
 10
88.39460447008885
 20
-117.6625854198031
 10
88.39219290324918
 20
-117.7578423099703
 10
88.39219290324918
 20
-117.774723277848
 10
88.39219290324918
 20
-117.774723277848
 10
88.45144854559547
 20
-117.774723277848
 10
88.45144854559547
 20
-117.774723277848
 10
88.5193169266549
 20
-117.774723277848
 10
88.66297740838982
 20
-117.7705891632657
 10
88.76874183978698
 20
-117.764215736618
 10
88.76874183978698
 20
-117.764215736618
 10
88.76874183978698
 20
-117.9418104088826
 10
88.76874183978698
 20
-117.9418104088826
 10
88.67159014710295
 20
-117.9356092370092
 10
88.5151828120726
 20
-117.9313028676526
 10
88.45144854559547
 20
-117.9313028676526
 10
88.45144854559547
 20
-117.9313028676526
 10
88.38392467408458
 20
-117.9313028676526
 10
88.38392467408458
 20
-117.9313028676526
 10
88.38392467408458
 20
-117.9313028676526
 10
88.38392467408458
 20
-118.0772026614529
 10
88.38392467408458
 20
-118.0772026614529
 10
88.38392467408458
 20
-118.0772026614529
 10
88.45386011243515
 20
-118.0772026614529
 10
88.45386011243515
 20
-118.0772026614529
 10
88.60372176604352
 20
-118.0772026614529
 10
88.67572426168525
 20
-118.0730685468706
 10
88.73704696132269
 20
-118.0710014895795
 10
88.72877873215809
 20
-118.1660861249724
 10
88.72671167486693
 20
-118.2444620472618
 10
88.72464461757579
 20
-118.2825303523738
 10
88.87898489531499
 20
-118.0710014895795
 10
88.98474932671215
 20
-117.8234713789643
 10
89.00163029458987
 20
-117.5611273577625
 10
89.00163029458987
 20
-117.5611273577625
 10
89.21729327196651
 20
-117.6117702613957
 10
89.21729327196651
 20
-117.6117702613957
 10
89.2321071825531
 20
-117.6160766307522
 10
89.24692109313966
 20
-117.6224500573999
 10
89.24692109313966
 20
-117.6393310252777
 10
89.24692109313966
 20
-117.6562119931554
 10
89.24278697855736
 20
-117.6584513052208
 10
89.19214407492419
 20
-117.6794663876808
 10
89.17491859749794
 20
-117.7557752526791
 10
89.14976940045561
 20
-117.8467257734897
 10
89.10119355411359
 20
-117.9736775421212
 10
89.10119355411359
 20
-117.9736775421212
 10
89.43950193076513
 20
-117.9736775421212
 10
89.43950193076513
 20
-117.9736775421212
 10
89.47774249065141
 20
-117.9736775421212
 10
89.60658906179975
 20
-117.9693711727646
 10
89.65516490814177
 20
-117.9629977461169
 10
89.65516490814177
 20
-117.9629977461169
 10
89.74852699579203
 20
-118.0327609296932
 10
89.74852699579203
 20
-118.0327609296932
 10
89.73991425707891
 20
-118.0539482669275
 10
89.73371308520547
 20
-118.0730685468706
 10
89.7188991746189
 20
-118.1090697946915
 97
        0
 97
        0
 92
        1
 93
        4
 72
     1
 10
88.21235891891914
 20
-118.2337822512575
 11
88.05388452659764
 21
-118.2337822512575
 72
     1
 10
88.05388452659764
 20
-118.2337822512575
 11
88.05388452659764
 21
-118.3628010771801
 72
     1
 10
88.05388452659764
 20
-118.3628010771801
 11
88.21235891891914
 21
-118.3628010771801
 72
     1
 10
88.21235891891914
 20
-118.3628010771801
 11
88.21235891891914
 21
-118.2337822512575
 97
        0
 92
        1
 93
        4
 72
     1
 10
88.21235891891914
 20
-118.5066338136893
 11
88.05388452659764
 21
-118.5066338136893
 72
     1
 10
88.05388452659764
 20
-118.5066338136893
 11
88.05388452659764
 21
-118.6358248943862
 72
     1
 10
88.05388452659764
 20
-118.6358248943862
 11
88.21235891891914
 21
-118.6358248943862
 72
     1
 10
88.21235891891914
 20
-118.6358248943862
 11
88.21235891891914
 21
-118.5066338136893
 97
        0
 92
        1
 93
        4
 72
     1
 10
88.54481063324575
 20
-118.2337822512575
 11
88.38392467408458
 21
-118.2337822512575
 72
     1
 10
88.38392467408458
 20
-118.2337822512575
 11
88.38392467408458
 21
-118.3628010771801
 72
     1
 10
88.38392467408458
 20
-118.3628010771801
 11
88.54481063324575
 21
-118.3628010771801
 72
     1
 10
88.54481063324575
 20
-118.3628010771801
 11
88.54481063324575
 21
-118.2337822512575
 97
        0
 92
        1
 93
        4
 72
     1
 10
88.54481063324575
 20
-118.5066338136893
 11
88.38392467408458
 21
-118.5066338136893
 72
     1
 10
88.38392467408458
 20
-118.5066338136893
 11
88.38392467408458
 21
-118.6358248943862
 72
     1
 10
88.38392467408458
 20
-118.6358248943862
 11
88.54481063324575
 21
-118.6358248943862
 72
     1
 10
88.54481063324575
 20
-118.6358248943862
 11
88.54481063324575
 21
-118.5066338136893
 97
        0
 92
        1
 93
        1
 72
     4
 94
        3
 73
     0
 74
     1
 95
       41
 96
       37
 40
0.0
 40
0.0
 40
0.0
 40
0.0
 40
1.0
 40
1.0
 40
1.0
 40
2.0
 40
2.0
 40
2.0
 40
3.0
 40
3.0
 40
3.0
 40
4.0
 40
4.0
 40
4.0
 40
5.0
 40
5.0
 40
5.0
 40
6.0
 40
6.0
 40
6.0
 40
7.0
 40
7.0
 40
7.0
 40
8.0
 40
8.0
 40
8.0
 40
9.0
 40
9.0
 40
9.0
 40
10.0
 40
10.0
 40
10.0
 40
11.0
 40
11.0
 40
11.0
 40
12.0
 40
12.0
 40
12.0
 40
12.0
 10
89.63414982568175
 20
-119.4650593776858
 10
89.39299314171426
 20
-119.3296671251155
 10
89.21522621467537
 20
-119.033388913384
 10
89.17491859749794
 20
-118.9043700874614
 10
89.05434025551419
 20
-119.1687811659543
 10
88.89173174861041
 20
-119.3465480929932
 10
88.70983070698921
 20
-119.4607530083293
 10
88.70983070698921
 20
-119.4607530083293
 10
88.51277124523293
 20
-119.3232936984678
 10
88.51277124523293
 20
-119.3232936984678
 10
88.5827066835835
 20
-119.2979722466512
 10
88.72877873215809
 20
-119.2364772922395
 10
88.85142413143298
 20
-119.0821370145003
 10
88.97613658799902
 20
-118.9255574246957
 10
89.06502005151847
 20
-118.6928412246671
 10
89.06502005151847
 20
-118.4327365155307
 10
89.06502005151847
 20
-118.3311061987158
 10
89.05227319822305
 20
-118.2592759578484
 10
89.04193791176729
 20
-118.2125949140232
 10
89.04193791176729
 20
-118.2125949140232
 10
89.24692109313966
 20
-118.2337822512575
 10
89.24692109313966
 20
-118.2337822512575
 10
89.26828068514821
 20
-118.2358493085487
 10
89.28929576760824
 20
-118.2380886206141
 10
89.28929576760824
 20
-118.2592759578484
 10
89.28929576760824
 20
-118.2782239830173
 10
89.27861597160395
 20
-118.2866644669561
 10
89.24485403584852
 20
-118.3078518041904
 10
89.23658580668392
 20
-118.5088731257547
 10
89.29342988219054
 20
-118.7520968670134
 10
89.35475258182798
 20
-118.8726752089971
 10
89.44570310263857
 20
-119.0482028239706
 10
89.64035099755519
 20
-119.2280368083006
 10
89.77574325012552
 20
-119.2852253933558
 10
89.77574325012552
 20
-119.2852253933558
 10
89.63414982568175
 20
-119.4650593776858
 10
89.63414982568175
 20
-119.4650593776858
 97
        0
 97
        0
 75
     2
 76
     1
 98
        0
  0
SPLINE
  5
9A
330
77
100
AcDbEntity
  8
_U+30EC_U+30A4_U+30E4_U+30FC 1
370
     0
100
AcDbSpline
210
0.0
220
0.0
230
1.0
 70
    11
 71
     3
 72
    71
 73
    67
 74
     0
 42
0.0000000001
 43
0.0000000001
 12
1.0
 22
0.0
 32
0.0
 13
1.0
 23
0.0
 33
0.0
 40
0.0
 40
0.0
 40
0.0
 40
0.0
 40
1.0
 40
1.0
 40
1.0
 40
2.0
 40
2.0
 40
2.0
 40
3.0
 40
3.0
 40
3.0
 40
4.0
 40
4.0
 40
4.0
 40
5.0
 40
5.0
 40
5.0
 40
6.0
 40
6.0
 40
6.0
 40
7.0
 40
7.0
 40
7.0
 40
8.0
 40
8.0
 40
8.0
 40
9.0
 40
9.0
 40
9.0
 40
10.0
 40
10.0
 40
10.0
 40
11.0
 40
11.0
 40
11.0
 40
12.0
 40
12.0
 40
12.0
 40
13.0
 40
13.0
 40
13.0
 40
14.0
 40
14.0
 40
14.0
 40
15.0
 40
15.0
 40
15.0
 40
16.0
 40
16.0
 40
16.0
 40
17.0
 40
17.0
 40
17.0
 40
18.0
 40
18.0
 40
18.0
 40
19.0
 40
19.0
 40
19.0
 40
20.0
 40
20.0
 40
20.0
 40
21.0
 40
21.0
 40
21.0
 40
22.0
 40
22.0
 40
22.0
 40
22.0
 10
90.82856443041786
 20
-117.7323486033794
 30
0.0
 10
90.81375051983129
 20
-117.7323486033794
 30
0.0
 10
90.80100366653586
 20
-117.7282144887971
 30
0.0
 10
90.77550995994501
 20
-117.7197740048583
 30
0.0
 10
90.63391653550124
 20
-117.7662827939091
 30
0.0
 10
90.46028372304465
 20
-117.7831637617869
 30
0.0
 10
90.32075735589204
 20
-117.7874701311434
 30
0.0
 10
90.32075735589204
 20
-117.7874701311434
 30
0.0
 10
90.31869029860088
 20
-117.8763535946629
 30
0.0
 10
90.31869029860088
 20
-117.8763535946629
 30
0.0
 10
90.31869029860088
 20
-117.8763535946629
 30
0.0
 10
90.57879500773726
 20
-117.8763535946629
 30
0.0
 10
90.57879500773726
 20
-117.8763535946629
 30
0.0
 10
90.6318494782101
 20
-117.8763535946629
 30
0.0
 10
90.81375051983129
 20
-117.8677408559497
 30
0.0
 10
90.858192251591
 20
-117.8615396840763
 30
0.0
 10
90.858192251591
 20
-117.8615396840763
 30
0.0
 10
90.858192251591
 20
-118.0222533884632
 30
0.0
 10
90.858192251591
 20
-118.0222533884632
 30
0.0
 10
90.80307072382702
 20
-118.0158799618155
 30
0.0
 10
90.67835826726098
 20
-118.0138129045243
 30
0.0
 10
90.6401177073747
 20
-118.0158799618155
 30
0.0
 10
90.6401177073747
 20
-118.0158799618155
 30
0.0
 10
90.6401177073747
 20
-118.1259507625692
 30
0.0
 10
90.6401177073747
 20
-118.1259507625692
 30
0.0
 10
90.6401177073747
 20
-118.1724595516201
 30
0.0
 10
90.64218476466584
 20
-118.2358493085487
 30
0.0
 10
90.64873044608782
 20
-118.2739176136607
 30
0.0
 10
90.64873044608782
 20
-118.2739176136607
 30
0.0
 10
90.45614960846235
 20
-118.2739176136607
 30
0.0
 10
90.45614960846235
 20
-118.2739176136607
 30
0.0
 10
90.46235078033581
 20
-118.2337822512575
 30
0.0
 10
90.46889646175778
 20
-118.1512722143858
 30
0.0
 10
90.46889646175778
 20
-118.1364583037992
 30
0.0
 10
90.46889646175778
 20
-118.1364583037992
 30
0.0
 10
90.46889646175778
 20
-118.0158799618155
 30
0.0
 10
90.46889646175778
 20
-118.0158799618155
 30
0.0
 10
90.46889646175778
 20
-118.0158799618155
 30
0.0
 10
90.30387638801432
 20
-118.0158799618155
 30
0.0
 10
90.30387638801432
 20
-118.0158799618155
 30
0.0
 10
90.26150171354574
 20
-118.2358493085487
 30
0.0
 10
90.20638018578174
 20
-118.3162922881293
 30
0.0
 10
90.10061575438458
 20
-118.4156832928787
 30
0.0
 10
90.10061575438458
 20
-118.4156832928787
 30
0.0
 10
89.93352862334996
 20
-118.3014783775427
 30
0.0
 10
89.93352862334996
 20
-118.3014783775427
 30
0.0
 10
89.99691838027856
 20
-118.2529025312007
 30
0.0
 10
90.14712454343544
 20
-118.1407646731558
 30
0.0
 10
90.14712454343544
 20
-117.7916042457257
 30
0.0
 10
90.14712454343544
 20
-117.709094208854
 30
0.0
 10
90.13885631427084
 20
-117.6625854198031
 30
0.0
 10
90.13024357555773
 20
-117.6140095734611
 30
0.0
 10
90.27631562413231
 20
-117.6288234840477
 30
0.0
 10
90.29112953471889
 20
-117.6288234840477
 30
0.0
 10
90.32695852776548
 20
-117.6288234840477
 30
0.0
 10
90.43513452600233
 20
-117.6288234840477
 30
0.0
 10
90.5767279504461
 20
-117.6117702613957
 30
0.0
 10
90.73761390960726
 20
-117.5504475617582
 30
0.0
 10
90.73761390960726
 20
-117.5504475617582
 30
0.0
 10
90.85164657016904
 20
-117.6817056997462
 30
0.0
 10
90.85164657016904
 20
-117.6817056997462
 30
0.0
 10
90.858192251591
 20
-117.688079126394
 30
0.0
 10
90.8623263661733
 20
-117.6965196103328
 30
0.0
 10
90.8623263661733
 20
-117.7049600942717
 30
0.0
 10
90.8623263661733
 20
-117.7282144887971
 30
0.0
 10
90.84337834100444
 20
-117.7323486033794
 30
0.0
 10
90.82856443041786
 20
-117.7323486033794
 30
0.0
  0
SPLINE
  5
9B
330
77
100
AcDbEntity
  8
_U+30EC_U+30A4_U+30E4_U+30FC 1
370
     0
100
AcDbSpline
210
0.0
220
0.0
230
1.0
 70
    11
 71
     3
 72
    74
 73
    70
 74
     0
 42
0.0000000001
 43
0.0000000001
 12
1.0
 22
0.0
 32
0.0
 13
1.0
 23
0.0
 33
0.0
 40
0.0
 40
0.0
 40
0.0
 40
0.0
 40
1.0
 40
1.0
 40
1.0
 40
2.0
 40
2.0
 40
2.0
 40
3.0
 40
3.0
 40
3.0
 40
4.0
 40
4.0
 40
4.0
 40
5.0
 40
5.0
 40
5.0
 40
6.0
 40
6.0
 40
6.0
 40
7.0
 40
7.0
 40
7.0
 40
8.0
 40
8.0
 40
8.0
 40
9.0
 40
9.0
 40
9.0
 40
10.0
 40
10.0
 40
10.0
 40
11.0
 40
11.0
 40
11.0
 40
12.0
 40
12.0
 40
12.0
 40
13.0
 40
13.0
 40
13.0
 40
14.0
 40
14.0
 40
14.0
 40
15.0
 40
15.0
 40
15.0
 40
16.0
 40
16.0
 40
16.0
 40
17.0
 40
17.0
 40
17.0
 40
18.0
 40
18.0
 40
18.0
 40
19.0
 40
19.0
 40
19.0
 40
20.0
 40
20.0
 40
20.0
 40
21.0
 40
21.0
 40
21.0
 40
22.0
 40
22.0
 40
22.0
 40
23.0
 40
23.0
 40
23.0
 40
23.0
 10
91.6660671428821
 20
-119.4988213134413
 30
0.0
 10
91.4524712227966
 20
-119.4883137722113
 30
0.0
 10
91.25162215600655
 20
-119.401497365983
 30
0.0
 10
91.0759222862588
 20
-119.2809190239992
 30
0.0
 10
91.0759222862588
 20
-119.2809190239992
 30
0.0
 10
91.17341848849138
 20
-119.1942748725452
 30
0.0
 10
91.17341848849138
 20
-119.1942748725452
 30
0.0
 10
91.17341848849138
 20
-119.1942748725452
 30
0.0
 10
90.62116968220582
 20
-119.1942748725452
 30
0.0
 10
90.62116968220582
 20
-119.1942748725452
 30
0.0
 10
90.62116968220582
 20
-119.1942748725452
 30
0.0
 10
90.70144040701214
 20
-119.2576646294738
 30
0.0
 10
90.70144040701214
 20
-119.2576646294738
 30
0.0
 10
90.70798608843413
 20
-119.2619709988303
 30
0.0
 10
90.71832137488987
 20
-119.2724785400604
 30
0.0
 10
90.71832137488987
 20
-119.2872924506469
 30
0.0
 10
90.71832137488987
 20
-119.3276000678243
 30
0.0
 10
90.644251821957
 20
-119.3212266411766
 30
0.0
 10
90.62943791137042
 20
-119.3189873291112
 30
0.0
 10
90.39896102340721
 20
-119.4586859510381
 30
0.0
 10
90.25530054167228
 20
-119.4903808295024
 30
0.0
 10
90.15160316756626
 20
-119.5072617973801
 30
0.0
 10
90.15160316756626
 20
-119.5072617973801
 30
0.0
 10
90.0224120868694
 20
-119.3296671251155
 30
0.0
 10
90.0224120868694
 20
-119.3296671251155
 30
0.0
 10
90.27011445225887
 20
-119.2979722466512
 30
0.0
 10
90.3714002595252
 20
-119.2512912028261
 30
0.0
 10
90.46028372304465
 20
-119.1984089871275
 30
0.0
 10
90.38621417011178
 20
-119.2006482991929
 30
0.0
 10
90.27218150955001
 20
-119.202715356484
 30
0.0
 10
90.24048663108572
 20
-119.2047824137752
 30
0.0
 10
90.25530054167228
 20
-119.1158989502558
 30
0.0
 10
90.25736759896344
 20
-118.9868801243331
 30
0.0
 10
90.25736759896344
 20
-118.9128105714003
 30
0.0
 10
90.25736759896344
 20
-118.9128105714003
 30
0.0
 10
90.25736759896344
 20
-118.6125704998608
 30
0.0
 10
90.25736759896344
 20
-118.6125704998608
 30
0.0
 10
90.25736759896344
 20
-118.513007240337
 30
0.0
 10
90.25082191754147
 20
-118.4136162355876
 30
0.0
 10
90.24048663108572
 20
-118.3162922881293
 30
0.0
 10
90.34177243835207
 20
-118.322665714777
 30
0.0
 10
90.5725938358638
 20
-118.3290391414247
 30
0.0
 10
90.68042532455212
 20
-118.3290391414247
 30
0.0
 10
90.68042532455212
 20
-118.3290391414247
 30
0.0
 10
91.1034830501408
 20
-118.3290391414247
 30
0.0
 10
91.1034830501408
 20
-118.3290391414247
 30
0.0
 10
91.2219943348334
 20
-118.3290391414247
 30
0.0
 10
91.26436900930197
 20
-118.3290391414247
 30
0.0
 10
91.34670679139944
 20
-118.3247327720681
 30
0.0
 10
91.49484589726518
 20
-118.3183593454204
 30
0.0
 10
91.5117268651429
 20
-118.3183593454204
 30
0.0
 10
91.55823565419378
 20
-118.3162922881293
 30
0.0
 10
91.54996742502918
 20
-118.3967352677098
 30
0.0
 10
91.54548880089835
 20
-118.5553819148056
 30
0.0
 10
91.54548880089835
 20
-118.6378919516773
 30
0.0
 10
91.54548880089835
 20
-118.6378919516773
 30
0.0
 10
91.54548880089835
 20
-118.9234903674046
 30
0.0
 10
91.54548880089835
 20
-118.9234903674046
 30
0.0
 10
91.54548880089835
 20
-118.995320608272
 30
0.0
 10
91.5475558581895
 20
-119.12657874626
 30
0.0
 10
91.55823565419378
 20
-119.2047824137752
 30
0.0
 10
91.48623315855205
 20
-119.2006482991929
 30
0.0
 10
91.36358775927717
 20
-119.1984089871275
 30
0.0
 10
91.285384091762
 20
-119.1963419298363
 30
0.0
 10
91.39528263774146
 20
-119.2640380561215
 30
0.0
 10
91.5475558581895
 20
-119.3148532145289
 30
0.0
 10
91.75942923053238
 20
-119.3189873291112
 30
0.0
 10
91.75942923053238
 20
-119.3189873291112
 30
0.0
 10
91.6660671428821
 20
-119.4988213134413
 30
0.0
 10
91.6660671428821
 20
-119.4988213134413
 30
0.0
  0
POLYLINE
  5
9C
330
77
100
AcDbEntity
  8
_U+30EC_U+30A4_U+30E4_U+30FC 1
370
     0
100
AcDb2dPolyline
 66
     1
 10
0.0
 20
0.0
 30
0.0
  0
VERTEX
  5
9D
330
9C
100
AcDbEntity
  8
_U+30EC_U+30A4_U+30E4_U+30FC 1
370
     0
100
AcDbVertex
100
AcDb2dVertex
 10
91.36152070198601
 20
-118.464431393995
 30
0.0
  0
VERTEX
  5
9E
330
9C
100
AcDbEntity
  8
_U+30EC_U+30A4_U+30E4_U+30FC 1
370
     0
100
AcDbVertex
100
AcDb2dVertex
 10
90.44960392704039
 20
-118.464431393995
 30
0.0
  0
VERTEX
  5
9F
330
9C
100
AcDbEntity
  8
_U+30EC_U+30A4_U+30E4_U+30FC 1
370
     0
100
AcDbVertex
100
AcDb2dVertex
 10
90.44960392704039
 20
-118.5765692520399
 30
0.0
  0
VERTEX
  5
A0
330
9C
100
AcDbEntity
  8
_U+30EC_U+30A4_U+30E4_U+30FC 1
370
     0
100
AcDbVertex
100
AcDb2dVertex
 10
91.36152070198601
 20
-118.5765692520399
 30
0.0
  0
VERTEX
  5
A1
330
9C
100
AcDbEntity
  8
_U+30EC_U+30A4_U+30E4_U+30FC 1
370
     0
100
AcDbVertex
100
AcDb2dVertex
 10
91.36152070198601
 20
-118.464431393995
 30
0.0
  0
SEQEND
  5
A2
330
9C
100
AcDbEntity
  8
_U+30EC_U+30A4_U+30E4_U+30FC 1
370
     0
  0
POLYLINE
  5
A3
330
77
100
AcDbEntity
  8
_U+30EC_U+30A4_U+30E4_U+30FC 1
370
     0
100
AcDb2dPolyline
 66
     1
 10
0.0
 20
0.0
 30
0.0
  0
VERTEX
  5
A4
330
A3
100
AcDbEntity
  8
_U+30EC_U+30A4_U+30E4_U+30FC 1
370
     0
100
AcDbVertex
100
AcDb2dVertex
 10
91.36152070198601
 20
-118.7097221925448
 30
0.0
  0
VERTEX
  5
A5
330
A3
100
AcDbEntity
  8
_U+30EC_U+30A4_U+30E4_U+30FC 1
370
     0
100
AcDbVertex
100
AcDb2dVertex
 10
90.44960392704039
 20
-118.7097221925448
 30
0.0
  0
VERTEX
  5
A6
330
A3
100
AcDbEntity
  8
_U+30EC_U+30A4_U+30E4_U+30FC 1
370
     0
100
AcDbVertex
100
AcDb2dVertex
 10
90.44960392704039
 20
-118.8197929932985
 30
0.0
  0
VERTEX
  5
A7
330
A3
100
AcDbEntity
  8
_U+30EC_U+30A4_U+30E4_U+30FC 1
370
     0
100
AcDbVertex
100
AcDb2dVertex
 10
91.36152070198601
 20
-118.8197929932985
 30
0.0
  0
VERTEX
  5
A8
330
A3
100
AcDbEntity
  8
_U+30EC_U+30A4_U+30E4_U+30FC 1
370
     0
100
AcDbVertex
100
AcDb2dVertex
 10
91.36152070198601
 20
-118.7097221925448
 30
0.0
  0
SEQEND
  5
A9
330
A3
100
AcDbEntity
  8
_U+30EC_U+30A4_U+30E4_U+30FC 1
370
     0
  0
POLYLINE
  5
AA
330
77
100
AcDbEntity
  8
_U+30EC_U+30A4_U+30E4_U+30FC 1
370
     0
100
AcDb2dPolyline
 66
     1
 10
0.0
 20
0.0
 30
0.0
  0
VERTEX
  5
AB
330
AA
100
AcDbEntity
  8
_U+30EC_U+30A4_U+30E4_U+30FC 1
370
     0
100
AcDbVertex
100
AcDb2dVertex
 10
91.36152070198601
 20
-118.9551852458688
 30
0.0
  0
VERTEX
  5
AC
330
AA
100
AcDbEntity
  8
_U+30EC_U+30A4_U+30E4_U+30FC 1
370
     0
100
AcDbVertex
100
AcDb2dVertex
 10
90.44960392704039
 20
-118.9551852458688
 30
0.0
  0
VERTEX
  5
AD
330
AA
100
AcDbEntity
  8
_U+30EC_U+30A4_U+30E4_U+30FC 1
370
     0
100
AcDbVertex
100
AcDb2dVertex
 10
90.44960392704039
 20
-119.0630167345572
 30
0.0
  0
VERTEX
  5
AE
330
AA
100
AcDbEntity
  8
_U+30EC_U+30A4_U+30E4_U+30FC 1
370
     0
100
AcDbVertex
100
AcDb2dVertex
 10
91.36152070198601
 20
-119.0630167345572
 30
0.0
  0
VERTEX
  5
AF
330
AA
100
AcDbEntity
  8
_U+30EC_U+30A4_U+30E4_U+30FC 1
370
     0
100
AcDbVertex
100
AcDb2dVertex
 10
91.36152070198601
 20
-118.9551852458688
 30
0.0
  0
SEQEND
  5
B0
330
AA
100
AcDbEntity
  8
_U+30EC_U+30A4_U+30E4_U+30FC 1
370
     0
  0
SPLINE
  5
B1
330
77
100
AcDbEntity
  8
_U+30EC_U+30A4_U+30E4_U+30FC 1
370
     0
100
AcDbSpline
210
0.0
220
0.0
230
1.0
 70
    11
 71
     3
 72
    74
 73
    70
 74
     0
 42
0.0000000001
 43
0.0000000001
 12
1.0
 22
0.0
 32
0.0
 13
1.0
 23
0.0
 33
0.0
 40
0.0
 40
0.0
 40
0.0
 40
0.0
 40
1.0
 40
1.0
 40
1.0
 40
2.0
 40
2.0
 40
2.0
 40
3.0
 40
3.0
 40
3.0
 40
4.0
 40
4.0
 40
4.0
 40
5.0
 40
5.0
 40
5.0
 40
6.0
 40
6.0
 40
6.0
 40
7.0
 40
7.0
 40
7.0
 40
8.0
 40
8.0
 40
8.0
 40
9.0
 40
9.0
 40
9.0
 40
10.0
 40
10.0
 40
10.0
 40
11.0
 40
11.0
 40
11.0
 40
12.0
 40
12.0
 40
12.0
 40
13.0
 40
13.0
 40
13.0
 40
14.0
 40
14.0
 40
14.0
 40
15.0
 40
15.0
 40
15.0
 40
16.0
 40
16.0
 40
16.0
 40
17.0
 40
17.0
 40
17.0
 40
18.0
 40
18.0
 40
18.0
 40
19.0
 40
19.0
 40
19.0
 40
20.0
 40
20.0
 40
20.0
 40
21.0
 40
21.0
 40
21.0
 40
22.0
 40
22.0
 40
22.0
 40
23.0
 40
23.0
 40
23.0
 40
23.0
 10
91.67881399617752
 20
-118.0117458472332
 30
0.0
 10
91.67881399617752
 20
-118.0117458472332
 30
0.0
 10
91.51827254656489
 20
-118.0117458472332
 30
0.0
 10
91.51827254656489
 20
-118.0117458472332
 30
0.0
 10
91.51827254656489
 20
-118.0117458472332
 30
0.0
 10
91.51827254656489
 20
-118.1259507625692
 30
0.0
 10
91.51827254656489
 20
-118.1259507625692
 30
0.0
 10
91.51827254656489
 20
-118.1660861249724
 30
0.0
 10
91.52447371843833
 20
-118.2401556779052
 30
0.0
 10
91.52860783302063
 20
-118.2654771297218
 30
0.0
 10
91.52860783302063
 20
-118.2654771297218
 30
0.0
 10
91.31707897022629
 20
-118.2654771297218
 30
0.0
 10
91.31707897022629
 20
-118.2654771297218
 30
0.0
 10
91.32775876623056
 20
-118.2000203155021
 30
0.0
 10
91.32982582352172
 20
-118.1407646731558
 30
0.0
 10
91.32982582352172
 20
-118.1385253610904
 30
0.0
 10
91.32982582352172
 20
-118.1385253610904
 30
0.0
 10
91.32982582352172
 20
-118.0158799618155
 30
0.0
 10
91.32982582352172
 20
-118.0158799618155
 30
0.0
 10
91.32982582352172
 20
-118.0158799618155
 30
0.0
 10
91.14999183919167
 20
-118.0158799618155
 30
0.0
 10
91.14999183919167
 20
-118.0158799618155
 30
0.0
 10
91.1310438140228
 20
-118.0751356041618
 30
0.0
 10
91.08453502497193
 20
-118.2210353979621
 30
0.0
 10
90.97015785486163
 20
-118.3035454348338
 30
0.0
 10
90.97015785486163
 20
-118.3035454348338
 30
0.0
 10
90.81375051983129
 20
-118.1977810034367
 30
0.0
 10
90.81375051983129
 20
-118.1977810034367
 30
0.0
 10
90.88782007276416
 20
-118.1512722143858
 30
0.0
 10
91.00391979061708
 20
-118.0772026614529
 30
0.0
 10
91.00391979061708
 20
-117.7557752526791
 30
0.0
 10
91.00391979061708
 20
-117.7006537249151
 30
0.0
 10
90.99978567603478
 20
-117.6562119931554
 30
0.0
 10
90.99771861874363
 20
-117.6181436880434
 30
0.0
 10
91.07385522896764
 20
-117.6265841719822
 30
0.0
 10
91.14792478190053
 20
-117.63295759863
 30
0.0
 10
91.21131453882911
 20
-117.63295759863
 30
0.0
 10
91.38908146586802
 20
-117.63295759863
 30
0.0
 10
91.58786347536693
 20
-117.5737019562837
 30
0.0
 10
91.64918617500437
 20
-117.5440741351105
 30
0.0
 10
91.64918617500437
 20
-117.5440741351105
 30
0.0
 10
91.77631019841009
 20
-117.6794663876808
 30
0.0
 10
91.77631019841009
 20
-117.6794663876808
 30
0.0
 10
91.78044431299239
 20
-117.6837727570374
 30
0.0
 10
91.78251137028354
 20
-117.6922132409763
 30
0.0
 10
91.78251137028354
 20
-117.698586667624
 30
0.0
 10
91.78251137028354
 20
-117.7197740048583
 30
0.0
 10
91.76769745969698
 20
-117.726147431506
 30
0.0
 10
91.75081649181925
 20
-117.726147431506
 30
0.0
 10
91.72980140935923
 20
-117.726147431506
 30
0.0
 10
91.71498749877264
 20
-117.7177069475671
 30
0.0
 10
91.69569496405525
 20
-117.7070271515628
 30
0.0
 10
91.52240666114719
 20
-117.764215736618
 30
0.0
 10
91.30433211693087
 20
-117.7895371884346
 30
0.0
 10
91.1710069216517
 20
-117.7916042457257
 30
0.0
 10
91.1710069216517
 20
-117.7916042457257
 30
0.0
 10
91.1668728070694
 20
-117.8741142825974
 30
0.0
 10
91.1668728070694
 20
-117.8741142825974
 30
0.0
 10
91.1668728070694
 20
-117.8741142825974
 30
0.0
 10
91.43972436950118
 20
-117.8741142825974
 30
0.0
 10
91.43972436950118
 20
-117.8741142825974
 30
0.0
 10
91.49691295455634
 20
-117.8741142825974
 30
0.0
 10
91.75942923053238
 20
-117.8551662574286
 30
0.0
 10
91.80352645274357
 20
-117.8487928307809
 30
0.0
 10
91.80352645274357
 20
-117.8487928307809
 30
0.0
 10
91.80352645274357
 20
-118.0179470191066
 30
0.0
 10
91.80352645274357
 20
-118.0179470191066
 30
0.0
 10
91.76976451698812
 20
-118.0138129045243
 30
0.0
 10
91.7570176636927
 20
-118.0117458472332
 30
0.0
 10
91.67881399617752
 20
-118.0117458472332
 30
0.0
  0
HATCH
  5
B2
330
77
100
AcDbEntity
  8
_U+30EC_U+30A4_U+30E4_U+30FC 1
 62
   179
420
  2234388
100
AcDbHatch
 10
0.0
 20
0.0
 30
0.0
210
0.0
220
0.0
230
1.0
  2
SOLID
 70
     1
 71
     0
 91
        6
 92
        1
 93
        1
 72
     4
 94
        3
 73
     0
 74
     1
 95
       71
 96
       67
 40
0.0
 40
0.0
 40
0.0
 40
0.0
 40
1.0
 40
1.0
 40
1.0
 40
2.0
 40
2.0
 40
2.0
 40
3.0
 40
3.0
 40
3.0
 40
4.0
 40
4.0
 40
4.0
 40
5.0
 40
5.0
 40
5.0
 40
6.0
 40
6.0
 40
6.0
 40
7.0
 40
7.0
 40
7.0
 40
8.0
 40
8.0
 40
8.0
 40
9.0
 40
9.0
 40
9.0
 40
10.0
 40
10.0
 40
10.0
 40
11.0
 40
11.0
 40
11.0
 40
12.0
 40
12.0
 40
12.0
 40
13.0
 40
13.0
 40
13.0
 40
14.0
 40
14.0
 40
14.0
 40
15.0
 40
15.0
 40
15.0
 40
16.0
 40
16.0
 40
16.0
 40
17.0
 40
17.0
 40
17.0
 40
18.0
 40
18.0
 40
18.0
 40
19.0
 40
19.0
 40
19.0
 40
20.0
 40
20.0
 40
20.0
 40
21.0
 40
21.0
 40
21.0
 40
22.0
 40
22.0
 40
22.0
 40
22.0
 10
90.82856443041786
 20
-117.7323486033794
 10
90.81375051983129
 20
-117.7323486033794
 10
90.80100366653586
 20
-117.7282144887971
 10
90.77550995994501
 20
-117.7197740048583
 10
90.63391653550124
 20
-117.7662827939091
 10
90.46028372304465
 20
-117.7831637617869
 10
90.32075735589204
 20
-117.7874701311434
 10
90.32075735589204
 20
-117.7874701311434
 10
90.31869029860088
 20
-117.8763535946629
 10
90.31869029860088
 20
-117.8763535946629
 10
90.31869029860088
 20
-117.8763535946629
 10
90.57879500773726
 20
-117.8763535946629
 10
90.57879500773726
 20
-117.8763535946629
 10
90.6318494782101
 20
-117.8763535946629
 10
90.81375051983129
 20
-117.8677408559497
 10
90.858192251591
 20
-117.8615396840763
 10
90.858192251591
 20
-117.8615396840763
 10
90.858192251591
 20
-118.0222533884632
 10
90.858192251591
 20
-118.0222533884632
 10
90.80307072382702
 20
-118.0158799618155
 10
90.67835826726098
 20
-118.0138129045243
 10
90.6401177073747
 20
-118.0158799618155
 10
90.6401177073747
 20
-118.0158799618155
 10
90.6401177073747
 20
-118.1259507625692
 10
90.6401177073747
 20
-118.1259507625692
 10
90.6401177073747
 20
-118.1724595516201
 10
90.64218476466584
 20
-118.2358493085487
 10
90.64873044608782
 20
-118.2739176136607
 10
90.64873044608782
 20
-118.2739176136607
 10
90.45614960846235
 20
-118.2739176136607
 10
90.45614960846235
 20
-118.2739176136607
 10
90.46235078033581
 20
-118.2337822512575
 10
90.46889646175778
 20
-118.1512722143858
 10
90.46889646175778
 20
-118.1364583037992
 10
90.46889646175778
 20
-118.1364583037992
 10
90.46889646175778
 20
-118.0158799618155
 10
90.46889646175778
 20
-118.0158799618155
 10
90.46889646175778
 20
-118.0158799618155
 10
90.30387638801432
 20
-118.0158799618155
 10
90.30387638801432
 20
-118.0158799618155
 10
90.26150171354574
 20
-118.2358493085487
 10
90.20638018578174
 20
-118.3162922881293
 10
90.10061575438458
 20
-118.4156832928787
 10
90.10061575438458
 20
-118.4156832928787
 10
89.93352862334996
 20
-118.3014783775427
 10
89.93352862334996
 20
-118.3014783775427
 10
89.99691838027856
 20
-118.2529025312007
 10
90.14712454343544
 20
-118.1407646731558
 10
90.14712454343544
 20
-117.7916042457257
 10
90.14712454343544
 20
-117.709094208854
 10
90.13885631427084
 20
-117.6625854198031
 10
90.13024357555773
 20
-117.6140095734611
 10
90.27631562413231
 20
-117.6288234840477
 10
90.29112953471889
 20
-117.6288234840477
 10
90.32695852776548
 20
-117.6288234840477
 10
90.43513452600233
 20
-117.6288234840477
 10
90.5767279504461
 20
-117.6117702613957
 10
90.73761390960726
 20
-117.5504475617582
 10
90.73761390960726
 20
-117.5504475617582
 10
90.85164657016904
 20
-117.6817056997462
 10
90.85164657016904
 20
-117.6817056997462
 10
90.858192251591
 20
-117.688079126394
 10
90.8623263661733
 20
-117.6965196103328
 10
90.8623263661733
 20
-117.7049600942717
 10
90.8623263661733
 20
-117.7282144887971
 10
90.84337834100444
 20
-117.7323486033794
 10
90.82856443041786
 20
-117.7323486033794
 97
        0
 97
        0
 92
        1
 93
        1
 72
     4
 94
        3
 73
     0
 74
     1
 95
       74
 96
       70
 40
0.0
 40
0.0
 40
0.0
 40
0.0
 40
1.0
 40
1.0
 40
1.0
 40
2.0
 40
2.0
 40
2.0
 40
3.0
 40
3.0
 40
3.0
 40
4.0
 40
4.0
 40
4.0
 40
5.0
 40
5.0
 40
5.0
 40
6.0
 40
6.0
 40
6.0
 40
7.0
 40
7.0
 40
7.0
 40
8.0
 40
8.0
 40
8.0
 40
9.0
 40
9.0
 40
9.0
 40
10.0
 40
10.0
 40
10.0
 40
11.0
 40
11.0
 40
11.0
 40
12.0
 40
12.0
 40
12.0
 40
13.0
 40
13.0
 40
13.0
 40
14.0
 40
14.0
 40
14.0
 40
15.0
 40
15.0
 40
15.0
 40
16.0
 40
16.0
 40
16.0
 40
17.0
 40
17.0
 40
17.0
 40
18.0
 40
18.0
 40
18.0
 40
19.0
 40
19.0
 40
19.0
 40
20.0
 40
20.0
 40
20.0
 40
21.0
 40
21.0
 40
21.0
 40
22.0
 40
22.0
 40
22.0
 40
23.0
 40
23.0
 40
23.0
 40
23.0
 10
91.6660671428821
 20
-119.4988213134413
 10
91.4524712227966
 20
-119.4883137722113
 10
91.25162215600655
 20
-119.401497365983
 10
91.0759222862588
 20
-119.2809190239992
 10
91.0759222862588
 20
-119.2809190239992
 10
91.17341848849138
 20
-119.1942748725452
 10
91.17341848849138
 20
-119.1942748725452
 10
91.17341848849138
 20
-119.1942748725452
 10
90.62116968220582
 20
-119.1942748725452
 10
90.62116968220582
 20
-119.1942748725452
 10
90.62116968220582
 20
-119.1942748725452
 10
90.70144040701214
 20
-119.2576646294738
 10
90.70144040701214
 20
-119.2576646294738
 10
90.70798608843413
 20
-119.2619709988303
 10
90.71832137488987
 20
-119.2724785400604
 10
90.71832137488987
 20
-119.2872924506469
 10
90.71832137488987
 20
-119.3276000678243
 10
90.644251821957
 20
-119.3212266411766
 10
90.62943791137042
 20
-119.3189873291112
 10
90.39896102340721
 20
-119.4586859510381
 10
90.25530054167228
 20
-119.4903808295024
 10
90.15160316756626
 20
-119.5072617973801
 10
90.15160316756626
 20
-119.5072617973801
 10
90.0224120868694
 20
-119.3296671251155
 10
90.0224120868694
 20
-119.3296671251155
 10
90.27011445225887
 20
-119.2979722466512
 10
90.3714002595252
 20
-119.2512912028261
 10
90.46028372304465
 20
-119.1984089871275
 10
90.38621417011178
 20
-119.2006482991929
 10
90.27218150955001
 20
-119.202715356484
 10
90.24048663108572
 20
-119.2047824137752
 10
90.25530054167228
 20
-119.1158989502558
 10
90.25736759896344
 20
-118.9868801243331
 10
90.25736759896344
 20
-118.9128105714003
 10
90.25736759896344
 20
-118.9128105714003
 10
90.25736759896344
 20
-118.6125704998608
 10
90.25736759896344
 20
-118.6125704998608
 10
90.25736759896344
 20
-118.513007240337
 10
90.25082191754147
 20
-118.4136162355876
 10
90.24048663108572
 20
-118.3162922881293
 10
90.34177243835207
 20
-118.322665714777
 10
90.5725938358638
 20
-118.3290391414247
 10
90.68042532455212
 20
-118.3290391414247
 10
90.68042532455212
 20
-118.3290391414247
 10
91.1034830501408
 20
-118.3290391414247
 10
91.1034830501408
 20
-118.3290391414247
 10
91.2219943348334
 20
-118.3290391414247
 10
91.26436900930197
 20
-118.3290391414247
 10
91.34670679139944
 20
-118.3247327720681
 10
91.49484589726518
 20
-118.3183593454204
 10
91.5117268651429
 20
-118.3183593454204
 10
91.55823565419378
 20
-118.3162922881293
 10
91.54996742502918
 20
-118.3967352677098
 10
91.54548880089835
 20
-118.5553819148056
 10
91.54548880089835
 20
-118.6378919516773
 10
91.54548880089835
 20
-118.6378919516773
 10
91.54548880089835
 20
-118.9234903674046
 10
91.54548880089835
 20
-118.9234903674046
 10
91.54548880089835
 20
-118.995320608272
 10
91.5475558581895
 20
-119.12657874626
 10
91.55823565419378
 20
-119.2047824137752
 10
91.48623315855205
 20
-119.2006482991929
 10
91.36358775927717
 20
-119.1984089871275
 10
91.285384091762
 20
-119.1963419298363
 10
91.39528263774146
 20
-119.2640380561215
 10
91.5475558581895
 20
-119.3148532145289
 10
91.75942923053238
 20
-119.3189873291112
 10
91.75942923053238
 20
-119.3189873291112
 10
91.6660671428821
 20
-119.4988213134413
 10
91.6660671428821
 20
-119.4988213134413
 97
        0
 97
        0
 92
        1
 93
        4
 72
     1
 10
91.36152070198601
 20
-118.464431393995
 11
90.44960392704039
 21
-118.464431393995
 72
     1
 10
90.44960392704039
 20
-118.464431393995
 11
90.44960392704039
 21
-118.5765692520399
 72
     1
 10
90.44960392704039
 20
-118.5765692520399
 11
91.36152070198601
 21
-118.5765692520399
 72
     1
 10
91.36152070198601
 20
-118.5765692520399
 11
91.36152070198601
 21
-118.464431393995
 97
        0
 92
        1
 93
        4
 72
     1
 10
91.36152070198601
 20
-118.7097221925448
 11
90.44960392704039
 21
-118.7097221925448
 72
     1
 10
90.44960392704039
 20
-118.7097221925448
 11
90.44960392704039
 21
-118.8197929932985
 72
     1
 10
90.44960392704039
 20
-118.8197929932985
 11
91.36152070198601
 21
-118.8197929932985
 72
     1
 10
91.36152070198601
 20
-118.8197929932985
 11
91.36152070198601
 21
-118.7097221925448
 97
        0
 92
        1
 93
        4
 72
     1
 10
91.36152070198601
 20
-118.9551852458688
 11
90.44960392704039
 21
-118.9551852458688
 72
     1
 10
90.44960392704039
 20
-118.9551852458688
 11
90.44960392704039
 21
-119.0630167345572
 72
     1
 10
90.44960392704039
 20
-119.0630167345572
 11
91.36152070198601
 21
-119.0630167345572
 72
     1
 10
91.36152070198601
 20
-119.0630167345572
 11
91.36152070198601
 21
-118.9551852458688
 97
        0
 92
        1
 93
        1
 72
     4
 94
        3
 73
     0
 74
     1
 95
       74
 96
       70
 40
0.0
 40
0.0
 40
0.0
 40
0.0
 40
1.0
 40
1.0
 40
1.0
 40
2.0
 40
2.0
 40
2.0
 40
3.0
 40
3.0
 40
3.0
 40
4.0
 40
4.0
 40
4.0
 40
5.0
 40
5.0
 40
5.0
 40
6.0
 40
6.0
 40
6.0
 40
7.0
 40
7.0
 40
7.0
 40
8.0
 40
8.0
 40
8.0
 40
9.0
 40
9.0
 40
9.0
 40
10.0
 40
10.0
 40
10.0
 40
11.0
 40
11.0
 40
11.0
 40
12.0
 40
12.0
 40
12.0
 40
13.0
 40
13.0
 40
13.0
 40
14.0
 40
14.0
 40
14.0
 40
15.0
 40
15.0
 40
15.0
 40
16.0
 40
16.0
 40
16.0
 40
17.0
 40
17.0
 40
17.0
 40
18.0
 40
18.0
 40
18.0
 40
19.0
 40
19.0
 40
19.0
 40
20.0
 40
20.0
 40
20.0
 40
21.0
 40
21.0
 40
21.0
 40
22.0
 40
22.0
 40
22.0
 40
23.0
 40
23.0
 40
23.0
 40
23.0
 10
91.67881399617752
 20
-118.0117458472332
 10
91.67881399617752
 20
-118.0117458472332
 10
91.51827254656489
 20
-118.0117458472332
 10
91.51827254656489
 20
-118.0117458472332
 10
91.51827254656489
 20
-118.0117458472332
 10
91.51827254656489
 20
-118.1259507625692
 10
91.51827254656489
 20
-118.1259507625692
 10
91.51827254656489
 20
-118.1660861249724
 10
91.52447371843833
 20
-118.2401556779052
 10
91.52860783302063
 20
-118.2654771297218
 10
91.52860783302063
 20
-118.2654771297218
 10
91.31707897022629
 20
-118.2654771297218
 10
91.31707897022629
 20
-118.2654771297218
 10
91.32775876623056
 20
-118.2000203155021
 10
91.32982582352172
 20
-118.1407646731558
 10
91.32982582352172
 20
-118.1385253610904
 10
91.32982582352172
 20
-118.1385253610904
 10
91.32982582352172
 20
-118.0158799618155
 10
91.32982582352172
 20
-118.0158799618155
 10
91.32982582352172
 20
-118.0158799618155
 10
91.14999183919167
 20
-118.0158799618155
 10
91.14999183919167
 20
-118.0158799618155
 10
91.1310438140228
 20
-118.0751356041618
 10
91.08453502497193
 20
-118.2210353979621
 10
90.97015785486163
 20
-118.3035454348338
 10
90.97015785486163
 20
-118.3035454348338
 10
90.81375051983129
 20
-118.1977810034367
 10
90.81375051983129
 20
-118.1977810034367
 10
90.88782007276416
 20
-118.1512722143858
 10
91.00391979061708
 20
-118.0772026614529
 10
91.00391979061708
 20
-117.7557752526791
 10
91.00391979061708
 20
-117.7006537249151
 10
90.99978567603478
 20
-117.6562119931554
 10
90.99771861874363
 20
-117.6181436880434
 10
91.07385522896764
 20
-117.6265841719822
 10
91.14792478190053
 20
-117.63295759863
 10
91.21131453882911
 20
-117.63295759863
 10
91.38908146586802
 20
-117.63295759863
 10
91.58786347536693
 20
-117.5737019562837
 10
91.64918617500437
 20
-117.5440741351105
 10
91.64918617500437
 20
-117.5440741351105
 10
91.77631019841009
 20
-117.6794663876808
 10
91.77631019841009
 20
-117.6794663876808
 10
91.78044431299239
 20
-117.6837727570374
 10
91.78251137028354
 20
-117.6922132409763
 10
91.78251137028354
 20
-117.698586667624
 10
91.78251137028354
 20
-117.7197740048583
 10
91.76769745969698
 20
-117.726147431506
 10
91.75081649181925
 20
-117.726147431506
 10
91.72980140935923
 20
-117.726147431506
 10
91.71498749877264
 20
-117.7177069475671
 10
91.69569496405525
 20
-117.7070271515628
 10
91.52240666114719
 20
-117.764215736618
 10
91.30433211693087
 20
-117.7895371884346
 10
91.1710069216517
 20
-117.7916042457257
 10
91.1710069216517
 20
-117.7916042457257
 10
91.1668728070694
 20
-117.8741142825974
 10
91.1668728070694
 20
-117.8741142825974
 10
91.1668728070694
 20
-117.8741142825974
 10
91.43972436950118
 20
-117.8741142825974
 10
91.43972436950118
 20
-117.8741142825974
 10
91.49691295455634
 20
-117.8741142825974
 10
91.75942923053238
 20
-117.8551662574286
 10
91.80352645274357
 20
-117.8487928307809
 10
91.80352645274357
 20
-117.8487928307809
 10
91.80352645274357
 20
-118.0179470191066
 10
91.80352645274357
 20
-118.0179470191066
 10
91.76976451698812
 20
-118.0138129045243
 10
91.7570176636927
 20
-118.0117458472332
 10
91.67881399617752
 20
-118.0117458472332
 97
        0
 97
        0
 75
     2
 76
     1
 98
        0
  0
SPLINE
  5
B3
330
77
100
AcDbEntity
  8
_U+30EC_U+30A4_U+30E4_U+30FC 1
370
     0
100
AcDbSpline
210
0.0
220
0.0
230
1.0
 70
    11
 71
     3
 72
    53
 73
    49
 74
     0
 42
0.0000000001
 43
0.0000000001
 12
1.0
 22
0.0
 32
0.0
 13
1.0
 23
0.0
 33
0.0
 40
0.0
 40
0.0
 40
0.0
 40
0.0
 40
1.0
 40
1.0
 40
1.0
 40
2.0
 40
2.0
 40
2.0
 40
3.0
 40
3.0
 40
3.0
 40
4.0
 40
4.0
 40
4.0
 40
5.0
 40
5.0
 40
5.0
 40
6.0
 40
6.0
 40
6.0
 40
7.0
 40
7.0
 40
7.0
 40
8.0
 40
8.0
 40
8.0
 40
9.0
 40
9.0
 40
9.0
 40
10.0
 40
10.0
 40
10.0
 40
11.0
 40
11.0
 40
11.0
 40
12.0
 40
12.0
 40
12.0
 40
13.0
 40
13.0
 40
13.0
 40
14.0
 40
14.0
 40
14.0
 40
15.0
 40
15.0
 40
15.0
 40
16.0
 40
16.0
 40
16.0
 40
16.0
 10
93.13229978140443
 20
-119.3741088568752
 30
0.0
 10
92.94213051061864
 20
-119.3741088568752
 30
0.0
 10
92.88287486827234
 20
-119.2492241455349
 30
0.0
 10
92.88287486827234
 20
-119.1010850396692
 30
0.0
 10
92.88287486827234
 20
-119.1010850396692
 30
0.0
 10
92.88287486827234
 20
-118.4072428089399
 30
0.0
 10
92.88287486827234
 20
-118.4072428089399
 30
0.0
 10
92.88287486827234
 20
-118.4072428089399
 30
0.0
 10
92.70097382665115
 20
-118.4072428089399
 30
0.0
 10
92.70097382665115
 20
-118.4072428089399
 30
0.0
 10
92.70097382665115
 20
-118.4072428089399
 30
0.0
 10
92.70097382665115
 20
-118.2148342260887
 30
0.0
 10
92.70097382665115
 20
-118.2148342260887
 30
0.0
 10
92.70097382665115
 20
-118.2148342260887
 30
0.0
 10
92.88287486827234
 20
-118.2148342260887
 30
0.0
 10
92.88287486827234
 20
-118.2148342260887
 30
0.0
 10
92.88287486827234
 20
-118.2148342260887
 30
0.0
 10
92.88287486827234
 20
-117.8996079891883
 30
0.0
 10
92.88287486827234
 20
-117.8996079891883
 30
0.0
 10
92.88287486827234
 20
-117.8996079891883
 30
0.0
 10
93.10060490294013
 20
-117.8996079891883
 30
0.0
 10
93.10060490294013
 20
-117.8996079891883
 30
0.0
 10
93.10060490294013
 20
-117.8996079891883
 30
0.0
 10
93.10060490294013
 20
-118.2148342260887
 30
0.0
 10
93.10060490294013
 20
-118.2148342260887
 30
0.0
 10
93.10060490294013
 20
-118.2148342260887
 30
0.0
 10
93.29111868327445
 20
-118.2148342260887
 30
0.0
 10
93.29111868327445
 20
-118.2148342260887
 30
0.0
 10
93.29111868327445
 20
-118.2148342260887
 30
0.0
 10
93.29111868327445
 20
-118.4072428089399
 30
0.0
 10
93.29111868327445
 20
-118.4072428089399
 30
0.0
 10
93.29111868327445
 20
-118.4072428089399
 30
0.0
 10
93.10060490294013
 20
-118.4072428089399
 30
0.0
 10
93.10060490294013
 20
-118.4072428089399
 30
0.0
 10
93.10060490294013
 20
-118.4072428089399
 30
0.0
 10
93.10060490294013
 20
-119.0757635878526
 30
0.0
 10
93.10060490294013
 20
-119.0757635878526
 30
0.0
 10
93.10060490294013
 20
-119.1603406820155
 30
0.0
 10
93.15365937341298
 20
-119.1835950765409
 30
0.0
 10
93.22531735950618
 20
-119.1835950765409
 30
0.0
 10
93.23599715551045
 20
-119.1835950765409
 30
0.0
 10
93.25942380481015
 20
-119.1835950765409
 30
0.0
 10
93.29111868327445
 20
-119.1794609619586
 30
0.0
 10
93.29111868327445
 20
-119.1794609619586
 30
0.0
 10
93.29111868327445
 20
-119.3508544623498
 30
0.0
 10
93.29111868327445
 20
-119.3508544623498
 30
0.0
 10
93.257356747519
 20
-119.363429060871
 30
0.0
 10
93.18328719458613
 20
-119.3741088568752
 30
0.0
 10
93.13229978140443
 20
-119.3741088568752
 30
0.0
  0
HATCH
  5
B4
330
77
100
AcDbEntity
  8
_U+30EC_U+30A4_U+30E4_U+30FC 1
 62
   179
420
  2234388
100
AcDbHatch
 10
0.0
 20
0.0
 30
0.0
210
0.0
220
0.0
230
1.0
  2
SOLID
 70
     1
 71
     0
 91
        1
 92
        1
 93
        1
 72
     4
 94
        3
 73
     0
 74
     1
 95
       53
 96
       49
 40
0.0
 40
0.0
 40
0.0
 40
0.0
 40
1.0
 40
1.0
 40
1.0
 40
2.0
 40
2.0
 40
2.0
 40
3.0
 40
3.0
 40
3.0
 40
4.0
 40
4.0
 40
4.0
 40
5.0
 40
5.0
 40
5.0
 40
6.0
 40
6.0
 40
6.0
 40
7.0
 40
7.0
 40
7.0
 40
8.0
 40
8.0
 40
8.0
 40
9.0
 40
9.0
 40
9.0
 40
10.0
 40
10.0
 40
10.0
 40
11.0
 40
11.0
 40
11.0
 40
12.0
 40
12.0
 40
12.0
 40
13.0
 40
13.0
 40
13.0
 40
14.0
 40
14.0
 40
14.0
 40
15.0
 40
15.0
 40
15.0
 40
16.0
 40
16.0
 40
16.0
 40
16.0
 10
93.13229978140443
 20
-119.3741088568752
 10
92.94213051061864
 20
-119.3741088568752
 10
92.88287486827234
 20
-119.2492241455349
 10
92.88287486827234
 20
-119.1010850396692
 10
92.88287486827234
 20
-119.1010850396692
 10
92.88287486827234
 20
-118.4072428089399
 10
92.88287486827234
 20
-118.4072428089399
 10
92.88287486827234
 20
-118.4072428089399
 10
92.70097382665115
 20
-118.4072428089399
 10
92.70097382665115
 20
-118.4072428089399
 10
92.70097382665115
 20
-118.4072428089399
 10
92.70097382665115
 20
-118.2148342260887
 10
92.70097382665115
 20
-118.2148342260887
 10
92.70097382665115
 20
-118.2148342260887
 10
92.88287486827234
 20
-118.2148342260887
 10
92.88287486827234
 20
-118.2148342260887
 10
92.88287486827234
 20
-118.2148342260887
 10
92.88287486827234
 20
-117.8996079891883
 10
92.88287486827234
 20
-117.8996079891883
 10
92.88287486827234
 20
-117.8996079891883
 10
93.10060490294013
 20
-117.8996079891883
 10
93.10060490294013
 20
-117.8996079891883
 10
93.10060490294013
 20
-117.8996079891883
 10
93.10060490294013
 20
-118.2148342260887
 10
93.10060490294013
 20
-118.2148342260887
 10
93.10060490294013
 20
-118.2148342260887
 10
93.29111868327445
 20
-118.2148342260887
 10
93.29111868327445
 20
-118.2148342260887
 10
93.29111868327445
 20
-118.2148342260887
 10
93.29111868327445
 20
-118.4072428089399
 10
93.29111868327445
 20
-118.4072428089399
 10
93.29111868327445
 20
-118.4072428089399
 10
93.10060490294013
 20
-118.4072428089399
 10
93.10060490294013
 20
-118.4072428089399
 10
93.10060490294013
 20
-118.4072428089399
 10
93.10060490294013
 20
-119.0757635878526
 10
93.10060490294013
 20
-119.0757635878526
 10
93.10060490294013
 20
-119.1603406820155
 10
93.15365937341298
 20
-119.1835950765409
 10
93.22531735950618
 20
-119.1835950765409
 10
93.23599715551045
 20
-119.1835950765409
 10
93.25942380481015
 20
-119.1835950765409
 10
93.29111868327445
 20
-119.1794609619586
 10
93.29111868327445
 20
-119.1794609619586
 10
93.29111868327445
 20
-119.3508544623498
 10
93.29111868327445
 20
-119.3508544623498
 10
93.257356747519
 20
-119.363429060871
 10
93.18328719458613
 20
-119.3741088568752
 10
93.13229978140443
 20
-119.3741088568752
 97
        0
 97
        0
 75
     2
 76
     1
 98
        0
  0
POLYLINE
  5
B5
330
77
100
AcDbEntity
  8
_U+30EC_U+30A4_U+30E4_U+30FC 1
370
     0
100
AcDb2dPolyline
 66
     1
 10
0.0
 20
0.0
 30
0.0
  0
VERTEX
  5
B6
330
B5
100
AcDbEntity
  8
_U+30EC_U+30A4_U+30E4_U+30FC 1
370
     0
100
AcDbVertex
100
AcDb2dVertex
 10
93.50368107471436
 20
-118.436870630113
 30
0.0
  0
VERTEX
  5
B7
330
B5
100
AcDbEntity
  8
_U+30EC_U+30A4_U+30E4_U+30FC 1
370
     0
100
AcDbVertex
100
AcDb2dVertex
 10
93.50368107471436
 20
-118.2317151939664
 30
0.0
  0
VERTEX
  5
B8
330
B5
100
AcDbEntity
  8
_U+30EC_U+30A4_U+30E4_U+30FC 1
370
     0
100
AcDbVertex
100
AcDb2dVertex
 10
94.6819037306698
 20
-118.2317151939664
 30
0.0
  0
VERTEX
  5
B9
330
B5
100
AcDbEntity
  8
_U+30EC_U+30A4_U+30E4_U+30FC 1
370
     0
100
AcDbVertex
100
AcDb2dVertex
 10
94.6819037306698
 20
-118.436870630113
 30
0.0
  0
VERTEX
  5
BA
330
B5
100
AcDbEntity
  8
_U+30EC_U+30A4_U+30E4_U+30FC 1
370
     0
100
AcDbVertex
100
AcDb2dVertex
 10
93.50368107471436
 20
-118.436870630113
 30
0.0
  0
SEQEND
  5
BB
330
B5
100
AcDbEntity
  8
_U+30EC_U+30A4_U+30E4_U+30FC 1
370
     0
  0
POLYLINE
  5
BC
330
77
100
AcDbEntity
  8
_U+30EC_U+30A4_U+30E4_U+30FC 1
370
     0
100
AcDb2dPolyline
 66
     1
 10
0.0
 20
0.0
 30
0.0
  0
VERTEX
  5
BD
330
BC
100
AcDbEntity
  8
_U+30EC_U+30A4_U+30E4_U+30FC 1
370
     0
100
AcDbVertex
100
AcDb2dVertex
 10
93.50368107471436
 20
-118.870608151706
 30
0.0
  0
VERTEX
  5
BE
330
BC
100
AcDbEntity
  8
_U+30EC_U+30A4_U+30E4_U+30FC 1
370
     0
100
AcDbVertex
100
AcDb2dVertex
 10
93.50368107471436
 20
-118.6654527155593
 30
0.0
  0
VERTEX
  5
BF
330
BC
100
AcDbEntity
  8
_U+30EC_U+30A4_U+30E4_U+30FC 1
370
     0
100
AcDbVertex
100
AcDb2dVertex
 10
94.6819037306698
 20
-118.6654527155593
 30
0.0
  0
VERTEX
  5
C0
330
BC
100
AcDbEntity
  8
_U+30EC_U+30A4_U+30E4_U+30FC 1
370
     0
100
AcDbVertex
100
AcDb2dVertex
 10
94.6819037306698
 20
-118.870608151706
 30
0.0
  0
VERTEX
  5
C1
330
BC
100
AcDbEntity
  8
_U+30EC_U+30A4_U+30E4_U+30FC 1
370
     0
100
AcDbVertex
100
AcDb2dVertex
 10
93.50368107471436
 20
-118.870608151706
 30
0.0
  0
SEQEND
  5
C2
330
BC
100
AcDbEntity
  8
_U+30EC_U+30A4_U+30E4_U+30FC 1
370
     0
  0
HATCH
  5
C3
330
77
100
AcDbEntity
  8
_U+30EC_U+30A4_U+30E4_U+30FC 1
 62
   179
420
  2234388
100
AcDbHatch
 10
0.0
 20
0.0
 30
0.0
210
0.0
220
0.0
230
1.0
  2
SOLID
 70
     1
 71
     0
 91
        2
 92
        1
 93
        4
 72
     1
 10
93.50368107471436
 20
-118.436870630113
 11
93.50368107471436
 21
-118.2317151939664
 72
     1
 10
93.50368107471436
 20
-118.2317151939664
 11
94.6819037306698
 21
-118.2317151939664
 72
     1
 10
94.6819037306698
 20
-118.2317151939664
 11
94.6819037306698
 21
-118.436870630113
 72
     1
 10
94.6819037306698
 20
-118.436870630113
 11
93.50368107471436
 21
-118.436870630113
 97
        0
 92
        1
 93
        4
 72
     1
 10
93.50368107471436
 20
-118.870608151706
 11
93.50368107471436
 21
-118.6654527155593
 72
     1
 10
93.50368107471436
 20
-118.6654527155593
 11
94.6819037306698
 21
-118.6654527155593
 72
     1
 10
94.6819037306698
 20
-118.6654527155593
 11
94.6819037306698
 21
-118.870608151706
 72
     1
 10
94.6819037306698
 20
-118.870608151706
 11
93.50368107471436
 21
-118.870608151706
 97
        0
 75
     2
 76
     1
 98
        0
  0
SPLINE
  5
C4
330
77
100
AcDbEntity
  8
_U+30EC_U+30A4_U+30E4_U+30FC 1
370
     0
100
AcDbSpline
210
0.0
220
0.0
230
1.0
 70
    11
 71
     3
 72
    26
 73
    22
 74
     0
 42
0.0000000001
 43
0.0000000001
 12
1.0
 22
0.0
 32
0.0
 13
1.0
 23
0.0
 33
0.0
 40
0.0
 40
0.0
 40
0.0
 40
0.0
 40
1.0
 40
1.0
 40
1.0
 40
2.0
 40
2.0
 40
2.0
 40
3.0
 40
3.0
 40
3.0
 40
4.0
 40
4.0
 40
4.0
 40
5.0
 40
5.0
 40
5.0
 40
6.0
 40
6.0
 40
6.0
 40
7.0
 40
7.0
 40
7.0
 40
7.0
 10
95.3189018858925
 20
-119.3232936984678
 30
0.0
 10
95.3189018858925
 20
-119.3232936984678
 30
0.0
 10
95.3189018858925
 20
-118.218968340671
 30
0.0
 10
95.3189018858925
 20
-118.218968340671
 30
0.0
 10
95.3189018858925
 20
-118.218968340671
 30
0.0
 10
94.98886173840556
 20
-118.218968340671
 30
0.0
 10
94.98886173840556
 20
-118.218968340671
 30
0.0
 10
94.98886173840556
 20
-118.218968340671
 30
0.0
 10
94.98886173840556
 20
-118.0710014895795
 30
0.0
 10
94.98886173840556
 20
-118.0710014895795
 30
0.0
 10
95.32096894318366
 20
-118.0561875789929
 30
0.0
 10
95.36747773223452
 20
-117.8932345625406
 30
0.0
 10
95.39710555340767
 20
-117.7790296472046
 30
0.0
 10
95.39710555340767
 20
-117.7790296472046
 30
0.0
 10
95.54317760198226
 20
-117.7790296472046
 30
0.0
 10
95.54317760198226
 20
-117.7790296472046
 30
0.0
 10
95.54317760198226
 20
-117.7790296472046
 30
0.0
 10
95.54317760198226
 20
-119.3232936984678
 30
0.0
 10
95.54317760198226
 20
-119.3232936984678
 30
0.0
 10
95.54317760198226
 20
-119.3232936984678
 30
0.0
 10
95.3189018858925
 20
-119.3232936984678
 30
0.0
 10
95.3189018858925
 20
-119.3232936984678
 30
0.0
  0
HATCH
  5
C5
330
77
100
AcDbEntity
  8
_U+30EC_U+30A4_U+30E4_U+30FC 1
 62
   179
420
  2234388
100
AcDbHatch
 10
0.0
 20
0.0
 30
0.0
210
0.0
220
0.0
230
1.0
  2
SOLID
 70
     1
 71
     0
 91
        1
 92
        1
 93
        1
 72
     4
 94
        3
 73
     0
 74
     1
 95
       26
 96
       22
 40
0.0
 40
0.0
 40
0.0
 40
0.0
 40
1.0
 40
1.0
 40
1.0
 40
2.0
 40
2.0
 40
2.0
 40
3.0
 40
3.0
 40
3.0
 40
4.0
 40
4.0
 40
4.0
 40
5.0
 40
5.0
 40
5.0
 40
6.0
 40
6.0
 40
6.0
 40
7.0
 40
7.0
 40
7.0
 40
7.0
 10
95.3189018858925
 20
-119.3232936984678
 10
95.3189018858925
 20
-119.3232936984678
 10
95.3189018858925
 20
-118.218968340671
 10
95.3189018858925
 20
-118.218968340671
 10
95.3189018858925
 20
-118.218968340671
 10
94.98886173840556
 20
-118.218968340671
 10
94.98886173840556
 20
-118.218968340671
 10
94.98886173840556
 20
-118.218968340671
 10
94.98886173840556
 20
-118.0710014895795
 10
94.98886173840556
 20
-118.0710014895795
 10
95.32096894318366
 20
-118.0561875789929
 10
95.36747773223452
 20
-117.8932345625406
 10
95.39710555340767
 20
-117.7790296472046
 10
95.39710555340767
 20
-117.7790296472046
 10
95.54317760198226
 20
-117.7790296472046
 10
95.54317760198226
 20
-117.7790296472046
 10
95.54317760198226
 20
-117.7790296472046
 10
95.54317760198226
 20
-119.3232936984678
 10
95.54317760198226
 20
-119.3232936984678
 10
95.54317760198226
 20
-119.3232936984678
 10
95.3189018858925
 20
-119.3232936984678
 10
95.3189018858925
 20
-119.3232936984678
 97
        0
 97
        0
 75
     2
 76
     1
 98
        0
  0
POLYLINE
  5
C6
330
77
100
AcDbEntity
  8
_U+30EC_U+30A4_U+30E4_U+30FC 1
370
     0
100
AcDb2dPolyline
 66
     1
 10
0.0
 20
0.0
 30
0.0
  0
VERTEX
  5
C7
330
C6
100
AcDbEntity
  8
_U+30EC_U+30A4_U+30E4_U+30FC 1
370
     0
100
AcDbVertex
100
AcDb2dVertex
 10
95.98587237183688
 20
-119.3232936984678
 30
0.0
  0
VERTEX
  5
C8
330
C6
100
AcDbEntity
  8
_U+30EC_U+30A4_U+30E4_U+30FC 1
370
     0
100
AcDbVertex
100
AcDb2dVertex
 10
95.98587237183688
 20
-119.0716294732703
 30
0.0
  0
VERTEX
  5
C9
330
C6
100
AcDbEntity
  8
_U+30EC_U+30A4_U+30E4_U+30FC 1
370
     0
100
AcDbVertex
100
AcDb2dVertex
 10
96.23770885180863
 20
-119.0716294732703
 30
0.0
  0
VERTEX
  5
CA
330
C6
100
AcDbEntity
  8
_U+30EC_U+30A4_U+30E4_U+30FC 1
370
     0
100
AcDbVertex
100
AcDb2dVertex
 10
96.23770885180863
 20
-119.3232936984678
 30
0.0
  0
VERTEX
  5
CB
330
C6
100
AcDbEntity
  8
_U+30EC_U+30A4_U+30E4_U+30FC 1
370
     0
100
AcDbVertex
100
AcDb2dVertex
 10
95.98587237183688
 20
-119.3232936984678
 30
0.0
  0
SEQEND
  5
CC
330
C6
100
AcDbEntity
  8
_U+30EC_U+30A4_U+30E4_U+30FC 1
370
     0
  0
HATCH
  5
CD
330
77
100
AcDbEntity
  8
_U+30EC_U+30A4_U+30E4_U+30FC 1
 62
   179
420
  2234388
100
AcDbHatch
 10
0.0
 20
0.0
 30
0.0
210
0.0
220
0.0
230
1.0
  2
SOLID
 70
     1
 71
     0
 91
        1
 92
        1
 93
        4
 72
     1
 10
95.98587237183688
 20
-119.3232936984678
 11
95.98587237183688
 21
-119.0716294732703
 72
     1
 10
95.98587237183688
 20
-119.0716294732703
 11
96.23770885180863
 21
-119.0716294732703
 72
     1
 10
96.23770885180863
 20
-119.0716294732703
 11
96.23770885180863
 21
-119.3232936984678
 72
     1
 10
96.23770885180863
 20
-119.3232936984678
 11
95.98587237183688
 21
-119.3232936984678
 97
        0
 75
     2
 76
     1
 98
        0
  0
SPLINE
  5
CE
330
77
100
AcDbEntity
  8
_U+30EC_U+30A4_U+30E4_U+30FC 1
370
     0
100
AcDbSpline
210
0.0
220
0.0
230
1.0
 70
    11
 71
     3
 72
    29
 73
    25
 74
     0
 42
0.0000000001
 43
0.0000000001
 12
1.0
 22
0.0
 32
0.0
 13
1.0
 23
0.0
 33
0.0
 40
0.0
 40
0.0
 40
0.0
 40
0.0
 40
1.0
 40
1.0
 40
1.0
 40
2.0
 40
2.0
 40
2.0
 40
3.0
 40
3.0
 40
3.0
 40
4.0
 40
4.0
 40
4.0
 40
5.0
 40
5.0
 40
5.0
 40
6.0
 40
6.0
 40
6.0
 40
7.0
 40
7.0
 40
7.0
 40
8.0
 40
8.0
 40
8.0
 40
8.0
 10
97.5292751492288
 20
-119.1455267714289
 30
0.0
 10
97.42109915099195
 20
-119.3549885769321
 30
0.0
 10
97.24781084808389
 20
-119.3741088568752
 30
0.0
 10
97.13136662068244
 20
-119.3741088568752
 30
0.0
 10
96.97048066152128
 20
-119.3741088568752
 30
0.0
 10
96.82888723707751
 20
-119.3276000678243
 30
0.0
 10
96.73380260168462
 20
-119.1455267714289
 30
0.0
 10
96.63010522757858
 20
-118.9508788765123
 30
0.0
 10
96.61081269286119
 20
-118.7140285619014
 30
0.0
 10
96.61081269286119
 20
-118.551075545449
 30
0.0
 10
96.61081269286119
 20
-118.4072428089399
 30
0.0
 10
96.62803817028744
 20
-118.1555785837424
 30
0.0
 10
96.73380260168462
 20
-117.9566243194692
 30
0.0
 10
96.84163409037293
 20
-117.7535359406137
 30
0.0
 10
97.0025200495341
 20
-117.7302815460883
 30
0.0
 10
97.13136662068244
 20
-117.7302815460883
 30
0.0
 10
97.29018552255246
 20
-117.7302815460883
 30
0.0
 10
97.43384600428737
 20
-117.774723277848
 30
0.0
 10
97.5292751492288
 20
-117.9566243194692
 30
0.0
 10
97.62849389920399
 20
-118.1492051570946
 30
0.0
 10
97.6519205485037
 20
-118.3776149877667
 30
0.0
 10
97.6519205485037
 20
-118.551075545449
 30
0.0
 10
97.6519205485037
 20
-118.7224690458402
 30
0.0
 10
97.63056095649515
 20
-118.9531181885777
 30
0.0
 10
97.5292751492288
 20
-119.1455267714289
 30
0.0
  0
SPLINE
  5
CF
330
77
100
AcDbEntity
  8
_U+30EC_U+30A4_U+30E4_U+30FC 1
370
     0
100
AcDbSpline
210
0.0
220
0.0
230
1.0
 70
    11
 71
     3
 72
    17
 73
    13
 74
     0
 42
0.0000000001
 43
0.0000000001
 12
1.0
 22
0.0
 32
0.0
 13
1.0
 23
0.0
 33
0.0
 40
0.0
 40
0.0
 40
0.0
 40
0.0
 40
1.0
 40
1.0
 40
1.0
 40
2.0
 40
2.0
 40
2.0
 40
3.0
 40
3.0
 40
3.0
 40
4.0
 40
4.0
 40
4.0
 40
4.0
 10
97.13136662068244
 20
-117.9228623837137
 30
0.0
 10
96.88159719800183
 20
-117.9228623837137
 30
0.0
 10
96.83508840895095
 20
-118.2063937421498
 30
0.0
 10
96.83508840895095
 20
-118.551075545449
 30
0.0
 10
96.83508840895095
 20
-118.870608151706
 30
0.0
 10
96.87126191154607
 20
-119.1794609619586
 30
0.0
 10
97.13136662068244
 20
-119.1794609619586
 30
0.0
 10
97.3790689860719
 20
-119.1794609619586
 30
0.0
 10
97.42764483241393
 20
-118.8979966608137
 30
0.0
 10
97.42764483241393
 20
-118.551075545449
 30
0.0
 10
97.42764483241393
 20
-118.2317151939664
 30
0.0
 10
97.38940427252766
 20
-117.9228623837137
 30
0.0
 10
97.13136662068244
 20
-117.9228623837137
 30
0.0
  0
HATCH
  5
D0
330
77
100
AcDbEntity
  8
_U+30EC_U+30A4_U+30E4_U+30FC 1
 62
   179
420
  2234388
100
AcDbHatch
 10
0.0
 20
0.0
 30
0.0
210
0.0
220
0.0
230
1.0
  2
SOLID
 70
     1
 71
     0
 91
        2
 92
        1
 93
        1
 72
     4
 94
        3
 73
     0
 74
     1
 95
       29
 96
       25
 40
0.0
 40
0.0
 40
0.0
 40
0.0
 40
1.0
 40
1.0
 40
1.0
 40
2.0
 40
2.0
 40
2.0
 40
3.0
 40
3.0
 40
3.0
 40
4.0
 40
4.0
 40
4.0
 40
5.0
 40
5.0
 40
5.0
 40
6.0
 40
6.0
 40
6.0
 40
7.0
 40
7.0
 40
7.0
 40
8.0
 40
8.0
 40
8.0
 40
8.0
 10
97.5292751492288
 20
-119.1455267714289
 10
97.42109915099195
 20
-119.3549885769321
 10
97.24781084808389
 20
-119.3741088568752
 10
97.13136662068244
 20
-119.3741088568752
 10
96.97048066152128
 20
-119.3741088568752
 10
96.82888723707751
 20
-119.3276000678243
 10
96.73380260168462
 20
-119.1455267714289
 10
96.63010522757858
 20
-118.9508788765123
 10
96.61081269286119
 20
-118.7140285619014
 10
96.61081269286119
 20
-118.551075545449
 10
96.61081269286119
 20
-118.4072428089399
 10
96.62803817028744
 20
-118.1555785837424
 10
96.73380260168462
 20
-117.9566243194692
 10
96.84163409037293
 20
-117.7535359406137
 10
97.0025200495341
 20
-117.7302815460883
 10
97.13136662068244
 20
-117.7302815460883
 10
97.29018552255246
 20
-117.7302815460883
 10
97.43384600428737
 20
-117.774723277848
 10
97.5292751492288
 20
-117.9566243194692
 10
97.62849389920399
 20
-118.1492051570946
 10
97.6519205485037
 20
-118.3776149877667
 10
97.6519205485037
 20
-118.551075545449
 10
97.6519205485037
 20
-118.7224690458402
 10
97.63056095649515
 20
-118.9531181885777
 10
97.5292751492288
 20
-119.1455267714289
 97
        0
 97
        0
 92
        1
 93
        1
 72
     4
 94
        3
 73
     0
 74
     1
 95
       17
 96
       13
 40
0.0
 40
0.0
 40
0.0
 40
0.0
 40
1.0
 40
1.0
 40
1.0
 40
2.0
 40
2.0
 40
2.0
 40
3.0
 40
3.0
 40
3.0
 40
4.0
 40
4.0
 40
4.0
 40
4.0
 10
97.13136662068244
 20
-117.9228623837137
 10
96.88159719800183
 20
-117.9228623837137
 10
96.83508840895095
 20
-118.2063937421498
 10
96.83508840895095
 20
-118.551075545449
 10
96.83508840895095
 20
-118.870608151706
 10
96.87126191154607
 20
-119.1794609619586
 10
97.13136662068244
 20
-119.1794609619586
 10
97.3790689860719
 20
-119.1794609619586
 10
97.42764483241393
 20
-118.8979966608137
 10
97.42764483241393
 20
-118.551075545449
 10
97.42764483241393
 20
-118.2317151939664
 10
97.38940427252766
 20
-117.9228623837137
 10
97.13136662068244
 20
-117.9228623837137
 97
        0
 97
        0
 75
     2
 76
     1
 98
        0
  0
ENDBLK
  5
7A
330
77
100
AcDbEntity
  8
0
100
AcDbBlockEnd
  0
BLOCK
  5
DF
330
DD
100
AcDbEntity
  8
0
100
AcDbBlockBegin
  2
block 4
 70
     0
 10
0.0
 20
0.0
 30
0.0
  3
block 4
  1

  0
POLYLINE
  5
E1
330
DD
100
AcDbEntity
  8
_U+30EC_U+30A4_U+30E4_U+30FC 1
370
     0
100
AcDb2dPolyline
 66
     1
 10
0.0
 20
0.0
 30
0.0
  0
VERTEX
  5
E2
330
E1
100
AcDbEntity
  8
_U+30EC_U+30A4_U+30E4_U+30FC 1
370
     0
100
AcDbVertex
100
AcDb2dVertex
 10
112.4410264475842
 20
-128.2581488394632
 30
0.0
  0
VERTEX
  5
E3
330
E1
100
AcDbEntity
  8
_U+30EC_U+30A4_U+30E4_U+30FC 1
370
     0
100
AcDbVertex
100
AcDb2dVertex
 10
112.3338839779929
 20
-128.5881889869502
 30
0.0
  0
VERTEX
  5
E4
330
E1
100
AcDbEntity
  8
_U+30EC_U+30A4_U+30E4_U+30FC 1
370
     0
100
AcDbVertex
100
AcDb2dVertex
 10
112.1268337393294
 20
-128.5210096249878
 30
0.0
  0
VERTEX
  5
E5
330
E1
100
AcDbEntity
  8
_U+30EC_U+30A4_U+30E4_U+30FC 1
370
     0
100
AcDbVertex
100
AcDb2dVertex
 10
112.2339762089207
 20
-128.1909694775009
 30
0.0
  0
VERTEX
  5
E6
330
E1
100
AcDbEntity
  8
_U+30EC_U+30A4_U+30E4_U+30FC 1
370
     0
100
AcDbVertex
100
AcDb2dVertex
 10
111.6100694165419
 20
-127.9883978629682
 30
0.0
  0
VERTEX
  5
E7
330
E1
100
AcDbEntity
  8
_U+30EC_U+30A4_U+30E4_U+30FC 1
370
     0
100
AcDbVertex
100
AcDb2dVertex
 10
111.6793158357954
 20
-127.7748019428827
 30
0.0
  0
VERTEX
  5
E8
330
E1
100
AcDbEntity
  8
_U+30EC_U+30A4_U+30E4_U+30FC 1
370
     0
100
AcDbVertex
100
AcDb2dVertex
 10
112.6260280751421
 20
-127.0592556105963
 30
0.0
  0
VERTEX
  5
E9
330
E1
100
AcDbEntity
  8
_U+30EC_U+30A4_U+30E4_U+30FC 1
370
     0
100
AcDbVertex
100
AcDb2dVertex
 10
112.8110297027
 20
-127.1195447815882
 30
0.0
  0
VERTEX
  5
EA
330
E1
100
AcDbEntity
  8
_U+30EC_U+30A4_U+30E4_U+30FC 1
370
     0
100
AcDbVertex
100
AcDb2dVertex
 10
112.5023491472216
 20
-128.069013097323
 30
0.0
  0
VERTEX
  5
EB
330
E1
100
AcDbEntity
  8
_U+30EC_U+30A4_U+30E4_U+30FC 1
370
     0
100
AcDbVertex
100
AcDb2dVertex
 10
112.6997531185265
 20
-128.1330918733487
 30
0.0
  0
VERTEX
  5
EC
330
E1
100
AcDbEntity
  8
_U+30EC_U+30A4_U+30E4_U+30FC 1
370
     0
100
AcDbVertex
100
AcDb2dVertex
 10
112.638430418889
 20
-128.3222276154889
 30
0.0
  0
VERTEX
  5
ED
330
E1
100
AcDbEntity
  8
_U+30EC_U+30A4_U+30E4_U+30FC 1
370
     0
100
AcDbVertex
100
AcDb2dVertex
 10
112.4410264475842
 20
-128.2581488394632
 30
0.0
  0
SEQEND
  5
EE
330
E1
100
AcDbEntity
  8
_U+30EC_U+30A4_U+30E4_U+30FC 1
370
     0
  0
POLYLINE
  5
EF
330
DD
100
AcDbEntity
  8
_U+30EC_U+30A4_U+30E4_U+30FC 1
370
     0
100
AcDb2dPolyline
 66
     1
 10
0.0
 20
0.0
 30
0.0
  0
VERTEX
  5
F0
330
EF
100
AcDbEntity
  8
_U+30EC_U+30A4_U+30E4_U+30FC 1
370
     0
100
AcDbVertex
100
AcDb2dVertex
 10
112.4978705230908
 20
-127.3779269429819
 30
0.0
  0
VERTEX
  5
F1
330
EF
100
AcDbEntity
  8
_U+30EC_U+30A4_U+30E4_U+30FC 1
370
     0
100
AcDbVertex
100
AcDb2dVertex
 10
111.8605278583196
 20
-127.8605848204654
 30
0.0
  0
VERTEX
  5
F2
330
EF
100
AcDbEntity
  8
_U+30EC_U+30A4_U+30E4_U+30FC 1
370
     0
100
AcDbVertex
100
AcDb2dVertex
 10
112.2952989085581
 20
-128.0018337353607
 30
0.0
  0
VERTEX
  5
F3
330
EF
100
AcDbEntity
  8
_U+30EC_U+30A4_U+30E4_U+30FC 1
370
     0
100
AcDbVertex
100
AcDb2dVertex
 10
112.4978705230908
 20
-127.3779269429819
 30
0.0
  0
SEQEND
  5
F4
330
EF
100
AcDbEntity
  8
_U+30EC_U+30A4_U+30E4_U+30FC 1
370
     0
  0
HATCH
  5
F5
330
DD
100
AcDbEntity
  8
_U+30EC_U+30A4_U+30E4_U+30FC 1
 62
   179
420
  2234388
100
AcDbHatch
 10
0.0
 20
0.0
 30
0.0
210
0.0
220
0.0
230
1.0
  2
SOLID
 70
     1
 71
     0
 91
        2
 92
        1
 93
       11
 72
     1
 10
112.4410264475842
 20
-128.2581488394632
 11
112.3338839779929
 21
-128.5881889869502
 72
     1
 10
112.3338839779929
 20
-128.5881889869502
 11
112.1268337393294
 21
-128.5210096249878
 72
     1
 10
112.1268337393294
 20
-128.5210096249878
 11
112.2339762089207
 21
-128.1909694775009
 72
     1
 10
112.2339762089207
 20
-128.1909694775009
 11
111.6100694165419
 21
-127.9883978629682
 72
     1
 10
111.6100694165419
 20
-127.9883978629682
 11
111.6793158357954
 21
-127.7748019428827
 72
     1
 10
111.6793158357954
 20
-127.7748019428827
 11
112.6260280751421
 21
-127.0592556105963
 72
     1
 10
112.6260280751421
 20
-127.0592556105963
 11
112.8110297027
 21
-127.1195447815882
 72
     1
 10
112.8110297027
 20
-127.1195447815882
 11
112.5023491472216
 21
-128.069013097323
 72
     1
 10
112.5023491472216
 20
-128.069013097323
 11
112.6997531185265
 21
-128.1330918733487
 72
     1
 10
112.6997531185265
 20
-128.1330918733487
 11
112.638430418889
 21
-128.3222276154889
 72
     1
 10
112.638430418889
 20
-128.3222276154889
 11
112.4410264475842
 21
-128.2581488394632
 97
        0
 92
        1
 93
        3
 72
     1
 10
112.4978705230908
 20
-127.3779269429819
 11
111.8605278583196
 21
-127.8605848204654
 72
     1
 10
111.8605278583196
 20
-127.8605848204654
 11
112.2952989085581
 21
-128.0018337353607
 72
     1
 10
112.2952989085581
 20
-128.0018337353607
 11
112.4978705230908
 21
-127.3779269429819
 97
        0
 75
     2
 76
     1
 98
        0
  0
SPLINE
  5
F6
330
DD
100
AcDbEntity
  8
_U+30EC_U+30A4_U+30E4_U+30FC 1
370
     0
100
AcDbSpline
210
0.0
220
0.0
230
1.0
 70
    11
 71
     3
 72
    29
 73
    25
 74
     0
 42
0.0000000001
 43
0.0000000001
 12
1.0
 22
0.0
 32
0.0
 13
1.0
 23
0.0
 33
0.0
 40
0.0
 40
0.0
 40
0.0
 40
0.0
 40
1.0
 40
1.0
 40
1.0
 40
2.0
 40
2.0
 40
2.0
 40
3.0
 40
3.0
 40
3.0
 40
4.0
 40
4.0
 40
4.0
 40
5.0
 40
5.0
 40
5.0
 40
6.0
 40
6.0
 40
6.0
 40
7.0
 40
7.0
 40
7.0
 40
8.0
 40
8.0
 40
8.0
 40
8.0
 10
113.5706732571976
 20
-128.8031629452298
 30
0.0
 10
113.402897107066
 20
-128.9688720380703
 30
0.0
 10
113.2323648805461
 20
-128.9337320641207
 30
0.0
 10
113.121432805921
 20
-128.8975585615256
 30
0.0
 10
112.9684705663759
 20
-128.847949186538
 30
0.0
 10
112.8482367339407
 20
-128.7597547421156
 30
0.0
 10
112.8141302886367
 20
-128.5571831275829
 30
0.0
 10
112.775545219202
 20
-128.3401421120122
 30
0.0
 10
112.8306667469659
 20
-128.1089762049519
 30
0.0
 10
112.8809651410506
 20
-127.9539469081157
 30
0.0
 10
112.9254068728103
 20
-127.8171766173513
 30
0.0
 10
113.0194579795576
 20
-127.5832546339028
 30
0.0
 10
113.1813774673644
 20
-127.4265027893239
 30
0.0
 10
113.3467420506564
 20
-127.2666503588083
 30
0.0
 10
113.506594481172
 20
-127.2945556322389
 30
0.0
 10
113.6292398804469
 20
-127.3341742303192
 30
0.0
 10
113.7801350627008
 20
-127.3834390957583
 30
0.0
 10
113.9034694810727
 20
-127.4699109924381
 30
0.0
 10
113.9379204359252
 20
-127.6724826069708
 30
0.0
 10
113.9727159003263
 20
-127.8864230366048
 30
0.0
 10
113.9244845635328
 20
-128.1106987526946
 30
0.0
 10
113.8707410739629
 20
-128.275718826438
 30
0.0
 10
113.8180311130386
 20
-128.4386718428903
 30
0.0
 10
113.7263915731309
 20
-128.6515787438788
 30
0.0
 10
113.5706732571976
 20
-128.8031629452298
 30
0.0
  0
SPLINE
  5
F7
330
DD
100
AcDbEntity
  8
_U+30EC_U+30A4_U+30E4_U+30FC 1
370
     0
100
AcDbSpline
210
0.0
220
0.0
230
1.0
 70
    11
 71
     3
 72
    17
 73
    13
 74
     0
 42
0.0000000001
 43
0.0000000001
 12
1.0
 22
0.0
 32
0.0
 13
1.0
 23
0.0
 33
0.0
 40
0.0
 40
0.0
 40
0.0
 40
0.0
 40
1.0
 40
1.0
 40
1.0
 40
2.0
 40
2.0
 40
2.0
 40
3.0
 40
3.0
 40
3.0
 40
4.0
 40
4.0
 40
4.0
 40
4.0
 10
113.5699842381006
 20
-127.517108800586
 30
0.0
 10
113.3329616687154
 20
-127.4402831712649
 30
0.0
 10
113.2006700020818
 20
-127.6952202371734
 30
0.0
 10
113.093872042039
 20
-128.0231933273692
 30
0.0
 10
112.9953423111609
 20
-128.3270507491683
 30
0.0
 10
112.934364121072
 20
-128.6319416996129
 30
0.0
 10
113.1817219769129
 20
-128.7125569339677
 30
0.0
 10
113.417366508104
 20
-128.7890380537403
 30
0.0
 10
113.5503471938346
 20
-128.5361680451229
 30
0.0
 10
113.6574896634259
 20
-128.2064724071845
 30
0.0
 10
113.7563639038526
 20
-127.9026149853855
 30
0.0
 10
113.8152750366503
 20
-127.5970350158438
 30
0.0
 10
113.5699842381006
 20
-127.517108800586
 30
0.0
  0
HATCH
  5
F8
330
DD
100
AcDbEntity
  8
_U+30EC_U+30A4_U+30E4_U+30FC 1
 62
   179
420
  2234388
100
AcDbHatch
 10
0.0
 20
0.0
 30
0.0
210
0.0
220
0.0
230
1.0
  2
SOLID
 70
     1
 71
     0
 91
        2
 92
        1
 93
        1
 72
     4
 94
        3
 73
     0
 74
     1
 95
       29
 96
       25
 40
0.0
 40
0.0
 40
0.0
 40
0.0
 40
1.0
 40
1.0
 40
1.0
 40
2.0
 40
2.0
 40
2.0
 40
3.0
 40
3.0
 40
3.0
 40
4.0
 40
4.0
 40
4.0
 40
5.0
 40
5.0
 40
5.0
 40
6.0
 40
6.0
 40
6.0
 40
7.0
 40
7.0
 40
7.0
 40
8.0
 40
8.0
 40
8.0
 40
8.0
 10
113.5706732571976
 20
-128.8031629452298
 10
113.402897107066
 20
-128.9688720380703
 10
113.2323648805461
 20
-128.9337320641207
 10
113.121432805921
 20
-128.8975585615256
 10
112.9684705663759
 20
-128.847949186538
 10
112.8482367339407
 20
-128.7597547421156
 10
112.8141302886367
 20
-128.5571831275829
 10
112.775545219202
 20
-128.3401421120122
 10
112.8306667469659
 20
-128.1089762049519
 10
112.8809651410506
 20
-127.9539469081157
 10
112.9254068728103
 20
-127.8171766173513
 10
113.0194579795576
 20
-127.5832546339028
 10
113.1813774673644
 20
-127.4265027893239
 10
113.3467420506564
 20
-127.2666503588083
 10
113.506594481172
 20
-127.2945556322389
 10
113.6292398804469
 20
-127.3341742303192
 10
113.7801350627008
 20
-127.3834390957583
 10
113.9034694810727
 20
-127.4699109924381
 10
113.9379204359252
 20
-127.6724826069708
 10
113.9727159003263
 20
-127.8864230366048
 10
113.9244845635328
 20
-128.1106987526946
 10
113.8707410739629
 20
-128.275718826438
 10
113.8180311130386
 20
-128.4386718428903
 10
113.7263915731309
 20
-128.6515787438788
 10
113.5706732571976
 20
-128.8031629452298
 97
        0
 97
        0
 92
        1
 93
        1
 72
     4
 94
        3
 73
     0
 74
     1
 95
       17
 96
       13
 40
0.0
 40
0.0
 40
0.0
 40
0.0
 40
1.0
 40
1.0
 40
1.0
 40
2.0
 40
2.0
 40
2.0
 40
3.0
 40
3.0
 40
3.0
 40
4.0
 40
4.0
 40
4.0
 40
4.0
 10
113.5699842381006
 20
-127.517108800586
 10
113.3329616687154
 20
-127.4402831712649
 10
113.2006700020818
 20
-127.6952202371734
 10
113.093872042039
 20
-128.0231933273692
 10
112.9953423111609
 20
-128.3270507491683
 10
112.934364121072
 20
-128.6319416996129
 10
113.1817219769129
 20
-128.7125569339677
 10
113.417366508104
 20
-128.7890380537403
 10
113.5503471938346
 20
-128.5361680451229
 10
113.6574896634259
 20
-128.2064724071845
 10
113.7563639038526
 20
-127.9026149853855
 10
113.8152750366503
 20
-127.5970350158438
 10
113.5699842381006
 20
-127.517108800586
 97
        0
 97
        0
 75
     2
 76
     1
 98
        0
  0
ENDBLK
  5
E0
330
DD
100
AcDbEntity
  8
0
100
AcDbBlockEnd
  0
BLOCK
  5
107
330
105
100
AcDbEntity
  8
0
100
AcDbBlockBegin
  2
block 5
 70
     0
 10
0.0
 20
0.0
 30
0.0
  3
block 5
  1

  0
POLYLINE
  5
109
330
105
100
AcDbEntity
  8
_U+30EC_U+30A4_U+30E4_U+30FC 1
370
     0
100
AcDb2dPolyline
 66
     1
 10
0.0
 20
0.0
 30
0.0
  0
VERTEX
  5
10A
330
109
100
AcDbEntity
  8
_U+30EC_U+30A4_U+30E4_U+30FC 1
370
     0
100
AcDbVertex
100
AcDb2dVertex
 10
69.11929523011601
 20
-128.4748453454854
 30
0.0
  0
VERTEX
  5
10B
330
109
100
AcDbEntity
  8
_U+30EC_U+30A4_U+30E4_U+30FC 1
370
     0
100
AcDbVertex
100
AcDb2dVertex
 10
69.22660995448155
 20
-128.8048854929724
 30
0.0
  0
VERTEX
  5
10C
330
109
100
AcDbEntity
  8
_U+30EC_U+30A4_U+30E4_U+30FC 1
370
     0
100
AcDbVertex
100
AcDb2dVertex
 10
69.01921520626951
 20
-128.8724093644833
 30
0.0
  0
VERTEX
  5
10D
330
109
100
AcDbEntity
  8
_U+30EC_U+30A4_U+30E4_U+30FC 1
370
     0
100
AcDbVertex
100
AcDb2dVertex
 10
68.91190048190397
 20
-128.5423692169963
 30
0.0
  0
VERTEX
  5
10E
330
109
100
AcDbEntity
  8
_U+30EC_U+30A4_U+30E4_U+30FC 1
370
     0
100
AcDbVertex
100
AcDb2dVertex
 10
68.28833819907375
 20
-128.744940831529
 30
0.0
  0
VERTEX
  5
10F
330
109
100
AcDbEntity
  8
_U+30EC_U+30A4_U+30E4_U+30FC 1
370
     0
100
AcDbVertex
100
AcDb2dVertex
 10
68.21909177982023
 20
-128.5316894209921
 30
0.0
  0
VERTEX
  5
110
330
109
100
AcDbEntity
  8
_U+30EC_U+30A4_U+30E4_U+30FC 1
370
     0
100
AcDbVertex
100
AcDb2dVertex
 10
68.56429034744227
 20
-127.3961859490537
 30
0.0
  0
VERTEX
  5
111
330
109
100
AcDbEntity
  8
_U+30EC_U+30A4_U+30E4_U+30FC 1
370
     0
100
AcDbVertex
100
AcDb2dVertex
 10
68.74929197500018
 20
-127.3358967780619
 30
0.0
  0
VERTEX
  5
112
330
109
100
AcDbEntity
  8
_U+30EC_U+30A4_U+30E4_U+30FC 1
370
     0
100
AcDbVertex
100
AcDb2dVertex
 10
69.05797253047857
 20
-128.2860541128938
 30
0.0
  0
VERTEX
  5
113
330
109
100
AcDbEntity
  8
_U+30EC_U+30A4_U+30E4_U+30FC 1
370
     0
100
AcDbVertex
100
AcDb2dVertex
 10
69.25520424700912
 20
-128.2219753368681
 30
0.0
  0
VERTEX
  5
114
330
109
100
AcDbEntity
  8
_U+30EC_U+30A4_U+30E4_U+30FC 1
370
     0
100
AcDbVertex
100
AcDb2dVertex
 10
69.31669920142083
 20
-128.4107665694598
 30
0.0
  0
VERTEX
  5
115
330
109
100
AcDbEntity
  8
_U+30EC_U+30A4_U+30E4_U+30FC 1
370
     0
100
AcDbVertex
100
AcDb2dVertex
 10
69.11929523011601
 20
-128.4748453454854
 30
0.0
  0
SEQEND
  5
116
330
109
100
AcDbEntity
  8
_U+30EC_U+30A4_U+30E4_U+30FC 1
370
     0
  0
POLYLINE
  5
117
330
105
100
AcDbEntity
  8
_U+30EC_U+30A4_U+30E4_U+30FC 1
370
     0
100
AcDb2dPolyline
 66
     1
 10
0.0
 20
0.0
 30
0.0
  0
VERTEX
  5
118
330
117
100
AcDbEntity
  8
_U+30EC_U+30A4_U+30E4_U+30FC 1
370
     0
100
AcDbVertex
100
AcDb2dVertex
 10
68.64800616773384
 20
-127.7296711920259
 30
0.0
  0
VERTEX
  5
119
330
117
100
AcDbEntity
  8
_U+30EC_U+30A4_U+30E4_U+30FC 1
370
     0
100
AcDbVertex
100
AcDb2dVertex
 10
68.41615124157651
 20
-128.4948268992999
 30
0.0
  0
VERTEX
  5
11A
330
117
100
AcDbEntity
  8
_U+30EC_U+30A4_U+30E4_U+30FC 1
370
     0
100
AcDbVertex
100
AcDb2dVertex
 10
68.85057778226653
 20
-128.3535779844047
 30
0.0
  0
VERTEX
  5
11B
330
117
100
AcDbEntity
  8
_U+30EC_U+30A4_U+30E4_U+30FC 1
370
     0
100
AcDbVertex
100
AcDb2dVertex
 10
68.64800616773384
 20
-127.7296711920259
 30
0.0
  0
SEQEND
  5
11C
330
117
100
AcDbEntity
  8
_U+30EC_U+30A4_U+30E4_U+30FC 1
370
     0
  0
HATCH
  5
11D
330
105
100
AcDbEntity
  8
_U+30EC_U+30A4_U+30E4_U+30FC 1
 62
   179
420
  2234388
100
AcDbHatch
 10
0.0
 20
0.0
 30
0.0
210
0.0
220
0.0
230
1.0
  2
SOLID
 70
     1
 71
     0
 91
        2
 92
        1
 93
       11
 72
     1
 10
69.11929523011601
 20
-128.4748453454854
 11
69.22660995448155
 21
-128.8048854929724
 72
     1
 10
69.22660995448155
 20
-128.8048854929724
 11
69.01921520626951
 21
-128.8724093644833
 72
     1
 10
69.01921520626951
 20
-128.8724093644833
 11
68.91190048190397
 21
-128.5423692169963
 72
     1
 10
68.91190048190397
 20
-128.5423692169963
 11
68.28833819907375
 21
-128.744940831529
 72
     1
 10
68.28833819907375
 20
-128.744940831529
 11
68.21909177982023
 21
-128.5316894209921
 72
     1
 10
68.21909177982023
 20
-128.5316894209921
 11
68.56429034744227
 21
-127.3961859490537
 72
     1
 10
68.56429034744227
 20
-127.3961859490537
 11
68.74929197500018
 21
-127.3358967780619
 72
     1
 10
68.74929197500018
 20
-127.3358967780619
 11
69.05797253047857
 21
-128.2860541128938
 72
     1
 10
69.05797253047857
 20
-128.2860541128938
 11
69.25520424700912
 21
-128.2219753368681
 72
     1
 10
69.25520424700912
 20
-128.2219753368681
 11
69.31669920142083
 21
-128.4107665694598
 72
     1
 10
69.31669920142083
 20
-128.4107665694598
 11
69.11929523011601
 21
-128.4748453454854
 97
        0
 92
        1
 93
        3
 72
     1
 10
68.64800616773384
 20
-127.7296711920259
 11
68.41615124157651
 21
-128.4948268992999
 72
     1
 10
68.41615124157651
 20
-128.4948268992999
 11
68.85057778226653
 21
-128.3535779844047
 72
     1
 10
68.85057778226653
 20
-128.3535779844047
 11
68.64800616773384
 21
-127.7296711920259
 97
        0
 75
     2
 76
     1
 98
        0
  0
SPLINE
  5
11E
330
105
100
AcDbEntity
  8
_U+30EC_U+30A4_U+30E4_U+30FC 1
370
     0
100
AcDbSpline
210
0.0
220
0.0
230
1.0
 70
    11
 71
     3
 72
    29
 73
    25
 74
     0
 42
0.0000000001
 43
0.0000000001
 12
1.0
 22
0.0
 32
0.0
 13
1.0
 23
0.0
 33
0.0
 40
0.0
 40
0.0
 40
0.0
 40
0.0
 40
1.0
 40
1.0
 40
1.0
 40
2.0
 40
2.0
 40
2.0
 40
3.0
 40
3.0
 40
3.0
 40
4.0
 40
4.0
 40
4.0
 40
5.0
 40
5.0
 40
5.0
 40
6.0
 40
6.0
 40
6.0
 40
7.0
 40
7.0
 40
7.0
 40
8.0
 40
8.0
 40
8.0
 40
8.0
 10
70.35315617815824
 20
-128.2519476675898
 30
0.0
 10
70.31543238259475
 20
-128.4844916128442
 30
0.0
 10
70.15626897117622
 20
-128.5561495989374
 30
0.0
 10
70.04550915132543
 20
-128.5919785919839
 30
0.0
 10
69.8927191665546
 20
-128.6415879669715
 30
0.0
 10
69.74354653204328
 20
-128.6415879669715
 30
0.0
 10
69.59661320959738
 20
-128.4975829756881
 30
0.0
 10
69.43813881727588
 20
-128.344620736143
 30
0.0
 10
69.34667153214251
 20
-128.1251681537326
 30
0.0
 10
69.29637313805786
 20
-127.9704833664449
 30
0.0
 10
69.25193140629813
 20
-127.8333685661319
 30
0.0
 10
69.19026419711216
 20
-127.5887667866792
 30
0.0
 10
69.22919377609549
 20
-127.3669026374291
 30
0.0
 10
69.2695013932729
 20
-127.1405598640482
 30
0.0
 10
69.41488442275045
 20
-127.0685573684065
 30
0.0
 10
69.53752982202535
 20
-127.0285942607776
 30
0.0
 10
69.68842500427928
 20
-126.979673904887
 30
0.0
 10
69.8389756769847
 20
-126.9776068475959
 30
0.0
 10
69.98573674465635
 20
-127.1212673293308
 30
0.0
 10
70.13990476762127
 20
-127.2735405497788
 30
0.0
 10
70.23275009094876
 20
-127.4833468648306
 30
0.0
 10
70.2863213257444
 20
-127.6487114481226
 30
0.0
 10
70.33920354144298
 20
-127.8113199550263
 30
0.0
 10
70.39019095462467
 20
-128.0373182188587
 30
0.0
 10
70.35315617815824
 20
-128.2519476675898
 30
0.0
  0
SPLINE
  5
11F
330
105
100
AcDbEntity
  8
_U+30EC_U+30A4_U+30E4_U+30FC 1
370
     0
100
AcDbSpline
210
0.0
220
0.0
230
1.0
 70
    11
 71
     3
 72
    17
 73
    13
 74
     0
 42
0.0000000001
 43
0.0000000001
 12
1.0
 22
0.0
 32
0.0
 13
1.0
 23
0.0
 33
0.0
 40
0.0
 40
0.0
 40
0.0
 40
0.0
 40
1.0
 40
1.0
 40
1.0
 40
2.0
 40
2.0
 40
2.0
 40
3.0
 40
3.0
 40
3.0
 40
4.0
 40
4.0
 40
4.0
 40
4.0
 10
69.59712997392016
 20
-127.2118733405929
 30
0.0
 10
69.35976289498645
 20
-127.2890434794625
 30
0.0
 10
69.4031710981006
 20
-127.5732638569956
 30
0.0
 10
69.50979680336908
 20
-127.9012369471914
 30
0.0
 10
69.6084987890215
 20
-128.2047498594419
 30
0.0
 10
69.73803437926688
 20
-128.4875921987809
 30
0.0
 10
69.98539223510782
 20
-128.406976964426
 30
0.0
 10
70.22069225675038
 20
-128.3304958446535
 30
0.0
 10
70.18038463957296
 20
-128.047998014863
 30
0.0
 10
70.07306991520743
 20
-127.7183023769246
 30
0.0
 10
69.97436792955503
 20
-127.414100445577
 30
0.0
 10
69.84259302724422
 20
-127.1322916348836
 30
0.0
 10
69.59712997392016
 20
-127.2118733405929
 30
0.0
  0
HATCH
  5
120
330
105
100
AcDbEntity
  8
_U+30EC_U+30A4_U+30E4_U+30FC 1
 62
   179
420
  2234388
100
AcDbHatch
 10
0.0
 20
0.0
 30
0.0
210
0.0
220
0.0
230
1.0
  2
SOLID
 70
     1
 71
     0
 91
        2
 92
        1
 93
        1
 72
     4
 94
        3
 73
     0
 74
     1
 95
       29
 96
       25
 40
0.0
 40
0.0
 40
0.0
 40
0.0
 40
1.0
 40
1.0
 40
1.0
 40
2.0
 40
2.0
 40
2.0
 40
3.0
 40
3.0
 40
3.0
 40
4.0
 40
4.0
 40
4.0
 40
5.0
 40
5.0
 40
5.0
 40
6.0
 40
6.0
 40
6.0
 40
7.0
 40
7.0
 40
7.0
 40
8.0
 40
8.0
 40
8.0
 40
8.0
 10
70.35315617815824
 20
-128.2519476675898
 10
70.31543238259475
 20
-128.4844916128442
 10
70.15626897117622
 20
-128.5561495989374
 10
70.04550915132543
 20
-128.5919785919839
 10
69.8927191665546
 20
-128.6415879669715
 10
69.74354653204328
 20
-128.6415879669715
 10
69.59661320959738
 20
-128.4975829756881
 10
69.43813881727588
 20
-128.344620736143
 10
69.34667153214251
 20
-128.1251681537326
 10
69.29637313805786
 20
-127.9704833664449
 10
69.25193140629813
 20
-127.8333685661319
 10
69.19026419711216
 20
-127.5887667866792
 10
69.22919377609549
 20
-127.3669026374291
 10
69.2695013932729
 20
-127.1405598640482
 10
69.41488442275045
 20
-127.0685573684065
 10
69.53752982202535
 20
-127.0285942607776
 10
69.68842500427928
 20
-126.979673904887
 10
69.8389756769847
 20
-126.9776068475959
 10
69.98573674465635
 20
-127.1212673293308
 10
70.13990476762127
 20
-127.2735405497788
 10
70.23275009094876
 20
-127.4833468648306
 10
70.2863213257444
 20
-127.6487114481226
 10
70.33920354144298
 20
-127.8113199550263
 10
70.39019095462467
 20
-128.0373182188587
 10
70.35315617815824
 20
-128.2519476675898
 97
        0
 97
        0
 92
        1
 93
        1
 72
     4
 94
        3
 73
     0
 74
     1
 95
       17
 96
       13
 40
0.0
 40
0.0
 40
0.0
 40
0.0
 40
1.0
 40
1.0
 40
1.0
 40
2.0
 40
2.0
 40
2.0
 40
3.0
 40
3.0
 40
3.0
 40
4.0
 40
4.0
 40
4.0
 40
4.0
 10
69.59712997392016
 20
-127.2118733405929
 10
69.35976289498645
 20
-127.2890434794625
 10
69.4031710981006
 20
-127.5732638569956
 10
69.50979680336908
 20
-127.9012369471914
 10
69.6084987890215
 20
-128.2047498594419
 10
69.73803437926688
 20
-128.4875921987809
 10
69.98539223510782
 20
-128.406976964426
 10
70.22069225675038
 20
-128.3304958446535
 10
70.18038463957296
 20
-128.047998014863
 10
70.07306991520743
 20
-127.7183023769246
 10
69.97436792955503
 20
-127.414100445577
 10
69.84259302724422
 20
-127.1322916348836
 10
69.59712997392016
 20
-127.2118733405929
 97
        0
 97
        0
 75
     2
 76
     1
 98
        0
  0
ENDBLK
  5
108
330
105
100
AcDbEntity
  8
0
100
AcDbBlockEnd
  0
ENDSEC
  0
SECTION
  2
ENTITIES
  0
INSERT
  5
42
330
1F
100
AcDbEntity
  8
_U+30EC_U+30A4_U+30E4_U+30FC 1
100
AcDbBlockReference
  2
block 2
 10
0.0
 20
0.0
 30
0.0
  0
ENDSEC
  0
SECTION
  2
OBJECTS
  0
DICTIONARY
  5
C
330
0
100
AcDbDictionary
281
     1
  3
ACAD_GROUP
350
D
  3
ACAD_LAYOUT
350
1A
  3
ACAD_MATERIAL
350
3B
  3
ACAD_MLEADERSTYLE
350
122
  3
ACAD_MLINESTYLE
350
17
  3
ACAD_PLOTSETTINGS
350
19
  3
ACAD_PLOTSTYLENAME
350
E
  3
ACAD_TABLESTYLE
350
121
  3
ACAD_VISUALSTYLE
350
2A
  0
SUN
  5
3F
330
29
100
AcDbSun
 90
        1
290
     0
 63
     7
421
 16777215
 40
1.0
291
     1
 91
  2455826
 92
 54000000
292
     0
 70
     2
 71
   256
280
     1
  0
DICTIONARY
  5
D
102
{ACAD_REACTORS
330
C
102
}
330
C
100
AcDbDictionary
281
     1
  0
DICTIONARY
  5
1A
102
{ACAD_REACTORS
330
C
102
}
330
C
100
AcDbDictionary
281
     1
  3
Layout1
350
1E
  3
Layout2
350
26
  3
Model
350
22
  0
DICTIONARY
  5
3B
102
{ACAD_REACTORS
330
C
102
}
330
C
100
AcDbDictionary
281
     1
  3
ByBlock
350
3D
  3
ByLayer
350
3C
  3
Global
350
3E
  0
DICTIONARY
  5
122
102
{ACAD_REACTORS
330
C
102
}
330
C
100
AcDbDictionary
281
     1
  0
DICTIONARY
  5
17
102
{ACAD_REACTORS
330
C
102
}
330
C
100
AcDbDictionary
281
     1
  3
Standard
350
18
  0
DICTIONARY
  5
19
102
{ACAD_REACTORS
330
C
102
}
330
C
100
AcDbDictionary
281
     1
  0
ACDBDICTIONARYWDFLT
  5
E
102
{ACAD_REACTORS
330
C
102
}
330
C
100
AcDbDictionary
281
     1
  3
Normal
350
F
100
AcDbDictionaryWithDefault
340
F
  0
DICTIONARY
  5
121
102
{ACAD_REACTORS
330
C
102
}
330
C
100
AcDbDictionary
281
     1
  0
DICTIONARY
  5
2A
102
{ACAD_REACTORS
330
C
102
}
330
C
100
AcDbDictionary
281
     1
  3
2dWireframe
350
2F
  3
3D Hidden
350
31
  3
3dWireframe
350
30
  3
Basic
350
32
  3
Brighten
350
36
  3
ColorChange
350
3A
  3
Conceptual
350
34
  3
Dim
350
35
  3
Facepattern
350
39
  3
Flat
350
2B
  3
FlatWithEdges
350
2C
  3
Gouraud
350
2D
  3
GouraudWithEdges
350
2E
  3
Linepattern
350
38
  3
Realistic
350
33
  3
Thicken
350
37
  0
LAYOUT
  5
1E
102
{ACAD_REACTORS
330
1A
102
}
330
1A
100
AcDbPlotSettings
  1

  2
none_device
  4

  6

 40
0.0
 41
0.0
 42
0.0
 43
0.0
 44
0.0
 45
0.0
 46
0.0
 47
0.0
 48
0.0
 49
0.0
140
0.0
141
0.0
142
1.0
143
1.0
 70
   688
 72
     0
 73
     0
 74
     5
  7

 75
    16
 76
     0
 77
     2
 78
   300
147
1.0
148
0.0
149
0.0
100
AcDbLayout
  1
Layout1
 70
     1
 71
     1
 10
0.0
 20
0.0
 11
12.0
 21
9.0
 12
0.0
 22
0.0
 32
0.0
 14
1.000000000000000E+20
 24
1.000000000000000E+20
 34
1.000000000000000E+20
 15
-1.000000000000000E+20
 25
-1.000000000000000E+20
 35
-1.000000000000000E+20
146
0.0
 13
0.0
 23
0.0
 33
0.0
 16
1.0
 26
0.0
 36
0.0
 17
0.0
 27
1.0
 37
0.0
 76
     0
330
1B
  0
LAYOUT
  5
26
102
{ACAD_REACTORS
330
1A
102
}
330
1A
100
AcDbPlotSettings
  1

  2
none_device
  4

  6

 40
0.0
 41
0.0
 42
0.0
 43
0.0
 44
0.0
 45
0.0
 46
0.0
 47
0.0
 48
0.0
 49
0.0
140
0.0
141
0.0
142
1.0
143
1.0
 70
   688
 72
     0
 73
     0
 74
     5
  7

 75
    16
 76
     0
 77
     2
 78
   300
147
1.0
148
0.0
149
0.0
100
AcDbLayout
  1
Layout2
 70
     1
 71
     2
 10
0.0
 20
0.0
 11
0.0
 21
0.0
 12
0.0
 22
0.0
 32
0.0
 14
0.0
 24
0.0
 34
0.0
 15
0.0
 25
0.0
 35
0.0
146
0.0
 13
0.0
 23
0.0
 33
0.0
 16
1.0
 26
0.0
 36
0.0
 17
0.0
 27
1.0
 37
0.0
 76
     0
330
23
  0
LAYOUT
  5
22
102
{ACAD_REACTORS
330
1A
102
}
330
1A
100
AcDbPlotSettings
  1

  2
none_device
  4

  6

 40
0.0
 41
0.0
 42
0.0
 43
0.0
 44
0.0
 45
0.0
 46
0.0
 47
0.0
 48
0.0
 49
0.0
140
0.0
141
0.0
142
1.0
143
1.0
 70
  1712
 72
     0
 73
     0
 74
     0
  7

 75
     0
 76
     0
 77
     2
 78
   300
147
1.0
148
0.0
149
0.0
100
AcDbLayout
  1
Model
 70
     1
 71
     0
 10
0.0
 20
0.0
 11
12.0
 21
9.0
 12
0.0
 22
0.0
 32
0.0
 14
1.000000000000000E+20
 24
1.000000000000000E+20
 34
1.000000000000000E+20
 15
-1.000000000000000E+20
 25
-1.000000000000000E+20
 35
-1.000000000000000E+20
146
0.0
 13
0.0
 23
0.0
 33
0.0
 16
1.0
 26
0.0
 36
0.0
 17
0.0
 27
1.0
 37
0.0
 76
     0
330
1F
331
29
  0
MATERIAL
  5
3D
102
{ACAD_REACTORS
330
3B
102
}
330
3B
100
AcDbMaterial
  1
ByBlock
 72
     1
 94
      127
  0
MATERIAL
  5
3C
102
{ACAD_REACTORS
330
3B
102
}
330
3B
100
AcDbMaterial
  1
ByLayer
 72
     1
 94
      127
  0
MATERIAL
  5
3E
102
{ACAD_REACTORS
330
3B
102
}
330
3B
100
AcDbMaterial
  1
Global
 72
     1
 94
      127
  0
MLINESTYLE
  5
18
102
{ACAD_REACTORS
330
17
102
}
330
17
100
AcDbMlineStyle
  2
Standard
 70
     0
  3

 62
   256
 51
90.0
 52
90.0
 71
     2
 49
0.5
 62
   256
  6
BYLAYER
 49
-0.5
 62
   256
  6
BYLAYER
  0
ACDBPLACEHOLDER
  5
F
102
{ACAD_REACTORS
330
E
102
}
330
E
  0
VISUALSTYLE
  5
2F
102
{ACAD_REACTORS
330
2A
102
}
330
2A
100
AcDbVisualStyle
  2
2dWireframe
 70
     4
177
     2
291
     0
 71
     0
176
     1
 72
     2
176
     1
 73
     0
176
     1
 90
        0
176
     1
 40
-0.6
176
     1
 41
-30.0
176
     1
 62
     5
 63
     7
421
 16777215
176
     1
 74
     1
176
     1
 91
        4
176
     1
 64
     7
176
     1
 65
   257
176
     1
 75
     1
176
     1
175
     1
176
     1
 42
1.0
176
     1
 92
        0
176
     1
 66
   257
176
     1
 43
1.0
176
     1
 76
     1
176
     1
 77
     6
176
     1
 78
     2
176
     1
 67
     7
176
     1
 79
     5
176
     1
170
     0
176
     1
171
     0
176
     1
290
     0
176
     1
 93
        1
176
     1
 44
0.0
176
     1
173
     0
176
     1
  0
VISUALSTYLE
  5
31
102
{ACAD_REACTORS
330
2A
102
}
330
2A
100
AcDbVisualStyle
  2
3D Hidden
 70
     6
177
     2
291
     0
 71
     1
176
     1
 72
     2
176
     1
 73
     2
176
     1
 90
        0
176
     1
 40
-0.6
176
     1
 41
-30.0
176
     1
 62
     5
 63
     7
421
 16777215
176
     1
 74
     2
176
     1
 91
        2
176
     1
 64
     7
176
     1
 65
   257
176
     1
 75
     2
176
     1
175
     1
176
     1
 42
40.0
176
     1
 92
        0
176
     1
 66
   257
176
     1
 43
1.0
176
     1
 76
     1
176
     1
 77
     6
176
     1
 78
     2
176
     1
 67
     7
176
     1
 79
     3
176
     1
170
     0
176
     1
171
     0
176
     1
290
     0
176
     1
 93
        1
176
     1
 44
0.0
176
     1
173
     0
176
     1
  0
VISUALSTYLE
  5
30
102
{ACAD_REACTORS
330
2A
102
}
330
2A
100
AcDbVisualStyle
  2
3dWireframe
 70
     5
177
     2
291
     0
 71
     0
176
     1
 72
     2
176
     1
 73
     0
176
     1
 90
        0
176
     1
 40
-0.6
176
     1
 41
-30.0
176
     1
 62
     5
 63
     7
421
 16777215
176
     1
 74
     1
176
     1
 91
        4
176
     1
 64
     7
176
     1
 65
   257
176
     1
 75
     1
176
     1
175
     1
176
     1
 42
1.0
176
     1
 92
        0
176
     1
 66
   257
176
     1
 43
1.0
176
     1
 76
     1
176
     1
 77
     6
176
     1
 78
     2
176
     1
 67
     7
176
     1
 79
     5
176
     1
170
     0
176
     1
171
     0
176
     1
290
     0
176
     1
 93
        1
176
     1
 44
0.0
176
     1
173
     0
176
     1
  0
VISUALSTYLE
  5
32
102
{ACAD_REACTORS
330
2A
102
}
330
2A
100
AcDbVisualStyle
  2
Basic
 70
     7
177
     2
291
     1
 71
     1
176
     1
 72
     0
176
     1
 73
     1
176
     1
 90
        0
176
     1
 40
-0.6
176
     1
 41
-30.0
176
     1
 62
     5
 63
     7
421
 16777215
176
     1
 74
     0
176
     1
 91
        4
176
     1
 64
     7
176
     1
 65
   257
176
     1
 75
     1
176
     1
175
     1
176
     1
 42
1.0
176
     1
 92
        8
176
     1
 66
     7
176
     1
 43
1.0
176
     1
 76
     1
176
     1
 77
     6
176
     1
 78
     2
176
     1
 67
     7
176
     1
 79
     5
176
     1
170
     0
176
     1
171
     0
176
     1
290
     0
176
     1
 93
        1
176
     1
 44
0.0
176
     1
173
     0
176
     1
  0
VISUALSTYLE
  5
36
102
{ACAD_REACTORS
330
2A
102
}
330
2A
100
AcDbVisualStyle
  2
Brighten
 70
    12
177
     2
291
     1
 71
     2
176
     1
 72
     2
176
     1
 73
     0
176
     1
 90
        0
176
     1
 40
-0.6
176
     1
 41
-30.0
176
     1
 62
     5
 63
     7
421
 16777215
176
     1
 74
     1
176
     1
 91
        4
176
     1
 64
     7
176
     1
 65
   257
176
     1
 75
     1
176
     1
175
     1
176
     1
 42
1.0
176
     1
 92
        8
176
     1
 66
     7
176
     1
 43
1.0
176
     1
 76
     1
176
     1
 77
     6
176
     1
 78
     2
176
     1
 67
     7
176
     1
 79
     5
176
     1
170
     0
176
     1
171
     0
176
     1
290
     0
176
     1
 93
        1
176
     1
 44
50.0
176
     1
173
     0
176
     1
  0
VISUALSTYLE
  5
3A
102
{ACAD_REACTORS
330
2A
102
}
330
2A
100
AcDbVisualStyle
  2
ColorChange
 70
    16
177
     2
291
     1
 71
     2
176
     1
 72
     2
176
     1
 73
     3
176
     1
 90
        0
176
     1
 40
-0.6
176
     1
 41
-30.0
176
     1
 62
     5
 63
     8
421
  8421504
176
     1
 74
     1
176
     1
 91
        4
176
     1
 64
     7
176
     1
 65
   257
176
     1
 75
     1
176
     1
175
     1
176
     1
 42
1.0
176
     1
 92
        8
176
     1
 66
     8
424
  8421504
176
     1
 43
1.0
176
     1
 76
     1
176
     1
 77
     6
176
     1
 78
     2
176
     1
 67
     7
176
     1
 79
     5
176
     1
170
     0
176
     1
171
     0
176
     1
290
     0
176
     1
 93
        1
176
     1
 44
0.0
176
     1
173
     0
176
     1
  0
VISUALSTYLE
  5
34
102
{ACAD_REACTORS
330
2A
102
}
330
2A
100
AcDbVisualStyle
  2
Conceptual
 70
     9
177
     2
291
     0
 71
     3
176
     1
 72
     2
176
     1
 73
     0
176
     1
 90
        0
176
     1
 40
-0.6
176
     1
 41
-30.0
176
     1
 62
     5
 63
     7
421
 16777215
176
     1
 74
     2
176
     1
 91
        2
176
     1
 64
     7
176
     1
 65
   257
176
     1
 75
     1
176
     1
175
     1
176
     1
 42
40.0
176
     1
 92
        8
176
     1
 66
     7
176
     1
 43
1.0
176
     1
 76
     1
176
     1
 77
     6
176
     1
 78
     2
176
     1
 67
     7
176
     1
 79
     3
176
     1
170
     0
176
     1
171
     0
176
     1
290
     0
176
     1
 93
        1
176
     1
 44
0.0
176
     1
173
     0
176
     1
  0
VISUALSTYLE
  5
35
102
{ACAD_REACTORS
330
2A
102
}
330
2A
100
AcDbVisualStyle
  2
Dim
 70
    11
177
     2
291
     1
 71
     2
176
     1
 72
     2
176
     1
 73
     0
176
     1
 90
        0
176
     1
 40
-0.6
176
     1
 41
-30.0
176
     1
 62
     5
 63
     7
421
 16777215
176
     1
 74
     1
176
     1
 91
        4
176
     1
 64
     7
176
     1
 65
   257
176
     1
 75
     1
176
     1
175
     1
176
     1
 42
1.0
176
     1
 92
        8
176
     1
 66
     7
176
     1
 43
1.0
176
     1
 76
     1
176
     1
 77
     6
176
     1
 78
     2
176
     1
 67
     7
176
     1
 79
     5
176
     1
170
     0
176
     1
171
     0
176
     1
290
     0
176
     1
 93
        1
176
     1
 44
-50.0
176
     1
173
     0
176
     1
  0
VISUALSTYLE
  5
39
102
{ACAD_REACTORS
330
2A
102
}
330
2A
100
AcDbVisualStyle
  2
Facepattern
 70
    15
177
     2
291
     1
 71
     2
176
     1
 72
     2
176
     1
 73
     0
176
     1
 90
        0
176
     1
 40
-0.6
176
     1
 41
-30.0
176
     1
 62
     5
 63
     7
421
 16777215
176
     1
 74
     1
176
     1
 91
        4
176
     1
 64
     7
176
     1
 65
   257
176
     1
 75
     1
176
     1
175
     1
176
     1
 42
1.0
176
     1
 92
        8
176
     1
 66
     7
176
     1
 43
1.0
176
     1
 76
     1
176
     1
 77
     6
176
     1
 78
     2
176
     1
 67
     7
176
     1
 79
     5
176
     1
170
     0
176
     1
171
     0
176
     1
290
     0
176
     1
 93
        1
176
     1
 44
0.0
176
     1
173
     0
176
     1
  0
VISUALSTYLE
  5
2B
102
{ACAD_REACTORS
330
2A
102
}
330
2A
100
AcDbVisualStyle
  2
Flat
 70
     0
177
     2
291
     1
 71
     2
176
     1
 72
     1
176
     1
 73
     1
176
     1
 90
        2
176
     1
 40
-0.6
176
     1
 41
30.0
176
     1
 62
     5
 63
     7
421
 16777215
176
     1
 74
     0
176
     1
 91
        4
176
     1
 64
     7
176
     1
 65
   257
176
     1
 75
     1
176
     1
175
     1
176
     1
 42
1.0
176
     1
 92
        8
176
     1
 66
     7
176
     1
 43
1.0
176
     1
 76
     1
176
     1
 77
     6
176
     1
 78
     2
176
     1
 67
     7
176
     1
 79
     5
176
     1
170
     0
176
     1
171
     0
176
     1
290
     0
176
     1
 93
       13
176
     1
 44
0.0
176
     1
173
     0
176
     1
  0
VISUALSTYLE
  5
2C
102
{ACAD_REACTORS
330
2A
102
}
330
2A
100
AcDbVisualStyle
  2
FlatWithEdges
 70
     1
177
     2
291
     1
 71
     2
176
     1
 72
     1
176
     1
 73
     1
176
     1
 90
        2
176
     1
 40
-0.6
176
     1
 41
30.0
176
     1
 62
     5
 63
     7
421
 16777215
176
     1
 74
     1
176
     1
 91
        4
176
     1
 64
     7
176
     1
 65
   257
176
     1
 75
     1
176
     1
175
     1
176
     1
 42
1.0
176
     1
 92
        0
176
     1
 66
   257
176
     1
 43
1.0
176
     1
 76
     1
176
     1
 77
     6
176
     1
 78
     2
176
     1
 67
     7
176
     1
 79
     5
176
     1
170
     0
176
     1
171
     0
176
     1
290
     0
176
     1
 93
       13
176
     1
 44
0.0
176
     1
173
     0
176
     1
  0
VISUALSTYLE
  5
2D
102
{ACAD_REACTORS
330
2A
102
}
330
2A
100
AcDbVisualStyle
  2
Gouraud
 70
     2
177
     2
291
     1
 71
     2
176
     1
 72
     2
176
     1
 73
     1
176
     1
 90
        2
176
     1
 40
-0.6
176
     1
 41
30.0
176
     1
 62
     5
 63
     7
421
 16777215
176
     1
 74
     0
176
     1
 91
        4
176
     1
 64
     7
176
     1
 65
   257
176
     1
 75
     1
176
     1
175
     1
176
     1
 42
1.0
176
     1
 92
        0
176
     1
 66
     7
176
     1
 43
1.0
176
     1
 76
     1
176
     1
 77
     6
176
     1
 78
     2
176
     1
 67
     7
176
     1
 79
     5
176
     1
170
     0
176
     1
171
     0
176
     1
290
     0
176
     1
 93
       13
176
     1
 44
0.0
176
     1
173
     0
176
     1
  0
VISUALSTYLE
  5
2E
102
{ACAD_REACTORS
330
2A
102
}
330
2A
100
AcDbVisualStyle
  2
GouraudWithEdges
 70
     3
177
     2
291
     1
 71
     2
176
     1
 72
     2
176
     1
 73
     1
176
     1
 90
        2
176
     1
 40
-0.6
176
     1
 41
30.0
176
     1
 62
     5
 63
     7
421
 16777215
176
     1
 74
     1
176
     1
 91
        4
176
     1
 64
     7
176
     1
 65
   257
176
     1
 75
     1
176
     1
175
     1
176
     1
 42
1.0
176
     1
 92
        0
176
     1
 66
   257
176
     1
 43
1.0
176
     1
 76
     1
176
     1
 77
     6
176
     1
 78
     2
176
     1
 67
     7
176
     1
 79
     5
176
     1
170
     0
176
     1
171
     0
176
     1
290
     0
176
     1
 93
       13
176
     1
 44
0.0
176
     1
173
     0
176
     1
  0
VISUALSTYLE
  5
38
102
{ACAD_REACTORS
330
2A
102
}
330
2A
100
AcDbVisualStyle
  2
Linepattern
 70
    14
177
     2
291
     1
 71
     2
176
     1
 72
     2
176
     1
 73
     0
176
     1
 90
        0
176
     1
 40
-0.6
176
     1
 41
-30.0
176
     1
 62
     5
 63
     7
421
 16777215
176
     1
 74
     1
176
     1
 91
        4
176
     1
 64
     7
176
     1
 65
   257
176
     1
 75
     7
176
     1
175
     7
176
     1
 42
1.0
176
     1
 92
        8
176
     1
 66
     7
176
     1
 43
1.0
176
     1
 76
     1
176
     1
 77
     6
176
     1
 78
     2
176
     1
 67
     7
176
     1
 79
     5
176
     1
170
     0
176
     1
171
     0
176
     1
290
     0
176
     1
 93
        1
176
     1
 44
0.0
176
     1
173
     0
176
     1
  0
VISUALSTYLE
  5
33
102
{ACAD_REACTORS
330
2A
102
}
330
2A
100
AcDbVisualStyle
  2
Realistic
 70
     8
177
     2
291
     0
 71
     2
176
     1
 72
     2
176
     1
 73
     0
176
     1
 90
        0
176
     1
 40
-0.6
176
     1
 41
-30.0
176
     1
 62
     5
 63
     7
421
 16777215
176
     1
 74
     1
176
     1
 91
        0
176
     1
 64
     7
176
     1
 65
   257
176
     1
 75
     1
176
     1
175
     1
176
     1
 42
1.0
176
     1
 92
        8
176
     1
 66
     8
424
  7895160
176
     1
 43
1.0
176
     1
 76
     1
176
     1
 77
     6
176
     1
 78
     2
176
     1
 67
     7
176
     1
 79
     5
176
     1
170
     0
176
     1
171
     0
176
     1
290
     0
176
     1
 93
       13
176
     1
 44
0.0
176
     1
173
     0
176
     1
  0
VISUALSTYLE
  5
37
102
{ACAD_REACTORS
330
2A
102
}
330
2A
100
AcDbVisualStyle
  2
Thicken
 70
    13
177
     2
291
     1
 71
     2
176
     1
 72
     2
176
     1
 73
     0
176
     1
 90
        0
176
     1
 40
-0.6
176
     1
 41
-30.0
176
     1
 62
     5
 63
     7
421
 16777215
176
     1
 74
     1
176
     1
 91
        4
176
     1
 64
     7
176
     1
 65
   257
176
     1
 75
     1
176
     1
175
     1
176
     1
 42
1.0
176
     1
 92
       12
176
     1
 66
     7
176
     1
 43
1.0
176
     1
 76
     1
176
     1
 77
     6
176
     1
 78
     2
176
     1
 67
     7
176
     1
 79
     5
176
     1
170
     0
176
     1
171
     0
176
     1
290
     0
176
     1
 93
        1
176
     1
 44
0.0
176
     1
173
     0
176
     1
  0
ENDSEC
  0
EOF
