  0
SECTION
  2
HEADER
  9
$ACADVER
  1
AC1024
  9
$ACADMAINTVER
 70
     6
  9
$DWGCODEPAGE
  3
UNDEFINED
  9
$INSBASE
 10
0.0
 20
0.0
 30
0.0
  9
$EXTMIN
 10
1.000000000000000E+20
 20
1.000000000000000E+20
 30
1.000000000000000E+20
  9
$EXTMAX
 10
-1.000000000000000E+20
 20
-1.000000000000000E+20
 30
-1.000000000000000E+20
  9
$LIMMIN
 10
0.0
 20
0.0
  9
$LIMMAX
 10
12.0
 20
9.0
  9
$ORTHOMODE
 70
     0
  9
$REGENMODE
 70
     1
  9
$FILLMODE
 70
     1
  9
$QTEXTMODE
 70
     0
  9
$MIRRTEXT
 70
     1
  9
$LTSCALE
 40
1.0
  9
$ATTMODE
 70
     1
  9
$TEXTSIZE
 40
0.2
  9
$TRACEWID
 40
0.05
  9
$TEXTSTYLE
  7
Standard
  9
$CLAYER
  8
0
  9
$CELTYPE
  6
ByLayer
  9
$CECOLOR
 62
   256
  9
$CELTSCALE
 40
1.0
  9
$DISPSILH
 70
     0
  9
$DIMSCALE
 40
1.0
  9
$DIMASZ
 40
0.18
  9
$DIMEXO
 40
0.0625
  9
$DIMDLI
 40
0.38
  9
$DIMRND
 40
0.0
  9
$DIMDLE
 40
0.0
  9
$DIMEXE
 40
0.18
  9
$DIMTP
 40
0.0
  9
$DIMTM
 40
0.0
  9
$DIMTXT
 40
0.18
  9
$DIMCEN
 40
0.09
  9
$DIMTSZ
 40
0.0
  9
$DIMTOL
 70
     0
  9
$DIMLIM
 70
     0
  9
$DIMTIH
 70
     1
  9
$DIMTOH
 70
     1
  9
$DIMSE1
 70
     0
  9
$DIMSE2
 70
     0
  9
$DIMTAD
 70
     0
  9
$DIMZIN
 70
     0
  9
$DIMBLK
  1

  9
$DIMASO
 70
     1
  9
$DIMSHO
 70
     1
  9
$DIMPOST
  1

  9
$DIMAPOST
  1

  9
$DIMALT
 70
     0
  9
$DIMALTD
 70
     2
  9
$DIMALTF
 40
25.4
  9
$DIMLFAC
 40
1.0
  9
$DIMTOFL
 70
     0
  9
$DIMTVP
 40
0.0
  9
$DIMTIX
 70
     0
  9
$DIMSOXD
 70
     0
  9
$DIMSAH
 70
     0
  9
$DIMBLK1
  1

  9
$DIMBLK2
  1

  9
$DIMSTYLE
  2
Standard
  9
$DIMCLRD
 70
     0
  9
$DIMCLRE
 70
     0
  9
$DIMCLRT
 70
     0
  9
$DIMTFAC
 40
1.0
  9
$DIMGAP
 40
0.09
  9
$DIMJUST
 70
     0
  9
$DIMSD1
 70
     0
  9
$DIMSD2
 70
     0
  9
$DIMTOLJ
 70
     1
  9
$DIMTZIN
 70
     0
  9
$DIMALTZ
 70
     0
  9
$DIMALTTZ
 70
     0
  9
$DIMUPT
 70
     0
  9
$DIMDEC
 70
     4
  9
$DIMTDEC
 70
     4
  9
$DIMALTU
 70
     2
  9
$DIMALTTD
 70
     2
  9
$DIMTXSTY
  7
Standard
  9
$DIMAUNIT
 70
     0
  9
$DIMADEC
 70
     0
  9
$DIMALTRND
 40
0.0
  9
$DIMAZIN
 70
     0
  9
$DIMDSEP
 70
    46
  9
$DIMATFIT
 70
     3
  9
$DIMFRAC
 70
     0
  9
$DIMLDRBLK
  1

  9
$DIMLUNIT
 70
     2
  9
$DIMLWD
 70
    -2
  9
$DIMLWE
 70
    -2
  9
$DIMTMOVE
 70
     0
  9
$DIMFXL
 40
1.0
  9
$DIMFXLON
 70
     0
  9
$DIMJOGANG
 40
0.7853981633974483
  9
$DIMTFILL
 70
     0
  9
$DIMTFILLCLR
 70
     0
  9
$DIMARCSYM
 70
     0
  9
$DIMLTYPE
  6

  9
$DIMLTEX1
  6

  9
$DIMLTEX2
  6

  9
$DIMTXTDIRECTION
 70
     0
  9
$LUNITS
 70
     2
  9
$LUPREC
 70
     4
  9
$SKETCHINC
 40
0.1
  9
$FILLETRAD
 40
0.5
  9
$AUNITS
 70
     0
  9
$AUPREC
 70
     0
  9
$MENU
  1
.
  9
$ELEVATION
 40
0.0
  9
$PELEVATION
 40
0.0
  9
$THICKNESS
 40
0.0
  9
$LIMCHECK
 70
     0
  9
$CHAMFERA
 40
0.5
  9
$CHAMFERB
 40
0.5
  9
$CHAMFERC
 40
1.0
  9
$CHAMFERD
 40
0.0
  9
$SKPOLY
 70
     0
  9
$TDCREATE
 40
2458263.773877303
  9
$TDUCREATE
 40
2458263.398877315
  9
$TDUPDATE
 40
2458263.773877303
  9
$TDUUPDATE
 40
2458263.398877315
  9
$TDINDWG
 40
0.0000000116
  9
$TDUSRTIMER
 40
0.0000000116
  9
$USRTIMER
 70
     1
  9
$ANGBASE
 50
0.0
  9
$ANGDIR
 70
     0
  9
$PDMODE
 70
     0
  9
$PDSIZE
 40
0.0
  9
$PLINEWID
 40
0.0
  9
$SPLFRAME
 70
     0
  9
$SPLINETYPE
 70
     6
  9
$SPLINESEGS
 70
     8
  9
$HANDSEED
  5
D0
  9
$SURFTAB1
 70
     6
  9
$SURFTAB2
 70
     6
  9
$SURFTYPE
 70
     6
  9
$SURFU
 70
     6
  9
$SURFV
 70
     6
  9
$UCSBASE
  2

  9
$UCSNAME
  2

  9
$UCSORG
 10
0.0
 20
0.0
 30
0.0
  9
$UCSXDIR
 10
1.0
 20
0.0
 30
0.0
  9
$UCSYDIR
 10
0.0
 20
1.0
 30
0.0
  9
$UCSORTHOREF
  2

  9
$UCSORTHOVIEW
 70
     0
  9
$UCSORGTOP
 10
0.0
 20
0.0
 30
0.0
  9
$UCSORGBOTTOM
 10
0.0
 20
0.0
 30
0.0
  9
$UCSORGLEFT
 10
0.0
 20
0.0
 30
0.0
  9
$UCSORGRIGHT
 10
0.0
 20
0.0
 30
0.0
  9
$UCSORGFRONT
 10
0.0
 20
0.0
 30
0.0
  9
$UCSORGBACK
 10
0.0
 20
0.0
 30
0.0
  9
$PUCSBASE
  2

  9
$PUCSNAME
  2

  9
$PUCSORG
 10
0.0
 20
0.0
 30
0.0
  9
$PUCSXDIR
 10
1.0
 20
0.0
 30
0.0
  9
$PUCSYDIR
 10
0.0
 20
1.0
 30
0.0
  9
$PUCSORTHOREF
  2

  9
$PUCSORTHOVIEW
 70
     0
  9
$PUCSORGTOP
 10
0.0
 20
0.0
 30
0.0
  9
$PUCSORGBOTTOM
 10
0.0
 20
0.0
 30
0.0
  9
$PUCSORGLEFT
 10
0.0
 20
0.0
 30
0.0
  9
$PUCSORGRIGHT
 10
0.0
 20
0.0
 30
0.0
  9
$PUCSORGFRONT
 10
0.0
 20
0.0
 30
0.0
  9
$PUCSORGBACK
 10
0.0
 20
0.0
 30
0.0
  9
$USERI1
 70
     0
  9
$USERI2
 70
     0
  9
$USERI3
 70
     0
  9
$USERI4
 70
     0
  9
$USERI5
 70
     0
  9
$USERR1
 40
0.0
  9
$USERR2
 40
0.0
  9
$USERR3
 40
0.0
  9
$USERR4
 40
0.0
  9
$USERR5
 40
0.0
  9
$WORLDVIEW
 70
     1
  9
$SHADEDGE
 70
     3
  9
$SHADEDIF
 70
    70
  9
$TILEMODE
 70
     1
  9
$MAXACTVP
 70
    64
  9
$PINSBASE
 10
0.0
 20
0.0
 30
0.0
  9
$PLIMCHECK
 70
     0
  9
$PEXTMIN
 10
1.000000000000000E+20
 20
1.000000000000000E+20
 30
1.000000000000000E+20
  9
$PEXTMAX
 10
-1.000000000000000E+20
 20
-1.000000000000000E+20
 30
-1.000000000000000E+20
  9
$PLIMMIN
 10
0.0
 20
0.0
  9
$PLIMMAX
 10
12.0
 20
9.0
  9
$UNITMODE
 70
     0
  9
$VISRETAIN
 70
     1
  9
$PLINEGEN
 70
     0
  9
$PSLTSCALE
 70
     1
  9
$TREEDEPTH
 70
  3020
  9
$CMLSTYLE
  2
Standard
  9
$CMLJUST
 70
     0
  9
$CMLSCALE
 40
1.0
  9
$PROXYGRAPHICS
 70
     1
  9
$MEASUREMENT
 70
     0
  9
$CELWEIGHT
370
    -1
  9
$ENDCAPS
280
     0
  9
$JOINSTYLE
280
     0
  9
$LWDISPLAY
290
     1
  9
$INSUNITS
 70
     1
  9
$HYPERLINKBASE
  1

  9
$STYLESHEET
  1

  9
$XEDIT
290
     1
  9
$CEPSNTYPE
380
     0
  9
$PSTYLEMODE
290
     1
  9
$FINGERPRINTGUID
  2
{E2D5C092-9F3D-DA2F-C9EC-0DF24BE698A3}
  9
$VERSIONGUID
  2
{FAEB1C32-E019-11D5-929B-00C0DF256EC4}
  9
$EXTNAMES
290
     1
  9
$PSVPSCALE
 40
0.0
  9
$OLESTARTUP
290
     0
  9
$SORTENTS
280
   127
  9
$INDEXCTL
280
     0
  9
$HIDETEXT
280
     1
  9
$XCLIPFRAME
280
     2
  9
$HALOGAP
280
     0
  9
$OBSCOLOR
 70
   257
  9
$OBSLTYPE
280
     0
  9
$INTERSECTIONDISPLAY
280
     0
  9
$INTERSECTIONCOLOR
 70
   257
  9
$DIMASSOC
280
     2
  9
$PROJECTNAME
  1

  9
$CAMERADISPLAY
290
     0
  9
$LENSLENGTH
 40
50.0
  9
$CAMERAHEIGHT
 40
0.0
  9
$STEPSPERSEC
 40
2.0
  9
$STEPSIZE
 40
6.0
  9
$3DDWFPREC
 40
2.0
  9
$PSOLWIDTH
 40
0.25
  9
$PSOLHEIGHT
 40
4.0
  9
$LOFTANG1
 40
1.570796326794897
  9
$LOFTANG2
 40
1.570796326794897
  9
$LOFTMAG1
 40
0.0
  9
$LOFTMAG2
 40
0.0
  9
$LOFTPARAM
 70
     7
  9
$LOFTNORMALS
280
     1
  9
$LATITUDE
 40
37.795
  9
$LONGITUDE
 40
-122.394
  9
$NORTHDIRECTION
 40
0.0
  9
$TIMEZONE
 70
 -8000
  9
$LIGHTGLYPHDISPLAY
280
     1
  9
$TILEMODELIGHTSYNCH
280
     1
  9
$CMATERIAL
347
3C
  9
$SOLIDHIST
280
     1
  9
$SHOWHIST
280
     1
  9
$DWFFRAME
280
     2
  9
$DGNFRAME
280
     2
  9
$REALWORLDSCALE
290
     1
  9
$INTERFERECOLOR
 62
   256
  9
$CSHADOW
280
     0
  9
$SHADOWPLANELOCATION
 40
0.0
  0
ENDSEC
  0
SECTION
  2
CLASSES
  0
CLASS
  1
ACDBDICTIONARYWDFLT
  2
AcDbDictionaryWithDefault
  3
ObjectDBX Classes
 90
        0
 91
        4
280
     0
281
     0
  0
CLASS
  1
VISUALSTYLE
  2
AcDbVisualStyle
  3
ObjectDBX Classes
 90
     4095
 91
        4
280
     0
281
     0
  0
CLASS
  1
MATERIAL
  2
AcDbMaterial
  3
ObjectDBX Classes
 90
     1153
 91
        4
280
     0
281
     0
  0
CLASS
  1
SUN
  2
AcDbSun
  3
SCENEOE
 90
     1024
 91
        4
280
     0
281
     0
  0
ENDSEC
  0
SECTION
  2
TABLES
  0
TABLE
  2
VPORT
  5
8
330
0
100
AcDbSymbolTable
 70
     1
  0
VPORT
  5
29
330
8
100
AcDbSymbolTableRecord
100
AcDbViewportTableRecord
  2
*Active
 70
     0
 10
0.0
 20
0.0
 11
1.0
 21
1.0
 12
0.0
 22
0.0
 13
0.0
 23
0.0
 14
0.5
 24
0.5
 15
0.5
 25
0.5
 16
0.0
 26
0.0
 36
1.0
 17
105.0007777515277
 27
-148.5000416295416
 37
0.0
 40
297.0000832590831
 41
0.7070757462376333
 42
50.0
 43
0.0
 44
0.0
 50
0.0
 51
0.0
 71
     0
 72
   100
 73
     1
 74
     3
 75
     0
 76
     0
 77
     0
 78
     0
281
     0
 65
     1
110
0.0
120
0.0
130
0.0
111
1.0
121
0.0
131
0.0
112
0.0
122
1.0
132
0.0
 79
     0
146
0.0
 60
     3
 61
     5
292
     1
282
     1
141
0.0
142
0.0
 63
   250
361
3F
  0
ENDTAB
  0
TABLE
  2
LTYPE
  5
5
330
0
100
AcDbSymbolTable
 70
     2
  0
LTYPE
  5
14
330
5
100
AcDbSymbolTableRecord
100
AcDbLinetypeTableRecord
  2
ByBlock
 70
     0
  3

 72
    65
 73
     0
 40
0.0
  0
LTYPE
  5
15
330
5
100
AcDbSymbolTableRecord
100
AcDbLinetypeTableRecord
  2
ByLayer
 70
     0
  3

 72
    65
 73
     0
 40
0.0
  0
LTYPE
  5
16
330
5
100
AcDbSymbolTableRecord
100
AcDbLinetypeTableRecord
  2
Continuous
 70
     0
  3
Solid line
 72
    65
 73
     0
 40
0.0
  0
LTYPE
  5
8A
330
5
100
AcDbSymbolTableRecord
100
AcDbLinetypeTableRecord
  2
AI-Linetype-1
 70
     0
  3
Adobe Illustrator Linetype No. 1
 72
    65
 73
     2
 40
1.411111110758333
 49
0.7055555553791667
 74
     0
 49
-0.7055555553791667
 74
     0
  0
ENDTAB
  0
TABLE
  2
LAYER
  5
2
330
0
100
AcDbSymbolTable
 70
     2
  0
LAYER
  5
10
330
2
100
AcDbSymbolTableRecord
100
AcDbLayerTableRecord
  2
0
 70
     0
 62
     7
  6
Continuous
370
    -3
390
F
347
3E
  0
LAYER
  5
40
330
2
100
AcDbSymbolTableRecord
100
AcDbLayerTableRecord
  2
_U+30EC_U+30A4_U+30E4_U+30FC 1
 70
     0
 62
     7
  6
Continuous
370
    -3
390
F
347
3E
  0
ENDTAB
  0
TABLE
  2
STYLE
  5
3
330
0
100
AcDbSymbolTable
 70
     1
  0
STYLE
  5
11
330
3
100
AcDbSymbolTableRecord
100
AcDbTextStyleTableRecord
  2
Standard
 70
     0
 40
0.0
 41
1.0
 50
0.0
 71
     0
 42
0.2
  3
txt
  4

  0
ENDTAB
  0
TABLE
  2
VIEW
  5
6
330
0
100
AcDbSymbolTable
 70
     0
  0
ENDTAB
  0
TABLE
  2
UCS
  5
7
330
0
100
AcDbSymbolTable
 70
     0
  0
ENDTAB
  0
TABLE
  2
APPID
  5
9
330
0
100
AcDbSymbolTable
 70
     1
  0
APPID
  5
12
330
9
100
AcDbSymbolTableRecord
100
AcDbRegAppTableRecord
  2
ACAD
 70
     0
  0
ENDTAB
  0
TABLE
  2
DIMSTYLE
  5
A
330
0
100
AcDbSymbolTable
 70
     1
100
AcDbDimStyleTable
  0
DIMSTYLE
105
27
330
A
100
AcDbSymbolTableRecord
100
AcDbDimStyleTableRecord
  2
Standard
 70
     0
178
     0
340
11
  0
ENDTAB
  0
TABLE
  2
BLOCK_RECORD
  5
1
330
0
100
AcDbSymbolTable
 70
     4
  0
BLOCK_RECORD
  5
1F
330
1
100
AcDbSymbolTableRecord
100
AcDbBlockTableRecord
  2
*Model_Space
340
22
 70
     0
280
     1
281
     0
  0
BLOCK_RECORD
  5
1B
330
1
100
AcDbSymbolTableRecord
100
AcDbBlockTableRecord
  2
*Paper_Space
340
1E
 70
     0
280
     1
281
     0
  0
BLOCK_RECORD
  5
23
330
1
100
AcDbSymbolTableRecord
100
AcDbBlockTableRecord
  2
*Paper_Space0
340
26
 70
     0
280
     1
281
     0
  0
BLOCK_RECORD
  5
6A
330
1
100
AcDbSymbolTableRecord
100
AcDbBlockTableRecord
  2
block 2
340
0
102
{BLKREFS
331
6B
102
}
 70
     0
280
     1
281
     0
  0
BLOCK_RECORD
  5
7E
330
1
100
AcDbSymbolTableRecord
100
AcDbBlockTableRecord
  2
block 3
340
0
102
{BLKREFS
331
7F
102
}
 70
     0
280
     1
281
     0
  0
BLOCK_RECORD
  5
90
330
1
100
AcDbSymbolTableRecord
100
AcDbBlockTableRecord
  2
block 4
340
0
102
{BLKREFS
331
91
102
}
 70
     0
280
     1
281
     0
  0
ENDTAB
  0
ENDSEC
  0
SECTION
  2
BLOCKS
  0
BLOCK
  5
20
330
1F
100
AcDbEntity
  8
0
100
AcDbBlockBegin
  2
*Model_Space
 70
     0
 10
0.0
 20
0.0
 30
0.0
  3
*Model_Space
  1

  0
ENDBLK
  5
21
330
1F
100
AcDbEntity
  8
0
100
AcDbBlockEnd
  0
BLOCK
  5
1C
330
1B
100
AcDbEntity
 67
     1
  8
0
100
AcDbBlockBegin
  2
*Paper_Space
 70
     0
 10
0.0
 20
0.0
 30
0.0
  3
*Paper_Space
  1

  0
ENDBLK
  5
1D
330
1B
100
AcDbEntity
 67
     1
  8
0
100
AcDbBlockEnd
  0
BLOCK
  5
24
330
23
100
AcDbEntity
  8
0
100
AcDbBlockBegin
  2
*Paper_Space0
 70
     0
 10
0.0
 20
0.0
 30
0.0
  3
*Paper_Space0
  1

  0
ENDBLK
  5
25
330
23
100
AcDbEntity
  8
0
100
AcDbBlockEnd
  0
BLOCK
  5
6C
330
6A
100
AcDbEntity
  8
0
100
AcDbBlockBegin
  2
block 2
 70
     0
 10
0.0
 20
0.0
 30
0.0
  3
block 2
  1

  0
SPLINE
  5
6E
330
6A
100
AcDbEntity
  8
_U+30EC_U+30A4_U+30E4_U+30FC 1
370
     0
100
AcDbSpline
210
0.0
220
0.0
230
1.0
 70
    11
 71
     3
 72
    62
 73
    58
 74
     0
 42
0.0000000001
 43
0.0000000001
 12
1.0
 22
0.0
 32
0.0
 13
1.0
 23
0.0
 33
0.0
 40
0.0
 40
0.0
 40
0.0
 40
0.0
 40
1.0
 40
1.0
 40
1.0
 40
2.0
 40
2.0
 40
2.0
 40
3.0
 40
3.0
 40
3.0
 40
4.0
 40
4.0
 40
4.0
 40
5.0
 40
5.0
 40
5.0
 40
6.0
 40
6.0
 40
6.0
 40
7.0
 40
7.0
 40
7.0
 40
8.0
 40
8.0
 40
8.0
 40
9.0
 40
9.0
 40
9.0
 40
10.0
 40
10.0
 40
10.0
 40
11.0
 40
11.0
 40
11.0
 40
12.0
 40
12.0
 40
12.0
 40
13.0
 40
13.0
 40
13.0
 40
14.0
 40
14.0
 40
14.0
 40
15.0
 40
15.0
 40
15.0
 40
16.0
 40
16.0
 40
16.0
 40
17.0
 40
17.0
 40
17.0
 40
18.0
 40
18.0
 40
18.0
 40
19.0
 40
19.0
 40
19.0
 40
19.0
 10
85.5424099178505
 20
-154.6096842061393
 30
0.0
 10
85.5424099178505
 20
-154.7113145229541
 30
0.0
 10
85.52122258061623
 20
-154.944202977757
 30
0.0
 10
85.33501516963847
 20
-155.0775281730362
 30
0.0
 10
85.22287731159359
 20
-155.1567653691969
 30
0.0
 10
85.12348630684413
 20
-155.1612439933278
 30
0.0
 10
85.03890921268125
 20
-155.1657226174586
 30
0.0
 10
85.03890921268125
 20
-155.1657226174586
 30
0.0
 10
85.03890921268125
 20
-154.9307671053645
 30
0.0
 10
85.03890921268125
 20
-154.9307671053645
 30
0.0
 10
85.11297876561412
 20
-154.9283555385249
 30
0.0
 10
85.34776202293389
 20
-154.9169867234235
 30
0.0
 10
85.34776202293389
 20
-154.6141628302701
 30
0.0
 10
85.34776202293389
 20
-154.4670572530499
 30
0.0
 10
85.2779988393576
 20
-154.3044487461461
 30
0.0
 10
85.04941675391126
 20
-154.3044487461461
 30
0.0
 10
84.93314478128408
 20
-154.3044487461461
 30
0.0
 10
84.8843966801678
 20
-154.3451008728721
 30
0.0
 10
84.85270180170349
 20
-154.3788628086275
 30
0.0
 10
84.77863224877062
 20
-154.4581000047883
 30
0.0
 10
84.76605765024946
 20
-154.5824679518058
 30
0.0
 10
84.76605765024946
 20
-154.6413790846036
 30
0.0
 10
84.76605765024946
 20
-154.6617051479665
 30
0.0
 10
84.76812470754061
 20
-154.6999457078528
 30
0.0
 10
84.77225882212291
 20
-154.7295735290259
 30
0.0
 10
84.77225882212291
 20
-154.7295735290259
 30
0.0
 10
84.5776109272063
 20
-154.7295735290259
 30
0.0
 10
84.5776109272063
 20
-154.7295735290259
 30
0.0
 10
84.583984353854
 20
-154.6889214023
 30
0.0
 10
84.58622366591942
 20
-154.6434461418947
 30
0.0
 10
84.58622366591942
 20
-154.6369004604727
 30
0.0
 10
84.58622366591942
 20
-154.5666205125736
 30
0.0
 10
84.56503632868514
 20
-154.3540581211337
 30
0.0
 10
84.32801375929995
 20
-154.3540581211337
 30
0.0
 10
84.15041908703532
 20
-154.3540581211337
 30
0.0
 10
84.09529755927132
 20
-154.4942735073834
 30
0.0
 10
84.09529755927132
 20
-154.6117512634304
 30
0.0
 10
84.09529755927132
 20
-154.8945936027694
 30
0.0
 10
84.32801375929995
 20
-154.9035508510311
 30
0.0
 10
84.40001625494166
 20
-154.9080294751619
 30
0.0
 10
84.40001625494166
 20
-154.9080294751619
 30
0.0
 10
84.40001625494166
 20
-155.1250704907326
 30
0.0
 10
84.40001625494166
 20
-155.1250704907326
 30
0.0
 10
84.27513154360136
 20
-155.116113242471
 30
0.0
 10
83.89858260706356
 20
-155.0868299308464
 30
0.0
 10
83.89858260706356
 20
-154.5983153910379
 30
0.0
 10
83.89858260706356
 20
-154.3585367452645
 30
0.0
 10
84.025534375695
 20
-154.1008436029678
 30
0.0
 10
84.32164033265224
 20
-154.1008436029678
 30
0.0
 10
84.50784774362998
 20
-154.1008436029678
 30
0.0
 10
84.59035778050172
 20
-154.2028184293312
 30
0.0
 10
84.65168048013916
 20
-154.3089273702769
 30
0.0
 10
84.67924124402117
 20
-154.2434705560572
 30
0.0
 10
84.75968422360175
 20
-154.0488226611406
 30
0.0
 10
85.0368421553901
 20
-154.0488226611406
 30
0.0
 10
85.3753227868159
 20
-154.0488226611406
 30
0.0
 10
85.5424099178505
 20
-154.3134059944078
 30
0.0
 10
85.5424099178505
 20
-154.6096842061393
 30
0.0
  0
HATCH
  5
6F
330
6A
100
AcDbEntity
  8
_U+30EC_U+30A4_U+30E4_U+30FC 1
 62
   179
420
  2234388
100
AcDbHatch
 10
0.0
 20
0.0
 30
0.0
210
0.0
220
0.0
230
1.0
  2
SOLID
 70
     1
 71
     0
 91
        1
 92
        1
 93
        1
 72
     4
 94
        3
 73
     0
 74
     1
 95
       62
 96
       58
 40
0.0
 40
0.0
 40
0.0
 40
0.0
 40
1.0
 40
1.0
 40
1.0
 40
2.0
 40
2.0
 40
2.0
 40
3.0
 40
3.0
 40
3.0
 40
4.0
 40
4.0
 40
4.0
 40
5.0
 40
5.0
 40
5.0
 40
6.0
 40
6.0
 40
6.0
 40
7.0
 40
7.0
 40
7.0
 40
8.0
 40
8.0
 40
8.0
 40
9.0
 40
9.0
 40
9.0
 40
10.0
 40
10.0
 40
10.0
 40
11.0
 40
11.0
 40
11.0
 40
12.0
 40
12.0
 40
12.0
 40
13.0
 40
13.0
 40
13.0
 40
14.0
 40
14.0
 40
14.0
 40
15.0
 40
15.0
 40
15.0
 40
16.0
 40
16.0
 40
16.0
 40
17.0
 40
17.0
 40
17.0
 40
18.0
 40
18.0
 40
18.0
 40
19.0
 40
19.0
 40
19.0
 40
19.0
 10
85.5424099178505
 20
-154.6096842061393
 10
85.5424099178505
 20
-154.7113145229541
 10
85.52122258061623
 20
-154.944202977757
 10
85.33501516963847
 20
-155.0775281730362
 10
85.22287731159359
 20
-155.1567653691969
 10
85.12348630684413
 20
-155.1612439933278
 10
85.03890921268125
 20
-155.1657226174586
 10
85.03890921268125
 20
-155.1657226174586
 10
85.03890921268125
 20
-154.9307671053645
 10
85.03890921268125
 20
-154.9307671053645
 10
85.11297876561412
 20
-154.9283555385249
 10
85.34776202293389
 20
-154.9169867234235
 10
85.34776202293389
 20
-154.6141628302701
 10
85.34776202293389
 20
-154.4670572530499
 10
85.2779988393576
 20
-154.3044487461461
 10
85.04941675391126
 20
-154.3044487461461
 10
84.93314478128408
 20
-154.3044487461461
 10
84.8843966801678
 20
-154.3451008728721
 10
84.85270180170349
 20
-154.3788628086275
 10
84.77863224877062
 20
-154.4581000047883
 10
84.76605765024946
 20
-154.5824679518058
 10
84.76605765024946
 20
-154.6413790846036
 10
84.76605765024946
 20
-154.6617051479665
 10
84.76812470754061
 20
-154.6999457078528
 10
84.77225882212291
 20
-154.7295735290259
 10
84.77225882212291
 20
-154.7295735290259
 10
84.5776109272063
 20
-154.7295735290259
 10
84.5776109272063
 20
-154.7295735290259
 10
84.583984353854
 20
-154.6889214023
 10
84.58622366591942
 20
-154.6434461418947
 10
84.58622366591942
 20
-154.6369004604727
 10
84.58622366591942
 20
-154.5666205125736
 10
84.56503632868514
 20
-154.3540581211337
 10
84.32801375929995
 20
-154.3540581211337
 10
84.15041908703532
 20
-154.3540581211337
 10
84.09529755927132
 20
-154.4942735073834
 10
84.09529755927132
 20
-154.6117512634304
 10
84.09529755927132
 20
-154.8945936027694
 10
84.32801375929995
 20
-154.9035508510311
 10
84.40001625494166
 20
-154.9080294751619
 10
84.40001625494166
 20
-154.9080294751619
 10
84.40001625494166
 20
-155.1250704907326
 10
84.40001625494166
 20
-155.1250704907326
 10
84.27513154360136
 20
-155.116113242471
 10
83.89858260706356
 20
-155.0868299308464
 10
83.89858260706356
 20
-154.5983153910379
 10
83.89858260706356
 20
-154.3585367452645
 10
84.025534375695
 20
-154.1008436029678
 10
84.32164033265224
 20
-154.1008436029678
 10
84.50784774362998
 20
-154.1008436029678
 10
84.59035778050172
 20
-154.2028184293312
 10
84.65168048013916
 20
-154.3089273702769
 10
84.67924124402117
 20
-154.2434705560572
 10
84.75968422360175
 20
-154.0488226611406
 10
85.0368421553901
 20
-154.0488226611406
 10
85.3753227868159
 20
-154.0488226611406
 10
85.5424099178505
 20
-154.3134059944078
 10
85.5424099178505
 20
-154.6096842061393
 97
        0
 97
        0
 75
     2
 76
     1
 98
        0
  0
SPLINE
  5
70
330
6A
100
AcDbEntity
  8
_U+30EC_U+30A4_U+30E4_U+30FC 1
370
     0
100
AcDbSpline
210
0.0
220
0.0
230
1.0
 70
    11
 71
     3
 72
    53
 73
    49
 74
     0
 42
0.0000000001
 43
0.0000000001
 12
1.0
 22
0.0
 32
0.0
 13
1.0
 23
0.0
 33
0.0
 40
0.0
 40
0.0
 40
0.0
 40
0.0
 40
1.0
 40
1.0
 40
1.0
 40
2.0
 40
2.0
 40
2.0
 40
3.0
 40
3.0
 40
3.0
 40
4.0
 40
4.0
 40
4.0
 40
5.0
 40
5.0
 40
5.0
 40
6.0
 40
6.0
 40
6.0
 40
7.0
 40
7.0
 40
7.0
 40
8.0
 40
8.0
 40
8.0
 40
9.0
 40
9.0
 40
9.0
 40
10.0
 40
10.0
 40
10.0
 40
11.0
 40
11.0
 40
11.0
 40
12.0
 40
12.0
 40
12.0
 40
13.0
 40
13.0
 40
13.0
 40
14.0
 40
14.0
 40
14.0
 40
15.0
 40
15.0
 40
15.0
 40
16.0
 40
16.0
 40
16.0
 40
16.0
 10
85.5424099178505
 20
-153.3632486595759
 30
0.0
 10
85.5424099178505
 20
-153.4466199703189
 30
0.0
 10
85.52535669519852
 20
-153.5554849876528
 30
0.0
 10
85.46196693826992
 20
-153.6636609858896
 30
0.0
 10
85.35189613751619
 20
-153.8493516325446
 30
0.0
 10
85.22081025430244
 20
-153.8717447531987
 30
0.0
 10
85.11297876561412
 20
-153.8920708165617
 30
0.0
 10
85.11297876561412
 20
-153.8920708165617
 30
0.0
 10
85.11297876561412
 20
-153.654703737628
 30
0.0
 10
85.11297876561412
 20
-153.654703737628
 30
0.0
 10
85.31176077511303
 20
-153.5961371143788
 30
0.0
 10
85.34138859628618
 20
-153.4604003522599
 30
0.0
 10
85.34138859628618
 20
-153.3608370927362
 30
0.0
 10
85.34138859628618
 20
-153.2116644582249
 30
0.0
 10
85.24199759153673
 20
-153.0490559513211
 30
0.0
 10
85.0092813915081
 20
-153.0490559513211
 30
0.0
 10
84.75331079695404
 20
-153.0490559513211
 30
0.0
 10
84.68354761337773
 20
-153.2409477698495
 30
0.0
 10
84.68354761337773
 20
-153.3697943409978
 30
0.0
 10
84.68354761337773
 20
-153.4039007863018
 30
0.0
 10
84.68354761337773
 20
-153.5554849876528
 30
0.0
 10
84.81256643930034
 20
-153.6502251134972
 30
0.0
 10
84.81256643930034
 20
-153.6502251134972
 30
0.0
 10
84.7934461593572
 20
-153.8379828174433
 30
0.0
 10
84.7934461593572
 20
-153.8379828174433
 30
0.0
 10
84.7934461593572
 20
-153.8379828174433
 30
0.0
 10
83.94733070817983
 20
-153.7091362462949
 30
0.0
 10
83.94733070817983
 20
-153.7091362462949
 30
0.0
 10
83.94733070817983
 20
-153.7091362462949
 30
0.0
 10
83.94733070817983
 20
-152.8771456866071
 30
0.0
 10
83.94733070817983
 20
-152.8771456866071
 30
0.0
 10
83.94733070817983
 20
-152.8771456866071
 30
0.0
 10
84.14197860309645
 20
-152.8771456866071
 30
0.0
 10
84.14197860309645
 20
-152.8771456866071
 30
0.0
 10
84.14197860309645
 20
-152.8771456866071
 30
0.0
 10
84.14197860309645
 20
-153.5348144147413
 30
0.0
 10
84.14197860309645
 20
-153.5348144147413
 30
0.0
 10
84.14197860309645
 20
-153.5348144147413
 30
0.0
 10
84.56503632868514
 20
-153.6050943626404
 30
0.0
 10
84.56503632868514
 20
-153.6050943626404
 30
0.0
 10
84.53110213815542
 20
-153.5396375484206
 30
0.0
 10
84.49096677575226
 20
-153.4514431039983
 30
0.0
 10
84.49096677575226
 20
-153.3246635901411
 30
0.0
 10
84.49096677575226
 20
-153.0535345754519
 30
0.0
 10
84.67717418673001
 20
-152.800320057286
 30
0.0
 10
84.99016111156496
 20
-152.800320057286
 30
0.0
 10
85.30762666053073
 20
-152.800320057286
 30
0.0
 10
85.5424099178505
 20
-153.0397541935109
 30
0.0
 10
85.5424099178505
 20
-153.3632486595759
 30
0.0
  0
HATCH
  5
71
330
6A
100
AcDbEntity
  8
_U+30EC_U+30A4_U+30E4_U+30FC 1
 62
   179
420
  2234388
100
AcDbHatch
 10
0.0
 20
0.0
 30
0.0
210
0.0
220
0.0
230
1.0
  2
SOLID
 70
     1
 71
     0
 91
        1
 92
        1
 93
        1
 72
     4
 94
        3
 73
     0
 74
     1
 95
       53
 96
       49
 40
0.0
 40
0.0
 40
0.0
 40
0.0
 40
1.0
 40
1.0
 40
1.0
 40
2.0
 40
2.0
 40
2.0
 40
3.0
 40
3.0
 40
3.0
 40
4.0
 40
4.0
 40
4.0
 40
5.0
 40
5.0
 40
5.0
 40
6.0
 40
6.0
 40
6.0
 40
7.0
 40
7.0
 40
7.0
 40
8.0
 40
8.0
 40
8.0
 40
9.0
 40
9.0
 40
9.0
 40
10.0
 40
10.0
 40
10.0
 40
11.0
 40
11.0
 40
11.0
 40
12.0
 40
12.0
 40
12.0
 40
13.0
 40
13.0
 40
13.0
 40
14.0
 40
14.0
 40
14.0
 40
15.0
 40
15.0
 40
15.0
 40
16.0
 40
16.0
 40
16.0
 40
16.0
 10
85.5424099178505
 20
-153.3632486595759
 10
85.5424099178505
 20
-153.4466199703189
 10
85.52535669519852
 20
-153.5554849876528
 10
85.46196693826992
 20
-153.6636609858896
 10
85.35189613751619
 20
-153.8493516325446
 10
85.22081025430244
 20
-153.8717447531987
 10
85.11297876561412
 20
-153.8920708165617
 10
85.11297876561412
 20
-153.8920708165617
 10
85.11297876561412
 20
-153.654703737628
 10
85.11297876561412
 20
-153.654703737628
 10
85.31176077511303
 20
-153.5961371143788
 10
85.34138859628618
 20
-153.4604003522599
 10
85.34138859628618
 20
-153.3608370927362
 10
85.34138859628618
 20
-153.2116644582249
 10
85.24199759153673
 20
-153.0490559513211
 10
85.0092813915081
 20
-153.0490559513211
 10
84.75331079695404
 20
-153.0490559513211
 10
84.68354761337773
 20
-153.2409477698495
 10
84.68354761337773
 20
-153.3697943409978
 10
84.68354761337773
 20
-153.4039007863018
 10
84.68354761337773
 20
-153.5554849876528
 10
84.81256643930034
 20
-153.6502251134972
 10
84.81256643930034
 20
-153.6502251134972
 10
84.7934461593572
 20
-153.8379828174433
 10
84.7934461593572
 20
-153.8379828174433
 10
84.7934461593572
 20
-153.8379828174433
 10
83.94733070817983
 20
-153.7091362462949
 10
83.94733070817983
 20
-153.7091362462949
 10
83.94733070817983
 20
-153.7091362462949
 10
83.94733070817983
 20
-152.8771456866071
 10
83.94733070817983
 20
-152.8771456866071
 10
83.94733070817983
 20
-152.8771456866071
 10
84.14197860309645
 20
-152.8771456866071
 10
84.14197860309645
 20
-152.8771456866071
 10
84.14197860309645
 20
-152.8771456866071
 10
84.14197860309645
 20
-153.5348144147413
 10
84.14197860309645
 20
-153.5348144147413
 10
84.14197860309645
 20
-153.5348144147413
 10
84.56503632868514
 20
-153.6050943626404
 10
84.56503632868514
 20
-153.6050943626404
 10
84.53110213815542
 20
-153.5396375484206
 10
84.49096677575226
 20
-153.4514431039983
 10
84.49096677575226
 20
-153.3246635901411
 10
84.49096677575226
 20
-153.0535345754519
 10
84.67717418673001
 20
-152.800320057286
 10
84.99016111156496
 20
-152.800320057286
 10
85.30762666053073
 20
-152.800320057286
 10
85.5424099178505
 20
-153.0397541935109
 10
85.5424099178505
 20
-153.3632486595759
 97
        0
 97
        0
 75
     2
 76
     1
 98
        0
  0
ENDBLK
  5
6D
330
6A
100
AcDbEntity
  8
0
100
AcDbBlockEnd
  0
BLOCK
  5
80
330
7E
100
AcDbEntity
  8
0
100
AcDbBlockBegin
  2
block 3
 70
     0
 10
0.0
 20
0.0
 30
0.0
  3
block 3
  1

  0
SPLINE
  5
82
330
7E
100
AcDbEntity
  8
_U+30EC_U+30A4_U+30E4_U+30FC 1
370
     0
100
AcDbSpline
210
0.0
220
0.0
230
1.0
 70
    11
 71
     3
 72
    62
 73
    58
 74
     0
 42
0.0000000001
 43
0.0000000001
 12
1.0
 22
0.0
 32
0.0
 13
1.0
 23
0.0
 33
0.0
 40
0.0
 40
0.0
 40
0.0
 40
0.0
 40
1.0
 40
1.0
 40
1.0
 40
2.0
 40
2.0
 40
2.0
 40
3.0
 40
3.0
 40
3.0
 40
4.0
 40
4.0
 40
4.0
 40
5.0
 40
5.0
 40
5.0
 40
6.0
 40
6.0
 40
6.0
 40
7.0
 40
7.0
 40
7.0
 40
8.0
 40
8.0
 40
8.0
 40
9.0
 40
9.0
 40
9.0
 40
10.0
 40
10.0
 40
10.0
 40
11.0
 40
11.0
 40
11.0
 40
12.0
 40
12.0
 40
12.0
 40
13.0
 40
13.0
 40
13.0
 40
14.0
 40
14.0
 40
14.0
 40
15.0
 40
15.0
 40
15.0
 40
16.0
 40
16.0
 40
16.0
 40
17.0
 40
17.0
 40
17.0
 40
18.0
 40
18.0
 40
18.0
 40
19.0
 40
19.0
 40
19.0
 40
19.0
 10
107.0715006242738
 20
-174.8144802080325
 30
0.0
 10
106.9698703074589
 20
-174.8144802080325
 30
0.0
 10
106.736981852656
 20
-174.7931206160239
 30
0.0
 10
106.6036566573769
 20
-174.6070854598205
 30
0.0
 10
106.5244194612161
 20
-174.4947753470013
 30
0.0
 10
106.5199408370853
 20
-174.3955565970261
 30
0.0
 10
106.5154622129545
 20
-174.310807248089
 30
0.0
 10
106.5154622129545
 20
-174.310807248089
 30
0.0
 10
106.7504177250485
 20
-174.310807248089
 30
0.0
 10
106.7504177250485
 20
-174.310807248089
 30
0.0
 10
106.7528292918882
 20
-174.3848768010218
 30
0.0
 10
106.7641981069895
 20
-174.6198323131159
 30
0.0
 10
107.067022000143
 20
-174.6198323131159
 30
0.0
 10
107.2141275773631
 20
-174.6198323131159
 30
0.0
 10
107.3767360842669
 20
-174.5498968747653
 30
0.0
 10
107.3767360842669
 20
-174.3214870440933
 30
0.0
 10
107.3767360842669
 20
-174.2050428166918
 30
0.0
 10
107.336083957541
 20
-174.1564669703498
 30
0.0
 10
107.3023220217855
 20
-174.1247720918855
 30
0.0
 10
107.2230848256248
 20
-174.0507025389526
 30
0.0
 10
107.0987168786073
 20
-174.0379556856572
 30
0.0
 10
107.0398057458095
 20
-174.0379556856572
 30
0.0
 10
107.0194796824465
 20
-174.0379556856572
 30
0.0
 10
106.9812391225603
 20
-174.0400227429483
 30
0.0
 10
106.9516113013871
 20
-174.0441568575306
 30
0.0
 10
106.9516113013871
 20
-174.0441568575306
 30
0.0
 10
106.9516113013871
 20
-173.849508962614
 30
0.0
 10
106.9516113013871
 20
-173.849508962614
 30
0.0
 10
106.992263428113
 20
-173.856054644036
 30
0.0
 10
107.0377386885183
 20
-173.8581217013271
 30
0.0
 10
107.0442843699403
 20
-173.8581217013271
 30
0.0
 10
107.1145643178394
 20
-173.8581217013271
 30
0.0
 10
107.3271267092793
 20
-173.8371066188671
 30
0.0
 10
107.3271267092793
 20
-173.6000840494819
 30
0.0
 10
107.3271267092793
 20
-173.422317122443
 30
0.0
 10
107.1869113230297
 20
-173.367195594679
 30
0.0
 10
107.0694335669827
 20
-173.367195594679
 30
0.0
 10
106.7865912276436
 20
-173.367195594679
 30
0.0
 10
106.777633979382
 20
-173.6000840494819
 30
0.0
 10
106.7731553552512
 20
-173.6720865451236
 30
0.0
 10
106.7731553552512
 20
-173.6720865451236
 30
0.0
 10
106.5561143396804
 20
-173.6720865451236
 30
0.0
 10
106.5561143396804
 20
-173.6720865451236
 30
0.0
 10
106.5650715879421
 20
-173.5470295790091
 30
0.0
 10
106.5943548995667
 20
-173.1704806424713
 30
0.0
 10
107.0828694393751
 20
-173.1704806424713
 30
0.0
 10
107.3226480851485
 20
-173.1704806424713
 30
0.0
 10
107.5803412274452
 20
-173.297604665877
 30
0.0
 10
107.5803412274452
 20
-173.59353836806
 30
0.0
 10
107.5803412274452
 20
-173.779918033812
 30
0.0
 10
107.4783664010818
 20
-173.8622558159094
 30
0.0
 10
107.3722574601361
 20
-173.9235785155469
 30
0.0
 10
107.4377142743559
 20
-173.9511392794289
 30
0.0
 10
107.6323621692725
 20
-174.0317545137837
 30
0.0
 10
107.6323621692725
 20
-174.3087401907978
 30
0.0
 10
107.6323621692725
 20
-174.6473930769979
 30
0.0
 10
107.3677788360053
 20
-174.8144802080325
 30
0.0
 10
107.0715006242738
 20
-174.8144802080325
 30
0.0
  0
HATCH
  5
83
330
7E
100
AcDbEntity
  8
_U+30EC_U+30A4_U+30E4_U+30FC 1
 62
   179
420
  2234388
100
AcDbHatch
 10
0.0
 20
0.0
 30
0.0
210
0.0
220
0.0
230
1.0
  2
SOLID
 70
     1
 71
     0
 91
        1
 92
        1
 93
        1
 72
     4
 94
        3
 73
     0
 74
     1
 95
       62
 96
       58
 40
0.0
 40
0.0
 40
0.0
 40
0.0
 40
1.0
 40
1.0
 40
1.0
 40
2.0
 40
2.0
 40
2.0
 40
3.0
 40
3.0
 40
3.0
 40
4.0
 40
4.0
 40
4.0
 40
5.0
 40
5.0
 40
5.0
 40
6.0
 40
6.0
 40
6.0
 40
7.0
 40
7.0
 40
7.0
 40
8.0
 40
8.0
 40
8.0
 40
9.0
 40
9.0
 40
9.0
 40
10.0
 40
10.0
 40
10.0
 40
11.0
 40
11.0
 40
11.0
 40
12.0
 40
12.0
 40
12.0
 40
13.0
 40
13.0
 40
13.0
 40
14.0
 40
14.0
 40
14.0
 40
15.0
 40
15.0
 40
15.0
 40
16.0
 40
16.0
 40
16.0
 40
17.0
 40
17.0
 40
17.0
 40
18.0
 40
18.0
 40
18.0
 40
19.0
 40
19.0
 40
19.0
 40
19.0
 10
107.0715006242738
 20
-174.8144802080325
 10
106.9698703074589
 20
-174.8144802080325
 10
106.736981852656
 20
-174.7931206160239
 10
106.6036566573769
 20
-174.6070854598205
 10
106.5244194612161
 20
-174.4947753470013
 10
106.5199408370853
 20
-174.3955565970261
 10
106.5154622129545
 20
-174.310807248089
 10
106.5154622129545
 20
-174.310807248089
 10
106.7504177250485
 20
-174.310807248089
 10
106.7504177250485
 20
-174.310807248089
 10
106.7528292918882
 20
-174.3848768010218
 10
106.7641981069895
 20
-174.6198323131159
 10
107.067022000143
 20
-174.6198323131159
 10
107.2141275773631
 20
-174.6198323131159
 10
107.3767360842669
 20
-174.5498968747653
 10
107.3767360842669
 20
-174.3214870440933
 10
107.3767360842669
 20
-174.2050428166918
 10
107.336083957541
 20
-174.1564669703498
 10
107.3023220217855
 20
-174.1247720918855
 10
107.2230848256248
 20
-174.0507025389526
 10
107.0987168786073
 20
-174.0379556856572
 10
107.0398057458095
 20
-174.0379556856572
 10
107.0194796824465
 20
-174.0379556856572
 10
106.9812391225603
 20
-174.0400227429483
 10
106.9516113013871
 20
-174.0441568575306
 10
106.9516113013871
 20
-174.0441568575306
 10
106.9516113013871
 20
-173.849508962614
 10
106.9516113013871
 20
-173.849508962614
 10
106.992263428113
 20
-173.856054644036
 10
107.0377386885183
 20
-173.8581217013271
 10
107.0442843699403
 20
-173.8581217013271
 10
107.1145643178394
 20
-173.8581217013271
 10
107.3271267092793
 20
-173.8371066188671
 10
107.3271267092793
 20
-173.6000840494819
 10
107.3271267092793
 20
-173.422317122443
 10
107.1869113230297
 20
-173.367195594679
 10
107.0694335669827
 20
-173.367195594679
 10
106.7865912276436
 20
-173.367195594679
 10
106.777633979382
 20
-173.6000840494819
 10
106.7731553552512
 20
-173.6720865451236
 10
106.7731553552512
 20
-173.6720865451236
 10
106.5561143396804
 20
-173.6720865451236
 10
106.5561143396804
 20
-173.6720865451236
 10
106.5650715879421
 20
-173.5470295790091
 10
106.5943548995667
 20
-173.1704806424713
 10
107.0828694393751
 20
-173.1704806424713
 10
107.3226480851485
 20
-173.1704806424713
 10
107.5803412274452
 20
-173.297604665877
 10
107.5803412274452
 20
-173.59353836806
 10
107.5803412274452
 20
-173.779918033812
 10
107.4783664010818
 20
-173.8622558159094
 10
107.3722574601361
 20
-173.9235785155469
 10
107.4377142743559
 20
-173.9511392794289
 10
107.6323621692725
 20
-174.0317545137837
 10
107.6323621692725
 20
-174.3087401907978
 10
107.6323621692725
 20
-174.6473930769979
 10
107.3677788360053
 20
-174.8144802080325
 10
107.0715006242738
 20
-174.8144802080325
 97
        0
 97
        0
 75
     2
 76
     1
 98
        0
  0
SPLINE
  5
84
330
7E
100
AcDbEntity
  8
_U+30EC_U+30A4_U+30E4_U+30FC 1
370
     0
100
AcDbSpline
210
0.0
220
0.0
230
1.0
 70
    11
 71
     3
 72
    53
 73
    49
 74
     0
 42
0.0000000001
 43
0.0000000001
 12
1.0
 22
0.0
 32
0.0
 13
1.0
 23
0.0
 33
0.0
 40
0.0
 40
0.0
 40
0.0
 40
0.0
 40
1.0
 40
1.0
 40
1.0
 40
2.0
 40
2.0
 40
2.0
 40
3.0
 40
3.0
 40
3.0
 40
4.0
 40
4.0
 40
4.0
 40
5.0
 40
5.0
 40
5.0
 40
6.0
 40
6.0
 40
6.0
 40
7.0
 40
7.0
 40
7.0
 40
8.0
 40
8.0
 40
8.0
 40
9.0
 40
9.0
 40
9.0
 40
10.0
 40
10.0
 40
10.0
 40
11.0
 40
11.0
 40
11.0
 40
12.0
 40
12.0
 40
12.0
 40
13.0
 40
13.0
 40
13.0
 40
14.0
 40
14.0
 40
14.0
 40
15.0
 40
15.0
 40
15.0
 40
16.0
 40
16.0
 40
16.0
 40
16.0
 10
108.3179361708372
 20
-174.8144802080325
 30
0.0
 10
108.2345648600941
 20
-174.8144802080325
 30
0.0
 10
108.1256998427602
 20
-174.7972547306063
 30
0.0
 10
108.0175238445234
 20
-174.7338649736776
 30
0.0
 10
107.8318331978684
 20
-174.6239664276982
 30
0.0
 10
107.8094400772143
 20
-174.4927082897102
 30
0.0
 10
107.7891140138513
 20
-174.3848768010218
 30
0.0
 10
107.7891140138513
 20
-174.3848768010218
 30
0.0
 10
108.026481092785
 20
-174.3848768010218
 30
0.0
 10
108.026481092785
 20
-174.3848768010218
 30
0.0
 10
108.0850477160343
 20
-174.5836588105208
 30
0.0
 10
108.2207844781531
 20
-174.6132866316939
 30
0.0
 10
108.3203477376769
 20
-174.6132866316939
 30
0.0
 10
108.4695203721882
 20
-174.6132866316939
 30
0.0
 10
108.632128879092
 20
-174.5140678817187
 30
0.0
 10
108.632128879092
 20
-174.2811794269158
 30
0.0
 10
108.632128879092
 20
-174.0252088323618
 30
0.0
 10
108.4402370605636
 20
-173.9556179035597
 30
0.0
 10
108.3113904894152
 20
-173.9556179035597
 30
0.0
 10
108.2772840441112
 20
-173.9556179035597
 30
0.0
 10
108.1256998427602
 20
-173.9556179035597
 30
0.0
 10
108.0309597169159
 20
-174.0844644747081
 30
0.0
 10
108.0309597169159
 20
-174.0844644747081
 30
0.0
 10
107.8432020129698
 20
-174.0655164495392
 30
0.0
 10
107.8432020129698
 20
-174.0655164495392
 30
0.0
 10
107.8432020129698
 20
-174.0655164495392
 30
0.0
 10
107.9720485841181
 20
-173.2194009983618
 30
0.0
 10
107.9720485841181
 20
-173.2194009983618
 30
0.0
 10
107.9720485841181
 20
-173.2194009983618
 30
0.0
 10
108.8040391438059
 20
-173.2194009983618
 30
0.0
 10
108.8040391438059
 20
-173.2194009983618
 30
0.0
 10
108.8040391438059
 20
-173.2194009983618
 30
0.0
 10
108.8040391438059
 20
-173.4140488932784
 30
0.0
 10
108.8040391438059
 20
-173.4140488932784
 30
0.0
 10
108.8040391438059
 20
-173.4140488932784
 30
0.0
 10
108.1463704156717
 20
-173.4140488932784
 30
0.0
 10
108.1463704156717
 20
-173.4140488932784
 30
0.0
 10
108.1463704156717
 20
-173.4140488932784
 30
0.0
 10
108.0760904677726
 20
-173.8371066188671
 30
0.0
 10
108.0760904677726
 20
-173.8371066188671
 30
0.0
 10
108.1415472819924
 20
-173.8030001735631
 30
0.0
 10
108.2297417264148
 20
-173.7630370659342
 30
0.0
 10
108.356521240272
 20
-173.7630370659342
 30
0.0
 10
108.6276502549612
 20
-173.7630370659342
 30
0.0
 10
108.880864773127
 20
-173.9490722221377
 30
0.0
 10
108.880864773127
 20
-174.262231401747
 30
0.0
 10
108.880864773127
 20
-174.5795246959385
 30
0.0
 10
108.6414306369021
 20
-174.8144802080325
 30
0.0
 10
108.3179361708372
 20
-174.8144802080325
 30
0.0
  0
HATCH
  5
85
330
7E
100
AcDbEntity
  8
_U+30EC_U+30A4_U+30E4_U+30FC 1
 62
   179
420
  2234388
100
AcDbHatch
 10
0.0
 20
0.0
 30
0.0
210
0.0
220
0.0
230
1.0
  2
SOLID
 70
     1
 71
     0
 91
        1
 92
        1
 93
        1
 72
     4
 94
        3
 73
     0
 74
     1
 95
       53
 96
       49
 40
0.0
 40
0.0
 40
0.0
 40
0.0
 40
1.0
 40
1.0
 40
1.0
 40
2.0
 40
2.0
 40
2.0
 40
3.0
 40
3.0
 40
3.0
 40
4.0
 40
4.0
 40
4.0
 40
5.0
 40
5.0
 40
5.0
 40
6.0
 40
6.0
 40
6.0
 40
7.0
 40
7.0
 40
7.0
 40
8.0
 40
8.0
 40
8.0
 40
9.0
 40
9.0
 40
9.0
 40
10.0
 40
10.0
 40
10.0
 40
11.0
 40
11.0
 40
11.0
 40
12.0
 40
12.0
 40
12.0
 40
13.0
 40
13.0
 40
13.0
 40
14.0
 40
14.0
 40
14.0
 40
15.0
 40
15.0
 40
15.0
 40
16.0
 40
16.0
 40
16.0
 40
16.0
 10
108.3179361708372
 20
-174.8144802080325
 10
108.2345648600941
 20
-174.8144802080325
 10
108.1256998427602
 20
-174.7972547306063
 10
108.0175238445234
 20
-174.7338649736776
 10
107.8318331978684
 20
-174.6239664276982
 10
107.8094400772143
 20
-174.4927082897102
 10
107.7891140138513
 20
-174.3848768010218
 10
107.7891140138513
 20
-174.3848768010218
 10
108.026481092785
 20
-174.3848768010218
 10
108.026481092785
 20
-174.3848768010218
 10
108.0850477160343
 20
-174.5836588105208
 10
108.2207844781531
 20
-174.6132866316939
 10
108.3203477376769
 20
-174.6132866316939
 10
108.4695203721882
 20
-174.6132866316939
 10
108.632128879092
 20
-174.5140678817187
 10
108.632128879092
 20
-174.2811794269158
 10
108.632128879092
 20
-174.0252088323618
 10
108.4402370605636
 20
-173.9556179035597
 10
108.3113904894152
 20
-173.9556179035597
 10
108.2772840441112
 20
-173.9556179035597
 10
108.1256998427602
 20
-173.9556179035597
 10
108.0309597169159
 20
-174.0844644747081
 10
108.0309597169159
 20
-174.0844644747081
 10
107.8432020129698
 20
-174.0655164495392
 10
107.8432020129698
 20
-174.0655164495392
 10
107.8432020129698
 20
-174.0655164495392
 10
107.9720485841181
 20
-173.2194009983618
 10
107.9720485841181
 20
-173.2194009983618
 10
107.9720485841181
 20
-173.2194009983618
 10
108.8040391438059
 20
-173.2194009983618
 10
108.8040391438059
 20
-173.2194009983618
 10
108.8040391438059
 20
-173.2194009983618
 10
108.8040391438059
 20
-173.4140488932784
 10
108.8040391438059
 20
-173.4140488932784
 10
108.8040391438059
 20
-173.4140488932784
 10
108.1463704156717
 20
-173.4140488932784
 10
108.1463704156717
 20
-173.4140488932784
 10
108.1463704156717
 20
-173.4140488932784
 10
108.0760904677726
 20
-173.8371066188671
 10
108.0760904677726
 20
-173.8371066188671
 10
108.1415472819924
 20
-173.8030001735631
 10
108.2297417264148
 20
-173.7630370659342
 10
108.356521240272
 20
-173.7630370659342
 10
108.6276502549612
 20
-173.7630370659342
 10
108.880864773127
 20
-173.9490722221377
 10
108.880864773127
 20
-174.262231401747
 10
108.880864773127
 20
-174.5795246959385
 10
108.6414306369021
 20
-174.8144802080325
 10
108.3179361708372
 20
-174.8144802080325
 97
        0
 97
        0
 75
     2
 76
     1
 98
        0
  0
ENDBLK
  5
81
330
7E
100
AcDbEntity
  8
0
100
AcDbBlockEnd
  0
BLOCK
  5
92
330
90
100
AcDbEntity
  8
0
100
AcDbBlockBegin
  2
block 4
 70
     0
 10
0.0
 20
0.0
 30
0.0
  3
block 4
  1

  0
SPLINE
  5
94
330
90
100
AcDbEntity
  8
_U+30EC_U+30A4_U+30E4_U+30FC 1
370
     0
100
AcDbSpline
210
0.0
220
0.0
230
1.0
 70
    11
 71
     3
 72
    17
 73
    13
 74
     0
 42
0.0000000001
 43
0.0000000001
 12
1.0
 22
0.0
 32
0.0
 13
1.0
 23
0.0
 33
0.0
 40
0.0
 40
0.0
 40
0.0
 40
0.0
 40
1.0
 40
1.0
 40
1.0
 40
2.0
 40
2.0
 40
2.0
 40
3.0
 40
3.0
 40
3.0
 40
4.0
 40
4.0
 40
4.0
 40
4.0
 10
109.1995361055126
 20
-165.5609537346514
 30
0.0
 10
109.0937716741154
 20
-165.4551893032543
 30
0.0
 10
109.0131564397606
 20
-165.4172932529165
 30
0.0
 10
108.9201388616589
 20
-165.3855983744522
 30
0.0
 10
108.9201388616589
 20
-165.3855983744522
 30
0.0
 10
109.0303819171869
 20
-165.2205783007088
 30
0.0
 10
109.0303819171869
 20
-165.2205783007088
 30
0.0
 10
109.1275336098709
 20
-165.2629529751773
 30
0.0
 10
109.2481119518546
 20
-165.3411566426925
 30
0.0
 10
109.3011664223275
 20
-165.395933660908
 30
0.0
 10
109.3011664223275
 20
-165.395933660908
 30
0.0
 10
109.1995361055126
 20
-165.5609537346514
 30
0.0
 10
109.1995361055126
 20
-165.5609537346514
 30
0.0
  0
SPLINE
  5
95
330
90
100
AcDbEntity
  8
_U+30EC_U+30A4_U+30E4_U+30FC 1
370
     0
100
AcDbSpline
210
0.0
220
0.0
230
1.0
 70
    11
 71
     3
 72
   182
 73
   178
 74
     0
 42
0.0000000001
 43
0.0000000001
 12
1.0
 22
0.0
 32
0.0
 13
1.0
 23
0.0
 33
0.0
 40
0.0
 40
0.0
 40
0.0
 40
0.0
 40
1.0
 40
1.0
 40
1.0
 40
2.0
 40
2.0
 40
2.0
 40
3.0
 40
3.0
 40
3.0
 40
4.0
 40
4.0
 40
4.0
 40
5.0
 40
5.0
 40
5.0
 40
6.0
 40
6.0
 40
6.0
 40
7.0
 40
7.0
 40
7.0
 40
8.0
 40
8.0
 40
8.0
 40
9.0
 40
9.0
 40
9.0
 40
10.0
 40
10.0
 40
10.0
 40
11.0
 40
11.0
 40
11.0
 40
12.0
 40
12.0
 40
12.0
 40
13.0
 40
13.0
 40
13.0
 40
14.0
 40
14.0
 40
14.0
 40
15.0
 40
15.0
 40
15.0
 40
16.0
 40
16.0
 40
16.0
 40
17.0
 40
17.0
 40
17.0
 40
18.0
 40
18.0
 40
18.0
 40
19.0
 40
19.0
 40
19.0
 40
20.0
 40
20.0
 40
20.0
 40
21.0
 40
21.0
 40
21.0
 40
22.0
 40
22.0
 40
22.0
 40
23.0
 40
23.0
 40
23.0
 40
24.0
 40
24.0
 40
24.0
 40
25.0
 40
25.0
 40
25.0
 40
26.0
 40
26.0
 40
26.0
 40
27.0
 40
27.0
 40
27.0
 40
28.0
 40
28.0
 40
28.0
 40
29.0
 40
29.0
 40
29.0
 40
30.0
 40
30.0
 40
30.0
 40
31.0
 40
31.0
 40
31.0
 40
32.0
 40
32.0
 40
32.0
 40
33.0
 40
33.0
 40
33.0
 40
34.0
 40
34.0
 40
34.0
 40
35.0
 40
35.0
 40
35.0
 40
36.0
 40
36.0
 40
36.0
 40
37.0
 40
37.0
 40
37.0
 40
38.0
 40
38.0
 40
38.0
 40
39.0
 40
39.0
 40
39.0
 40
40.0
 40
40.0
 40
40.0
 40
41.0
 40
41.0
 40
41.0
 40
42.0
 40
42.0
 40
42.0
 40
43.0
 40
43.0
 40
43.0
 40
44.0
 40
44.0
 40
44.0
 40
45.0
 40
45.0
 40
45.0
 40
46.0
 40
46.0
 40
46.0
 40
47.0
 40
47.0
 40
47.0
 40
48.0
 40
48.0
 40
48.0
 40
49.0
 40
49.0
 40
49.0
 40
50.0
 40
50.0
 40
50.0
 40
51.0
 40
51.0
 40
51.0
 40
52.0
 40
52.0
 40
52.0
 40
53.0
 40
53.0
 40
53.0
 40
54.0
 40
54.0
 40
54.0
 40
55.0
 40
55.0
 40
55.0
 40
56.0
 40
56.0
 40
56.0
 40
57.0
 40
57.0
 40
57.0
 40
58.0
 40
58.0
 40
58.0
 40
59.0
 40
59.0
 40
59.0
 40
59.0
 10
110.2444335661889
 20
-166.7395209001554
 30
0.0
 10
110.2444335661889
 20
-166.7395209001554
 30
0.0
 10
109.6077799205147
 20
-166.7395209001554
 30
0.0
 10
109.6077799205147
 20
-166.7395209001554
 30
0.0
 10
109.3941840004292
 20
-166.7395209001554
 30
0.0
 10
109.1781765135041
 20
-166.7436550147377
 30
0.0
 10
108.9645805934186
 20
-166.7564018680331
 30
0.0
 10
108.9645805934186
 20
-166.7564018680331
 30
0.0
 10
108.9645805934186
 20
-166.5490071198211
 30
0.0
 10
108.9645805934186
 20
-166.5490071198211
 30
0.0
 10
109.1867892522172
 20
-166.5617539731165
 30
0.0
 10
109.5102837182822
 20
-166.5658880876988
 30
0.0
 10
109.6077799205147
 20
-166.5658880876988
 30
0.0
 10
109.6077799205147
 20
-166.5658880876988
 30
0.0
 10
109.8279215220222
 20
-166.5658880876988
 30
0.0
 10
109.8279215220222
 20
-166.5658880876988
 30
0.0
 10
109.8279215220222
 20
-166.5658880876988
 30
0.0
 10
109.8279215220222
 20
-166.424294663255
 30
0.0
 10
109.8279215220222
 20
-166.424294663255
 30
0.0
 10
109.8279215220222
 20
-166.424294663255
 30
0.0
 10
109.667035562861
 20
-166.424294663255
 30
0.0
 10
109.667035562861
 20
-166.424294663255
 30
0.0
 10
109.5020154891176
 20
-166.424294663255
 30
0.0
 10
109.3369954153741
 20
-166.4284287778374
 30
0.0
 10
109.1719753416306
 20
-166.4432426884239
 30
0.0
 10
109.1719753416306
 20
-166.4432426884239
 30
0.0
 10
109.1719753416306
 20
-166.2337808829207
 30
0.0
 10
109.1719753416306
 20
-166.2337808829207
 30
0.0
 10
109.3431965872475
 20
-166.2485947935073
 30
0.0
 10
109.590898952637
 20
-166.2527289080896
 30
0.0
 10
109.667035562861
 20
-166.2527289080896
 30
0.0
 10
109.667035562861
 20
-166.2527289080896
 30
0.0
 10
109.8279215220222
 20
-166.2527289080896
 30
0.0
 10
109.8279215220222
 20
-166.2527289080896
 30
0.0
 10
109.8234428978914
 20
-166.1810709219964
 30
0.0
 10
109.8234428978914
 20
-166.1745252405744
 30
0.0
 10
109.8172417260179
 20
-166.1218152796501
 30
0.0
 10
109.8172417260179
 20
-166.1218152796501
 30
0.0
 10
109.9567680931705
 20
-166.1366291902367
 30
0.0
 10
109.9567680931705
 20
-166.1366291902367
 30
0.0
 10
109.9567680931705
 20
-166.1366291902367
 30
0.0
 10
109.8575493431953
 20
-165.9650634350712
 30
0.0
 10
109.8575493431953
 20
-165.9650634350712
 30
0.0
 10
109.9040581322462
 20
-165.9716091164932
 30
0.0
 10
109.9781276851791
 20
-165.9798773456578
 30
0.0
 10
109.9950086530568
 20
-165.9798773456578
 30
0.0
 10
110.04565155669
 20
-165.9798773456578
 30
0.0
 10
110.0625325245677
 20
-165.9588622631978
 30
0.0
 10
110.0625325245677
 20
-165.9016736781427
 30
0.0
 10
110.0625325245677
 20
-165.9016736781427
 30
0.0
 10
110.0625325245677
 20
-165.7642143682812
 30
0.0
 10
110.0625325245677
 20
-165.7642143682812
 30
0.0
 10
110.0625325245677
 20
-165.7642143682812
 30
0.0
 10
109.9567680931705
 20
-165.7642143682812
 30
0.0
 10
109.9567680931705
 20
-165.7642143682812
 30
0.0
 10
109.8234428978914
 20
-165.7642143682812
 30
0.0
 10
109.667035562861
 20
-165.7642143682812
 30
0.0
 10
109.5443901635861
 20
-165.7769612215766
 30
0.0
 10
109.5443901635861
 20
-165.7769612215766
 30
0.0
 10
109.5443901635861
 20
-165.5864474412423
 30
0.0
 10
109.5443901635861
 20
-165.5864474412423
 30
0.0
 10
109.7114772946207
 20
-165.60332840912
 30
0.0
 10
109.941954182584
 20
-165.6053954664112
 30
0.0
 10
109.9567680931705
 20
-165.6053954664112
 30
0.0
 10
109.9567680931705
 20
-165.6053954664112
 30
0.0
 10
110.0625325245677
 20
-165.6053954664112
 30
0.0
 10
110.0625325245677
 20
-165.6053954664112
 30
0.0
 10
110.0625325245677
 20
-165.6053954664112
 30
0.0
 10
110.0625325245677
 20
-165.4744818379717
 30
0.0
 10
110.0625325245677
 20
-165.4744818379717
 30
0.0
 10
110.0625325245677
 20
-165.4744818379717
 30
0.0
 10
110.02463647423
 20
-165.4744818379717
 30
0.0
 10
110.02463647423
 20
-165.4744818379717
 30
0.0
 10
109.9801947424702
 20
-165.4744818379717
 30
0.0
 10
109.8551377763557
 20
-165.478615952554
 30
0.0
 10
109.7662543128362
 20
-165.4868841817186
 30
0.0
 10
109.7662543128362
 20
-165.4868841817186
 30
0.0
 10
109.7662543128362
 20
-165.4066134569123
 30
0.0
 10
109.7662543128362
 20
-165.4066134569123
 30
0.0
 10
109.7135443519119
 20
-165.4448540167985
 30
0.0
 10
109.688050645321
 20
-165.4596679273851
 30
0.0
 10
109.6456759708525
 20
-165.4827500671363
 30
0.0
 10
109.6456759708525
 20
-165.4827500671363
 30
0.0
 10
109.4575737573578
 20
-165.3539034959879
 30
0.0
 10
109.4575737573578
 20
-165.3539034959879
 30
0.0
 10
109.535777424873
 20
-165.3197970506839
 30
0.0
 10
109.6925292694519
 20
-165.2564072937554
 30
0.0
 10
109.8489366044822
 20
-165.1127468120204
 30
0.0
 10
109.9312743865797
 20
-165.0341986349567
 30
0.0
 10
110.0098225636434
 20
-164.9497937955681
 30
0.0
 10
110.0625325245677
 20
-164.8481634787532
 30
0.0
 10
110.0625325245677
 20
-164.8481634787532
 30
0.0
 10
110.274061387362
 20
-164.9094861783907
 30
0.0
 10
110.274061387362
 20
-164.9094861783907
 30
0.0
 10
110.2933539220794
 20
-164.9156873502641
 30
0.0
 10
110.3036892085352
 20
-164.9243000889773
 30
0.0
 10
110.3036892085352
 20
-164.9370469422727
 30
0.0
 10
110.3036892085352
 20
-164.9539279101504
 30
0.0
 10
110.2909423552398
 20
-164.9601290820239
 30
0.0
 10
110.2657931581974
 20
-164.9728759353193
 30
0.0
 10
110.3460638830038
 20
-165.0703721375519
 30
0.0
 10
110.5090168994561
 20
-165.1675238302359
 30
0.0
 10
110.5427788352115
 20
-165.1864718554048
 30
0.0
 10
110.6929849983684
 20
-165.2753553189242
 30
0.0
 10
110.8073621684787
 20
-165.3029160828062
 30
0.0
 10
110.8855658359939
 20
-165.3218641079751
 30
0.0
 10
110.8855658359939
 20
-165.3218641079751
 30
0.0
 10
110.7670545513013
 20
-165.4913628058494
 30
0.0
 10
110.7670545513013
 20
-165.4913628058494
 30
0.0
 10
110.6823052023641
 20
-165.4617349846762
 30
0.0
 10
110.631662298731
 20
-165.4427869595074
 30
0.0
 10
110.5131510140384
 20
-165.3769856357391
 30
0.0
 10
110.5131510140384
 20
-165.3769856357391
 30
0.0
 10
110.5131510140384
 20
-165.4868841817186
 30
0.0
 10
110.5131510140384
 20
-165.4868841817186
 30
0.0
 10
110.4308132319409
 20
-165.478615952554
 30
0.0
 10
110.3036892085352
 20
-165.4744818379717
 30
0.0
 10
110.2509792476109
 20
-165.4744818379717
 30
0.0
 10
110.2509792476109
 20
-165.4744818379717
 30
0.0
 10
110.2509792476109
 20
-165.6053954664112
 30
0.0
 10
110.2509792476109
 20
-165.6053954664112
 30
0.0
 10
110.2509792476109
 20
-165.6053954664112
 30
0.0
 10
110.3715575895946
 20
-165.6053954664112
 30
0.0
 10
110.3715575895946
 20
-165.6053954664112
 30
0.0
 10
110.3736246468858
 20
-165.6053954664112
 30
0.0
 10
110.6061685921401
 20
-165.60332840912
 30
0.0
 10
110.783935519179
 20
-165.5864474412423
 30
0.0
 10
110.783935519179
 20
-165.5864474412423
 30
0.0
 10
110.783935519179
 20
-165.7769612215766
 30
0.0
 10
110.783935519179
 20
-165.7769612215766
 30
0.0
 10
110.6550889480307
 20
-165.7642143682812
 30
0.0
 10
110.4983371034518
 20
-165.7642143682812
 30
0.0
 10
110.3715575895946
 20
-165.7642143682812
 30
0.0
 10
110.3715575895946
 20
-165.7642143682812
 30
0.0
 10
110.2509792476109
 20
-165.7642143682812
 30
0.0
 10
110.2509792476109
 20
-165.7642143682812
 30
0.0
 10
110.2509792476109
 20
-165.7642143682812
 30
0.0
 10
110.2509792476109
 20
-165.9905571416621
 30
0.0
 10
110.2509792476109
 20
-165.9905571416621
 30
0.0
 10
110.2509792476109
 20
-166.1090684263547
 30
0.0
 10
110.22548554102
 20
-166.1448974194013
 30
0.0
 10
110.0645995818589
 20
-166.1597113299879
 30
0.0
 10
110.0690782059897
 20
-166.1786593551567
 30
0.0
 10
110.0625325245677
 20
-166.189339151161
 30
0.0
 10
110.02463647423
 20
-166.2127658004607
 30
0.0
 10
110.0225694169388
 20
-166.2317138256296
 30
0.0
 10
110.0225694169388
 20
-166.237914997503
 30
0.0
 10
110.0201578500991
 20
-166.2527289080896
 30
0.0
 10
110.0201578500991
 20
-166.2527289080896
 30
0.0
 10
110.1576171599606
 20
-166.2527289080896
 30
0.0
 10
110.1576171599606
 20
-166.2527289080896
 30
0.0
 10
110.3226372337041
 20
-166.2527289080896
 30
0.0
 10
110.4900688742872
 20
-166.2485947935073
 30
0.0
 10
110.6571560053218
 20
-166.2337808829207
 30
0.0
 10
110.6571560053218
 20
-166.2337808829207
 30
0.0
 10
110.6571560053218
 20
-166.4411756311328
 30
0.0
 10
110.6571560053218
 20
-166.4411756311328
 30
0.0
 10
110.4411485183967
 20
-166.424294663255
 30
0.0
 10
110.176909694678
 20
-166.424294663255
 30
0.0
 10
110.1576171599606
 20
-166.424294663255
 30
0.0
 10
110.1576171599606
 20
-166.424294663255
 30
0.0
 10
110.018090792808
 20
-166.424294663255
 30
0.0
 10
110.018090792808
 20
-166.424294663255
 30
0.0
 10
110.018090792808
 20
-166.424294663255
 30
0.0
 10
110.018090792808
 20
-166.5658880876988
 30
0.0
 10
110.018090792808
 20
-166.5658880876988
 30
0.0
 10
110.018090792808
 20
-166.5658880876988
 30
0.0
 10
110.2444335661889
 20
-166.5658880876988
 30
0.0
 10
110.2444335661889
 20
-166.5658880876988
 30
0.0
 10
110.4604410531141
 20
-166.5658880876988
 30
0.0
 10
110.6781710877818
 20
-166.5617539731165
 30
0.0
 10
110.8938340651585
 20
-166.5490071198211
 30
0.0
 10
110.8938340651585
 20
-166.5490071198211
 30
0.0
 10
110.8938340651585
 20
-166.7564018680331
 30
0.0
 10
110.8938340651585
 20
-166.7564018680331
 30
0.0
 10
110.6127142735621
 20
-166.7395209001554
 30
0.0
 10
110.2678602154886
 20
-166.7395209001554
 30
0.0
 10
110.2444335661889
 20
-166.7395209001554
 30
0.0
  0
SPLINE
  5
96
330
90
100
AcDbEntity
  8
_U+30EC_U+30A4_U+30E4_U+30FC 1
370
     0
100
AcDbSpline
210
0.0
220
0.0
230
1.0
 70
    11
 71
     3
 72
    23
 73
    19
 74
     0
 42
0.0000000001
 43
0.0000000001
 12
1.0
 22
0.0
 32
0.0
 13
1.0
 23
0.0
 33
0.0
 40
0.0
 40
0.0
 40
0.0
 40
0.0
 40
1.0
 40
1.0
 40
1.0
 40
2.0
 40
2.0
 40
2.0
 40
3.0
 40
3.0
 40
3.0
 40
4.0
 40
4.0
 40
4.0
 40
5.0
 40
5.0
 40
5.0
 40
6.0
 40
6.0
 40
6.0
 40
6.0
 10
109.1254665525798
 20
-166.1111354836458
 30
0.0
 10
109.1254665525798
 20
-166.1321505661058
 30
0.0
 10
109.1275336098709
 20
-166.1703911259921
 30
0.0
 10
109.10203990328
 20
-166.1703911259921
 30
0.0
 10
109.0917046168243
 20
-166.1703911259921
 30
0.0
 10
109.0830918781112
 20
-166.1638454445702
 30
0.0
 10
109.0724120821069
 20
-166.1469644766924
 30
0.0
 10
109.0724120821069
 20
-166.1469644766924
 30
0.0
 10
108.9687147080009
 20
-165.9650634350712
 30
0.0
 10
108.9687147080009
 20
-165.9650634350712
 30
0.0
 10
109.1847221949261
 20
-165.8362168639229
 30
0.0
 10
109.3814371471338
 20
-165.5588866773603
 30
0.0
 10
109.4279459361847
 20
-165.4868841817186
 30
0.0
 10
109.4279459361847
 20
-165.4868841817186
 30
0.0
 10
109.4999484318264
 20
-165.6667181660486
 30
0.0
 10
109.4999484318264
 20
-165.6667181660486
 30
0.0
 10
109.3666232365472
 20
-165.8634331182564
 30
0.0
 10
109.1909233667995
 20
-166.0477457267172
 30
0.0
 10
109.1254665525798
 20
-166.1111354836458
 30
0.0
  0
SPLINE
  5
97
330
90
100
AcDbEntity
  8
_U+30EC_U+30A4_U+30E4_U+30FC 1
370
     0
100
AcDbSpline
210
0.0
220
0.0
230
1.0
 70
    11
 71
     3
 72
    17
 73
    13
 74
     0
 42
0.0000000001
 43
0.0000000001
 12
1.0
 22
0.0
 32
0.0
 13
1.0
 23
0.0
 33
0.0
 40
0.0
 40
0.0
 40
0.0
 40
0.0
 40
1.0
 40
1.0
 40
1.0
 40
2.0
 40
2.0
 40
2.0
 40
3.0
 40
3.0
 40
3.0
 40
4.0
 40
4.0
 40
4.0
 40
4.0
 10
109.3793700898427
 20
-165.2160996765779
 30
0.0
 10
109.3180473902052
 20
-165.1399630663539
 30
0.0
 10
109.1888563095084
 20
-165.0638264561299
 30
0.0
 10
109.0851589354023
 20
-165.0341986349567
 30
0.0
 10
109.0851589354023
 20
-165.0341986349567
 30
0.0
 10
109.1805880803438
 20
-164.8691785612133
 30
0.0
 10
109.1805880803438
 20
-164.8691785612133
 30
0.0
 10
109.2818738876101
 20
-164.9053520638084
 30
0.0
 10
109.3876383190073
 20
-164.9625406488636
 30
0.0
 10
109.4765217825267
 20
-165.0428113736698
 30
0.0
 10
109.4765217825267
 20
-165.0428113736698
 30
0.0
 10
109.3793700898427
 20
-165.2160996765779
 30
0.0
 10
109.3793700898427
 20
-165.2160996765779
 30
0.0
  0
SPLINE
  5
98
330
90
100
AcDbEntity
  8
_U+30EC_U+30A4_U+30E4_U+30FC 1
370
     0
100
AcDbSpline
210
0.0
220
0.0
230
1.0
 70
    11
 71
     3
 72
    23
 73
    19
 74
     0
 42
0.0000000001
 43
0.0000000001
 12
1.0
 22
0.0
 32
0.0
 13
1.0
 23
0.0
 33
0.0
 40
0.0
 40
0.0
 40
0.0
 40
0.0
 40
1.0
 40
1.0
 40
1.0
 40
2.0
 40
2.0
 40
2.0
 40
3.0
 40
3.0
 40
3.0
 40
4.0
 40
4.0
 40
4.0
 40
5.0
 40
5.0
 40
5.0
 40
6.0
 40
6.0
 40
6.0
 40
6.0
 10
109.8320556366045
 20
-165.9206217033115
 30
0.0
 10
109.8106960445959
 20
-165.9440483526112
 30
0.0
 10
109.7135443519119
 20
-166.0560139558818
 30
0.0
 10
109.5740179847593
 20
-166.1366291902367
 30
0.0
 10
109.5740179847593
 20
-166.1366291902367
 30
0.0
 10
109.4069308537247
 20
-166.0160508482529
 30
0.0
 10
109.4069308537247
 20
-166.0160508482529
 30
0.0
 10
109.5571370168816
 20
-165.9399142380289
 30
0.0
 10
109.6563557668567
 20
-165.8444850930875
 30
0.0
 10
109.7049316131988
 20
-165.7917751321632
 30
0.0
 10
109.7049316131988
 20
-165.7917751321632
 30
0.0
 10
109.8785644256554
 20
-165.8741129142606
 30
0.0
 10
109.8785644256554
 20
-165.8741129142606
 30
0.0
 10
109.88683265482
 20
-165.8782470288429
 30
0.0
 10
109.8954453935331
 20
-165.8847927102649
 30
0.0
 10
109.8954453935331
 20
-165.8954725062692
 30
0.0
 10
109.8954453935331
 20
-165.9206217033115
 30
0.0
 10
109.8596164004865
 20
-165.9206217033115
 30
0.0
 10
109.8320556366045
 20
-165.9206217033115
 30
0.0
  0
SPLINE
  5
99
330
90
100
AcDbEntity
  8
_U+30EC_U+30A4_U+30E4_U+30FC 1
370
     0
100
AcDbSpline
210
0.0
220
0.0
230
1.0
 70
    11
 71
     3
 72
    20
 73
    16
 74
     0
 42
0.0000000001
 43
0.0000000001
 12
1.0
 22
0.0
 32
0.0
 13
1.0
 23
0.0
 33
0.0
 40
0.0
 40
0.0
 40
0.0
 40
0.0
 40
1.0
 40
1.0
 40
1.0
 40
2.0
 40
2.0
 40
2.0
 40
3.0
 40
3.0
 40
3.0
 40
4.0
 40
4.0
 40
4.0
 40
5.0
 40
5.0
 40
5.0
 40
5.0
 10
110.1304009056271
 20
-165.0786403667165
 30
0.0
 10
110.0921603457409
 20
-165.127560722607
 30
0.0
 10
110.0308376461034
 20
-165.2057643901222
 30
0.0
 10
109.8913112789508
 20
-165.3156629361017
 30
0.0
 10
109.9715820037571
 20
-165.3197970506839
 30
0.0
 10
110.0012098249303
 20
-165.3197970506839
 30
0.0
 10
110.02463647423
 20
-165.3197970506839
 30
0.0
 10
110.02463647423
 20
-165.3197970506839
 30
0.0
 10
110.253046304902
 20
-165.3197970506839
 30
0.0
 10
110.253046304902
 20
-165.3197970506839
 30
0.0
 10
110.2847411833663
 20
-165.3197970506839
 30
0.0
 10
110.3333170297083
 20
-165.3177299933928
 30
0.0
 10
110.4073865826412
 20
-165.3156629361017
 30
0.0
 10
110.2954209793706
 20
-165.2415933831688
 30
0.0
 10
110.24650062348
 20
-165.1950845941179
 30
0.0
 10
110.1304009056271
 20
-165.0786403667165
 30
0.0
  0
SPLINE
  5
9A
330
90
100
AcDbEntity
  8
_U+30EC_U+30A4_U+30E4_U+30FC 1
370
     0
100
AcDbSpline
210
0.0
220
0.0
230
1.0
 70
    11
 71
     3
 72
    17
 73
    13
 74
     0
 42
0.0000000001
 43
0.0000000001
 12
1.0
 22
0.0
 32
0.0
 13
1.0
 23
0.0
 33
0.0
 40
0.0
 40
0.0
 40
0.0
 40
0.0
 40
1.0
 40
1.0
 40
1.0
 40
2.0
 40
2.0
 40
2.0
 40
3.0
 40
3.0
 40
3.0
 40
4.0
 40
4.0
 40
4.0
 40
4.0
 10
110.6909179410773
 20
-166.134217623397
 30
0.0
 10
110.555525688507
 20
-166.0222520201264
 30
0.0
 10
110.4497612571098
 20
-165.9588622631978
 30
0.0
 10
110.3312499724172
 20
-165.8954725062692
 30
0.0
 10
110.3312499724172
 20
-165.8954725062692
 30
0.0
 10
110.4580294862744
 20
-165.7831623934501
 30
0.0
 10
110.4580294862744
 20
-165.7831623934501
 30
0.0
 10
110.5892876242624
 20
-165.8296711825009
 30
0.0
 10
110.6991861702419
 20
-165.8868597675561
 30
0.0
 10
110.8242431363564
 20
-165.9884900843709
 30
0.0
 10
110.8242431363564
 20
-165.9884900843709
 30
0.0
 10
110.6909179410773
 20
-166.134217623397
 30
0.0
 10
110.6909179410773
 20
-166.134217623397
 30
0.0
  0
HATCH
  5
9B
330
90
100
AcDbEntity
  8
_U+30EC_U+30A4_U+30E4_U+30FC 1
 62
   179
420
  2234388
100
AcDbHatch
 10
0.0
 20
0.0
 30
0.0
210
0.0
220
0.0
230
1.0
  2
SOLID
 70
     1
 71
     0
 91
        7
 92
        1
 93
        1
 72
     4
 94
        3
 73
     0
 74
     1
 95
       17
 96
       13
 40
0.0
 40
0.0
 40
0.0
 40
0.0
 40
1.0
 40
1.0
 40
1.0
 40
2.0
 40
2.0
 40
2.0
 40
3.0
 40
3.0
 40
3.0
 40
4.0
 40
4.0
 40
4.0
 40
4.0
 10
109.1995361055126
 20
-165.5609537346514
 10
109.0937716741154
 20
-165.4551893032543
 10
109.0131564397606
 20
-165.4172932529165
 10
108.9201388616589
 20
-165.3855983744522
 10
108.9201388616589
 20
-165.3855983744522
 10
109.0303819171869
 20
-165.2205783007088
 10
109.0303819171869
 20
-165.2205783007088
 10
109.1275336098709
 20
-165.2629529751773
 10
109.2481119518546
 20
-165.3411566426925
 10
109.3011664223275
 20
-165.395933660908
 10
109.3011664223275
 20
-165.395933660908
 10
109.1995361055126
 20
-165.5609537346514
 10
109.1995361055126
 20
-165.5609537346514
 97
        0
 97
        0
 92
        1
 93
        1
 72
     4
 94
        3
 73
     0
 74
     1
 95
      182
 96
      178
 40
0.0
 40
0.0
 40
0.0
 40
0.0
 40
1.0
 40
1.0
 40
1.0
 40
2.0
 40
2.0
 40
2.0
 40
3.0
 40
3.0
 40
3.0
 40
4.0
 40
4.0
 40
4.0
 40
5.0
 40
5.0
 40
5.0
 40
6.0
 40
6.0
 40
6.0
 40
7.0
 40
7.0
 40
7.0
 40
8.0
 40
8.0
 40
8.0
 40
9.0
 40
9.0
 40
9.0
 40
10.0
 40
10.0
 40
10.0
 40
11.0
 40
11.0
 40
11.0
 40
12.0
 40
12.0
 40
12.0
 40
13.0
 40
13.0
 40
13.0
 40
14.0
 40
14.0
 40
14.0
 40
15.0
 40
15.0
 40
15.0
 40
16.0
 40
16.0
 40
16.0
 40
17.0
 40
17.0
 40
17.0
 40
18.0
 40
18.0
 40
18.0
 40
19.0
 40
19.0
 40
19.0
 40
20.0
 40
20.0
 40
20.0
 40
21.0
 40
21.0
 40
21.0
 40
22.0
 40
22.0
 40
22.0
 40
23.0
 40
23.0
 40
23.0
 40
24.0
 40
24.0
 40
24.0
 40
25.0
 40
25.0
 40
25.0
 40
26.0
 40
26.0
 40
26.0
 40
27.0
 40
27.0
 40
27.0
 40
28.0
 40
28.0
 40
28.0
 40
29.0
 40
29.0
 40
29.0
 40
30.0
 40
30.0
 40
30.0
 40
31.0
 40
31.0
 40
31.0
 40
32.0
 40
32.0
 40
32.0
 40
33.0
 40
33.0
 40
33.0
 40
34.0
 40
34.0
 40
34.0
 40
35.0
 40
35.0
 40
35.0
 40
36.0
 40
36.0
 40
36.0
 40
37.0
 40
37.0
 40
37.0
 40
38.0
 40
38.0
 40
38.0
 40
39.0
 40
39.0
 40
39.0
 40
40.0
 40
40.0
 40
40.0
 40
41.0
 40
41.0
 40
41.0
 40
42.0
 40
42.0
 40
42.0
 40
43.0
 40
43.0
 40
43.0
 40
44.0
 40
44.0
 40
44.0
 40
45.0
 40
45.0
 40
45.0
 40
46.0
 40
46.0
 40
46.0
 40
47.0
 40
47.0
 40
47.0
 40
48.0
 40
48.0
 40
48.0
 40
49.0
 40
49.0
 40
49.0
 40
50.0
 40
50.0
 40
50.0
 40
51.0
 40
51.0
 40
51.0
 40
52.0
 40
52.0
 40
52.0
 40
53.0
 40
53.0
 40
53.0
 40
54.0
 40
54.0
 40
54.0
 40
55.0
 40
55.0
 40
55.0
 40
56.0
 40
56.0
 40
56.0
 40
57.0
 40
57.0
 40
57.0
 40
58.0
 40
58.0
 40
58.0
 40
59.0
 40
59.0
 40
59.0
 40
59.0
 10
110.2444335661889
 20
-166.7395209001554
 10
110.2444335661889
 20
-166.7395209001554
 10
109.6077799205147
 20
-166.7395209001554
 10
109.6077799205147
 20
-166.7395209001554
 10
109.3941840004292
 20
-166.7395209001554
 10
109.1781765135041
 20
-166.7436550147377
 10
108.9645805934186
 20
-166.7564018680331
 10
108.9645805934186
 20
-166.7564018680331
 10
108.9645805934186
 20
-166.5490071198211
 10
108.9645805934186
 20
-166.5490071198211
 10
109.1867892522172
 20
-166.5617539731165
 10
109.5102837182822
 20
-166.5658880876988
 10
109.6077799205147
 20
-166.5658880876988
 10
109.6077799205147
 20
-166.5658880876988
 10
109.8279215220222
 20
-166.5658880876988
 10
109.8279215220222
 20
-166.5658880876988
 10
109.8279215220222
 20
-166.5658880876988
 10
109.8279215220222
 20
-166.424294663255
 10
109.8279215220222
 20
-166.424294663255
 10
109.8279215220222
 20
-166.424294663255
 10
109.667035562861
 20
-166.424294663255
 10
109.667035562861
 20
-166.424294663255
 10
109.5020154891176
 20
-166.424294663255
 10
109.3369954153741
 20
-166.4284287778374
 10
109.1719753416306
 20
-166.4432426884239
 10
109.1719753416306
 20
-166.4432426884239
 10
109.1719753416306
 20
-166.2337808829207
 10
109.1719753416306
 20
-166.2337808829207
 10
109.3431965872475
 20
-166.2485947935073
 10
109.590898952637
 20
-166.2527289080896
 10
109.667035562861
 20
-166.2527289080896
 10
109.667035562861
 20
-166.2527289080896
 10
109.8279215220222
 20
-166.2527289080896
 10
109.8279215220222
 20
-166.2527289080896
 10
109.8234428978914
 20
-166.1810709219964
 10
109.8234428978914
 20
-166.1745252405744
 10
109.8172417260179
 20
-166.1218152796501
 10
109.8172417260179
 20
-166.1218152796501
 10
109.9567680931705
 20
-166.1366291902367
 10
109.9567680931705
 20
-166.1366291902367
 10
109.9567680931705
 20
-166.1366291902367
 10
109.8575493431953
 20
-165.9650634350712
 10
109.8575493431953
 20
-165.9650634350712
 10
109.9040581322462
 20
-165.9716091164932
 10
109.9781276851791
 20
-165.9798773456578
 10
109.9950086530568
 20
-165.9798773456578
 10
110.04565155669
 20
-165.9798773456578
 10
110.0625325245677
 20
-165.9588622631978
 10
110.0625325245677
 20
-165.9016736781427
 10
110.0625325245677
 20
-165.9016736781427
 10
110.0625325245677
 20
-165.7642143682812
 10
110.0625325245677
 20
-165.7642143682812
 10
110.0625325245677
 20
-165.7642143682812
 10
109.9567680931705
 20
-165.7642143682812
 10
109.9567680931705
 20
-165.7642143682812
 10
109.8234428978914
 20
-165.7642143682812
 10
109.667035562861
 20
-165.7642143682812
 10
109.5443901635861
 20
-165.7769612215766
 10
109.5443901635861
 20
-165.7769612215766
 10
109.5443901635861
 20
-165.5864474412423
 10
109.5443901635861
 20
-165.5864474412423
 10
109.7114772946207
 20
-165.60332840912
 10
109.941954182584
 20
-165.6053954664112
 10
109.9567680931705
 20
-165.6053954664112
 10
109.9567680931705
 20
-165.6053954664112
 10
110.0625325245677
 20
-165.6053954664112
 10
110.0625325245677
 20
-165.6053954664112
 10
110.0625325245677
 20
-165.6053954664112
 10
110.0625325245677
 20
-165.4744818379717
 10
110.0625325245677
 20
-165.4744818379717
 10
110.0625325245677
 20
-165.4744818379717
 10
110.02463647423
 20
-165.4744818379717
 10
110.02463647423
 20
-165.4744818379717
 10
109.9801947424702
 20
-165.4744818379717
 10
109.8551377763557
 20
-165.478615952554
 10
109.7662543128362
 20
-165.4868841817186
 10
109.7662543128362
 20
-165.4868841817186
 10
109.7662543128362
 20
-165.4066134569123
 10
109.7662543128362
 20
-165.4066134569123
 10
109.7135443519119
 20
-165.4448540167985
 10
109.688050645321
 20
-165.4596679273851
 10
109.6456759708525
 20
-165.4827500671363
 10
109.6456759708525
 20
-165.4827500671363
 10
109.4575737573578
 20
-165.3539034959879
 10
109.4575737573578
 20
-165.3539034959879
 10
109.535777424873
 20
-165.3197970506839
 10
109.6925292694519
 20
-165.2564072937554
 10
109.8489366044822
 20
-165.1127468120204
 10
109.9312743865797
 20
-165.0341986349567
 10
110.0098225636434
 20
-164.9497937955681
 10
110.0625325245677
 20
-164.8481634787532
 10
110.0625325245677
 20
-164.8481634787532
 10
110.274061387362
 20
-164.9094861783907
 10
110.274061387362
 20
-164.9094861783907
 10
110.2933539220794
 20
-164.9156873502641
 10
110.3036892085352
 20
-164.9243000889773
 10
110.3036892085352
 20
-164.9370469422727
 10
110.3036892085352
 20
-164.9539279101504
 10
110.2909423552398
 20
-164.9601290820239
 10
110.2657931581974
 20
-164.9728759353193
 10
110.3460638830038
 20
-165.0703721375519
 10
110.5090168994561
 20
-165.1675238302359
 10
110.5427788352115
 20
-165.1864718554048
 10
110.6929849983684
 20
-165.2753553189242
 10
110.8073621684787
 20
-165.3029160828062
 10
110.8855658359939
 20
-165.3218641079751
 10
110.8855658359939
 20
-165.3218641079751
 10
110.7670545513013
 20
-165.4913628058494
 10
110.7670545513013
 20
-165.4913628058494
 10
110.6823052023641
 20
-165.4617349846762
 10
110.631662298731
 20
-165.4427869595074
 10
110.5131510140384
 20
-165.3769856357391
 10
110.5131510140384
 20
-165.3769856357391
 10
110.5131510140384
 20
-165.4868841817186
 10
110.5131510140384
 20
-165.4868841817186
 10
110.4308132319409
 20
-165.478615952554
 10
110.3036892085352
 20
-165.4744818379717
 10
110.2509792476109
 20
-165.4744818379717
 10
110.2509792476109
 20
-165.4744818379717
 10
110.2509792476109
 20
-165.6053954664112
 10
110.2509792476109
 20
-165.6053954664112
 10
110.2509792476109
 20
-165.6053954664112
 10
110.3715575895946
 20
-165.6053954664112
 10
110.3715575895946
 20
-165.6053954664112
 10
110.3736246468858
 20
-165.6053954664112
 10
110.6061685921401
 20
-165.60332840912
 10
110.783935519179
 20
-165.5864474412423
 10
110.783935519179
 20
-165.5864474412423
 10
110.783935519179
 20
-165.7769612215766
 10
110.783935519179
 20
-165.7769612215766
 10
110.6550889480307
 20
-165.7642143682812
 10
110.4983371034518
 20
-165.7642143682812
 10
110.3715575895946
 20
-165.7642143682812
 10
110.3715575895946
 20
-165.7642143682812
 10
110.2509792476109
 20
-165.7642143682812
 10
110.2509792476109
 20
-165.7642143682812
 10
110.2509792476109
 20
-165.7642143682812
 10
110.2509792476109
 20
-165.9905571416621
 10
110.2509792476109
 20
-165.9905571416621
 10
110.2509792476109
 20
-166.1090684263547
 10
110.22548554102
 20
-166.1448974194013
 10
110.0645995818589
 20
-166.1597113299879
 10
110.0690782059897
 20
-166.1786593551567
 10
110.0625325245677
 20
-166.189339151161
 10
110.02463647423
 20
-166.2127658004607
 10
110.0225694169388
 20
-166.2317138256296
 10
110.0225694169388
 20
-166.237914997503
 10
110.0201578500991
 20
-166.2527289080896
 10
110.0201578500991
 20
-166.2527289080896
 10
110.1576171599606
 20
-166.2527289080896
 10
110.1576171599606
 20
-166.2527289080896
 10
110.3226372337041
 20
-166.2527289080896
 10
110.4900688742872
 20
-166.2485947935073
 10
110.6571560053218
 20
-166.2337808829207
 10
110.6571560053218
 20
-166.2337808829207
 10
110.6571560053218
 20
-166.4411756311328
 10
110.6571560053218
 20
-166.4411756311328
 10
110.4411485183967
 20
-166.424294663255
 10
110.176909694678
 20
-166.424294663255
 10
110.1576171599606
 20
-166.424294663255
 10
110.1576171599606
 20
-166.424294663255
 10
110.018090792808
 20
-166.424294663255
 10
110.018090792808
 20
-166.424294663255
 10
110.018090792808
 20
-166.424294663255
 10
110.018090792808
 20
-166.5658880876988
 10
110.018090792808
 20
-166.5658880876988
 10
110.018090792808
 20
-166.5658880876988
 10
110.2444335661889
 20
-166.5658880876988
 10
110.2444335661889
 20
-166.5658880876988
 10
110.4604410531141
 20
-166.5658880876988
 10
110.6781710877818
 20
-166.5617539731165
 10
110.8938340651585
 20
-166.5490071198211
 10
110.8938340651585
 20
-166.5490071198211
 10
110.8938340651585
 20
-166.7564018680331
 10
110.8938340651585
 20
-166.7564018680331
 10
110.6127142735621
 20
-166.7395209001554
 10
110.2678602154886
 20
-166.7395209001554
 10
110.2444335661889
 20
-166.7395209001554
 97
        0
 97
        0
 92
        1
 93
        1
 72
     4
 94
        3
 73
     0
 74
     1
 95
       23
 96
       19
 40
0.0
 40
0.0
 40
0.0
 40
0.0
 40
1.0
 40
1.0
 40
1.0
 40
2.0
 40
2.0
 40
2.0
 40
3.0
 40
3.0
 40
3.0
 40
4.0
 40
4.0
 40
4.0
 40
5.0
 40
5.0
 40
5.0
 40
6.0
 40
6.0
 40
6.0
 40
6.0
 10
109.1254665525798
 20
-166.1111354836458
 10
109.1254665525798
 20
-166.1321505661058
 10
109.1275336098709
 20
-166.1703911259921
 10
109.10203990328
 20
-166.1703911259921
 10
109.0917046168243
 20
-166.1703911259921
 10
109.0830918781112
 20
-166.1638454445702
 10
109.0724120821069
 20
-166.1469644766924
 10
109.0724120821069
 20
-166.1469644766924
 10
108.9687147080009
 20
-165.9650634350712
 10
108.9687147080009
 20
-165.9650634350712
 10
109.1847221949261
 20
-165.8362168639229
 10
109.3814371471338
 20
-165.5588866773603
 10
109.4279459361847
 20
-165.4868841817186
 10
109.4279459361847
 20
-165.4868841817186
 10
109.4999484318264
 20
-165.6667181660486
 10
109.4999484318264
 20
-165.6667181660486
 10
109.3666232365472
 20
-165.8634331182564
 10
109.1909233667995
 20
-166.0477457267172
 10
109.1254665525798
 20
-166.1111354836458
 97
        0
 97
        0
 92
        1
 93
        1
 72
     4
 94
        3
 73
     0
 74
     1
 95
       17
 96
       13
 40
0.0
 40
0.0
 40
0.0
 40
0.0
 40
1.0
 40
1.0
 40
1.0
 40
2.0
 40
2.0
 40
2.0
 40
3.0
 40
3.0
 40
3.0
 40
4.0
 40
4.0
 40
4.0
 40
4.0
 10
109.3793700898427
 20
-165.2160996765779
 10
109.3180473902052
 20
-165.1399630663539
 10
109.1888563095084
 20
-165.0638264561299
 10
109.0851589354023
 20
-165.0341986349567
 10
109.0851589354023
 20
-165.0341986349567
 10
109.1805880803438
 20
-164.8691785612133
 10
109.1805880803438
 20
-164.8691785612133
 10
109.2818738876101
 20
-164.9053520638084
 10
109.3876383190073
 20
-164.9625406488636
 10
109.4765217825267
 20
-165.0428113736698
 10
109.4765217825267
 20
-165.0428113736698
 10
109.3793700898427
 20
-165.2160996765779
 10
109.3793700898427
 20
-165.2160996765779
 97
        0
 97
        0
 92
        1
 93
        1
 72
     4
 94
        3
 73
     0
 74
     1
 95
       23
 96
       19
 40
0.0
 40
0.0
 40
0.0
 40
0.0
 40
1.0
 40
1.0
 40
1.0
 40
2.0
 40
2.0
 40
2.0
 40
3.0
 40
3.0
 40
3.0
 40
4.0
 40
4.0
 40
4.0
 40
5.0
 40
5.0
 40
5.0
 40
6.0
 40
6.0
 40
6.0
 40
6.0
 10
109.8320556366045
 20
-165.9206217033115
 10
109.8106960445959
 20
-165.9440483526112
 10
109.7135443519119
 20
-166.0560139558818
 10
109.5740179847593
 20
-166.1366291902367
 10
109.5740179847593
 20
-166.1366291902367
 10
109.4069308537247
 20
-166.0160508482529
 10
109.4069308537247
 20
-166.0160508482529
 10
109.5571370168816
 20
-165.9399142380289
 10
109.6563557668567
 20
-165.8444850930875
 10
109.7049316131988
 20
-165.7917751321632
 10
109.7049316131988
 20
-165.7917751321632
 10
109.8785644256554
 20
-165.8741129142606
 10
109.8785644256554
 20
-165.8741129142606
 10
109.88683265482
 20
-165.8782470288429
 10
109.8954453935331
 20
-165.8847927102649
 10
109.8954453935331
 20
-165.8954725062692
 10
109.8954453935331
 20
-165.9206217033115
 10
109.8596164004865
 20
-165.9206217033115
 10
109.8320556366045
 20
-165.9206217033115
 97
        0
 97
        0
 92
        1
 93
        1
 72
     4
 94
        3
 73
     0
 74
     1
 95
       20
 96
       16
 40
0.0
 40
0.0
 40
0.0
 40
0.0
 40
1.0
 40
1.0
 40
1.0
 40
2.0
 40
2.0
 40
2.0
 40
3.0
 40
3.0
 40
3.0
 40
4.0
 40
4.0
 40
4.0
 40
5.0
 40
5.0
 40
5.0
 40
5.0
 10
110.1304009056271
 20
-165.0786403667165
 10
110.0921603457409
 20
-165.127560722607
 10
110.0308376461034
 20
-165.2057643901222
 10
109.8913112789508
 20
-165.3156629361017
 10
109.9715820037571
 20
-165.3197970506839
 10
110.0012098249303
 20
-165.3197970506839
 10
110.02463647423
 20
-165.3197970506839
 10
110.02463647423
 20
-165.3197970506839
 10
110.253046304902
 20
-165.3197970506839
 10
110.253046304902
 20
-165.3197970506839
 10
110.2847411833663
 20
-165.3197970506839
 10
110.3333170297083
 20
-165.3177299933928
 10
110.4073865826412
 20
-165.3156629361017
 10
110.2954209793706
 20
-165.2415933831688
 10
110.24650062348
 20
-165.1950845941179
 10
110.1304009056271
 20
-165.0786403667165
 97
        0
 97
        0
 92
        1
 93
        1
 72
     4
 94
        3
 73
     0
 74
     1
 95
       17
 96
       13
 40
0.0
 40
0.0
 40
0.0
 40
0.0
 40
1.0
 40
1.0
 40
1.0
 40
2.0
 40
2.0
 40
2.0
 40
3.0
 40
3.0
 40
3.0
 40
4.0
 40
4.0
 40
4.0
 40
4.0
 10
110.6909179410773
 20
-166.134217623397
 10
110.555525688507
 20
-166.0222520201264
 10
110.4497612571098
 20
-165.9588622631978
 10
110.3312499724172
 20
-165.8954725062692
 10
110.3312499724172
 20
-165.8954725062692
 10
110.4580294862744
 20
-165.7831623934501
 10
110.4580294862744
 20
-165.7831623934501
 10
110.5892876242624
 20
-165.8296711825009
 10
110.6991861702419
 20
-165.8868597675561
 10
110.8242431363564
 20
-165.9884900843709
 10
110.8242431363564
 20
-165.9884900843709
 10
110.6909179410773
 20
-166.134217623397
 10
110.6909179410773
 20
-166.134217623397
 97
        0
 97
        0
 75
     2
 76
     1
 98
        0
  0
SPLINE
  5
9C
330
90
100
AcDbEntity
  8
_U+30EC_U+30A4_U+30E4_U+30FC 1
370
     0
100
AcDbSpline
210
0.0
220
0.0
230
1.0
 70
    11
 71
     3
 72
   113
 73
   109
 74
     0
 42
0.0000000001
 43
0.0000000001
 12
1.0
 22
0.0
 32
0.0
 13
1.0
 23
0.0
 33
0.0
 40
0.0
 40
0.0
 40
0.0
 40
0.0
 40
1.0
 40
1.0
 40
1.0
 40
2.0
 40
2.0
 40
2.0
 40
3.0
 40
3.0
 40
3.0
 40
4.0
 40
4.0
 40
4.0
 40
5.0
 40
5.0
 40
5.0
 40
6.0
 40
6.0
 40
6.0
 40
7.0
 40
7.0
 40
7.0
 40
8.0
 40
8.0
 40
8.0
 40
9.0
 40
9.0
 40
9.0
 40
10.0
 40
10.0
 40
10.0
 40
11.0
 40
11.0
 40
11.0
 40
12.0
 40
12.0
 40
12.0
 40
13.0
 40
13.0
 40
13.0
 40
14.0
 40
14.0
 40
14.0
 40
15.0
 40
15.0
 40
15.0
 40
16.0
 40
16.0
 40
16.0
 40
17.0
 40
17.0
 40
17.0
 40
18.0
 40
18.0
 40
18.0
 40
19.0
 40
19.0
 40
19.0
 40
20.0
 40
20.0
 40
20.0
 40
21.0
 40
21.0
 40
21.0
 40
22.0
 40
22.0
 40
22.0
 40
23.0
 40
23.0
 40
23.0
 40
24.0
 40
24.0
 40
24.0
 40
25.0
 40
25.0
 40
25.0
 40
26.0
 40
26.0
 40
26.0
 40
27.0
 40
27.0
 40
27.0
 40
28.0
 40
28.0
 40
28.0
 40
29.0
 40
29.0
 40
29.0
 40
30.0
 40
30.0
 40
30.0
 40
31.0
 40
31.0
 40
31.0
 40
32.0
 40
32.0
 40
32.0
 40
33.0
 40
33.0
 40
33.0
 40
34.0
 40
34.0
 40
34.0
 40
35.0
 40
35.0
 40
35.0
 40
36.0
 40
36.0
 40
36.0
 40
36.0
 10
112.5705620378296
 20
-166.1111354836458
 30
0.0
 10
112.5705620378296
 20
-166.1111354836458
 30
0.0
 10
112.6701252973533
 20
-166.2106987431696
 30
0.0
 10
112.6701252973533
 20
-166.2106987431696
 30
0.0
 10
112.6808050933576
 20
-166.2210340296253
 30
0.0
 10
112.6911403798133
 20
-166.2337808829207
 30
0.0
 10
112.6911403798133
 20
-166.2485947935073
 30
0.0
 10
112.6911403798133
 20
-166.2506618507985
 30
0.0
 10
112.6911403798133
 20
-166.2802896719716
 30
0.0
 10
112.6532443294756
 20
-166.2802896719716
 30
0.0
 10
112.6446315907625
 20
-166.2802896719716
 30
0.0
 10
112.604323973585
 20
-166.2761555573893
 30
0.0
 10
112.5981228017116
 20
-166.2761555573893
 30
0.0
 10
112.5578151845342
 20
-166.3078504358536
 30
0.0
 10
112.5113063954833
 20
-166.341612371609
 30
0.0
 10
112.4120876455081
 20
-166.3988009566642
 30
0.0
 10
112.5578151845342
 20
-166.5066324453525
 30
0.0
 10
112.7166340864042
 20
-166.5638210304077
 30
0.0
 10
112.989485648836
 20
-166.6020615902939
 30
0.0
 10
112.989485648836
 20
-166.6020615902939
 30
0.0
 10
112.8392794856791
 20
-166.7774169504931
 30
0.0
 10
112.8392794856791
 20
-166.7774169504931
 30
0.0
 10
112.5771077192516
 20
-166.7054144548514
 30
0.0
 10
112.4203558746727
 20
-166.6168755008805
 30
0.0
 10
112.3442192644487
 20
-166.5638210304077
 30
0.0
 10
112.1940131012918
 20
-166.4621907135928
 30
0.0
 10
112.0503526195569
 20
-166.2992376971405
 30
0.0
 10
111.9742160093328
 20
-166.134217623397
 30
0.0
 10
111.9063476282734
 20
-166.2000189471653
 30
0.0
 10
111.8322780753405
 20
-166.2527289080896
 30
0.0
 10
111.7540744078254
 20
-166.3016492639802
 30
0.0
 10
111.7540744078254
 20
-166.3016492639802
 30
0.0
 10
111.7540744078254
 20
-166.5531412344034
 30
0.0
 10
111.7540744078254
 20
-166.5531412344034
 30
0.0
 10
111.9170274242777
 20
-166.5279920373611
 30
0.0
 10
112.1030625804812
 20
-166.4835503056013
 30
0.0
 10
112.1664523374098
 20
-166.4687363950148
 30
0.0
 10
112.1664523374098
 20
-166.4687363950148
 30
0.0
 10
112.1368245162366
 20
-166.6378905833405
 30
0.0
 10
112.1368245162366
 20
-166.6378905833405
 30
0.0
 10
112.1347574589455
 20
-166.6378905833405
 30
0.0
 10
112.1158094337766
 20
-166.644091755214
 30
0.0
 10
112.1137423764855
 20
-166.644091755214
 30
0.0
 10
111.9149603669865
 20
-166.6823323151003
 30
0.0
 10
111.597667072795
 20
-166.74778912932
 30
0.0
 10
111.4006076110387
 20
-166.7839626319151
 30
0.0
 10
111.390272324583
 20
-166.8008435997928
 30
0.0
 10
111.3668456752833
 20
-166.8325384782572
 30
0.0
 10
111.3437635355321
 20
-166.8325384782572
 30
0.0
 10
111.3162027716501
 20
-166.8325384782572
 30
0.0
 10
111.3120686570678
 20
-166.8135904530883
 30
0.0
 10
111.3096570902281
 20
-166.7942979183709
 30
0.0
 10
111.3096570902281
 20
-166.7942979183709
 30
0.0
 10
111.2845078931858
 20
-166.6210096154628
 30
0.0
 10
111.2845078931858
 20
-166.6210096154628
 30
0.0
 10
111.3585774461187
 20
-166.6123968767497
 30
0.0
 10
111.466408934807
 20
-166.5996500234543
 30
0.0
 10
111.5742404234953
 20
-166.5786349409942
 30
0.0
 10
111.5742404234953
 20
-166.5786349409942
 30
0.0
 10
111.5742404234953
 20
-166.4008680139553
 30
0.0
 10
111.5742404234953
 20
-166.4008680139553
 30
0.0
 10
111.4302354322119
 20
-166.4728705095971
 30
0.0
 10
111.335150796819
 20
-166.5024983307702
 30
0.0
 10
111.1701307230755
 20
-166.5321261519434
 30
0.0
 10
111.1701307230755
 20
-166.5321261519434
 30
0.0
 10
111.0495523810918
 20
-166.3629719636176
 30
0.0
 10
111.0495523810918
 20
-166.3629719636176
 30
0.0
 10
111.3668456752833
 20
-166.3354111997356
 30
0.0
 10
111.5594265129088
 20
-166.2423936216339
 30
0.0
 10
111.7371934399476
 20
-166.1090684263547
 30
0.0
 10
111.5911213913731
 20
-166.1090684263547
 30
0.0
 10
111.2907090650593
 20
-166.113202540937
 30
0.0
 10
111.0939941128515
 20
-166.119748222359
 30
0.0
 10
111.0939941128515
 20
-166.119748222359
 30
0.0
 10
111.0939941128515
 20
-165.9419812953201
 30
0.0
 10
111.0939941128515
 20
-165.9419812953201
 30
0.0
 10
111.2483343905907
 20
-165.9481824671935
 30
0.0
 10
111.5446126023222
 20
-165.9547281486155
 30
0.0
 10
111.7285807012345
 20
-165.9547281486155
 30
0.0
 10
111.7285807012345
 20
-165.9547281486155
 30
0.0
 10
111.9401095640289
 20
-165.9547281486155
 30
0.0
 10
111.9401095640289
 20
-165.9547281486155
 30
0.0
 10
111.9401095640289
 20
-165.8592990036741
 30
0.0
 10
111.9380425067377
 20
-165.8086561000409
 30
0.0
 10
111.9318413348643
 20
-165.76214731099
 30
0.0
 10
111.9318413348643
 20
-165.76214731099
 30
0.0
 10
112.1475043122409
 20
-165.7790282788677
 30
0.0
 10
112.1475043122409
 20
-165.7790282788677
 30
0.0
 10
112.1960801585829
 20
-165.7831623934501
 30
0.0
 10
112.2046928972961
 20
-165.7979763040366
 30
0.0
 10
112.2046928972961
 20
-165.8127902146232
 30
0.0
 10
112.2046928972961
 20
-165.838283921214
 30
0.0
 10
112.1878119294183
 20
-165.8465521503786
 30
0.0
 10
112.1368245162366
 20
-165.8720458569695
 30
0.0
 10
112.1347574589455
 20
-165.8975395635603
 30
0.0
 10
112.1347574589455
 20
-165.9037407354338
 30
0.0
 10
112.1326904016543
 20
-165.9547281486155
 30
0.0
 10
112.1326904016543
 20
-165.9547281486155
 30
0.0
 10
112.3631672896176
 20
-165.9547281486155
 30
0.0
 10
112.3631672896176
 20
-165.9547281486155
 30
0.0
 10
112.528187363361
 20
-165.9547281486155
 30
0.0
 10
112.8203314605102
 20
-165.9481824671935
 30
0.0
 10
113.0001654448402
 20
-165.9419812953201
 30
0.0
 10
113.0001654448402
 20
-165.9419812953201
 30
0.0
 10
113.0001654448402
 20
-166.119748222359
 30
0.0
 10
113.0001654448402
 20
-166.119748222359
 30
0.0
 10
112.8709743641434
 20
-166.1152695982281
 30
0.0
 10
112.8478922243922
 20
-166.1152695982281
 30
0.0
 10
112.5705620378296
 20
-166.1111354836458
 30
0.0
  0
SPLINE
  5
9D
330
90
100
AcDbEntity
  8
_U+30EC_U+30A4_U+30E4_U+30FC 1
370
     0
100
AcDbSpline
210
0.0
220
0.0
230
1.0
 70
    11
 71
     3
 72
    23
 73
    19
 74
     0
 42
0.0000000001
 43
0.0000000001
 12
1.0
 22
0.0
 32
0.0
 13
1.0
 23
0.0
 33
0.0
 40
0.0
 40
0.0
 40
0.0
 40
0.0
 40
1.0
 40
1.0
 40
1.0
 40
2.0
 40
2.0
 40
2.0
 40
3.0
 40
3.0
 40
3.0
 40
4.0
 40
4.0
 40
4.0
 40
5.0
 40
5.0
 40
5.0
 40
6.0
 40
6.0
 40
6.0
 40
6.0
 10
111.286574950477
 20
-165.7600802536989
 30
0.0
 10
111.2696939825993
 20
-165.8000433613278
 30
0.0
 10
111.2631483011773
 20
-165.8169243292055
 30
0.0
 10
111.2421332187172
 20
-165.8169243292055
 30
0.0
 10
111.2273193081307
 20
-165.8169243292055
 30
0.0
 10
111.2166395121264
 20
-165.8000433613278
 30
0.0
 10
111.2104383402529
 20
-165.7872965080323
 30
0.0
 10
111.2104383402529
 20
-165.7872965080323
 30
0.0
 10
111.1108750807292
 20
-165.6222764342889
 30
0.0
 10
111.1108750807292
 20
-165.6222764342889
 30
0.0
 10
111.2125053975441
 20
-165.5905815558246
 30
0.0
 10
111.362711560701
 20
-165.5358045376091
 30
0.0
 10
111.5614935701999
 20
-165.3728515211568
 30
0.0
 10
111.5614935701999
 20
-165.3728515211568
 30
0.0
 10
111.6186821552551
 20
-165.5461398240649
 30
0.0
 10
111.6186821552551
 20
-165.5461398240649
 30
0.0
 10
111.5256645771533
 20
-165.6288221157108
 30
0.0
 10
111.4367811136339
 20
-165.686010700766
 30
0.0
 10
111.286574950477
 20
-165.7600802536989
 30
0.0
  0
SPLINE
  5
9E
330
90
100
AcDbEntity
  8
_U+30EC_U+30A4_U+30E4_U+30FC 1
370
     0
100
AcDbSpline
210
0.0
220
0.0
230
1.0
 70
    11
 71
     3
 72
    17
 73
    13
 74
     0
 42
0.0000000001
 43
0.0000000001
 12
1.0
 22
0.0
 32
0.0
 13
1.0
 23
0.0
 33
0.0
 40
0.0
 40
0.0
 40
0.0
 40
0.0
 40
1.0
 40
1.0
 40
1.0
 40
2.0
 40
2.0
 40
2.0
 40
3.0
 40
3.0
 40
3.0
 40
4.0
 40
4.0
 40
4.0
 40
4.0
 10
111.438848170925
 20
-165.2946478536416
 30
0.0
 10
111.4092203497519
 20
-165.2543402364642
 30
0.0
 10
111.3413519686925
 20
-165.1571885437802
 30
0.0
 10
111.1594509270712
 20
-165.0469454882522
 30
0.0
 10
111.1594509270712
 20
-165.0469454882522
 30
0.0
 10
111.286574950477
 20
-164.913620292973
 30
0.0
 10
111.286574950477
 20
-164.913620292973
 30
0.0
 10
111.4726101066805
 20
-165.0152506097879
 30
0.0
 10
111.5297986917356
 20
-165.1041340733073
 30
0.0
 10
111.5573594556176
 20
-165.1465087477759
 30
0.0
 10
111.5573594556176
 20
-165.1465087477759
 30
0.0
 10
111.438848170925
 20
-165.2946478536416
 30
0.0
 10
111.438848170925
 20
-165.2946478536416
 30
0.0
  0
SPLINE
  5
9F
330
90
100
AcDbEntity
  8
_U+30EC_U+30A4_U+30E4_U+30FC 1
370
     0
100
AcDbSpline
210
0.0
220
0.0
230
1.0
 70
    11
 71
     3
 72
    38
 73
    34
 74
     0
 42
0.0000000001
 43
0.0000000001
 12
1.0
 22
0.0
 32
0.0
 13
1.0
 23
0.0
 33
0.0
 40
0.0
 40
0.0
 40
0.0
 40
0.0
 40
1.0
 40
1.0
 40
1.0
 40
2.0
 40
2.0
 40
2.0
 40
3.0
 40
3.0
 40
3.0
 40
4.0
 40
4.0
 40
4.0
 40
5.0
 40
5.0
 40
5.0
 40
6.0
 40
6.0
 40
6.0
 40
7.0
 40
7.0
 40
7.0
 40
8.0
 40
8.0
 40
8.0
 40
9.0
 40
9.0
 40
9.0
 40
10.0
 40
10.0
 40
10.0
 40
11.0
 40
11.0
 40
11.0
 40
11.0
 10
111.8067843687497
 20
-164.989756903197
 30
0.0
 10
111.8047173114585
 20
-165.0366102017964
 30
0.0
 10
111.8026502541674
 20
-165.1527099196493
 30
0.0
 10
111.8026502541674
 20
-165.1971516514091
 30
0.0
 10
111.8026502541674
 20
-165.1971516514091
 30
0.0
 10
111.8026502541674
 20
-165.5440727667737
 30
0.0
 10
111.8026502541674
 20
-165.5440727667737
 30
0.0
 10
111.8026502541674
 20
-165.630889173002
 30
0.0
 10
111.8047173114585
 20
-165.7724825974458
 30
0.0
 10
111.8153971074628
 20
-165.8930609394295
 30
0.0
 10
111.8153971074628
 20
-165.8930609394295
 30
0.0
 10
111.6248833271285
 20
-165.8930609394295
 30
0.0
 10
111.6248833271285
 20
-165.8930609394295
 30
0.0
 10
111.6293619512593
 20
-165.8296711825009
 30
0.0
 10
111.6334960658416
 20
-165.7769612215766
 30
0.0
 10
111.6355631231328
 20
-165.7218396938126
 30
0.0
 10
111.6376301804239
 20
-165.5991942945377
 30
0.0
 10
111.6396972377151
 20
-165.5843803839511
 30
0.0
 10
111.6396972377151
 20
-165.5399386521914
 30
0.0
 10
111.6396972377151
 20
-165.5399386521914
 30
0.0
 10
111.6396972377151
 20
-165.2185112434176
 30
0.0
 10
111.6396972377151
 20
-165.2185112434176
 30
0.0
 10
111.6396972377151
 20
-165.1633897156536
 30
0.0
 10
111.6269503844197
 20
-164.9243000889773
 30
0.0
 10
111.6248833271285
 20
-164.8736571853441
 30
0.0
 10
111.6248833271285
 20
-164.8736571853441
 30
0.0
 10
111.8260769034671
 20
-164.9012179492261
 30
0.0
 10
111.8260769034671
 20
-164.9012179492261
 30
0.0
 10
111.8470919859271
 20
-164.9032850065173
 30
0.0
 10
111.8787868643914
 20
-164.9074191210995
 30
0.0
 10
111.8787868643914
 20
-164.9329128276904
 30
0.0
 10
111.8787868643914
 20
-164.9601290820239
 30
0.0
 10
111.8281439607582
 20
-164.9814886740324
 30
0.0
 10
111.8067843687497
 20
-164.989756903197
 30
0.0
  0
SPLINE
  5
A0
330
90
100
AcDbEntity
  8
_U+30EC_U+30A4_U+30E4_U+30FC 1
370
     0
100
AcDbSpline
210
0.0
220
0.0
230
1.0
 70
    11
 71
     3
 72
    83
 73
    79
 74
     0
 42
0.0000000001
 43
0.0000000001
 12
1.0
 22
0.0
 32
0.0
 13
1.0
 23
0.0
 33
0.0
 40
0.0
 40
0.0
 40
0.0
 40
0.0
 40
1.0
 40
1.0
 40
1.0
 40
2.0
 40
2.0
 40
2.0
 40
3.0
 40
3.0
 40
3.0
 40
4.0
 40
4.0
 40
4.0
 40
5.0
 40
5.0
 40
5.0
 40
6.0
 40
6.0
 40
6.0
 40
7.0
 40
7.0
 40
7.0
 40
8.0
 40
8.0
 40
8.0
 40
9.0
 40
9.0
 40
9.0
 40
10.0
 40
10.0
 40
10.0
 40
11.0
 40
11.0
 40
11.0
 40
12.0
 40
12.0
 40
12.0
 40
13.0
 40
13.0
 40
13.0
 40
14.0
 40
14.0
 40
14.0
 40
15.0
 40
15.0
 40
15.0
 40
16.0
 40
16.0
 40
16.0
 40
17.0
 40
17.0
 40
17.0
 40
18.0
 40
18.0
 40
18.0
 40
19.0
 40
19.0
 40
19.0
 40
20.0
 40
20.0
 40
20.0
 40
21.0
 40
21.0
 40
21.0
 40
22.0
 40
22.0
 40
22.0
 40
23.0
 40
23.0
 40
23.0
 40
24.0
 40
24.0
 40
24.0
 40
25.0
 40
25.0
 40
25.0
 40
26.0
 40
26.0
 40
26.0
 40
26.0
 10
112.6088025977159
 20
-165.3115288215193
 30
0.0
 10
112.6088025977159
 20
-165.3115288215193
 30
0.0
 10
112.5113063954833
 20
-165.3115288215193
 30
0.0
 10
112.5113063954833
 20
-165.3115288215193
 30
0.0
 10
112.5113063954833
 20
-165.3115288215193
 30
0.0
 10
112.5113063954833
 20
-165.5588866773603
 30
0.0
 10
112.5113063954833
 20
-165.5588866773603
 30
0.0
 10
112.5113063954833
 20
-165.5588866773603
 30
0.0
 10
112.5939886871293
 20
-165.5588866773603
 30
0.0
 10
112.5939886871293
 20
-165.5588866773603
 30
0.0
 10
112.659445501349
 20
-165.5588866773603
 30
0.0
 10
112.7989718685017
 20
-165.554752562778
 30
0.0
 10
112.8985351280254
 20
-165.5461398240649
 30
0.0
 10
112.8985351280254
 20
-165.5461398240649
 30
0.0
 10
112.8985351280254
 20
-165.7259738083949
 30
0.0
 10
112.8985351280254
 20
-165.7259738083949
 30
0.0
 10
112.8055175499236
 20
-165.7177055792303
 30
0.0
 10
112.6553113867667
 20
-165.713571464648
 30
0.0
 10
112.5939886871293
 20
-165.713571464648
 30
0.0
 10
112.5939886871293
 20
-165.713571464648
 30
0.0
 10
112.2890977366847
 20
-165.713571464648
 30
0.0
 10
112.2890977366847
 20
-165.713571464648
 30
0.0
 10
112.2363877757603
 20
-165.713571464648
 30
0.0
 10
112.0903157271858
 20
-165.7177055792303
 30
0.0
 10
111.9845512957886
 20
-165.7259738083949
 30
0.0
 10
111.9845512957886
 20
-165.7259738083949
 30
0.0
 10
111.9845512957886
 20
-165.5461398240649
 30
0.0
 10
111.9845512957886
 20
-165.5461398240649
 30
0.0
 10
112.0841145553123
 20
-165.554752562778
 30
0.0
 10
112.2236409224649
 20
-165.5588866773603
 30
0.0
 10
112.2890977366847
 20
-165.5588866773603
 30
0.0
 10
112.2890977366847
 20
-165.5588866773603
 30
0.0
 10
112.3335394684444
 20
-165.5588866773603
 30
0.0
 10
112.3335394684444
 20
-165.5588866773603
 30
0.0
 10
112.3335394684444
 20
-165.5588866773603
 30
0.0
 10
112.3335394684444
 20
-165.3115288215193
 30
0.0
 10
112.3335394684444
 20
-165.3115288215193
 30
0.0
 10
112.3335394684444
 20
-165.3115288215193
 30
0.0
 10
112.2598144250601
 20
-165.3115288215193
 30
0.0
 10
112.2598144250601
 20
-165.3115288215193
 30
0.0
 10
112.1981472158741
 20
-165.3115288215193
 30
0.0
 10
112.0310600848395
 20
-165.3156629361017
 30
0.0
 10
111.9104817428557
 20
-165.3242756748148
 30
0.0
 10
111.9104817428557
 20
-165.3242756748148
 30
0.0
 10
111.9104817428557
 20
-165.1465087477759
 30
0.0
 10
111.9104817428557
 20
-165.1465087477759
 30
0.0
 10
112.024858912966
 20
-165.1527099196493
 30
0.0
 10
112.1833333052875
 20
-165.1571885437802
 30
0.0
 10
112.2598144250601
 20
-165.1571885437802
 30
0.0
 10
112.2598144250601
 20
-165.1571885437802
 30
0.0
 10
112.3314724111532
 20
-165.1571885437802
 30
0.0
 10
112.3314724111532
 20
-165.1571885437802
 30
0.0
 10
112.3273382965709
 20
-165.0045708137836
 30
0.0
 10
112.3252712392798
 20
-164.9708088780282
 30
0.0
 10
112.3187255578578
 20
-164.8777912999264
 30
0.0
 10
112.3187255578578
 20
-164.8777912999264
 30
0.0
 10
112.5305989302007
 20
-164.9012179492261
 30
0.0
 10
112.5305989302007
 20
-164.9012179492261
 30
0.0
 10
112.555748127243
 20
-164.9032850065173
 30
0.0
 10
112.5791747765427
 20
-164.9074191210995
 30
0.0
 10
112.5791747765427
 20
-164.9305012608507
 30
0.0
 10
112.5791747765427
 20
-164.9625406488636
 30
0.0
 10
112.534733044783
 20
-164.9794216167413
 30
0.0
 10
112.5113063954833
 20
-164.9876898459059
 30
0.0
 10
112.5113063954833
 20
-164.9876898459059
 30
0.0
 10
112.5113063954833
 20
-165.1571885437802
 30
0.0
 10
112.5113063954833
 20
-165.1571885437802
 30
0.0
 10
112.5113063954833
 20
-165.1571885437802
 30
0.0
 10
112.6088025977159
 20
-165.1571885437802
 30
0.0
 10
112.6088025977159
 20
-165.1571885437802
 30
0.0
 10
112.6849392079399
 20
-165.1571885437802
 30
0.0
 10
112.8434136002614
 20
-165.1527099196493
 30
0.0
 10
112.9598578276628
 20
-165.1465087477759
 30
0.0
 10
112.9598578276628
 20
-165.1465087477759
 30
0.0
 10
112.9598578276628
 20
-165.3242756748148
 30
0.0
 10
112.9598578276628
 20
-165.3242756748148
 30
0.0
 10
112.8520263389745
 20
-165.3177299933928
 30
0.0
 10
112.6783935265179
 20
-165.3115288215193
 30
0.0
 10
112.6088025977159
 20
-165.3115288215193
 30
0.0
  0
SPLINE
  5
A1
330
90
100
AcDbEntity
  8
_U+30EC_U+30A4_U+30E4_U+30FC 1
370
     0
100
AcDbSpline
210
0.0
220
0.0
230
1.0
 70
    11
 71
     3
 72
    17
 73
    13
 74
     0
 42
0.0000000001
 43
0.0000000001
 12
1.0
 22
0.0
 32
0.0
 13
1.0
 23
0.0
 33
0.0
 40
0.0
 40
0.0
 40
0.0
 40
0.0
 40
1.0
 40
1.0
 40
1.0
 40
2.0
 40
2.0
 40
2.0
 40
3.0
 40
3.0
 40
3.0
 40
4.0
 40
4.0
 40
4.0
 40
4.0
 10
112.3631672896176
 20
-166.1090684263547
 30
0.0
 10
112.3631672896176
 20
-166.1090684263547
 30
0.0
 10
112.1602511655363
 20
-166.1090684263547
 30
0.0
 10
112.1602511655363
 20
-166.1090684263547
 30
0.0
 10
112.1878119294183
 20
-166.168324068701
 30
0.0
 10
112.2425889476338
 20
-166.2403265643427
 30
0.0
 10
112.2701497115158
 20
-166.2696098759673
 30
0.0
 10
112.2977104753978
 20
-166.2551404749293
 30
0.0
 10
112.4120876455081
 20
-166.1914062084522
 30
0.0
 10
112.5030381663187
 20
-166.1090684263547
 30
0.0
 10
112.5030381663187
 20
-166.1090684263547
 30
0.0
 10
112.3631672896176
 20
-166.1090684263547
 30
0.0
 10
112.3631672896176
 20
-166.1090684263547
 30
0.0
  0
HATCH
  5
A2
330
90
100
AcDbEntity
  8
_U+30EC_U+30A4_U+30E4_U+30FC 1
 62
   179
420
  2234388
100
AcDbHatch
 10
0.0
 20
0.0
 30
0.0
210
0.0
220
0.0
230
1.0
  2
SOLID
 70
     1
 71
     0
 91
        6
 92
        1
 93
        1
 72
     4
 94
        3
 73
     0
 74
     1
 95
      113
 96
      109
 40
0.0
 40
0.0
 40
0.0
 40
0.0
 40
1.0
 40
1.0
 40
1.0
 40
2.0
 40
2.0
 40
2.0
 40
3.0
 40
3.0
 40
3.0
 40
4.0
 40
4.0
 40
4.0
 40
5.0
 40
5.0
 40
5.0
 40
6.0
 40
6.0
 40
6.0
 40
7.0
 40
7.0
 40
7.0
 40
8.0
 40
8.0
 40
8.0
 40
9.0
 40
9.0
 40
9.0
 40
10.0
 40
10.0
 40
10.0
 40
11.0
 40
11.0
 40
11.0
 40
12.0
 40
12.0
 40
12.0
 40
13.0
 40
13.0
 40
13.0
 40
14.0
 40
14.0
 40
14.0
 40
15.0
 40
15.0
 40
15.0
 40
16.0
 40
16.0
 40
16.0
 40
17.0
 40
17.0
 40
17.0
 40
18.0
 40
18.0
 40
18.0
 40
19.0
 40
19.0
 40
19.0
 40
20.0
 40
20.0
 40
20.0
 40
21.0
 40
21.0
 40
21.0
 40
22.0
 40
22.0
 40
22.0
 40
23.0
 40
23.0
 40
23.0
 40
24.0
 40
24.0
 40
24.0
 40
25.0
 40
25.0
 40
25.0
 40
26.0
 40
26.0
 40
26.0
 40
27.0
 40
27.0
 40
27.0
 40
28.0
 40
28.0
 40
28.0
 40
29.0
 40
29.0
 40
29.0
 40
30.0
 40
30.0
 40
30.0
 40
31.0
 40
31.0
 40
31.0
 40
32.0
 40
32.0
 40
32.0
 40
33.0
 40
33.0
 40
33.0
 40
34.0
 40
34.0
 40
34.0
 40
35.0
 40
35.0
 40
35.0
 40
36.0
 40
36.0
 40
36.0
 40
36.0
 10
112.5705620378296
 20
-166.1111354836458
 10
112.5705620378296
 20
-166.1111354836458
 10
112.6701252973533
 20
-166.2106987431696
 10
112.6701252973533
 20
-166.2106987431696
 10
112.6808050933576
 20
-166.2210340296253
 10
112.6911403798133
 20
-166.2337808829207
 10
112.6911403798133
 20
-166.2485947935073
 10
112.6911403798133
 20
-166.2506618507985
 10
112.6911403798133
 20
-166.2802896719716
 10
112.6532443294756
 20
-166.2802896719716
 10
112.6446315907625
 20
-166.2802896719716
 10
112.604323973585
 20
-166.2761555573893
 10
112.5981228017116
 20
-166.2761555573893
 10
112.5578151845342
 20
-166.3078504358536
 10
112.5113063954833
 20
-166.341612371609
 10
112.4120876455081
 20
-166.3988009566642
 10
112.5578151845342
 20
-166.5066324453525
 10
112.7166340864042
 20
-166.5638210304077
 10
112.989485648836
 20
-166.6020615902939
 10
112.989485648836
 20
-166.6020615902939
 10
112.8392794856791
 20
-166.7774169504931
 10
112.8392794856791
 20
-166.7774169504931
 10
112.5771077192516
 20
-166.7054144548514
 10
112.4203558746727
 20
-166.6168755008805
 10
112.3442192644487
 20
-166.5638210304077
 10
112.1940131012918
 20
-166.4621907135928
 10
112.0503526195569
 20
-166.2992376971405
 10
111.9742160093328
 20
-166.134217623397
 10
111.9063476282734
 20
-166.2000189471653
 10
111.8322780753405
 20
-166.2527289080896
 10
111.7540744078254
 20
-166.3016492639802
 10
111.7540744078254
 20
-166.3016492639802
 10
111.7540744078254
 20
-166.5531412344034
 10
111.7540744078254
 20
-166.5531412344034
 10
111.9170274242777
 20
-166.5279920373611
 10
112.1030625804812
 20
-166.4835503056013
 10
112.1664523374098
 20
-166.4687363950148
 10
112.1664523374098
 20
-166.4687363950148
 10
112.1368245162366
 20
-166.6378905833405
 10
112.1368245162366
 20
-166.6378905833405
 10
112.1347574589455
 20
-166.6378905833405
 10
112.1158094337766
 20
-166.644091755214
 10
112.1137423764855
 20
-166.644091755214
 10
111.9149603669865
 20
-166.6823323151003
 10
111.597667072795
 20
-166.74778912932
 10
111.4006076110387
 20
-166.7839626319151
 10
111.390272324583
 20
-166.8008435997928
 10
111.3668456752833
 20
-166.8325384782572
 10
111.3437635355321
 20
-166.8325384782572
 10
111.3162027716501
 20
-166.8325384782572
 10
111.3120686570678
 20
-166.8135904530883
 10
111.3096570902281
 20
-166.7942979183709
 10
111.3096570902281
 20
-166.7942979183709
 10
111.2845078931858
 20
-166.6210096154628
 10
111.2845078931858
 20
-166.6210096154628
 10
111.3585774461187
 20
-166.6123968767497
 10
111.466408934807
 20
-166.5996500234543
 10
111.5742404234953
 20
-166.5786349409942
 10
111.5742404234953
 20
-166.5786349409942
 10
111.5742404234953
 20
-166.4008680139553
 10
111.5742404234953
 20
-166.4008680139553
 10
111.4302354322119
 20
-166.4728705095971
 10
111.335150796819
 20
-166.5024983307702
 10
111.1701307230755
 20
-166.5321261519434
 10
111.1701307230755
 20
-166.5321261519434
 10
111.0495523810918
 20
-166.3629719636176
 10
111.0495523810918
 20
-166.3629719636176
 10
111.3668456752833
 20
-166.3354111997356
 10
111.5594265129088
 20
-166.2423936216339
 10
111.7371934399476
 20
-166.1090684263547
 10
111.5911213913731
 20
-166.1090684263547
 10
111.2907090650593
 20
-166.113202540937
 10
111.0939941128515
 20
-166.119748222359
 10
111.0939941128515
 20
-166.119748222359
 10
111.0939941128515
 20
-165.9419812953201
 10
111.0939941128515
 20
-165.9419812953201
 10
111.2483343905907
 20
-165.9481824671935
 10
111.5446126023222
 20
-165.9547281486155
 10
111.7285807012345
 20
-165.9547281486155
 10
111.7285807012345
 20
-165.9547281486155
 10
111.9401095640289
 20
-165.9547281486155
 10
111.9401095640289
 20
-165.9547281486155
 10
111.9401095640289
 20
-165.8592990036741
 10
111.9380425067377
 20
-165.8086561000409
 10
111.9318413348643
 20
-165.76214731099
 10
111.9318413348643
 20
-165.76214731099
 10
112.1475043122409
 20
-165.7790282788677
 10
112.1475043122409
 20
-165.7790282788677
 10
112.1960801585829
 20
-165.7831623934501
 10
112.2046928972961
 20
-165.7979763040366
 10
112.2046928972961
 20
-165.8127902146232
 10
112.2046928972961
 20
-165.838283921214
 10
112.1878119294183
 20
-165.8465521503786
 10
112.1368245162366
 20
-165.8720458569695
 10
112.1347574589455
 20
-165.8975395635603
 10
112.1347574589455
 20
-165.9037407354338
 10
112.1326904016543
 20
-165.9547281486155
 10
112.1326904016543
 20
-165.9547281486155
 10
112.3631672896176
 20
-165.9547281486155
 10
112.3631672896176
 20
-165.9547281486155
 10
112.528187363361
 20
-165.9547281486155
 10
112.8203314605102
 20
-165.9481824671935
 10
113.0001654448402
 20
-165.9419812953201
 10
113.0001654448402
 20
-165.9419812953201
 10
113.0001654448402
 20
-166.119748222359
 10
113.0001654448402
 20
-166.119748222359
 10
112.8709743641434
 20
-166.1152695982281
 10
112.8478922243922
 20
-166.1152695982281
 10
112.5705620378296
 20
-166.1111354836458
 97
        0
 97
        0
 92
        1
 93
        1
 72
     4
 94
        3
 73
     0
 74
     1
 95
       23
 96
       19
 40
0.0
 40
0.0
 40
0.0
 40
0.0
 40
1.0
 40
1.0
 40
1.0
 40
2.0
 40
2.0
 40
2.0
 40
3.0
 40
3.0
 40
3.0
 40
4.0
 40
4.0
 40
4.0
 40
5.0
 40
5.0
 40
5.0
 40
6.0
 40
6.0
 40
6.0
 40
6.0
 10
111.286574950477
 20
-165.7600802536989
 10
111.2696939825993
 20
-165.8000433613278
 10
111.2631483011773
 20
-165.8169243292055
 10
111.2421332187172
 20
-165.8169243292055
 10
111.2273193081307
 20
-165.8169243292055
 10
111.2166395121264
 20
-165.8000433613278
 10
111.2104383402529
 20
-165.7872965080323
 10
111.2104383402529
 20
-165.7872965080323
 10
111.1108750807292
 20
-165.6222764342889
 10
111.1108750807292
 20
-165.6222764342889
 10
111.2125053975441
 20
-165.5905815558246
 10
111.362711560701
 20
-165.5358045376091
 10
111.5614935701999
 20
-165.3728515211568
 10
111.5614935701999
 20
-165.3728515211568
 10
111.6186821552551
 20
-165.5461398240649
 10
111.6186821552551
 20
-165.5461398240649
 10
111.5256645771533
 20
-165.6288221157108
 10
111.4367811136339
 20
-165.686010700766
 10
111.286574950477
 20
-165.7600802536989
 97
        0
 97
        0
 92
        1
 93
        1
 72
     4
 94
        3
 73
     0
 74
     1
 95
       17
 96
       13
 40
0.0
 40
0.0
 40
0.0
 40
0.0
 40
1.0
 40
1.0
 40
1.0
 40
2.0
 40
2.0
 40
2.0
 40
3.0
 40
3.0
 40
3.0
 40
4.0
 40
4.0
 40
4.0
 40
4.0
 10
111.438848170925
 20
-165.2946478536416
 10
111.4092203497519
 20
-165.2543402364642
 10
111.3413519686925
 20
-165.1571885437802
 10
111.1594509270712
 20
-165.0469454882522
 10
111.1594509270712
 20
-165.0469454882522
 10
111.286574950477
 20
-164.913620292973
 10
111.286574950477
 20
-164.913620292973
 10
111.4726101066805
 20
-165.0152506097879
 10
111.5297986917356
 20
-165.1041340733073
 10
111.5573594556176
 20
-165.1465087477759
 10
111.5573594556176
 20
-165.1465087477759
 10
111.438848170925
 20
-165.2946478536416
 10
111.438848170925
 20
-165.2946478536416
 97
        0
 97
        0
 92
        1
 93
        1
 72
     4
 94
        3
 73
     0
 74
     1
 95
       38
 96
       34
 40
0.0
 40
0.0
 40
0.0
 40
0.0
 40
1.0
 40
1.0
 40
1.0
 40
2.0
 40
2.0
 40
2.0
 40
3.0
 40
3.0
 40
3.0
 40
4.0
 40
4.0
 40
4.0
 40
5.0
 40
5.0
 40
5.0
 40
6.0
 40
6.0
 40
6.0
 40
7.0
 40
7.0
 40
7.0
 40
8.0
 40
8.0
 40
8.0
 40
9.0
 40
9.0
 40
9.0
 40
10.0
 40
10.0
 40
10.0
 40
11.0
 40
11.0
 40
11.0
 40
11.0
 10
111.8067843687497
 20
-164.989756903197
 10
111.8047173114585
 20
-165.0366102017964
 10
111.8026502541674
 20
-165.1527099196493
 10
111.8026502541674
 20
-165.1971516514091
 10
111.8026502541674
 20
-165.1971516514091
 10
111.8026502541674
 20
-165.5440727667737
 10
111.8026502541674
 20
-165.5440727667737
 10
111.8026502541674
 20
-165.630889173002
 10
111.8047173114585
 20
-165.7724825974458
 10
111.8153971074628
 20
-165.8930609394295
 10
111.8153971074628
 20
-165.8930609394295
 10
111.6248833271285
 20
-165.8930609394295
 10
111.6248833271285
 20
-165.8930609394295
 10
111.6293619512593
 20
-165.8296711825009
 10
111.6334960658416
 20
-165.7769612215766
 10
111.6355631231328
 20
-165.7218396938126
 10
111.6376301804239
 20
-165.5991942945377
 10
111.6396972377151
 20
-165.5843803839511
 10
111.6396972377151
 20
-165.5399386521914
 10
111.6396972377151
 20
-165.5399386521914
 10
111.6396972377151
 20
-165.2185112434176
 10
111.6396972377151
 20
-165.2185112434176
 10
111.6396972377151
 20
-165.1633897156536
 10
111.6269503844197
 20
-164.9243000889773
 10
111.6248833271285
 20
-164.8736571853441
 10
111.6248833271285
 20
-164.8736571853441
 10
111.8260769034671
 20
-164.9012179492261
 10
111.8260769034671
 20
-164.9012179492261
 10
111.8470919859271
 20
-164.9032850065173
 10
111.8787868643914
 20
-164.9074191210995
 10
111.8787868643914
 20
-164.9329128276904
 10
111.8787868643914
 20
-164.9601290820239
 10
111.8281439607582
 20
-164.9814886740324
 10
111.8067843687497
 20
-164.989756903197
 97
        0
 97
        0
 92
        1
 93
        1
 72
     4
 94
        3
 73
     0
 74
     1
 95
       83
 96
       79
 40
0.0
 40
0.0
 40
0.0
 40
0.0
 40
1.0
 40
1.0
 40
1.0
 40
2.0
 40
2.0
 40
2.0
 40
3.0
 40
3.0
 40
3.0
 40
4.0
 40
4.0
 40
4.0
 40
5.0
 40
5.0
 40
5.0
 40
6.0
 40
6.0
 40
6.0
 40
7.0
 40
7.0
 40
7.0
 40
8.0
 40
8.0
 40
8.0
 40
9.0
 40
9.0
 40
9.0
 40
10.0
 40
10.0
 40
10.0
 40
11.0
 40
11.0
 40
11.0
 40
12.0
 40
12.0
 40
12.0
 40
13.0
 40
13.0
 40
13.0
 40
14.0
 40
14.0
 40
14.0
 40
15.0
 40
15.0
 40
15.0
 40
16.0
 40
16.0
 40
16.0
 40
17.0
 40
17.0
 40
17.0
 40
18.0
 40
18.0
 40
18.0
 40
19.0
 40
19.0
 40
19.0
 40
20.0
 40
20.0
 40
20.0
 40
21.0
 40
21.0
 40
21.0
 40
22.0
 40
22.0
 40
22.0
 40
23.0
 40
23.0
 40
23.0
 40
24.0
 40
24.0
 40
24.0
 40
25.0
 40
25.0
 40
25.0
 40
26.0
 40
26.0
 40
26.0
 40
26.0
 10
112.6088025977159
 20
-165.3115288215193
 10
112.6088025977159
 20
-165.3115288215193
 10
112.5113063954833
 20
-165.3115288215193
 10
112.5113063954833
 20
-165.3115288215193
 10
112.5113063954833
 20
-165.3115288215193
 10
112.5113063954833
 20
-165.5588866773603
 10
112.5113063954833
 20
-165.5588866773603
 10
112.5113063954833
 20
-165.5588866773603
 10
112.5939886871293
 20
-165.5588866773603
 10
112.5939886871293
 20
-165.5588866773603
 10
112.659445501349
 20
-165.5588866773603
 10
112.7989718685017
 20
-165.554752562778
 10
112.8985351280254
 20
-165.5461398240649
 10
112.8985351280254
 20
-165.5461398240649
 10
112.8985351280254
 20
-165.7259738083949
 10
112.8985351280254
 20
-165.7259738083949
 10
112.8055175499236
 20
-165.7177055792303
 10
112.6553113867667
 20
-165.713571464648
 10
112.5939886871293
 20
-165.713571464648
 10
112.5939886871293
 20
-165.713571464648
 10
112.2890977366847
 20
-165.713571464648
 10
112.2890977366847
 20
-165.713571464648
 10
112.2363877757603
 20
-165.713571464648
 10
112.0903157271858
 20
-165.7177055792303
 10
111.9845512957886
 20
-165.7259738083949
 10
111.9845512957886
 20
-165.7259738083949
 10
111.9845512957886
 20
-165.5461398240649
 10
111.9845512957886
 20
-165.5461398240649
 10
112.0841145553123
 20
-165.554752562778
 10
112.2236409224649
 20
-165.5588866773603
 10
112.2890977366847
 20
-165.5588866773603
 10
112.2890977366847
 20
-165.5588866773603
 10
112.3335394684444
 20
-165.5588866773603
 10
112.3335394684444
 20
-165.5588866773603
 10
112.3335394684444
 20
-165.5588866773603
 10
112.3335394684444
 20
-165.3115288215193
 10
112.3335394684444
 20
-165.3115288215193
 10
112.3335394684444
 20
-165.3115288215193
 10
112.2598144250601
 20
-165.3115288215193
 10
112.2598144250601
 20
-165.3115288215193
 10
112.1981472158741
 20
-165.3115288215193
 10
112.0310600848395
 20
-165.3156629361017
 10
111.9104817428557
 20
-165.3242756748148
 10
111.9104817428557
 20
-165.3242756748148
 10
111.9104817428557
 20
-165.1465087477759
 10
111.9104817428557
 20
-165.1465087477759
 10
112.024858912966
 20
-165.1527099196493
 10
112.1833333052875
 20
-165.1571885437802
 10
112.2598144250601
 20
-165.1571885437802
 10
112.2598144250601
 20
-165.1571885437802
 10
112.3314724111532
 20
-165.1571885437802
 10
112.3314724111532
 20
-165.1571885437802
 10
112.3273382965709
 20
-165.0045708137836
 10
112.3252712392798
 20
-164.9708088780282
 10
112.3187255578578
 20
-164.8777912999264
 10
112.3187255578578
 20
-164.8777912999264
 10
112.5305989302007
 20
-164.9012179492261
 10
112.5305989302007
 20
-164.9012179492261
 10
112.555748127243
 20
-164.9032850065173
 10
112.5791747765427
 20
-164.9074191210995
 10
112.5791747765427
 20
-164.9305012608507
 10
112.5791747765427
 20
-164.9625406488636
 10
112.534733044783
 20
-164.9794216167413
 10
112.5113063954833
 20
-164.9876898459059
 10
112.5113063954833
 20
-164.9876898459059
 10
112.5113063954833
 20
-165.1571885437802
 10
112.5113063954833
 20
-165.1571885437802
 10
112.5113063954833
 20
-165.1571885437802
 10
112.6088025977159
 20
-165.1571885437802
 10
112.6088025977159
 20
-165.1571885437802
 10
112.6849392079399
 20
-165.1571885437802
 10
112.8434136002614
 20
-165.1527099196493
 10
112.9598578276628
 20
-165.1465087477759
 10
112.9598578276628
 20
-165.1465087477759
 10
112.9598578276628
 20
-165.3242756748148
 10
112.9598578276628
 20
-165.3242756748148
 10
112.8520263389745
 20
-165.3177299933928
 10
112.6783935265179
 20
-165.3115288215193
 10
112.6088025977159
 20
-165.3115288215193
 97
        0
 97
        0
 92
        1
 93
        1
 72
     4
 94
        3
 73
     0
 74
     1
 95
       17
 96
       13
 40
0.0
 40
0.0
 40
0.0
 40
0.0
 40
1.0
 40
1.0
 40
1.0
 40
2.0
 40
2.0
 40
2.0
 40
3.0
 40
3.0
 40
3.0
 40
4.0
 40
4.0
 40
4.0
 40
4.0
 10
112.3631672896176
 20
-166.1090684263547
 10
112.3631672896176
 20
-166.1090684263547
 10
112.1602511655363
 20
-166.1090684263547
 10
112.1602511655363
 20
-166.1090684263547
 10
112.1878119294183
 20
-166.168324068701
 10
112.2425889476338
 20
-166.2403265643427
 10
112.2701497115158
 20
-166.2696098759673
 10
112.2977104753978
 20
-166.2551404749293
 10
112.4120876455081
 20
-166.1914062084522
 10
112.5030381663187
 20
-166.1090684263547
 10
112.5030381663187
 20
-166.1090684263547
 10
112.3631672896176
 20
-166.1090684263547
 10
112.3631672896176
 20
-166.1090684263547
 97
        0
 97
        0
 75
     2
 76
     1
 98
        0
  0
SPLINE
  5
A3
330
90
100
AcDbEntity
  8
_U+30EC_U+30A4_U+30E4_U+30FC 1
370
     0
100
AcDbSpline
210
0.0
220
0.0
230
1.0
 70
    11
 71
     3
 72
    77
 73
    73
 74
     0
 42
0.0000000001
 43
0.0000000001
 12
1.0
 22
0.0
 32
0.0
 13
1.0
 23
0.0
 33
0.0
 40
0.0
 40
0.0
 40
0.0
 40
0.0
 40
1.0
 40
1.0
 40
1.0
 40
2.0
 40
2.0
 40
2.0
 40
3.0
 40
3.0
 40
3.0
 40
4.0
 40
4.0
 40
4.0
 40
5.0
 40
5.0
 40
5.0
 40
6.0
 40
6.0
 40
6.0
 40
7.0
 40
7.0
 40
7.0
 40
8.0
 40
8.0
 40
8.0
 40
9.0
 40
9.0
 40
9.0
 40
10.0
 40
10.0
 40
10.0
 40
11.0
 40
11.0
 40
11.0
 40
12.0
 40
12.0
 40
12.0
 40
13.0
 40
13.0
 40
13.0
 40
14.0
 40
14.0
 40
14.0
 40
15.0
 40
15.0
 40
15.0
 40
16.0
 40
16.0
 40
16.0
 40
17.0
 40
17.0
 40
17.0
 40
18.0
 40
18.0
 40
18.0
 40
19.0
 40
19.0
 40
19.0
 40
20.0
 40
20.0
 40
20.0
 40
21.0
 40
21.0
 40
21.0
 40
22.0
 40
22.0
 40
22.0
 40
23.0
 40
23.0
 40
23.0
 40
24.0
 40
24.0
 40
24.0
 40
24.0
 10
114.8543158350017
 20
-166.7395209001554
 30
0.0
 10
114.8078070459508
 20
-166.7646700971977
 30
0.0
 10
114.6830945893848
 20
-166.7774169504931
 30
0.0
 10
114.6045464123211
 20
-166.7774169504931
 30
0.0
 10
114.5921440685742
 20
-166.7774169504931
 30
0.0
 10
114.5666503619833
 20
-166.7774169504931
 30
0.0
 10
114.5328884262279
 20
-166.7732828359109
 30
0.0
 10
114.5328884262279
 20
-166.7732828359109
 30
0.0
 10
114.4353922239953
 20
-166.5469400625299
 30
0.0
 10
114.4353922239953
 20
-166.5469400625299
 30
0.0
 10
114.4650200451685
 20
-166.5531412344034
 30
0.0
 10
114.5222086302236
 20
-166.5617539731165
 30
0.0
 10
114.6386528576251
 20
-166.5617539731165
 30
0.0
 10
114.7168565251402
 20
-166.5617539731165
 30
0.0
 10
114.7189235824314
 20
-166.5193792986479
 30
0.0
 10
114.7189235824314
 20
-166.4621907135928
 30
0.0
 10
114.7189235824314
 20
-166.4621907135928
 30
0.0
 10
114.7189235824314
 20
-166.113202540937
 30
0.0
 10
114.7189235824314
 20
-166.113202540937
 30
0.0
 10
114.7189235824314
 20
-166.113202540937
 30
0.0
 10
114.2596923542476
 20
-166.113202540937
 30
0.0
 10
114.2596923542476
 20
-166.113202540937
 30
0.0
 10
114.2621039210873
 20
-166.2506618507985
 30
0.0
 10
114.2641709783784
 20
-166.4494438602974
 30
0.0
 10
114.2703721502519
 20
-166.5827690555765
 30
0.0
 10
114.272439207543
 20
-166.6103298194585
 30
0.0
 10
114.272439207543
 20
-166.6547715512183
 30
0.0
 10
114.2851860608384
 20
-166.7160942508557
 30
0.0
 10
114.2851860608384
 20
-166.7160942508557
 30
0.0
 10
114.0440293768709
 20
-166.7160942508557
 30
0.0
 10
114.0440293768709
 20
-166.7160942508557
 30
0.0
 10
114.0695230834618
 20
-166.5913817942897
 30
0.0
 10
114.0695230834618
 20
-166.2506618507985
 30
0.0
 10
114.0695230834618
 20
-166.113202540937
 30
0.0
 10
114.0695230834618
 20
-166.113202540937
 30
0.0
 10
113.6271728231557
 20
-166.113202540937
 30
0.0
 10
113.6271728231557
 20
-166.113202540937
 30
0.0
 10
113.6040906834045
 20
-166.320597289149
 30
0.0
 10
113.5386338691848
 20
-166.5893147369985
 30
0.0
 10
113.3415744074285
 20
-166.7732828359109
 30
0.0
 10
113.3415744074285
 20
-166.7732828359109
 30
0.0
 10
113.1534721939339
 20
-166.6506374366359
 30
0.0
 10
113.1534721939339
 20
-166.6506374366359
 30
0.0
 10
113.4073757311968
 20
-166.4304958351285
 30
0.0
 10
113.4390706096611
 20
-166.0983886303504
 30
0.0
 10
113.4390706096611
 20
-165.7662814255723
 30
0.0
 10
113.4390706096611
 20
-165.7662814255723
 30
0.0
 10
113.4390706096611
 20
-165.3304768466882
 30
0.0
 10
113.4390706096611
 20
-165.3304768466882
 30
0.0
 10
113.4390706096611
 20
-165.2946478536416
 30
0.0
 10
113.4370035523699
 20
-165.0617593988387
 30
0.0
 10
113.4283908136568
 20
-164.9601290820239
 30
0.0
 10
113.5682616903579
 20
-164.9708088780282
 30
0.0
 10
113.8094183743254
 20
-164.9708088780282
 30
0.0
 10
113.9530788560603
 20
-164.9708088780282
 30
0.0
 10
113.9530788560603
 20
-164.9708088780282
 30
0.0
 10
114.4123100842442
 20
-164.9708088780282
 30
0.0
 10
114.4123100842442
 20
-164.9708088780282
 30
0.0
 10
114.4271239948307
 20
-164.9708088780282
 30
0.0
 10
114.7761121674865
 20
-164.9708088780282
 30
0.0
 10
114.934586559808
 20
-164.9601290820239
 30
0.0
 10
114.9325195025169
 20
-165.0131835524967
 30
0.0
 10
114.9263183306434
 20
-165.1740695116579
 30
0.0
 10
114.9263183306434
 20
-165.2247124152911
 30
0.0
 10
114.9263183306434
 20
-165.2247124152911
 30
0.0
 10
114.9263183306434
 20
-165.8317382397921
 30
0.0
 10
114.9263183306434
 20
-165.8317382397921
 30
0.0
 10
114.9263183306434
 20
-165.8510307745095
 30
0.0
 10
114.9366536170992
 20
-166.4222276059639
 30
0.0
 10
114.9366536170992
 20
-166.5341932092345
 30
0.0
 10
114.9366536170992
 20
-166.5913817942897
 30
0.0
 10
114.9366536170992
 20
-166.6930121111045
 30
0.0
 10
114.8543158350017
 20
-166.7395209001554
 30
0.0
  0
POLYLINE
  5
A4
330
90
100
AcDbEntity
  8
_U+30EC_U+30A4_U+30E4_U+30FC 1
370
     0
100
AcDb2dPolyline
 66
     1
 10
0.0
 20
0.0
 30
0.0
  0
VERTEX
  5
A5
330
A4
100
AcDbEntity
  8
_U+30EC_U+30A4_U+30E4_U+30FC 1
370
     0
100
AcDbVertex
100
AcDb2dVertex
 10
114.0695230834618
 20
-165.1527099196493
 30
0.0
  0
VERTEX
  5
A6
330
A4
100
AcDbEntity
  8
_U+30EC_U+30A4_U+30E4_U+30FC 1
370
     0
100
AcDbVertex
100
AcDb2dVertex
 10
113.6316514472865
 20
-165.1527099196493
 30
0.0
  0
VERTEX
  5
A7
330
A4
100
AcDbEntity
  8
_U+30EC_U+30A4_U+30E4_U+30FC 1
370
     0
100
AcDbVertex
100
AcDb2dVertex
 10
113.6316514472865
 20
-165.4572563605454
 30
0.0
  0
VERTEX
  5
A8
330
A4
100
AcDbEntity
  8
_U+30EC_U+30A4_U+30E4_U+30FC 1
370
     0
100
AcDbVertex
100
AcDb2dVertex
 10
114.0695230834618
 20
-165.4572563605454
 30
0.0
  0
VERTEX
  5
A9
330
A4
100
AcDbEntity
  8
_U+30EC_U+30A4_U+30E4_U+30FC 1
370
     0
100
AcDbVertex
100
AcDb2dVertex
 10
114.0695230834618
 20
-165.1527099196493
 30
0.0
  0
SEQEND
  5
AA
330
A4
100
AcDbEntity
  8
_U+30EC_U+30A4_U+30E4_U+30FC 1
370
     0
  0
POLYLINE
  5
AB
330
90
100
AcDbEntity
  8
_U+30EC_U+30A4_U+30E4_U+30FC 1
370
     0
100
AcDb2dPolyline
 66
     1
 10
0.0
 20
0.0
 30
0.0
  0
VERTEX
  5
AC
330
AB
100
AcDbEntity
  8
_U+30EC_U+30A4_U+30E4_U+30FC 1
370
     0
100
AcDbVertex
100
AcDb2dVertex
 10
114.0695230834618
 20
-165.6246880011286
 30
0.0
  0
VERTEX
  5
AD
330
AB
100
AcDbEntity
  8
_U+30EC_U+30A4_U+30E4_U+30FC 1
370
     0
100
AcDbVertex
100
AcDb2dVertex
 10
113.6316514472865
 20
-165.6246880011286
 30
0.0
  0
VERTEX
  5
AE
330
AB
100
AcDbEntity
  8
_U+30EC_U+30A4_U+30E4_U+30FC 1
370
     0
100
AcDbVertex
100
AcDb2dVertex
 10
113.6316514472865
 20
-165.933368556607
 30
0.0
  0
VERTEX
  5
AF
330
AB
100
AcDbEntity
  8
_U+30EC_U+30A4_U+30E4_U+30FC 1
370
     0
100
AcDbVertex
100
AcDb2dVertex
 10
114.0695230834618
 20
-165.933368556607
 30
0.0
  0
VERTEX
  5
B0
330
AB
100
AcDbEntity
  8
_U+30EC_U+30A4_U+30E4_U+30FC 1
370
     0
100
AcDbVertex
100
AcDb2dVertex
 10
114.0695230834618
 20
-165.6246880011286
 30
0.0
  0
SEQEND
  5
B1
330
AB
100
AcDbEntity
  8
_U+30EC_U+30A4_U+30E4_U+30FC 1
370
     0
  0
POLYLINE
  5
B2
330
90
100
AcDbEntity
  8
_U+30EC_U+30A4_U+30E4_U+30FC 1
370
     0
100
AcDb2dPolyline
 66
     1
 10
0.0
 20
0.0
 30
0.0
  0
VERTEX
  5
B3
330
B2
100
AcDbEntity
  8
_U+30EC_U+30A4_U+30E4_U+30FC 1
370
     0
100
AcDbVertex
100
AcDb2dVertex
 10
114.7189235824314
 20
-165.1527099196493
 30
0.0
  0
VERTEX
  5
B4
330
B2
100
AcDbEntity
  8
_U+30EC_U+30A4_U+30E4_U+30FC 1
370
     0
100
AcDbVertex
100
AcDb2dVertex
 10
114.2596923542476
 20
-165.1527099196493
 30
0.0
  0
VERTEX
  5
B5
330
B2
100
AcDbEntity
  8
_U+30EC_U+30A4_U+30E4_U+30FC 1
370
     0
100
AcDbVertex
100
AcDb2dVertex
 10
114.2596923542476
 20
-165.4572563605454
 30
0.0
  0
VERTEX
  5
B6
330
B2
100
AcDbEntity
  8
_U+30EC_U+30A4_U+30E4_U+30FC 1
370
     0
100
AcDbVertex
100
AcDb2dVertex
 10
114.7189235824314
 20
-165.4572563605454
 30
0.0
  0
VERTEX
  5
B7
330
B2
100
AcDbEntity
  8
_U+30EC_U+30A4_U+30E4_U+30FC 1
370
     0
100
AcDbVertex
100
AcDb2dVertex
 10
114.7189235824314
 20
-165.1527099196493
 30
0.0
  0
SEQEND
  5
B8
330
B2
100
AcDbEntity
  8
_U+30EC_U+30A4_U+30E4_U+30FC 1
370
     0
  0
POLYLINE
  5
B9
330
90
100
AcDbEntity
  8
_U+30EC_U+30A4_U+30E4_U+30FC 1
370
     0
100
AcDb2dPolyline
 66
     1
 10
0.0
 20
0.0
 30
0.0
  0
VERTEX
  5
BA
330
B9
100
AcDbEntity
  8
_U+30EC_U+30A4_U+30E4_U+30FC 1
370
     0
100
AcDbVertex
100
AcDb2dVertex
 10
114.7189235824314
 20
-165.6246880011286
 30
0.0
  0
VERTEX
  5
BB
330
B9
100
AcDbEntity
  8
_U+30EC_U+30A4_U+30E4_U+30FC 1
370
     0
100
AcDbVertex
100
AcDb2dVertex
 10
114.2596923542476
 20
-165.6246880011286
 30
0.0
  0
VERTEX
  5
BC
330
B9
100
AcDbEntity
  8
_U+30EC_U+30A4_U+30E4_U+30FC 1
370
     0
100
AcDbVertex
100
AcDb2dVertex
 10
114.2596923542476
 20
-165.933368556607
 30
0.0
  0
VERTEX
  5
BD
330
B9
100
AcDbEntity
  8
_U+30EC_U+30A4_U+30E4_U+30FC 1
370
     0
100
AcDbVertex
100
AcDb2dVertex
 10
114.7189235824314
 20
-165.933368556607
 30
0.0
  0
VERTEX
  5
BE
330
B9
100
AcDbEntity
  8
_U+30EC_U+30A4_U+30E4_U+30FC 1
370
     0
100
AcDbVertex
100
AcDb2dVertex
 10
114.7189235824314
 20
-165.6246880011286
 30
0.0
  0
SEQEND
  5
BF
330
B9
100
AcDbEntity
  8
_U+30EC_U+30A4_U+30E4_U+30FC 1
370
     0
  0
HATCH
  5
C0
330
90
100
AcDbEntity
  8
_U+30EC_U+30A4_U+30E4_U+30FC 1
 62
   179
420
  2234388
100
AcDbHatch
 10
0.0
 20
0.0
 30
0.0
210
0.0
220
0.0
230
1.0
  2
SOLID
 70
     1
 71
     0
 91
        5
 92
        1
 93
        1
 72
     4
 94
        3
 73
     0
 74
     1
 95
       77
 96
       73
 40
0.0
 40
0.0
 40
0.0
 40
0.0
 40
1.0
 40
1.0
 40
1.0
 40
2.0
 40
2.0
 40
2.0
 40
3.0
 40
3.0
 40
3.0
 40
4.0
 40
4.0
 40
4.0
 40
5.0
 40
5.0
 40
5.0
 40
6.0
 40
6.0
 40
6.0
 40
7.0
 40
7.0
 40
7.0
 40
8.0
 40
8.0
 40
8.0
 40
9.0
 40
9.0
 40
9.0
 40
10.0
 40
10.0
 40
10.0
 40
11.0
 40
11.0
 40
11.0
 40
12.0
 40
12.0
 40
12.0
 40
13.0
 40
13.0
 40
13.0
 40
14.0
 40
14.0
 40
14.0
 40
15.0
 40
15.0
 40
15.0
 40
16.0
 40
16.0
 40
16.0
 40
17.0
 40
17.0
 40
17.0
 40
18.0
 40
18.0
 40
18.0
 40
19.0
 40
19.0
 40
19.0
 40
20.0
 40
20.0
 40
20.0
 40
21.0
 40
21.0
 40
21.0
 40
22.0
 40
22.0
 40
22.0
 40
23.0
 40
23.0
 40
23.0
 40
24.0
 40
24.0
 40
24.0
 40
24.0
 10
114.8543158350017
 20
-166.7395209001554
 10
114.8078070459508
 20
-166.7646700971977
 10
114.6830945893848
 20
-166.7774169504931
 10
114.6045464123211
 20
-166.7774169504931
 10
114.5921440685742
 20
-166.7774169504931
 10
114.5666503619833
 20
-166.7774169504931
 10
114.5328884262279
 20
-166.7732828359109
 10
114.5328884262279
 20
-166.7732828359109
 10
114.4353922239953
 20
-166.5469400625299
 10
114.4353922239953
 20
-166.5469400625299
 10
114.4650200451685
 20
-166.5531412344034
 10
114.5222086302236
 20
-166.5617539731165
 10
114.6386528576251
 20
-166.5617539731165
 10
114.7168565251402
 20
-166.5617539731165
 10
114.7189235824314
 20
-166.5193792986479
 10
114.7189235824314
 20
-166.4621907135928
 10
114.7189235824314
 20
-166.4621907135928
 10
114.7189235824314
 20
-166.113202540937
 10
114.7189235824314
 20
-166.113202540937
 10
114.7189235824314
 20
-166.113202540937
 10
114.2596923542476
 20
-166.113202540937
 10
114.2596923542476
 20
-166.113202540937
 10
114.2621039210873
 20
-166.2506618507985
 10
114.2641709783784
 20
-166.4494438602974
 10
114.2703721502519
 20
-166.5827690555765
 10
114.272439207543
 20
-166.6103298194585
 10
114.272439207543
 20
-166.6547715512183
 10
114.2851860608384
 20
-166.7160942508557
 10
114.2851860608384
 20
-166.7160942508557
 10
114.0440293768709
 20
-166.7160942508557
 10
114.0440293768709
 20
-166.7160942508557
 10
114.0695230834618
 20
-166.5913817942897
 10
114.0695230834618
 20
-166.2506618507985
 10
114.0695230834618
 20
-166.113202540937
 10
114.0695230834618
 20
-166.113202540937
 10
113.6271728231557
 20
-166.113202540937
 10
113.6271728231557
 20
-166.113202540937
 10
113.6040906834045
 20
-166.320597289149
 10
113.5386338691848
 20
-166.5893147369985
 10
113.3415744074285
 20
-166.7732828359109
 10
113.3415744074285
 20
-166.7732828359109
 10
113.1534721939339
 20
-166.6506374366359
 10
113.1534721939339
 20
-166.6506374366359
 10
113.4073757311968
 20
-166.4304958351285
 10
113.4390706096611
 20
-166.0983886303504
 10
113.4390706096611
 20
-165.7662814255723
 10
113.4390706096611
 20
-165.7662814255723
 10
113.4390706096611
 20
-165.3304768466882
 10
113.4390706096611
 20
-165.3304768466882
 10
113.4390706096611
 20
-165.2946478536416
 10
113.4370035523699
 20
-165.0617593988387
 10
113.4283908136568
 20
-164.9601290820239
 10
113.5682616903579
 20
-164.9708088780282
 10
113.8094183743254
 20
-164.9708088780282
 10
113.9530788560603
 20
-164.9708088780282
 10
113.9530788560603
 20
-164.9708088780282
 10
114.4123100842442
 20
-164.9708088780282
 10
114.4123100842442
 20
-164.9708088780282
 10
114.4271239948307
 20
-164.9708088780282
 10
114.7761121674865
 20
-164.9708088780282
 10
114.934586559808
 20
-164.9601290820239
 10
114.9325195025169
 20
-165.0131835524967
 10
114.9263183306434
 20
-165.1740695116579
 10
114.9263183306434
 20
-165.2247124152911
 10
114.9263183306434
 20
-165.2247124152911
 10
114.9263183306434
 20
-165.8317382397921
 10
114.9263183306434
 20
-165.8317382397921
 10
114.9263183306434
 20
-165.8510307745095
 10
114.9366536170992
 20
-166.4222276059639
 10
114.9366536170992
 20
-166.5341932092345
 10
114.9366536170992
 20
-166.5913817942897
 10
114.9366536170992
 20
-166.6930121111045
 10
114.8543158350017
 20
-166.7395209001554
 97
        0
 97
        0
 92
        1
 93
        4
 72
     1
 10
114.0695230834618
 20
-165.1527099196493
 11
113.6316514472865
 21
-165.1527099196493
 72
     1
 10
113.6316514472865
 20
-165.1527099196493
 11
113.6316514472865
 21
-165.4572563605454
 72
     1
 10
113.6316514472865
 20
-165.4572563605454
 11
114.0695230834618
 21
-165.4572563605454
 72
     1
 10
114.0695230834618
 20
-165.4572563605454
 11
114.0695230834618
 21
-165.1527099196493
 97
        0
 92
        1
 93
        4
 72
     1
 10
114.0695230834618
 20
-165.6246880011286
 11
113.6316514472865
 21
-165.6246880011286
 72
     1
 10
113.6316514472865
 20
-165.6246880011286
 11
113.6316514472865
 21
-165.933368556607
 72
     1
 10
113.6316514472865
 20
-165.933368556607
 11
114.0695230834618
 21
-165.933368556607
 72
     1
 10
114.0695230834618
 20
-165.933368556607
 11
114.0695230834618
 21
-165.6246880011286
 97
        0
 92
        1
 93
        4
 72
     1
 10
114.7189235824314
 20
-165.1527099196493
 11
114.2596923542476
 21
-165.1527099196493
 72
     1
 10
114.2596923542476
 20
-165.1527099196493
 11
114.2596923542476
 21
-165.4572563605454
 72
     1
 10
114.2596923542476
 20
-165.4572563605454
 11
114.7189235824314
 21
-165.4572563605454
 72
     1
 10
114.7189235824314
 20
-165.4572563605454
 11
114.7189235824314
 21
-165.1527099196493
 97
        0
 92
        1
 93
        4
 72
     1
 10
114.7189235824314
 20
-165.6246880011286
 11
114.2596923542476
 21
-165.6246880011286
 72
     1
 10
114.2596923542476
 20
-165.6246880011286
 11
114.2596923542476
 21
-165.933368556607
 72
     1
 10
114.2596923542476
 20
-165.933368556607
 11
114.7189235824314
 21
-165.933368556607
 72
     1
 10
114.7189235824314
 20
-165.933368556607
 11
114.7189235824314
 21
-165.6246880011286
 97
        0
 75
     2
 76
     1
 98
        0
  0
SPLINE
  5
C1
330
90
100
AcDbEntity
  8
_U+30EC_U+30A4_U+30E4_U+30FC 1
370
     0
100
AcDbSpline
210
0.0
220
0.0
230
1.0
 70
    11
 71
     3
 72
    44
 73
    40
 74
     0
 42
0.0000000001
 43
0.0000000001
 12
1.0
 22
0.0
 32
0.0
 13
1.0
 23
0.0
 33
0.0
 40
0.0
 40
0.0
 40
0.0
 40
0.0
 40
1.0
 40
1.0
 40
1.0
 40
2.0
 40
2.0
 40
2.0
 40
3.0
 40
3.0
 40
3.0
 40
4.0
 40
4.0
 40
4.0
 40
5.0
 40
5.0
 40
5.0
 40
6.0
 40
6.0
 40
6.0
 40
7.0
 40
7.0
 40
7.0
 40
8.0
 40
8.0
 40
8.0
 40
9.0
 40
9.0
 40
9.0
 40
10.0
 40
10.0
 40
10.0
 40
11.0
 40
11.0
 40
11.0
 40
12.0
 40
12.0
 40
12.0
 40
13.0
 40
13.0
 40
13.0
 40
13.0
 10
116.7318928744629
 20
-165.4892957485582
 30
0.0
 10
116.6199272711922
 20
-165.8572319463829
 30
0.0
 10
116.5692843675591
 20
-166.0160508482529
 30
0.0
 10
116.3725694153513
 20
-166.265475761385
 30
0.0
 10
116.1882568068904
 20
-166.4962971588968
 30
0.0
 10
115.9515787470538
 20
-166.6823323151003
 30
0.0
 10
115.6721815032
 20
-166.775349893202
 30
0.0
 10
115.6721815032
 20
-166.775349893202
 30
0.0
 10
115.4796006655746
 20
-166.595515908872
 30
0.0
 10
115.4796006655746
 20
-166.595515908872
 30
0.0
 10
116.1207329353796
 20
-166.4432426884239
 30
0.0
 10
116.4507730828665
 20
-165.8868597675561
 30
0.0
 10
116.5141628397951
 20
-165.4469210740897
 30
0.0
 10
116.5141628397951
 20
-165.4469210740897
 30
0.0
 10
115.748318113424
 20
-165.4469210740897
 30
0.0
 10
115.748318113424
 20
-165.4469210740897
 30
0.0
 10
115.6553005353223
 20
-165.4469210740897
 30
0.0
 10
115.47133243641
 20
-165.451055188672
 30
0.0
 10
115.3145805918311
 20
-165.4700032138408
 30
0.0
 10
115.3145805918311
 20
-165.4700032138408
 30
0.0
 10
115.3145805918311
 20
-165.2502061218819
 30
0.0
 10
115.3145805918311
 20
-165.2502061218819
 30
0.0
 10
115.4013969980594
 20
-165.2712212043419
 30
0.0
 10
115.6532334780311
 20
-165.2712212043419
 30
0.0
 10
115.7524522280063
 20
-165.2712212043419
 30
0.0
 10
115.7524522280063
 20
-165.2712212043419
 30
0.0
 10
116.1841226923081
 20
-165.2712212043419
 30
0.0
 10
116.1841226923081
 20
-165.2712212043419
 30
0.0
 10
116.2264973667767
 20
-165.2712212043419
 30
0.0
 10
116.4611083693222
 20
-165.2691541470508
 30
0.0
 10
116.4993489292085
 20
-165.2629529751773
 30
0.0
 10
116.5417236036771
 20
-165.2564072937554
 30
0.0
 10
116.5437906609682
 20
-165.2543402364642
 30
0.0
 10
116.6051133606057
 20
-165.2140326192868
 30
0.0
 10
116.6051133606057
 20
-165.2140326192868
 30
0.0
 10
116.7935600836488
 20
-165.3687174065745
 30
0.0
 10
116.7935600836488
 20
-165.3687174065745
 30
0.0
 10
116.7639322624757
 20
-165.3983452277477
 30
0.0
 10
116.7491183518891
 20
-165.4300401062119
 30
0.0
 10
116.7318928744629
 20
-165.4892957485582
 30
0.0
  0
SPLINE
  5
C2
330
90
100
AcDbEntity
  8
_U+30EC_U+30A4_U+30E4_U+30FC 1
370
     0
100
AcDbSpline
210
0.0
220
0.0
230
1.0
 70
    11
 71
     3
 72
    17
 73
    13
 74
     0
 42
0.0000000001
 43
0.0000000001
 12
1.0
 22
0.0
 32
0.0
 13
1.0
 23
0.0
 33
0.0
 40
0.0
 40
0.0
 40
0.0
 40
0.0
 40
1.0
 40
1.0
 40
1.0
 40
2.0
 40
2.0
 40
2.0
 40
3.0
 40
3.0
 40
3.0
 40
4.0
 40
4.0
 40
4.0
 40
4.0
 10
116.9413546799661
 20
-165.2901692295108
 30
0.0
 10
116.8145751661089
 20
-165.2901692295108
 30
0.0
 10
116.712944849294
 20
-165.1888834222445
 30
0.0
 10
116.712944849294
 20
-165.0617593988387
 30
0.0
 10
116.712944849294
 20
-164.9349798849815
 30
0.0
 10
116.8145751661089
 20
-164.8312825108755
 30
0.0
 10
116.9413546799661
 20
-164.8312825108755
 30
0.0
 10
117.0684787033718
 20
-164.8312825108755
 30
0.0
 10
117.1721760774778
 20
-164.9349798849815
 30
0.0
 10
117.1721760774778
 20
-165.0617593988387
 30
0.0
 10
117.1721760774778
 20
-165.1888834222445
 30
0.0
 10
117.0684787033718
 20
-165.2901692295108
 30
0.0
 10
116.9413546799661
 20
-165.2901692295108
 30
0.0
  0
SPLINE
  5
C3
330
90
100
AcDbEntity
  8
_U+30EC_U+30A4_U+30E4_U+30FC 1
370
     0
100
AcDbSpline
210
0.0
220
0.0
230
1.0
 70
    11
 71
     3
 72
    17
 73
    13
 74
     0
 42
0.0000000001
 43
0.0000000001
 12
1.0
 22
0.0
 32
0.0
 13
1.0
 23
0.0
 33
0.0
 40
0.0
 40
0.0
 40
0.0
 40
0.0
 40
1.0
 40
1.0
 40
1.0
 40
2.0
 40
2.0
 40
2.0
 40
3.0
 40
3.0
 40
3.0
 40
4.0
 40
4.0
 40
4.0
 40
4.0
 10
116.9392876226749
 20
-164.9601290820239
 30
0.0
 10
116.8845106044594
 20
-164.9601290820239
 30
0.0
 10
116.8400688726997
 20
-165.0045708137836
 30
0.0
 10
116.8400688726997
 20
-165.0596923415476
 30
0.0
 10
116.8400688726997
 20
-165.1168809266027
 30
0.0
 10
116.8845106044594
 20
-165.1654567729448
 30
0.0
 10
116.9434217372572
 20
-165.1654567729448
 30
0.0
 10
117.0026773796035
 20
-165.1654567729448
 30
0.0
 10
117.0429849967809
 20
-165.1148138693116
 30
0.0
 10
117.0429849967809
 20
-165.0617593988387
 30
0.0
 10
117.0429849967809
 20
-165.0045708137836
 30
0.0
 10
116.9964762077301
 20
-164.9601290820239
 30
0.0
 10
116.9392876226749
 20
-164.9601290820239
 30
0.0
  0
HATCH
  5
C4
330
90
100
AcDbEntity
  8
_U+30EC_U+30A4_U+30E4_U+30FC 1
 62
   179
420
  2234388
100
AcDbHatch
 10
0.0
 20
0.0
 30
0.0
210
0.0
220
0.0
230
1.0
  2
SOLID
 70
     1
 71
     0
 91
        3
 92
        1
 93
        1
 72
     4
 94
        3
 73
     0
 74
     1
 95
       44
 96
       40
 40
0.0
 40
0.0
 40
0.0
 40
0.0
 40
1.0
 40
1.0
 40
1.0
 40
2.0
 40
2.0
 40
2.0
 40
3.0
 40
3.0
 40
3.0
 40
4.0
 40
4.0
 40
4.0
 40
5.0
 40
5.0
 40
5.0
 40
6.0
 40
6.0
 40
6.0
 40
7.0
 40
7.0
 40
7.0
 40
8.0
 40
8.0
 40
8.0
 40
9.0
 40
9.0
 40
9.0
 40
10.0
 40
10.0
 40
10.0
 40
11.0
 40
11.0
 40
11.0
 40
12.0
 40
12.0
 40
12.0
 40
13.0
 40
13.0
 40
13.0
 40
13.0
 10
116.7318928744629
 20
-165.4892957485582
 10
116.6199272711922
 20
-165.8572319463829
 10
116.5692843675591
 20
-166.0160508482529
 10
116.3725694153513
 20
-166.265475761385
 10
116.1882568068904
 20
-166.4962971588968
 10
115.9515787470538
 20
-166.6823323151003
 10
115.6721815032
 20
-166.775349893202
 10
115.6721815032
 20
-166.775349893202
 10
115.4796006655746
 20
-166.595515908872
 10
115.4796006655746
 20
-166.595515908872
 10
116.1207329353796
 20
-166.4432426884239
 10
116.4507730828665
 20
-165.8868597675561
 10
116.5141628397951
 20
-165.4469210740897
 10
116.5141628397951
 20
-165.4469210740897
 10
115.748318113424
 20
-165.4469210740897
 10
115.748318113424
 20
-165.4469210740897
 10
115.6553005353223
 20
-165.4469210740897
 10
115.47133243641
 20
-165.451055188672
 10
115.3145805918311
 20
-165.4700032138408
 10
115.3145805918311
 20
-165.4700032138408
 10
115.3145805918311
 20
-165.2502061218819
 10
115.3145805918311
 20
-165.2502061218819
 10
115.4013969980594
 20
-165.2712212043419
 10
115.6532334780311
 20
-165.2712212043419
 10
115.7524522280063
 20
-165.2712212043419
 10
115.7524522280063
 20
-165.2712212043419
 10
116.1841226923081
 20
-165.2712212043419
 10
116.1841226923081
 20
-165.2712212043419
 10
116.2264973667767
 20
-165.2712212043419
 10
116.4611083693222
 20
-165.2691541470508
 10
116.4993489292085
 20
-165.2629529751773
 10
116.5417236036771
 20
-165.2564072937554
 10
116.5437906609682
 20
-165.2543402364642
 10
116.6051133606057
 20
-165.2140326192868
 10
116.6051133606057
 20
-165.2140326192868
 10
116.7935600836488
 20
-165.3687174065745
 10
116.7935600836488
 20
-165.3687174065745
 10
116.7639322624757
 20
-165.3983452277477
 10
116.7491183518891
 20
-165.4300401062119
 10
116.7318928744629
 20
-165.4892957485582
 97
        0
 97
        0
 92
        1
 93
        1
 72
     4
 94
        3
 73
     0
 74
     1
 95
       17
 96
       13
 40
0.0
 40
0.0
 40
0.0
 40
0.0
 40
1.0
 40
1.0
 40
1.0
 40
2.0
 40
2.0
 40
2.0
 40
3.0
 40
3.0
 40
3.0
 40
4.0
 40
4.0
 40
4.0
 40
4.0
 10
116.9413546799661
 20
-165.2901692295108
 10
116.8145751661089
 20
-165.2901692295108
 10
116.712944849294
 20
-165.1888834222445
 10
116.712944849294
 20
-165.0617593988387
 10
116.712944849294
 20
-164.9349798849815
 10
116.8145751661089
 20
-164.8312825108755
 10
116.9413546799661
 20
-164.8312825108755
 10
117.0684787033718
 20
-164.8312825108755
 10
117.1721760774778
 20
-164.9349798849815
 10
117.1721760774778
 20
-165.0617593988387
 10
117.1721760774778
 20
-165.1888834222445
 10
117.0684787033718
 20
-165.2901692295108
 10
116.9413546799661
 20
-165.2901692295108
 97
        0
 97
        0
 92
        1
 93
        1
 72
     4
 94
        3
 73
     0
 74
     1
 95
       17
 96
       13
 40
0.0
 40
0.0
 40
0.0
 40
0.0
 40
1.0
 40
1.0
 40
1.0
 40
2.0
 40
2.0
 40
2.0
 40
3.0
 40
3.0
 40
3.0
 40
4.0
 40
4.0
 40
4.0
 40
4.0
 10
116.9392876226749
 20
-164.9601290820239
 10
116.8845106044594
 20
-164.9601290820239
 10
116.8400688726997
 20
-165.0045708137836
 10
116.8400688726997
 20
-165.0596923415476
 10
116.8400688726997
 20
-165.1168809266027
 10
116.8845106044594
 20
-165.1654567729448
 10
116.9434217372572
 20
-165.1654567729448
 10
117.0026773796035
 20
-165.1654567729448
 10
117.0429849967809
 20
-165.1148138693116
 10
117.0429849967809
 20
-165.0617593988387
 10
117.0429849967809
 20
-165.0045708137836
 10
116.9964762077301
 20
-164.9601290820239
 10
116.9392876226749
 20
-164.9601290820239
 97
        0
 97
        0
 75
     2
 76
     1
 98
        0
  0
SPLINE
  5
C5
330
90
100
AcDbEntity
  8
_U+30EC_U+30A4_U+30E4_U+30FC 1
370
     0
100
AcDbSpline
210
0.0
220
0.0
230
1.0
 70
    11
 71
     3
 72
    50
 73
    46
 74
     0
 42
0.0000000001
 43
0.0000000001
 12
1.0
 22
0.0
 32
0.0
 13
1.0
 23
0.0
 33
0.0
 40
0.0
 40
0.0
 40
0.0
 40
0.0
 40
1.0
 40
1.0
 40
1.0
 40
2.0
 40
2.0
 40
2.0
 40
3.0
 40
3.0
 40
3.0
 40
4.0
 40
4.0
 40
4.0
 40
5.0
 40
5.0
 40
5.0
 40
6.0
 40
6.0
 40
6.0
 40
7.0
 40
7.0
 40
7.0
 40
8.0
 40
8.0
 40
8.0
 40
9.0
 40
9.0
 40
9.0
 40
10.0
 40
10.0
 40
10.0
 40
11.0
 40
11.0
 40
11.0
 40
12.0
 40
12.0
 40
12.0
 40
13.0
 40
13.0
 40
13.0
 40
14.0
 40
14.0
 40
14.0
 40
15.0
 40
15.0
 40
15.0
 40
15.0
 10
118.7365939373297
 20
-165.7979763040366
 30
0.0
 10
118.658045760266
 20
-165.9757432310755
 30
0.0
 10
118.5226535076957
 20
-166.1831379792876
 30
0.0
 10
118.3851941978343
 20
-166.3226643464402
 30
0.0
 10
118.2160400095085
 20
-166.4938855920571
 30
0.0
 10
118.0530869930562
 20
-166.5827690555765
 30
0.0
 10
117.7337266415735
 20
-166.7247069895688
 30
0.0
 10
117.7337266415735
 20
-166.7247069895688
 30
0.0
 10
117.5645724532477
 20
-166.5362602665257
 30
0.0
 10
117.5645724532477
 20
-166.5362602665257
 30
0.0
 10
117.7506076094512
 20
-166.5131781267745
 30
0.0
 10
117.9218288550682
 20
-166.4263617205462
 30
0.0
 10
118.0744465850647
 20
-166.320597289149
 30
0.0
 10
118.3366183514922
 20
-166.1386962475278
 30
0.0
 10
118.5271321318266
 20
-165.8255370679186
 30
0.0
 10
118.5757079781686
 20
-165.6436360262974
 30
0.0
 10
118.5757079781686
 20
-165.6436360262974
 30
0.0
 10
117.9049478871904
 20
-165.6436360262974
 30
0.0
 10
117.9049478871904
 20
-165.6436360262974
 30
0.0
 10
117.7464734948689
 20
-165.6436360262974
 30
0.0
 10
117.4543293977198
 20
-165.651904255462
 30
0.0
 10
117.3020561772717
 20
-165.6691297328883
 30
0.0
 10
117.3020561772717
 20
-165.6691297328883
 30
0.0
 10
117.3020561772717
 20
-165.4403753926677
 30
0.0
 10
117.3020561772717
 20
-165.4403753926677
 30
0.0
 10
117.3361626225757
 20
-165.4469210740897
 30
0.0
 10
117.361311819618
 20
-165.4531222459631
 30
0.0
 10
117.4143662900909
 20
-165.4572563605454
 30
0.0
 10
117.5156520973572
 20
-165.4638020419674
 30
0.0
 10
117.7127115591135
 20
-165.4658690992585
 30
0.0
 10
117.7971163985021
 20
-165.4658690992585
 30
0.0
 10
117.7971163985021
 20
-165.4658690992585
 30
0.0
 10
118.3028564157368
 20
-165.4658690992585
 30
0.0
 10
118.3028564157368
 20
-165.4658690992585
 30
0.0
 10
118.3703802872477
 20
-165.4658690992585
 30
0.0
 10
118.5164523358223
 20
-165.4617349846762
 30
0.0
 10
118.5777750354597
 20
-165.4551893032543
 30
0.0
 10
118.6497775311014
 20
-165.4469210740897
 30
0.0
 10
118.6773382949834
 20
-165.4321071635031
 30
0.0
 10
118.7111002307389
 20
-165.4086805142034
 30
0.0
 10
118.7111002307389
 20
-165.4086805142034
 30
0.0
 10
118.8761203044824
 20
-165.575767645238
 30
0.0
 10
118.8761203044824
 20
-165.575767645238
 30
0.0
 10
118.8061848661318
 20
-165.6436360262974
 30
0.0
 10
118.7596760770809
 20
-165.7473334004034
 30
0.0
 10
118.7365939373297
 20
-165.7979763040366
 30
0.0
  0
SPLINE
  5
C6
330
90
100
AcDbEntity
  8
_U+30EC_U+30A4_U+30E4_U+30FC 1
370
     0
100
AcDbSpline
210
0.0
220
0.0
230
1.0
 70
    11
 71
     3
 72
    29
 73
    25
 74
     0
 42
0.0000000001
 43
0.0000000001
 12
1.0
 22
0.0
 32
0.0
 13
1.0
 23
0.0
 33
0.0
 40
0.0
 40
0.0
 40
0.0
 40
0.0
 40
1.0
 40
1.0
 40
1.0
 40
2.0
 40
2.0
 40
2.0
 40
3.0
 40
3.0
 40
3.0
 40
4.0
 40
4.0
 40
4.0
 40
5.0
 40
5.0
 40
5.0
 40
6.0
 40
6.0
 40
6.0
 40
7.0
 40
7.0
 40
7.0
 40
8.0
 40
8.0
 40
8.0
 40
8.0
 10
118.2436007733905
 20
-165.1720024543667
 30
0.0
 10
118.2436007733905
 20
-165.1720024543667
 30
0.0
 10
117.9028808298993
 20
-165.1720024543667
 30
0.0
 10
117.9028808298993
 20
-165.1720024543667
 30
0.0
 10
117.7888481693375
 20
-165.1720024543667
 30
0.0
 10
117.6724039419361
 20
-165.176136568949
 30
0.0
 10
117.5580267718258
 20
-165.1909504795356
 30
0.0
 10
117.5580267718258
 20
-165.1909504795356
 30
0.0
 10
117.5580267718258
 20
-164.9814886740324
 30
0.0
 10
117.5580267718258
 20
-164.9814886740324
 30
0.0
 10
117.6765380565184
 20
-164.996302584619
 30
0.0
 10
117.850170868975
 20
-165.0004366992013
 30
0.0
 10
117.9028808298993
 20
-165.0004366992013
 30
0.0
 10
117.9028808298993
 20
-165.0004366992013
 30
0.0
 10
118.2436007733905
 20
-165.0004366992013
 30
0.0
 10
118.2436007733905
 20
-165.0004366992013
 30
0.0
 10
118.3600450007919
 20
-165.0004366992013
 30
0.0
 10
118.4761447186449
 20
-164.996302584619
 30
0.0
 10
118.5925889460463
 20
-164.9814886740324
 30
0.0
 10
118.5925889460463
 20
-164.9814886740324
 30
0.0
 10
118.5925889460463
 20
-165.1909504795356
 30
0.0
 10
118.5925889460463
 20
-165.1909504795356
 30
0.0
 10
118.4423827828894
 20
-165.1720024543667
 30
0.0
 10
118.2584146839771
 20
-165.1720024543667
 30
0.0
 10
118.2436007733905
 20
-165.1720024543667
 30
0.0
  0
HATCH
  5
C7
330
90
100
AcDbEntity
  8
_U+30EC_U+30A4_U+30E4_U+30FC 1
 62
   179
420
  2234388
100
AcDbHatch
 10
0.0
 20
0.0
 30
0.0
210
0.0
220
0.0
230
1.0
  2
SOLID
 70
     1
 71
     0
 91
        2
 92
        1
 93
        1
 72
     4
 94
        3
 73
     0
 74
     1
 95
       50
 96
       46
 40
0.0
 40
0.0
 40
0.0
 40
0.0
 40
1.0
 40
1.0
 40
1.0
 40
2.0
 40
2.0
 40
2.0
 40
3.0
 40
3.0
 40
3.0
 40
4.0
 40
4.0
 40
4.0
 40
5.0
 40
5.0
 40
5.0
 40
6.0
 40
6.0
 40
6.0
 40
7.0
 40
7.0
 40
7.0
 40
8.0
 40
8.0
 40
8.0
 40
9.0
 40
9.0
 40
9.0
 40
10.0
 40
10.0
 40
10.0
 40
11.0
 40
11.0
 40
11.0
 40
12.0
 40
12.0
 40
12.0
 40
13.0
 40
13.0
 40
13.0
 40
14.0
 40
14.0
 40
14.0
 40
15.0
 40
15.0
 40
15.0
 40
15.0
 10
118.7365939373297
 20
-165.7979763040366
 10
118.658045760266
 20
-165.9757432310755
 10
118.5226535076957
 20
-166.1831379792876
 10
118.3851941978343
 20
-166.3226643464402
 10
118.2160400095085
 20
-166.4938855920571
 10
118.0530869930562
 20
-166.5827690555765
 10
117.7337266415735
 20
-166.7247069895688
 10
117.7337266415735
 20
-166.7247069895688
 10
117.5645724532477
 20
-166.5362602665257
 10
117.5645724532477
 20
-166.5362602665257
 10
117.7506076094512
 20
-166.5131781267745
 10
117.9218288550682
 20
-166.4263617205462
 10
118.0744465850647
 20
-166.320597289149
 10
118.3366183514922
 20
-166.1386962475278
 10
118.5271321318266
 20
-165.8255370679186
 10
118.5757079781686
 20
-165.6436360262974
 10
118.5757079781686
 20
-165.6436360262974
 10
117.9049478871904
 20
-165.6436360262974
 10
117.9049478871904
 20
-165.6436360262974
 10
117.7464734948689
 20
-165.6436360262974
 10
117.4543293977198
 20
-165.651904255462
 10
117.3020561772717
 20
-165.6691297328883
 10
117.3020561772717
 20
-165.6691297328883
 10
117.3020561772717
 20
-165.4403753926677
 10
117.3020561772717
 20
-165.4403753926677
 10
117.3361626225757
 20
-165.4469210740897
 10
117.361311819618
 20
-165.4531222459631
 10
117.4143662900909
 20
-165.4572563605454
 10
117.5156520973572
 20
-165.4638020419674
 10
117.7127115591135
 20
-165.4658690992585
 10
117.7971163985021
 20
-165.4658690992585
 10
117.7971163985021
 20
-165.4658690992585
 10
118.3028564157368
 20
-165.4658690992585
 10
118.3028564157368
 20
-165.4658690992585
 10
118.3703802872477
 20
-165.4658690992585
 10
118.5164523358223
 20
-165.4617349846762
 10
118.5777750354597
 20
-165.4551893032543
 10
118.6497775311014
 20
-165.4469210740897
 10
118.6773382949834
 20
-165.4321071635031
 10
118.7111002307389
 20
-165.4086805142034
 10
118.7111002307389
 20
-165.4086805142034
 10
118.8761203044824
 20
-165.575767645238
 10
118.8761203044824
 20
-165.575767645238
 10
118.8061848661318
 20
-165.6436360262974
 10
118.7596760770809
 20
-165.7473334004034
 10
118.7365939373297
 20
-165.7979763040366
 97
        0
 97
        0
 92
        1
 93
        1
 72
     4
 94
        3
 73
     0
 74
     1
 95
       29
 96
       25
 40
0.0
 40
0.0
 40
0.0
 40
0.0
 40
1.0
 40
1.0
 40
1.0
 40
2.0
 40
2.0
 40
2.0
 40
3.0
 40
3.0
 40
3.0
 40
4.0
 40
4.0
 40
4.0
 40
5.0
 40
5.0
 40
5.0
 40
6.0
 40
6.0
 40
6.0
 40
7.0
 40
7.0
 40
7.0
 40
8.0
 40
8.0
 40
8.0
 40
8.0
 10
118.2436007733905
 20
-165.1720024543667
 10
118.2436007733905
 20
-165.1720024543667
 10
117.9028808298993
 20
-165.1720024543667
 10
117.9028808298993
 20
-165.1720024543667
 10
117.7888481693375
 20
-165.1720024543667
 10
117.6724039419361
 20
-165.176136568949
 10
117.5580267718258
 20
-165.1909504795356
 10
117.5580267718258
 20
-165.1909504795356
 10
117.5580267718258
 20
-164.9814886740324
 10
117.5580267718258
 20
-164.9814886740324
 10
117.6765380565184
 20
-164.996302584619
 10
117.850170868975
 20
-165.0004366992013
 10
117.9028808298993
 20
-165.0004366992013
 10
117.9028808298993
 20
-165.0004366992013
 10
118.2436007733905
 20
-165.0004366992013
 10
118.2436007733905
 20
-165.0004366992013
 10
118.3600450007919
 20
-165.0004366992013
 10
118.4761447186449
 20
-164.996302584619
 10
118.5925889460463
 20
-164.9814886740324
 10
118.5925889460463
 20
-164.9814886740324
 10
118.5925889460463
 20
-165.1909504795356
 10
118.5925889460463
 20
-165.1909504795356
 10
118.4423827828894
 20
-165.1720024543667
 10
118.2584146839771
 20
-165.1720024543667
 10
118.2436007733905
 20
-165.1720024543667
 97
        0
 97
        0
 75
     2
 76
     1
 98
        0
  0
SPLINE
  5
C8
330
90
100
AcDbEntity
  8
_U+30EC_U+30A4_U+30E4_U+30FC 1
370
     0
100
AcDbSpline
210
0.0
220
0.0
230
1.0
 70
    11
 71
     3
 72
    50
 73
    46
 74
     0
 42
0.0000000001
 43
0.0000000001
 12
1.0
 22
0.0
 32
0.0
 13
1.0
 23
0.0
 33
0.0
 40
0.0
 40
0.0
 40
0.0
 40
0.0
 40
1.0
 40
1.0
 40
1.0
 40
2.0
 40
2.0
 40
2.0
 40
3.0
 40
3.0
 40
3.0
 40
4.0
 40
4.0
 40
4.0
 40
5.0
 40
5.0
 40
5.0
 40
6.0
 40
6.0
 40
6.0
 40
7.0
 40
7.0
 40
7.0
 40
8.0
 40
8.0
 40
8.0
 40
9.0
 40
9.0
 40
9.0
 40
10.0
 40
10.0
 40
10.0
 40
11.0
 40
11.0
 40
11.0
 40
12.0
 40
12.0
 40
12.0
 40
13.0
 40
13.0
 40
13.0
 40
14.0
 40
14.0
 40
14.0
 40
15.0
 40
15.0
 40
15.0
 40
15.0
 10
120.4467393362078
 20
-165.1571885437802
 30
0.0
 10
120.2372775307046
 20
-165.3707844638656
 30
0.0
 10
120.1656195446114
 20
-165.4427869595074
 30
0.0
 10
120.0236816106191
 20
-165.5609537346514
 30
0.0
 10
120.0236816106191
 20
-165.5609537346514
 30
0.0
 10
120.0236816106191
 20
-166.1280164515236
 30
0.0
 10
120.0236816106191
 20
-166.1280164515236
 30
0.0
 10
120.0236816106191
 20
-166.2782226146805
 30
0.0
 10
120.0302272920411
 20
-166.2971706398493
 30
0.0
 10
120.0343614066234
 20
-166.4749375668882
 30
0.0
 10
120.0364284639145
 20
-166.6061957048762
 30
0.0
 10
120.042629635788
 20
-166.6547715512183
 30
0.0
 10
120.0491753172099
 20
-166.7140271935646
 30
0.0
 10
120.0491753172099
 20
-166.7140271935646
 30
0.0
 10
119.822832543829
 20
-166.7140271935646
 30
0.0
 10
119.822832543829
 20
-166.7140271935646
 30
0.0
 10
119.8269666584113
 20
-166.6695854618048
 30
0.0
 10
119.8311007729936
 20
-166.623076672754
 30
0.0
 10
119.8311007729936
 20
-166.6144639340408
 30
0.0
 10
119.8311007729936
 20
-166.5341932092345
 30
0.0
 10
119.8355793971244
 20
-166.1831379792876
 30
0.0
 10
119.8355793971244
 20
-166.1111354836458
 30
0.0
 10
119.8355793971244
 20
-166.1111354836458
 30
0.0
 10
119.8355793971244
 20
-165.7049587259349
 30
0.0
 10
119.8355793971244
 20
-165.7049587259349
 30
0.0
 10
119.6536783555032
 20
-165.8296711825009
 30
0.0
 10
119.4590304605866
 20
-165.9399142380289
 30
0.0
 10
119.2557698269569
 20
-166.0263861347087
 30
0.0
 10
119.2557698269569
 20
-166.0263861347087
 30
0.0
 10
119.0528537028757
 20
-165.8634331182564
 30
0.0
 10
119.0528537028757
 20
-165.8634331182564
 30
0.0
 10
119.1754991021506
 20
-165.8276041252098
 30
0.0
 10
119.4314696967046
 20
-165.7535345722769
 30
0.0
 10
119.7763237547781
 20
-165.4975639777228
 30
0.0
 10
119.9919867321548
 20
-165.3390895854014
 30
0.0
 10
120.1845675697803
 20
-165.1506428623582
 30
0.0
 10
120.3368407902283
 20
-164.9305012608507
 30
0.0
 10
120.3368407902283
 20
-164.9305012608507
 30
0.0
 10
120.5294216278538
 20
-165.0745062521342
 30
0.0
 10
120.5294216278538
 20
-165.0745062521342
 30
0.0
 10
120.5421684811492
 20
-165.0851860481384
 30
0.0
 10
120.5504367103138
 20
-165.099999958725
 30
0.0
 10
120.5504367103138
 20
-165.1127468120204
 30
0.0
 10
120.5504367103138
 20
-165.1527099196493
 30
0.0
 10
120.512540659976
 20
-165.1527099196493
 30
0.0
 10
120.4467393362078
 20
-165.1571885437802
 30
0.0
  0
HATCH
  5
C9
330
90
100
AcDbEntity
  8
_U+30EC_U+30A4_U+30E4_U+30FC 1
 62
   179
420
  2234388
100
AcDbHatch
 10
0.0
 20
0.0
 30
0.0
210
0.0
220
0.0
230
1.0
  2
SOLID
 70
     1
 71
     0
 91
        1
 92
        1
 93
        1
 72
     4
 94
        3
 73
     0
 74
     1
 95
       50
 96
       46
 40
0.0
 40
0.0
 40
0.0
 40
0.0
 40
1.0
 40
1.0
 40
1.0
 40
2.0
 40
2.0
 40
2.0
 40
3.0
 40
3.0
 40
3.0
 40
4.0
 40
4.0
 40
4.0
 40
5.0
 40
5.0
 40
5.0
 40
6.0
 40
6.0
 40
6.0
 40
7.0
 40
7.0
 40
7.0
 40
8.0
 40
8.0
 40
8.0
 40
9.0
 40
9.0
 40
9.0
 40
10.0
 40
10.0
 40
10.0
 40
11.0
 40
11.0
 40
11.0
 40
12.0
 40
12.0
 40
12.0
 40
13.0
 40
13.0
 40
13.0
 40
14.0
 40
14.0
 40
14.0
 40
15.0
 40
15.0
 40
15.0
 40
15.0
 10
120.4467393362078
 20
-165.1571885437802
 10
120.2372775307046
 20
-165.3707844638656
 10
120.1656195446114
 20
-165.4427869595074
 10
120.0236816106191
 20
-165.5609537346514
 10
120.0236816106191
 20
-165.5609537346514
 10
120.0236816106191
 20
-166.1280164515236
 10
120.0236816106191
 20
-166.1280164515236
 10
120.0236816106191
 20
-166.2782226146805
 10
120.0302272920411
 20
-166.2971706398493
 10
120.0343614066234
 20
-166.4749375668882
 10
120.0364284639145
 20
-166.6061957048762
 10
120.042629635788
 20
-166.6547715512183
 10
120.0491753172099
 20
-166.7140271935646
 10
120.0491753172099
 20
-166.7140271935646
 10
119.822832543829
 20
-166.7140271935646
 10
119.822832543829
 20
-166.7140271935646
 10
119.8269666584113
 20
-166.6695854618048
 10
119.8311007729936
 20
-166.623076672754
 10
119.8311007729936
 20
-166.6144639340408
 10
119.8311007729936
 20
-166.5341932092345
 10
119.8355793971244
 20
-166.1831379792876
 10
119.8355793971244
 20
-166.1111354836458
 10
119.8355793971244
 20
-166.1111354836458
 10
119.8355793971244
 20
-165.7049587259349
 10
119.8355793971244
 20
-165.7049587259349
 10
119.6536783555032
 20
-165.8296711825009
 10
119.4590304605866
 20
-165.9399142380289
 10
119.2557698269569
 20
-166.0263861347087
 10
119.2557698269569
 20
-166.0263861347087
 10
119.0528537028757
 20
-165.8634331182564
 10
119.0528537028757
 20
-165.8634331182564
 10
119.1754991021506
 20
-165.8276041252098
 10
119.4314696967046
 20
-165.7535345722769
 10
119.7763237547781
 20
-165.4975639777228
 10
119.9919867321548
 20
-165.3390895854014
 10
120.1845675697803
 20
-165.1506428623582
 10
120.3368407902283
 20
-164.9305012608507
 10
120.3368407902283
 20
-164.9305012608507
 10
120.5294216278538
 20
-165.0745062521342
 10
120.5294216278538
 20
-165.0745062521342
 10
120.5421684811492
 20
-165.0851860481384
 10
120.5504367103138
 20
-165.099999958725
 10
120.5504367103138
 20
-165.1127468120204
 10
120.5504367103138
 20
-165.1527099196493
 10
120.512540659976
 20
-165.1527099196493
 10
120.4467393362078
 20
-165.1571885437802
 97
        0
 97
        0
 75
     2
 76
     1
 98
        0
  0
SPLINE
  5
CA
330
90
100
AcDbEntity
  8
_U+30EC_U+30A4_U+30E4_U+30FC 1
370
     0
100
AcDbSpline
210
0.0
220
0.0
230
1.0
 70
    11
 71
     3
 72
    50
 73
    46
 74
     0
 42
0.0000000001
 43
0.0000000001
 12
1.0
 22
0.0
 32
0.0
 13
1.0
 23
0.0
 33
0.0
 40
0.0
 40
0.0
 40
0.0
 40
0.0
 40
1.0
 40
1.0
 40
1.0
 40
2.0
 40
2.0
 40
2.0
 40
3.0
 40
3.0
 40
3.0
 40
4.0
 40
4.0
 40
4.0
 40
5.0
 40
5.0
 40
5.0
 40
6.0
 40
6.0
 40
6.0
 40
7.0
 40
7.0
 40
7.0
 40
8.0
 40
8.0
 40
8.0
 40
9.0
 40
9.0
 40
9.0
 40
10.0
 40
10.0
 40
10.0
 40
11.0
 40
11.0
 40
11.0
 40
12.0
 40
12.0
 40
12.0
 40
13.0
 40
13.0
 40
13.0
 40
14.0
 40
14.0
 40
14.0
 40
15.0
 40
15.0
 40
15.0
 40
15.0
 10
122.1548176777946
 20
-165.6839436434749
 30
0.0
 10
122.0934949781572
 20
-165.755601629568
 30
0.0
 10
121.8330457594723
 20
-166.0728949237595
 30
0.0
 10
121.7762016839657
 20
-166.1366291902367
 30
0.0
 10
121.8606065233543
 20
-166.2337808829207
 30
0.0
 10
121.911593936536
 20
-166.2971706398493
 30
0.0
 10
121.9770507507557
 20
-166.3881211606599
 30
0.0
 10
121.9770507507557
 20
-166.3881211606599
 30
0.0
 10
121.7930826518434
 20
-166.5259249800699
 30
0.0
 10
121.7930826518434
 20
-166.5259249800699
 30
0.0
 10
121.6576903992731
 20
-166.314051607727
 30
0.0
 10
121.4861246441076
 20
-166.0901204011858
 30
0.0
 10
121.1922579992158
 20
-165.8909938821384
 30
0.0
 10
121.1922579992158
 20
-165.8909938821384
 30
0.0
 10
121.3403971050816
 20
-165.7366536043992
 30
0.0
 10
121.3403971050816
 20
-165.7366536043992
 30
0.0
 10
121.450295651061
 20
-165.8169243292055
 30
0.0
 10
121.5539930251671
 20
-165.9058077927249
 30
0.0
 10
121.6511447178511
 20
-166.0012369376664
 30
0.0
 10
121.7190130989105
 20
-165.9251003274424
 30
0.0
 10
121.9219292229917
 20
-165.6815320766352
 30
0.0
 10
122.0552544182709
 20
-165.4531222459631
 30
0.0
 10
122.0552544182709
 20
-165.4531222459631
 30
0.0
 10
121.3824272700016
 20
-165.4531222459631
 30
0.0
 10
121.3824272700016
 20
-165.4531222459631
 30
0.0
 10
121.2577148134356
 20
-165.4531222459631
 30
0.0
 10
121.0058783334638
 20
-165.4617349846762
 30
0.0
 10
120.7964165279606
 20
-165.472070271132
 30
0.0
 10
120.7964165279606
 20
-165.472070271132
 30
0.0
 10
120.7964165279606
 20
-165.252273179173
 30
0.0
 10
120.7964165279606
 20
-165.252273179173
 30
0.0
 10
120.9807291364215
 20
-165.2712212043419
 30
0.0
 10
121.1857123177939
 20
-165.2753553189242
 30
0.0
 10
121.374159040837
 20
-165.2753553189242
 30
0.0
 10
121.374159040837
 20
-165.2753553189242
 30
0.0
 10
121.877487491232
 20
-165.2753553189242
 30
0.0
 10
121.877487491232
 20
-165.2753553189242
 30
0.0
 10
122.2161403774321
 20
-165.2753553189242
 30
0.0
 10
122.2605821091918
 20
-165.2605414083376
 30
0.0
 10
122.3429198912893
 20
-165.2205783007088
 30
0.0
 10
122.3429198912893
 20
-165.2205783007088
 30
0.0
 10
122.5100070223239
 20
-165.3790526930302
 30
0.0
 10
122.5100070223239
 20
-165.3790526930302
 30
0.0
 10
122.3577338018759
 20
-165.451055188672
 30
0.0
 10
122.2140733201409
 20
-165.6140082051243
 30
0.0
 10
122.1548176777946
 20
-165.6839436434749
 30
0.0
  0
HATCH
  5
CB
330
90
100
AcDbEntity
  8
_U+30EC_U+30A4_U+30E4_U+30FC 1
 62
   179
420
  2234388
100
AcDbHatch
 10
0.0
 20
0.0
 30
0.0
210
0.0
220
0.0
230
1.0
  2
SOLID
 70
     1
 71
     0
 91
        1
 92
        1
 93
        1
 72
     4
 94
        3
 73
     0
 74
     1
 95
       50
 96
       46
 40
0.0
 40
0.0
 40
0.0
 40
0.0
 40
1.0
 40
1.0
 40
1.0
 40
2.0
 40
2.0
 40
2.0
 40
3.0
 40
3.0
 40
3.0
 40
4.0
 40
4.0
 40
4.0
 40
5.0
 40
5.0
 40
5.0
 40
6.0
 40
6.0
 40
6.0
 40
7.0
 40
7.0
 40
7.0
 40
8.0
 40
8.0
 40
8.0
 40
9.0
 40
9.0
 40
9.0
 40
10.0
 40
10.0
 40
10.0
 40
11.0
 40
11.0
 40
11.0
 40
12.0
 40
12.0
 40
12.0
 40
13.0
 40
13.0
 40
13.0
 40
14.0
 40
14.0
 40
14.0
 40
15.0
 40
15.0
 40
15.0
 40
15.0
 10
122.1548176777946
 20
-165.6839436434749
 10
122.0934949781572
 20
-165.755601629568
 10
121.8330457594723
 20
-166.0728949237595
 10
121.7762016839657
 20
-166.1366291902367
 10
121.8606065233543
 20
-166.2337808829207
 10
121.911593936536
 20
-166.2971706398493
 10
121.9770507507557
 20
-166.3881211606599
 10
121.9770507507557
 20
-166.3881211606599
 10
121.7930826518434
 20
-166.5259249800699
 10
121.7930826518434
 20
-166.5259249800699
 10
121.6576903992731
 20
-166.314051607727
 10
121.4861246441076
 20
-166.0901204011858
 10
121.1922579992158
 20
-165.8909938821384
 10
121.1922579992158
 20
-165.8909938821384
 10
121.3403971050816
 20
-165.7366536043992
 10
121.3403971050816
 20
-165.7366536043992
 10
121.450295651061
 20
-165.8169243292055
 10
121.5539930251671
 20
-165.9058077927249
 10
121.6511447178511
 20
-166.0012369376664
 10
121.7190130989105
 20
-165.9251003274424
 10
121.9219292229917
 20
-165.6815320766352
 10
122.0552544182709
 20
-165.4531222459631
 10
122.0552544182709
 20
-165.4531222459631
 10
121.3824272700016
 20
-165.4531222459631
 10
121.3824272700016
 20
-165.4531222459631
 10
121.2577148134356
 20
-165.4531222459631
 10
121.0058783334638
 20
-165.4617349846762
 10
120.7964165279606
 20
-165.472070271132
 10
120.7964165279606
 20
-165.472070271132
 10
120.7964165279606
 20
-165.252273179173
 10
120.7964165279606
 20
-165.252273179173
 10
120.9807291364215
 20
-165.2712212043419
 10
121.1857123177939
 20
-165.2753553189242
 10
121.374159040837
 20
-165.2753553189242
 10
121.374159040837
 20
-165.2753553189242
 10
121.877487491232
 20
-165.2753553189242
 10
121.877487491232
 20
-165.2753553189242
 10
122.2161403774321
 20
-165.2753553189242
 10
122.2605821091918
 20
-165.2605414083376
 10
122.3429198912893
 20
-165.2205783007088
 10
122.3429198912893
 20
-165.2205783007088
 10
122.5100070223239
 20
-165.3790526930302
 10
122.5100070223239
 20
-165.3790526930302
 10
122.3577338018759
 20
-165.451055188672
 10
122.2140733201409
 20
-165.6140082051243
 10
122.1548176777946
 20
-165.6839436434749
 97
        0
 97
        0
 75
     2
 76
     1
 98
        0
  0
SPLINE
  5
CC
330
90
100
AcDbEntity
  8
_U+30EC_U+30A4_U+30E4_U+30FC 1
370
     0
100
AcDbSpline
210
0.0
220
0.0
230
1.0
 70
    11
 71
     3
 72
    29
 73
    25
 74
     0
 42
0.0000000001
 43
0.0000000001
 12
1.0
 22
0.0
 32
0.0
 13
1.0
 23
0.0
 33
0.0
 40
0.0
 40
0.0
 40
0.0
 40
0.0
 40
1.0
 40
1.0
 40
1.0
 40
2.0
 40
2.0
 40
2.0
 40
3.0
 40
3.0
 40
3.0
 40
4.0
 40
4.0
 40
4.0
 40
5.0
 40
5.0
 40
5.0
 40
6.0
 40
6.0
 40
6.0
 40
7.0
 40
7.0
 40
7.0
 40
8.0
 40
8.0
 40
8.0
 40
8.0
 10
123.780558237284
 20
-165.9271673847335
 30
0.0
 10
123.780558237284
 20
-165.9271673847335
 30
0.0
 10
123.2961778120579
 20
-165.9271673847335
 30
0.0
 10
123.2961778120579
 20
-165.9271673847335
 30
0.0
 10
123.2686170481759
 20
-165.9271673847335
 30
0.0
 10
122.9513237539844
 20
-165.9271673847335
 30
0.0
 10
122.7397948911901
 20
-165.9523165817758
 30
0.0
 10
122.7397948911901
 20
-165.9523165817758
 30
0.0
 10
122.7397948911901
 20
-165.7218396938126
 30
0.0
 10
122.7397948911901
 20
-165.7218396938126
 30
0.0
 10
122.8982692835116
 20
-165.7452663431123
 30
0.0
 10
123.0887830638459
 20
-165.7473334004034
 30
0.0
 10
123.2961778120579
 20
-165.7473334004034
 30
0.0
 10
123.2961778120579
 20
-165.7473334004034
 30
0.0
 10
123.780558237284
 20
-165.7473334004034
 30
0.0
 10
123.780558237284
 20
-165.7473334004034
 30
0.0
 10
123.9665933934875
 20
-165.7473334004034
 30
0.0
 10
124.1529730592395
 20
-165.7452663431123
 30
0.0
 10
124.3369411581519
 20
-165.7218396938126
 30
0.0
 10
124.3369411581519
 20
-165.7218396938126
 30
0.0
 10
124.3369411581519
 20
-165.9523165817758
 30
0.0
 10
124.3369411581519
 20
-165.9523165817758
 30
0.0
 10
124.1529730592395
 20
-165.9292344420246
 30
0.0
 10
123.9052706938501
 20
-165.9271673847335
 30
0.0
 10
123.780558237284
 20
-165.9271673847335
 30
0.0
  0
HATCH
  5
CD
330
90
100
AcDbEntity
  8
_U+30EC_U+30A4_U+30E4_U+30FC 1
 62
   179
420
  2234388
100
AcDbHatch
 10
0.0
 20
0.0
 30
0.0
210
0.0
220
0.0
230
1.0
  2
SOLID
 70
     1
 71
     0
 91
        1
 92
        1
 93
        1
 72
     4
 94
        3
 73
     0
 74
     1
 95
       29
 96
       25
 40
0.0
 40
0.0
 40
0.0
 40
0.0
 40
1.0
 40
1.0
 40
1.0
 40
2.0
 40
2.0
 40
2.0
 40
3.0
 40
3.0
 40
3.0
 40
4.0
 40
4.0
 40
4.0
 40
5.0
 40
5.0
 40
5.0
 40
6.0
 40
6.0
 40
6.0
 40
7.0
 40
7.0
 40
7.0
 40
8.0
 40
8.0
 40
8.0
 40
8.0
 10
123.780558237284
 20
-165.9271673847335
 10
123.780558237284
 20
-165.9271673847335
 10
123.2961778120579
 20
-165.9271673847335
 10
123.2961778120579
 20
-165.9271673847335
 10
123.2686170481759
 20
-165.9271673847335
 10
122.9513237539844
 20
-165.9271673847335
 10
122.7397948911901
 20
-165.9523165817758
 10
122.7397948911901
 20
-165.9523165817758
 10
122.7397948911901
 20
-165.7218396938126
 10
122.7397948911901
 20
-165.7218396938126
 10
122.8982692835116
 20
-165.7452663431123
 10
123.0887830638459
 20
-165.7473334004034
 10
123.2961778120579
 20
-165.7473334004034
 10
123.2961778120579
 20
-165.7473334004034
 10
123.780558237284
 20
-165.7473334004034
 10
123.780558237284
 20
-165.7473334004034
 10
123.9665933934875
 20
-165.7473334004034
 10
124.1529730592395
 20
-165.7452663431123
 10
124.3369411581519
 20
-165.7218396938126
 10
124.3369411581519
 20
-165.7218396938126
 10
124.3369411581519
 20
-165.9523165817758
 10
124.3369411581519
 20
-165.9523165817758
 10
124.1529730592395
 20
-165.9292344420246
 10
123.9052706938501
 20
-165.9271673847335
 10
123.780558237284
 20
-165.9271673847335
 97
        0
 97
        0
 75
     2
 76
     1
 98
        0
  0
ENDBLK
  5
93
330
90
100
AcDbEntity
  8
0
100
AcDbBlockEnd
  0
ENDSEC
  0
SECTION
  2
ENTITIES
  0
POLYLINE
  5
41
330
1F
100
AcDbEntity
  8
_U+30EC_U+30A4_U+30E4_U+30FC 1
 62
   179
420
  2234388
370
    25
100
AcDb2dPolyline
 66
     1
 10
0.0
 20
0.0
 30
0.0
  0
VERTEX
  5
42
330
41
100
AcDbEntity
  8
_U+30EC_U+30A4_U+30E4_U+30FC 1
 62
   179
420
  2234388
370
    25
100
AcDbVertex
100
AcDb2dVertex
 10
91.66366634196582
 20
-170.4766958870141
 30
0.0
  0
VERTEX
  5
43
330
41
100
AcDbEntity
  8
_U+30EC_U+30A4_U+30E4_U+30FC 1
 62
   179
420
  2234388
370
    25
100
AcDbVertex
100
AcDb2dVertex
 10
125.2050621567413
 20
-170.4766958870141
 30
0.0
  0
SEQEND
  5
44
330
41
100
AcDbEntity
  8
_U+30EC_U+30A4_U+30E4_U+30FC 1
 62
   179
420
  2234388
370
    25
  0
POLYLINE
  5
45
330
1F
100
AcDbEntity
  8
_U+30EC_U+30A4_U+30E4_U+30FC 1
 62
   179
420
  2234388
370
    25
100
AcDb2dPolyline
 66
     1
 10
0.0
 20
0.0
 30
0.0
  0
VERTEX
  5
46
330
45
100
AcDbEntity
  8
_U+30EC_U+30A4_U+30E4_U+30FC 1
 62
   179
420
  2234388
370
    25
100
AcDbVertex
100
AcDb2dVertex
 10
92.30473401623046
 20
-136.4767040335349
 30
0.0
  0
VERTEX
  5
47
330
45
100
AcDbEntity
  8
_U+30EC_U+30A4_U+30E4_U+30FC 1
 62
   179
420
  2234388
370
    25
100
AcDbVertex
100
AcDb2dVertex
 10
92.70512947308023
 20
-136.4767040335349
 30
0.0
  0
SEQEND
  5
48
330
45
100
AcDbEntity
  8
_U+30EC_U+30A4_U+30E4_U+30FC 1
 62
   179
420
  2234388
370
    25
  0
POLYLINE
  5
49
330
1F
100
AcDbEntity
  8
_U+30EC_U+30A4_U+30E4_U+30FC 1
 62
   179
420
  2234388
370
    25
100
AcDb2dPolyline
 66
     1
 10
0.0
 20
0.0
 30
0.0
  0
VERTEX
  5
4A
330
49
100
AcDbEntity
  8
_U+30EC_U+30A4_U+30E4_U+30FC 1
 62
   179
420
  2234388
370
    25
100
AcDbVertex
100
AcDb2dVertex
 10
91.66366634196582
 20
-170.4766958870141
 30
0.0
  0
VERTEX
  5
4B
330
49
100
AcDbEntity
  8
_U+30EC_U+30A4_U+30E4_U+30FC 1
 62
   179
420
  2234388
370
    25
100
AcDbVertex
100
AcDb2dVertex
 10
92.70506487754021
 20
-136.4766825016881
 30
0.0
  0
SEQEND
  5
4C
330
49
100
AcDbEntity
  8
_U+30EC_U+30A4_U+30E4_U+30FC 1
 62
   179
420
  2234388
370
    25
  0
POLYLINE
  5
4D
330
1F
100
AcDbEntity
  8
_U+30EC_U+30A4_U+30E4_U+30FC 1
 62
   179
420
  2234388
370
    25
100
AcDb2dPolyline
 66
     1
 10
0.0
 20
0.0
 30
0.0
  0
VERTEX
  5
4E
330
4D
100
AcDbEntity
  8
_U+30EC_U+30A4_U+30E4_U+30FC 1
 62
   179
420
  2234388
370
    25
100
AcDbVertex
100
AcDb2dVertex
 10
92.30473401623046
 20
-136.4767040335349
 30
0.0
  0
VERTEX
  5
4F
330
4D
100
AcDbEntity
  8
_U+30EC_U+30A4_U+30E4_U+30FC 1
 62
   179
420
  2234388
370
    25
100
AcDbVertex
100
AcDb2dVertex
 10
90.20640171762852
 20
-170.6277094944253
 30
0.0
  0
SEQEND
  5
50
330
4D
100
AcDbEntity
  8
_U+30EC_U+30A4_U+30E4_U+30FC 1
 62
   179
420
  2234388
370
    25
  0
POLYLINE
  5
51
330
1F
100
AcDbEntity
  8
_U+30EC_U+30A4_U+30E4_U+30FC 1
 62
   179
420
  2234388
370
    25
100
AcDb2dPolyline
 66
     1
 10
0.0
 20
0.0
 30
0.0
  0
VERTEX
  5
52
330
51
100
AcDbEntity
  8
_U+30EC_U+30A4_U+30E4_U+30FC 1
 62
   179
420
  2234388
370
    25
100
AcDbVertex
100
AcDb2dVertex
 10
125.2050621567413
 20
-170.4766958870141
 30
0.0
  0
VERTEX
  5
53
330
51
100
AcDbEntity
  8
_U+30EC_U+30A4_U+30E4_U+30FC 1
 62
   179
420
  2234388
370
    25
100
AcDbVertex
100
AcDb2dVertex
 10
125.2050621567413
 20
-170.8767468343153
 30
0.0
  0
SEQEND
  5
54
330
51
100
AcDbEntity
  8
_U+30EC_U+30A4_U+30E4_U+30FC 1
 62
   179
420
  2234388
370
    25
  0
POLYLINE
  5
55
330
1F
100
AcDbEntity
  8
_U+30EC_U+30A4_U+30E4_U+30FC 1
 62
   179
420
  2234388
370
    25
100
AcDb2dPolyline
 66
     1
 10
0.0
 20
0.0
 30
0.0
  0
VERTEX
  5
56
330
55
100
AcDbEntity
  8
_U+30EC_U+30A4_U+30E4_U+30FC 1
 62
   179
420
  2234388
370
    25
100
AcDbVertex
100
AcDb2dVertex
 10
125.2050621567413
 20
-170.8767037706218
 30
0.0
  0
VERTEX
  5
57
330
55
100
AcDbEntity
  8
_U+30EC_U+30A4_U+30E4_U+30FC 1
 62
   179
420
  2234388
370
    25
100
AcDbVertex
100
AcDb2dVertex
 10
91.01877676489754
 20
-171.4764302990634
 30
0.0
  0
SEQEND
  5
58
330
55
100
AcDbEntity
  8
_U+30EC_U+30A4_U+30E4_U+30FC 1
 62
   179
420
  2234388
370
    25
  0
SPLINE
  5
59
330
1F
100
AcDbEntity
  8
_U+30EC_U+30A4_U+30E4_U+30FC 1
 62
   179
420
  2234388
370
    25
100
AcDbSpline
210
0.0
220
0.0
230
1.0
 70
     8
 71
     3
 72
    11
 73
     7
 74
     0
 42
0.0000000001
 43
0.0000000001
 12
1.0
 22
0.0
 32
0.0
 13
1.0
 23
0.0
 33
0.0
 40
0.0
 40
0.0
 40
0.0
 40
0.0
 40
1.0
 40
1.0
 40
1.0
 40
2.0
 40
2.0
 40
2.0
 40
2.0
 10
90.20636941985835
 20
-170.627644898885
 30
0.0
 10
90.17919622921845
 20
-171.0686171209969
 30
0.0
 10
90.51469469986482
 20
-171.4482128138545
 30
0.0
 10
90.9556669219768
 20
-171.4750199630991
 30
0.0
 10
90.97683272736462
 20
-171.4764302990634
 30
0.0
 10
90.99764325727989
 20
-171.4767855745353
 30
0.0
 10
91.01880906266739
 20
-171.4764302990634
 30
0.0
  0
SPLINE
  5
5A
330
1F
100
AcDbEntity
  8
_U+30EC_U+30A4_U+30E4_U+30FC 1
 62
   179
420
  2234388
370
     9
100
AcDbSpline
210
0.0
220
0.0
230
1.0
 70
    11
 71
     3
 72
    17
 73
    13
 74
     0
 42
0.0000000001
 43
0.0000000001
 12
1.0
 22
0.0
 32
0.0
 13
1.0
 23
0.0
 33
0.0
 40
0.0
 40
0.0
 40
0.0
 40
0.0
 40
1.0
 40
1.0
 40
1.0
 40
2.0
 40
2.0
 40
2.0
 40
3.0
 40
3.0
 40
3.0
 40
4.0
 40
4.0
 40
4.0
 40
4.0
 10
86.30478801688952
 20
-171.4768501700757
 30
0.0
 10
86.30478801688952
 20
-171.4214702601503
 30
0.0
 10
86.25998024373482
 20
-171.3766624869953
 30
0.0
 10
86.2045895678857
 20
-171.3766624869953
 30
0.0
 10
86.14956493343256
 20
-171.3766624869953
 30
0.0
 10
86.1047571602772
 20
-171.4214702601503
 30
0.0
 10
86.1047571602772
 20
-171.4768501700757
 30
0.0
 10
86.1047571602772
 20
-171.5318855704525
 30
0.0
 10
86.14956493343256
 20
-171.5766933436076
 30
0.0
 10
86.2045895678857
 20
-171.5766933436076
 30
0.0
 10
86.25998024373482
 20
-171.5766933436076
 30
0.0
 10
86.30478801688952
 20
-171.5318855704525
 30
0.0
 10
86.30478801688952
 20
-171.4768501700757
 30
0.0
  0
SPLINE
  5
5B
330
1F
100
AcDbEntity
  8
_U+30EC_U+30A4_U+30E4_U+30FC 1
 62
   179
420
  2234388
370
     9
100
AcDbSpline
210
0.0
220
0.0
230
1.0
 70
    11
 71
     3
 72
    17
 73
    13
 74
     0
 42
0.0000000001
 43
0.0000000001
 12
1.0
 22
0.0
 32
0.0
 13
1.0
 23
0.0
 33
0.0
 40
0.0
 40
0.0
 40
0.0
 40
0.0
 40
1.0
 40
1.0
 40
1.0
 40
2.0
 40
2.0
 40
2.0
 40
3.0
 40
3.0
 40
3.0
 40
4.0
 40
4.0
 40
4.0
 40
4.0
 10
90.3048991507365
 20
-175.4765737306806
 30
0.0
 10
90.3048991507365
 20
-175.4215490962271
 30
0.0
 10
90.26009137758146
 20
-175.3767413230721
 30
0.0
 10
90.2050559772046
 20
-175.3767413230721
 30
0.0
 10
90.1496760672792
 20
-175.3767413230721
 30
0.0
 10
90.10486829412417
 20
-175.4215490962271
 30
0.0
 10
90.10486829412417
 20
-175.4765737306806
 30
0.0
 10
90.10486829412417
 20
-175.5319644065293
 30
0.0
 10
90.1496760672792
 20
-175.5767721796844
 30
0.0
 10
90.2050559772046
 20
-175.5767721796844
 30
0.0
 10
90.26009137758146
 20
-175.5767721796844
 30
0.0
 10
90.3048991507365
 20
-175.5319644065293
 30
0.0
 10
90.3048991507365
 20
-175.4765737306806
 30
0.0
  0
SPLINE
  5
5C
330
1F
100
AcDbEntity
  8
_U+30EC_U+30A4_U+30E4_U+30FC 1
 62
   179
420
  2234388
370
     9
100
AcDbSpline
210
0.0
220
0.0
230
1.0
 70
    11
 71
     3
 72
    17
 73
    13
 74
     0
 42
0.0000000001
 43
0.0000000001
 12
1.0
 22
0.0
 32
0.0
 13
1.0
 23
0.0
 33
0.0
 40
0.0
 40
0.0
 40
0.0
 40
0.0
 40
1.0
 40
1.0
 40
1.0
 40
2.0
 40
2.0
 40
2.0
 40
3.0
 40
3.0
 40
3.0
 40
4.0
 40
4.0
 40
4.0
 40
4.0
 10
86.30478801688952
 20
-136.4767040335349
 30
0.0
 10
86.30478801688952
 20
-136.4216901650051
 30
0.0
 10
86.25998024373482
 20
-136.3768823918498
 30
0.0
 10
86.2045895678857
 20
-136.3768823918498
 30
0.0
 10
86.14956493343256
 20
-136.3768823918498
 30
0.0
 10
86.1047571602772
 20
-136.4216901650051
 30
0.0
 10
86.1047571602772
 20
-136.4767040335349
 30
0.0
 10
86.1047571602772
 20
-136.5317394339118
 30
0.0
 10
86.14956493343256
 20
-136.5765472070671
 30
0.0
 10
86.2045895678857
 20
-136.5765472070671
 30
0.0
 10
86.25998024373482
 20
-136.5765472070671
 30
0.0
 10
86.30478801688952
 20
-136.5317394339118
 30
0.0
 10
86.30478801688952
 20
-136.4767040335349
 30
0.0
  0
SPLINE
  5
5D
330
1F
100
AcDbEntity
  8
_U+30EC_U+30A4_U+30E4_U+30FC 1
 62
   179
420
  2234388
370
     9
100
AcDbSpline
210
0.0
220
0.0
230
1.0
 70
    11
 71
     3
 72
    17
 73
    13
 74
     0
 42
0.0000000001
 43
0.0000000001
 12
1.0
 22
0.0
 32
0.0
 13
1.0
 23
0.0
 33
0.0
 40
0.0
 40
0.0
 40
0.0
 40
0.0
 40
1.0
 40
1.0
 40
1.0
 40
2.0
 40
2.0
 40
2.0
 40
3.0
 40
3.0
 40
3.0
 40
4.0
 40
4.0
 40
4.0
 40
4.0
 10
125.3050129895071
 20
-175.4765737306806
 30
0.0
 10
125.3050129895071
 20
-175.4215490962271
 30
0.0
 10
125.260205216352
 20
-175.3767413230721
 30
0.0
 10
125.2051698159752
 20
-175.3767413230721
 30
0.0
 10
125.1501344155983
 20
-175.3767413230721
 30
0.0
 10
125.1053266424433
 20
-175.4215490962271
 30
0.0
 10
125.1053266424433
 20
-175.4765737306806
 30
0.0
 10
125.1053266424433
 20
-175.5319644065293
 30
0.0
 10
125.1501344155983
 20
-175.5767721796844
 30
0.0
 10
125.2051698159752
 20
-175.5767721796844
 30
0.0
 10
125.260205216352
 20
-175.5767721796844
 30
0.0
 10
125.3050129895071
 20
-175.5319644065293
 30
0.0
 10
125.3050129895071
 20
-175.4765737306806
 30
0.0
  0
POLYLINE
  5
5E
330
1F
100
AcDbEntity
  8
_U+30EC_U+30A4_U+30E4_U+30FC 1
 62
   179
420
  2234388
370
     9
100
AcDb2dPolyline
 66
     1
 10
0.0
 20
0.0
 30
0.0
  0
VERTEX
  5
5F
330
5E
100
AcDbEntity
  8
_U+30EC_U+30A4_U+30E4_U+30FC 1
 62
   179
420
  2234388
370
     9
100
AcDbVertex
100
AcDb2dVertex
 10
86.20453573826875
 20
-136.4767040335349
 30
0.0
  0
VERTEX
  5
60
330
5E
100
AcDbEntity
  8
_U+30EC_U+30A4_U+30E4_U+30FC 1
 62
   179
420
  2234388
370
     9
100
AcDbVertex
100
AcDb2dVertex
 10
86.20453573826875
 20
-171.4768501700757
 30
0.0
  0
SEQEND
  5
61
330
5E
100
AcDbEntity
  8
_U+30EC_U+30A4_U+30E4_U+30FC 1
 62
   179
420
  2234388
370
     9
  0
POLYLINE
  5
62
330
1F
100
AcDbEntity
  8
_U+30EC_U+30A4_U+30E4_U+30FC 1
 62
   179
420
  2234388
370
     9
100
AcDb2dPolyline
 66
     1
 10
0.0
 20
0.0
 30
0.0
  0
VERTEX
  5
63
330
62
100
AcDbEntity
  8
_U+30EC_U+30A4_U+30E4_U+30FC 1
 62
   179
420
  2234388
370
     9
100
AcDbVertex
100
AcDb2dVertex
 10
89.7647297104961
 20
-136.4767040335349
 30
0.0
  0
VERTEX
  5
64
330
62
100
AcDbEntity
  8
_U+30EC_U+30A4_U+30E4_U+30FC 1
 62
   179
420
  2234388
370
     9
100
AcDbVertex
100
AcDb2dVertex
 10
85.20471519883229
 20
-136.4767040335349
 30
0.0
  0
SEQEND
  5
65
330
62
100
AcDbEntity
  8
_U+30EC_U+30A4_U+30E4_U+30FC 1
 62
   179
420
  2234388
370
     9
  0
POLYLINE
  5
66
330
1F
100
AcDbEntity
  8
_U+30EC_U+30A4_U+30E4_U+30FC 1
 62
   179
420
  2234388
370
     9
100
AcDb2dPolyline
 66
     1
 10
0.0
 20
0.0
 30
0.0
  0
VERTEX
  5
67
330
66
100
AcDbEntity
  8
_U+30EC_U+30A4_U+30E4_U+30FC 1
 62
   179
420
  2234388
370
     9
100
AcDbVertex
100
AcDb2dVertex
 10
88.46488441798795
 20
-171.4768501700757
 30
0.0
  0
VERTEX
  5
68
330
66
100
AcDbEntity
  8
_U+30EC_U+30A4_U+30E4_U+30FC 1
 62
   179
420
  2234388
370
     9
100
AcDbVertex
100
AcDb2dVertex
 10
85.20485515583637
 20
-171.4768501700757
 30
0.0
  0
SEQEND
  5
69
330
66
100
AcDbEntity
  8
_U+30EC_U+30A4_U+30E4_U+30FC 1
 62
   179
420
  2234388
370
     9
  0
INSERT
  5
6B
330
1F
100
AcDbEntity
  8
_U+30EC_U+30A4_U+30E4_U+30FC 1
100
AcDbBlockReference
  2
block 2
 10
0.0
 20
0.0
 30
0.0
  0
POLYLINE
  5
72
330
1F
100
AcDbEntity
  8
_U+30EC_U+30A4_U+30E4_U+30FC 1
 62
   179
420
  2234388
370
     9
100
AcDb2dPolyline
 66
     1
 10
0.0
 20
0.0
 30
0.0
  0
VERTEX
  5
73
330
72
100
AcDbEntity
  8
_U+30EC_U+30A4_U+30E4_U+30FC 1
 62
   179
420
  2234388
370
     9
100
AcDbVertex
100
AcDb2dVertex
 10
125.2050621567413
 20
-175.4765737306806
 30
0.0
  0
VERTEX
  5
74
330
72
100
AcDbEntity
  8
_U+30EC_U+30A4_U+30E4_U+30FC 1
 62
   179
420
  2234388
370
     9
100
AcDbVertex
100
AcDb2dVertex
 10
90.20491602020051
 20
-175.4765737306806
 30
0.0
  0
SEQEND
  5
75
330
72
100
AcDbEntity
  8
_U+30EC_U+30A4_U+30E4_U+30FC 1
 62
   179
420
  2234388
370
     9
  0
POLYLINE
  5
76
330
1F
100
AcDbEntity
  8
_U+30EC_U+30A4_U+30E4_U+30FC 1
 62
   179
420
  2234388
370
     9
100
AcDb2dPolyline
 66
     1
 10
0.0
 20
0.0
 30
0.0
  0
VERTEX
  5
77
330
76
100
AcDbEntity
  8
_U+30EC_U+30A4_U+30E4_U+30FC 1
 62
   179
420
  2234388
370
     9
100
AcDbVertex
100
AcDb2dVertex
 10
125.2050621567413
 20
-173.4167834378198
 30
0.0
  0
VERTEX
  5
78
330
76
100
AcDbEntity
  8
_U+30EC_U+30A4_U+30E4_U+30FC 1
 62
   179
420
  2234388
370
     9
100
AcDbVertex
100
AcDb2dVertex
 10
125.2050621567413
 20
-176.4767818433591
 30
0.0
  0
SEQEND
  5
79
330
76
100
AcDbEntity
  8
_U+30EC_U+30A4_U+30E4_U+30FC 1
 62
   179
420
  2234388
370
     9
  0
POLYLINE
  5
7A
330
1F
100
AcDbEntity
  8
_U+30EC_U+30A4_U+30E4_U+30FC 1
 62
   179
420
  2234388
370
     9
100
AcDb2dPolyline
 66
     1
 10
0.0
 20
0.0
 30
0.0
  0
VERTEX
  5
7B
330
7A
100
AcDbEntity
  8
_U+30EC_U+30A4_U+30E4_U+30FC 1
 62
   179
420
  2234388
370
     9
100
AcDbVertex
100
AcDb2dVertex
 10
90.20499138166426
 20
-173.2165803264333
 30
0.0
  0
VERTEX
  5
7C
330
7A
100
AcDbEntity
  8
_U+30EC_U+30A4_U+30E4_U+30FC 1
 62
   179
420
  2234388
370
     9
100
AcDbVertex
100
AcDb2dVertex
 10
90.20499138166426
 20
-176.4766095885848
 30
0.0
  0
SEQEND
  5
7D
330
7A
100
AcDbEntity
  8
_U+30EC_U+30A4_U+30E4_U+30FC 1
 62
   179
420
  2234388
370
     9
  0
INSERT
  5
7F
330
1F
100
AcDbEntity
  8
_U+30EC_U+30A4_U+30E4_U+30FC 1
100
AcDbBlockReference
  2
block 3
 10
0.0
 20
0.0
 30
0.0
  0
POLYLINE
  5
86
330
1F
100
AcDbEntity
  8
_U+30EC_U+30A4_U+30E4_U+30FC 1
  6
AI-Linetype-1
 62
   154
420
    23468
370
    25
100
AcDb2dPolyline
 66
     1
 10
0.0
 20
0.0
 30
0.0
  0
VERTEX
  5
87
330
86
100
AcDbEntity
  8
_U+30EC_U+30A4_U+30E4_U+30FC 1
  6
AI-Linetype-1
 62
   154
420
    23468
370
    25
100
AcDbVertex
100
AcDb2dVertex
 10
91.80488295909089
 20
-136.4767040335349
 30
0.0
  0
VERTEX
  5
88
330
86
100
AcDbEntity
  8
_U+30EC_U+30A4_U+30E4_U+30FC 1
  6
AI-Linetype-1
 62
   154
420
    23468
370
    25
100
AcDbVertex
100
AcDb2dVertex
 10
89.66104310231347
 20
-172.0451724999846
 30
0.0
  0
VERTEX
  5
89
330
86
100
AcDbEntity
  8
_U+30EC_U+30A4_U+30E4_U+30FC 1
  6
AI-Linetype-1
 62
   154
420
    23468
370
    25
100
AcDbVertex
100
AcDb2dVertex
 10
125.2051698159752
 20
-171.3766624869953
 30
0.0
  0
SEQEND
  5
8B
330
86
100
AcDbEntity
  8
_U+30EC_U+30A4_U+30E4_U+30FC 1
  6
AI-Linetype-1
 62
   154
420
    23468
370
    25
  0
POLYLINE
  5
8C
330
1F
100
AcDbEntity
  8
_U+30EC_U+30A4_U+30E4_U+30FC 1
 62
   179
420
  2234388
370
     9
100
AcDb2dPolyline
 66
     1
 10
0.0
 20
0.0
 30
0.0
  0
VERTEX
  5
8D
330
8C
100
AcDbEntity
  8
_U+30EC_U+30A4_U+30E4_U+30FC 1
 62
   179
420
  2234388
370
     9
100
AcDbVertex
100
AcDb2dVertex
 10
115.2963215857593
 20
-171.5451922517643
 30
0.0
  0
VERTEX
  5
8E
330
8C
100
AcDbEntity
  8
_U+30EC_U+30A4_U+30E4_U+30FC 1
 62
   179
420
  2234388
370
     9
100
AcDbVertex
100
AcDb2dVertex
 10
112.0331271421306
 20
-167.3118589194893
 30
0.0
  0
SEQEND
  5
8F
330
8C
100
AcDbEntity
  8
_U+30EC_U+30A4_U+30E4_U+30FC 1
 62
   179
420
  2234388
370
     9
  0
INSERT
  5
91
330
1F
100
AcDbEntity
  8
_U+30EC_U+30A4_U+30E4_U+30FC 1
100
AcDbBlockReference
  2
block 4
 10
0.0
 20
0.0
 30
0.0
  0
ENDSEC
  0
SECTION
  2
OBJECTS
  0
DICTIONARY
  5
C
330
0
100
AcDbDictionary
281
     1
  3
ACAD_GROUP
350
D
  3
ACAD_LAYOUT
350
1A
  3
ACAD_MATERIAL
350
3B
  3
ACAD_MLEADERSTYLE
350
CF
  3
ACAD_MLINESTYLE
350
17
  3
ACAD_PLOTSETTINGS
350
19
  3
ACAD_PLOTSTYLENAME
350
E
  3
ACAD_TABLESTYLE
350
CE
  3
ACAD_VISUALSTYLE
350
2A
  0
SUN
  5
3F
330
29
100
AcDbSun
 90
        1
290
     0
 63
     7
421
 16777215
 40
1.0
291
     1
 91
  2455826
 92
 54000000
292
     0
 70
     2
 71
   256
280
     1
  0
DICTIONARY
  5
D
102
{ACAD_REACTORS
330
C
102
}
330
C
100
AcDbDictionary
281
     1
  0
DICTIONARY
  5
1A
102
{ACAD_REACTORS
330
C
102
}
330
C
100
AcDbDictionary
281
     1
  3
Layout1
350
1E
  3
Layout2
350
26
  3
Model
350
22
  0
DICTIONARY
  5
3B
102
{ACAD_REACTORS
330
C
102
}
330
C
100
AcDbDictionary
281
     1
  3
ByBlock
350
3D
  3
ByLayer
350
3C
  3
Global
350
3E
  0
DICTIONARY
  5
CF
102
{ACAD_REACTORS
330
C
102
}
330
C
100
AcDbDictionary
281
     1
  0
DICTIONARY
  5
17
102
{ACAD_REACTORS
330
C
102
}
330
C
100
AcDbDictionary
281
     1
  3
Standard
350
18
  0
DICTIONARY
  5
19
102
{ACAD_REACTORS
330
C
102
}
330
C
100
AcDbDictionary
281
     1
  0
ACDBDICTIONARYWDFLT
  5
E
102
{ACAD_REACTORS
330
C
102
}
330
C
100
AcDbDictionary
281
     1
  3
Normal
350
F
100
AcDbDictionaryWithDefault
340
F
  0
DICTIONARY
  5
CE
102
{ACAD_REACTORS
330
C
102
}
330
C
100
AcDbDictionary
281
     1
  0
DICTIONARY
  5
2A
102
{ACAD_REACTORS
330
C
102
}
330
C
100
AcDbDictionary
281
     1
  3
2dWireframe
350
2F
  3
3D Hidden
350
31
  3
3dWireframe
350
30
  3
Basic
350
32
  3
Brighten
350
36
  3
ColorChange
350
3A
  3
Conceptual
350
34
  3
Dim
350
35
  3
Facepattern
350
39
  3
Flat
350
2B
  3
FlatWithEdges
350
2C
  3
Gouraud
350
2D
  3
GouraudWithEdges
350
2E
  3
Linepattern
350
38
  3
Realistic
350
33
  3
Thicken
350
37
  0
LAYOUT
  5
1E
102
{ACAD_REACTORS
330
1A
102
}
330
1A
100
AcDbPlotSettings
  1

  2
none_device
  4

  6

 40
0.0
 41
0.0
 42
0.0
 43
0.0
 44
0.0
 45
0.0
 46
0.0
 47
0.0
 48
0.0
 49
0.0
140
0.0
141
0.0
142
1.0
143
1.0
 70
   688
 72
     0
 73
     0
 74
     5
  7

 75
    16
 76
     0
 77
     2
 78
   300
147
1.0
148
0.0
149
0.0
100
AcDbLayout
  1
Layout1
 70
     1
 71
     1
 10
0.0
 20
0.0
 11
12.0
 21
9.0
 12
0.0
 22
0.0
 32
0.0
 14
1.000000000000000E+20
 24
1.000000000000000E+20
 34
1.000000000000000E+20
 15
-1.000000000000000E+20
 25
-1.000000000000000E+20
 35
-1.000000000000000E+20
146
0.0
 13
0.0
 23
0.0
 33
0.0
 16
1.0
 26
0.0
 36
0.0
 17
0.0
 27
1.0
 37
0.0
 76
     0
330
1B
  0
LAYOUT
  5
26
102
{ACAD_REACTORS
330
1A
102
}
330
1A
100
AcDbPlotSettings
  1

  2
none_device
  4

  6

 40
0.0
 41
0.0
 42
0.0
 43
0.0
 44
0.0
 45
0.0
 46
0.0
 47
0.0
 48
0.0
 49
0.0
140
0.0
141
0.0
142
1.0
143
1.0
 70
   688
 72
     0
 73
     0
 74
     5
  7

 75
    16
 76
     0
 77
     2
 78
   300
147
1.0
148
0.0
149
0.0
100
AcDbLayout
  1
Layout2
 70
     1
 71
     2
 10
0.0
 20
0.0
 11
0.0
 21
0.0
 12
0.0
 22
0.0
 32
0.0
 14
0.0
 24
0.0
 34
0.0
 15
0.0
 25
0.0
 35
0.0
146
0.0
 13
0.0
 23
0.0
 33
0.0
 16
1.0
 26
0.0
 36
0.0
 17
0.0
 27
1.0
 37
0.0
 76
     0
330
23
  0
LAYOUT
  5
22
102
{ACAD_REACTORS
330
1A
102
}
330
1A
100
AcDbPlotSettings
  1

  2
none_device
  4

  6

 40
0.0
 41
0.0
 42
0.0
 43
0.0
 44
0.0
 45
0.0
 46
0.0
 47
0.0
 48
0.0
 49
0.0
140
0.0
141
0.0
142
1.0
143
1.0
 70
  1712
 72
     0
 73
     0
 74
     0
  7

 75
     0
 76
     0
 77
     2
 78
   300
147
1.0
148
0.0
149
0.0
100
AcDbLayout
  1
Model
 70
     1
 71
     0
 10
0.0
 20
0.0
 11
12.0
 21
9.0
 12
0.0
 22
0.0
 32
0.0
 14
1.000000000000000E+20
 24
1.000000000000000E+20
 34
1.000000000000000E+20
 15
-1.000000000000000E+20
 25
-1.000000000000000E+20
 35
-1.000000000000000E+20
146
0.0
 13
0.0
 23
0.0
 33
0.0
 16
1.0
 26
0.0
 36
0.0
 17
0.0
 27
1.0
 37
0.0
 76
     0
330
1F
331
29
  0
MATERIAL
  5
3D
102
{ACAD_REACTORS
330
3B
102
}
330
3B
100
AcDbMaterial
  1
ByBlock
 72
     1
 94
      127
  0
MATERIAL
  5
3C
102
{ACAD_REACTORS
330
3B
102
}
330
3B
100
AcDbMaterial
  1
ByLayer
 72
     1
 94
      127
  0
MATERIAL
  5
3E
102
{ACAD_REACTORS
330
3B
102
}
330
3B
100
AcDbMaterial
  1
Global
 72
     1
 94
      127
  0
MLINESTYLE
  5
18
102
{ACAD_REACTORS
330
17
102
}
330
17
100
AcDbMlineStyle
  2
Standard
 70
     0
  3

 62
   256
 51
90.0
 52
90.0
 71
     2
 49
0.5
 62
   256
  6
BYLAYER
 49
-0.5
 62
   256
  6
BYLAYER
  0
ACDBPLACEHOLDER
  5
F
102
{ACAD_REACTORS
330
E
102
}
330
E
  0
VISUALSTYLE
  5
2F
102
{ACAD_REACTORS
330
2A
102
}
330
2A
100
AcDbVisualStyle
  2
2dWireframe
 70
     4
177
     2
291
     0
 71
     0
176
     1
 72
     2
176
     1
 73
     0
176
     1
 90
        0
176
     1
 40
-0.6
176
     1
 41
-30.0
176
     1
 62
     5
 63
     7
421
 16777215
176
     1
 74
     1
176
     1
 91
        4
176
     1
 64
     7
176
     1
 65
   257
176
     1
 75
     1
176
     1
175
     1
176
     1
 42
1.0
176
     1
 92
        0
176
     1
 66
   257
176
     1
 43
1.0
176
     1
 76
     1
176
     1
 77
     6
176
     1
 78
     2
176
     1
 67
     7
176
     1
 79
     5
176
     1
170
     0
176
     1
171
     0
176
     1
290
     0
176
     1
 93
        1
176
     1
 44
0.0
176
     1
173
     0
176
     1
  0
VISUALSTYLE
  5
31
102
{ACAD_REACTORS
330
2A
102
}
330
2A
100
AcDbVisualStyle
  2
3D Hidden
 70
     6
177
     2
291
     0
 71
     1
176
     1
 72
     2
176
     1
 73
     2
176
     1
 90
        0
176
     1
 40
-0.6
176
     1
 41
-30.0
176
     1
 62
     5
 63
     7
421
 16777215
176
     1
 74
     2
176
     1
 91
        2
176
     1
 64
     7
176
     1
 65
   257
176
     1
 75
     2
176
     1
175
     1
176
     1
 42
40.0
176
     1
 92
        0
176
     1
 66
   257
176
     1
 43
1.0
176
     1
 76
     1
176
     1
 77
     6
176
     1
 78
     2
176
     1
 67
     7
176
     1
 79
     3
176
     1
170
     0
176
     1
171
     0
176
     1
290
     0
176
     1
 93
        1
176
     1
 44
0.0
176
     1
173
     0
176
     1
  0
VISUALSTYLE
  5
30
102
{ACAD_REACTORS
330
2A
102
}
330
2A
100
AcDbVisualStyle
  2
3dWireframe
 70
     5
177
     2
291
     0
 71
     0
176
     1
 72
     2
176
     1
 73
     0
176
     1
 90
        0
176
     1
 40
-0.6
176
     1
 41
-30.0
176
     1
 62
     5
 63
     7
421
 16777215
176
     1
 74
     1
176
     1
 91
        4
176
     1
 64
     7
176
     1
 65
   257
176
     1
 75
     1
176
     1
175
     1
176
     1
 42
1.0
176
     1
 92
        0
176
     1
 66
   257
176
     1
 43
1.0
176
     1
 76
     1
176
     1
 77
     6
176
     1
 78
     2
176
     1
 67
     7
176
     1
 79
     5
176
     1
170
     0
176
     1
171
     0
176
     1
290
     0
176
     1
 93
        1
176
     1
 44
0.0
176
     1
173
     0
176
     1
  0
VISUALSTYLE
  5
32
102
{ACAD_REACTORS
330
2A
102
}
330
2A
100
AcDbVisualStyle
  2
Basic
 70
     7
177
     2
291
     1
 71
     1
176
     1
 72
     0
176
     1
 73
     1
176
     1
 90
        0
176
     1
 40
-0.6
176
     1
 41
-30.0
176
     1
 62
     5
 63
     7
421
 16777215
176
     1
 74
     0
176
     1
 91
        4
176
     1
 64
     7
176
     1
 65
   257
176
     1
 75
     1
176
     1
175
     1
176
     1
 42
1.0
176
     1
 92
        8
176
     1
 66
     7
176
     1
 43
1.0
176
     1
 76
     1
176
     1
 77
     6
176
     1
 78
     2
176
     1
 67
     7
176
     1
 79
     5
176
     1
170
     0
176
     1
171
     0
176
     1
290
     0
176
     1
 93
        1
176
     1
 44
0.0
176
     1
173
     0
176
     1
  0
VISUALSTYLE
  5
36
102
{ACAD_REACTORS
330
2A
102
}
330
2A
100
AcDbVisualStyle
  2
Brighten
 70
    12
177
     2
291
     1
 71
     2
176
     1
 72
     2
176
     1
 73
     0
176
     1
 90
        0
176
     1
 40
-0.6
176
     1
 41
-30.0
176
     1
 62
     5
 63
     7
421
 16777215
176
     1
 74
     1
176
     1
 91
        4
176
     1
 64
     7
176
     1
 65
   257
176
     1
 75
     1
176
     1
175
     1
176
     1
 42
1.0
176
     1
 92
        8
176
     1
 66
     7
176
     1
 43
1.0
176
     1
 76
     1
176
     1
 77
     6
176
     1
 78
     2
176
     1
 67
     7
176
     1
 79
     5
176
     1
170
     0
176
     1
171
     0
176
     1
290
     0
176
     1
 93
        1
176
     1
 44
50.0
176
     1
173
     0
176
     1
  0
VISUALSTYLE
  5
3A
102
{ACAD_REACTORS
330
2A
102
}
330
2A
100
AcDbVisualStyle
  2
ColorChange
 70
    16
177
     2
291
     1
 71
     2
176
     1
 72
     2
176
     1
 73
     3
176
     1
 90
        0
176
     1
 40
-0.6
176
     1
 41
-30.0
176
     1
 62
     5
 63
     8
421
  8421504
176
     1
 74
     1
176
     1
 91
        4
176
     1
 64
     7
176
     1
 65
   257
176
     1
 75
     1
176
     1
175
     1
176
     1
 42
1.0
176
     1
 92
        8
176
     1
 66
     8
424
  8421504
176
     1
 43
1.0
176
     1
 76
     1
176
     1
 77
     6
176
     1
 78
     2
176
     1
 67
     7
176
     1
 79
     5
176
     1
170
     0
176
     1
171
     0
176
     1
290
     0
176
     1
 93
        1
176
     1
 44
0.0
176
     1
173
     0
176
     1
  0
VISUALSTYLE
  5
34
102
{ACAD_REACTORS
330
2A
102
}
330
2A
100
AcDbVisualStyle
  2
Conceptual
 70
     9
177
     2
291
     0
 71
     3
176
     1
 72
     2
176
     1
 73
     0
176
     1
 90
        0
176
     1
 40
-0.6
176
     1
 41
-30.0
176
     1
 62
     5
 63
     7
421
 16777215
176
     1
 74
     2
176
     1
 91
        2
176
     1
 64
     7
176
     1
 65
   257
176
     1
 75
     1
176
     1
175
     1
176
     1
 42
40.0
176
     1
 92
        8
176
     1
 66
     7
176
     1
 43
1.0
176
     1
 76
     1
176
     1
 77
     6
176
     1
 78
     2
176
     1
 67
     7
176
     1
 79
     3
176
     1
170
     0
176
     1
171
     0
176
     1
290
     0
176
     1
 93
        1
176
     1
 44
0.0
176
     1
173
     0
176
     1
  0
VISUALSTYLE
  5
35
102
{ACAD_REACTORS
330
2A
102
}
330
2A
100
AcDbVisualStyle
  2
Dim
 70
    11
177
     2
291
     1
 71
     2
176
     1
 72
     2
176
     1
 73
     0
176
     1
 90
        0
176
     1
 40
-0.6
176
     1
 41
-30.0
176
     1
 62
     5
 63
     7
421
 16777215
176
     1
 74
     1
176
     1
 91
        4
176
     1
 64
     7
176
     1
 65
   257
176
     1
 75
     1
176
     1
175
     1
176
     1
 42
1.0
176
     1
 92
        8
176
     1
 66
     7
176
     1
 43
1.0
176
     1
 76
     1
176
     1
 77
     6
176
     1
 78
     2
176
     1
 67
     7
176
     1
 79
     5
176
     1
170
     0
176
     1
171
     0
176
     1
290
     0
176
     1
 93
        1
176
     1
 44
-50.0
176
     1
173
     0
176
     1
  0
VISUALSTYLE
  5
39
102
{ACAD_REACTORS
330
2A
102
}
330
2A
100
AcDbVisualStyle
  2
Facepattern
 70
    15
177
     2
291
     1
 71
     2
176
     1
 72
     2
176
     1
 73
     0
176
     1
 90
        0
176
     1
 40
-0.6
176
     1
 41
-30.0
176
     1
 62
     5
 63
     7
421
 16777215
176
     1
 74
     1
176
     1
 91
        4
176
     1
 64
     7
176
     1
 65
   257
176
     1
 75
     1
176
     1
175
     1
176
     1
 42
1.0
176
     1
 92
        8
176
     1
 66
     7
176
     1
 43
1.0
176
     1
 76
     1
176
     1
 77
     6
176
     1
 78
     2
176
     1
 67
     7
176
     1
 79
     5
176
     1
170
     0
176
     1
171
     0
176
     1
290
     0
176
     1
 93
        1
176
     1
 44
0.0
176
     1
173
     0
176
     1
  0
VISUALSTYLE
  5
2B
102
{ACAD_REACTORS
330
2A
102
}
330
2A
100
AcDbVisualStyle
  2
Flat
 70
     0
177
     2
291
     1
 71
     2
176
     1
 72
     1
176
     1
 73
     1
176
     1
 90
        2
176
     1
 40
-0.6
176
     1
 41
30.0
176
     1
 62
     5
 63
     7
421
 16777215
176
     1
 74
     0
176
     1
 91
        4
176
     1
 64
     7
176
     1
 65
   257
176
     1
 75
     1
176
     1
175
     1
176
     1
 42
1.0
176
     1
 92
        8
176
     1
 66
     7
176
     1
 43
1.0
176
     1
 76
     1
176
     1
 77
     6
176
     1
 78
     2
176
     1
 67
     7
176
     1
 79
     5
176
     1
170
     0
176
     1
171
     0
176
     1
290
     0
176
     1
 93
       13
176
     1
 44
0.0
176
     1
173
     0
176
     1
  0
VISUALSTYLE
  5
2C
102
{ACAD_REACTORS
330
2A
102
}
330
2A
100
AcDbVisualStyle
  2
FlatWithEdges
 70
     1
177
     2
291
     1
 71
     2
176
     1
 72
     1
176
     1
 73
     1
176
     1
 90
        2
176
     1
 40
-0.6
176
     1
 41
30.0
176
     1
 62
     5
 63
     7
421
 16777215
176
     1
 74
     1
176
     1
 91
        4
176
     1
 64
     7
176
     1
 65
   257
176
     1
 75
     1
176
     1
175
     1
176
     1
 42
1.0
176
     1
 92
        0
176
     1
 66
   257
176
     1
 43
1.0
176
     1
 76
     1
176
     1
 77
     6
176
     1
 78
     2
176
     1
 67
     7
176
     1
 79
     5
176
     1
170
     0
176
     1
171
     0
176
     1
290
     0
176
     1
 93
       13
176
     1
 44
0.0
176
     1
173
     0
176
     1
  0
VISUALSTYLE
  5
2D
102
{ACAD_REACTORS
330
2A
102
}
330
2A
100
AcDbVisualStyle
  2
Gouraud
 70
     2
177
     2
291
     1
 71
     2
176
     1
 72
     2
176
     1
 73
     1
176
     1
 90
        2
176
     1
 40
-0.6
176
     1
 41
30.0
176
     1
 62
     5
 63
     7
421
 16777215
176
     1
 74
     0
176
     1
 91
        4
176
     1
 64
     7
176
     1
 65
   257
176
     1
 75
     1
176
     1
175
     1
176
     1
 42
1.0
176
     1
 92
        0
176
     1
 66
     7
176
     1
 43
1.0
176
     1
 76
     1
176
     1
 77
     6
176
     1
 78
     2
176
     1
 67
     7
176
     1
 79
     5
176
     1
170
     0
176
     1
171
     0
176
     1
290
     0
176
     1
 93
       13
176
     1
 44
0.0
176
     1
173
     0
176
     1
  0
VISUALSTYLE
  5
2E
102
{ACAD_REACTORS
330
2A
102
}
330
2A
100
AcDbVisualStyle
  2
GouraudWithEdges
 70
     3
177
     2
291
     1
 71
     2
176
     1
 72
     2
176
     1
 73
     1
176
     1
 90
        2
176
     1
 40
-0.6
176
     1
 41
30.0
176
     1
 62
     5
 63
     7
421
 16777215
176
     1
 74
     1
176
     1
 91
        4
176
     1
 64
     7
176
     1
 65
   257
176
     1
 75
     1
176
     1
175
     1
176
     1
 42
1.0
176
     1
 92
        0
176
     1
 66
   257
176
     1
 43
1.0
176
     1
 76
     1
176
     1
 77
     6
176
     1
 78
     2
176
     1
 67
     7
176
     1
 79
     5
176
     1
170
     0
176
     1
171
     0
176
     1
290
     0
176
     1
 93
       13
176
     1
 44
0.0
176
     1
173
     0
176
     1
  0
VISUALSTYLE
  5
38
102
{ACAD_REACTORS
330
2A
102
}
330
2A
100
AcDbVisualStyle
  2
Linepattern
 70
    14
177
     2
291
     1
 71
     2
176
     1
 72
     2
176
     1
 73
     0
176
     1
 90
        0
176
     1
 40
-0.6
176
     1
 41
-30.0
176
     1
 62
     5
 63
     7
421
 16777215
176
     1
 74
     1
176
     1
 91
        4
176
     1
 64
     7
176
     1
 65
   257
176
     1
 75
     7
176
     1
175
     7
176
     1
 42
1.0
176
     1
 92
        8
176
     1
 66
     7
176
     1
 43
1.0
176
     1
 76
     1
176
     1
 77
     6
176
     1
 78
     2
176
     1
 67
     7
176
     1
 79
     5
176
     1
170
     0
176
     1
171
     0
176
     1
290
     0
176
     1
 93
        1
176
     1
 44
0.0
176
     1
173
     0
176
     1
  0
VISUALSTYLE
  5
33
102
{ACAD_REACTORS
330
2A
102
}
330
2A
100
AcDbVisualStyle
  2
Realistic
 70
     8
177
     2
291
     0
 71
     2
176
     1
 72
     2
176
     1
 73
     0
176
     1
 90
        0
176
     1
 40
-0.6
176
     1
 41
-30.0
176
     1
 62
     5
 63
     7
421
 16777215
176
     1
 74
     1
176
     1
 91
        0
176
     1
 64
     7
176
     1
 65
   257
176
     1
 75
     1
176
     1
175
     1
176
     1
 42
1.0
176
     1
 92
        8
176
     1
 66
     8
424
  7895160
176
     1
 43
1.0
176
     1
 76
     1
176
     1
 77
     6
176
     1
 78
     2
176
     1
 67
     7
176
     1
 79
     5
176
     1
170
     0
176
     1
171
     0
176
     1
290
     0
176
     1
 93
       13
176
     1
 44
0.0
176
     1
173
     0
176
     1
  0
VISUALSTYLE
  5
37
102
{ACAD_REACTORS
330
2A
102
}
330
2A
100
AcDbVisualStyle
  2
Thicken
 70
    13
177
     2
291
     1
 71
     2
176
     1
 72
     2
176
     1
 73
     0
176
     1
 90
        0
176
     1
 40
-0.6
176
     1
 41
-30.0
176
     1
 62
     5
 63
     7
421
 16777215
176
     1
 74
     1
176
     1
 91
        4
176
     1
 64
     7
176
     1
 65
   257
176
     1
 75
     1
176
     1
175
     1
176
     1
 42
1.0
176
     1
 92
       12
176
     1
 66
     7
176
     1
 43
1.0
176
     1
 76
     1
176
     1
 77
     6
176
     1
 78
     2
176
     1
 67
     7
176
     1
 79
     5
176
     1
170
     0
176
     1
171
     0
176
     1
290
     0
176
     1
 93
        1
176
     1
 44
0.0
176
     1
173
     0
176
     1
  0
ENDSEC
  0
EOF
