  0
SECTION
  2
HEADER
  9
$ACADVER
  1
AC1024
  9
$ACADMAINTVER
 70
     6
  9
$DWGCODEPAGE
  3
UNDEFINED
  9
$INSBASE
 10
0.0
 20
0.0
 30
0.0
  9
$EXTMIN
 10
1.000000000000000E+20
 20
1.000000000000000E+20
 30
1.000000000000000E+20
  9
$EXTMAX
 10
-1.000000000000000E+20
 20
-1.000000000000000E+20
 30
-1.000000000000000E+20
  9
$LIMMIN
 10
0.0
 20
0.0
  9
$LIMMAX
 10
12.0
 20
9.0
  9
$ORTHOMODE
 70
     0
  9
$REGENMODE
 70
     1
  9
$FILLMODE
 70
     1
  9
$QTEXTMODE
 70
     0
  9
$MIRRTEXT
 70
     1
  9
$LTSCALE
 40
1.0
  9
$ATTMODE
 70
     1
  9
$TEXTSIZE
 40
0.2
  9
$TRACEWID
 40
0.05
  9
$TEXTSTYLE
  7
Standard
  9
$CLAYER
  8
0
  9
$CELTYPE
  6
ByLayer
  9
$CECOLOR
 62
   256
  9
$CELTSCALE
 40
1.0
  9
$DISPSILH
 70
     0
  9
$DIMSCALE
 40
1.0
  9
$DIMASZ
 40
0.18
  9
$DIMEXO
 40
0.0625
  9
$DIMDLI
 40
0.38
  9
$DIMRND
 40
0.0
  9
$DIMDLE
 40
0.0
  9
$DIMEXE
 40
0.18
  9
$DIMTP
 40
0.0
  9
$DIMTM
 40
0.0
  9
$DIMTXT
 40
0.18
  9
$DIMCEN
 40
0.09
  9
$DIMTSZ
 40
0.0
  9
$DIMTOL
 70
     0
  9
$DIMLIM
 70
     0
  9
$DIMTIH
 70
     1
  9
$DIMTOH
 70
     1
  9
$DIMSE1
 70
     0
  9
$DIMSE2
 70
     0
  9
$DIMTAD
 70
     0
  9
$DIMZIN
 70
     0
  9
$DIMBLK
  1

  9
$DIMASO
 70
     1
  9
$DIMSHO
 70
     1
  9
$DIMPOST
  1

  9
$DIMAPOST
  1

  9
$DIMALT
 70
     0
  9
$DIMALTD
 70
     2
  9
$DIMALTF
 40
25.4
  9
$DIMLFAC
 40
1.0
  9
$DIMTOFL
 70
     0
  9
$DIMTVP
 40
0.0
  9
$DIMTIX
 70
     0
  9
$DIMSOXD
 70
     0
  9
$DIMSAH
 70
     0
  9
$DIMBLK1
  1

  9
$DIMBLK2
  1

  9
$DIMSTYLE
  2
Standard
  9
$DIMCLRD
 70
     0
  9
$DIMCLRE
 70
     0
  9
$DIMCLRT
 70
     0
  9
$DIMTFAC
 40
1.0
  9
$DIMGAP
 40
0.09
  9
$DIMJUST
 70
     0
  9
$DIMSD1
 70
     0
  9
$DIMSD2
 70
     0
  9
$DIMTOLJ
 70
     1
  9
$DIMTZIN
 70
     0
  9
$DIMALTZ
 70
     0
  9
$DIMALTTZ
 70
     0
  9
$DIMUPT
 70
     0
  9
$DIMDEC
 70
     4
  9
$DIMTDEC
 70
     4
  9
$DIMALTU
 70
     2
  9
$DIMALTTD
 70
     2
  9
$DIMTXSTY
  7
Standard
  9
$DIMAUNIT
 70
     0
  9
$DIMADEC
 70
     0
  9
$DIMALTRND
 40
0.0
  9
$DIMAZIN
 70
     0
  9
$DIMDSEP
 70
    46
  9
$DIMATFIT
 70
     3
  9
$DIMFRAC
 70
     0
  9
$DIMLDRBLK
  1

  9
$DIMLUNIT
 70
     2
  9
$DIMLWD
 70
    -2
  9
$DIMLWE
 70
    -2
  9
$DIMTMOVE
 70
     0
  9
$DIMFXL
 40
1.0
  9
$DIMFXLON
 70
     0
  9
$DIMJOGANG
 40
0.7853981633974483
  9
$DIMTFILL
 70
     0
  9
$DIMTFILLCLR
 70
     0
  9
$DIMARCSYM
 70
     0
  9
$DIMLTYPE
  6

  9
$DIMLTEX1
  6

  9
$DIMLTEX2
  6

  9
$DIMTXTDIRECTION
 70
     0
  9
$LUNITS
 70
     2
  9
$LUPREC
 70
     4
  9
$SKETCHINC
 40
0.1
  9
$FILLETRAD
 40
0.5
  9
$AUNITS
 70
     0
  9
$AUPREC
 70
     0
  9
$MENU
  1
.
  9
$ELEVATION
 40
0.0
  9
$PELEVATION
 40
0.0
  9
$THICKNESS
 40
0.0
  9
$LIMCHECK
 70
     0
  9
$CHAMFERA
 40
0.5
  9
$CHAMFERB
 40
0.5
  9
$CHAMFERC
 40
1.0
  9
$CHAMFERD
 40
0.0
  9
$SKPOLY
 70
     0
  9
$TDCREATE
 40
2457917.583599537
  9
$TDUCREATE
 40
2457917.208599537
  9
$TDUPDATE
 40
2457917.583599537
  9
$TDUUPDATE
 40
2457917.208599537
  9
$TDINDWG
 40
0.0000000116
  9
$TDUSRTIMER
 40
0.0000000116
  9
$USRTIMER
 70
     1
  9
$ANGBASE
 50
0.0
  9
$ANGDIR
 70
     0
  9
$PDMODE
 70
     0
  9
$PDSIZE
 40
0.0
  9
$PLINEWID
 40
0.0
  9
$SPLFRAME
 70
     0
  9
$SPLINETYPE
 70
     6
  9
$SPLINESEGS
 70
     8
  9
$HANDSEED
  5
AB
  9
$SURFTAB1
 70
     6
  9
$SURFTAB2
 70
     6
  9
$SURFTYPE
 70
     6
  9
$SURFU
 70
     6
  9
$SURFV
 70
     6
  9
$UCSBASE
  2

  9
$UCSNAME
  2

  9
$UCSORG
 10
0.0
 20
0.0
 30
0.0
  9
$UCSXDIR
 10
1.0
 20
0.0
 30
0.0
  9
$UCSYDIR
 10
0.0
 20
1.0
 30
0.0
  9
$UCSORTHOREF
  2

  9
$UCSORTHOVIEW
 70
     0
  9
$UCSORGTOP
 10
0.0
 20
0.0
 30
0.0
  9
$UCSORGBOTTOM
 10
0.0
 20
0.0
 30
0.0
  9
$UCSORGLEFT
 10
0.0
 20
0.0
 30
0.0
  9
$UCSORGRIGHT
 10
0.0
 20
0.0
 30
0.0
  9
$UCSORGFRONT
 10
0.0
 20
0.0
 30
0.0
  9
$UCSORGBACK
 10
0.0
 20
0.0
 30
0.0
  9
$PUCSBASE
  2

  9
$PUCSNAME
  2

  9
$PUCSORG
 10
0.0
 20
0.0
 30
0.0
  9
$PUCSXDIR
 10
1.0
 20
0.0
 30
0.0
  9
$PUCSYDIR
 10
0.0
 20
1.0
 30
0.0
  9
$PUCSORTHOREF
  2

  9
$PUCSORTHOVIEW
 70
     0
  9
$PUCSORGTOP
 10
0.0
 20
0.0
 30
0.0
  9
$PUCSORGBOTTOM
 10
0.0
 20
0.0
 30
0.0
  9
$PUCSORGLEFT
 10
0.0
 20
0.0
 30
0.0
  9
$PUCSORGRIGHT
 10
0.0
 20
0.0
 30
0.0
  9
$PUCSORGFRONT
 10
0.0
 20
0.0
 30
0.0
  9
$PUCSORGBACK
 10
0.0
 20
0.0
 30
0.0
  9
$USERI1
 70
     0
  9
$USERI2
 70
     0
  9
$USERI3
 70
     0
  9
$USERI4
 70
     0
  9
$USERI5
 70
     0
  9
$USERR1
 40
0.0
  9
$USERR2
 40
0.0
  9
$USERR3
 40
0.0
  9
$USERR4
 40
0.0
  9
$USERR5
 40
0.0
  9
$WORLDVIEW
 70
     1
  9
$SHADEDGE
 70
     3
  9
$SHADEDIF
 70
    70
  9
$TILEMODE
 70
     1
  9
$MAXACTVP
 70
    64
  9
$PINSBASE
 10
0.0
 20
0.0
 30
0.0
  9
$PLIMCHECK
 70
     0
  9
$PEXTMIN
 10
1.000000000000000E+20
 20
1.000000000000000E+20
 30
1.000000000000000E+20
  9
$PEXTMAX
 10
-1.000000000000000E+20
 20
-1.000000000000000E+20
 30
-1.000000000000000E+20
  9
$PLIMMIN
 10
0.0
 20
0.0
  9
$PLIMMAX
 10
12.0
 20
9.0
  9
$UNITMODE
 70
     0
  9
$VISRETAIN
 70
     1
  9
$PLINEGEN
 70
     0
  9
$PSLTSCALE
 70
     1
  9
$TREEDEPTH
 70
  3020
  9
$CMLSTYLE
  2
Standard
  9
$CMLJUST
 70
     0
  9
$CMLSCALE
 40
1.0
  9
$PROXYGRAPHICS
 70
     1
  9
$MEASUREMENT
 70
     0
  9
$CELWEIGHT
370
    -1
  9
$ENDCAPS
280
     0
  9
$JOINSTYLE
280
     0
  9
$LWDISPLAY
290
     1
  9
$INSUNITS
 70
     1
  9
$HYPERLINKBASE
  1

  9
$STYLESHEET
  1

  9
$XEDIT
290
     1
  9
$CEPSNTYPE
380
     0
  9
$PSTYLEMODE
290
     1
  9
$FINGERPRINTGUID
  2
{D2A6EFAE-F75F-CC0A-4806-FB910D5F0923}
  9
$VERSIONGUID
  2
{FAEB1C32-E019-11D5-929B-00C0DF256EC4}
  9
$EXTNAMES
290
     1
  9
$PSVPSCALE
 40
0.0
  9
$OLESTARTUP
290
     0
  9
$SORTENTS
280
   127
  9
$INDEXCTL
280
     0
  9
$HIDETEXT
280
     1
  9
$XCLIPFRAME
280
     2
  9
$HALOGAP
280
     0
  9
$OBSCOLOR
 70
   257
  9
$OBSLTYPE
280
     0
  9
$INTERSECTIONDISPLAY
280
     0
  9
$INTERSECTIONCOLOR
 70
   257
  9
$DIMASSOC
280
     2
  9
$PROJECTNAME
  1

  9
$CAMERADISPLAY
290
     0
  9
$LENSLENGTH
 40
50.0
  9
$CAMERAHEIGHT
 40
0.0
  9
$STEPSPERSEC
 40
2.0
  9
$STEPSIZE
 40
6.0
  9
$3DDWFPREC
 40
2.0
  9
$PSOLWIDTH
 40
0.25
  9
$PSOLHEIGHT
 40
4.0
  9
$LOFTANG1
 40
1.570796326794897
  9
$LOFTANG2
 40
1.570796326794897
  9
$LOFTMAG1
 40
0.0
  9
$LOFTMAG2
 40
0.0
  9
$LOFTPARAM
 70
     7
  9
$LOFTNORMALS
280
     1
  9
$LATITUDE
 40
37.795
  9
$LONGITUDE
 40
-122.394
  9
$NORTHDIRECTION
 40
0.0
  9
$TIMEZONE
 70
 -8000
  9
$LIGHTGLYPHDISPLAY
280
     1
  9
$TILEMODELIGHTSYNCH
280
     1
  9
$CMATERIAL
347
3C
  9
$SOLIDHIST
280
     1
  9
$SHOWHIST
280
     1
  9
$DWFFRAME
280
     2
  9
$DGNFRAME
280
     2
  9
$REALWORLDSCALE
290
     1
  9
$INTERFERECOLOR
 62
   256
  9
$CSHADOW
280
     0
  9
$SHADOWPLANELOCATION
 40
0.0
  0
ENDSEC
  0
SECTION
  2
CLASSES
  0
CLASS
  1
ACDBDICTIONARYWDFLT
  2
AcDbDictionaryWithDefault
  3
ObjectDBX Classes
 90
        0
 91
        4
280
     0
281
     0
  0
CLASS
  1
VISUALSTYLE
  2
AcDbVisualStyle
  3
ObjectDBX Classes
 90
     4095
 91
        4
280
     0
281
     0
  0
CLASS
  1
MATERIAL
  2
AcDbMaterial
  3
ObjectDBX Classes
 90
     1153
 91
        4
280
     0
281
     0
  0
CLASS
  1
SUN
  2
AcDbSun
  3
SCENEOE
 90
     1024
 91
        4
280
     0
281
     0
  0
ENDSEC
  0
SECTION
  2
TABLES
  0
TABLE
  2
VPORT
  5
8
330
0
100
AcDbSymbolTable
 70
     1
  0
VPORT
  5
29
330
8
100
AcDbSymbolTableRecord
100
AcDbViewportTableRecord
  2
*Active
 70
     0
 10
0.0
 20
0.0
 11
1.0
 21
1.0
 12
0.0
 22
0.0
 13
0.0
 23
0.0
 14
0.5
 24
0.5
 15
0.5
 25
0.5
 16
0.0
 26
0.0
 36
1.0
 17
91.00082462281999
 27
-128.4993055234307
 37
0.0
 40
256.9986110468615
 41
0.7081814508812795
 42
50.0
 43
0.0
 44
0.0
 50
0.0
 51
0.0
 71
     0
 72
   100
 73
     1
 74
     3
 75
     0
 76
     0
 77
     0
 78
     0
281
     0
 65
     1
110
0.0
120
0.0
130
0.0
111
1.0
121
0.0
131
0.0
112
0.0
122
1.0
132
0.0
 79
     0
146
0.0
 60
     3
 61
     5
292
     1
282
     1
141
0.0
142
0.0
 63
   250
361
3F
  0
ENDTAB
  0
TABLE
  2
LTYPE
  5
5
330
0
100
AcDbSymbolTable
 70
     1
  0
LTYPE
  5
14
330
5
100
AcDbSymbolTableRecord
100
AcDbLinetypeTableRecord
  2
ByBlock
 70
     0
  3

 72
    65
 73
     0
 40
0.0
  0
LTYPE
  5
15
330
5
100
AcDbSymbolTableRecord
100
AcDbLinetypeTableRecord
  2
ByLayer
 70
     0
  3

 72
    65
 73
     0
 40
0.0
  0
LTYPE
  5
16
330
5
100
AcDbSymbolTableRecord
100
AcDbLinetypeTableRecord
  2
Continuous
 70
     0
  3
Solid line
 72
    65
 73
     0
 40
0.0
  0
ENDTAB
  0
TABLE
  2
LAYER
  5
2
330
0
100
AcDbSymbolTable
 70
     2
  0
LAYER
  5
10
330
2
100
AcDbSymbolTableRecord
100
AcDbLayerTableRecord
  2
0
 70
     0
 62
     7
  6
Continuous
370
    -3
390
F
347
3E
  0
LAYER
  5
40
330
2
100
AcDbSymbolTableRecord
100
AcDbLayerTableRecord
  2
_U+30EC_U+30A4_U+30E4_U+30FC 1
 70
     0
 62
     7
  6
Continuous
370
    -3
390
F
347
3E
  0
ENDTAB
  0
TABLE
  2
STYLE
  5
3
330
0
100
AcDbSymbolTable
 70
     1
  0
STYLE
  5
11
330
3
100
AcDbSymbolTableRecord
100
AcDbTextStyleTableRecord
  2
Standard
 70
     0
 40
0.0
 41
1.0
 50
0.0
 71
     0
 42
0.2
  3
txt
  4

  0
ENDTAB
  0
TABLE
  2
VIEW
  5
6
330
0
100
AcDbSymbolTable
 70
     0
  0
ENDTAB
  0
TABLE
  2
UCS
  5
7
330
0
100
AcDbSymbolTable
 70
     0
  0
ENDTAB
  0
TABLE
  2
APPID
  5
9
330
0
100
AcDbSymbolTable
 70
     1
  0
APPID
  5
12
330
9
100
AcDbSymbolTableRecord
100
AcDbRegAppTableRecord
  2
ACAD
 70
     0
  0
ENDTAB
  0
TABLE
  2
DIMSTYLE
  5
A
330
0
100
AcDbSymbolTable
 70
     1
100
AcDbDimStyleTable
  0
DIMSTYLE
105
27
330
A
100
AcDbSymbolTableRecord
100
AcDbDimStyleTableRecord
  2
Standard
 70
     0
178
     0
340
11
  0
ENDTAB
  0
TABLE
  2
BLOCK_RECORD
  5
1
330
0
100
AcDbSymbolTable
 70
     5
  0
BLOCK_RECORD
  5
1F
330
1
100
AcDbSymbolTableRecord
100
AcDbBlockTableRecord
  2
*Model_Space
340
22
 70
     0
280
     1
281
     0
  0
BLOCK_RECORD
  5
1B
330
1
100
AcDbSymbolTableRecord
100
AcDbBlockTableRecord
  2
*Paper_Space
340
1E
 70
     0
280
     1
281
     0
  0
BLOCK_RECORD
  5
23
330
1
100
AcDbSymbolTableRecord
100
AcDbBlockTableRecord
  2
*Paper_Space0
340
26
 70
     0
280
     1
281
     0
  0
BLOCK_RECORD
  5
41
330
1
100
AcDbSymbolTableRecord
100
AcDbBlockTableRecord
  2
block 2
340
0
102
{BLKREFS
331
42
102
}
 70
     0
280
     1
281
     0
  0
BLOCK_RECORD
  5
77
330
1
100
AcDbSymbolTableRecord
100
AcDbBlockTableRecord
  2
block 3
340
0
102
{BLKREFS
331
78
102
}
 70
     0
280
     1
281
     0
  0
BLOCK_RECORD
  5
8B
330
1
100
AcDbSymbolTableRecord
100
AcDbBlockTableRecord
  2
block 4
340
0
102
{BLKREFS
331
8C
102
}
 70
     0
280
     1
281
     0
  0
BLOCK_RECORD
  5
A0
330
1
100
AcDbSymbolTableRecord
100
AcDbBlockTableRecord
  2
block 5
340
0
102
{BLKREFS
331
A1
102
}
 70
     0
280
     1
281
     0
  0
ENDTAB
  0
ENDSEC
  0
SECTION
  2
BLOCKS
  0
BLOCK
  5
20
330
1F
100
AcDbEntity
  8
0
100
AcDbBlockBegin
  2
*Model_Space
 70
     0
 10
0.0
 20
0.0
 30
0.0
  3
*Model_Space
  1

  0
ENDBLK
  5
21
330
1F
100
AcDbEntity
  8
0
100
AcDbBlockEnd
  0
BLOCK
  5
1C
330
1B
100
AcDbEntity
 67
     1
  8
0
100
AcDbBlockBegin
  2
*Paper_Space
 70
     0
 10
0.0
 20
0.0
 30
0.0
  3
*Paper_Space
  1

  0
ENDBLK
  5
1D
330
1B
100
AcDbEntity
 67
     1
  8
0
100
AcDbBlockEnd
  0
BLOCK
  5
24
330
23
100
AcDbEntity
  8
0
100
AcDbBlockBegin
  2
*Paper_Space0
 70
     0
 10
0.0
 20
0.0
 30
0.0
  3
*Paper_Space0
  1

  0
ENDBLK
  5
25
330
23
100
AcDbEntity
  8
0
100
AcDbBlockEnd
  0
BLOCK
  5
43
330
41
100
AcDbEntity
  8
0
100
AcDbBlockBegin
  2
block 2
 70
     0
 10
0.0
 20
0.0
 30
0.0
  3
block 2
  1

  0
POLYLINE
  5
45
330
41
100
AcDbEntity
  8
_U+30EC_U+30A4_U+30E4_U+30FC 1
 62
   179
420
  2234388
370
    25
100
AcDb2dPolyline
 66
     1
 10
0.0
 20
0.0
 30
0.0
  0
VERTEX
  5
46
330
45
100
AcDbEntity
  8
_U+30EC_U+30A4_U+30E4_U+30FC 1
 62
   179
420
  2234388
370
    25
100
AcDbVertex
100
AcDb2dVertex
 10
93.37932289547278
 20
-143.9698457973406
 30
0.0
  0
VERTEX
  5
47
330
45
100
AcDbEntity
  8
_U+30EC_U+30A4_U+30E4_U+30FC 1
 62
   179
420
  2234388
370
    25
100
AcDbVertex
100
AcDb2dVertex
 10
76.42891555013593
 20
-127.0192969126895
 30
0.0
  0
SEQEND
  5
48
330
45
100
AcDbEntity
  8
_U+30EC_U+30A4_U+30E4_U+30FC 1
 62
   179
420
  2234388
370
    25
  0
POLYLINE
  5
49
330
41
100
AcDbEntity
  8
_U+30EC_U+30A4_U+30E4_U+30FC 1
 62
   179
420
  2234388
370
    25
100
AcDb2dPolyline
 66
     1
 10
0.0
 20
0.0
 30
0.0
  0
VERTEX
  5
4A
330
49
100
AcDbEntity
  8
_U+30EC_U+30A4_U+30E4_U+30FC 1
 62
   179
420
  2234388
370
    25
100
AcDbVertex
100
AcDb2dVertex
 10
93.10644929132326
 20
-144.9696180193131
 30
0.0
  0
VERTEX
  5
4B
330
49
100
AcDbEntity
  8
_U+30EC_U+30A4_U+30E4_U+30FC 1
 62
   179
420
  2234388
370
    25
100
AcDbVertex
100
AcDb2dVertex
 10
75.42914335342002
 20
-127.2921352459547
 30
0.0
  0
SEQEND
  5
4C
330
49
100
AcDbEntity
  8
_U+30EC_U+30A4_U+30E4_U+30FC 1
 62
   179
420
  2234388
370
    25
  0
POLYLINE
  5
4D
330
41
100
AcDbEntity
  8
_U+30EC_U+30A4_U+30E4_U+30FC 1
 62
   179
420
  2234388
370
    25
100
AcDb2dPolyline
 66
     1
 10
0.0
 20
0.0
 30
0.0
  0
VERTEX
  5
4E
330
4D
100
AcDbEntity
  8
_U+30EC_U+30A4_U+30E4_U+30FC 1
 62
   179
420
  2234388
370
    25
100
AcDbVertex
100
AcDb2dVertex
 10
93.37932289547278
 20
-143.9698457973406
 30
0.0
  0
VERTEX
  5
4F
330
4D
100
AcDbEntity
  8
_U+30EC_U+30A4_U+30E4_U+30FC 1
 62
   179
420
  2234388
370
    25
100
AcDbVertex
100
AcDb2dVertex
 10
113.3794587741157
 20
-143.9698457973406
 30
0.0
  0
SEQEND
  5
50
330
4D
100
AcDbEntity
  8
_U+30EC_U+30A4_U+30E4_U+30FC 1
 62
   179
420
  2234388
370
    25
  0
POLYLINE
  5
51
330
41
100
AcDbEntity
  8
_U+30EC_U+30A4_U+30E4_U+30FC 1
 62
   179
420
  2234388
370
    25
100
AcDb2dPolyline
 66
     1
 10
0.0
 20
0.0
 30
0.0
  0
VERTEX
  5
52
330
51
100
AcDbEntity
  8
_U+30EC_U+30A4_U+30E4_U+30FC 1
 62
   179
420
  2234388
370
    25
100
AcDbVertex
100
AcDb2dVertex
 10
113.3794587741157
 20
-143.9698457973406
 30
0.0
  0
VERTEX
  5
53
330
51
100
AcDbEntity
  8
_U+30EC_U+30A4_U+30E4_U+30FC 1
 62
   179
420
  2234388
370
    25
100
AcDbVertex
100
AcDb2dVertex
 10
113.3794587741157
 20
-144.470084686105
 30
0.0
  0
SEQEND
  5
54
330
51
100
AcDbEntity
  8
_U+30EC_U+30A4_U+30E4_U+30FC 1
 62
   179
420
  2234388
370
    25
  0
POLYLINE
  5
55
330
41
100
AcDbEntity
  8
_U+30EC_U+30A4_U+30E4_U+30FC 1
 62
   179
420
  2234388
370
    25
100
AcDb2dPolyline
 66
     1
 10
0.0
 20
0.0
 30
0.0
  0
VERTEX
  5
56
330
55
100
AcDbEntity
  8
_U+30EC_U+30A4_U+30E4_U+30FC 1
 62
   179
420
  2234388
370
    25
100
AcDbVertex
100
AcDb2dVertex
 10
93.10644929132326
 20
-144.9696180193131
 30
0.0
  0
VERTEX
  5
57
330
55
100
AcDbEntity
  8
_U+30EC_U+30A4_U+30E4_U+30FC 1
 62
   179
420
  2234388
370
    25
100
AcDbVertex
100
AcDb2dVertex
 10
113.3794587741157
 20
-144.470084686105
 30
0.0
  0
SEQEND
  5
58
330
55
100
AcDbEntity
  8
_U+30EC_U+30A4_U+30E4_U+30FC 1
 62
   179
420
  2234388
370
    25
  0
POLYLINE
  5
59
330
41
100
AcDbEntity
  8
_U+30EC_U+30A4_U+30E4_U+30FC 1
 62
   179
420
  2234388
370
    25
100
AcDb2dPolyline
 66
     1
 10
0.0
 20
0.0
 30
0.0
  0
VERTEX
  5
5A
330
59
100
AcDbEntity
  8
_U+30EC_U+30A4_U+30E4_U+30FC 1
 62
   179
420
  2234388
370
    25
100
AcDbVertex
100
AcDb2dVertex
 10
76.42891555013593
 20
-127.0192969126895
 30
0.0
  0
VERTEX
  5
5B
330
59
100
AcDbEntity
  8
_U+30EC_U+30A4_U+30E4_U+30FC 1
 62
   179
420
  2234388
370
    25
100
AcDbVertex
100
AcDb2dVertex
 10
76.42891555013593
 20
-107.0191252510232
 30
0.0
  0
SEQEND
  5
5C
330
59
100
AcDbEntity
  8
_U+30EC_U+30A4_U+30E4_U+30FC 1
 62
   179
420
  2234388
370
    25
  0
POLYLINE
  5
5D
330
41
100
AcDbEntity
  8
_U+30EC_U+30A4_U+30E4_U+30FC 1
 62
   179
420
  2234388
370
    25
100
AcDb2dPolyline
 66
     1
 10
0.0
 20
0.0
 30
0.0
  0
VERTEX
  5
5E
330
5D
100
AcDbEntity
  8
_U+30EC_U+30A4_U+30E4_U+30FC 1
 62
   179
420
  2234388
370
    25
100
AcDbVertex
100
AcDb2dVertex
 10
75.42914335342002
 20
-127.2921352459547
 30
0.0
  0
VERTEX
  5
5F
330
5D
100
AcDbEntity
  8
_U+30EC_U+30A4_U+30E4_U+30FC 1
 62
   179
420
  2234388
370
    25
100
AcDbVertex
100
AcDb2dVertex
 10
75.92938222954675
 20
-107.0191252510232
 30
0.0
  0
SEQEND
  5
60
330
5D
100
AcDbEntity
  8
_U+30EC_U+30A4_U+30E4_U+30FC 1
 62
   179
420
  2234388
370
    25
  0
POLYLINE
  5
61
330
41
100
AcDbEntity
  8
_U+30EC_U+30A4_U+30E4_U+30FC 1
 62
   179
420
  2234388
370
    25
100
AcDb2dPolyline
 66
     1
 10
0.0
 20
0.0
 30
0.0
  0
VERTEX
  5
62
330
61
100
AcDbEntity
  8
_U+30EC_U+30A4_U+30E4_U+30FC 1
 62
   179
420
  2234388
370
    25
100
AcDbVertex
100
AcDb2dVertex
 10
76.42891555013593
 20
-107.0191252510232
 30
0.0
  0
VERTEX
  5
63
330
61
100
AcDbEntity
  8
_U+30EC_U+30A4_U+30E4_U+30FC 1
 62
   179
420
  2234388
370
    25
100
AcDbVertex
100
AcDb2dVertex
 10
75.92938222954675
 20
-107.0191252510232
 30
0.0
  0
SEQEND
  5
64
330
61
100
AcDbEntity
  8
_U+30EC_U+30A4_U+30E4_U+30FC 1
 62
   179
420
  2234388
370
    25
  0
SPLINE
  5
65
330
41
100
AcDbEntity
  8
_U+30EC_U+30A4_U+30E4_U+30FC 1
 62
   179
420
  2234388
370
     9
100
AcDbSpline
210
0.0
220
0.0
230
1.0
 70
    11
 71
     3
 72
    17
 73
    13
 74
     0
 42
0.0000000001
 43
0.0000000001
 12
1.0
 22
0.0
 32
0.0
 13
1.0
 23
0.0
 33
0.0
 40
0.0
 40
0.0
 40
0.0
 40
0.0
 40
1.0
 40
1.0
 40
1.0
 40
2.0
 40
2.0
 40
2.0
 40
3.0
 40
3.0
 40
3.0
 40
4.0
 40
4.0
 40
4.0
 40
4.0
 10
113.4793654382335
 20
-148.9700474627574
 30
0.0
 10
113.4793654382335
 20
-148.914238018327
 30
0.0
 10
113.4345979393756
 20
-148.8694705183384
 30
0.0
 10
113.3794587741157
 20
-148.8694705183384
 30
0.0
 10
113.3243548866326
 20
-148.8694705183384
 30
0.0
 10
113.2795521099979
 20
-148.914238018327
 30
0.0
 10
113.2795521099979
 20
-148.9700474627574
 30
0.0
 10
113.2795521099979
 20
-149.0251866294105
 30
0.0
 10
113.3243548866326
 20
-149.069954129399
 30
0.0
 10
113.3794587741157
 20
-149.069954129399
 30
0.0
 10
113.4345979393756
 20
-149.069954129399
 30
0.0
 10
113.4793654382335
 20
-149.0251866294105
 30
0.0
 10
113.4793654382335
 20
-148.9700474627574
 30
0.0
  0
SPLINE
  5
66
330
41
100
AcDbEntity
  8
_U+30EC_U+30A4_U+30E4_U+30FC 1
 62
   179
420
  2234388
370
     9
100
AcDbSpline
210
0.0
220
0.0
230
1.0
 70
    11
 71
     3
 72
    17
 73
    13
 74
     0
 42
0.0000000001
 43
0.0000000001
 12
1.0
 22
0.0
 32
0.0
 13
1.0
 23
0.0
 33
0.0
 40
0.0
 40
0.0
 40
0.0
 40
0.0
 40
1.0
 40
1.0
 40
1.0
 40
2.0
 40
2.0
 40
2.0
 40
3.0
 40
3.0
 40
3.0
 40
4.0
 40
4.0
 40
4.0
 40
4.0
 10
90.37810130537365
 20
-147.7980491297169
 30
0.0
 10
90.37810130537365
 20
-147.7429099630644
 30
0.0
 10
90.33333608852782
 20
-147.6981424630752
 30
0.0
 10
90.27819464125582
 20
-147.6981424630752
 30
0.0
 10
90.22309075377275
 20
-147.6981424630752
 30
0.0
 10
90.17828797713798
 20
-147.7429099630644
 30
0.0
 10
90.17828797713798
 20
-147.7980491297169
 30
0.0
 10
90.17828797713798
 20
-147.8531530185925
 30
0.0
 10
90.22309075377275
 20
-147.8979557963592
 30
0.0
 10
90.27819464125582
 20
-147.8979557963592
 30
0.0
 10
90.33333608852782
 20
-147.8979557963592
 30
0.0
 10
90.37810130537365
 20
-147.8531530185925
 30
0.0
 10
90.37810130537365
 20
-147.7980491297169
 30
0.0
  0
SPLINE
  5
67
330
41
100
AcDbEntity
  8
_U+30EC_U+30A4_U+30E4_U+30FC 1
 62
   179
420
  2234388
370
     9
100
AcDbSpline
210
0.0
220
0.0
230
1.0
 70
    11
 71
     3
 72
    17
 73
    13
 74
     0
 42
0.0000000001
 43
0.0000000001
 12
1.0
 22
0.0
 32
0.0
 13
1.0
 23
0.0
 33
0.0
 40
0.0
 40
0.0
 40
0.0
 40
0.0
 40
1.0
 40
1.0
 40
1.0
 40
2.0
 40
2.0
 40
2.0
 40
3.0
 40
3.0
 40
3.0
 40
4.0
 40
4.0
 40
4.0
 40
4.0
 10
93.47922955959062
 20
-148.9700474627574
 30
0.0
 10
93.47922955959062
 20
-148.914238018327
 30
0.0
 10
93.43442678295585
 20
-148.8694705183384
 30
0.0
 10
93.37932289547278
 20
-148.8694705183384
 30
0.0
 10
93.32418608777981
 20
-148.8694705183384
 30
0.0
 10
93.27941623135494
 20
-148.914238018327
 30
0.0
 10
93.27941623135494
 20
-148.9700474627574
 30
0.0
 10
93.27941623135494
 20
-149.0251866294105
 30
0.0
 10
93.32418608777981
 20
-149.069954129399
 30
0.0
 10
93.37932289547278
 20
-149.069954129399
 30
0.0
 10
93.43442678295585
 20
-149.069954129399
 30
0.0
 10
93.47922955959062
 20
-149.0251866294105
 30
0.0
 10
93.47922955959062
 20
-148.9700474627574
 30
0.0
  0
SPLINE
  5
68
330
41
100
AcDbEntity
  8
_U+30EC_U+30A4_U+30E4_U+30FC 1
 62
   179
420
  2234388
370
     9
100
AcDbSpline
210
0.0
220
0.0
230
1.0
 70
    11
 71
     3
 72
    17
 73
    13
 74
     0
 42
0.0000000001
 43
0.0000000001
 12
1.0
 22
0.0
 32
0.0
 13
1.0
 23
0.0
 33
0.0
 40
0.0
 40
0.0
 40
0.0
 40
0.0
 40
1.0
 40
1.0
 40
1.0
 40
2.0
 40
2.0
 40
2.0
 40
3.0
 40
3.0
 40
3.0
 40
4.0
 40
4.0
 40
4.0
 40
4.0
 10
71.52932623069042
 20
-127.0192969126895
 30
0.0
 10
71.52932623069042
 20
-126.9641577460368
 30
0.0
 10
71.48452345405565
 20
-126.9193902460479
 30
0.0
 10
71.42941956657258
 20
-126.9193902460479
 30
0.0
 10
71.37357484577507
 20
-126.9193902460479
 30
0.0
 10
71.32880734691719
 20
-126.9641577460368
 30
0.0
 10
71.32880734691719
 20
-127.0192969126895
 30
0.0
 10
71.32880734691719
 20
-127.0744008015647
 30
0.0
 10
71.37357484577507
 20
-127.1192035793315
 30
0.0
 10
71.42941956657258
 20
-127.1192035793315
 30
0.0
 10
71.48452345405565
 20
-127.1192035793315
 30
0.0
 10
71.52932623069042
 20
-127.0744008015647
 30
0.0
 10
71.52932623069042
 20
-127.0192969126895
 30
0.0
  0
SPLINE
  5
69
330
41
100
AcDbEntity
  8
_U+30EC_U+30A4_U+30E4_U+30FC 1
 62
   179
420
  2234388
370
     9
100
AcDbSpline
210
0.0
220
0.0
230
1.0
 70
    11
 71
     3
 72
    17
 73
    13
 74
     0
 42
0.0000000001
 43
0.0000000001
 12
1.0
 22
0.0
 32
0.0
 13
1.0
 23
0.0
 33
0.0
 40
0.0
 40
0.0
 40
0.0
 40
0.0
 40
1.0
 40
1.0
 40
1.0
 40
2.0
 40
2.0
 40
2.0
 40
3.0
 40
3.0
 40
3.0
 40
4.0
 40
4.0
 40
4.0
 40
4.0
 10
72.7006542563629
 20
-130.1205663563587
 30
0.0
 10
72.7006542563629
 20
-130.0654624674838
 30
0.0
 10
72.65585147972814
 20
-130.0206596897171
 30
0.0
 10
72.60074759224507
 20
-130.0206596897171
 30
0.0
 10
72.54560842698511
 20
-130.0206596897171
 30
0.0
 10
72.50084092812723
 20
-130.0654624674838
 30
0.0
 10
72.50084092812723
 20
-130.1205663563587
 30
0.0
 10
72.50084092812723
 20
-130.1757055230118
 30
0.0
 10
72.54560842698511
 20
-130.2204730230004
 30
0.0
 10
72.60074759224507
 20
-130.2204730230004
 30
0.0
 10
72.65585147972814
 20
-130.2204730230004
 30
0.0
 10
72.7006542563629
 20
-130.1757055230118
 30
0.0
 10
72.7006542563629
 20
-130.1205663563587
 30
0.0
  0
SPLINE
  5
6A
330
41
100
AcDbEntity
  8
_U+30EC_U+30A4_U+30E4_U+30FC 1
 62
   179
420
  2234388
370
     9
100
AcDbSpline
210
0.0
220
0.0
230
1.0
 70
    11
 71
     3
 72
    17
 73
    13
 74
     0
 42
0.0000000001
 43
0.0000000001
 12
1.0
 22
0.0
 32
0.0
 13
1.0
 23
0.0
 33
0.0
 40
0.0
 40
0.0
 40
0.0
 40
0.0
 40
1.0
 40
1.0
 40
1.0
 40
2.0
 40
2.0
 40
2.0
 40
3.0
 40
3.0
 40
3.0
 40
4.0
 40
4.0
 40
4.0
 40
4.0
 10
71.52932623069042
 20
-107.0191252510232
 30
0.0
 10
71.52932623069042
 20
-106.9640213621479
 30
0.0
 10
71.48452345405565
 20
-106.9192185843812
 30
0.0
 10
71.42941956657258
 20
-106.9192185843812
 30
0.0
 10
71.37357484577507
 20
-106.9192185843812
 30
0.0
 10
71.32880734691719
 20
-106.9640213621479
 30
0.0
 10
71.32880734691719
 20
-107.0191252510232
 30
0.0
 10
71.32880734691719
 20
-107.0746171954537
 30
0.0
 10
71.37357484577507
 20
-107.1193846954422
 30
0.0
 10
71.42941956657258
 20
-107.1193846954422
 30
0.0
 10
71.48452345405565
 20
-107.1193846954422
 30
0.0
 10
71.52932623069042
 20
-107.0746171954537
 30
0.0
 10
71.52932623069042
 20
-107.0191252510232
 30
0.0
  0
POLYLINE
  5
6B
330
41
100
AcDbEntity
  8
_U+30EC_U+30A4_U+30E4_U+30FC 1
 62
   179
420
  2234388
370
     9
100
AcDb2dPolyline
 66
     1
 10
0.0
 20
0.0
 30
0.0
  0
VERTEX
  5
6C
330
6B
100
AcDbEntity
  8
_U+30EC_U+30A4_U+30E4_U+30FC 1
 62
   179
420
  2234388
370
     9
100
AcDbVertex
100
AcDb2dVertex
 10
72.60074759224507
 20
-130.1205663563587
 30
0.0
  0
VERTEX
  5
6D
330
6B
100
AcDbEntity
  8
_U+30EC_U+30A4_U+30E4_U+30FC 1
 62
   179
420
  2234388
370
     9
100
AcDbVertex
100
AcDb2dVertex
 10
90.27819464125582
 20
-147.7980491297169
 30
0.0
  0
SEQEND
  5
6E
330
6B
100
AcDbEntity
  8
_U+30EC_U+30A4_U+30E4_U+30FC 1
 62
   179
420
  2234388
370
     9
  0
POLYLINE
  5
6F
330
41
100
AcDbEntity
  8
_U+30EC_U+30A4_U+30E4_U+30FC 1
 62
   179
420
  2234388
370
     9
100
AcDb2dPolyline
 66
     1
 10
0.0
 20
0.0
 30
0.0
  0
VERTEX
  5
70
330
6F
100
AcDbEntity
  8
_U+30EC_U+30A4_U+30E4_U+30FC 1
 62
   179
420
  2234388
370
     9
100
AcDbVertex
100
AcDb2dVertex
 10
73.63286951035789
 20
-129.0884091343949
 30
0.0
  0
VERTEX
  5
71
330
6F
100
AcDbEntity
  8
_U+30EC_U+30A4_U+30E4_U+30FC 1
 62
   179
420
  2234388
370
     9
100
AcDbVertex
100
AcDb2dVertex
 10
71.8938162213915
 20
-130.8274977450708
 30
0.0
  0
SEQEND
  5
72
330
6F
100
AcDbEntity
  8
_U+30EC_U+30A4_U+30E4_U+30FC 1
 62
   179
420
  2234388
370
     9
  0
POLYLINE
  5
73
330
41
100
AcDbEntity
  8
_U+30EC_U+30A4_U+30E4_U+30FC 1
 62
   179
420
  2234388
370
     9
100
AcDb2dPolyline
 66
     1
 10
0.0
 20
0.0
 30
0.0
  0
VERTEX
  5
74
330
73
100
AcDbEntity
  8
_U+30EC_U+30A4_U+30E4_U+30FC 1
 62
   179
420
  2234388
370
     9
100
AcDbVertex
100
AcDb2dVertex
 10
91.31105739268307
 20
-146.765891907753
 30
0.0
  0
VERTEX
  5
75
330
73
100
AcDbEntity
  8
_U+30EC_U+30A4_U+30E4_U+30FC 1
 62
   179
420
  2234388
370
     9
100
AcDbVertex
100
AcDb2dVertex
 10
89.57126327040226
 20
-148.5056507962069
 30
0.0
  0
SEQEND
  5
76
330
73
100
AcDbEntity
  8
_U+30EC_U+30A4_U+30E4_U+30FC 1
 62
   179
420
  2234388
370
     9
  0
INSERT
  5
78
330
41
100
AcDbEntity
  8
_U+30EC_U+30A4_U+30E4_U+30FC 1
100
AcDbBlockReference
  2
block 3
 10
0.0
 20
0.0
 30
0.0
  0
POLYLINE
  5
7F
330
41
100
AcDbEntity
  8
_U+30EC_U+30A4_U+30E4_U+30FC 1
 62
   179
420
  2234388
370
     9
100
AcDb2dPolyline
 66
     1
 10
0.0
 20
0.0
 30
0.0
  0
VERTEX
  5
80
330
7F
100
AcDbEntity
  8
_U+30EC_U+30A4_U+30E4_U+30FC 1
 62
   179
420
  2234388
370
     9
100
AcDbVertex
100
AcDb2dVertex
 10
93.37932289547278
 20
-148.9700474627574
 30
0.0
  0
VERTEX
  5
81
330
7F
100
AcDbEntity
  8
_U+30EC_U+30A4_U+30E4_U+30FC 1
 62
   179
420
  2234388
370
     9
100
AcDbVertex
100
AcDb2dVertex
 10
113.3794587741157
 20
-148.9700474627574
 30
0.0
  0
SEQEND
  5
82
330
7F
100
AcDbEntity
  8
_U+30EC_U+30A4_U+30E4_U+30FC 1
 62
   179
420
  2234388
370
     9
  0
POLYLINE
  5
83
330
41
100
AcDbEntity
  8
_U+30EC_U+30A4_U+30E4_U+30FC 1
 62
   179
420
  2234388
370
     9
100
AcDb2dPolyline
 66
     1
 10
0.0
 20
0.0
 30
0.0
  0
VERTEX
  5
84
330
83
100
AcDbEntity
  8
_U+30EC_U+30A4_U+30E4_U+30FC 1
 62
   179
420
  2234388
370
     9
100
AcDbVertex
100
AcDb2dVertex
 10
93.37932289547278
 20
-146.5095635744838
 30
0.0
  0
VERTEX
  5
85
330
83
100
AcDbEntity
  8
_U+30EC_U+30A4_U+30E4_U+30FC 1
 62
   179
420
  2234388
370
     9
100
AcDbVertex
100
AcDb2dVertex
 10
93.37932289547278
 20
-149.9698196847299
 30
0.0
  0
SEQEND
  5
86
330
83
100
AcDbEntity
  8
_U+30EC_U+30A4_U+30E4_U+30FC 1
 62
   179
420
  2234388
370
     9
  0
POLYLINE
  5
87
330
41
100
AcDbEntity
  8
_U+30EC_U+30A4_U+30E4_U+30FC 1
 62
   179
420
  2234388
370
     9
100
AcDb2dPolyline
 66
     1
 10
0.0
 20
0.0
 30
0.0
  0
VERTEX
  5
88
330
87
100
AcDbEntity
  8
_U+30EC_U+30A4_U+30E4_U+30FC 1
 62
   179
420
  2234388
370
     9
100
AcDbVertex
100
AcDb2dVertex
 10
113.3794587741157
 20
-147.0098024632475
 30
0.0
  0
VERTEX
  5
89
330
87
100
AcDbEntity
  8
_U+30EC_U+30A4_U+30E4_U+30FC 1
 62
   179
420
  2234388
370
     9
100
AcDbVertex
100
AcDb2dVertex
 10
113.3794587741157
 20
-149.9698196847299
 30
0.0
  0
SEQEND
  5
8A
330
87
100
AcDbEntity
  8
_U+30EC_U+30A4_U+30E4_U+30FC 1
 62
   179
420
  2234388
370
     9
  0
INSERT
  5
8C
330
41
100
AcDbEntity
  8
_U+30EC_U+30A4_U+30E4_U+30FC 1
100
AcDbBlockReference
  2
block 4
 10
0.0
 20
0.0
 30
0.0
  0
POLYLINE
  5
94
330
41
100
AcDbEntity
  8
_U+30EC_U+30A4_U+30E4_U+30FC 1
 62
   179
420
  2234388
370
     9
100
AcDb2dPolyline
 66
     1
 10
0.0
 20
0.0
 30
0.0
  0
VERTEX
  5
95
330
94
100
AcDbEntity
  8
_U+30EC_U+30A4_U+30E4_U+30FC 1
 62
   179
420
  2234388
370
     9
100
AcDbVertex
100
AcDb2dVertex
 10
71.42941956657258
 20
-127.0192969126895
 30
0.0
  0
VERTEX
  5
96
330
94
100
AcDbEntity
  8
_U+30EC_U+30A4_U+30E4_U+30FC 1
 62
   179
420
  2234388
370
     9
100
AcDbVertex
100
AcDb2dVertex
 10
71.42941956657258
 20
-107.0191252510232
 30
0.0
  0
SEQEND
  5
97
330
94
100
AcDbEntity
  8
_U+30EC_U+30A4_U+30E4_U+30FC 1
 62
   179
420
  2234388
370
     9
  0
POLYLINE
  5
98
330
41
100
AcDbEntity
  8
_U+30EC_U+30A4_U+30E4_U+30FC 1
 62
   179
420
  2234388
370
     9
100
AcDb2dPolyline
 66
     1
 10
0.0
 20
0.0
 30
0.0
  0
VERTEX
  5
99
330
98
100
AcDbEntity
  8
_U+30EC_U+30A4_U+30E4_U+30FC 1
 62
   179
420
  2234388
370
     9
100
AcDbVertex
100
AcDb2dVertex
 10
73.88919783715174
 20
-127.0192969126895
 30
0.0
  0
VERTEX
  5
9A
330
98
100
AcDbEntity
  8
_U+30EC_U+30A4_U+30E4_U+30FC 1
 62
   179
420
  2234388
370
     9
100
AcDbVertex
100
AcDb2dVertex
 10
70.42894181431912
 20
-127.0192969126895
 30
0.0
  0
SEQEND
  5
9B
330
98
100
AcDbEntity
  8
_U+30EC_U+30A4_U+30E4_U+30FC 1
 62
   179
420
  2234388
370
     9
  0
POLYLINE
  5
9C
330
41
100
AcDbEntity
  8
_U+30EC_U+30A4_U+30E4_U+30FC 1
 62
   179
420
  2234388
370
     9
100
AcDb2dPolyline
 66
     1
 10
0.0
 20
0.0
 30
0.0
  0
VERTEX
  5
9D
330
9C
100
AcDbEntity
  8
_U+30EC_U+30A4_U+30E4_U+30FC 1
 62
   179
420
  2234388
370
     9
100
AcDbVertex
100
AcDb2dVertex
 10
73.38895896102501
 20
-107.0191252510232
 30
0.0
  0
VERTEX
  5
9E
330
9C
100
AcDbEntity
  8
_U+30EC_U+30A4_U+30E4_U+30FC 1
 62
   179
420
  2234388
370
     9
100
AcDbVertex
100
AcDb2dVertex
 10
70.42894181431912
 20
-107.0191252510232
 30
0.0
  0
SEQEND
  5
9F
330
9C
100
AcDbEntity
  8
_U+30EC_U+30A4_U+30E4_U+30FC 1
 62
   179
420
  2234388
370
     9
  0
INSERT
  5
A1
330
41
100
AcDbEntity
  8
_U+30EC_U+30A4_U+30E4_U+30FC 1
100
AcDbBlockReference
  2
block 5
 10
0.0
 20
0.0
 30
0.0
  0
ENDBLK
  5
44
330
41
100
AcDbEntity
  8
0
100
AcDbBlockEnd
  0
BLOCK
  5
79
330
77
100
AcDbEntity
  8
0
100
AcDbBlockBegin
  2
block 3
 70
     0
 10
0.0
 20
0.0
 30
0.0
  3
block 3
  1

  0
SPLINE
  5
7B
330
77
100
AcDbEntity
  8
_U+30EC_U+30A4_U+30E4_U+30FC 1
370
     0
100
AcDbSpline
210
0.0
220
0.0
230
1.0
 70
    11
 71
     3
 72
    44
 73
    40
 74
     0
 42
0.0000000001
 43
0.0000000001
 12
1.0
 22
0.0
 32
0.0
 13
1.0
 23
0.0
 33
0.0
 40
0.0
 40
0.0
 40
0.0
 40
0.0
 40
1.0
 40
1.0
 40
1.0
 40
2.0
 40
2.0
 40
2.0
 40
3.0
 40
3.0
 40
3.0
 40
4.0
 40
4.0
 40
4.0
 40
5.0
 40
5.0
 40
5.0
 40
6.0
 40
6.0
 40
6.0
 40
7.0
 40
7.0
 40
7.0
 40
8.0
 40
8.0
 40
8.0
 40
9.0
 40
9.0
 40
9.0
 40
10.0
 40
10.0
 40
10.0
 40
11.0
 40
11.0
 40
11.0
 40
12.0
 40
12.0
 40
12.0
 40
13.0
 40
13.0
 40
13.0
 40
13.0
 10
82.2175482650359
 20
-137.9343885288845
 30
0.0
 10
81.95141463880034
 20
-137.8923583639644
 30
0.0
 10
81.83324786365627
 20
-137.878922491572
 30
0.0
 10
81.69682208244038
 20
-137.9461018535343
 30
0.0
 10
81.69682208244038
 20
-137.9461018535343
 30
0.0
 10
82.24734834098331
 20
-138.4966281120772
 30
0.0
 10
82.24734834098331
 20
-138.4966281120772
 30
0.0
 10
82.24734834098331
 20
-138.4966281120772
 30
0.0
 10
82.10213756628002
 20
-138.6416666320063
 30
0.0
 10
82.10213756628002
 20
-138.6416666320063
 30
0.0
 10
82.10213756628002
 20
-138.6416666320063
 30
0.0
 10
81.3752224188923
 20
-137.9147514846185
 30
0.0
 10
81.3752224188923
 20
-137.9147514846185
 30
0.0
 10
81.65048554816377
 20
-137.6842745966553
 30
0.0
 10
81.7522881197529
 20
-137.6753173483937
 30
0.0
 10
82.23546276155919
 20
-137.7366400480311
 30
0.0
 10
82.55723467988153
 20
-137.7772921747571
 30
0.0
 10
82.65128578662885
 20
-137.7755696270144
 30
0.0
 10
82.7484374793129
 20
-137.6784179343304
 30
0.0
 10
82.83232555437873
 20
-137.5947021140388
 30
0.0
 10
82.87401120975025
 20
-137.4506971227554
 30
0.0
 10
82.73517386169468
 20
-137.3118597746998
 30
0.0
 10
82.55120576278235
 20
-137.1278916757875
 30
0.0
 10
82.38205157445657
 20
-137.2849880299149
 30
0.0
 10
82.29661320642238
 20
-137.3642252260756
 30
0.0
 10
82.29661320642238
 20
-137.3642252260756
 30
0.0
 10
82.13813881410088
 20
-137.2057508337541
 30
0.0
 10
82.13813881410088
 20
-137.2057508337541
 30
0.0
 10
82.2340847233651
 20
-137.1220350134626
 30
0.0
 10
82.3209011295934
 20
-137.0503770273694
 30
0.0
 10
82.46163328016584
 20
-137.0235052825844
 30
0.0
 10
82.65283607959721
 20
-136.9873317799893
 30
0.0
 10
82.8085543955305
 20
-137.0951632686776
 30
0.0
 10
82.89054766807945
 20
-137.1771565412265
 30
0.0
 10
83.08657360119017
 20
-137.3731824743373
 30
0.0
 10
83.10328231429362
 20
-137.6501681513514
 30
0.0
 10
82.91035696711964
 20
-137.8430934985253
 30
0.0
 10
82.74878198886142
 20
-138.0046684767836
 30
0.0
 10
82.59616425886485
 20
-137.9926106425852
 30
0.0
 10
82.2175482650359
 20
-137.9343885288845
 30
0.0
  0
HATCH
  5
7C
330
77
100
AcDbEntity
  8
_U+30EC_U+30A4_U+30E4_U+30FC 1
 62
   179
420
  2234388
100
AcDbHatch
 10
0.0
 20
0.0
 30
0.0
210
0.0
220
0.0
230
1.0
  2
SOLID
 70
     1
 71
     0
 91
        1
 92
        1
 93
        1
 72
     4
 94
        3
 73
     0
 74
     1
 95
       44
 96
       40
 40
0.0
 40
0.0
 40
0.0
 40
0.0
 40
1.0
 40
1.0
 40
1.0
 40
2.0
 40
2.0
 40
2.0
 40
3.0
 40
3.0
 40
3.0
 40
4.0
 40
4.0
 40
4.0
 40
5.0
 40
5.0
 40
5.0
 40
6.0
 40
6.0
 40
6.0
 40
7.0
 40
7.0
 40
7.0
 40
8.0
 40
8.0
 40
8.0
 40
9.0
 40
9.0
 40
9.0
 40
10.0
 40
10.0
 40
10.0
 40
11.0
 40
11.0
 40
11.0
 40
12.0
 40
12.0
 40
12.0
 40
13.0
 40
13.0
 40
13.0
 40
13.0
 10
82.2175482650359
 20
-137.9343885288845
 10
81.95141463880034
 20
-137.8923583639644
 10
81.83324786365627
 20
-137.878922491572
 10
81.69682208244038
 20
-137.9461018535343
 10
81.69682208244038
 20
-137.9461018535343
 10
82.24734834098331
 20
-138.4966281120772
 10
82.24734834098331
 20
-138.4966281120772
 10
82.24734834098331
 20
-138.4966281120772
 10
82.10213756628002
 20
-138.6416666320063
 10
82.10213756628002
 20
-138.6416666320063
 10
82.10213756628002
 20
-138.6416666320063
 10
81.3752224188923
 20
-137.9147514846185
 10
81.3752224188923
 20
-137.9147514846185
 10
81.65048554816377
 20
-137.6842745966553
 10
81.7522881197529
 20
-137.6753173483937
 10
82.23546276155919
 20
-137.7366400480311
 10
82.55723467988153
 20
-137.7772921747571
 10
82.65128578662885
 20
-137.7755696270144
 10
82.7484374793129
 20
-137.6784179343304
 10
82.83232555437873
 20
-137.5947021140388
 10
82.87401120975025
 20
-137.4506971227554
 10
82.73517386169468
 20
-137.3118597746998
 10
82.55120576278235
 20
-137.1278916757875
 10
82.38205157445657
 20
-137.2849880299149
 10
82.29661320642238
 20
-137.3642252260756
 10
82.29661320642238
 20
-137.3642252260756
 10
82.13813881410088
 20
-137.2057508337541
 10
82.13813881410088
 20
-137.2057508337541
 10
82.2340847233651
 20
-137.1220350134626
 10
82.3209011295934
 20
-137.0503770273694
 10
82.46163328016584
 20
-137.0235052825844
 10
82.65283607959721
 20
-136.9873317799893
 10
82.8085543955305
 20
-137.0951632686776
 10
82.89054766807945
 20
-137.1771565412265
 10
83.08657360119017
 20
-137.3731824743373
 10
83.10328231429362
 20
-137.6501681513514
 10
82.91035696711964
 20
-137.8430934985253
 10
82.74878198886142
 20
-138.0046684767836
 10
82.59616425886485
 20
-137.9926106425852
 10
82.2175482650359
 20
-137.9343885288845
 97
        0
 97
        0
 75
     2
 76
     1
 98
        0
  0
SPLINE
  5
7D
330
77
100
AcDbEntity
  8
_U+30EC_U+30A4_U+30E4_U+30FC 1
370
     0
100
AcDbSpline
210
0.0
220
0.0
230
1.0
 70
    11
 71
     3
 72
    53
 73
    49
 74
     0
 42
0.0000000001
 43
0.0000000001
 12
1.0
 22
0.0
 32
0.0
 13
1.0
 23
0.0
 33
0.0
 40
0.0
 40
0.0
 40
0.0
 40
0.0
 40
1.0
 40
1.0
 40
1.0
 40
2.0
 40
2.0
 40
2.0
 40
3.0
 40
3.0
 40
3.0
 40
4.0
 40
4.0
 40
4.0
 40
5.0
 40
5.0
 40
5.0
 40
6.0
 40
6.0
 40
6.0
 40
7.0
 40
7.0
 40
7.0
 40
8.0
 40
8.0
 40
8.0
 40
9.0
 40
9.0
 40
9.0
 40
10.0
 40
10.0
 40
10.0
 40
11.0
 40
11.0
 40
11.0
 40
12.0
 40
12.0
 40
12.0
 40
13.0
 40
13.0
 40
13.0
 40
14.0
 40
14.0
 40
14.0
 40
15.0
 40
15.0
 40
15.0
 40
16.0
 40
16.0
 40
16.0
 40
16.0
 10
82.52312823457756
 20
-139.134315286397
 30
0.0
 10
82.46800670681355
 20
-139.079193758633
 30
0.0
 10
82.40788979059595
 20
-138.9951334287929
 30
0.0
 10
82.38119030058526
 20
-138.8786892013914
 30
0.0
 10
82.33623180450275
 20
-138.6781846441499
 30
0.0
 10
82.41391870769513
 20
-138.5703531554616
 30
0.0
 10
82.47679170030095
 20
-138.4807806728451
 30
0.0
 10
82.47679170030095
 20
-138.4807806728451
 30
0.0
 10
82.63388805442834
 20
-138.6378770269725
 30
0.0
 10
82.63388805442834
 20
-138.6378770269725
 30
0.0
 10
82.53208548283921
 20
-138.817366501754
 30
0.0
 10
82.60115964731847
 20
-138.928298576379
 30
0.0
 10
82.66661646153821
 20
-138.9937553905988
 30
0.0
 10
82.76549070196488
 20
-139.0926296310255
 30
0.0
 10
82.94325762900377
 20
-139.1294921527176
 30
0.0
 10
83.10776093842445
 20
-138.9651610980712
 30
0.0
 10
83.28880070617433
 20
-138.7839490755471
 30
0.0
 10
83.21111380298194
 20
-138.6075601867023
 30
0.0
 10
83.12601994449628
 20
-138.5224663282166
 30
0.0
 10
83.10362682384215
 20
-138.5000732075625
 30
0.0
 10
83.00337454522138
 20
-138.3998209289417
 30
0.0
 10
82.84937877703071
 20
-138.4284152214693
 30
0.0
 10
82.84937877703071
 20
-138.4284152214693
 30
0.0
 10
82.73844670240567
 20
-138.2906114020593
 30
0.0
 10
82.73844670240567
 20
-138.2906114020593
 30
0.0
 10
82.73844670240567
 20
-138.2906114020593
 30
0.0
 10
83.42229815622777
 20
-137.7776366843056
 30
0.0
 10
83.42229815622777
 20
-137.7776366843056
 30
0.0
 10
83.42229815622777
 20
-137.7776366843056
 30
0.0
 10
83.97282441477068
 20
-138.3281629428485
 30
0.0
 10
83.97282441477068
 20
-138.3281629428485
 30
0.0
 10
83.97282441477068
 20
-138.3281629428485
 30
0.0
 10
83.83519285013496
 20
-138.4659667622585
 30
0.0
 10
83.83519285013496
 20
-138.4659667622585
 30
0.0
 10
83.83519285013496
 20
-138.4659667622585
 30
0.0
 10
83.39973278079938
 20
-138.0305066929229
 30
0.0
 10
83.39973278079938
 20
-138.0305066929229
 30
0.0
 10
83.39973278079938
 20
-138.0305066929229
 30
0.0
 10
83.05436195840308
 20
-138.2833767015403
 30
0.0
 10
83.05436195840308
 20
-138.2833767015403
 30
0.0
 10
83.12171357513971
 20
-138.3030137458062
 30
0.0
 10
83.20835772659375
 20
-138.3326415669793
 30
0.0
 10
83.29207354688532
 20
-138.4163573872709
 30
0.0
 10
83.47156302166684
 20
-138.5958468620524
 30
0.0
 10
83.50739201471343
 20
-138.8948811501721
 30
0.0
 10
83.28587237501186
 20
-139.1164007898737
 30
0.0
 10
83.0615966589221
 20
-139.3406765059634
 30
0.0
 10
82.73706866421156
 20
-139.348255716031
 30
0.0
 10
82.52312823457756
 20
-139.134315286397
 30
0.0
  0
HATCH
  5
7E
330
77
100
AcDbEntity
  8
_U+30EC_U+30A4_U+30E4_U+30FC 1
 62
   179
420
  2234388
100
AcDbHatch
 10
0.0
 20
0.0
 30
0.0
210
0.0
220
0.0
230
1.0
  2
SOLID
 70
     1
 71
     0
 91
        1
 92
        1
 93
        1
 72
     4
 94
        3
 73
     0
 74
     1
 95
       53
 96
       49
 40
0.0
 40
0.0
 40
0.0
 40
0.0
 40
1.0
 40
1.0
 40
1.0
 40
2.0
 40
2.0
 40
2.0
 40
3.0
 40
3.0
 40
3.0
 40
4.0
 40
4.0
 40
4.0
 40
5.0
 40
5.0
 40
5.0
 40
6.0
 40
6.0
 40
6.0
 40
7.0
 40
7.0
 40
7.0
 40
8.0
 40
8.0
 40
8.0
 40
9.0
 40
9.0
 40
9.0
 40
10.0
 40
10.0
 40
10.0
 40
11.0
 40
11.0
 40
11.0
 40
12.0
 40
12.0
 40
12.0
 40
13.0
 40
13.0
 40
13.0
 40
14.0
 40
14.0
 40
14.0
 40
15.0
 40
15.0
 40
15.0
 40
16.0
 40
16.0
 40
16.0
 40
16.0
 10
82.52312823457756
 20
-139.134315286397
 10
82.46800670681355
 20
-139.079193758633
 10
82.40788979059595
 20
-138.9951334287929
 10
82.38119030058526
 20
-138.8786892013914
 10
82.33623180450275
 20
-138.6781846441499
 10
82.41391870769513
 20
-138.5703531554616
 10
82.47679170030095
 20
-138.4807806728451
 10
82.47679170030095
 20
-138.4807806728451
 10
82.63388805442834
 20
-138.6378770269725
 10
82.63388805442834
 20
-138.6378770269725
 10
82.53208548283921
 20
-138.817366501754
 10
82.60115964731847
 20
-138.928298576379
 10
82.66661646153821
 20
-138.9937553905988
 10
82.76549070196488
 20
-139.0926296310255
 10
82.94325762900377
 20
-139.1294921527176
 10
83.10776093842445
 20
-138.9651610980712
 10
83.28880070617433
 20
-138.7839490755471
 10
83.21111380298194
 20
-138.6075601867023
 10
83.12601994449628
 20
-138.5224663282166
 10
83.10362682384215
 20
-138.5000732075625
 10
83.00337454522138
 20
-138.3998209289417
 10
82.84937877703071
 20
-138.4284152214693
 10
82.84937877703071
 20
-138.4284152214693
 10
82.73844670240567
 20
-138.2906114020593
 10
82.73844670240567
 20
-138.2906114020593
 10
82.73844670240567
 20
-138.2906114020593
 10
83.42229815622777
 20
-137.7776366843056
 10
83.42229815622777
 20
-137.7776366843056
 10
83.42229815622777
 20
-137.7776366843056
 10
83.97282441477068
 20
-138.3281629428485
 10
83.97282441477068
 20
-138.3281629428485
 10
83.97282441477068
 20
-138.3281629428485
 10
83.83519285013496
 20
-138.4659667622585
 10
83.83519285013496
 20
-138.4659667622585
 10
83.83519285013496
 20
-138.4659667622585
 10
83.39973278079938
 20
-138.0305066929229
 10
83.39973278079938
 20
-138.0305066929229
 10
83.39973278079938
 20
-138.0305066929229
 10
83.05436195840308
 20
-138.2833767015403
 10
83.05436195840308
 20
-138.2833767015403
 10
83.12171357513971
 20
-138.3030137458062
 10
83.20835772659375
 20
-138.3326415669793
 10
83.29207354688532
 20
-138.4163573872709
 10
83.47156302166684
 20
-138.5958468620524
 10
83.50739201471343
 20
-138.8948811501721
 10
83.28587237501186
 20
-139.1164007898737
 10
83.0615966589221
 20
-139.3406765059634
 10
82.73706866421156
 20
-139.348255716031
 10
82.52312823457756
 20
-139.134315286397
 97
        0
 97
        0
 75
     2
 76
     1
 98
        0
  0
ENDBLK
  5
7A
330
77
100
AcDbEntity
  8
0
100
AcDbBlockEnd
  0
BLOCK
  5
8D
330
8B
100
AcDbEntity
  8
0
100
AcDbBlockBegin
  2
block 4
 70
     0
 10
0.0
 20
0.0
 30
0.0
  3
block 4
  1

  0
SPLINE
  5
8F
330
8B
100
AcDbEntity
  8
_U+30EC_U+30A4_U+30E4_U+30FC 1
370
     0
100
AcDbSpline
210
0.0
220
0.0
230
1.0
 70
    11
 71
     3
 72
    44
 73
    40
 74
     0
 42
0.0000000001
 43
0.0000000001
 12
1.0
 22
0.0
 32
0.0
 13
1.0
 23
0.0
 33
0.0
 40
0.0
 40
0.0
 40
0.0
 40
0.0
 40
1.0
 40
1.0
 40
1.0
 40
2.0
 40
2.0
 40
2.0
 40
3.0
 40
3.0
 40
3.0
 40
4.0
 40
4.0
 40
4.0
 40
5.0
 40
5.0
 40
5.0
 40
6.0
 40
6.0
 40
6.0
 40
7.0
 40
7.0
 40
7.0
 40
8.0
 40
8.0
 40
8.0
 40
9.0
 40
9.0
 40
9.0
 40
10.0
 40
10.0
 40
10.0
 40
11.0
 40
11.0
 40
11.0
 40
12.0
 40
12.0
 40
12.0
 40
13.0
 40
13.0
 40
13.0
 40
13.0
 10
102.8081949612771
 20
-147.6747069943313
 30
0.0
 10
102.5904649266093
 20
-147.8335258962013
 30
0.0
 10
102.4974473485076
 20
-147.9075954491342
 30
0.0
 10
102.448526992617
 20
-148.0512559308691
 30
0.0
 10
102.448526992617
 20
-148.0512559308691
 30
0.0
 10
103.2271185722835
 20
-148.0512559308691
 30
0.0
 10
103.2271185722835
 20
-148.0512559308691
 30
0.0
 10
103.2271185722835
 20
-148.0512559308691
 30
0.0
 10
103.2271185722835
 20
-148.25658362179
 30
0.0
 10
103.2271185722835
 20
-148.25658362179
 30
0.0
 10
103.2271185722835
 20
-148.25658362179
 30
0.0
 10
102.1991020794849
 20
-148.25658362179
 30
0.0
 10
102.1991020794849
 20
-148.25658362179
 30
0.0
 10
102.2307969579493
 20
-147.8989827104211
 30
0.0
 10
102.296253772169
 20
-147.8207790429059
 30
0.0
 10
102.6814154474199
 20
-147.5224337738833
 30
0.0
 10
102.937386041974
 20
-147.3236517643844
 30
0.0
 10
103.0028428561937
 20
-147.2557833833249
 30
0.0
 10
103.0028428561937
 20
-147.1183240734635
 30
0.0
 10
103.0028428561937
 20
-146.9998127887709
 30
0.0
 10
102.930840360552
 20
-146.8688991603314
 30
0.0
 10
102.7341254083443
 20
-146.8688991603314
 30
0.0
 10
102.4740206992079
 20
-146.8688991603314
 30
0.0
 10
102.4654079604948
 20
-147.0993760482946
 30
0.0
 10
102.4612738459125
 20
-147.215820275696
 30
0.0
 10
102.4612738459125
 20
-147.215820275696
 30
0.0
 10
102.2369981298227
 20
-147.215820275696
 30
0.0
 10
102.2369981298227
 20
-147.215820275696
 30
0.0
 10
102.2456108685358
 20
-147.0886962522903
 30
0.0
 10
102.2562906645401
 20
-146.9767306490197
 30
0.0
 10
102.3365613893464
 20
-146.8582193643271
 30
0.0
 10
102.4464599353259
 20
-146.6973334051659
 30
0.0
 10
102.6328396010779
 20
-146.6635714694105
 30
0.0
 10
102.7489393189308
 20
-146.6635714694105
 30
0.0
 10
103.0262695054934
 20
-146.6635714694105
 30
0.0
 10
103.2336642537055
 20
-146.8475395683228
 30
0.0
 10
103.2336642537055
 20
-147.1203911307546
 30
0.0
 10
103.2336642537055
 20
-147.3491454709752
 30
0.0
 10
103.117220026304
 20
-147.4483642209504
 30
0.0
 10
102.8081949612771
 20
-147.6747069943313
 30
0.0
  0
HATCH
  5
90
330
8B
100
AcDbEntity
  8
_U+30EC_U+30A4_U+30E4_U+30FC 1
 62
   179
420
  2234388
100
AcDbHatch
 10
0.0
 20
0.0
 30
0.0
210
0.0
220
0.0
230
1.0
  2
SOLID
 70
     1
 71
     0
 91
        1
 92
        1
 93
        1
 72
     4
 94
        3
 73
     0
 74
     1
 95
       44
 96
       40
 40
0.0
 40
0.0
 40
0.0
 40
0.0
 40
1.0
 40
1.0
 40
1.0
 40
2.0
 40
2.0
 40
2.0
 40
3.0
 40
3.0
 40
3.0
 40
4.0
 40
4.0
 40
4.0
 40
5.0
 40
5.0
 40
5.0
 40
6.0
 40
6.0
 40
6.0
 40
7.0
 40
7.0
 40
7.0
 40
8.0
 40
8.0
 40
8.0
 40
9.0
 40
9.0
 40
9.0
 40
10.0
 40
10.0
 40
10.0
 40
11.0
 40
11.0
 40
11.0
 40
12.0
 40
12.0
 40
12.0
 40
13.0
 40
13.0
 40
13.0
 40
13.0
 10
102.8081949612771
 20
-147.6747069943313
 10
102.5904649266093
 20
-147.8335258962013
 10
102.4974473485076
 20
-147.9075954491342
 10
102.448526992617
 20
-148.0512559308691
 10
102.448526992617
 20
-148.0512559308691
 10
103.2271185722835
 20
-148.0512559308691
 10
103.2271185722835
 20
-148.0512559308691
 10
103.2271185722835
 20
-148.0512559308691
 10
103.2271185722835
 20
-148.25658362179
 10
103.2271185722835
 20
-148.25658362179
 10
103.2271185722835
 20
-148.25658362179
 10
102.1991020794849
 20
-148.25658362179
 10
102.1991020794849
 20
-148.25658362179
 10
102.2307969579493
 20
-147.8989827104211
 10
102.296253772169
 20
-147.8207790429059
 10
102.6814154474199
 20
-147.5224337738833
 10
102.937386041974
 20
-147.3236517643844
 10
103.0028428561937
 20
-147.2557833833249
 10
103.0028428561937
 20
-147.1183240734635
 10
103.0028428561937
 20
-146.9998127887709
 10
102.930840360552
 20
-146.8688991603314
 10
102.7341254083443
 20
-146.8688991603314
 10
102.4740206992079
 20
-146.8688991603314
 10
102.4654079604948
 20
-147.0993760482946
 10
102.4612738459125
 20
-147.215820275696
 10
102.4612738459125
 20
-147.215820275696
 10
102.2369981298227
 20
-147.215820275696
 10
102.2369981298227
 20
-147.215820275696
 10
102.2456108685358
 20
-147.0886962522903
 10
102.2562906645401
 20
-146.9767306490197
 10
102.3365613893464
 20
-146.8582193643271
 10
102.4464599353259
 20
-146.6973334051659
 10
102.6328396010779
 20
-146.6635714694105
 10
102.7489393189308
 20
-146.6635714694105
 10
103.0262695054934
 20
-146.6635714694105
 10
103.2336642537055
 20
-146.8475395683228
 10
103.2336642537055
 20
-147.1203911307546
 10
103.2336642537055
 20
-147.3491454709752
 10
103.117220026304
 20
-147.4483642209504
 10
102.8081949612771
 20
-147.6747069943313
 97
        0
 97
        0
 75
     2
 76
     1
 98
        0
  0
SPLINE
  5
91
330
8B
100
AcDbEntity
  8
_U+30EC_U+30A4_U+30E4_U+30FC 1
370
     0
100
AcDbSpline
210
0.0
220
0.0
230
1.0
 70
    11
 71
     3
 72
    29
 73
    25
 74
     0
 42
0.0000000001
 43
0.0000000001
 12
1.0
 22
0.0
 32
0.0
 13
1.0
 23
0.0
 33
0.0
 40
0.0
 40
0.0
 40
0.0
 40
0.0
 40
1.0
 40
1.0
 40
1.0
 40
2.0
 40
2.0
 40
2.0
 40
3.0
 40
3.0
 40
3.0
 40
4.0
 40
4.0
 40
4.0
 40
5.0
 40
5.0
 40
5.0
 40
6.0
 40
6.0
 40
6.0
 40
7.0
 40
7.0
 40
7.0
 40
8.0
 40
8.0
 40
8.0
 40
8.0
 10
104.2899305294831
 20
-148.0788166947511
 30
0.0
 10
104.1817545312462
 20
-148.2882785002543
 30
0.0
 10
104.0084662283382
 20
-148.3072265254232
 30
0.0
 10
103.8920220009367
 20
-148.3072265254232
 30
0.0
 10
103.7311360417756
 20
-148.3072265254232
 30
0.0
 10
103.5895426173318
 20
-148.2607177363723
 30
0.0
 10
103.4944579819389
 20
-148.0788166947511
 30
0.0
 10
103.3907606078329
 20
-147.8841687998345
 30
0.0
 10
103.3714680731155
 20
-147.6471462304493
 30
0.0
 10
103.3714680731155
 20
-147.4845377235455
 30
0.0
 10
103.3714680731155
 20
-147.3405327322621
 30
0.0
 10
103.3886935505417
 20
-147.0886962522903
 30
0.0
 10
103.4944579819389
 20
-146.8899142427914
 30
0.0
 10
103.6022894706272
 20
-146.6869981187102
 30
0.0
 10
103.7631754297884
 20
-146.6635714694105
 30
0.0
 10
103.8920220009367
 20
-146.6635714694105
 30
0.0
 10
104.0508409028067
 20
-146.6635714694105
 30
0.0
 10
104.1945013845417
 20
-146.7080132011702
 30
0.0
 10
104.2899305294831
 20
-146.8899142427914
 30
0.0
 10
104.3891492794583
 20
-147.0824950804169
 30
0.0
 10
104.412575928758
 20
-147.310904911089
 30
0.0
 10
104.412575928758
 20
-147.4845377235455
 30
0.0
 10
104.412575928758
 20
-147.6557589691625
 30
0.0
 10
104.3912163367494
 20
-147.8862358571257
 30
0.0
 10
104.2899305294831
 20
-148.0788166947511
 30
0.0
  0
SPLINE
  5
92
330
8B
100
AcDbEntity
  8
_U+30EC_U+30A4_U+30E4_U+30FC 1
370
     0
100
AcDbSpline
210
0.0
220
0.0
230
1.0
 70
    11
 71
     3
 72
    17
 73
    13
 74
     0
 42
0.0000000001
 43
0.0000000001
 12
1.0
 22
0.0
 32
0.0
 13
1.0
 23
0.0
 33
0.0
 40
0.0
 40
0.0
 40
0.0
 40
0.0
 40
1.0
 40
1.0
 40
1.0
 40
2.0
 40
2.0
 40
2.0
 40
3.0
 40
3.0
 40
3.0
 40
4.0
 40
4.0
 40
4.0
 40
4.0
 10
103.8920220009367
 20
-146.856152307036
 30
0.0
 10
103.6422525782561
 20
-146.856152307036
 30
0.0
 10
103.5957437892052
 20
-147.139683665472
 30
0.0
 10
103.5957437892052
 20
-147.4845377235455
 30
0.0
 10
103.5957437892052
 20
-147.8038980750282
 30
0.0
 10
103.6319172918004
 20
-148.1125786305066
 30
0.0
 10
103.8920220009367
 20
-148.1125786305066
 30
0.0
 10
104.1397243663262
 20
-148.1125786305066
 30
0.0
 10
104.1883002126682
 20
-147.8314588389102
 30
0.0
 10
104.1883002126682
 20
-147.4845377235455
 30
0.0
 10
104.1883002126682
 20
-147.1648328625143
 30
0.0
 10
104.1500596527819
 20
-146.856152307036
 30
0.0
 10
103.8920220009367
 20
-146.856152307036
 30
0.0
  0
HATCH
  5
93
330
8B
100
AcDbEntity
  8
_U+30EC_U+30A4_U+30E4_U+30FC 1
 62
   179
420
  2234388
100
AcDbHatch
 10
0.0
 20
0.0
 30
0.0
210
0.0
220
0.0
230
1.0
  2
SOLID
 70
     1
 71
     0
 91
        2
 92
        1
 93
        1
 72
     4
 94
        3
 73
     0
 74
     1
 95
       29
 96
       25
 40
0.0
 40
0.0
 40
0.0
 40
0.0
 40
1.0
 40
1.0
 40
1.0
 40
2.0
 40
2.0
 40
2.0
 40
3.0
 40
3.0
 40
3.0
 40
4.0
 40
4.0
 40
4.0
 40
5.0
 40
5.0
 40
5.0
 40
6.0
 40
6.0
 40
6.0
 40
7.0
 40
7.0
 40
7.0
 40
8.0
 40
8.0
 40
8.0
 40
8.0
 10
104.2899305294831
 20
-148.0788166947511
 10
104.1817545312462
 20
-148.2882785002543
 10
104.0084662283382
 20
-148.3072265254232
 10
103.8920220009367
 20
-148.3072265254232
 10
103.7311360417756
 20
-148.3072265254232
 10
103.5895426173318
 20
-148.2607177363723
 10
103.4944579819389
 20
-148.0788166947511
 10
103.3907606078329
 20
-147.8841687998345
 10
103.3714680731155
 20
-147.6471462304493
 10
103.3714680731155
 20
-147.4845377235455
 10
103.3714680731155
 20
-147.3405327322621
 10
103.3886935505417
 20
-147.0886962522903
 10
103.4944579819389
 20
-146.8899142427914
 10
103.6022894706272
 20
-146.6869981187102
 10
103.7631754297884
 20
-146.6635714694105
 10
103.8920220009367
 20
-146.6635714694105
 10
104.0508409028067
 20
-146.6635714694105
 10
104.1945013845417
 20
-146.7080132011702
 10
104.2899305294831
 20
-146.8899142427914
 10
104.3891492794583
 20
-147.0824950804169
 10
104.412575928758
 20
-147.310904911089
 10
104.412575928758
 20
-147.4845377235455
 10
104.412575928758
 20
-147.6557589691625
 10
104.3912163367494
 20
-147.8862358571257
 10
104.2899305294831
 20
-148.0788166947511
 97
        0
 97
        0
 92
        1
 93
        1
 72
     4
 94
        3
 73
     0
 74
     1
 95
       17
 96
       13
 40
0.0
 40
0.0
 40
0.0
 40
0.0
 40
1.0
 40
1.0
 40
1.0
 40
2.0
 40
2.0
 40
2.0
 40
3.0
 40
3.0
 40
3.0
 40
4.0
 40
4.0
 40
4.0
 40
4.0
 10
103.8920220009367
 20
-146.856152307036
 10
103.6422525782561
 20
-146.856152307036
 10
103.5957437892052
 20
-147.139683665472
 10
103.5957437892052
 20
-147.4845377235455
 10
103.5957437892052
 20
-147.8038980750282
 10
103.6319172918004
 20
-148.1125786305066
 10
103.8920220009367
 20
-148.1125786305066
 10
104.1397243663262
 20
-148.1125786305066
 10
104.1883002126682
 20
-147.8314588389102
 10
104.1883002126682
 20
-147.4845377235455
 10
104.1883002126682
 20
-147.1648328625143
 10
104.1500596527819
 20
-146.856152307036
 10
103.8920220009367
 20
-146.856152307036
 97
        0
 97
        0
 75
     2
 76
     1
 98
        0
  0
ENDBLK
  5
8E
330
8B
100
AcDbEntity
  8
0
100
AcDbBlockEnd
  0
BLOCK
  5
A2
330
A0
100
AcDbEntity
  8
0
100
AcDbBlockBegin
  2
block 5
 70
     0
 10
0.0
 20
0.0
 30
0.0
  3
block 5
  1

  0
SPLINE
  5
A4
330
A0
100
AcDbEntity
  8
_U+30EC_U+30A4_U+30E4_U+30FC 1
370
     0
100
AcDbSpline
210
0.0
220
0.0
230
1.0
 70
    11
 71
     3
 72
    44
 73
    40
 74
     0
 42
0.0000000001
 43
0.0000000001
 12
1.0
 22
0.0
 32
0.0
 13
1.0
 23
0.0
 33
0.0
 40
0.0
 40
0.0
 40
0.0
 40
0.0
 40
1.0
 40
1.0
 40
1.0
 40
2.0
 40
2.0
 40
2.0
 40
3.0
 40
3.0
 40
3.0
 40
4.0
 40
4.0
 40
4.0
 40
5.0
 40
5.0
 40
5.0
 40
6.0
 40
6.0
 40
6.0
 40
7.0
 40
7.0
 40
7.0
 40
8.0
 40
8.0
 40
8.0
 40
9.0
 40
9.0
 40
9.0
 40
10.0
 40
10.0
 40
10.0
 40
11.0
 40
11.0
 40
11.0
 40
12.0
 40
12.0
 40
12.0
 40
13.0
 40
13.0
 40
13.0
 40
13.0
 10
70.13404810529636
 20
-117.5904106693871
 30
0.0
 10
70.29269475239211
 20
-117.8083129588292
 30
0.0
 10
70.36676430532498
 20
-117.9015027917052
 30
0.0
 10
70.51059704183416
 20
-117.9500786380472
 30
0.0
 10
70.51059704183416
 20
-117.9500786380472
 30
0.0
 10
70.51059704183416
 20
-117.171659313155
 30
0.0
 10
70.51059704183416
 20
-117.171659313155
 30
0.0
 10
70.51059704183416
 20
-117.171659313155
 30
0.0
 10
70.71575247798079
 20
-117.171659313155
 30
0.0
 10
70.71575247798079
 20
-117.171659313155
 30
0.0
 10
70.71575247798079
 20
-117.171659313155
 30
0.0
 10
70.71575247798079
 20
-118.1996758059536
 30
0.0
 10
70.71575247798079
 20
-118.1996758059536
 30
0.0
 10
70.35815156661185
 20
-118.1679809274893
 30
0.0
 10
70.27994789909668
 20
-118.1023518584953
 30
0.0
 10
69.98160263007405
 20
-117.7173624380186
 30
0.0
 10
69.78282062057514
 20
-117.4613918434645
 30
0.0
 10
69.71512449428997
 20
-117.3959350292448
 30
0.0
 10
69.5776651844285
 20
-117.3959350292448
 30
0.0
 10
69.45915389973591
 20
-117.3959350292448
 30
0.0
 10
69.32806801652215
 20
-117.4677652701122
 30
0.0
 10
69.32806801652215
 20
-117.66448022232
 30
0.0
 10
69.32806801652215
 20
-117.9247571862306
 30
0.0
 10
69.55854490448537
 20
-117.9331976701695
 30
0.0
 10
69.67498913188682
 20
-117.937504039526
 30
0.0
 10
69.67498913188682
 20
-117.937504039526
 30
0.0
 10
69.67498913188682
 20
-118.1616075008416
 30
0.0
 10
69.67498913188682
 20
-118.1616075008416
 30
0.0
 10
69.54803736325536
 20
-118.1531670169027
 30
0.0
 10
69.43589950521047
 20
-118.1426594756727
 30
0.0
 10
69.31738822051788
 20
-118.0622164960921
 30
0.0
 10
69.15667451613098
 20
-117.9523179501126
 30
0.0
 10
69.12274032560126
 20
-117.7661105391349
 30
0.0
 10
69.12274032560126
 20
-117.6496663117334
 30
0.0
 10
69.12274032560126
 20
-117.3725083799451
 30
0.0
 10
69.30688067928787
 20
-117.1652858865073
 30
0.0
 10
69.57973224171965
 20
-117.1652858865073
 30
0.0
 10
69.80814207239172
 20
-117.1652858865073
 30
0.0
 10
69.90770533191544
 20
-117.2815578591345
 30
0.0
 10
70.13404810529636
 20
-117.5904106693871
 30
0.0
  0
HATCH
  5
A5
330
A0
100
AcDbEntity
  8
_U+30EC_U+30A4_U+30E4_U+30FC 1
 62
   179
420
  2234388
100
AcDbHatch
 10
0.0
 20
0.0
 30
0.0
210
0.0
220
0.0
230
1.0
  2
SOLID
 70
     1
 71
     0
 91
        1
 92
        1
 93
        1
 72
     4
 94
        3
 73
     0
 74
     1
 95
       44
 96
       40
 40
0.0
 40
0.0
 40
0.0
 40
0.0
 40
1.0
 40
1.0
 40
1.0
 40
2.0
 40
2.0
 40
2.0
 40
3.0
 40
3.0
 40
3.0
 40
4.0
 40
4.0
 40
4.0
 40
5.0
 40
5.0
 40
5.0
 40
6.0
 40
6.0
 40
6.0
 40
7.0
 40
7.0
 40
7.0
 40
8.0
 40
8.0
 40
8.0
 40
9.0
 40
9.0
 40
9.0
 40
10.0
 40
10.0
 40
10.0
 40
11.0
 40
11.0
 40
11.0
 40
12.0
 40
12.0
 40
12.0
 40
13.0
 40
13.0
 40
13.0
 40
13.0
 10
70.13404810529636
 20
-117.5904106693871
 10
70.29269475239211
 20
-117.8083129588292
 10
70.36676430532498
 20
-117.9015027917052
 10
70.51059704183416
 20
-117.9500786380472
 10
70.51059704183416
 20
-117.9500786380472
 10
70.51059704183416
 20
-117.171659313155
 10
70.51059704183416
 20
-117.171659313155
 10
70.51059704183416
 20
-117.171659313155
 10
70.71575247798079
 20
-117.171659313155
 10
70.71575247798079
 20
-117.171659313155
 10
70.71575247798079
 20
-117.171659313155
 10
70.71575247798079
 20
-118.1996758059536
 10
70.71575247798079
 20
-118.1996758059536
 10
70.35815156661185
 20
-118.1679809274893
 10
70.27994789909668
 20
-118.1023518584953
 10
69.98160263007405
 20
-117.7173624380186
 10
69.78282062057514
 20
-117.4613918434645
 10
69.71512449428997
 20
-117.3959350292448
 10
69.5776651844285
 20
-117.3959350292448
 10
69.45915389973591
 20
-117.3959350292448
 10
69.32806801652215
 20
-117.4677652701122
 10
69.32806801652215
 20
-117.66448022232
 10
69.32806801652215
 20
-117.9247571862306
 10
69.55854490448537
 20
-117.9331976701695
 10
69.67498913188682
 20
-117.937504039526
 10
69.67498913188682
 20
-117.937504039526
 10
69.67498913188682
 20
-118.1616075008416
 10
69.67498913188682
 20
-118.1616075008416
 10
69.54803736325536
 20
-118.1531670169027
 10
69.43589950521047
 20
-118.1426594756727
 10
69.31738822051788
 20
-118.0622164960921
 10
69.15667451613098
 20
-117.9523179501126
 10
69.12274032560126
 20
-117.7661105391349
 10
69.12274032560126
 20
-117.6496663117334
 10
69.12274032560126
 20
-117.3725083799451
 10
69.30688067928787
 20
-117.1652858865073
 10
69.57973224171965
 20
-117.1652858865073
 10
69.80814207239172
 20
-117.1652858865073
 10
69.90770533191544
 20
-117.2815578591345
 10
70.13404810529636
 20
-117.5904106693871
 97
        0
 97
        0
 75
     2
 76
     1
 98
        0
  0
SPLINE
  5
A6
330
A0
100
AcDbEntity
  8
_U+30EC_U+30A4_U+30E4_U+30FC 1
370
     0
100
AcDbSpline
210
0.0
220
0.0
230
1.0
 70
    11
 71
     3
 72
    29
 73
    25
 74
     0
 42
0.0000000001
 43
0.0000000001
 12
1.0
 22
0.0
 32
0.0
 13
1.0
 23
0.0
 33
0.0
 40
0.0
 40
0.0
 40
0.0
 40
0.0
 40
1.0
 40
1.0
 40
1.0
 40
2.0
 40
2.0
 40
2.0
 40
3.0
 40
3.0
 40
3.0
 40
4.0
 40
4.0
 40
4.0
 40
5.0
 40
5.0
 40
5.0
 40
6.0
 40
6.0
 40
6.0
 40
7.0
 40
7.0
 40
7.0
 40
8.0
 40
8.0
 40
8.0
 40
8.0
 10
70.5379855509419
 20
-116.1090196107297
 30
0.0
 10
70.74744735644508
 20
-116.216851099418
 30
0.0
 10
70.76656763638822
 20
-116.3903116571003
 30
0.0
 10
70.76656763638822
 20
-116.5067558845018
 30
0.0
 10
70.76656763638822
 20
-116.6674695888887
 30
0.0
 10
70.72005884733736
 20
-116.8092352681067
 30
0.0
 10
70.5379855509419
 20
-116.9044921582739
 30
0.0
 10
70.34333765602528
 20
-117.0080172776056
 30
0.0
 10
70.10648734141435
 20
-117.0271375575488
 30
0.0
 10
69.94353432496203
 20
-117.0271375575488
 30
0.0
 10
69.79970158845286
 20
-117.0271375575488
 30
0.0
 10
69.54803736325536
 20
-117.0102565896711
 30
0.0
 10
69.34908309898218
 20
-116.9044921582739
 30
0.0
 10
69.1459947201267
 20
-116.7964884148113
 30
0.0
 10
69.12274032560126
 20
-116.6357747104244
 30
0.0
 10
69.12274032560126
 20
-116.5067558845018
 30
0.0
 10
69.12274032560126
 20
-116.348109237406
 30
0.0
 10
69.16718205736099
 20
-116.2042765008969
 30
0.0
 10
69.34908309898218
 20
-116.1090196107297
 30
0.0
 10
69.54166393660765
 20
-116.0096286059802
 30
0.0
 10
69.77007376727971
 20
-115.9863742114548
 30
0.0
 10
69.94353432496203
 20
-115.9863742114548
 30
0.0
 10
70.11492782535322
 20
-115.9863742114548
 30
0.0
 10
70.3455769680907
 20
-116.0073892939148
 30
0.0
 10
70.5379855509419
 20
-116.1090196107297
 30
0.0
  0
SPLINE
  5
A7
330
A0
100
AcDbEntity
  8
_U+30EC_U+30A4_U+30E4_U+30FC 1
370
     0
100
AcDbSpline
210
0.0
220
0.0
230
1.0
 70
    11
 71
     3
 72
    17
 73
    13
 74
     0
 42
0.0000000001
 43
0.0000000001
 12
1.0
 22
0.0
 32
0.0
 13
1.0
 23
0.0
 33
0.0
 40
0.0
 40
0.0
 40
0.0
 40
0.0
 40
1.0
 40
1.0
 40
1.0
 40
2.0
 40
2.0
 40
2.0
 40
3.0
 40
3.0
 40
3.0
 40
4.0
 40
4.0
 40
4.0
 40
4.0
 10
69.31532116322673
 20
-116.5067558845018
 30
0.0
 10
69.31532116322673
 20
-116.7563530524081
 30
0.0
 10
69.59885252166279
 20
-116.802861841459
 30
0.0
 10
69.94353432496203
 20
-116.802861841459
 30
0.0
 10
70.26306693121896
 20
-116.802861841459
 30
0.0
 10
70.5719197414716
 20
-116.7668605936382
 30
0.0
 10
70.5719197414716
 20
-116.5067558845018
 30
0.0
 10
70.5719197414716
 20
-116.2592257738866
 30
0.0
 10
70.2904554403267
 20
-116.2104776727703
 30
0.0
 10
69.94353432496203
 20
-116.2104776727703
 30
0.0
 10
69.62417397347937
 20
-116.2104776727703
 30
0.0
 10
69.31532116322673
 20
-116.2485459778823
 30
0.0
 10
69.31532116322673
 20
-116.5067558845018
 30
0.0
  0
HATCH
  5
A8
330
A0
100
AcDbEntity
  8
_U+30EC_U+30A4_U+30E4_U+30FC 1
 62
   179
420
  2234388
100
AcDbHatch
 10
0.0
 20
0.0
 30
0.0
210
0.0
220
0.0
230
1.0
  2
SOLID
 70
     1
 71
     0
 91
        2
 92
        1
 93
        1
 72
     4
 94
        3
 73
     0
 74
     1
 95
       29
 96
       25
 40
0.0
 40
0.0
 40
0.0
 40
0.0
 40
1.0
 40
1.0
 40
1.0
 40
2.0
 40
2.0
 40
2.0
 40
3.0
 40
3.0
 40
3.0
 40
4.0
 40
4.0
 40
4.0
 40
5.0
 40
5.0
 40
5.0
 40
6.0
 40
6.0
 40
6.0
 40
7.0
 40
7.0
 40
7.0
 40
8.0
 40
8.0
 40
8.0
 40
8.0
 10
70.5379855509419
 20
-116.1090196107297
 10
70.74744735644508
 20
-116.216851099418
 10
70.76656763638822
 20
-116.3903116571003
 10
70.76656763638822
 20
-116.5067558845018
 10
70.76656763638822
 20
-116.6674695888887
 10
70.72005884733736
 20
-116.8092352681067
 10
70.5379855509419
 20
-116.9044921582739
 10
70.34333765602528
 20
-117.0080172776056
 10
70.10648734141435
 20
-117.0271375575488
 10
69.94353432496203
 20
-117.0271375575488
 10
69.79970158845286
 20
-117.0271375575488
 10
69.54803736325536
 20
-117.0102565896711
 10
69.34908309898218
 20
-116.9044921582739
 10
69.1459947201267
 20
-116.7964884148113
 10
69.12274032560126
 20
-116.6357747104244
 10
69.12274032560126
 20
-116.5067558845018
 10
69.12274032560126
 20
-116.348109237406
 10
69.16718205736099
 20
-116.2042765008969
 10
69.34908309898218
 20
-116.1090196107297
 10
69.54166393660765
 20
-116.0096286059802
 10
69.77007376727971
 20
-115.9863742114548
 10
69.94353432496203
 20
-115.9863742114548
 10
70.11492782535322
 20
-115.9863742114548
 10
70.3455769680907
 20
-116.0073892939148
 10
70.5379855509419
 20
-116.1090196107297
 97
        0
 97
        0
 92
        1
 93
        1
 72
     4
 94
        3
 73
     0
 74
     1
 95
       17
 96
       13
 40
0.0
 40
0.0
 40
0.0
 40
0.0
 40
1.0
 40
1.0
 40
1.0
 40
2.0
 40
2.0
 40
2.0
 40
3.0
 40
3.0
 40
3.0
 40
4.0
 40
4.0
 40
4.0
 40
4.0
 10
69.31532116322673
 20
-116.5067558845018
 10
69.31532116322673
 20
-116.7563530524081
 10
69.59885252166279
 20
-116.802861841459
 10
69.94353432496203
 20
-116.802861841459
 10
70.26306693121896
 20
-116.802861841459
 10
70.5719197414716
 20
-116.7668605936382
 10
70.5719197414716
 20
-116.5067558845018
 10
70.5719197414716
 20
-116.2592257738866
 10
70.2904554403267
 20
-116.2104776727703
 10
69.94353432496203
 20
-116.2104776727703
 10
69.62417397347937
 20
-116.2104776727703
 10
69.31532116322673
 20
-116.2485459778823
 10
69.31532116322673
 20
-116.5067558845018
 97
        0
 97
        0
 75
     2
 76
     1
 98
        0
  0
ENDBLK
  5
A3
330
A0
100
AcDbEntity
  8
0
100
AcDbBlockEnd
  0
ENDSEC
  0
SECTION
  2
ENTITIES
  0
INSERT
  5
42
330
1F
100
AcDbEntity
  8
_U+30EC_U+30A4_U+30E4_U+30FC 1
100
AcDbBlockReference
  2
block 2
 10
0.0
 20
0.0
 30
0.0
  0
ENDSEC
  0
SECTION
  2
OBJECTS
  0
DICTIONARY
  5
C
330
0
100
AcDbDictionary
281
     1
  3
ACAD_GROUP
350
D
  3
ACAD_LAYOUT
350
1A
  3
ACAD_MATERIAL
350
3B
  3
ACAD_MLEADERSTYLE
350
AA
  3
ACAD_MLINESTYLE
350
17
  3
ACAD_PLOTSETTINGS
350
19
  3
ACAD_PLOTSTYLENAME
350
E
  3
ACAD_TABLESTYLE
350
A9
  3
ACAD_VISUALSTYLE
350
2A
  0
SUN
  5
3F
330
29
100
AcDbSun
 90
        1
290
     0
 63
     7
421
 16777215
 40
1.0
291
     1
 91
  2455826
 92
 54000000
292
     0
 70
     2
 71
   256
280
     1
  0
DICTIONARY
  5
D
102
{ACAD_REACTORS
330
C
102
}
330
C
100
AcDbDictionary
281
     1
  0
DICTIONARY
  5
1A
102
{ACAD_REACTORS
330
C
102
}
330
C
100
AcDbDictionary
281
     1
  3
Layout1
350
1E
  3
Layout2
350
26
  3
Model
350
22
  0
DICTIONARY
  5
3B
102
{ACAD_REACTORS
330
C
102
}
330
C
100
AcDbDictionary
281
     1
  3
ByBlock
350
3D
  3
ByLayer
350
3C
  3
Global
350
3E
  0
DICTIONARY
  5
AA
102
{ACAD_REACTORS
330
C
102
}
330
C
100
AcDbDictionary
281
     1
  0
DICTIONARY
  5
17
102
{ACAD_REACTORS
330
C
102
}
330
C
100
AcDbDictionary
281
     1
  3
Standard
350
18
  0
DICTIONARY
  5
19
102
{ACAD_REACTORS
330
C
102
}
330
C
100
AcDbDictionary
281
     1
  0
ACDBDICTIONARYWDFLT
  5
E
102
{ACAD_REACTORS
330
C
102
}
330
C
100
AcDbDictionary
281
     1
  3
Normal
350
F
100
AcDbDictionaryWithDefault
340
F
  0
DICTIONARY
  5
A9
102
{ACAD_REACTORS
330
C
102
}
330
C
100
AcDbDictionary
281
     1
  0
DICTIONARY
  5
2A
102
{ACAD_REACTORS
330
C
102
}
330
C
100
AcDbDictionary
281
     1
  3
2dWireframe
350
2F
  3
3D Hidden
350
31
  3
3dWireframe
350
30
  3
Basic
350
32
  3
Brighten
350
36
  3
ColorChange
350
3A
  3
Conceptual
350
34
  3
Dim
350
35
  3
Facepattern
350
39
  3
Flat
350
2B
  3
FlatWithEdges
350
2C
  3
Gouraud
350
2D
  3
GouraudWithEdges
350
2E
  3
Linepattern
350
38
  3
Realistic
350
33
  3
Thicken
350
37
  0
LAYOUT
  5
1E
102
{ACAD_REACTORS
330
1A
102
}
330
1A
100
AcDbPlotSettings
  1

  2
none_device
  4

  6

 40
0.0
 41
0.0
 42
0.0
 43
0.0
 44
0.0
 45
0.0
 46
0.0
 47
0.0
 48
0.0
 49
0.0
140
0.0
141
0.0
142
1.0
143
1.0
 70
   688
 72
     0
 73
     0
 74
     5
  7

 75
    16
 76
     0
 77
     2
 78
   300
147
1.0
148
0.0
149
0.0
100
AcDbLayout
  1
Layout1
 70
     1
 71
     1
 10
0.0
 20
0.0
 11
12.0
 21
9.0
 12
0.0
 22
0.0
 32
0.0
 14
1.000000000000000E+20
 24
1.000000000000000E+20
 34
1.000000000000000E+20
 15
-1.000000000000000E+20
 25
-1.000000000000000E+20
 35
-1.000000000000000E+20
146
0.0
 13
0.0
 23
0.0
 33
0.0
 16
1.0
 26
0.0
 36
0.0
 17
0.0
 27
1.0
 37
0.0
 76
     0
330
1B
  0
LAYOUT
  5
26
102
{ACAD_REACTORS
330
1A
102
}
330
1A
100
AcDbPlotSettings
  1

  2
none_device
  4

  6

 40
0.0
 41
0.0
 42
0.0
 43
0.0
 44
0.0
 45
0.0
 46
0.0
 47
0.0
 48
0.0
 49
0.0
140
0.0
141
0.0
142
1.0
143
1.0
 70
   688
 72
     0
 73
     0
 74
     5
  7

 75
    16
 76
     0
 77
     2
 78
   300
147
1.0
148
0.0
149
0.0
100
AcDbLayout
  1
Layout2
 70
     1
 71
     2
 10
0.0
 20
0.0
 11
0.0
 21
0.0
 12
0.0
 22
0.0
 32
0.0
 14
0.0
 24
0.0
 34
0.0
 15
0.0
 25
0.0
 35
0.0
146
0.0
 13
0.0
 23
0.0
 33
0.0
 16
1.0
 26
0.0
 36
0.0
 17
0.0
 27
1.0
 37
0.0
 76
     0
330
23
  0
LAYOUT
  5
22
102
{ACAD_REACTORS
330
1A
102
}
330
1A
100
AcDbPlotSettings
  1

  2
none_device
  4

  6

 40
0.0
 41
0.0
 42
0.0
 43
0.0
 44
0.0
 45
0.0
 46
0.0
 47
0.0
 48
0.0
 49
0.0
140
0.0
141
0.0
142
1.0
143
1.0
 70
  1712
 72
     0
 73
     0
 74
     0
  7

 75
     0
 76
     0
 77
     2
 78
   300
147
1.0
148
0.0
149
0.0
100
AcDbLayout
  1
Model
 70
     1
 71
     0
 10
0.0
 20
0.0
 11
12.0
 21
9.0
 12
0.0
 22
0.0
 32
0.0
 14
1.000000000000000E+20
 24
1.000000000000000E+20
 34
1.000000000000000E+20
 15
-1.000000000000000E+20
 25
-1.000000000000000E+20
 35
-1.000000000000000E+20
146
0.0
 13
0.0
 23
0.0
 33
0.0
 16
1.0
 26
0.0
 36
0.0
 17
0.0
 27
1.0
 37
0.0
 76
     0
330
1F
331
29
  0
MATERIAL
  5
3D
102
{ACAD_REACTORS
330
3B
102
}
330
3B
100
AcDbMaterial
  1
ByBlock
 72
     1
 94
      127
  0
MATERIAL
  5
3C
102
{ACAD_REACTORS
330
3B
102
}
330
3B
100
AcDbMaterial
  1
ByLayer
 72
     1
 94
      127
  0
MATERIAL
  5
3E
102
{ACAD_REACTORS
330
3B
102
}
330
3B
100
AcDbMaterial
  1
Global
 72
     1
 94
      127
  0
MLINESTYLE
  5
18
102
{ACAD_REACTORS
330
17
102
}
330
17
100
AcDbMlineStyle
  2
Standard
 70
     0
  3

 62
   256
 51
90.0
 52
90.0
 71
     2
 49
0.5
 62
   256
  6
BYLAYER
 49
-0.5
 62
   256
  6
BYLAYER
  0
ACDBPLACEHOLDER
  5
F
102
{ACAD_REACTORS
330
E
102
}
330
E
  0
VISUALSTYLE
  5
2F
102
{ACAD_REACTORS
330
2A
102
}
330
2A
100
AcDbVisualStyle
  2
2dWireframe
 70
     4
177
     2
291
     0
 71
     0
176
     1
 72
     2
176
     1
 73
     0
176
     1
 90
        0
176
     1
 40
-0.6
176
     1
 41
-30.0
176
     1
 62
     5
 63
     7
421
 16777215
176
     1
 74
     1
176
     1
 91
        4
176
     1
 64
     7
176
     1
 65
   257
176
     1
 75
     1
176
     1
175
     1
176
     1
 42
1.0
176
     1
 92
        0
176
     1
 66
   257
176
     1
 43
1.0
176
     1
 76
     1
176
     1
 77
     6
176
     1
 78
     2
176
     1
 67
     7
176
     1
 79
     5
176
     1
170
     0
176
     1
171
     0
176
     1
290
     0
176
     1
 93
        1
176
     1
 44
0.0
176
     1
173
     0
176
     1
  0
VISUALSTYLE
  5
31
102
{ACAD_REACTORS
330
2A
102
}
330
2A
100
AcDbVisualStyle
  2
3D Hidden
 70
     6
177
     2
291
     0
 71
     1
176
     1
 72
     2
176
     1
 73
     2
176
     1
 90
        0
176
     1
 40
-0.6
176
     1
 41
-30.0
176
     1
 62
     5
 63
     7
421
 16777215
176
     1
 74
     2
176
     1
 91
        2
176
     1
 64
     7
176
     1
 65
   257
176
     1
 75
     2
176
     1
175
     1
176
     1
 42
40.0
176
     1
 92
        0
176
     1
 66
   257
176
     1
 43
1.0
176
     1
 76
     1
176
     1
 77
     6
176
     1
 78
     2
176
     1
 67
     7
176
     1
 79
     3
176
     1
170
     0
176
     1
171
     0
176
     1
290
     0
176
     1
 93
        1
176
     1
 44
0.0
176
     1
173
     0
176
     1
  0
VISUALSTYLE
  5
30
102
{ACAD_REACTORS
330
2A
102
}
330
2A
100
AcDbVisualStyle
  2
3dWireframe
 70
     5
177
     2
291
     0
 71
     0
176
     1
 72
     2
176
     1
 73
     0
176
     1
 90
        0
176
     1
 40
-0.6
176
     1
 41
-30.0
176
     1
 62
     5
 63
     7
421
 16777215
176
     1
 74
     1
176
     1
 91
        4
176
     1
 64
     7
176
     1
 65
   257
176
     1
 75
     1
176
     1
175
     1
176
     1
 42
1.0
176
     1
 92
        0
176
     1
 66
   257
176
     1
 43
1.0
176
     1
 76
     1
176
     1
 77
     6
176
     1
 78
     2
176
     1
 67
     7
176
     1
 79
     5
176
     1
170
     0
176
     1
171
     0
176
     1
290
     0
176
     1
 93
        1
176
     1
 44
0.0
176
     1
173
     0
176
     1
  0
VISUALSTYLE
  5
32
102
{ACAD_REACTORS
330
2A
102
}
330
2A
100
AcDbVisualStyle
  2
Basic
 70
     7
177
     2
291
     1
 71
     1
176
     1
 72
     0
176
     1
 73
     1
176
     1
 90
        0
176
     1
 40
-0.6
176
     1
 41
-30.0
176
     1
 62
     5
 63
     7
421
 16777215
176
     1
 74
     0
176
     1
 91
        4
176
     1
 64
     7
176
     1
 65
   257
176
     1
 75
     1
176
     1
175
     1
176
     1
 42
1.0
176
     1
 92
        8
176
     1
 66
     7
176
     1
 43
1.0
176
     1
 76
     1
176
     1
 77
     6
176
     1
 78
     2
176
     1
 67
     7
176
     1
 79
     5
176
     1
170
     0
176
     1
171
     0
176
     1
290
     0
176
     1
 93
        1
176
     1
 44
0.0
176
     1
173
     0
176
     1
  0
VISUALSTYLE
  5
36
102
{ACAD_REACTORS
330
2A
102
}
330
2A
100
AcDbVisualStyle
  2
Brighten
 70
    12
177
     2
291
     1
 71
     2
176
     1
 72
     2
176
     1
 73
     0
176
     1
 90
        0
176
     1
 40
-0.6
176
     1
 41
-30.0
176
     1
 62
     5
 63
     7
421
 16777215
176
     1
 74
     1
176
     1
 91
        4
176
     1
 64
     7
176
     1
 65
   257
176
     1
 75
     1
176
     1
175
     1
176
     1
 42
1.0
176
     1
 92
        8
176
     1
 66
     7
176
     1
 43
1.0
176
     1
 76
     1
176
     1
 77
     6
176
     1
 78
     2
176
     1
 67
     7
176
     1
 79
     5
176
     1
170
     0
176
     1
171
     0
176
     1
290
     0
176
     1
 93
        1
176
     1
 44
50.0
176
     1
173
     0
176
     1
  0
VISUALSTYLE
  5
3A
102
{ACAD_REACTORS
330
2A
102
}
330
2A
100
AcDbVisualStyle
  2
ColorChange
 70
    16
177
     2
291
     1
 71
     2
176
     1
 72
     2
176
     1
 73
     3
176
     1
 90
        0
176
     1
 40
-0.6
176
     1
 41
-30.0
176
     1
 62
     5
 63
     8
421
  8421504
176
     1
 74
     1
176
     1
 91
        4
176
     1
 64
     7
176
     1
 65
   257
176
     1
 75
     1
176
     1
175
     1
176
     1
 42
1.0
176
     1
 92
        8
176
     1
 66
     8
424
  8421504
176
     1
 43
1.0
176
     1
 76
     1
176
     1
 77
     6
176
     1
 78
     2
176
     1
 67
     7
176
     1
 79
     5
176
     1
170
     0
176
     1
171
     0
176
     1
290
     0
176
     1
 93
        1
176
     1
 44
0.0
176
     1
173
     0
176
     1
  0
VISUALSTYLE
  5
34
102
{ACAD_REACTORS
330
2A
102
}
330
2A
100
AcDbVisualStyle
  2
Conceptual
 70
     9
177
     2
291
     0
 71
     3
176
     1
 72
     2
176
     1
 73
     0
176
     1
 90
        0
176
     1
 40
-0.6
176
     1
 41
-30.0
176
     1
 62
     5
 63
     7
421
 16777215
176
     1
 74
     2
176
     1
 91
        2
176
     1
 64
     7
176
     1
 65
   257
176
     1
 75
     1
176
     1
175
     1
176
     1
 42
40.0
176
     1
 92
        8
176
     1
 66
     7
176
     1
 43
1.0
176
     1
 76
     1
176
     1
 77
     6
176
     1
 78
     2
176
     1
 67
     7
176
     1
 79
     3
176
     1
170
     0
176
     1
171
     0
176
     1
290
     0
176
     1
 93
        1
176
     1
 44
0.0
176
     1
173
     0
176
     1
  0
VISUALSTYLE
  5
35
102
{ACAD_REACTORS
330
2A
102
}
330
2A
100
AcDbVisualStyle
  2
Dim
 70
    11
177
     2
291
     1
 71
     2
176
     1
 72
     2
176
     1
 73
     0
176
     1
 90
        0
176
     1
 40
-0.6
176
     1
 41
-30.0
176
     1
 62
     5
 63
     7
421
 16777215
176
     1
 74
     1
176
     1
 91
        4
176
     1
 64
     7
176
     1
 65
   257
176
     1
 75
     1
176
     1
175
     1
176
     1
 42
1.0
176
     1
 92
        8
176
     1
 66
     7
176
     1
 43
1.0
176
     1
 76
     1
176
     1
 77
     6
176
     1
 78
     2
176
     1
 67
     7
176
     1
 79
     5
176
     1
170
     0
176
     1
171
     0
176
     1
290
     0
176
     1
 93
        1
176
     1
 44
-50.0
176
     1
173
     0
176
     1
  0
VISUALSTYLE
  5
39
102
{ACAD_REACTORS
330
2A
102
}
330
2A
100
AcDbVisualStyle
  2
Facepattern
 70
    15
177
     2
291
     1
 71
     2
176
     1
 72
     2
176
     1
 73
     0
176
     1
 90
        0
176
     1
 40
-0.6
176
     1
 41
-30.0
176
     1
 62
     5
 63
     7
421
 16777215
176
     1
 74
     1
176
     1
 91
        4
176
     1
 64
     7
176
     1
 65
   257
176
     1
 75
     1
176
     1
175
     1
176
     1
 42
1.0
176
     1
 92
        8
176
     1
 66
     7
176
     1
 43
1.0
176
     1
 76
     1
176
     1
 77
     6
176
     1
 78
     2
176
     1
 67
     7
176
     1
 79
     5
176
     1
170
     0
176
     1
171
     0
176
     1
290
     0
176
     1
 93
        1
176
     1
 44
0.0
176
     1
173
     0
176
     1
  0
VISUALSTYLE
  5
2B
102
{ACAD_REACTORS
330
2A
102
}
330
2A
100
AcDbVisualStyle
  2
Flat
 70
     0
177
     2
291
     1
 71
     2
176
     1
 72
     1
176
     1
 73
     1
176
     1
 90
        2
176
     1
 40
-0.6
176
     1
 41
30.0
176
     1
 62
     5
 63
     7
421
 16777215
176
     1
 74
     0
176
     1
 91
        4
176
     1
 64
     7
176
     1
 65
   257
176
     1
 75
     1
176
     1
175
     1
176
     1
 42
1.0
176
     1
 92
        8
176
     1
 66
     7
176
     1
 43
1.0
176
     1
 76
     1
176
     1
 77
     6
176
     1
 78
     2
176
     1
 67
     7
176
     1
 79
     5
176
     1
170
     0
176
     1
171
     0
176
     1
290
     0
176
     1
 93
       13
176
     1
 44
0.0
176
     1
173
     0
176
     1
  0
VISUALSTYLE
  5
2C
102
{ACAD_REACTORS
330
2A
102
}
330
2A
100
AcDbVisualStyle
  2
FlatWithEdges
 70
     1
177
     2
291
     1
 71
     2
176
     1
 72
     1
176
     1
 73
     1
176
     1
 90
        2
176
     1
 40
-0.6
176
     1
 41
30.0
176
     1
 62
     5
 63
     7
421
 16777215
176
     1
 74
     1
176
     1
 91
        4
176
     1
 64
     7
176
     1
 65
   257
176
     1
 75
     1
176
     1
175
     1
176
     1
 42
1.0
176
     1
 92
        0
176
     1
 66
   257
176
     1
 43
1.0
176
     1
 76
     1
176
     1
 77
     6
176
     1
 78
     2
176
     1
 67
     7
176
     1
 79
     5
176
     1
170
     0
176
     1
171
     0
176
     1
290
     0
176
     1
 93
       13
176
     1
 44
0.0
176
     1
173
     0
176
     1
  0
VISUALSTYLE
  5
2D
102
{ACAD_REACTORS
330
2A
102
}
330
2A
100
AcDbVisualStyle
  2
Gouraud
 70
     2
177
     2
291
     1
 71
     2
176
     1
 72
     2
176
     1
 73
     1
176
     1
 90
        2
176
     1
 40
-0.6
176
     1
 41
30.0
176
     1
 62
     5
 63
     7
421
 16777215
176
     1
 74
     0
176
     1
 91
        4
176
     1
 64
     7
176
     1
 65
   257
176
     1
 75
     1
176
     1
175
     1
176
     1
 42
1.0
176
     1
 92
        0
176
     1
 66
     7
176
     1
 43
1.0
176
     1
 76
     1
176
     1
 77
     6
176
     1
 78
     2
176
     1
 67
     7
176
     1
 79
     5
176
     1
170
     0
176
     1
171
     0
176
     1
290
     0
176
     1
 93
       13
176
     1
 44
0.0
176
     1
173
     0
176
     1
  0
VISUALSTYLE
  5
2E
102
{ACAD_REACTORS
330
2A
102
}
330
2A
100
AcDbVisualStyle
  2
GouraudWithEdges
 70
     3
177
     2
291
     1
 71
     2
176
     1
 72
     2
176
     1
 73
     1
176
     1
 90
        2
176
     1
 40
-0.6
176
     1
 41
30.0
176
     1
 62
     5
 63
     7
421
 16777215
176
     1
 74
     1
176
     1
 91
        4
176
     1
 64
     7
176
     1
 65
   257
176
     1
 75
     1
176
     1
175
     1
176
     1
 42
1.0
176
     1
 92
        0
176
     1
 66
   257
176
     1
 43
1.0
176
     1
 76
     1
176
     1
 77
     6
176
     1
 78
     2
176
     1
 67
     7
176
     1
 79
     5
176
     1
170
     0
176
     1
171
     0
176
     1
290
     0
176
     1
 93
       13
176
     1
 44
0.0
176
     1
173
     0
176
     1
  0
VISUALSTYLE
  5
38
102
{ACAD_REACTORS
330
2A
102
}
330
2A
100
AcDbVisualStyle
  2
Linepattern
 70
    14
177
     2
291
     1
 71
     2
176
     1
 72
     2
176
     1
 73
     0
176
     1
 90
        0
176
     1
 40
-0.6
176
     1
 41
-30.0
176
     1
 62
     5
 63
     7
421
 16777215
176
     1
 74
     1
176
     1
 91
        4
176
     1
 64
     7
176
     1
 65
   257
176
     1
 75
     7
176
     1
175
     7
176
     1
 42
1.0
176
     1
 92
        8
176
     1
 66
     7
176
     1
 43
1.0
176
     1
 76
     1
176
     1
 77
     6
176
     1
 78
     2
176
     1
 67
     7
176
     1
 79
     5
176
     1
170
     0
176
     1
171
     0
176
     1
290
     0
176
     1
 93
        1
176
     1
 44
0.0
176
     1
173
     0
176
     1
  0
VISUALSTYLE
  5
33
102
{ACAD_REACTORS
330
2A
102
}
330
2A
100
AcDbVisualStyle
  2
Realistic
 70
     8
177
     2
291
     0
 71
     2
176
     1
 72
     2
176
     1
 73
     0
176
     1
 90
        0
176
     1
 40
-0.6
176
     1
 41
-30.0
176
     1
 62
     5
 63
     7
421
 16777215
176
     1
 74
     1
176
     1
 91
        0
176
     1
 64
     7
176
     1
 65
   257
176
     1
 75
     1
176
     1
175
     1
176
     1
 42
1.0
176
     1
 92
        8
176
     1
 66
     8
424
  7895160
176
     1
 43
1.0
176
     1
 76
     1
176
     1
 77
     6
176
     1
 78
     2
176
     1
 67
     7
176
     1
 79
     5
176
     1
170
     0
176
     1
171
     0
176
     1
290
     0
176
     1
 93
       13
176
     1
 44
0.0
176
     1
173
     0
176
     1
  0
VISUALSTYLE
  5
37
102
{ACAD_REACTORS
330
2A
102
}
330
2A
100
AcDbVisualStyle
  2
Thicken
 70
    13
177
     2
291
     1
 71
     2
176
     1
 72
     2
176
     1
 73
     0
176
     1
 90
        0
176
     1
 40
-0.6
176
     1
 41
-30.0
176
     1
 62
     5
 63
     7
421
 16777215
176
     1
 74
     1
176
     1
 91
        4
176
     1
 64
     7
176
     1
 65
   257
176
     1
 75
     1
176
     1
175
     1
176
     1
 42
1.0
176
     1
 92
       12
176
     1
 66
     7
176
     1
 43
1.0
176
     1
 76
     1
176
     1
 77
     6
176
     1
 78
     2
176
     1
 67
     7
176
     1
 79
     5
176
     1
170
     0
176
     1
171
     0
176
     1
290
     0
176
     1
 93
        1
176
     1
 44
0.0
176
     1
173
     0
176
     1
  0
ENDSEC
  0
EOF
