  0
SECTION
  2
HEADER
  9
$ACADVER
  1
AC1024
  9
$ACADMAINTVER
 70
     6
  9
$DWGCODEPAGE
  3
UNDEFINED
  9
$INSBASE
 10
0.0
 20
0.0
 30
0.0
  9
$EXTMIN
 10
1.000000000000000E+20
 20
1.000000000000000E+20
 30
1.000000000000000E+20
  9
$EXTMAX
 10
-1.000000000000000E+20
 20
-1.000000000000000E+20
 30
-1.000000000000000E+20
  9
$LIMMIN
 10
0.0
 20
0.0
  9
$LIMMAX
 10
12.0
 20
9.0
  9
$ORTHOMODE
 70
     0
  9
$REGENMODE
 70
     1
  9
$FILLMODE
 70
     1
  9
$QTEXTMODE
 70
     0
  9
$MIRRTEXT
 70
     1
  9
$LTSCALE
 40
1.0
  9
$ATTMODE
 70
     1
  9
$TEXTSIZE
 40
0.2
  9
$TRACEWID
 40
0.05
  9
$TEXTSTYLE
  7
Standard
  9
$CLAYER
  8
0
  9
$CELTYPE
  6
ByLayer
  9
$CECOLOR
 62
   256
  9
$CELTSCALE
 40
1.0
  9
$DISPSILH
 70
     0
  9
$DIMSCALE
 40
1.0
  9
$DIMASZ
 40
0.18
  9
$DIMEXO
 40
0.0625
  9
$DIMDLI
 40
0.38
  9
$DIMRND
 40
0.0
  9
$DIMDLE
 40
0.0
  9
$DIMEXE
 40
0.18
  9
$DIMTP
 40
0.0
  9
$DIMTM
 40
0.0
  9
$DIMTXT
 40
0.18
  9
$DIMCEN
 40
0.09
  9
$DIMTSZ
 40
0.0
  9
$DIMTOL
 70
     0
  9
$DIMLIM
 70
     0
  9
$DIMTIH
 70
     1
  9
$DIMTOH
 70
     1
  9
$DIMSE1
 70
     0
  9
$DIMSE2
 70
     0
  9
$DIMTAD
 70
     0
  9
$DIMZIN
 70
     0
  9
$DIMBLK
  1

  9
$DIMASO
 70
     1
  9
$DIMSHO
 70
     1
  9
$DIMPOST
  1

  9
$DIMAPOST
  1

  9
$DIMALT
 70
     0
  9
$DIMALTD
 70
     2
  9
$DIMALTF
 40
25.4
  9
$DIMLFAC
 40
1.0
  9
$DIMTOFL
 70
     0
  9
$DIMTVP
 40
0.0
  9
$DIMTIX
 70
     0
  9
$DIMSOXD
 70
     0
  9
$DIMSAH
 70
     0
  9
$DIMBLK1
  1

  9
$DIMBLK2
  1

  9
$DIMSTYLE
  2
Standard
  9
$DIMCLRD
 70
     0
  9
$DIMCLRE
 70
     0
  9
$DIMCLRT
 70
     0
  9
$DIMTFAC
 40
1.0
  9
$DIMGAP
 40
0.09
  9
$DIMJUST
 70
     0
  9
$DIMSD1
 70
     0
  9
$DIMSD2
 70
     0
  9
$DIMTOLJ
 70
     1
  9
$DIMTZIN
 70
     0
  9
$DIMALTZ
 70
     0
  9
$DIMALTTZ
 70
     0
  9
$DIMUPT
 70
     0
  9
$DIMDEC
 70
     4
  9
$DIMTDEC
 70
     4
  9
$DIMALTU
 70
     2
  9
$DIMALTTD
 70
     2
  9
$DIMTXSTY
  7
Standard
  9
$DIMAUNIT
 70
     0
  9
$DIMADEC
 70
     0
  9
$DIMALTRND
 40
0.0
  9
$DIMAZIN
 70
     0
  9
$DIMDSEP
 70
    46
  9
$DIMATFIT
 70
     3
  9
$DIMFRAC
 70
     0
  9
$DIMLDRBLK
  1

  9
$DIMLUNIT
 70
     2
  9
$DIMLWD
 70
    -2
  9
$DIMLWE
 70
    -2
  9
$DIMTMOVE
 70
     0
  9
$DIMFXL
 40
1.0
  9
$DIMFXLON
 70
     0
  9
$DIMJOGANG
 40
0.7853981633974483
  9
$DIMTFILL
 70
     0
  9
$DIMTFILLCLR
 70
     0
  9
$DIMARCSYM
 70
     0
  9
$DIMLTYPE
  6

  9
$DIMLTEX1
  6

  9
$DIMLTEX2
  6

  9
$DIMTXTDIRECTION
 70
     0
  9
$LUNITS
 70
     2
  9
$LUPREC
 70
     4
  9
$SKETCHINC
 40
0.1
  9
$FILLETRAD
 40
0.5
  9
$AUNITS
 70
     0
  9
$AUPREC
 70
     0
  9
$MENU
  1
.
  9
$ELEVATION
 40
0.0
  9
$PELEVATION
 40
0.0
  9
$THICKNESS
 40
0.0
  9
$LIMCHECK
 70
     0
  9
$CHAMFERA
 40
0.5
  9
$CHAMFERB
 40
0.5
  9
$CHAMFERC
 40
1.0
  9
$CHAMFERD
 40
0.0
  9
$SKPOLY
 70
     0
  9
$TDCREATE
 40
2458263.773761574
  9
$TDUCREATE
 40
2458263.398761574
  9
$TDUPDATE
 40
2458263.773761574
  9
$TDUUPDATE
 40
2458263.398761574
  9
$TDINDWG
 40
0.0000000116
  9
$TDUSRTIMER
 40
0.0000000116
  9
$USRTIMER
 70
     1
  9
$ANGBASE
 50
0.0
  9
$ANGDIR
 70
     0
  9
$PDMODE
 70
     0
  9
$PDSIZE
 40
0.0
  9
$PLINEWID
 40
0.0
  9
$SPLFRAME
 70
     0
  9
$SPLINETYPE
 70
     6
  9
$SPLINESEGS
 70
     8
  9
$HANDSEED
  5
F8
  9
$SURFTAB1
 70
     6
  9
$SURFTAB2
 70
     6
  9
$SURFTYPE
 70
     6
  9
$SURFU
 70
     6
  9
$SURFV
 70
     6
  9
$UCSBASE
  2

  9
$UCSNAME
  2

  9
$UCSORG
 10
0.0
 20
0.0
 30
0.0
  9
$UCSXDIR
 10
1.0
 20
0.0
 30
0.0
  9
$UCSYDIR
 10
0.0
 20
1.0
 30
0.0
  9
$UCSORTHOREF
  2

  9
$UCSORTHOVIEW
 70
     0
  9
$UCSORGTOP
 10
0.0
 20
0.0
 30
0.0
  9
$UCSORGBOTTOM
 10
0.0
 20
0.0
 30
0.0
  9
$UCSORGLEFT
 10
0.0
 20
0.0
 30
0.0
  9
$UCSORGRIGHT
 10
0.0
 20
0.0
 30
0.0
  9
$UCSORGFRONT
 10
0.0
 20
0.0
 30
0.0
  9
$UCSORGBACK
 10
0.0
 20
0.0
 30
0.0
  9
$PUCSBASE
  2

  9
$PUCSNAME
  2

  9
$PUCSORG
 10
0.0
 20
0.0
 30
0.0
  9
$PUCSXDIR
 10
1.0
 20
0.0
 30
0.0
  9
$PUCSYDIR
 10
0.0
 20
1.0
 30
0.0
  9
$PUCSORTHOREF
  2

  9
$PUCSORTHOVIEW
 70
     0
  9
$PUCSORGTOP
 10
0.0
 20
0.0
 30
0.0
  9
$PUCSORGBOTTOM
 10
0.0
 20
0.0
 30
0.0
  9
$PUCSORGLEFT
 10
0.0
 20
0.0
 30
0.0
  9
$PUCSORGRIGHT
 10
0.0
 20
0.0
 30
0.0
  9
$PUCSORGFRONT
 10
0.0
 20
0.0
 30
0.0
  9
$PUCSORGBACK
 10
0.0
 20
0.0
 30
0.0
  9
$USERI1
 70
     0
  9
$USERI2
 70
     0
  9
$USERI3
 70
     0
  9
$USERI4
 70
     0
  9
$USERI5
 70
     0
  9
$USERR1
 40
0.0
  9
$USERR2
 40
0.0
  9
$USERR3
 40
0.0
  9
$USERR4
 40
0.0
  9
$USERR5
 40
0.0
  9
$WORLDVIEW
 70
     1
  9
$SHADEDGE
 70
     3
  9
$SHADEDIF
 70
    70
  9
$TILEMODE
 70
     1
  9
$MAXACTVP
 70
    64
  9
$PINSBASE
 10
0.0
 20
0.0
 30
0.0
  9
$PLIMCHECK
 70
     0
  9
$PEXTMIN
 10
1.000000000000000E+20
 20
1.000000000000000E+20
 30
1.000000000000000E+20
  9
$PEXTMAX
 10
-1.000000000000000E+20
 20
-1.000000000000000E+20
 30
-1.000000000000000E+20
  9
$PLIMMIN
 10
0.0
 20
0.0
  9
$PLIMMAX
 10
12.0
 20
9.0
  9
$UNITMODE
 70
     0
  9
$VISRETAIN
 70
     1
  9
$PLINEGEN
 70
     0
  9
$PSLTSCALE
 70
     1
  9
$TREEDEPTH
 70
  3020
  9
$CMLSTYLE
  2
Standard
  9
$CMLJUST
 70
     0
  9
$CMLSCALE
 40
1.0
  9
$PROXYGRAPHICS
 70
     1
  9
$MEASUREMENT
 70
     0
  9
$CELWEIGHT
370
    -1
  9
$ENDCAPS
280
     0
  9
$JOINSTYLE
280
     0
  9
$LWDISPLAY
290
     1
  9
$INSUNITS
 70
     1
  9
$HYPERLINKBASE
  1

  9
$STYLESHEET
  1

  9
$XEDIT
290
     1
  9
$CEPSNTYPE
380
     0
  9
$PSTYLEMODE
290
     1
  9
$FINGERPRINTGUID
  2
{13B4FBBB-241D-575E-360B-D52361E3AED5}
  9
$VERSIONGUID
  2
{FAEB1C32-E019-11D5-929B-00C0DF256EC4}
  9
$EXTNAMES
290
     1
  9
$PSVPSCALE
 40
0.0
  9
$OLESTARTUP
290
     0
  9
$SORTENTS
280
   127
  9
$INDEXCTL
280
     0
  9
$HIDETEXT
280
     1
  9
$XCLIPFRAME
280
     2
  9
$HALOGAP
280
     0
  9
$OBSCOLOR
 70
   257
  9
$OBSLTYPE
280
     0
  9
$INTERSECTIONDISPLAY
280
     0
  9
$INTERSECTIONCOLOR
 70
   257
  9
$DIMASSOC
280
     2
  9
$PROJECTNAME
  1

  9
$CAMERADISPLAY
290
     0
  9
$LENSLENGTH
 40
50.0
  9
$CAMERAHEIGHT
 40
0.0
  9
$STEPSPERSEC
 40
2.0
  9
$STEPSIZE
 40
6.0
  9
$3DDWFPREC
 40
2.0
  9
$PSOLWIDTH
 40
0.25
  9
$PSOLHEIGHT
 40
4.0
  9
$LOFTANG1
 40
1.570796326794897
  9
$LOFTANG2
 40
1.570796326794897
  9
$LOFTMAG1
 40
0.0
  9
$LOFTMAG2
 40
0.0
  9
$LOFTPARAM
 70
     7
  9
$LOFTNORMALS
280
     1
  9
$LATITUDE
 40
37.795
  9
$LONGITUDE
 40
-122.394
  9
$NORTHDIRECTION
 40
0.0
  9
$TIMEZONE
 70
 -8000
  9
$LIGHTGLYPHDISPLAY
280
     1
  9
$TILEMODELIGHTSYNCH
280
     1
  9
$CMATERIAL
347
3C
  9
$SOLIDHIST
280
     1
  9
$SHOWHIST
280
     1
  9
$DWFFRAME
280
     2
  9
$DGNFRAME
280
     2
  9
$REALWORLDSCALE
290
     1
  9
$INTERFERECOLOR
 62
   256
  9
$CSHADOW
280
     0
  9
$SHADOWPLANELOCATION
 40
0.0
  0
ENDSEC
  0
SECTION
  2
CLASSES
  0
CLASS
  1
ACDBDICTIONARYWDFLT
  2
AcDbDictionaryWithDefault
  3
ObjectDBX Classes
 90
        0
 91
        4
280
     0
281
     0
  0
CLASS
  1
VISUALSTYLE
  2
AcDbVisualStyle
  3
ObjectDBX Classes
 90
     4095
 91
        4
280
     0
281
     0
  0
CLASS
  1
MATERIAL
  2
AcDbMaterial
  3
ObjectDBX Classes
 90
     1153
 91
        4
280
     0
281
     0
  0
CLASS
  1
SUN
  2
AcDbSun
  3
SCENEOE
 90
     1024
 91
        4
280
     0
281
     0
  0
ENDSEC
  0
SECTION
  2
TABLES
  0
TABLE
  2
VPORT
  5
8
330
0
100
AcDbSymbolTable
 70
     1
  0
VPORT
  5
29
330
8
100
AcDbSymbolTableRecord
100
AcDbViewportTableRecord
  2
*Active
 70
     0
 10
0.0
 20
0.0
 11
1.0
 21
1.0
 12
0.0
 22
0.0
 13
0.0
 23
0.0
 14
0.5
 24
0.5
 15
0.5
 25
0.5
 16
0.0
 26
0.0
 36
1.0
 17
105.0007777515277
 27
-148.5000416295416
 37
0.0
 40
297.0000832590831
 41
0.7070757462376333
 42
50.0
 43
0.0
 44
0.0
 50
0.0
 51
0.0
 71
     0
 72
   100
 73
     1
 74
     3
 75
     0
 76
     0
 77
     0
 78
     0
281
     0
 65
     1
110
0.0
120
0.0
130
0.0
111
1.0
121
0.0
131
0.0
112
0.0
122
1.0
132
0.0
 79
     0
146
0.0
 60
     3
 61
     5
292
     1
282
     1
141
0.0
142
0.0
 63
   250
361
3F
  0
ENDTAB
  0
TABLE
  2
LTYPE
  5
5
330
0
100
AcDbSymbolTable
 70
     2
  0
LTYPE
  5
14
330
5
100
AcDbSymbolTableRecord
100
AcDbLinetypeTableRecord
  2
ByBlock
 70
     0
  3

 72
    65
 73
     0
 40
0.0
  0
LTYPE
  5
15
330
5
100
AcDbSymbolTableRecord
100
AcDbLinetypeTableRecord
  2
ByLayer
 70
     0
  3

 72
    65
 73
     0
 40
0.0
  0
LTYPE
  5
16
330
5
100
AcDbSymbolTableRecord
100
AcDbLinetypeTableRecord
  2
Continuous
 70
     0
  3
Solid line
 72
    65
 73
     0
 40
0.0
  0
LTYPE
  5
B2
330
5
100
AcDbSymbolTableRecord
100
AcDbLinetypeTableRecord
  2
AI-Linetype-1
 70
     0
  3
Adobe Illustrator Linetype No. 1
 72
    65
 73
     2
 40
1.411111110758333
 49
0.7055555553791667
 74
     0
 49
-0.7055555553791667
 74
     0
  0
ENDTAB
  0
TABLE
  2
LAYER
  5
2
330
0
100
AcDbSymbolTable
 70
     2
  0
LAYER
  5
10
330
2
100
AcDbSymbolTableRecord
100
AcDbLayerTableRecord
  2
0
 70
     0
 62
     7
  6
Continuous
370
    -3
390
F
347
3E
  0
LAYER
  5
40
330
2
100
AcDbSymbolTableRecord
100
AcDbLayerTableRecord
  2
_U+30EC_U+30A4_U+30E4_U+30FC 1
 70
     0
 62
     7
  6
Continuous
370
    -3
390
F
347
3E
  0
ENDTAB
  0
TABLE
  2
STYLE
  5
3
330
0
100
AcDbSymbolTable
 70
     1
  0
STYLE
  5
11
330
3
100
AcDbSymbolTableRecord
100
AcDbTextStyleTableRecord
  2
Standard
 70
     0
 40
0.0
 41
1.0
 50
0.0
 71
     0
 42
0.2
  3
txt
  4

  0
ENDTAB
  0
TABLE
  2
VIEW
  5
6
330
0
100
AcDbSymbolTable
 70
     0
  0
ENDTAB
  0
TABLE
  2
UCS
  5
7
330
0
100
AcDbSymbolTable
 70
     0
  0
ENDTAB
  0
TABLE
  2
APPID
  5
9
330
0
100
AcDbSymbolTable
 70
     1
  0
APPID
  5
12
330
9
100
AcDbSymbolTableRecord
100
AcDbRegAppTableRecord
  2
ACAD
 70
     0
  0
ENDTAB
  0
TABLE
  2
DIMSTYLE
  5
A
330
0
100
AcDbSymbolTable
 70
     1
100
AcDbDimStyleTable
  0
DIMSTYLE
105
27
330
A
100
AcDbSymbolTableRecord
100
AcDbDimStyleTableRecord
  2
Standard
 70
     0
178
     0
340
11
  0
ENDTAB
  0
TABLE
  2
BLOCK_RECORD
  5
1
330
0
100
AcDbSymbolTable
 70
     4
  0
BLOCK_RECORD
  5
1F
330
1
100
AcDbSymbolTableRecord
100
AcDbBlockTableRecord
  2
*Model_Space
340
22
 70
     0
280
     1
281
     0
  0
BLOCK_RECORD
  5
1B
330
1
100
AcDbSymbolTableRecord
100
AcDbBlockTableRecord
  2
*Paper_Space
340
1E
 70
     0
280
     1
281
     0
  0
BLOCK_RECORD
  5
23
330
1
100
AcDbSymbolTableRecord
100
AcDbBlockTableRecord
  2
*Paper_Space0
340
26
 70
     0
280
     1
281
     0
  0
BLOCK_RECORD
  5
6A
330
1
100
AcDbSymbolTableRecord
100
AcDbBlockTableRecord
  2
block 2
340
0
102
{BLKREFS
331
6B
102
}
 70
     0
280
     1
281
     0
  0
BLOCK_RECORD
  5
92
330
1
100
AcDbSymbolTableRecord
100
AcDbBlockTableRecord
  2
block 3
340
0
102
{BLKREFS
331
93
102
}
 70
     0
280
     1
281
     0
  0
BLOCK_RECORD
  5
B8
330
1
100
AcDbSymbolTableRecord
100
AcDbBlockTableRecord
  2
block 4
340
0
102
{BLKREFS
331
B9
102
}
 70
     0
280
     1
281
     0
  0
ENDTAB
  0
ENDSEC
  0
SECTION
  2
BLOCKS
  0
BLOCK
  5
20
330
1F
100
AcDbEntity
  8
0
100
AcDbBlockBegin
  2
*Model_Space
 70
     0
 10
0.0
 20
0.0
 30
0.0
  3
*Model_Space
  1

  0
ENDBLK
  5
21
330
1F
100
AcDbEntity
  8
0
100
AcDbBlockEnd
  0
BLOCK
  5
1C
330
1B
100
AcDbEntity
 67
     1
  8
0
100
AcDbBlockBegin
  2
*Paper_Space
 70
     0
 10
0.0
 20
0.0
 30
0.0
  3
*Paper_Space
  1

  0
ENDBLK
  5
1D
330
1B
100
AcDbEntity
 67
     1
  8
0
100
AcDbBlockEnd
  0
BLOCK
  5
24
330
23
100
AcDbEntity
  8
0
100
AcDbBlockBegin
  2
*Paper_Space0
 70
     0
 10
0.0
 20
0.0
 30
0.0
  3
*Paper_Space0
  1

  0
ENDBLK
  5
25
330
23
100
AcDbEntity
  8
0
100
AcDbBlockEnd
  0
BLOCK
  5
6C
330
6A
100
AcDbEntity
  8
0
100
AcDbBlockBegin
  2
block 2
 70
     0
 10
0.0
 20
0.0
 30
0.0
  3
block 2
  1

  0
POLYLINE
  5
6E
330
6A
100
AcDbEntity
  8
_U+30EC_U+30A4_U+30E4_U+30FC 1
370
     0
100
AcDb2dPolyline
 66
     1
 10
0.0
 20
0.0
 30
0.0
  0
VERTEX
  5
6F
330
6E
100
AcDbEntity
  8
_U+30EC_U+30A4_U+30E4_U+30FC 1
370
     0
100
AcDbVertex
100
AcDb2dVertex
 10
108.0692002768021
 20
-169.2365261078645
 30
0.0
  0
VERTEX
  5
70
330
6E
100
AcDbEntity
  8
_U+30EC_U+30A4_U+30E4_U+30FC 1
370
     0
100
AcDbVertex
100
AcDb2dVertex
 10
108.0692002768021
 20
-169.5834472232291
 30
0.0
  0
VERTEX
  5
71
330
6E
100
AcDbEntity
  8
_U+30EC_U+30A4_U+30E4_U+30FC 1
370
     0
100
AcDbVertex
100
AcDb2dVertex
 10
107.8363118219993
 20
-169.5834472232291
 30
0.0
  0
VERTEX
  5
72
330
6E
100
AcDbEntity
  8
_U+30EC_U+30A4_U+30E4_U+30FC 1
370
     0
100
AcDbVertex
100
AcDb2dVertex
 10
107.8363118219993
 20
-169.2365261078645
 30
0.0
  0
VERTEX
  5
73
330
6E
100
AcDbEntity
  8
_U+30EC_U+30A4_U+30E4_U+30FC 1
370
     0
100
AcDbVertex
100
AcDb2dVertex
 10
107.1352348907509
 20
-169.2365261078645
 30
0.0
  0
VERTEX
  5
74
330
6E
100
AcDbEntity
  8
_U+30EC_U+30A4_U+30E4_U+30FC 1
370
     0
100
AcDbVertex
100
AcDb2dVertex
 10
107.1352348907509
 20
-169.0122503917747
 30
0.0
  0
VERTEX
  5
75
330
6E
100
AcDbEntity
  8
_U+30EC_U+30A4_U+30E4_U+30FC 1
370
     0
100
AcDbVertex
100
AcDb2dVertex
 10
107.8611165094931
 20
-168.0393554267402
 30
0.0
  0
VERTEX
  5
76
330
6E
100
AcDbEntity
  8
_U+30EC_U+30A4_U+30E4_U+30FC 1
370
     0
100
AcDbVertex
100
AcDb2dVertex
 10
108.0692002768021
 20
-168.0393554267402
 30
0.0
  0
VERTEX
  5
77
330
6E
100
AcDbEntity
  8
_U+30EC_U+30A4_U+30E4_U+30FC 1
370
     0
100
AcDbVertex
100
AcDb2dVertex
 10
108.0692002768021
 20
-169.0377440983656
 30
0.0
  0
VERTEX
  5
78
330
6E
100
AcDbEntity
  8
_U+30EC_U+30A4_U+30E4_U+30FC 1
370
     0
100
AcDbVertex
100
AcDb2dVertex
 10
108.2907199165037
 20
-169.0377440983656
 30
0.0
  0
VERTEX
  5
79
330
6E
100
AcDbEntity
  8
_U+30EC_U+30A4_U+30E4_U+30FC 1
370
     0
100
AcDbVertex
100
AcDb2dVertex
 10
108.2907199165037
 20
-169.2365261078645
 30
0.0
  0
VERTEX
  5
7A
330
6E
100
AcDbEntity
  8
_U+30EC_U+30A4_U+30E4_U+30FC 1
370
     0
100
AcDbVertex
100
AcDb2dVertex
 10
108.0692002768021
 20
-169.2365261078645
 30
0.0
  0
SEQEND
  5
7B
330
6E
100
AcDbEntity
  8
_U+30EC_U+30A4_U+30E4_U+30FC 1
370
     0
  0
POLYLINE
  5
7C
330
6A
100
AcDbEntity
  8
_U+30EC_U+30A4_U+30E4_U+30FC 1
370
     0
100
AcDb2dPolyline
 66
     1
 10
0.0
 20
0.0
 30
0.0
  0
VERTEX
  5
7D
330
7C
100
AcDbEntity
  8
_U+30EC_U+30A4_U+30E4_U+30FC 1
370
     0
100
AcDbVertex
100
AcDb2dVertex
 10
107.8363118219993
 20
-168.381797917974
 30
0.0
  0
VERTEX
  5
7E
330
7C
100
AcDbEntity
  8
_U+30EC_U+30A4_U+30E4_U+30FC 1
370
     0
100
AcDbVertex
100
AcDb2dVertex
 10
107.3477972821908
 20
-169.0377440983656
 30
0.0
  0
VERTEX
  5
7F
330
7C
100
AcDbEntity
  8
_U+30EC_U+30A4_U+30E4_U+30FC 1
370
     0
100
AcDbVertex
100
AcDb2dVertex
 10
107.8363118219993
 20
-169.0377440983656
 30
0.0
  0
VERTEX
  5
80
330
7C
100
AcDbEntity
  8
_U+30EC_U+30A4_U+30E4_U+30FC 1
370
     0
100
AcDbVertex
100
AcDb2dVertex
 10
107.8363118219993
 20
-168.381797917974
 30
0.0
  0
SEQEND
  5
81
330
7C
100
AcDbEntity
  8
_U+30EC_U+30A4_U+30E4_U+30FC 1
370
     0
  0
HATCH
  5
82
330
6A
100
AcDbEntity
  8
_U+30EC_U+30A4_U+30E4_U+30FC 1
 62
   179
420
  2234388
100
AcDbHatch
 10
0.0
 20
0.0
 30
0.0
210
0.0
220
0.0
230
1.0
  2
SOLID
 70
     1
 71
     0
 91
        2
 92
        1
 93
       11
 72
     1
 10
108.0692002768021
 20
-169.2365261078645
 11
108.0692002768021
 21
-169.5834472232291
 72
     1
 10
108.0692002768021
 20
-169.5834472232291
 11
107.8363118219993
 21
-169.5834472232291
 72
     1
 10
107.8363118219993
 20
-169.5834472232291
 11
107.8363118219993
 21
-169.2365261078645
 72
     1
 10
107.8363118219993
 20
-169.2365261078645
 11
107.1352348907509
 21
-169.2365261078645
 72
     1
 10
107.1352348907509
 20
-169.2365261078645
 11
107.1352348907509
 21
-169.0122503917747
 72
     1
 10
107.1352348907509
 20
-169.0122503917747
 11
107.8611165094931
 21
-168.0393554267402
 72
     1
 10
107.8611165094931
 20
-168.0393554267402
 11
108.0692002768021
 21
-168.0393554267402
 72
     1
 10
108.0692002768021
 20
-168.0393554267402
 11
108.0692002768021
 21
-169.0377440983656
 72
     1
 10
108.0692002768021
 20
-169.0377440983656
 11
108.2907199165037
 21
-169.0377440983656
 72
     1
 10
108.2907199165037
 20
-169.0377440983656
 11
108.2907199165037
 21
-169.2365261078645
 72
     1
 10
108.2907199165037
 20
-169.2365261078645
 11
108.0692002768021
 21
-169.2365261078645
 97
        0
 92
        1
 93
        3
 72
     1
 10
107.8363118219993
 20
-168.381797917974
 11
107.3477972821908
 21
-169.0377440983656
 72
     1
 10
107.3477972821908
 20
-169.0377440983656
 11
107.8363118219993
 21
-169.0377440983656
 72
     1
 10
107.8363118219993
 20
-169.0377440983656
 11
107.8363118219993
 21
-168.381797917974
 97
        0
 75
     2
 76
     1
 98
        0
  0
SPLINE
  5
83
330
6A
100
AcDbEntity
  8
_U+30EC_U+30A4_U+30E4_U+30FC 1
370
     0
100
AcDbSpline
210
0.0
220
0.0
230
1.0
 70
    11
 71
     3
 72
    29
 73
    25
 74
     0
 42
0.0000000001
 43
0.0000000001
 12
1.0
 22
0.0
 32
0.0
 13
1.0
 23
0.0
 33
0.0
 40
0.0
 40
0.0
 40
0.0
 40
0.0
 40
1.0
 40
1.0
 40
1.0
 40
2.0
 40
2.0
 40
2.0
 40
3.0
 40
3.0
 40
3.0
 40
4.0
 40
4.0
 40
4.0
 40
5.0
 40
5.0
 40
5.0
 40
6.0
 40
6.0
 40
6.0
 40
7.0
 40
7.0
 40
7.0
 40
8.0
 40
8.0
 40
8.0
 40
8.0
 10
109.3969400768174
 20
-169.4056802961902
 30
0.0
 10
109.2815293780616
 20
-169.6151421016934
 30
0.0
 10
109.0961832409551
 20
-169.6344346364108
 30
0.0
 10
108.9718152939376
 20
-169.6344346364108
 30
0.0
 10
108.8002495387722
 20
-169.6344346364108
 30
0.0
 10
108.6486653374212
 20
-169.58792584736
 30
0.0
 10
108.5470350206063
 20
-169.4056802961902
 30
0.0
 10
108.4361029459813
 20
-169.2110324012736
 30
0.0
 10
108.4157768826183
 20
-168.974354341437
 30
0.0
 10
108.4157768826183
 20
-168.8114013249846
 30
0.0
 10
108.4157768826183
 20
-168.6673963337012
 30
0.0
 10
108.4336913791416
 20
-168.415904363278
 30
0.0
 10
108.5470350206063
 20
-168.2167778442305
 30
0.0
 10
108.6621012098136
 20
-168.0138617201493
 30
0.0
 10
108.8340114745276
 20
-167.9904350708496
 30
0.0
 10
108.9718152939376
 20
-167.9904350708496
 30
0.0
 10
109.1416585013604
 20
-167.9904350708496
 30
0.0
 10
109.2953097600026
 20
-168.0348768026093
 30
0.0
 10
109.3969400768174
 20
-168.2167778442305
 30
0.0
 10
109.5033935273117
 20
-168.409358681856
 30
0.0
 10
109.5281982148055
 20
-168.6377685125281
 30
0.0
 10
109.5281982148055
 20
-168.8114013249846
 30
0.0
 10
109.5281982148055
 20
-168.9826225706016
 30
0.0
 10
109.5054605846028
 20
-169.2134439681133
 30
0.0
 10
109.3969400768174
 20
-169.4056802961902
 30
0.0
  0
SPLINE
  5
84
330
6A
100
AcDbEntity
  8
_U+30EC_U+30A4_U+30E4_U+30FC 1
370
     0
100
AcDbSpline
210
0.0
220
0.0
230
1.0
 70
    11
 71
     3
 72
    17
 73
    13
 74
     0
 42
0.0000000001
 43
0.0000000001
 12
1.0
 22
0.0
 32
0.0
 13
1.0
 23
0.0
 33
0.0
 40
0.0
 40
0.0
 40
0.0
 40
0.0
 40
1.0
 40
1.0
 40
1.0
 40
2.0
 40
2.0
 40
2.0
 40
3.0
 40
3.0
 40
3.0
 40
4.0
 40
4.0
 40
4.0
 40
4.0
 10
108.9718152939376
 20
-168.1830159084751
 30
0.0
 10
108.7051649033793
 20
-168.1830159084751
 30
0.0
 10
108.6555555283917
 20
-168.4665472669111
 30
0.0
 10
108.6555555283917
 20
-168.8114013249846
 30
0.0
 10
108.6555555283917
 20
-169.1307616764673
 30
0.0
 10
108.6937960882779
 20
-169.4397867414942
 30
0.0
 10
108.9718152939376
 20
-169.4397867414942
 30
0.0
 10
109.2363986272048
 20
-169.4397867414942
 30
0.0
 10
109.2884195690321
 20
-169.1583224403493
 30
0.0
 10
109.2884195690321
 20
-168.8114013249846
 30
0.0
 10
109.2884195690321
 20
-168.492040973502
 30
0.0
 10
109.2477674423061
 20
-168.1830159084751
 30
0.0
 10
108.9718152939376
 20
-168.1830159084751
 30
0.0
  0
HATCH
  5
85
330
6A
100
AcDbEntity
  8
_U+30EC_U+30A4_U+30E4_U+30FC 1
 62
   179
420
  2234388
100
AcDbHatch
 10
0.0
 20
0.0
 30
0.0
210
0.0
220
0.0
230
1.0
  2
SOLID
 70
     1
 71
     0
 91
        2
 92
        1
 93
        1
 72
     4
 94
        3
 73
     0
 74
     1
 95
       29
 96
       25
 40
0.0
 40
0.0
 40
0.0
 40
0.0
 40
1.0
 40
1.0
 40
1.0
 40
2.0
 40
2.0
 40
2.0
 40
3.0
 40
3.0
 40
3.0
 40
4.0
 40
4.0
 40
4.0
 40
5.0
 40
5.0
 40
5.0
 40
6.0
 40
6.0
 40
6.0
 40
7.0
 40
7.0
 40
7.0
 40
8.0
 40
8.0
 40
8.0
 40
8.0
 10
109.3969400768174
 20
-169.4056802961902
 10
109.2815293780616
 20
-169.6151421016934
 10
109.0961832409551
 20
-169.6344346364108
 10
108.9718152939376
 20
-169.6344346364108
 10
108.8002495387722
 20
-169.6344346364108
 10
108.6486653374212
 20
-169.58792584736
 10
108.5470350206063
 20
-169.4056802961902
 10
108.4361029459813
 20
-169.2110324012736
 10
108.4157768826183
 20
-168.974354341437
 10
108.4157768826183
 20
-168.8114013249846
 10
108.4157768826183
 20
-168.6673963337012
 10
108.4336913791416
 20
-168.415904363278
 10
108.5470350206063
 20
-168.2167778442305
 10
108.6621012098136
 20
-168.0138617201493
 10
108.8340114745276
 20
-167.9904350708496
 10
108.9718152939376
 20
-167.9904350708496
 10
109.1416585013604
 20
-167.9904350708496
 10
109.2953097600026
 20
-168.0348768026093
 10
109.3969400768174
 20
-168.2167778442305
 10
109.5033935273117
 20
-168.409358681856
 10
109.5281982148055
 20
-168.6377685125281
 10
109.5281982148055
 20
-168.8114013249846
 10
109.5281982148055
 20
-168.9826225706016
 10
109.5054605846028
 20
-169.2134439681133
 10
109.3969400768174
 20
-169.4056802961902
 97
        0
 97
        0
 92
        1
 93
        1
 72
     4
 94
        3
 73
     0
 74
     1
 95
       17
 96
       13
 40
0.0
 40
0.0
 40
0.0
 40
0.0
 40
1.0
 40
1.0
 40
1.0
 40
2.0
 40
2.0
 40
2.0
 40
3.0
 40
3.0
 40
3.0
 40
4.0
 40
4.0
 40
4.0
 40
4.0
 10
108.9718152939376
 20
-168.1830159084751
 10
108.7051649033793
 20
-168.1830159084751
 10
108.6555555283917
 20
-168.4665472669111
 10
108.6555555283917
 20
-168.8114013249846
 10
108.6555555283917
 20
-169.1307616764673
 10
108.6937960882779
 20
-169.4397867414942
 10
108.9718152939376
 20
-169.4397867414942
 10
109.2363986272048
 20
-169.4397867414942
 10
109.2884195690321
 20
-169.1583224403493
 10
109.2884195690321
 20
-168.8114013249846
 10
109.2884195690321
 20
-168.492040973502
 10
109.2477674423061
 20
-168.1830159084751
 10
108.9718152939376
 20
-168.1830159084751
 97
        0
 97
        0
 75
     2
 76
     1
 98
        0
  0
ENDBLK
  5
6D
330
6A
100
AcDbEntity
  8
0
100
AcDbBlockEnd
  0
BLOCK
  5
94
330
92
100
AcDbEntity
  8
0
100
AcDbBlockBegin
  2
block 3
 70
     0
 10
0.0
 20
0.0
 30
0.0
  3
block 3
  1

  0
POLYLINE
  5
96
330
92
100
AcDbEntity
  8
_U+30EC_U+30A4_U+30E4_U+30FC 1
370
     0
100
AcDb2dPolyline
 66
     1
 10
0.0
 20
0.0
 30
0.0
  0
VERTEX
  5
97
330
96
100
AcDbEntity
  8
_U+30EC_U+30A4_U+30E4_U+30FC 1
370
     0
100
AcDbVertex
100
AcDb2dVertex
 10
83.27829316494432
 20
-146.5660752671779
 30
0.0
  0
VERTEX
  5
98
330
96
100
AcDbEntity
  8
_U+30EC_U+30A4_U+30E4_U+30FC 1
370
     0
100
AcDbVertex
100
AcDb2dVertex
 10
83.62521428030898
 20
-146.5660752671779
 30
0.0
  0
VERTEX
  5
99
330
96
100
AcDbEntity
  8
_U+30EC_U+30A4_U+30E4_U+30FC 1
370
     0
100
AcDbVertex
100
AcDb2dVertex
 10
83.62521428030898
 20
-146.7989637219808
 30
0.0
  0
VERTEX
  5
9A
330
96
100
AcDbEntity
  8
_U+30EC_U+30A4_U+30E4_U+30FC 1
370
     0
100
AcDbVertex
100
AcDb2dVertex
 10
83.27829316494432
 20
-146.7989637219808
 30
0.0
  0
VERTEX
  5
9B
330
96
100
AcDbEntity
  8
_U+30EC_U+30A4_U+30E4_U+30FC 1
370
     0
100
AcDbVertex
100
AcDb2dVertex
 10
83.27829316494432
 20
-147.5000406532291
 30
0.0
  0
VERTEX
  5
9C
330
96
100
AcDbEntity
  8
_U+30EC_U+30A4_U+30E4_U+30FC 1
370
     0
100
AcDbVertex
100
AcDb2dVertex
 10
83.05401744885455
 20
-147.5000406532291
 30
0.0
  0
VERTEX
  5
9D
330
96
100
AcDbEntity
  8
_U+30EC_U+30A4_U+30E4_U+30FC 1
370
     0
100
AcDbVertex
100
AcDb2dVertex
 10
82.08077797427147
 20
-146.774159034487
 30
0.0
  0
VERTEX
  5
9E
330
96
100
AcDbEntity
  8
_U+30EC_U+30A4_U+30E4_U+30FC 1
370
     0
100
AcDbVertex
100
AcDb2dVertex
 10
82.08077797427147
 20
-146.5660752671779
 30
0.0
  0
VERTEX
  5
9F
330
96
100
AcDbEntity
  8
_U+30EC_U+30A4_U+30E4_U+30FC 1
370
     0
100
AcDbVertex
100
AcDb2dVertex
 10
83.07916664589688
 20
-146.5660752671779
 30
0.0
  0
VERTEX
  5
A0
330
96
100
AcDbEntity
  8
_U+30EC_U+30A4_U+30E4_U+30FC 1
370
     0
100
AcDbVertex
100
AcDb2dVertex
 10
83.07916664589688
 20
-146.3445556274764
 30
0.0
  0
VERTEX
  5
A1
330
96
100
AcDbEntity
  8
_U+30EC_U+30A4_U+30E4_U+30FC 1
370
     0
100
AcDbVertex
100
AcDb2dVertex
 10
83.27829316494432
 20
-146.3445556274764
 30
0.0
  0
VERTEX
  5
A2
330
96
100
AcDbEntity
  8
_U+30EC_U+30A4_U+30E4_U+30FC 1
370
     0
100
AcDbVertex
100
AcDb2dVertex
 10
83.27829316494432
 20
-146.5660752671779
 30
0.0
  0
SEQEND
  5
A3
330
96
100
AcDbEntity
  8
_U+30EC_U+30A4_U+30E4_U+30FC 1
370
     0
  0
POLYLINE
  5
A4
330
92
100
AcDbEntity
  8
_U+30EC_U+30A4_U+30E4_U+30FC 1
370
     0
100
AcDb2dPolyline
 66
     1
 10
0.0
 20
0.0
 30
0.0
  0
VERTEX
  5
A5
330
A4
100
AcDbEntity
  8
_U+30EC_U+30A4_U+30E4_U+30FC 1
370
     0
100
AcDbVertex
100
AcDb2dVertex
 10
82.42356497505384
 20
-146.7989637219808
 30
0.0
  0
VERTEX
  5
A6
330
A4
100
AcDbEntity
  8
_U+30EC_U+30A4_U+30E4_U+30FC 1
370
     0
100
AcDbVertex
100
AcDb2dVertex
 10
83.07916664589688
 20
-147.2874782617893
 30
0.0
  0
VERTEX
  5
A7
330
A4
100
AcDbEntity
  8
_U+30EC_U+30A4_U+30E4_U+30FC 1
370
     0
100
AcDbVertex
100
AcDb2dVertex
 10
83.07916664589688
 20
-146.7989637219808
 30
0.0
  0
VERTEX
  5
A8
330
A4
100
AcDbEntity
  8
_U+30EC_U+30A4_U+30E4_U+30FC 1
370
     0
100
AcDbVertex
100
AcDb2dVertex
 10
82.42356497505384
 20
-146.7989637219808
 30
0.0
  0
SEQEND
  5
A9
330
A4
100
AcDbEntity
  8
_U+30EC_U+30A4_U+30E4_U+30FC 1
370
     0
  0
HATCH
  5
AA
330
92
100
AcDbEntity
  8
_U+30EC_U+30A4_U+30E4_U+30FC 1
 62
   179
420
  2234388
100
AcDbHatch
 10
0.0
 20
0.0
 30
0.0
210
0.0
220
0.0
230
1.0
  2
SOLID
 70
     1
 71
     0
 91
        2
 92
        1
 93
       11
 72
     1
 10
83.27829316494432
 20
-146.5660752671779
 11
83.62521428030898
 21
-146.5660752671779
 72
     1
 10
83.62521428030898
 20
-146.5660752671779
 11
83.62521428030898
 21
-146.7989637219808
 72
     1
 10
83.62521428030898
 20
-146.7989637219808
 11
83.27829316494432
 21
-146.7989637219808
 72
     1
 10
83.27829316494432
 20
-146.7989637219808
 11
83.27829316494432
 21
-147.5000406532291
 72
     1
 10
83.27829316494432
 20
-147.5000406532291
 11
83.05401744885455
 21
-147.5000406532291
 72
     1
 10
83.05401744885455
 20
-147.5000406532291
 11
82.08077797427147
 21
-146.774159034487
 72
     1
 10
82.08077797427147
 20
-146.774159034487
 11
82.08077797427147
 21
-146.5660752671779
 72
     1
 10
82.08077797427147
 20
-146.5660752671779
 11
83.07916664589688
 21
-146.5660752671779
 72
     1
 10
83.07916664589688
 20
-146.5660752671779
 11
83.07916664589688
 21
-146.3445556274764
 72
     1
 10
83.07916664589688
 20
-146.3445556274764
 11
83.27829316494432
 21
-146.3445556274764
 72
     1
 10
83.27829316494432
 20
-146.3445556274764
 11
83.27829316494432
 21
-146.5660752671779
 97
        0
 92
        1
 93
        3
 72
     1
 10
82.42356497505384
 20
-146.7989637219808
 11
83.07916664589688
 21
-147.2874782617893
 72
     1
 10
83.07916664589688
 20
-147.2874782617893
 11
83.07916664589688
 21
-146.7989637219808
 72
     1
 10
83.07916664589688
 20
-146.7989637219808
 11
82.42356497505384
 21
-146.7989637219808
 97
        0
 75
     2
 76
     1
 98
        0
  0
SPLINE
  5
AB
330
92
100
AcDbEntity
  8
_U+30EC_U+30A4_U+30E4_U+30FC 1
370
     0
100
AcDbSpline
210
0.0
220
0.0
230
1.0
 70
    11
 71
     3
 72
    29
 73
    25
 74
     0
 42
0.0000000001
 43
0.0000000001
 12
1.0
 22
0.0
 32
0.0
 13
1.0
 23
0.0
 33
0.0
 40
0.0
 40
0.0
 40
0.0
 40
0.0
 40
1.0
 40
1.0
 40
1.0
 40
2.0
 40
2.0
 40
2.0
 40
3.0
 40
3.0
 40
3.0
 40
4.0
 40
4.0
 40
4.0
 40
5.0
 40
5.0
 40
5.0
 40
6.0
 40
6.0
 40
6.0
 40
7.0
 40
7.0
 40
7.0
 40
8.0
 40
8.0
 40
8.0
 40
8.0
 10
83.44744735327009
 20
-145.2383354671626
 30
0.0
 10
83.65690915877327
 20
-145.3537461659185
 30
0.0
 10
83.67585718394216
 20
-145.5390923030249
 30
0.0
 10
83.67585718394216
 20
-145.6634602500425
 30
0.0
 10
83.67585718394216
 20
-145.8350260052079
 30
0.0
 10
83.62934839489128
 20
-145.9866102065589
 30
0.0
 10
83.44744735327009
 20
-146.0882405233738
 30
0.0
 10
83.25279945835346
 20
-146.1991725979988
 30
0.0
 10
83.01577688896828
 20
-146.2194986613618
 30
0.0
 10
82.85282387251597
 20
-146.2194986613618
 30
0.0
 10
82.70916339078104
 20
-146.2194986613618
 30
0.0
 10
82.45732691080929
 20
-146.2015841648385
 30
0.0
 10
82.25854490131037
 20
-146.0882405233738
 30
0.0
 10
82.05528426768063
 20
-145.9731743341664
 30
0.0
 10
82.03220212792945
 20
-145.8012640694525
 30
0.0
 10
82.03220212792945
 20
-145.6634602500425
 30
0.0
 10
82.03220212792945
 20
-145.4936170426197
 30
0.0
 10
82.07664385968917
 20
-145.3399657839775
 30
0.0
 10
82.25854490131037
 20
-145.2383354671626
 30
0.0
 10
82.45112573893583
 20
-145.1318820166684
 30
0.0
 10
82.67953556960789
 20
-145.1070773291746
 30
0.0
 10
82.85282387251597
 20
-145.1070773291746
 30
0.0
 10
83.0243896276814
 20
-145.1070773291746
 30
0.0
 10
83.25486651564462
 20
-145.1298149593773
 30
0.0
 10
83.44744735327009
 20
-145.2383354671626
 30
0.0
  0
SPLINE
  5
AC
330
92
100
AcDbEntity
  8
_U+30EC_U+30A4_U+30E4_U+30FC 1
370
     0
100
AcDbSpline
210
0.0
220
0.0
230
1.0
 70
    11
 71
     3
 72
    17
 73
    13
 74
     0
 42
0.0000000001
 43
0.0000000001
 12
1.0
 22
0.0
 32
0.0
 13
1.0
 23
0.0
 33
0.0
 40
0.0
 40
0.0
 40
0.0
 40
0.0
 40
1.0
 40
1.0
 40
1.0
 40
2.0
 40
2.0
 40
2.0
 40
3.0
 40
3.0
 40
3.0
 40
4.0
 40
4.0
 40
4.0
 40
4.0
 10
82.22478296555492
 20
-145.6634602500425
 30
0.0
 10
82.22478296555492
 20
-145.9301106406008
 30
0.0
 10
82.50831432399099
 20
-145.9797200155884
 30
0.0
 10
82.85282387251597
 20
-145.9797200155884
 30
0.0
 10
83.17252873354715
 20
-145.9797200155884
 30
0.0
 10
83.48120928902553
 20
-145.9414794557021
 30
0.0
 10
83.48120928902553
 20
-145.6634602500425
 30
0.0
 10
83.48120928902553
 20
-145.3988769167753
 30
0.0
 10
83.19974498788062
 20
-145.346855974948
 30
0.0
 10
82.85282387251597
 20
-145.346855974948
 30
0.0
 10
82.5334635210333
 20
-145.346855974948
 30
0.0
 10
82.22478296555492
 20
-145.387508101674
 30
0.0
 10
82.22478296555492
 20
-145.6634602500425
 30
0.0
  0
HATCH
  5
AD
330
92
100
AcDbEntity
  8
_U+30EC_U+30A4_U+30E4_U+30FC 1
 62
   179
420
  2234388
100
AcDbHatch
 10
0.0
 20
0.0
 30
0.0
210
0.0
220
0.0
230
1.0
  2
SOLID
 70
     1
 71
     0
 91
        2
 92
        1
 93
        1
 72
     4
 94
        3
 73
     0
 74
     1
 95
       29
 96
       25
 40
0.0
 40
0.0
 40
0.0
 40
0.0
 40
1.0
 40
1.0
 40
1.0
 40
2.0
 40
2.0
 40
2.0
 40
3.0
 40
3.0
 40
3.0
 40
4.0
 40
4.0
 40
4.0
 40
5.0
 40
5.0
 40
5.0
 40
6.0
 40
6.0
 40
6.0
 40
7.0
 40
7.0
 40
7.0
 40
8.0
 40
8.0
 40
8.0
 40
8.0
 10
83.44744735327009
 20
-145.2383354671626
 10
83.65690915877327
 20
-145.3537461659185
 10
83.67585718394216
 20
-145.5390923030249
 10
83.67585718394216
 20
-145.6634602500425
 10
83.67585718394216
 20
-145.8350260052079
 10
83.62934839489128
 20
-145.9866102065589
 10
83.44744735327009
 20
-146.0882405233738
 10
83.25279945835346
 20
-146.1991725979988
 10
83.01577688896828
 20
-146.2194986613618
 10
82.85282387251597
 20
-146.2194986613618
 10
82.70916339078104
 20
-146.2194986613618
 10
82.45732691080929
 20
-146.2015841648385
 10
82.25854490131037
 20
-146.0882405233738
 10
82.05528426768063
 20
-145.9731743341664
 10
82.03220212792945
 20
-145.8012640694525
 10
82.03220212792945
 20
-145.6634602500425
 10
82.03220212792945
 20
-145.4936170426197
 10
82.07664385968917
 20
-145.3399657839775
 10
82.25854490131037
 20
-145.2383354671626
 10
82.45112573893583
 20
-145.1318820166684
 10
82.67953556960789
 20
-145.1070773291746
 10
82.85282387251597
 20
-145.1070773291746
 10
83.0243896276814
 20
-145.1070773291746
 10
83.25486651564462
 20
-145.1298149593773
 10
83.44744735327009
 20
-145.2383354671626
 97
        0
 97
        0
 92
        1
 93
        1
 72
     4
 94
        3
 73
     0
 74
     1
 95
       17
 96
       13
 40
0.0
 40
0.0
 40
0.0
 40
0.0
 40
1.0
 40
1.0
 40
1.0
 40
2.0
 40
2.0
 40
2.0
 40
3.0
 40
3.0
 40
3.0
 40
4.0
 40
4.0
 40
4.0
 40
4.0
 10
82.22478296555492
 20
-145.6634602500425
 10
82.22478296555492
 20
-145.9301106406008
 10
82.50831432399099
 20
-145.9797200155884
 10
82.85282387251597
 20
-145.9797200155884
 10
83.17252873354715
 20
-145.9797200155884
 10
83.48120928902553
 20
-145.9414794557021
 10
83.48120928902553
 20
-145.6634602500425
 10
83.48120928902553
 20
-145.3988769167753
 10
83.19974498788062
 20
-145.346855974948
 10
82.85282387251597
 20
-145.346855974948
 10
82.5334635210333
 20
-145.346855974948
 10
82.22478296555492
 20
-145.387508101674
 10
82.22478296555492
 20
-145.6634602500425
 97
        0
 97
        0
 75
     2
 76
     1
 98
        0
  0
ENDBLK
  5
95
330
92
100
AcDbEntity
  8
0
100
AcDbBlockEnd
  0
BLOCK
  5
BA
330
B8
100
AcDbEntity
  8
0
100
AcDbBlockBegin
  2
block 4
 70
     0
 10
0.0
 20
0.0
 30
0.0
  3
block 4
  1

  0
SPLINE
  5
BC
330
B8
100
AcDbEntity
  8
_U+30EC_U+30A4_U+30E4_U+30FC 1
370
     0
100
AcDbSpline
210
0.0
220
0.0
230
1.0
 70
    11
 71
     3
 72
    17
 73
    13
 74
     0
 42
0.0000000001
 43
0.0000000001
 12
1.0
 22
0.0
 32
0.0
 13
1.0
 23
0.0
 33
0.0
 40
0.0
 40
0.0
 40
0.0
 40
0.0
 40
1.0
 40
1.0
 40
1.0
 40
2.0
 40
2.0
 40
2.0
 40
3.0
 40
3.0
 40
3.0
 40
4.0
 40
4.0
 40
4.0
 40
4.0
 10
106.8523925514119
 20
-160.3819416916754
 30
0.0
 10
106.7466281200147
 20
-160.2761772602782
 30
0.0
 10
106.6660128856599
 20
-160.2382812099404
 30
0.0
 10
106.5729953075581
 20
-160.2065863314761
 30
0.0
 10
106.5729953075581
 20
-160.2065863314761
 30
0.0
 10
106.6832383630861
 20
-160.0415662577327
 30
0.0
 10
106.6832383630861
 20
-160.0415662577327
 30
0.0
 10
106.7803900557702
 20
-160.0839409322012
 30
0.0
 10
106.9009683977539
 20
-160.1621445997164
 30
0.0
 10
106.9540228682268
 20
-160.2169216179319
 30
0.0
 10
106.9540228682268
 20
-160.2169216179319
 30
0.0
 10
106.8523925514119
 20
-160.3819416916754
 30
0.0
 10
106.8523925514119
 20
-160.3819416916754
 30
0.0
  0
SPLINE
  5
BD
330
B8
100
AcDbEntity
  8
_U+30EC_U+30A4_U+30E4_U+30FC 1
370
     0
100
AcDbSpline
210
0.0
220
0.0
230
1.0
 70
    11
 71
     3
 72
   182
 73
   178
 74
     0
 42
0.0000000001
 43
0.0000000001
 12
1.0
 22
0.0
 32
0.0
 13
1.0
 23
0.0
 33
0.0
 40
0.0
 40
0.0
 40
0.0
 40
0.0
 40
1.0
 40
1.0
 40
1.0
 40
2.0
 40
2.0
 40
2.0
 40
3.0
 40
3.0
 40
3.0
 40
4.0
 40
4.0
 40
4.0
 40
5.0
 40
5.0
 40
5.0
 40
6.0
 40
6.0
 40
6.0
 40
7.0
 40
7.0
 40
7.0
 40
8.0
 40
8.0
 40
8.0
 40
9.0
 40
9.0
 40
9.0
 40
10.0
 40
10.0
 40
10.0
 40
11.0
 40
11.0
 40
11.0
 40
12.0
 40
12.0
 40
12.0
 40
13.0
 40
13.0
 40
13.0
 40
14.0
 40
14.0
 40
14.0
 40
15.0
 40
15.0
 40
15.0
 40
16.0
 40
16.0
 40
16.0
 40
17.0
 40
17.0
 40
17.0
 40
18.0
 40
18.0
 40
18.0
 40
19.0
 40
19.0
 40
19.0
 40
20.0
 40
20.0
 40
20.0
 40
21.0
 40
21.0
 40
21.0
 40
22.0
 40
22.0
 40
22.0
 40
23.0
 40
23.0
 40
23.0
 40
24.0
 40
24.0
 40
24.0
 40
25.0
 40
25.0
 40
25.0
 40
26.0
 40
26.0
 40
26.0
 40
27.0
 40
27.0
 40
27.0
 40
28.0
 40
28.0
 40
28.0
 40
29.0
 40
29.0
 40
29.0
 40
30.0
 40
30.0
 40
30.0
 40
31.0
 40
31.0
 40
31.0
 40
32.0
 40
32.0
 40
32.0
 40
33.0
 40
33.0
 40
33.0
 40
34.0
 40
34.0
 40
34.0
 40
35.0
 40
35.0
 40
35.0
 40
36.0
 40
36.0
 40
36.0
 40
37.0
 40
37.0
 40
37.0
 40
38.0
 40
38.0
 40
38.0
 40
39.0
 40
39.0
 40
39.0
 40
40.0
 40
40.0
 40
40.0
 40
41.0
 40
41.0
 40
41.0
 40
42.0
 40
42.0
 40
42.0
 40
43.0
 40
43.0
 40
43.0
 40
44.0
 40
44.0
 40
44.0
 40
45.0
 40
45.0
 40
45.0
 40
46.0
 40
46.0
 40
46.0
 40
47.0
 40
47.0
 40
47.0
 40
48.0
 40
48.0
 40
48.0
 40
49.0
 40
49.0
 40
49.0
 40
50.0
 40
50.0
 40
50.0
 40
51.0
 40
51.0
 40
51.0
 40
52.0
 40
52.0
 40
52.0
 40
53.0
 40
53.0
 40
53.0
 40
54.0
 40
54.0
 40
54.0
 40
55.0
 40
55.0
 40
55.0
 40
56.0
 40
56.0
 40
56.0
 40
57.0
 40
57.0
 40
57.0
 40
58.0
 40
58.0
 40
58.0
 40
59.0
 40
59.0
 40
59.0
 40
59.0
 10
107.8972900120882
 20
-161.5605088571793
 30
0.0
 10
107.8972900120882
 20
-161.5605088571793
 30
0.0
 10
107.260636366414
 20
-161.5605088571793
 30
0.0
 10
107.260636366414
 20
-161.5605088571793
 30
0.0
 10
107.0470404463285
 20
-161.5605088571793
 30
0.0
 10
106.8310329594034
 20
-161.5646429717616
 30
0.0
 10
106.6174370393179
 20
-161.5773898250571
 30
0.0
 10
106.6174370393179
 20
-161.5773898250571
 30
0.0
 10
106.6174370393179
 20
-161.369995076845
 30
0.0
 10
106.6174370393179
 20
-161.369995076845
 30
0.0
 10
106.8396456981165
 20
-161.3827419301404
 30
0.0
 10
107.1631401641814
 20
-161.3868760447227
 30
0.0
 10
107.260636366414
 20
-161.3868760447227
 30
0.0
 10
107.260636366414
 20
-161.3868760447227
 30
0.0
 10
107.4807779679215
 20
-161.3868760447227
 30
0.0
 10
107.4807779679215
 20
-161.3868760447227
 30
0.0
 10
107.4807779679215
 20
-161.3868760447227
 30
0.0
 10
107.4807779679215
 20
-161.245282620279
 30
0.0
 10
107.4807779679215
 20
-161.245282620279
 30
0.0
 10
107.4807779679215
 20
-161.245282620279
 30
0.0
 10
107.3198920087603
 20
-161.245282620279
 30
0.0
 10
107.3198920087603
 20
-161.245282620279
 30
0.0
 10
107.1548719350168
 20
-161.245282620279
 30
0.0
 10
106.9898518612734
 20
-161.2494167348613
 30
0.0
 10
106.8248317875299
 20
-161.2642306454478
 30
0.0
 10
106.8248317875299
 20
-161.2642306454478
 30
0.0
 10
106.8248317875299
 20
-161.0547688399446
 30
0.0
 10
106.8248317875299
 20
-161.0547688399446
 30
0.0
 10
106.9960530331468
 20
-161.0695827505312
 30
0.0
 10
107.2437553985363
 20
-161.0737168651135
 30
0.0
 10
107.3198920087603
 20
-161.0737168651135
 30
0.0
 10
107.3198920087603
 20
-161.0737168651135
 30
0.0
 10
107.4807779679215
 20
-161.0737168651135
 30
0.0
 10
107.4807779679215
 20
-161.0737168651135
 30
0.0
 10
107.4762993437907
 20
-161.0020588790203
 30
0.0
 10
107.4762993437907
 20
-160.9955131975983
 30
0.0
 10
107.4700981719172
 20
-160.942803236674
 30
0.0
 10
107.4700981719172
 20
-160.942803236674
 30
0.0
 10
107.6096245390698
 20
-160.9576171472606
 30
0.0
 10
107.6096245390698
 20
-160.9576171472606
 30
0.0
 10
107.6096245390698
 20
-160.9576171472606
 30
0.0
 10
107.5104057890946
 20
-160.7860513920952
 30
0.0
 10
107.5104057890946
 20
-160.7860513920952
 30
0.0
 10
107.5569145781455
 20
-160.7925970735171
 30
0.0
 10
107.6309841310784
 20
-160.8008653026817
 30
0.0
 10
107.6478650989561
 20
-160.8008653026817
 30
0.0
 10
107.6985080025893
 20
-160.8008653026817
 30
0.0
 10
107.715388970467
 20
-160.7798502202217
 30
0.0
 10
107.715388970467
 20
-160.7226616351666
 30
0.0
 10
107.715388970467
 20
-160.7226616351666
 30
0.0
 10
107.715388970467
 20
-160.5852023253051
 30
0.0
 10
107.715388970467
 20
-160.5852023253051
 30
0.0
 10
107.715388970467
 20
-160.5852023253051
 30
0.0
 10
107.6096245390698
 20
-160.5852023253051
 30
0.0
 10
107.6096245390698
 20
-160.5852023253051
 30
0.0
 10
107.4762993437907
 20
-160.5852023253051
 30
0.0
 10
107.3198920087603
 20
-160.5852023253051
 30
0.0
 10
107.1972466094854
 20
-160.5979491786005
 30
0.0
 10
107.1972466094854
 20
-160.5979491786005
 30
0.0
 10
107.1972466094854
 20
-160.4074353982662
 30
0.0
 10
107.1972466094854
 20
-160.4074353982662
 30
0.0
 10
107.36433374052
 20
-160.4243163661439
 30
0.0
 10
107.5948106284832
 20
-160.4263834234351
 30
0.0
 10
107.6096245390698
 20
-160.4263834234351
 30
0.0
 10
107.6096245390698
 20
-160.4263834234351
 30
0.0
 10
107.715388970467
 20
-160.4263834234351
 30
0.0
 10
107.715388970467
 20
-160.4263834234351
 30
0.0
 10
107.715388970467
 20
-160.4263834234351
 30
0.0
 10
107.715388970467
 20
-160.2954697949956
 30
0.0
 10
107.715388970467
 20
-160.2954697949956
 30
0.0
 10
107.715388970467
 20
-160.2954697949956
 30
0.0
 10
107.6774929201292
 20
-160.2954697949956
 30
0.0
 10
107.6774929201292
 20
-160.2954697949956
 30
0.0
 10
107.6330511883695
 20
-160.2954697949956
 30
0.0
 10
107.507994222255
 20
-160.2996039095779
 30
0.0
 10
107.4191107587355
 20
-160.3078721387425
 30
0.0
 10
107.4191107587355
 20
-160.3078721387425
 30
0.0
 10
107.4191107587355
 20
-160.2276014139362
 30
0.0
 10
107.4191107587355
 20
-160.2276014139362
 30
0.0
 10
107.3664007978112
 20
-160.2658419738224
 30
0.0
 10
107.3409070912203
 20
-160.280655884409
 30
0.0
 10
107.2985324167518
 20
-160.3037380241602
 30
0.0
 10
107.2985324167518
 20
-160.3037380241602
 30
0.0
 10
107.1104302032571
 20
-160.1748914530118
 30
0.0
 10
107.1104302032571
 20
-160.1748914530118
 30
0.0
 10
107.1886338707723
 20
-160.1407850077079
 30
0.0
 10
107.3453857153512
 20
-160.0773952507793
 30
0.0
 10
107.5017930503815
 20
-159.9337347690443
 30
0.0
 10
107.584130832479
 20
-159.8551865919807
 30
0.0
 10
107.6626790095427
 20
-159.770781752592
 30
0.0
 10
107.715388970467
 20
-159.6691514357772
 30
0.0
 10
107.715388970467
 20
-159.6691514357772
 30
0.0
 10
107.9269178332613
 20
-159.7304741354146
 30
0.0
 10
107.9269178332613
 20
-159.7304741354146
 30
0.0
 10
107.9458658584302
 20
-159.7366753072881
 30
0.0
 10
107.9565456544345
 20
-159.7452880460012
 30
0.0
 10
107.9565456544345
 20
-159.7580348992966
 30
0.0
 10
107.9565456544345
 20
-159.7749158671743
 30
0.0
 10
107.9437988011391
 20
-159.7811170390478
 30
0.0
 10
107.9186496040967
 20
-159.7938638923432
 30
0.0
 10
107.9989203289031
 20
-159.8913600945758
 30
0.0
 10
108.1618733453554
 20
-159.9885117872598
 30
0.0
 10
108.1956352811108
 20
-160.0074598124287
 30
0.0
 10
108.3458414442677
 20
-160.0963432759482
 30
0.0
 10
108.460218614378
 20
-160.1239040398301
 30
0.0
 10
108.5384222818932
 20
-160.142852064999
 30
0.0
 10
108.5384222818932
 20
-160.142852064999
 30
0.0
 10
108.4199109972006
 20
-160.3123507628733
 30
0.0
 10
108.4199109972006
 20
-160.3123507628733
 30
0.0
 10
108.3351616482634
 20
-160.2827229417002
 30
0.0
 10
108.2845187446303
 20
-160.2637749165313
 30
0.0
 10
108.1660074599377
 20
-160.197973592763
 30
0.0
 10
108.1660074599377
 20
-160.197973592763
 30
0.0
 10
108.1660074599377
 20
-160.3078721387425
 30
0.0
 10
108.1660074599377
 20
-160.3078721387425
 30
0.0
 10
108.0836696778402
 20
-160.2996039095779
 30
0.0
 10
107.9565456544345
 20
-160.2954697949956
 30
0.0
 10
107.9038356935102
 20
-160.2954697949956
 30
0.0
 10
107.9038356935102
 20
-160.2954697949956
 30
0.0
 10
107.9038356935102
 20
-160.4263834234351
 30
0.0
 10
107.9038356935102
 20
-160.4263834234351
 30
0.0
 10
107.9038356935102
 20
-160.4263834234351
 30
0.0
 10
108.0244140354939
 20
-160.4263834234351
 30
0.0
 10
108.0244140354939
 20
-160.4263834234351
 30
0.0
 10
108.026481092785
 20
-160.4263834234351
 30
0.0
 10
108.2590250380394
 20
-160.4243163661439
 30
0.0
 10
108.4367919650783
 20
-160.4074353982662
 30
0.0
 10
108.4367919650783
 20
-160.4074353982662
 30
0.0
 10
108.4367919650783
 20
-160.5979491786005
 30
0.0
 10
108.4367919650783
 20
-160.5979491786005
 30
0.0
 10
108.30794539393
 20
-160.5852023253051
 30
0.0
 10
108.1511935493511
 20
-160.5852023253051
 30
0.0
 10
108.0244140354939
 20
-160.5852023253051
 30
0.0
 10
108.0244140354939
 20
-160.5852023253051
 30
0.0
 10
107.9038356935102
 20
-160.5852023253051
 30
0.0
 10
107.9038356935102
 20
-160.5852023253051
 30
0.0
 10
107.9038356935102
 20
-160.5852023253051
 30
0.0
 10
107.9038356935102
 20
-160.811545098686
 30
0.0
 10
107.9038356935102
 20
-160.811545098686
 30
0.0
 10
107.9038356935102
 20
-160.9300563833786
 30
0.0
 10
107.8783419869193
 20
-160.9658853764252
 30
0.0
 10
107.7174560277581
 20
-160.9806992870118
 30
0.0
 10
107.721934651889
 20
-160.9996473121807
 30
0.0
 10
107.715388970467
 20
-161.0103271081849
 30
0.0
 10
107.6774929201292
 20
-161.0337537574846
 30
0.0
 10
107.6750813532896
 20
-161.0527017826535
 30
0.0
 10
107.6750813532896
 20
-161.058902954527
 30
0.0
 10
107.6730142959984
 20
-161.0737168651135
 30
0.0
 10
107.6730142959984
 20
-161.0737168651135
 30
0.0
 10
107.8108181154084
 20
-161.0737168651135
 30
0.0
 10
107.8108181154084
 20
-161.0737168651135
 30
0.0
 10
107.9754936796034
 20
-161.0737168651135
 30
0.0
 10
108.1429253201865
 20
-161.0695827505312
 30
0.0
 10
108.3100124512211
 20
-161.0547688399446
 30
0.0
 10
108.3100124512211
 20
-161.0547688399446
 30
0.0
 10
108.3100124512211
 20
-161.2621635881567
 30
0.0
 10
108.3100124512211
 20
-161.2621635881567
 30
0.0
 10
108.0940049642959
 20
-161.245282620279
 30
0.0
 10
107.8297661405773
 20
-161.245282620279
 30
0.0
 10
107.8108181154084
 20
-161.245282620279
 30
0.0
 10
107.8108181154084
 20
-161.245282620279
 30
0.0
 10
107.6709472387073
 20
-161.245282620279
 30
0.0
 10
107.6709472387073
 20
-161.245282620279
 30
0.0
 10
107.6709472387073
 20
-161.245282620279
 30
0.0
 10
107.6709472387073
 20
-161.3868760447227
 30
0.0
 10
107.6709472387073
 20
-161.3868760447227
 30
0.0
 10
107.6709472387073
 20
-161.3868760447227
 30
0.0
 10
107.8972900120882
 20
-161.3868760447227
 30
0.0
 10
107.8972900120882
 20
-161.3868760447227
 30
0.0
 10
108.1132974990133
 20
-161.3868760447227
 30
0.0
 10
108.3310275336811
 20
-161.3827419301404
 30
0.0
 10
108.5466905110578
 20
-161.369995076845
 30
0.0
 10
108.5466905110578
 20
-161.369995076845
 30
0.0
 10
108.5466905110578
 20
-161.5773898250571
 30
0.0
 10
108.5466905110578
 20
-161.5773898250571
 30
0.0
 10
108.2655707194614
 20
-161.5605088571793
 30
0.0
 10
107.9207166613879
 20
-161.5605088571793
 30
0.0
 10
107.8972900120882
 20
-161.5605088571793
 30
0.0
  0
SPLINE
  5
BE
330
B8
100
AcDbEntity
  8
_U+30EC_U+30A4_U+30E4_U+30FC 1
370
     0
100
AcDbSpline
210
0.0
220
0.0
230
1.0
 70
    11
 71
     3
 72
    23
 73
    19
 74
     0
 42
0.0000000001
 43
0.0000000001
 12
1.0
 22
0.0
 32
0.0
 13
1.0
 23
0.0
 33
0.0
 40
0.0
 40
0.0
 40
0.0
 40
0.0
 40
1.0
 40
1.0
 40
1.0
 40
2.0
 40
2.0
 40
2.0
 40
3.0
 40
3.0
 40
3.0
 40
4.0
 40
4.0
 40
4.0
 40
5.0
 40
5.0
 40
5.0
 40
6.0
 40
6.0
 40
6.0
 40
6.0
 10
106.778322998479
 20
-160.9321234406698
 30
0.0
 10
106.778322998479
 20
-160.9531385231298
 30
0.0
 10
106.7803900557702
 20
-160.9913790830161
 30
0.0
 10
106.7548963491793
 20
-160.9913790830161
 30
0.0
 10
106.7445610627236
 20
-160.9913790830161
 30
0.0
 10
106.7359483240105
 20
-160.9848334015941
 30
0.0
 10
106.7252685280062
 20
-160.9679524337164
 30
0.0
 10
106.7252685280062
 20
-160.9679524337164
 30
0.0
 10
106.6215711539002
 20
-160.7860513920952
 30
0.0
 10
106.6215711539002
 20
-160.7860513920952
 30
0.0
 10
106.8375786408253
 20
-160.6572048209468
 30
0.0
 10
107.0342935930331
 20
-160.3798746343842
 30
0.0
 10
107.080802382084
 20
-160.3078721387425
 30
0.0
 10
107.080802382084
 20
-160.3078721387425
 30
0.0
 10
107.1528048777257
 20
-160.4877061230725
 30
0.0
 10
107.1528048777257
 20
-160.4877061230725
 30
0.0
 10
107.0194796824465
 20
-160.6844210752803
 30
0.0
 10
106.8437798126988
 20
-160.8687336837412
 30
0.0
 10
106.778322998479
 20
-160.9321234406698
 30
0.0
  0
SPLINE
  5
BF
330
B8
100
AcDbEntity
  8
_U+30EC_U+30A4_U+30E4_U+30FC 1
370
     0
100
AcDbSpline
210
0.0
220
0.0
230
1.0
 70
    11
 71
     3
 72
    17
 73
    13
 74
     0
 42
0.0000000001
 43
0.0000000001
 12
1.0
 22
0.0
 32
0.0
 13
1.0
 23
0.0
 33
0.0
 40
0.0
 40
0.0
 40
0.0
 40
0.0
 40
1.0
 40
1.0
 40
1.0
 40
2.0
 40
2.0
 40
2.0
 40
3.0
 40
3.0
 40
3.0
 40
4.0
 40
4.0
 40
4.0
 40
4.0
 10
107.032226535742
 20
-160.0370876336019
 30
0.0
 10
106.9709038361045
 20
-159.9609510233778
 30
0.0
 10
106.8417127554076
 20
-159.8848144131538
 30
0.0
 10
106.7380153813016
 20
-159.8551865919807
 30
0.0
 10
106.7380153813016
 20
-159.8551865919807
 30
0.0
 10
106.833444526243
 20
-159.6901665182372
 30
0.0
 10
106.833444526243
 20
-159.6901665182372
 30
0.0
 10
106.9347303335094
 20
-159.7263400208323
 30
0.0
 10
107.0404947649066
 20
-159.7835286058875
 30
0.0
 10
107.129378228426
 20
-159.8637993306938
 30
0.0
 10
107.129378228426
 20
-159.8637993306938
 30
0.0
 10
107.032226535742
 20
-160.0370876336019
 30
0.0
 10
107.032226535742
 20
-160.0370876336019
 30
0.0
  0
SPLINE
  5
C0
330
B8
100
AcDbEntity
  8
_U+30EC_U+30A4_U+30E4_U+30FC 1
370
     0
100
AcDbSpline
210
0.0
220
0.0
230
1.0
 70
    11
 71
     3
 72
    23
 73
    19
 74
     0
 42
0.0000000001
 43
0.0000000001
 12
1.0
 22
0.0
 32
0.0
 13
1.0
 23
0.0
 33
0.0
 40
0.0
 40
0.0
 40
0.0
 40
0.0
 40
1.0
 40
1.0
 40
1.0
 40
2.0
 40
2.0
 40
2.0
 40
3.0
 40
3.0
 40
3.0
 40
4.0
 40
4.0
 40
4.0
 40
5.0
 40
5.0
 40
5.0
 40
6.0
 40
6.0
 40
6.0
 40
6.0
 10
107.4849120825038
 20
-160.7416096603354
 30
0.0
 10
107.4635524904952
 20
-160.7650363096351
 30
0.0
 10
107.3664007978112
 20
-160.8770019129058
 30
0.0
 10
107.2268744306586
 20
-160.9576171472606
 30
0.0
 10
107.2268744306586
 20
-160.9576171472606
 30
0.0
 10
107.0597872996239
 20
-160.8370388052768
 30
0.0
 10
107.0597872996239
 20
-160.8370388052768
 30
0.0
 10
107.2099934627808
 20
-160.7609021950528
 30
0.0
 10
107.309212212756
 20
-160.6654730501114
 30
0.0
 10
107.3577880590981
 20
-160.6127630891871
 30
0.0
 10
107.3577880590981
 20
-160.6127630891871
 30
0.0
 10
107.5314208715546
 20
-160.6951008712846
 30
0.0
 10
107.5314208715546
 20
-160.6951008712846
 30
0.0
 10
107.5400336102678
 20
-160.6992349858669
 30
0.0
 10
107.5483018394324
 20
-160.7057806672888
 30
0.0
 10
107.5483018394324
 20
-160.7164604632931
 30
0.0
 10
107.5483018394324
 20
-160.7416096603354
 30
0.0
 10
107.5124728463858
 20
-160.7416096603354
 30
0.0
 10
107.4849120825038
 20
-160.7416096603354
 30
0.0
  0
SPLINE
  5
C1
330
B8
100
AcDbEntity
  8
_U+30EC_U+30A4_U+30E4_U+30FC 1
370
     0
100
AcDbSpline
210
0.0
220
0.0
230
1.0
 70
    11
 71
     3
 72
    20
 73
    16
 74
     0
 42
0.0000000001
 43
0.0000000001
 12
1.0
 22
0.0
 32
0.0
 13
1.0
 23
0.0
 33
0.0
 40
0.0
 40
0.0
 40
0.0
 40
0.0
 40
1.0
 40
1.0
 40
1.0
 40
2.0
 40
2.0
 40
2.0
 40
3.0
 40
3.0
 40
3.0
 40
4.0
 40
4.0
 40
4.0
 40
5.0
 40
5.0
 40
5.0
 40
5.0
 10
107.7832573515264
 20
-159.8996283237404
 30
0.0
 10
107.7450167916401
 20
-159.9485486796309
 30
0.0
 10
107.6836940920027
 20
-160.0267523471461
 30
0.0
 10
107.5441677248501
 20
-160.1366508931256
 30
0.0
 10
107.6244384496564
 20
-160.1407850077079
 30
0.0
 10
107.6540662708295
 20
-160.1407850077079
 30
0.0
 10
107.6774929201292
 20
-160.1407850077079
 30
0.0
 10
107.6774929201292
 20
-160.1407850077079
 30
0.0
 10
107.9059027508013
 20
-160.1407850077079
 30
0.0
 10
107.9059027508013
 20
-160.1407850077079
 30
0.0
 10
107.9375976292656
 20
-160.1407850077079
 30
0.0
 10
107.9861734756076
 20
-160.1387179504167
 30
0.0
 10
108.0602430285405
 20
-160.1366508931256
 30
0.0
 10
107.9482774252699
 20
-160.0625813401927
 30
0.0
 10
107.8993570693793
 20
-160.0160725511418
 30
0.0
 10
107.7832573515264
 20
-159.8996283237404
 30
0.0
  0
SPLINE
  5
C2
330
B8
100
AcDbEntity
  8
_U+30EC_U+30A4_U+30E4_U+30FC 1
370
     0
100
AcDbSpline
210
0.0
220
0.0
230
1.0
 70
    11
 71
     3
 72
    17
 73
    13
 74
     0
 42
0.0000000001
 43
0.0000000001
 12
1.0
 22
0.0
 32
0.0
 13
1.0
 23
0.0
 33
0.0
 40
0.0
 40
0.0
 40
0.0
 40
0.0
 40
1.0
 40
1.0
 40
1.0
 40
2.0
 40
2.0
 40
2.0
 40
3.0
 40
3.0
 40
3.0
 40
4.0
 40
4.0
 40
4.0
 40
4.0
 10
108.3437743869766
 20
-160.9552055804209
 30
0.0
 10
108.2083821344062
 20
-160.8432399771503
 30
0.0
 10
108.1026177030091
 20
-160.7798502202217
 30
0.0
 10
107.9841064183165
 20
-160.7164604632931
 30
0.0
 10
107.9841064183165
 20
-160.7164604632931
 30
0.0
 10
108.1108859321737
 20
-160.604150350474
 30
0.0
 10
108.1108859321737
 20
-160.604150350474
 30
0.0
 10
108.2421440701617
 20
-160.6506591395248
 30
0.0
 10
108.3523871256897
 20
-160.70784772458
 30
0.0
 10
108.4770995822557
 20
-160.8094780413949
 30
0.0
 10
108.4770995822557
 20
-160.8094780413949
 30
0.0
 10
108.3437743869766
 20
-160.9552055804209
 30
0.0
 10
108.3437743869766
 20
-160.9552055804209
 30
0.0
  0
HATCH
  5
C3
330
B8
100
AcDbEntity
  8
_U+30EC_U+30A4_U+30E4_U+30FC 1
 62
   179
420
  2234388
100
AcDbHatch
 10
0.0
 20
0.0
 30
0.0
210
0.0
220
0.0
230
1.0
  2
SOLID
 70
     1
 71
     0
 91
        7
 92
        1
 93
        1
 72
     4
 94
        3
 73
     0
 74
     1
 95
       17
 96
       13
 40
0.0
 40
0.0
 40
0.0
 40
0.0
 40
1.0
 40
1.0
 40
1.0
 40
2.0
 40
2.0
 40
2.0
 40
3.0
 40
3.0
 40
3.0
 40
4.0
 40
4.0
 40
4.0
 40
4.0
 10
106.8523925514119
 20
-160.3819416916754
 10
106.7466281200147
 20
-160.2761772602782
 10
106.6660128856599
 20
-160.2382812099404
 10
106.5729953075581
 20
-160.2065863314761
 10
106.5729953075581
 20
-160.2065863314761
 10
106.6832383630861
 20
-160.0415662577327
 10
106.6832383630861
 20
-160.0415662577327
 10
106.7803900557702
 20
-160.0839409322012
 10
106.9009683977539
 20
-160.1621445997164
 10
106.9540228682268
 20
-160.2169216179319
 10
106.9540228682268
 20
-160.2169216179319
 10
106.8523925514119
 20
-160.3819416916754
 10
106.8523925514119
 20
-160.3819416916754
 97
        0
 97
        0
 92
        1
 93
        1
 72
     4
 94
        3
 73
     0
 74
     1
 95
      182
 96
      178
 40
0.0
 40
0.0
 40
0.0
 40
0.0
 40
1.0
 40
1.0
 40
1.0
 40
2.0
 40
2.0
 40
2.0
 40
3.0
 40
3.0
 40
3.0
 40
4.0
 40
4.0
 40
4.0
 40
5.0
 40
5.0
 40
5.0
 40
6.0
 40
6.0
 40
6.0
 40
7.0
 40
7.0
 40
7.0
 40
8.0
 40
8.0
 40
8.0
 40
9.0
 40
9.0
 40
9.0
 40
10.0
 40
10.0
 40
10.0
 40
11.0
 40
11.0
 40
11.0
 40
12.0
 40
12.0
 40
12.0
 40
13.0
 40
13.0
 40
13.0
 40
14.0
 40
14.0
 40
14.0
 40
15.0
 40
15.0
 40
15.0
 40
16.0
 40
16.0
 40
16.0
 40
17.0
 40
17.0
 40
17.0
 40
18.0
 40
18.0
 40
18.0
 40
19.0
 40
19.0
 40
19.0
 40
20.0
 40
20.0
 40
20.0
 40
21.0
 40
21.0
 40
21.0
 40
22.0
 40
22.0
 40
22.0
 40
23.0
 40
23.0
 40
23.0
 40
24.0
 40
24.0
 40
24.0
 40
25.0
 40
25.0
 40
25.0
 40
26.0
 40
26.0
 40
26.0
 40
27.0
 40
27.0
 40
27.0
 40
28.0
 40
28.0
 40
28.0
 40
29.0
 40
29.0
 40
29.0
 40
30.0
 40
30.0
 40
30.0
 40
31.0
 40
31.0
 40
31.0
 40
32.0
 40
32.0
 40
32.0
 40
33.0
 40
33.0
 40
33.0
 40
34.0
 40
34.0
 40
34.0
 40
35.0
 40
35.0
 40
35.0
 40
36.0
 40
36.0
 40
36.0
 40
37.0
 40
37.0
 40
37.0
 40
38.0
 40
38.0
 40
38.0
 40
39.0
 40
39.0
 40
39.0
 40
40.0
 40
40.0
 40
40.0
 40
41.0
 40
41.0
 40
41.0
 40
42.0
 40
42.0
 40
42.0
 40
43.0
 40
43.0
 40
43.0
 40
44.0
 40
44.0
 40
44.0
 40
45.0
 40
45.0
 40
45.0
 40
46.0
 40
46.0
 40
46.0
 40
47.0
 40
47.0
 40
47.0
 40
48.0
 40
48.0
 40
48.0
 40
49.0
 40
49.0
 40
49.0
 40
50.0
 40
50.0
 40
50.0
 40
51.0
 40
51.0
 40
51.0
 40
52.0
 40
52.0
 40
52.0
 40
53.0
 40
53.0
 40
53.0
 40
54.0
 40
54.0
 40
54.0
 40
55.0
 40
55.0
 40
55.0
 40
56.0
 40
56.0
 40
56.0
 40
57.0
 40
57.0
 40
57.0
 40
58.0
 40
58.0
 40
58.0
 40
59.0
 40
59.0
 40
59.0
 40
59.0
 10
107.8972900120882
 20
-161.5605088571793
 10
107.8972900120882
 20
-161.5605088571793
 10
107.260636366414
 20
-161.5605088571793
 10
107.260636366414
 20
-161.5605088571793
 10
107.0470404463285
 20
-161.5605088571793
 10
106.8310329594034
 20
-161.5646429717616
 10
106.6174370393179
 20
-161.5773898250571
 10
106.6174370393179
 20
-161.5773898250571
 10
106.6174370393179
 20
-161.369995076845
 10
106.6174370393179
 20
-161.369995076845
 10
106.8396456981165
 20
-161.3827419301404
 10
107.1631401641814
 20
-161.3868760447227
 10
107.260636366414
 20
-161.3868760447227
 10
107.260636366414
 20
-161.3868760447227
 10
107.4807779679215
 20
-161.3868760447227
 10
107.4807779679215
 20
-161.3868760447227
 10
107.4807779679215
 20
-161.3868760447227
 10
107.4807779679215
 20
-161.245282620279
 10
107.4807779679215
 20
-161.245282620279
 10
107.4807779679215
 20
-161.245282620279
 10
107.3198920087603
 20
-161.245282620279
 10
107.3198920087603
 20
-161.245282620279
 10
107.1548719350168
 20
-161.245282620279
 10
106.9898518612734
 20
-161.2494167348613
 10
106.8248317875299
 20
-161.2642306454478
 10
106.8248317875299
 20
-161.2642306454478
 10
106.8248317875299
 20
-161.0547688399446
 10
106.8248317875299
 20
-161.0547688399446
 10
106.9960530331468
 20
-161.0695827505312
 10
107.2437553985363
 20
-161.0737168651135
 10
107.3198920087603
 20
-161.0737168651135
 10
107.3198920087603
 20
-161.0737168651135
 10
107.4807779679215
 20
-161.0737168651135
 10
107.4807779679215
 20
-161.0737168651135
 10
107.4762993437907
 20
-161.0020588790203
 10
107.4762993437907
 20
-160.9955131975983
 10
107.4700981719172
 20
-160.942803236674
 10
107.4700981719172
 20
-160.942803236674
 10
107.6096245390698
 20
-160.9576171472606
 10
107.6096245390698
 20
-160.9576171472606
 10
107.6096245390698
 20
-160.9576171472606
 10
107.5104057890946
 20
-160.7860513920952
 10
107.5104057890946
 20
-160.7860513920952
 10
107.5569145781455
 20
-160.7925970735171
 10
107.6309841310784
 20
-160.8008653026817
 10
107.6478650989561
 20
-160.8008653026817
 10
107.6985080025893
 20
-160.8008653026817
 10
107.715388970467
 20
-160.7798502202217
 10
107.715388970467
 20
-160.7226616351666
 10
107.715388970467
 20
-160.7226616351666
 10
107.715388970467
 20
-160.5852023253051
 10
107.715388970467
 20
-160.5852023253051
 10
107.715388970467
 20
-160.5852023253051
 10
107.6096245390698
 20
-160.5852023253051
 10
107.6096245390698
 20
-160.5852023253051
 10
107.4762993437907
 20
-160.5852023253051
 10
107.3198920087603
 20
-160.5852023253051
 10
107.1972466094854
 20
-160.5979491786005
 10
107.1972466094854
 20
-160.5979491786005
 10
107.1972466094854
 20
-160.4074353982662
 10
107.1972466094854
 20
-160.4074353982662
 10
107.36433374052
 20
-160.4243163661439
 10
107.5948106284832
 20
-160.4263834234351
 10
107.6096245390698
 20
-160.4263834234351
 10
107.6096245390698
 20
-160.4263834234351
 10
107.715388970467
 20
-160.4263834234351
 10
107.715388970467
 20
-160.4263834234351
 10
107.715388970467
 20
-160.4263834234351
 10
107.715388970467
 20
-160.2954697949956
 10
107.715388970467
 20
-160.2954697949956
 10
107.715388970467
 20
-160.2954697949956
 10
107.6774929201292
 20
-160.2954697949956
 10
107.6774929201292
 20
-160.2954697949956
 10
107.6330511883695
 20
-160.2954697949956
 10
107.507994222255
 20
-160.2996039095779
 10
107.4191107587355
 20
-160.3078721387425
 10
107.4191107587355
 20
-160.3078721387425
 10
107.4191107587355
 20
-160.2276014139362
 10
107.4191107587355
 20
-160.2276014139362
 10
107.3664007978112
 20
-160.2658419738224
 10
107.3409070912203
 20
-160.280655884409
 10
107.2985324167518
 20
-160.3037380241602
 10
107.2985324167518
 20
-160.3037380241602
 10
107.1104302032571
 20
-160.1748914530118
 10
107.1104302032571
 20
-160.1748914530118
 10
107.1886338707723
 20
-160.1407850077079
 10
107.3453857153512
 20
-160.0773952507793
 10
107.5017930503815
 20
-159.9337347690443
 10
107.584130832479
 20
-159.8551865919807
 10
107.6626790095427
 20
-159.770781752592
 10
107.715388970467
 20
-159.6691514357772
 10
107.715388970467
 20
-159.6691514357772
 10
107.9269178332613
 20
-159.7304741354146
 10
107.9269178332613
 20
-159.7304741354146
 10
107.9458658584302
 20
-159.7366753072881
 10
107.9565456544345
 20
-159.7452880460012
 10
107.9565456544345
 20
-159.7580348992966
 10
107.9565456544345
 20
-159.7749158671743
 10
107.9437988011391
 20
-159.7811170390478
 10
107.9186496040967
 20
-159.7938638923432
 10
107.9989203289031
 20
-159.8913600945758
 10
108.1618733453554
 20
-159.9885117872598
 10
108.1956352811108
 20
-160.0074598124287
 10
108.3458414442677
 20
-160.0963432759482
 10
108.460218614378
 20
-160.1239040398301
 10
108.5384222818932
 20
-160.142852064999
 10
108.5384222818932
 20
-160.142852064999
 10
108.4199109972006
 20
-160.3123507628733
 10
108.4199109972006
 20
-160.3123507628733
 10
108.3351616482634
 20
-160.2827229417002
 10
108.2845187446303
 20
-160.2637749165313
 10
108.1660074599377
 20
-160.197973592763
 10
108.1660074599377
 20
-160.197973592763
 10
108.1660074599377
 20
-160.3078721387425
 10
108.1660074599377
 20
-160.3078721387425
 10
108.0836696778402
 20
-160.2996039095779
 10
107.9565456544345
 20
-160.2954697949956
 10
107.9038356935102
 20
-160.2954697949956
 10
107.9038356935102
 20
-160.2954697949956
 10
107.9038356935102
 20
-160.4263834234351
 10
107.9038356935102
 20
-160.4263834234351
 10
107.9038356935102
 20
-160.4263834234351
 10
108.0244140354939
 20
-160.4263834234351
 10
108.0244140354939
 20
-160.4263834234351
 10
108.026481092785
 20
-160.4263834234351
 10
108.2590250380394
 20
-160.4243163661439
 10
108.4367919650783
 20
-160.4074353982662
 10
108.4367919650783
 20
-160.4074353982662
 10
108.4367919650783
 20
-160.5979491786005
 10
108.4367919650783
 20
-160.5979491786005
 10
108.30794539393
 20
-160.5852023253051
 10
108.1511935493511
 20
-160.5852023253051
 10
108.0244140354939
 20
-160.5852023253051
 10
108.0244140354939
 20
-160.5852023253051
 10
107.9038356935102
 20
-160.5852023253051
 10
107.9038356935102
 20
-160.5852023253051
 10
107.9038356935102
 20
-160.5852023253051
 10
107.9038356935102
 20
-160.811545098686
 10
107.9038356935102
 20
-160.811545098686
 10
107.9038356935102
 20
-160.9300563833786
 10
107.8783419869193
 20
-160.9658853764252
 10
107.7174560277581
 20
-160.9806992870118
 10
107.721934651889
 20
-160.9996473121807
 10
107.715388970467
 20
-161.0103271081849
 10
107.6774929201292
 20
-161.0337537574846
 10
107.6750813532896
 20
-161.0527017826535
 10
107.6750813532896
 20
-161.058902954527
 10
107.6730142959984
 20
-161.0737168651135
 10
107.6730142959984
 20
-161.0737168651135
 10
107.8108181154084
 20
-161.0737168651135
 10
107.8108181154084
 20
-161.0737168651135
 10
107.9754936796034
 20
-161.0737168651135
 10
108.1429253201865
 20
-161.0695827505312
 10
108.3100124512211
 20
-161.0547688399446
 10
108.3100124512211
 20
-161.0547688399446
 10
108.3100124512211
 20
-161.2621635881567
 10
108.3100124512211
 20
-161.2621635881567
 10
108.0940049642959
 20
-161.245282620279
 10
107.8297661405773
 20
-161.245282620279
 10
107.8108181154084
 20
-161.245282620279
 10
107.8108181154084
 20
-161.245282620279
 10
107.6709472387073
 20
-161.245282620279
 10
107.6709472387073
 20
-161.245282620279
 10
107.6709472387073
 20
-161.245282620279
 10
107.6709472387073
 20
-161.3868760447227
 10
107.6709472387073
 20
-161.3868760447227
 10
107.6709472387073
 20
-161.3868760447227
 10
107.8972900120882
 20
-161.3868760447227
 10
107.8972900120882
 20
-161.3868760447227
 10
108.1132974990133
 20
-161.3868760447227
 10
108.3310275336811
 20
-161.3827419301404
 10
108.5466905110578
 20
-161.369995076845
 10
108.5466905110578
 20
-161.369995076845
 10
108.5466905110578
 20
-161.5773898250571
 10
108.5466905110578
 20
-161.5773898250571
 10
108.2655707194614
 20
-161.5605088571793
 10
107.9207166613879
 20
-161.5605088571793
 10
107.8972900120882
 20
-161.5605088571793
 97
        0
 97
        0
 92
        1
 93
        1
 72
     4
 94
        3
 73
     0
 74
     1
 95
       23
 96
       19
 40
0.0
 40
0.0
 40
0.0
 40
0.0
 40
1.0
 40
1.0
 40
1.0
 40
2.0
 40
2.0
 40
2.0
 40
3.0
 40
3.0
 40
3.0
 40
4.0
 40
4.0
 40
4.0
 40
5.0
 40
5.0
 40
5.0
 40
6.0
 40
6.0
 40
6.0
 40
6.0
 10
106.778322998479
 20
-160.9321234406698
 10
106.778322998479
 20
-160.9531385231298
 10
106.7803900557702
 20
-160.9913790830161
 10
106.7548963491793
 20
-160.9913790830161
 10
106.7445610627236
 20
-160.9913790830161
 10
106.7359483240105
 20
-160.9848334015941
 10
106.7252685280062
 20
-160.9679524337164
 10
106.7252685280062
 20
-160.9679524337164
 10
106.6215711539002
 20
-160.7860513920952
 10
106.6215711539002
 20
-160.7860513920952
 10
106.8375786408253
 20
-160.6572048209468
 10
107.0342935930331
 20
-160.3798746343842
 10
107.080802382084
 20
-160.3078721387425
 10
107.080802382084
 20
-160.3078721387425
 10
107.1528048777257
 20
-160.4877061230725
 10
107.1528048777257
 20
-160.4877061230725
 10
107.0194796824465
 20
-160.6844210752803
 10
106.8437798126988
 20
-160.8687336837412
 10
106.778322998479
 20
-160.9321234406698
 97
        0
 97
        0
 92
        1
 93
        1
 72
     4
 94
        3
 73
     0
 74
     1
 95
       17
 96
       13
 40
0.0
 40
0.0
 40
0.0
 40
0.0
 40
1.0
 40
1.0
 40
1.0
 40
2.0
 40
2.0
 40
2.0
 40
3.0
 40
3.0
 40
3.0
 40
4.0
 40
4.0
 40
4.0
 40
4.0
 10
107.032226535742
 20
-160.0370876336019
 10
106.9709038361045
 20
-159.9609510233778
 10
106.8417127554076
 20
-159.8848144131538
 10
106.7380153813016
 20
-159.8551865919807
 10
106.7380153813016
 20
-159.8551865919807
 10
106.833444526243
 20
-159.6901665182372
 10
106.833444526243
 20
-159.6901665182372
 10
106.9347303335094
 20
-159.7263400208323
 10
107.0404947649066
 20
-159.7835286058875
 10
107.129378228426
 20
-159.8637993306938
 10
107.129378228426
 20
-159.8637993306938
 10
107.032226535742
 20
-160.0370876336019
 10
107.032226535742
 20
-160.0370876336019
 97
        0
 97
        0
 92
        1
 93
        1
 72
     4
 94
        3
 73
     0
 74
     1
 95
       23
 96
       19
 40
0.0
 40
0.0
 40
0.0
 40
0.0
 40
1.0
 40
1.0
 40
1.0
 40
2.0
 40
2.0
 40
2.0
 40
3.0
 40
3.0
 40
3.0
 40
4.0
 40
4.0
 40
4.0
 40
5.0
 40
5.0
 40
5.0
 40
6.0
 40
6.0
 40
6.0
 40
6.0
 10
107.4849120825038
 20
-160.7416096603354
 10
107.4635524904952
 20
-160.7650363096351
 10
107.3664007978112
 20
-160.8770019129058
 10
107.2268744306586
 20
-160.9576171472606
 10
107.2268744306586
 20
-160.9576171472606
 10
107.0597872996239
 20
-160.8370388052768
 10
107.0597872996239
 20
-160.8370388052768
 10
107.2099934627808
 20
-160.7609021950528
 10
107.309212212756
 20
-160.6654730501114
 10
107.3577880590981
 20
-160.6127630891871
 10
107.3577880590981
 20
-160.6127630891871
 10
107.5314208715546
 20
-160.6951008712846
 10
107.5314208715546
 20
-160.6951008712846
 10
107.5400336102678
 20
-160.6992349858669
 10
107.5483018394324
 20
-160.7057806672888
 10
107.5483018394324
 20
-160.7164604632931
 10
107.5483018394324
 20
-160.7416096603354
 10
107.5124728463858
 20
-160.7416096603354
 10
107.4849120825038
 20
-160.7416096603354
 97
        0
 97
        0
 92
        1
 93
        1
 72
     4
 94
        3
 73
     0
 74
     1
 95
       20
 96
       16
 40
0.0
 40
0.0
 40
0.0
 40
0.0
 40
1.0
 40
1.0
 40
1.0
 40
2.0
 40
2.0
 40
2.0
 40
3.0
 40
3.0
 40
3.0
 40
4.0
 40
4.0
 40
4.0
 40
5.0
 40
5.0
 40
5.0
 40
5.0
 10
107.7832573515264
 20
-159.8996283237404
 10
107.7450167916401
 20
-159.9485486796309
 10
107.6836940920027
 20
-160.0267523471461
 10
107.5441677248501
 20
-160.1366508931256
 10
107.6244384496564
 20
-160.1407850077079
 10
107.6540662708295
 20
-160.1407850077079
 10
107.6774929201292
 20
-160.1407850077079
 10
107.6774929201292
 20
-160.1407850077079
 10
107.9059027508013
 20
-160.1407850077079
 10
107.9059027508013
 20
-160.1407850077079
 10
107.9375976292656
 20
-160.1407850077079
 10
107.9861734756076
 20
-160.1387179504167
 10
108.0602430285405
 20
-160.1366508931256
 10
107.9482774252699
 20
-160.0625813401927
 10
107.8993570693793
 20
-160.0160725511418
 10
107.7832573515264
 20
-159.8996283237404
 97
        0
 97
        0
 92
        1
 93
        1
 72
     4
 94
        3
 73
     0
 74
     1
 95
       17
 96
       13
 40
0.0
 40
0.0
 40
0.0
 40
0.0
 40
1.0
 40
1.0
 40
1.0
 40
2.0
 40
2.0
 40
2.0
 40
3.0
 40
3.0
 40
3.0
 40
4.0
 40
4.0
 40
4.0
 40
4.0
 10
108.3437743869766
 20
-160.9552055804209
 10
108.2083821344062
 20
-160.8432399771503
 10
108.1026177030091
 20
-160.7798502202217
 10
107.9841064183165
 20
-160.7164604632931
 10
107.9841064183165
 20
-160.7164604632931
 10
108.1108859321737
 20
-160.604150350474
 10
108.1108859321737
 20
-160.604150350474
 10
108.2421440701617
 20
-160.6506591395248
 10
108.3523871256897
 20
-160.70784772458
 10
108.4770995822557
 20
-160.8094780413949
 10
108.4770995822557
 20
-160.8094780413949
 10
108.3437743869766
 20
-160.9552055804209
 10
108.3437743869766
 20
-160.9552055804209
 97
        0
 97
        0
 75
     2
 76
     1
 98
        0
  0
SPLINE
  5
C4
330
B8
100
AcDbEntity
  8
_U+30EC_U+30A4_U+30E4_U+30FC 1
370
     0
100
AcDbSpline
210
0.0
220
0.0
230
1.0
 70
    11
 71
     3
 72
   113
 73
   109
 74
     0
 42
0.0000000001
 43
0.0000000001
 12
1.0
 22
0.0
 32
0.0
 13
1.0
 23
0.0
 33
0.0
 40
0.0
 40
0.0
 40
0.0
 40
0.0
 40
1.0
 40
1.0
 40
1.0
 40
2.0
 40
2.0
 40
2.0
 40
3.0
 40
3.0
 40
3.0
 40
4.0
 40
4.0
 40
4.0
 40
5.0
 40
5.0
 40
5.0
 40
6.0
 40
6.0
 40
6.0
 40
7.0
 40
7.0
 40
7.0
 40
8.0
 40
8.0
 40
8.0
 40
9.0
 40
9.0
 40
9.0
 40
10.0
 40
10.0
 40
10.0
 40
11.0
 40
11.0
 40
11.0
 40
12.0
 40
12.0
 40
12.0
 40
13.0
 40
13.0
 40
13.0
 40
14.0
 40
14.0
 40
14.0
 40
15.0
 40
15.0
 40
15.0
 40
16.0
 40
16.0
 40
16.0
 40
17.0
 40
17.0
 40
17.0
 40
18.0
 40
18.0
 40
18.0
 40
19.0
 40
19.0
 40
19.0
 40
20.0
 40
20.0
 40
20.0
 40
21.0
 40
21.0
 40
21.0
 40
22.0
 40
22.0
 40
22.0
 40
23.0
 40
23.0
 40
23.0
 40
24.0
 40
24.0
 40
24.0
 40
25.0
 40
25.0
 40
25.0
 40
26.0
 40
26.0
 40
26.0
 40
27.0
 40
27.0
 40
27.0
 40
28.0
 40
28.0
 40
28.0
 40
29.0
 40
29.0
 40
29.0
 40
30.0
 40
30.0
 40
30.0
 40
31.0
 40
31.0
 40
31.0
 40
32.0
 40
32.0
 40
32.0
 40
33.0
 40
33.0
 40
33.0
 40
34.0
 40
34.0
 40
34.0
 40
35.0
 40
35.0
 40
35.0
 40
36.0
 40
36.0
 40
36.0
 40
36.0
 10
110.2234184837289
 20
-160.9321234406698
 30
0.0
 10
110.2234184837289
 20
-160.9321234406698
 30
0.0
 10
110.3229817432526
 20
-161.0316867001935
 30
0.0
 10
110.3229817432526
 20
-161.0316867001935
 30
0.0
 10
110.3333170297083
 20
-161.0420219866492
 30
0.0
 10
110.3439968257126
 20
-161.0547688399446
 30
0.0
 10
110.3439968257126
 20
-161.0695827505312
 30
0.0
 10
110.3439968257126
 20
-161.0716498078224
 30
0.0
 10
110.3439968257126
 20
-161.1012776289955
 30
0.0
 10
110.3061007753749
 20
-161.1012776289955
 30
0.0
 10
110.2974880366617
 20
-161.1012776289955
 30
0.0
 10
110.2571804194843
 20
-161.0971435144132
 30
0.0
 10
110.2509792476109
 20
-161.0971435144132
 30
0.0
 10
110.2106716304335
 20
-161.1288383928775
 30
0.0
 10
110.1641628413826
 20
-161.162600328633
 30
0.0
 10
110.0649440914074
 20
-161.2197889136881
 30
0.0
 10
110.2106716304335
 20
-161.3276204023764
 30
0.0
 10
110.3694905323035
 20
-161.3848089874316
 30
0.0
 10
110.6423420947353
 20
-161.4230495473178
 30
0.0
 10
110.6423420947353
 20
-161.4230495473178
 30
0.0
 10
110.4921359315784
 20
-161.5984049075171
 30
0.0
 10
110.4921359315784
 20
-161.5984049075171
 30
0.0
 10
110.2299641651508
 20
-161.5264024118754
 30
0.0
 10
110.073212320572
 20
-161.4378634579044
 30
0.0
 10
109.997075710348
 20
-161.3848089874316
 30
0.0
 10
109.8468695471911
 20
-161.2831786706167
 30
0.0
 10
109.7032090654562
 20
-161.1202256541644
 30
0.0
 10
109.6270724552321
 20
-160.9552055804209
 30
0.0
 10
109.5592040741727
 20
-161.0210069041892
 30
0.0
 10
109.4851345212398
 20
-161.0737168651135
 30
0.0
 10
109.4069308537247
 20
-161.1226372210041
 30
0.0
 10
109.4069308537247
 20
-161.1226372210041
 30
0.0
 10
109.4069308537247
 20
-161.3741291914273
 30
0.0
 10
109.4069308537247
 20
-161.3741291914273
 30
0.0
 10
109.569883870177
 20
-161.348979994385
 30
0.0
 10
109.7559190263805
 20
-161.3045382626253
 30
0.0
 10
109.8193087833091
 20
-161.2897243520387
 30
0.0
 10
109.8193087833091
 20
-161.2897243520387
 30
0.0
 10
109.7896809621359
 20
-161.4588785403645
 30
0.0
 10
109.7896809621359
 20
-161.4588785403645
 30
0.0
 10
109.7876139048448
 20
-161.4588785403645
 30
0.0
 10
109.7686658796759
 20
-161.4650797122379
 30
0.0
 10
109.7665988223848
 20
-161.4650797122379
 30
0.0
 10
109.5678168128858
 20
-161.5033202721242
 30
0.0
 10
109.2501790091458
 20
-161.5687770863439
 30
0.0
 10
109.053464056938
 20
-161.6049505889391
 30
0.0
 10
109.0431287704823
 20
-161.6218315568168
 30
0.0
 10
109.0197021211826
 20
-161.6535264352811
 30
0.0
 10
108.9966199814314
 20
-161.6535264352811
 30
0.0
 10
108.9690592175494
 20
-161.6535264352811
 30
0.0
 10
108.9649251029671
 20
-161.6345784101122
 30
0.0
 10
108.9625135361274
 20
-161.6152858753948
 30
0.0
 10
108.9625135361274
 20
-161.6152858753948
 30
0.0
 10
108.9373643390851
 20
-161.4419975724867
 30
0.0
 10
108.9373643390851
 20
-161.4419975724867
 30
0.0
 10
109.011433892018
 20
-161.4333848337736
 30
0.0
 10
109.1192653807063
 20
-161.4206379804782
 30
0.0
 10
109.2270968693946
 20
-161.3996228980182
 30
0.0
 10
109.2270968693946
 20
-161.3996228980182
 30
0.0
 10
109.2270968693946
 20
-161.2218559709793
 30
0.0
 10
109.2270968693946
 20
-161.2218559709793
 30
0.0
 10
109.0830918781112
 20
-161.293858466621
 30
0.0
 10
108.9880072427183
 20
-161.3234862877941
 30
0.0
 10
108.8229871689748
 20
-161.3531141089673
 30
0.0
 10
108.8229871689748
 20
-161.3531141089673
 30
0.0
 10
108.7024088269911
 20
-161.1839599206415
 30
0.0
 10
108.7024088269911
 20
-161.1839599206415
 30
0.0
 10
109.0197021211826
 20
-161.1563991567595
 30
0.0
 10
109.212282958808
 20
-161.0633815786578
 30
0.0
 10
109.3900498858469
 20
-160.9300563833786
 30
0.0
 10
109.2439778372723
 20
-160.9300563833786
 30
0.0
 10
108.9435655109586
 20
-160.9341904979609
 30
0.0
 10
108.7468505587508
 20
-160.9407361793829
 30
0.0
 10
108.7468505587508
 20
-160.9407361793829
 30
0.0
 10
108.7468505587508
 20
-160.762969252344
 30
0.0
 10
108.7468505587508
 20
-160.762969252344
 30
0.0
 10
108.90119083649
 20
-160.7691704242174
 30
0.0
 10
109.1974690482215
 20
-160.7757161056394
 30
0.0
 10
109.3814371471338
 20
-160.7757161056394
 30
0.0
 10
109.3814371471338
 20
-160.7757161056394
 30
0.0
 10
109.5929660099281
 20
-160.7757161056394
 30
0.0
 10
109.5929660099281
 20
-160.7757161056394
 30
0.0
 10
109.5929660099281
 20
-160.680286960698
 30
0.0
 10
109.590898952637
 20
-160.6296440570648
 30
0.0
 10
109.5846977807635
 20
-160.5831352680139
 30
0.0
 10
109.5846977807635
 20
-160.5831352680139
 30
0.0
 10
109.8003607581402
 20
-160.6000162358917
 30
0.0
 10
109.8003607581402
 20
-160.6000162358917
 30
0.0
 10
109.8489366044822
 20
-160.604150350474
 30
0.0
 10
109.8575493431953
 20
-160.6189642610605
 30
0.0
 10
109.8575493431953
 20
-160.6337781716471
 30
0.0
 10
109.8575493431953
 20
-160.659271878238
 30
0.0
 10
109.8406683753176
 20
-160.6675401074026
 30
0.0
 10
109.7896809621359
 20
-160.6930338139934
 30
0.0
 10
109.7876139048448
 20
-160.7185275205843
 30
0.0
 10
109.7876139048448
 20
-160.7247286924577
 30
0.0
 10
109.7855468475536
 20
-160.7757161056394
 30
0.0
 10
109.7855468475536
 20
-160.7757161056394
 30
0.0
 10
110.0160237355168
 20
-160.7757161056394
 30
0.0
 10
110.0160237355168
 20
-160.7757161056394
 30
0.0
 10
110.1810438092603
 20
-160.7757161056394
 30
0.0
 10
110.4731879064095
 20
-160.7691704242174
 30
0.0
 10
110.6530218907395
 20
-160.762969252344
 30
0.0
 10
110.6530218907395
 20
-160.762969252344
 30
0.0
 10
110.6530218907395
 20
-160.9407361793829
 30
0.0
 10
110.6530218907395
 20
-160.9407361793829
 30
0.0
 10
110.5238308100427
 20
-160.936257555252
 30
0.0
 10
110.5007486702915
 20
-160.936257555252
 30
0.0
 10
110.2234184837289
 20
-160.9321234406698
 30
0.0
  0
SPLINE
  5
C5
330
B8
100
AcDbEntity
  8
_U+30EC_U+30A4_U+30E4_U+30FC 1
370
     0
100
AcDbSpline
210
0.0
220
0.0
230
1.0
 70
    11
 71
     3
 72
    23
 73
    19
 74
     0
 42
0.0000000001
 43
0.0000000001
 12
1.0
 22
0.0
 32
0.0
 13
1.0
 23
0.0
 33
0.0
 40
0.0
 40
0.0
 40
0.0
 40
0.0
 40
1.0
 40
1.0
 40
1.0
 40
2.0
 40
2.0
 40
2.0
 40
3.0
 40
3.0
 40
3.0
 40
4.0
 40
4.0
 40
4.0
 40
5.0
 40
5.0
 40
5.0
 40
6.0
 40
6.0
 40
6.0
 40
6.0
 10
108.9394313963763
 20
-160.5810682107228
 30
0.0
 10
108.9225504284985
 20
-160.6210313183517
 30
0.0
 10
108.9160047470766
 20
-160.6379122862294
 30
0.0
 10
108.8949896646165
 20
-160.6379122862294
 30
0.0
 10
108.88017575403
 20
-160.6379122862294
 30
0.0
 10
108.8694959580257
 20
-160.6210313183517
 30
0.0
 10
108.8632947861522
 20
-160.6082844650563
 30
0.0
 10
108.8632947861522
 20
-160.6082844650563
 30
0.0
 10
108.7637315266285
 20
-160.4432643913128
 30
0.0
 10
108.7637315266285
 20
-160.4432643913128
 30
0.0
 10
108.8653618434434
 20
-160.4115695128485
 30
0.0
 10
109.0155680066003
 20
-160.356792494633
 30
0.0
 10
109.2143500160992
 20
-160.1938394781807
 30
0.0
 10
109.2143500160992
 20
-160.1938394781807
 30
0.0
 10
109.2715386011543
 20
-160.3671277810888
 30
0.0
 10
109.2715386011543
 20
-160.3671277810888
 30
0.0
 10
109.1785210230526
 20
-160.4498100727348
 30
0.0
 10
109.0896375595331
 20
-160.5069986577899
 30
0.0
 10
108.9394313963763
 20
-160.5810682107228
 30
0.0
  0
SPLINE
  5
C6
330
B8
100
AcDbEntity
  8
_U+30EC_U+30A4_U+30E4_U+30FC 1
370
     0
100
AcDbSpline
210
0.0
220
0.0
230
1.0
 70
    11
 71
     3
 72
    17
 73
    13
 74
     0
 42
0.0000000001
 43
0.0000000001
 12
1.0
 22
0.0
 32
0.0
 13
1.0
 23
0.0
 33
0.0
 40
0.0
 40
0.0
 40
0.0
 40
0.0
 40
1.0
 40
1.0
 40
1.0
 40
2.0
 40
2.0
 40
2.0
 40
3.0
 40
3.0
 40
3.0
 40
4.0
 40
4.0
 40
4.0
 40
4.0
 10
109.0917046168243
 20
-160.1156358106655
 30
0.0
 10
109.0620767956512
 20
-160.0753281934881
 30
0.0
 10
108.9942084145917
 20
-159.9781765008041
 30
0.0
 10
108.8123073729705
 20
-159.8679334452761
 30
0.0
 10
108.8123073729705
 20
-159.8679334452761
 30
0.0
 10
108.9394313963763
 20
-159.7346082499969
 30
0.0
 10
108.9394313963763
 20
-159.7346082499969
 30
0.0
 10
109.1254665525798
 20
-159.8362385668118
 30
0.0
 10
109.1826551376349
 20
-159.9251220303312
 30
0.0
 10
109.2102159015169
 20
-159.9674967047998
 30
0.0
 10
109.2102159015169
 20
-159.9674967047998
 30
0.0
 10
109.0917046168243
 20
-160.1156358106655
 30
0.0
 10
109.0917046168243
 20
-160.1156358106655
 30
0.0
  0
SPLINE
  5
C7
330
B8
100
AcDbEntity
  8
_U+30EC_U+30A4_U+30E4_U+30FC 1
370
     0
100
AcDbSpline
210
0.0
220
0.0
230
1.0
 70
    11
 71
     3
 72
    38
 73
    34
 74
     0
 42
0.0000000001
 43
0.0000000001
 12
1.0
 22
0.0
 32
0.0
 13
1.0
 23
0.0
 33
0.0
 40
0.0
 40
0.0
 40
0.0
 40
0.0
 40
1.0
 40
1.0
 40
1.0
 40
2.0
 40
2.0
 40
2.0
 40
3.0
 40
3.0
 40
3.0
 40
4.0
 40
4.0
 40
4.0
 40
5.0
 40
5.0
 40
5.0
 40
6.0
 40
6.0
 40
6.0
 40
7.0
 40
7.0
 40
7.0
 40
8.0
 40
8.0
 40
8.0
 40
9.0
 40
9.0
 40
9.0
 40
10.0
 40
10.0
 40
10.0
 40
11.0
 40
11.0
 40
11.0
 40
11.0
 10
109.459640814649
 20
-159.8107448602209
 30
0.0
 10
109.4575737573578
 20
-159.8575981588203
 30
0.0
 10
109.4555067000667
 20
-159.9736978766732
 30
0.0
 10
109.4555067000667
 20
-160.018139608433
 30
0.0
 10
109.4555067000667
 20
-160.018139608433
 30
0.0
 10
109.4555067000667
 20
-160.3650607237976
 30
0.0
 10
109.4555067000667
 20
-160.3650607237976
 30
0.0
 10
109.4555067000667
 20
-160.4518771300259
 30
0.0
 10
109.4575737573578
 20
-160.5934705544697
 30
0.0
 10
109.4682535533621
 20
-160.7140488964534
 30
0.0
 10
109.4682535533621
 20
-160.7140488964534
 30
0.0
 10
109.2777397730278
 20
-160.7140488964534
 30
0.0
 10
109.2777397730278
 20
-160.7140488964534
 30
0.0
 10
109.2822183971586
 20
-160.6506591395248
 30
0.0
 10
109.2863525117409
 20
-160.5979491786005
 30
0.0
 10
109.2884195690321
 20
-160.5428276508365
 30
0.0
 10
109.2904866263232
 20
-160.4201822515616
 30
0.0
 10
109.2925536836144
 20
-160.4053683409751
 30
0.0
 10
109.2925536836144
 20
-160.3609266092153
 30
0.0
 10
109.2925536836144
 20
-160.3609266092153
 30
0.0
 10
109.2925536836144
 20
-160.0394992004415
 30
0.0
 10
109.2925536836144
 20
-160.0394992004415
 30
0.0
 10
109.2925536836144
 20
-159.9843776726775
 30
0.0
 10
109.2798068303189
 20
-159.7452880460012
 30
0.0
 10
109.2777397730278
 20
-159.694645142368
 30
0.0
 10
109.2777397730278
 20
-159.694645142368
 30
0.0
 10
109.4789333493664
 20
-159.72220590625
 30
0.0
 10
109.4789333493664
 20
-159.72220590625
 30
0.0
 10
109.4999484318264
 20
-159.7242729635412
 30
0.0
 10
109.5316433102907
 20
-159.7284070781235
 30
0.0
 10
109.5316433102907
 20
-159.7539007847143
 30
0.0
 10
109.5316433102907
 20
-159.7811170390478
 30
0.0
 10
109.4810004066575
 20
-159.8024766310563
 30
0.0
 10
109.459640814649
 20
-159.8107448602209
 30
0.0
  0
SPLINE
  5
C8
330
B8
100
AcDbEntity
  8
_U+30EC_U+30A4_U+30E4_U+30FC 1
370
     0
100
AcDbSpline
210
0.0
220
0.0
230
1.0
 70
    11
 71
     3
 72
    83
 73
    79
 74
     0
 42
0.0000000001
 43
0.0000000001
 12
1.0
 22
0.0
 32
0.0
 13
1.0
 23
0.0
 33
0.0
 40
0.0
 40
0.0
 40
0.0
 40
0.0
 40
1.0
 40
1.0
 40
1.0
 40
2.0
 40
2.0
 40
2.0
 40
3.0
 40
3.0
 40
3.0
 40
4.0
 40
4.0
 40
4.0
 40
5.0
 40
5.0
 40
5.0
 40
6.0
 40
6.0
 40
6.0
 40
7.0
 40
7.0
 40
7.0
 40
8.0
 40
8.0
 40
8.0
 40
9.0
 40
9.0
 40
9.0
 40
10.0
 40
10.0
 40
10.0
 40
11.0
 40
11.0
 40
11.0
 40
12.0
 40
12.0
 40
12.0
 40
13.0
 40
13.0
 40
13.0
 40
14.0
 40
14.0
 40
14.0
 40
15.0
 40
15.0
 40
15.0
 40
16.0
 40
16.0
 40
16.0
 40
17.0
 40
17.0
 40
17.0
 40
18.0
 40
18.0
 40
18.0
 40
19.0
 40
19.0
 40
19.0
 40
20.0
 40
20.0
 40
20.0
 40
21.0
 40
21.0
 40
21.0
 40
22.0
 40
22.0
 40
22.0
 40
23.0
 40
23.0
 40
23.0
 40
24.0
 40
24.0
 40
24.0
 40
25.0
 40
25.0
 40
25.0
 40
26.0
 40
26.0
 40
26.0
 40
26.0
 10
110.2616590436151
 20
-160.1325167785433
 30
0.0
 10
110.2616590436151
 20
-160.1325167785433
 30
0.0
 10
110.1641628413826
 20
-160.1325167785433
 30
0.0
 10
110.1641628413826
 20
-160.1325167785433
 30
0.0
 10
110.1641628413826
 20
-160.1325167785433
 30
0.0
 10
110.1641628413826
 20
-160.3798746343842
 30
0.0
 10
110.1641628413826
 20
-160.3798746343842
 30
0.0
 10
110.1641628413826
 20
-160.3798746343842
 30
0.0
 10
110.2468451330286
 20
-160.3798746343842
 30
0.0
 10
110.2468451330286
 20
-160.3798746343842
 30
0.0
 10
110.3123019472483
 20
-160.3798746343842
 30
0.0
 10
110.4518283144009
 20
-160.3757405198019
 30
0.0
 10
110.5513915739247
 20
-160.3671277810888
 30
0.0
 10
110.5513915739247
 20
-160.3671277810888
 30
0.0
 10
110.5513915739247
 20
-160.5469617654188
 30
0.0
 10
110.5513915739247
 20
-160.5469617654188
 30
0.0
 10
110.4583739958229
 20
-160.5386935362542
 30
0.0
 10
110.308167832666
 20
-160.5345594216719
 30
0.0
 10
110.2468451330286
 20
-160.5345594216719
 30
0.0
 10
110.2468451330286
 20
-160.5345594216719
 30
0.0
 10
109.941954182584
 20
-160.5345594216719
 30
0.0
 10
109.941954182584
 20
-160.5345594216719
 30
0.0
 10
109.8892442216596
 20
-160.5345594216719
 30
0.0
 10
109.743172173085
 20
-160.5386935362542
 30
0.0
 10
109.6374077416879
 20
-160.5469617654188
 30
0.0
 10
109.6374077416879
 20
-160.5469617654188
 30
0.0
 10
109.6374077416879
 20
-160.3671277810888
 30
0.0
 10
109.6374077416879
 20
-160.3671277810888
 30
0.0
 10
109.7369710012116
 20
-160.3757405198019
 30
0.0
 10
109.8764973683642
 20
-160.3798746343842
 30
0.0
 10
109.941954182584
 20
-160.3798746343842
 30
0.0
 10
109.941954182584
 20
-160.3798746343842
 30
0.0
 10
109.9863959143437
 20
-160.3798746343842
 30
0.0
 10
109.9863959143437
 20
-160.3798746343842
 30
0.0
 10
109.9863959143437
 20
-160.3798746343842
 30
0.0
 10
109.9863959143437
 20
-160.1325167785433
 30
0.0
 10
109.9863959143437
 20
-160.1325167785433
 30
0.0
 10
109.9863959143437
 20
-160.1325167785433
 30
0.0
 10
109.9126708709593
 20
-160.1325167785433
 30
0.0
 10
109.9126708709593
 20
-160.1325167785433
 30
0.0
 10
109.8510036617734
 20
-160.1325167785433
 30
0.0
 10
109.6839165307387
 20
-160.1366508931256
 30
0.0
 10
109.563338188755
 20
-160.1452636318387
 30
0.0
 10
109.563338188755
 20
-160.1452636318387
 30
0.0
 10
109.563338188755
 20
-159.9674967047998
 30
0.0
 10
109.563338188755
 20
-159.9674967047998
 30
0.0
 10
109.6777153588653
 20
-159.9736978766732
 30
0.0
 10
109.8361897511868
 20
-159.9781765008041
 30
0.0
 10
109.9126708709593
 20
-159.9781765008041
 30
0.0
 10
109.9126708709593
 20
-159.9781765008041
 30
0.0
 10
109.9843288570525
 20
-159.9781765008041
 30
0.0
 10
109.9843288570525
 20
-159.9781765008041
 30
0.0
 10
109.9801947424702
 20
-159.8255587708075
 30
0.0
 10
109.9781276851791
 20
-159.7917968350521
 30
0.0
 10
109.9715820037571
 20
-159.6987792569503
 30
0.0
 10
109.9715820037571
 20
-159.6987792569503
 30
0.0
 10
110.1834553761
 20
-159.72220590625
 30
0.0
 10
110.1834553761
 20
-159.72220590625
 30
0.0
 10
110.2086045731423
 20
-159.7242729635412
 30
0.0
 10
110.232031222442
 20
-159.7284070781235
 30
0.0
 10
110.232031222442
 20
-159.7514892178746
 30
0.0
 10
110.232031222442
 20
-159.7835286058875
 30
0.0
 10
110.1875894906823
 20
-159.8004095737652
 30
0.0
 10
110.1641628413826
 20
-159.8086778029298
 30
0.0
 10
110.1641628413826
 20
-159.8086778029298
 30
0.0
 10
110.1641628413826
 20
-159.9781765008041
 30
0.0
 10
110.1641628413826
 20
-159.9781765008041
 30
0.0
 10
110.1641628413826
 20
-159.9781765008041
 30
0.0
 10
110.2616590436151
 20
-159.9781765008041
 30
0.0
 10
110.2616590436151
 20
-159.9781765008041
 30
0.0
 10
110.3377956538392
 20
-159.9781765008041
 30
0.0
 10
110.4962700461607
 20
-159.9736978766732
 30
0.0
 10
110.6127142735621
 20
-159.9674967047998
 30
0.0
 10
110.6127142735621
 20
-159.9674967047998
 30
0.0
 10
110.6127142735621
 20
-160.1452636318387
 30
0.0
 10
110.6127142735621
 20
-160.1452636318387
 30
0.0
 10
110.5048827848738
 20
-160.1387179504167
 30
0.0
 10
110.3312499724172
 20
-160.1325167785433
 30
0.0
 10
110.2616590436151
 20
-160.1325167785433
 30
0.0
  0
SPLINE
  5
C9
330
B8
100
AcDbEntity
  8
_U+30EC_U+30A4_U+30E4_U+30FC 1
370
     0
100
AcDbSpline
210
0.0
220
0.0
230
1.0
 70
    11
 71
     3
 72
    17
 73
    13
 74
     0
 42
0.0000000001
 43
0.0000000001
 12
1.0
 22
0.0
 32
0.0
 13
1.0
 23
0.0
 33
0.0
 40
0.0
 40
0.0
 40
0.0
 40
0.0
 40
1.0
 40
1.0
 40
1.0
 40
2.0
 40
2.0
 40
2.0
 40
3.0
 40
3.0
 40
3.0
 40
4.0
 40
4.0
 40
4.0
 40
4.0
 10
110.0160237355168
 20
-160.9300563833786
 30
0.0
 10
110.0160237355168
 20
-160.9300563833786
 30
0.0
 10
109.8131076114356
 20
-160.9300563833786
 30
0.0
 10
109.8131076114356
 20
-160.9300563833786
 30
0.0
 10
109.8406683753176
 20
-160.9893120257249
 30
0.0
 10
109.8954453935331
 20
-161.0613145213666
 30
0.0
 10
109.9230061574151
 20
-161.0905978329913
 30
0.0
 10
109.9505669212971
 20
-161.0761284319532
 30
0.0
 10
110.0649440914074
 20
-161.0123941654761
 30
0.0
 10
110.155894612218
 20
-160.9300563833786
 30
0.0
 10
110.155894612218
 20
-160.9300563833786
 30
0.0
 10
110.0160237355168
 20
-160.9300563833786
 30
0.0
 10
110.0160237355168
 20
-160.9300563833786
 30
0.0
  0
HATCH
  5
CA
330
B8
100
AcDbEntity
  8
_U+30EC_U+30A4_U+30E4_U+30FC 1
 62
   179
420
  2234388
100
AcDbHatch
 10
0.0
 20
0.0
 30
0.0
210
0.0
220
0.0
230
1.0
  2
SOLID
 70
     1
 71
     0
 91
        6
 92
        1
 93
        1
 72
     4
 94
        3
 73
     0
 74
     1
 95
      113
 96
      109
 40
0.0
 40
0.0
 40
0.0
 40
0.0
 40
1.0
 40
1.0
 40
1.0
 40
2.0
 40
2.0
 40
2.0
 40
3.0
 40
3.0
 40
3.0
 40
4.0
 40
4.0
 40
4.0
 40
5.0
 40
5.0
 40
5.0
 40
6.0
 40
6.0
 40
6.0
 40
7.0
 40
7.0
 40
7.0
 40
8.0
 40
8.0
 40
8.0
 40
9.0
 40
9.0
 40
9.0
 40
10.0
 40
10.0
 40
10.0
 40
11.0
 40
11.0
 40
11.0
 40
12.0
 40
12.0
 40
12.0
 40
13.0
 40
13.0
 40
13.0
 40
14.0
 40
14.0
 40
14.0
 40
15.0
 40
15.0
 40
15.0
 40
16.0
 40
16.0
 40
16.0
 40
17.0
 40
17.0
 40
17.0
 40
18.0
 40
18.0
 40
18.0
 40
19.0
 40
19.0
 40
19.0
 40
20.0
 40
20.0
 40
20.0
 40
21.0
 40
21.0
 40
21.0
 40
22.0
 40
22.0
 40
22.0
 40
23.0
 40
23.0
 40
23.0
 40
24.0
 40
24.0
 40
24.0
 40
25.0
 40
25.0
 40
25.0
 40
26.0
 40
26.0
 40
26.0
 40
27.0
 40
27.0
 40
27.0
 40
28.0
 40
28.0
 40
28.0
 40
29.0
 40
29.0
 40
29.0
 40
30.0
 40
30.0
 40
30.0
 40
31.0
 40
31.0
 40
31.0
 40
32.0
 40
32.0
 40
32.0
 40
33.0
 40
33.0
 40
33.0
 40
34.0
 40
34.0
 40
34.0
 40
35.0
 40
35.0
 40
35.0
 40
36.0
 40
36.0
 40
36.0
 40
36.0
 10
110.2234184837289
 20
-160.9321234406698
 10
110.2234184837289
 20
-160.9321234406698
 10
110.3229817432526
 20
-161.0316867001935
 10
110.3229817432526
 20
-161.0316867001935
 10
110.3333170297083
 20
-161.0420219866492
 10
110.3439968257126
 20
-161.0547688399446
 10
110.3439968257126
 20
-161.0695827505312
 10
110.3439968257126
 20
-161.0716498078224
 10
110.3439968257126
 20
-161.1012776289955
 10
110.3061007753749
 20
-161.1012776289955
 10
110.2974880366617
 20
-161.1012776289955
 10
110.2571804194843
 20
-161.0971435144132
 10
110.2509792476109
 20
-161.0971435144132
 10
110.2106716304335
 20
-161.1288383928775
 10
110.1641628413826
 20
-161.162600328633
 10
110.0649440914074
 20
-161.2197889136881
 10
110.2106716304335
 20
-161.3276204023764
 10
110.3694905323035
 20
-161.3848089874316
 10
110.6423420947353
 20
-161.4230495473178
 10
110.6423420947353
 20
-161.4230495473178
 10
110.4921359315784
 20
-161.5984049075171
 10
110.4921359315784
 20
-161.5984049075171
 10
110.2299641651508
 20
-161.5264024118754
 10
110.073212320572
 20
-161.4378634579044
 10
109.997075710348
 20
-161.3848089874316
 10
109.8468695471911
 20
-161.2831786706167
 10
109.7032090654562
 20
-161.1202256541644
 10
109.6270724552321
 20
-160.9552055804209
 10
109.5592040741727
 20
-161.0210069041892
 10
109.4851345212398
 20
-161.0737168651135
 10
109.4069308537247
 20
-161.1226372210041
 10
109.4069308537247
 20
-161.1226372210041
 10
109.4069308537247
 20
-161.3741291914273
 10
109.4069308537247
 20
-161.3741291914273
 10
109.569883870177
 20
-161.348979994385
 10
109.7559190263805
 20
-161.3045382626253
 10
109.8193087833091
 20
-161.2897243520387
 10
109.8193087833091
 20
-161.2897243520387
 10
109.7896809621359
 20
-161.4588785403645
 10
109.7896809621359
 20
-161.4588785403645
 10
109.7876139048448
 20
-161.4588785403645
 10
109.7686658796759
 20
-161.4650797122379
 10
109.7665988223848
 20
-161.4650797122379
 10
109.5678168128858
 20
-161.5033202721242
 10
109.2501790091458
 20
-161.5687770863439
 10
109.053464056938
 20
-161.6049505889391
 10
109.0431287704823
 20
-161.6218315568168
 10
109.0197021211826
 20
-161.6535264352811
 10
108.9966199814314
 20
-161.6535264352811
 10
108.9690592175494
 20
-161.6535264352811
 10
108.9649251029671
 20
-161.6345784101122
 10
108.9625135361274
 20
-161.6152858753948
 10
108.9625135361274
 20
-161.6152858753948
 10
108.9373643390851
 20
-161.4419975724867
 10
108.9373643390851
 20
-161.4419975724867
 10
109.011433892018
 20
-161.4333848337736
 10
109.1192653807063
 20
-161.4206379804782
 10
109.2270968693946
 20
-161.3996228980182
 10
109.2270968693946
 20
-161.3996228980182
 10
109.2270968693946
 20
-161.2218559709793
 10
109.2270968693946
 20
-161.2218559709793
 10
109.0830918781112
 20
-161.293858466621
 10
108.9880072427183
 20
-161.3234862877941
 10
108.8229871689748
 20
-161.3531141089673
 10
108.8229871689748
 20
-161.3531141089673
 10
108.7024088269911
 20
-161.1839599206415
 10
108.7024088269911
 20
-161.1839599206415
 10
109.0197021211826
 20
-161.1563991567595
 10
109.212282958808
 20
-161.0633815786578
 10
109.3900498858469
 20
-160.9300563833786
 10
109.2439778372723
 20
-160.9300563833786
 10
108.9435655109586
 20
-160.9341904979609
 10
108.7468505587508
 20
-160.9407361793829
 10
108.7468505587508
 20
-160.9407361793829
 10
108.7468505587508
 20
-160.762969252344
 10
108.7468505587508
 20
-160.762969252344
 10
108.90119083649
 20
-160.7691704242174
 10
109.1974690482215
 20
-160.7757161056394
 10
109.3814371471338
 20
-160.7757161056394
 10
109.3814371471338
 20
-160.7757161056394
 10
109.5929660099281
 20
-160.7757161056394
 10
109.5929660099281
 20
-160.7757161056394
 10
109.5929660099281
 20
-160.680286960698
 10
109.590898952637
 20
-160.6296440570648
 10
109.5846977807635
 20
-160.5831352680139
 10
109.5846977807635
 20
-160.5831352680139
 10
109.8003607581402
 20
-160.6000162358917
 10
109.8003607581402
 20
-160.6000162358917
 10
109.8489366044822
 20
-160.604150350474
 10
109.8575493431953
 20
-160.6189642610605
 10
109.8575493431953
 20
-160.6337781716471
 10
109.8575493431953
 20
-160.659271878238
 10
109.8406683753176
 20
-160.6675401074026
 10
109.7896809621359
 20
-160.6930338139934
 10
109.7876139048448
 20
-160.7185275205843
 10
109.7876139048448
 20
-160.7247286924577
 10
109.7855468475536
 20
-160.7757161056394
 10
109.7855468475536
 20
-160.7757161056394
 10
110.0160237355168
 20
-160.7757161056394
 10
110.0160237355168
 20
-160.7757161056394
 10
110.1810438092603
 20
-160.7757161056394
 10
110.4731879064095
 20
-160.7691704242174
 10
110.6530218907395
 20
-160.762969252344
 10
110.6530218907395
 20
-160.762969252344
 10
110.6530218907395
 20
-160.9407361793829
 10
110.6530218907395
 20
-160.9407361793829
 10
110.5238308100427
 20
-160.936257555252
 10
110.5007486702915
 20
-160.936257555252
 10
110.2234184837289
 20
-160.9321234406698
 97
        0
 97
        0
 92
        1
 93
        1
 72
     4
 94
        3
 73
     0
 74
     1
 95
       23
 96
       19
 40
0.0
 40
0.0
 40
0.0
 40
0.0
 40
1.0
 40
1.0
 40
1.0
 40
2.0
 40
2.0
 40
2.0
 40
3.0
 40
3.0
 40
3.0
 40
4.0
 40
4.0
 40
4.0
 40
5.0
 40
5.0
 40
5.0
 40
6.0
 40
6.0
 40
6.0
 40
6.0
 10
108.9394313963763
 20
-160.5810682107228
 10
108.9225504284985
 20
-160.6210313183517
 10
108.9160047470766
 20
-160.6379122862294
 10
108.8949896646165
 20
-160.6379122862294
 10
108.88017575403
 20
-160.6379122862294
 10
108.8694959580257
 20
-160.6210313183517
 10
108.8632947861522
 20
-160.6082844650563
 10
108.8632947861522
 20
-160.6082844650563
 10
108.7637315266285
 20
-160.4432643913128
 10
108.7637315266285
 20
-160.4432643913128
 10
108.8653618434434
 20
-160.4115695128485
 10
109.0155680066003
 20
-160.356792494633
 10
109.2143500160992
 20
-160.1938394781807
 10
109.2143500160992
 20
-160.1938394781807
 10
109.2715386011543
 20
-160.3671277810888
 10
109.2715386011543
 20
-160.3671277810888
 10
109.1785210230526
 20
-160.4498100727348
 10
109.0896375595331
 20
-160.5069986577899
 10
108.9394313963763
 20
-160.5810682107228
 97
        0
 97
        0
 92
        1
 93
        1
 72
     4
 94
        3
 73
     0
 74
     1
 95
       17
 96
       13
 40
0.0
 40
0.0
 40
0.0
 40
0.0
 40
1.0
 40
1.0
 40
1.0
 40
2.0
 40
2.0
 40
2.0
 40
3.0
 40
3.0
 40
3.0
 40
4.0
 40
4.0
 40
4.0
 40
4.0
 10
109.0917046168243
 20
-160.1156358106655
 10
109.0620767956512
 20
-160.0753281934881
 10
108.9942084145917
 20
-159.9781765008041
 10
108.8123073729705
 20
-159.8679334452761
 10
108.8123073729705
 20
-159.8679334452761
 10
108.9394313963763
 20
-159.7346082499969
 10
108.9394313963763
 20
-159.7346082499969
 10
109.1254665525798
 20
-159.8362385668118
 10
109.1826551376349
 20
-159.9251220303312
 10
109.2102159015169
 20
-159.9674967047998
 10
109.2102159015169
 20
-159.9674967047998
 10
109.0917046168243
 20
-160.1156358106655
 10
109.0917046168243
 20
-160.1156358106655
 97
        0
 97
        0
 92
        1
 93
        1
 72
     4
 94
        3
 73
     0
 74
     1
 95
       38
 96
       34
 40
0.0
 40
0.0
 40
0.0
 40
0.0
 40
1.0
 40
1.0
 40
1.0
 40
2.0
 40
2.0
 40
2.0
 40
3.0
 40
3.0
 40
3.0
 40
4.0
 40
4.0
 40
4.0
 40
5.0
 40
5.0
 40
5.0
 40
6.0
 40
6.0
 40
6.0
 40
7.0
 40
7.0
 40
7.0
 40
8.0
 40
8.0
 40
8.0
 40
9.0
 40
9.0
 40
9.0
 40
10.0
 40
10.0
 40
10.0
 40
11.0
 40
11.0
 40
11.0
 40
11.0
 10
109.459640814649
 20
-159.8107448602209
 10
109.4575737573578
 20
-159.8575981588203
 10
109.4555067000667
 20
-159.9736978766732
 10
109.4555067000667
 20
-160.018139608433
 10
109.4555067000667
 20
-160.018139608433
 10
109.4555067000667
 20
-160.3650607237976
 10
109.4555067000667
 20
-160.3650607237976
 10
109.4555067000667
 20
-160.4518771300259
 10
109.4575737573578
 20
-160.5934705544697
 10
109.4682535533621
 20
-160.7140488964534
 10
109.4682535533621
 20
-160.7140488964534
 10
109.2777397730278
 20
-160.7140488964534
 10
109.2777397730278
 20
-160.7140488964534
 10
109.2822183971586
 20
-160.6506591395248
 10
109.2863525117409
 20
-160.5979491786005
 10
109.2884195690321
 20
-160.5428276508365
 10
109.2904866263232
 20
-160.4201822515616
 10
109.2925536836144
 20
-160.4053683409751
 10
109.2925536836144
 20
-160.3609266092153
 10
109.2925536836144
 20
-160.3609266092153
 10
109.2925536836144
 20
-160.0394992004415
 10
109.2925536836144
 20
-160.0394992004415
 10
109.2925536836144
 20
-159.9843776726775
 10
109.2798068303189
 20
-159.7452880460012
 10
109.2777397730278
 20
-159.694645142368
 10
109.2777397730278
 20
-159.694645142368
 10
109.4789333493664
 20
-159.72220590625
 10
109.4789333493664
 20
-159.72220590625
 10
109.4999484318264
 20
-159.7242729635412
 10
109.5316433102907
 20
-159.7284070781235
 10
109.5316433102907
 20
-159.7539007847143
 10
109.5316433102907
 20
-159.7811170390478
 10
109.4810004066575
 20
-159.8024766310563
 10
109.459640814649
 20
-159.8107448602209
 97
        0
 97
        0
 92
        1
 93
        1
 72
     4
 94
        3
 73
     0
 74
     1
 95
       83
 96
       79
 40
0.0
 40
0.0
 40
0.0
 40
0.0
 40
1.0
 40
1.0
 40
1.0
 40
2.0
 40
2.0
 40
2.0
 40
3.0
 40
3.0
 40
3.0
 40
4.0
 40
4.0
 40
4.0
 40
5.0
 40
5.0
 40
5.0
 40
6.0
 40
6.0
 40
6.0
 40
7.0
 40
7.0
 40
7.0
 40
8.0
 40
8.0
 40
8.0
 40
9.0
 40
9.0
 40
9.0
 40
10.0
 40
10.0
 40
10.0
 40
11.0
 40
11.0
 40
11.0
 40
12.0
 40
12.0
 40
12.0
 40
13.0
 40
13.0
 40
13.0
 40
14.0
 40
14.0
 40
14.0
 40
15.0
 40
15.0
 40
15.0
 40
16.0
 40
16.0
 40
16.0
 40
17.0
 40
17.0
 40
17.0
 40
18.0
 40
18.0
 40
18.0
 40
19.0
 40
19.0
 40
19.0
 40
20.0
 40
20.0
 40
20.0
 40
21.0
 40
21.0
 40
21.0
 40
22.0
 40
22.0
 40
22.0
 40
23.0
 40
23.0
 40
23.0
 40
24.0
 40
24.0
 40
24.0
 40
25.0
 40
25.0
 40
25.0
 40
26.0
 40
26.0
 40
26.0
 40
26.0
 10
110.2616590436151
 20
-160.1325167785433
 10
110.2616590436151
 20
-160.1325167785433
 10
110.1641628413826
 20
-160.1325167785433
 10
110.1641628413826
 20
-160.1325167785433
 10
110.1641628413826
 20
-160.1325167785433
 10
110.1641628413826
 20
-160.3798746343842
 10
110.1641628413826
 20
-160.3798746343842
 10
110.1641628413826
 20
-160.3798746343842
 10
110.2468451330286
 20
-160.3798746343842
 10
110.2468451330286
 20
-160.3798746343842
 10
110.3123019472483
 20
-160.3798746343842
 10
110.4518283144009
 20
-160.3757405198019
 10
110.5513915739247
 20
-160.3671277810888
 10
110.5513915739247
 20
-160.3671277810888
 10
110.5513915739247
 20
-160.5469617654188
 10
110.5513915739247
 20
-160.5469617654188
 10
110.4583739958229
 20
-160.5386935362542
 10
110.308167832666
 20
-160.5345594216719
 10
110.2468451330286
 20
-160.5345594216719
 10
110.2468451330286
 20
-160.5345594216719
 10
109.941954182584
 20
-160.5345594216719
 10
109.941954182584
 20
-160.5345594216719
 10
109.8892442216596
 20
-160.5345594216719
 10
109.743172173085
 20
-160.5386935362542
 10
109.6374077416879
 20
-160.5469617654188
 10
109.6374077416879
 20
-160.5469617654188
 10
109.6374077416879
 20
-160.3671277810888
 10
109.6374077416879
 20
-160.3671277810888
 10
109.7369710012116
 20
-160.3757405198019
 10
109.8764973683642
 20
-160.3798746343842
 10
109.941954182584
 20
-160.3798746343842
 10
109.941954182584
 20
-160.3798746343842
 10
109.9863959143437
 20
-160.3798746343842
 10
109.9863959143437
 20
-160.3798746343842
 10
109.9863959143437
 20
-160.3798746343842
 10
109.9863959143437
 20
-160.1325167785433
 10
109.9863959143437
 20
-160.1325167785433
 10
109.9863959143437
 20
-160.1325167785433
 10
109.9126708709593
 20
-160.1325167785433
 10
109.9126708709593
 20
-160.1325167785433
 10
109.8510036617734
 20
-160.1325167785433
 10
109.6839165307387
 20
-160.1366508931256
 10
109.563338188755
 20
-160.1452636318387
 10
109.563338188755
 20
-160.1452636318387
 10
109.563338188755
 20
-159.9674967047998
 10
109.563338188755
 20
-159.9674967047998
 10
109.6777153588653
 20
-159.9736978766732
 10
109.8361897511868
 20
-159.9781765008041
 10
109.9126708709593
 20
-159.9781765008041
 10
109.9126708709593
 20
-159.9781765008041
 10
109.9843288570525
 20
-159.9781765008041
 10
109.9843288570525
 20
-159.9781765008041
 10
109.9801947424702
 20
-159.8255587708075
 10
109.9781276851791
 20
-159.7917968350521
 10
109.9715820037571
 20
-159.6987792569503
 10
109.9715820037571
 20
-159.6987792569503
 10
110.1834553761
 20
-159.72220590625
 10
110.1834553761
 20
-159.72220590625
 10
110.2086045731423
 20
-159.7242729635412
 10
110.232031222442
 20
-159.7284070781235
 10
110.232031222442
 20
-159.7514892178746
 10
110.232031222442
 20
-159.7835286058875
 10
110.1875894906823
 20
-159.8004095737652
 10
110.1641628413826
 20
-159.8086778029298
 10
110.1641628413826
 20
-159.8086778029298
 10
110.1641628413826
 20
-159.9781765008041
 10
110.1641628413826
 20
-159.9781765008041
 10
110.1641628413826
 20
-159.9781765008041
 10
110.2616590436151
 20
-159.9781765008041
 10
110.2616590436151
 20
-159.9781765008041
 10
110.3377956538392
 20
-159.9781765008041
 10
110.4962700461607
 20
-159.9736978766732
 10
110.6127142735621
 20
-159.9674967047998
 10
110.6127142735621
 20
-159.9674967047998
 10
110.6127142735621
 20
-160.1452636318387
 10
110.6127142735621
 20
-160.1452636318387
 10
110.5048827848738
 20
-160.1387179504167
 10
110.3312499724172
 20
-160.1325167785433
 10
110.2616590436151
 20
-160.1325167785433
 97
        0
 97
        0
 92
        1
 93
        1
 72
     4
 94
        3
 73
     0
 74
     1
 95
       17
 96
       13
 40
0.0
 40
0.0
 40
0.0
 40
0.0
 40
1.0
 40
1.0
 40
1.0
 40
2.0
 40
2.0
 40
2.0
 40
3.0
 40
3.0
 40
3.0
 40
4.0
 40
4.0
 40
4.0
 40
4.0
 10
110.0160237355168
 20
-160.9300563833786
 10
110.0160237355168
 20
-160.9300563833786
 10
109.8131076114356
 20
-160.9300563833786
 10
109.8131076114356
 20
-160.9300563833786
 10
109.8406683753176
 20
-160.9893120257249
 10
109.8954453935331
 20
-161.0613145213666
 10
109.9230061574151
 20
-161.0905978329913
 10
109.9505669212971
 20
-161.0761284319532
 10
110.0649440914074
 20
-161.0123941654761
 10
110.155894612218
 20
-160.9300563833786
 10
110.155894612218
 20
-160.9300563833786
 10
110.0160237355168
 20
-160.9300563833786
 10
110.0160237355168
 20
-160.9300563833786
 97
        0
 97
        0
 75
     2
 76
     1
 98
        0
  0
SPLINE
  5
CB
330
B8
100
AcDbEntity
  8
_U+30EC_U+30A4_U+30E4_U+30FC 1
370
     0
100
AcDbSpline
210
0.0
220
0.0
230
1.0
 70
    11
 71
     3
 72
    77
 73
    73
 74
     0
 42
0.0000000001
 43
0.0000000001
 12
1.0
 22
0.0
 32
0.0
 13
1.0
 23
0.0
 33
0.0
 40
0.0
 40
0.0
 40
0.0
 40
0.0
 40
1.0
 40
1.0
 40
1.0
 40
2.0
 40
2.0
 40
2.0
 40
3.0
 40
3.0
 40
3.0
 40
4.0
 40
4.0
 40
4.0
 40
5.0
 40
5.0
 40
5.0
 40
6.0
 40
6.0
 40
6.0
 40
7.0
 40
7.0
 40
7.0
 40
8.0
 40
8.0
 40
8.0
 40
9.0
 40
9.0
 40
9.0
 40
10.0
 40
10.0
 40
10.0
 40
11.0
 40
11.0
 40
11.0
 40
12.0
 40
12.0
 40
12.0
 40
13.0
 40
13.0
 40
13.0
 40
14.0
 40
14.0
 40
14.0
 40
15.0
 40
15.0
 40
15.0
 40
16.0
 40
16.0
 40
16.0
 40
17.0
 40
17.0
 40
17.0
 40
18.0
 40
18.0
 40
18.0
 40
19.0
 40
19.0
 40
19.0
 40
20.0
 40
20.0
 40
20.0
 40
21.0
 40
21.0
 40
21.0
 40
22.0
 40
22.0
 40
22.0
 40
23.0
 40
23.0
 40
23.0
 40
24.0
 40
24.0
 40
24.0
 40
24.0
 10
112.507172280901
 20
-161.5605088571793
 30
0.0
 10
112.4606634918501
 20
-161.5856580542217
 30
0.0
 10
112.3359510352841
 20
-161.5984049075171
 30
0.0
 10
112.2574028582204
 20
-161.5984049075171
 30
0.0
 10
112.2450005144735
 20
-161.5984049075171
 30
0.0
 10
112.2195068078826
 20
-161.5984049075171
 30
0.0
 10
112.1857448721272
 20
-161.5942707929348
 30
0.0
 10
112.1857448721272
 20
-161.5942707929348
 30
0.0
 10
112.0882486698946
 20
-161.3679280195539
 30
0.0
 10
112.0882486698946
 20
-161.3679280195539
 30
0.0
 10
112.1178764910678
 20
-161.3741291914273
 30
0.0
 10
112.1750650761229
 20
-161.3827419301404
 30
0.0
 10
112.2915093035244
 20
-161.3827419301404
 30
0.0
 10
112.3697129710395
 20
-161.3827419301404
 30
0.0
 10
112.3717800283307
 20
-161.3403672556719
 30
0.0
 10
112.3717800283307
 20
-161.2831786706167
 30
0.0
 10
112.3717800283307
 20
-161.2831786706167
 30
0.0
 10
112.3717800283307
 20
-160.9341904979609
 30
0.0
 10
112.3717800283307
 20
-160.9341904979609
 30
0.0
 10
112.3717800283307
 20
-160.9341904979609
 30
0.0
 10
111.9125488001469
 20
-160.9341904979609
 30
0.0
 10
111.9125488001469
 20
-160.9341904979609
 30
0.0
 10
111.9149603669865
 20
-161.0716498078224
 30
0.0
 10
111.9170274242777
 20
-161.2704318173213
 30
0.0
 10
111.9232285961511
 20
-161.4037570126005
 30
0.0
 10
111.9252956534423
 20
-161.4313177764824
 30
0.0
 10
111.9252956534423
 20
-161.4757595082422
 30
0.0
 10
111.9380425067377
 20
-161.5370822078796
 30
0.0
 10
111.9380425067377
 20
-161.5370822078796
 30
0.0
 10
111.6968858227702
 20
-161.5370822078796
 30
0.0
 10
111.6968858227702
 20
-161.5370822078796
 30
0.0
 10
111.7223795293611
 20
-161.4123697513136
 30
0.0
 10
111.7223795293611
 20
-161.0716498078224
 30
0.0
 10
111.7223795293611
 20
-160.9341904979609
 30
0.0
 10
111.7223795293611
 20
-160.9341904979609
 30
0.0
 10
111.280029269055
 20
-160.9341904979609
 30
0.0
 10
111.280029269055
 20
-160.9341904979609
 30
0.0
 10
111.2569471293038
 20
-161.141585246173
 30
0.0
 10
111.1914903150841
 20
-161.4103026940224
 30
0.0
 10
110.9944308533278
 20
-161.5942707929348
 30
0.0
 10
110.9944308533278
 20
-161.5942707929348
 30
0.0
 10
110.8063286398331
 20
-161.4716253936599
 30
0.0
 10
110.8063286398331
 20
-161.4716253936599
 30
0.0
 10
111.0602321770961
 20
-161.2514837921524
 30
0.0
 10
111.0919270555604
 20
-160.9193765873743
 30
0.0
 10
111.0919270555604
 20
-160.5872693825962
 30
0.0
 10
111.0919270555604
 20
-160.5872693825962
 30
0.0
 10
111.0919270555604
 20
-160.1514648037121
 30
0.0
 10
111.0919270555604
 20
-160.1514648037121
 30
0.0
 10
111.0919270555604
 20
-160.1156358106655
 30
0.0
 10
111.0898599982692
 20
-159.8827473558626
 30
0.0
 10
111.0812472595561
 20
-159.7811170390478
 30
0.0
 10
111.2207736267087
 20
-159.7917968350521
 30
0.0
 10
111.4622748202247
 20
-159.7917968350521
 30
0.0
 10
111.6059353019596
 20
-159.7917968350521
 30
0.0
 10
111.6059353019596
 20
-159.7917968350521
 30
0.0
 10
112.0651665301434
 20
-159.7917968350521
 30
0.0
 10
112.0651665301434
 20
-159.7917968350521
 30
0.0
 10
112.07998044073
 20
-159.7917968350521
 30
0.0
 10
112.4289686133858
 20
-159.7917968350521
 30
0.0
 10
112.5874430057073
 20
-159.7811170390478
 30
0.0
 10
112.5853759484162
 20
-159.8341715095206
 30
0.0
 10
112.5791747765427
 20
-159.9950574686818
 30
0.0
 10
112.5791747765427
 20
-160.045700372315
 30
0.0
 10
112.5791747765427
 20
-160.045700372315
 30
0.0
 10
112.5791747765427
 20
-160.652726196816
 30
0.0
 10
112.5791747765427
 20
-160.652726196816
 30
0.0
 10
112.5791747765427
 20
-160.6720187315334
 30
0.0
 10
112.5895100629985
 20
-161.2432155629878
 30
0.0
 10
112.5895100629985
 20
-161.3551811662584
 30
0.0
 10
112.5895100629985
 20
-161.4123697513136
 30
0.0
 10
112.5895100629985
 20
-161.5140000681284
 30
0.0
 10
112.507172280901
 20
-161.5605088571793
 30
0.0
  0
POLYLINE
  5
CC
330
B8
100
AcDbEntity
  8
_U+30EC_U+30A4_U+30E4_U+30FC 1
370
     0
100
AcDb2dPolyline
 66
     1
 10
0.0
 20
0.0
 30
0.0
  0
VERTEX
  5
CD
330
CC
100
AcDbEntity
  8
_U+30EC_U+30A4_U+30E4_U+30FC 1
370
     0
100
AcDbVertex
100
AcDb2dVertex
 10
111.7223795293611
 20
-159.9736978766732
 30
0.0
  0
VERTEX
  5
CE
330
CC
100
AcDbEntity
  8
_U+30EC_U+30A4_U+30E4_U+30FC 1
370
     0
100
AcDbVertex
100
AcDb2dVertex
 10
111.2845078931858
 20
-159.9736978766732
 30
0.0
  0
VERTEX
  5
CF
330
CC
100
AcDbEntity
  8
_U+30EC_U+30A4_U+30E4_U+30FC 1
370
     0
100
AcDbVertex
100
AcDb2dVertex
 10
111.2845078931858
 20
-160.2782443175693
 30
0.0
  0
VERTEX
  5
D0
330
CC
100
AcDbEntity
  8
_U+30EC_U+30A4_U+30E4_U+30FC 1
370
     0
100
AcDbVertex
100
AcDb2dVertex
 10
111.7223795293611
 20
-160.2782443175693
 30
0.0
  0
VERTEX
  5
D1
330
CC
100
AcDbEntity
  8
_U+30EC_U+30A4_U+30E4_U+30FC 1
370
     0
100
AcDbVertex
100
AcDb2dVertex
 10
111.7223795293611
 20
-159.9736978766732
 30
0.0
  0
SEQEND
  5
D2
330
CC
100
AcDbEntity
  8
_U+30EC_U+30A4_U+30E4_U+30FC 1
370
     0
  0
POLYLINE
  5
D3
330
B8
100
AcDbEntity
  8
_U+30EC_U+30A4_U+30E4_U+30FC 1
370
     0
100
AcDb2dPolyline
 66
     1
 10
0.0
 20
0.0
 30
0.0
  0
VERTEX
  5
D4
330
D3
100
AcDbEntity
  8
_U+30EC_U+30A4_U+30E4_U+30FC 1
370
     0
100
AcDbVertex
100
AcDb2dVertex
 10
111.7223795293611
 20
-160.4456759581525
 30
0.0
  0
VERTEX
  5
D5
330
D3
100
AcDbEntity
  8
_U+30EC_U+30A4_U+30E4_U+30FC 1
370
     0
100
AcDbVertex
100
AcDb2dVertex
 10
111.2845078931858
 20
-160.4456759581525
 30
0.0
  0
VERTEX
  5
D6
330
D3
100
AcDbEntity
  8
_U+30EC_U+30A4_U+30E4_U+30FC 1
370
     0
100
AcDbVertex
100
AcDb2dVertex
 10
111.2845078931858
 20
-160.7543565136309
 30
0.0
  0
VERTEX
  5
D7
330
D3
100
AcDbEntity
  8
_U+30EC_U+30A4_U+30E4_U+30FC 1
370
     0
100
AcDbVertex
100
AcDb2dVertex
 10
111.7223795293611
 20
-160.7543565136309
 30
0.0
  0
VERTEX
  5
D8
330
D3
100
AcDbEntity
  8
_U+30EC_U+30A4_U+30E4_U+30FC 1
370
     0
100
AcDbVertex
100
AcDb2dVertex
 10
111.7223795293611
 20
-160.4456759581525
 30
0.0
  0
SEQEND
  5
D9
330
D3
100
AcDbEntity
  8
_U+30EC_U+30A4_U+30E4_U+30FC 1
370
     0
  0
POLYLINE
  5
DA
330
B8
100
AcDbEntity
  8
_U+30EC_U+30A4_U+30E4_U+30FC 1
370
     0
100
AcDb2dPolyline
 66
     1
 10
0.0
 20
0.0
 30
0.0
  0
VERTEX
  5
DB
330
DA
100
AcDbEntity
  8
_U+30EC_U+30A4_U+30E4_U+30FC 1
370
     0
100
AcDbVertex
100
AcDb2dVertex
 10
112.3717800283307
 20
-159.9736978766732
 30
0.0
  0
VERTEX
  5
DC
330
DA
100
AcDbEntity
  8
_U+30EC_U+30A4_U+30E4_U+30FC 1
370
     0
100
AcDbVertex
100
AcDb2dVertex
 10
111.9125488001469
 20
-159.9736978766732
 30
0.0
  0
VERTEX
  5
DD
330
DA
100
AcDbEntity
  8
_U+30EC_U+30A4_U+30E4_U+30FC 1
370
     0
100
AcDbVertex
100
AcDb2dVertex
 10
111.9125488001469
 20
-160.2782443175693
 30
0.0
  0
VERTEX
  5
DE
330
DA
100
AcDbEntity
  8
_U+30EC_U+30A4_U+30E4_U+30FC 1
370
     0
100
AcDbVertex
100
AcDb2dVertex
 10
112.3717800283307
 20
-160.2782443175693
 30
0.0
  0
VERTEX
  5
DF
330
DA
100
AcDbEntity
  8
_U+30EC_U+30A4_U+30E4_U+30FC 1
370
     0
100
AcDbVertex
100
AcDb2dVertex
 10
112.3717800283307
 20
-159.9736978766732
 30
0.0
  0
SEQEND
  5
E0
330
DA
100
AcDbEntity
  8
_U+30EC_U+30A4_U+30E4_U+30FC 1
370
     0
  0
POLYLINE
  5
E1
330
B8
100
AcDbEntity
  8
_U+30EC_U+30A4_U+30E4_U+30FC 1
370
     0
100
AcDb2dPolyline
 66
     1
 10
0.0
 20
0.0
 30
0.0
  0
VERTEX
  5
E2
330
E1
100
AcDbEntity
  8
_U+30EC_U+30A4_U+30E4_U+30FC 1
370
     0
100
AcDbVertex
100
AcDb2dVertex
 10
112.3717800283307
 20
-160.4456759581525
 30
0.0
  0
VERTEX
  5
E3
330
E1
100
AcDbEntity
  8
_U+30EC_U+30A4_U+30E4_U+30FC 1
370
     0
100
AcDbVertex
100
AcDb2dVertex
 10
111.9125488001469
 20
-160.4456759581525
 30
0.0
  0
VERTEX
  5
E4
330
E1
100
AcDbEntity
  8
_U+30EC_U+30A4_U+30E4_U+30FC 1
370
     0
100
AcDbVertex
100
AcDb2dVertex
 10
111.9125488001469
 20
-160.7543565136309
 30
0.0
  0
VERTEX
  5
E5
330
E1
100
AcDbEntity
  8
_U+30EC_U+30A4_U+30E4_U+30FC 1
370
     0
100
AcDbVertex
100
AcDb2dVertex
 10
112.3717800283307
 20
-160.7543565136309
 30
0.0
  0
VERTEX
  5
E6
330
E1
100
AcDbEntity
  8
_U+30EC_U+30A4_U+30E4_U+30FC 1
370
     0
100
AcDbVertex
100
AcDb2dVertex
 10
112.3717800283307
 20
-160.4456759581525
 30
0.0
  0
SEQEND
  5
E7
330
E1
100
AcDbEntity
  8
_U+30EC_U+30A4_U+30E4_U+30FC 1
370
     0
  0
HATCH
  5
E8
330
B8
100
AcDbEntity
  8
_U+30EC_U+30A4_U+30E4_U+30FC 1
 62
   179
420
  2234388
100
AcDbHatch
 10
0.0
 20
0.0
 30
0.0
210
0.0
220
0.0
230
1.0
  2
SOLID
 70
     1
 71
     0
 91
        5
 92
        1
 93
        1
 72
     4
 94
        3
 73
     0
 74
     1
 95
       77
 96
       73
 40
0.0
 40
0.0
 40
0.0
 40
0.0
 40
1.0
 40
1.0
 40
1.0
 40
2.0
 40
2.0
 40
2.0
 40
3.0
 40
3.0
 40
3.0
 40
4.0
 40
4.0
 40
4.0
 40
5.0
 40
5.0
 40
5.0
 40
6.0
 40
6.0
 40
6.0
 40
7.0
 40
7.0
 40
7.0
 40
8.0
 40
8.0
 40
8.0
 40
9.0
 40
9.0
 40
9.0
 40
10.0
 40
10.0
 40
10.0
 40
11.0
 40
11.0
 40
11.0
 40
12.0
 40
12.0
 40
12.0
 40
13.0
 40
13.0
 40
13.0
 40
14.0
 40
14.0
 40
14.0
 40
15.0
 40
15.0
 40
15.0
 40
16.0
 40
16.0
 40
16.0
 40
17.0
 40
17.0
 40
17.0
 40
18.0
 40
18.0
 40
18.0
 40
19.0
 40
19.0
 40
19.0
 40
20.0
 40
20.0
 40
20.0
 40
21.0
 40
21.0
 40
21.0
 40
22.0
 40
22.0
 40
22.0
 40
23.0
 40
23.0
 40
23.0
 40
24.0
 40
24.0
 40
24.0
 40
24.0
 10
112.507172280901
 20
-161.5605088571793
 10
112.4606634918501
 20
-161.5856580542217
 10
112.3359510352841
 20
-161.5984049075171
 10
112.2574028582204
 20
-161.5984049075171
 10
112.2450005144735
 20
-161.5984049075171
 10
112.2195068078826
 20
-161.5984049075171
 10
112.1857448721272
 20
-161.5942707929348
 10
112.1857448721272
 20
-161.5942707929348
 10
112.0882486698946
 20
-161.3679280195539
 10
112.0882486698946
 20
-161.3679280195539
 10
112.1178764910678
 20
-161.3741291914273
 10
112.1750650761229
 20
-161.3827419301404
 10
112.2915093035244
 20
-161.3827419301404
 10
112.3697129710395
 20
-161.3827419301404
 10
112.3717800283307
 20
-161.3403672556719
 10
112.3717800283307
 20
-161.2831786706167
 10
112.3717800283307
 20
-161.2831786706167
 10
112.3717800283307
 20
-160.9341904979609
 10
112.3717800283307
 20
-160.9341904979609
 10
112.3717800283307
 20
-160.9341904979609
 10
111.9125488001469
 20
-160.9341904979609
 10
111.9125488001469
 20
-160.9341904979609
 10
111.9149603669865
 20
-161.0716498078224
 10
111.9170274242777
 20
-161.2704318173213
 10
111.9232285961511
 20
-161.4037570126005
 10
111.9252956534423
 20
-161.4313177764824
 10
111.9252956534423
 20
-161.4757595082422
 10
111.9380425067377
 20
-161.5370822078796
 10
111.9380425067377
 20
-161.5370822078796
 10
111.6968858227702
 20
-161.5370822078796
 10
111.6968858227702
 20
-161.5370822078796
 10
111.7223795293611
 20
-161.4123697513136
 10
111.7223795293611
 20
-161.0716498078224
 10
111.7223795293611
 20
-160.9341904979609
 10
111.7223795293611
 20
-160.9341904979609
 10
111.280029269055
 20
-160.9341904979609
 10
111.280029269055
 20
-160.9341904979609
 10
111.2569471293038
 20
-161.141585246173
 10
111.1914903150841
 20
-161.4103026940224
 10
110.9944308533278
 20
-161.5942707929348
 10
110.9944308533278
 20
-161.5942707929348
 10
110.8063286398331
 20
-161.4716253936599
 10
110.8063286398331
 20
-161.4716253936599
 10
111.0602321770961
 20
-161.2514837921524
 10
111.0919270555604
 20
-160.9193765873743
 10
111.0919270555604
 20
-160.5872693825962
 10
111.0919270555604
 20
-160.5872693825962
 10
111.0919270555604
 20
-160.1514648037121
 10
111.0919270555604
 20
-160.1514648037121
 10
111.0919270555604
 20
-160.1156358106655
 10
111.0898599982692
 20
-159.8827473558626
 10
111.0812472595561
 20
-159.7811170390478
 10
111.2207736267087
 20
-159.7917968350521
 10
111.4622748202247
 20
-159.7917968350521
 10
111.6059353019596
 20
-159.7917968350521
 10
111.6059353019596
 20
-159.7917968350521
 10
112.0651665301434
 20
-159.7917968350521
 10
112.0651665301434
 20
-159.7917968350521
 10
112.07998044073
 20
-159.7917968350521
 10
112.4289686133858
 20
-159.7917968350521
 10
112.5874430057073
 20
-159.7811170390478
 10
112.5853759484162
 20
-159.8341715095206
 10
112.5791747765427
 20
-159.9950574686818
 10
112.5791747765427
 20
-160.045700372315
 10
112.5791747765427
 20
-160.045700372315
 10
112.5791747765427
 20
-160.652726196816
 10
112.5791747765427
 20
-160.652726196816
 10
112.5791747765427
 20
-160.6720187315334
 10
112.5895100629985
 20
-161.2432155629878
 10
112.5895100629985
 20
-161.3551811662584
 10
112.5895100629985
 20
-161.4123697513136
 10
112.5895100629985
 20
-161.5140000681284
 10
112.507172280901
 20
-161.5605088571793
 97
        0
 97
        0
 92
        1
 93
        4
 72
     1
 10
111.7223795293611
 20
-159.9736978766732
 11
111.2845078931858
 21
-159.9736978766732
 72
     1
 10
111.2845078931858
 20
-159.9736978766732
 11
111.2845078931858
 21
-160.2782443175693
 72
     1
 10
111.2845078931858
 20
-160.2782443175693
 11
111.7223795293611
 21
-160.2782443175693
 72
     1
 10
111.7223795293611
 20
-160.2782443175693
 11
111.7223795293611
 21
-159.9736978766732
 97
        0
 92
        1
 93
        4
 72
     1
 10
111.7223795293611
 20
-160.4456759581525
 11
111.2845078931858
 21
-160.4456759581525
 72
     1
 10
111.2845078931858
 20
-160.4456759581525
 11
111.2845078931858
 21
-160.7543565136309
 72
     1
 10
111.2845078931858
 20
-160.7543565136309
 11
111.7223795293611
 21
-160.7543565136309
 72
     1
 10
111.7223795293611
 20
-160.7543565136309
 11
111.7223795293611
 21
-160.4456759581525
 97
        0
 92
        1
 93
        4
 72
     1
 10
112.3717800283307
 20
-159.9736978766732
 11
111.9125488001469
 21
-159.9736978766732
 72
     1
 10
111.9125488001469
 20
-159.9736978766732
 11
111.9125488001469
 21
-160.2782443175693
 72
     1
 10
111.9125488001469
 20
-160.2782443175693
 11
112.3717800283307
 21
-160.2782443175693
 72
     1
 10
112.3717800283307
 20
-160.2782443175693
 11
112.3717800283307
 21
-159.9736978766732
 97
        0
 92
        1
 93
        4
 72
     1
 10
112.3717800283307
 20
-160.4456759581525
 11
111.9125488001469
 21
-160.4456759581525
 72
     1
 10
111.9125488001469
 20
-160.4456759581525
 11
111.9125488001469
 21
-160.7543565136309
 72
     1
 10
111.9125488001469
 20
-160.7543565136309
 11
112.3717800283307
 21
-160.7543565136309
 72
     1
 10
112.3717800283307
 20
-160.7543565136309
 11
112.3717800283307
 21
-160.4456759581525
 97
        0
 75
     2
 76
     1
 98
        0
  0
SPLINE
  5
E9
330
B8
100
AcDbEntity
  8
_U+30EC_U+30A4_U+30E4_U+30FC 1
370
     0
100
AcDbSpline
210
0.0
220
0.0
230
1.0
 70
    11
 71
     3
 72
    44
 73
    40
 74
     0
 42
0.0000000001
 43
0.0000000001
 12
1.0
 22
0.0
 32
0.0
 13
1.0
 23
0.0
 33
0.0
 40
0.0
 40
0.0
 40
0.0
 40
0.0
 40
1.0
 40
1.0
 40
1.0
 40
2.0
 40
2.0
 40
2.0
 40
3.0
 40
3.0
 40
3.0
 40
4.0
 40
4.0
 40
4.0
 40
5.0
 40
5.0
 40
5.0
 40
6.0
 40
6.0
 40
6.0
 40
7.0
 40
7.0
 40
7.0
 40
8.0
 40
8.0
 40
8.0
 40
9.0
 40
9.0
 40
9.0
 40
10.0
 40
10.0
 40
10.0
 40
11.0
 40
11.0
 40
11.0
 40
12.0
 40
12.0
 40
12.0
 40
13.0
 40
13.0
 40
13.0
 40
13.0
 10
114.3847493203621
 20
-160.3102837055822
 30
0.0
 10
114.2727837170915
 20
-160.6782199034068
 30
0.0
 10
114.2221408134584
 20
-160.8370388052768
 30
0.0
 10
114.0254258612506
 20
-161.0864637184089
 30
0.0
 10
113.8411132527897
 20
-161.3172851159207
 30
0.0
 10
113.6044351929531
 20
-161.5033202721242
 30
0.0
 10
113.3250379490993
 20
-161.5963378502259
 30
0.0
 10
113.3250379490993
 20
-161.5963378502259
 30
0.0
 10
113.1324571114738
 20
-161.4165038658959
 30
0.0
 10
113.1324571114738
 20
-161.4165038658959
 30
0.0
 10
113.7735893812788
 20
-161.2642306454478
 30
0.0
 10
114.1036295287658
 20
-160.70784772458
 30
0.0
 10
114.1670192856944
 20
-160.2679090311136
 30
0.0
 10
114.1670192856944
 20
-160.2679090311136
 30
0.0
 10
113.4011745593233
 20
-160.2679090311136
 30
0.0
 10
113.4011745593233
 20
-160.2679090311136
 30
0.0
 10
113.3081569812216
 20
-160.2679090311136
 30
0.0
 10
113.1241888823092
 20
-160.2720431456959
 30
0.0
 10
112.9674370377304
 20
-160.2909911708648
 30
0.0
 10
112.9674370377304
 20
-160.2909911708648
 30
0.0
 10
112.9674370377304
 20
-160.0711940789058
 30
0.0
 10
112.9674370377304
 20
-160.0711940789058
 30
0.0
 10
113.0542534439587
 20
-160.0922091613658
 30
0.0
 10
113.3060899239304
 20
-160.0922091613658
 30
0.0
 10
113.4053086739056
 20
-160.0922091613658
 30
0.0
 10
113.4053086739056
 20
-160.0922091613658
 30
0.0
 10
113.8369791382074
 20
-160.0922091613658
 30
0.0
 10
113.8369791382074
 20
-160.0922091613658
 30
0.0
 10
113.879353812676
 20
-160.0922091613658
 30
0.0
 10
114.1139648152215
 20
-160.0901421040747
 30
0.0
 10
114.1522053751078
 20
-160.0839409322012
 30
0.0
 10
114.1945800495764
 20
-160.0773952507793
 30
0.0
 10
114.1966471068675
 20
-160.0753281934881
 30
0.0
 10
114.257969806505
 20
-160.0350205763107
 30
0.0
 10
114.257969806505
 20
-160.0350205763107
 30
0.0
 10
114.4460720199996
 20
-160.1897053635984
 30
0.0
 10
114.4460720199996
 20
-160.1897053635984
 30
0.0
 10
114.416788708375
 20
-160.2193331847716
 30
0.0
 10
114.4019747977884
 20
-160.2510280632359
 30
0.0
 10
114.3847493203621
 20
-160.3102837055822
 30
0.0
  0
SPLINE
  5
EA
330
B8
100
AcDbEntity
  8
_U+30EC_U+30A4_U+30E4_U+30FC 1
370
     0
100
AcDbSpline
210
0.0
220
0.0
230
1.0
 70
    11
 71
     3
 72
    17
 73
    13
 74
     0
 42
0.0000000001
 43
0.0000000001
 12
1.0
 22
0.0
 32
0.0
 13
1.0
 23
0.0
 33
0.0
 40
0.0
 40
0.0
 40
0.0
 40
0.0
 40
1.0
 40
1.0
 40
1.0
 40
2.0
 40
2.0
 40
2.0
 40
3.0
 40
3.0
 40
3.0
 40
4.0
 40
4.0
 40
4.0
 40
4.0
 10
114.5942111258653
 20
-160.1111571865347
 30
0.0
 10
114.4674316120081
 20
-160.1111571865347
 30
0.0
 10
114.3658012951933
 20
-160.0098713792684
 30
0.0
 10
114.3658012951933
 20
-159.8827473558626
 30
0.0
 10
114.3658012951933
 20
-159.7559678420054
 30
0.0
 10
114.4674316120081
 20
-159.6522704678994
 30
0.0
 10
114.5942111258653
 20
-159.6522704678994
 30
0.0
 10
114.7213351492711
 20
-159.6522704678994
 30
0.0
 10
114.8250325233771
 20
-159.7559678420054
 30
0.0
 10
114.8250325233771
 20
-159.8827473558626
 30
0.0
 10
114.8250325233771
 20
-160.0098713792684
 30
0.0
 10
114.7213351492711
 20
-160.1111571865347
 30
0.0
 10
114.5942111258653
 20
-160.1111571865347
 30
0.0
  0
SPLINE
  5
EB
330
B8
100
AcDbEntity
  8
_U+30EC_U+30A4_U+30E4_U+30FC 1
370
     0
100
AcDbSpline
210
0.0
220
0.0
230
1.0
 70
    11
 71
     3
 72
    17
 73
    13
 74
     0
 42
0.0000000001
 43
0.0000000001
 12
1.0
 22
0.0
 32
0.0
 13
1.0
 23
0.0
 33
0.0
 40
0.0
 40
0.0
 40
0.0
 40
0.0
 40
1.0
 40
1.0
 40
1.0
 40
2.0
 40
2.0
 40
2.0
 40
3.0
 40
3.0
 40
3.0
 40
4.0
 40
4.0
 40
4.0
 40
4.0
 10
114.5921440685742
 20
-159.7811170390478
 30
0.0
 10
114.5373670503587
 20
-159.7811170390478
 30
0.0
 10
114.492925318599
 20
-159.8255587708075
 30
0.0
 10
114.492925318599
 20
-159.8806802985715
 30
0.0
 10
114.492925318599
 20
-159.9378688836267
 30
0.0
 10
114.5373670503587
 20
-159.9864447299687
 30
0.0
 10
114.5962781831565
 20
-159.9864447299687
 30
0.0
 10
114.6555338255028
 20
-159.9864447299687
 30
0.0
 10
114.6958414426802
 20
-159.9358018263355
 30
0.0
 10
114.6958414426802
 20
-159.8827473558626
 30
0.0
 10
114.6958414426802
 20
-159.8255587708075
 30
0.0
 10
114.6493326536293
 20
-159.7811170390478
 30
0.0
 10
114.5921440685742
 20
-159.7811170390478
 30
0.0
  0
HATCH
  5
EC
330
B8
100
AcDbEntity
  8
_U+30EC_U+30A4_U+30E4_U+30FC 1
 62
   179
420
  2234388
100
AcDbHatch
 10
0.0
 20
0.0
 30
0.0
210
0.0
220
0.0
230
1.0
  2
SOLID
 70
     1
 71
     0
 91
        3
 92
        1
 93
        1
 72
     4
 94
        3
 73
     0
 74
     1
 95
       44
 96
       40
 40
0.0
 40
0.0
 40
0.0
 40
0.0
 40
1.0
 40
1.0
 40
1.0
 40
2.0
 40
2.0
 40
2.0
 40
3.0
 40
3.0
 40
3.0
 40
4.0
 40
4.0
 40
4.0
 40
5.0
 40
5.0
 40
5.0
 40
6.0
 40
6.0
 40
6.0
 40
7.0
 40
7.0
 40
7.0
 40
8.0
 40
8.0
 40
8.0
 40
9.0
 40
9.0
 40
9.0
 40
10.0
 40
10.0
 40
10.0
 40
11.0
 40
11.0
 40
11.0
 40
12.0
 40
12.0
 40
12.0
 40
13.0
 40
13.0
 40
13.0
 40
13.0
 10
114.3847493203621
 20
-160.3102837055822
 10
114.2727837170915
 20
-160.6782199034068
 10
114.2221408134584
 20
-160.8370388052768
 10
114.0254258612506
 20
-161.0864637184089
 10
113.8411132527897
 20
-161.3172851159207
 10
113.6044351929531
 20
-161.5033202721242
 10
113.3250379490993
 20
-161.5963378502259
 10
113.3250379490993
 20
-161.5963378502259
 10
113.1324571114738
 20
-161.4165038658959
 10
113.1324571114738
 20
-161.4165038658959
 10
113.7735893812788
 20
-161.2642306454478
 10
114.1036295287658
 20
-160.70784772458
 10
114.1670192856944
 20
-160.2679090311136
 10
114.1670192856944
 20
-160.2679090311136
 10
113.4011745593233
 20
-160.2679090311136
 10
113.4011745593233
 20
-160.2679090311136
 10
113.3081569812216
 20
-160.2679090311136
 10
113.1241888823092
 20
-160.2720431456959
 10
112.9674370377304
 20
-160.2909911708648
 10
112.9674370377304
 20
-160.2909911708648
 10
112.9674370377304
 20
-160.0711940789058
 10
112.9674370377304
 20
-160.0711940789058
 10
113.0542534439587
 20
-160.0922091613658
 10
113.3060899239304
 20
-160.0922091613658
 10
113.4053086739056
 20
-160.0922091613658
 10
113.4053086739056
 20
-160.0922091613658
 10
113.8369791382074
 20
-160.0922091613658
 10
113.8369791382074
 20
-160.0922091613658
 10
113.879353812676
 20
-160.0922091613658
 10
114.1139648152215
 20
-160.0901421040747
 10
114.1522053751078
 20
-160.0839409322012
 10
114.1945800495764
 20
-160.0773952507793
 10
114.1966471068675
 20
-160.0753281934881
 10
114.257969806505
 20
-160.0350205763107
 10
114.257969806505
 20
-160.0350205763107
 10
114.4460720199996
 20
-160.1897053635984
 10
114.4460720199996
 20
-160.1897053635984
 10
114.416788708375
 20
-160.2193331847716
 10
114.4019747977884
 20
-160.2510280632359
 10
114.3847493203621
 20
-160.3102837055822
 97
        0
 97
        0
 92
        1
 93
        1
 72
     4
 94
        3
 73
     0
 74
     1
 95
       17
 96
       13
 40
0.0
 40
0.0
 40
0.0
 40
0.0
 40
1.0
 40
1.0
 40
1.0
 40
2.0
 40
2.0
 40
2.0
 40
3.0
 40
3.0
 40
3.0
 40
4.0
 40
4.0
 40
4.0
 40
4.0
 10
114.5942111258653
 20
-160.1111571865347
 10
114.4674316120081
 20
-160.1111571865347
 10
114.3658012951933
 20
-160.0098713792684
 10
114.3658012951933
 20
-159.8827473558626
 10
114.3658012951933
 20
-159.7559678420054
 10
114.4674316120081
 20
-159.6522704678994
 10
114.5942111258653
 20
-159.6522704678994
 10
114.7213351492711
 20
-159.6522704678994
 10
114.8250325233771
 20
-159.7559678420054
 10
114.8250325233771
 20
-159.8827473558626
 10
114.8250325233771
 20
-160.0098713792684
 10
114.7213351492711
 20
-160.1111571865347
 10
114.5942111258653
 20
-160.1111571865347
 97
        0
 97
        0
 92
        1
 93
        1
 72
     4
 94
        3
 73
     0
 74
     1
 95
       17
 96
       13
 40
0.0
 40
0.0
 40
0.0
 40
0.0
 40
1.0
 40
1.0
 40
1.0
 40
2.0
 40
2.0
 40
2.0
 40
3.0
 40
3.0
 40
3.0
 40
4.0
 40
4.0
 40
4.0
 40
4.0
 10
114.5921440685742
 20
-159.7811170390478
 10
114.5373670503587
 20
-159.7811170390478
 10
114.492925318599
 20
-159.8255587708075
 10
114.492925318599
 20
-159.8806802985715
 10
114.492925318599
 20
-159.9378688836267
 10
114.5373670503587
 20
-159.9864447299687
 10
114.5962781831565
 20
-159.9864447299687
 10
114.6555338255028
 20
-159.9864447299687
 10
114.6958414426802
 20
-159.9358018263355
 10
114.6958414426802
 20
-159.8827473558626
 10
114.6958414426802
 20
-159.8255587708075
 10
114.6493326536293
 20
-159.7811170390478
 10
114.5921440685742
 20
-159.7811170390478
 97
        0
 97
        0
 75
     2
 76
     1
 98
        0
  0
SPLINE
  5
ED
330
B8
100
AcDbEntity
  8
_U+30EC_U+30A4_U+30E4_U+30FC 1
370
     0
100
AcDbSpline
210
0.0
220
0.0
230
1.0
 70
    11
 71
     3
 72
    50
 73
    46
 74
     0
 42
0.0000000001
 43
0.0000000001
 12
1.0
 22
0.0
 32
0.0
 13
1.0
 23
0.0
 33
0.0
 40
0.0
 40
0.0
 40
0.0
 40
0.0
 40
1.0
 40
1.0
 40
1.0
 40
2.0
 40
2.0
 40
2.0
 40
3.0
 40
3.0
 40
3.0
 40
4.0
 40
4.0
 40
4.0
 40
5.0
 40
5.0
 40
5.0
 40
6.0
 40
6.0
 40
6.0
 40
7.0
 40
7.0
 40
7.0
 40
8.0
 40
8.0
 40
8.0
 40
9.0
 40
9.0
 40
9.0
 40
10.0
 40
10.0
 40
10.0
 40
11.0
 40
11.0
 40
11.0
 40
12.0
 40
12.0
 40
12.0
 40
13.0
 40
13.0
 40
13.0
 40
14.0
 40
14.0
 40
14.0
 40
15.0
 40
15.0
 40
15.0
 40
15.0
 10
116.3915174405202
 20
-160.6189642610605
 30
0.0
 10
116.3129692634565
 20
-160.7967311880994
 30
0.0
 10
116.1775770108862
 20
-161.0041259363115
 30
0.0
 10
116.0401177010247
 20
-161.1436523034641
 30
0.0
 10
115.8709635126989
 20
-161.314873549081
 30
0.0
 10
115.7080104962466
 20
-161.4037570126005
 30
0.0
 10
115.388650144764
 20
-161.5456949465928
 30
0.0
 10
115.388650144764
 20
-161.5456949465928
 30
0.0
 10
115.2194959564382
 20
-161.3572482235496
 30
0.0
 10
115.2194959564382
 20
-161.3572482235496
 30
0.0
 10
115.4055311126417
 20
-161.3341660837984
 30
0.0
 10
115.5767523582586
 20
-161.2473496775701
 30
0.0
 10
115.7293700882552
 20
-161.141585246173
 30
0.0
 10
115.9915418546827
 20
-160.9596842045518
 30
0.0
 10
116.182055635017
 20
-160.6465250249425
 30
0.0
 10
116.230631481359
 20
-160.4646239833214
 30
0.0
 10
116.230631481359
 20
-160.4646239833214
 30
0.0
 10
115.5598713903809
 20
-160.4646239833214
 30
0.0
 10
115.5598713903809
 20
-160.4646239833214
 30
0.0
 10
115.4013969980594
 20
-160.4646239833214
 30
0.0
 10
115.1092529009102
 20
-160.472892212486
 30
0.0
 10
114.9569796804622
 20
-160.4901176899122
 30
0.0
 10
114.9569796804622
 20
-160.4901176899122
 30
0.0
 10
114.9569796804622
 20
-160.2613633496916
 30
0.0
 10
114.9569796804622
 20
-160.2613633496916
 30
0.0
 10
114.9910861257661
 20
-160.2679090311136
 30
0.0
 10
115.0162353228084
 20
-160.274110202987
 30
0.0
 10
115.0692897932813
 20
-160.2782443175693
 30
0.0
 10
115.1705756005476
 20
-160.2847899989913
 30
0.0
 10
115.3676350623039
 20
-160.2868570562825
 30
0.0
 10
115.4520399016925
 20
-160.2868570562825
 30
0.0
 10
115.4520399016925
 20
-160.2868570562825
 30
0.0
 10
115.9577799189272
 20
-160.2868570562825
 30
0.0
 10
115.9577799189272
 20
-160.2868570562825
 30
0.0
 10
116.0253037904381
 20
-160.2868570562825
 30
0.0
 10
116.1713758390127
 20
-160.2827229417002
 30
0.0
 10
116.2326985386502
 20
-160.2761772602782
 30
0.0
 10
116.3047010342919
 20
-160.2679090311136
 30
0.0
 10
116.3322617981739
 20
-160.253095120527
 30
0.0
 10
116.3660237339293
 20
-160.2296684712273
 30
0.0
 10
116.3660237339293
 20
-160.2296684712273
 30
0.0
 10
116.5310438076728
 20
-160.3967556022619
 30
0.0
 10
116.5310438076728
 20
-160.3967556022619
 30
0.0
 10
116.4611083693222
 20
-160.4646239833214
 30
0.0
 10
116.4145995802714
 20
-160.5683213574274
 30
0.0
 10
116.3915174405202
 20
-160.6189642610605
 30
0.0
  0
SPLINE
  5
EE
330
B8
100
AcDbEntity
  8
_U+30EC_U+30A4_U+30E4_U+30FC 1
370
     0
100
AcDbSpline
210
0.0
220
0.0
230
1.0
 70
    11
 71
     3
 72
    29
 73
    25
 74
     0
 42
0.0000000001
 43
0.0000000001
 12
1.0
 22
0.0
 32
0.0
 13
1.0
 23
0.0
 33
0.0
 40
0.0
 40
0.0
 40
0.0
 40
0.0
 40
1.0
 40
1.0
 40
1.0
 40
2.0
 40
2.0
 40
2.0
 40
3.0
 40
3.0
 40
3.0
 40
4.0
 40
4.0
 40
4.0
 40
5.0
 40
5.0
 40
5.0
 40
6.0
 40
6.0
 40
6.0
 40
7.0
 40
7.0
 40
7.0
 40
8.0
 40
8.0
 40
8.0
 40
8.0
 10
115.8985242765809
 20
-159.9929904113907
 30
0.0
 10
115.8985242765809
 20
-159.9929904113907
 30
0.0
 10
115.5578043330897
 20
-159.9929904113907
 30
0.0
 10
115.5578043330897
 20
-159.9929904113907
 30
0.0
 10
115.4437716725279
 20
-159.9929904113907
 30
0.0
 10
115.3273274451265
 20
-159.9971245259729
 30
0.0
 10
115.2129502750162
 20
-160.0119384365595
 30
0.0
 10
115.2129502750162
 20
-160.0119384365595
 30
0.0
 10
115.2129502750162
 20
-159.8024766310563
 30
0.0
 10
115.2129502750162
 20
-159.8024766310563
 30
0.0
 10
115.3314615597088
 20
-159.8172905416429
 30
0.0
 10
115.5050943721654
 20
-159.8214246562252
 30
0.0
 10
115.5578043330897
 20
-159.8214246562252
 30
0.0
 10
115.5578043330897
 20
-159.8214246562252
 30
0.0
 10
115.8985242765809
 20
-159.8214246562252
 30
0.0
 10
115.8985242765809
 20
-159.8214246562252
 30
0.0
 10
116.0149685039824
 20
-159.8214246562252
 30
0.0
 10
116.1310682218353
 20
-159.8172905416429
 30
0.0
 10
116.2475124492367
 20
-159.8024766310563
 30
0.0
 10
116.2475124492367
 20
-159.8024766310563
 30
0.0
 10
116.2475124492367
 20
-160.0119384365595
 30
0.0
 10
116.2475124492367
 20
-160.0119384365595
 30
0.0
 10
116.0973062860798
 20
-159.9929904113907
 30
0.0
 10
115.9133381871675
 20
-159.9929904113907
 30
0.0
 10
115.8985242765809
 20
-159.9929904113907
 30
0.0
  0
HATCH
  5
EF
330
B8
100
AcDbEntity
  8
_U+30EC_U+30A4_U+30E4_U+30FC 1
 62
   179
420
  2234388
100
AcDbHatch
 10
0.0
 20
0.0
 30
0.0
210
0.0
220
0.0
230
1.0
  2
SOLID
 70
     1
 71
     0
 91
        2
 92
        1
 93
        1
 72
     4
 94
        3
 73
     0
 74
     1
 95
       50
 96
       46
 40
0.0
 40
0.0
 40
0.0
 40
0.0
 40
1.0
 40
1.0
 40
1.0
 40
2.0
 40
2.0
 40
2.0
 40
3.0
 40
3.0
 40
3.0
 40
4.0
 40
4.0
 40
4.0
 40
5.0
 40
5.0
 40
5.0
 40
6.0
 40
6.0
 40
6.0
 40
7.0
 40
7.0
 40
7.0
 40
8.0
 40
8.0
 40
8.0
 40
9.0
 40
9.0
 40
9.0
 40
10.0
 40
10.0
 40
10.0
 40
11.0
 40
11.0
 40
11.0
 40
12.0
 40
12.0
 40
12.0
 40
13.0
 40
13.0
 40
13.0
 40
14.0
 40
14.0
 40
14.0
 40
15.0
 40
15.0
 40
15.0
 40
15.0
 10
116.3915174405202
 20
-160.6189642610605
 10
116.3129692634565
 20
-160.7967311880994
 10
116.1775770108862
 20
-161.0041259363115
 10
116.0401177010247
 20
-161.1436523034641
 10
115.8709635126989
 20
-161.314873549081
 10
115.7080104962466
 20
-161.4037570126005
 10
115.388650144764
 20
-161.5456949465928
 10
115.388650144764
 20
-161.5456949465928
 10
115.2194959564382
 20
-161.3572482235496
 10
115.2194959564382
 20
-161.3572482235496
 10
115.4055311126417
 20
-161.3341660837984
 10
115.5767523582586
 20
-161.2473496775701
 10
115.7293700882552
 20
-161.141585246173
 10
115.9915418546827
 20
-160.9596842045518
 10
116.182055635017
 20
-160.6465250249425
 10
116.230631481359
 20
-160.4646239833214
 10
116.230631481359
 20
-160.4646239833214
 10
115.5598713903809
 20
-160.4646239833214
 10
115.5598713903809
 20
-160.4646239833214
 10
115.4013969980594
 20
-160.4646239833214
 10
115.1092529009102
 20
-160.472892212486
 10
114.9569796804622
 20
-160.4901176899122
 10
114.9569796804622
 20
-160.4901176899122
 10
114.9569796804622
 20
-160.2613633496916
 10
114.9569796804622
 20
-160.2613633496916
 10
114.9910861257661
 20
-160.2679090311136
 10
115.0162353228084
 20
-160.274110202987
 10
115.0692897932813
 20
-160.2782443175693
 10
115.1705756005476
 20
-160.2847899989913
 10
115.3676350623039
 20
-160.2868570562825
 10
115.4520399016925
 20
-160.2868570562825
 10
115.4520399016925
 20
-160.2868570562825
 10
115.9577799189272
 20
-160.2868570562825
 10
115.9577799189272
 20
-160.2868570562825
 10
116.0253037904381
 20
-160.2868570562825
 10
116.1713758390127
 20
-160.2827229417002
 10
116.2326985386502
 20
-160.2761772602782
 10
116.3047010342919
 20
-160.2679090311136
 10
116.3322617981739
 20
-160.253095120527
 10
116.3660237339293
 20
-160.2296684712273
 10
116.3660237339293
 20
-160.2296684712273
 10
116.5310438076728
 20
-160.3967556022619
 10
116.5310438076728
 20
-160.3967556022619
 10
116.4611083693222
 20
-160.4646239833214
 10
116.4145995802714
 20
-160.5683213574274
 10
116.3915174405202
 20
-160.6189642610605
 97
        0
 97
        0
 92
        1
 93
        1
 72
     4
 94
        3
 73
     0
 74
     1
 95
       29
 96
       25
 40
0.0
 40
0.0
 40
0.0
 40
0.0
 40
1.0
 40
1.0
 40
1.0
 40
2.0
 40
2.0
 40
2.0
 40
3.0
 40
3.0
 40
3.0
 40
4.0
 40
4.0
 40
4.0
 40
5.0
 40
5.0
 40
5.0
 40
6.0
 40
6.0
 40
6.0
 40
7.0
 40
7.0
 40
7.0
 40
8.0
 40
8.0
 40
8.0
 40
8.0
 10
115.8985242765809
 20
-159.9929904113907
 10
115.8985242765809
 20
-159.9929904113907
 10
115.5578043330897
 20
-159.9929904113907
 10
115.5578043330897
 20
-159.9929904113907
 10
115.4437716725279
 20
-159.9929904113907
 10
115.3273274451265
 20
-159.9971245259729
 10
115.2129502750162
 20
-160.0119384365595
 10
115.2129502750162
 20
-160.0119384365595
 10
115.2129502750162
 20
-159.8024766310563
 10
115.2129502750162
 20
-159.8024766310563
 10
115.3314615597088
 20
-159.8172905416429
 10
115.5050943721654
 20
-159.8214246562252
 10
115.5578043330897
 20
-159.8214246562252
 10
115.5578043330897
 20
-159.8214246562252
 10
115.8985242765809
 20
-159.8214246562252
 10
115.8985242765809
 20
-159.8214246562252
 10
116.0149685039824
 20
-159.8214246562252
 10
116.1310682218353
 20
-159.8172905416429
 10
116.2475124492367
 20
-159.8024766310563
 10
116.2475124492367
 20
-159.8024766310563
 10
116.2475124492367
 20
-160.0119384365595
 10
116.2475124492367
 20
-160.0119384365595
 10
116.0973062860798
 20
-159.9929904113907
 10
115.9133381871675
 20
-159.9929904113907
 10
115.8985242765809
 20
-159.9929904113907
 97
        0
 97
        0
 75
     2
 76
     1
 98
        0
  0
SPLINE
  5
F0
330
B8
100
AcDbEntity
  8
_U+30EC_U+30A4_U+30E4_U+30FC 1
370
     0
100
AcDbSpline
210
0.0
220
0.0
230
1.0
 70
    11
 71
     3
 72
    50
 73
    46
 74
     0
 42
0.0000000001
 43
0.0000000001
 12
1.0
 22
0.0
 32
0.0
 13
1.0
 23
0.0
 33
0.0
 40
0.0
 40
0.0
 40
0.0
 40
0.0
 40
1.0
 40
1.0
 40
1.0
 40
2.0
 40
2.0
 40
2.0
 40
3.0
 40
3.0
 40
3.0
 40
4.0
 40
4.0
 40
4.0
 40
5.0
 40
5.0
 40
5.0
 40
6.0
 40
6.0
 40
6.0
 40
7.0
 40
7.0
 40
7.0
 40
8.0
 40
8.0
 40
8.0
 40
9.0
 40
9.0
 40
9.0
 40
10.0
 40
10.0
 40
10.0
 40
11.0
 40
11.0
 40
11.0
 40
12.0
 40
12.0
 40
12.0
 40
13.0
 40
13.0
 40
13.0
 40
14.0
 40
14.0
 40
14.0
 40
15.0
 40
15.0
 40
15.0
 40
15.0
 10
118.1016628393982
 20
-159.9781765008041
 30
0.0
 10
117.892201033895
 20
-160.1917724208896
 30
0.0
 10
117.8205430478018
 20
-160.2637749165313
 30
0.0
 10
117.6786051138095
 20
-160.3819416916754
 30
0.0
 10
117.6786051138095
 20
-160.3819416916754
 30
0.0
 10
117.6786051138095
 20
-160.9490044085475
 30
0.0
 10
117.6786051138095
 20
-160.9490044085475
 30
0.0
 10
117.6786051138095
 20
-161.0992105717044
 30
0.0
 10
117.6851507952315
 20
-161.1181585968733
 30
0.0
 10
117.6892849098138
 20
-161.2959255239121
 30
0.0
 10
117.6913519671049
 20
-161.4271836619002
 30
0.0
 10
117.6975531389784
 20
-161.4757595082422
 30
0.0
 10
117.7040988204004
 20
-161.5350151505885
 30
0.0
 10
117.7040988204004
 20
-161.5350151505885
 30
0.0
 10
117.4777560470195
 20
-161.5350151505885
 30
0.0
 10
117.4777560470195
 20
-161.5350151505885
 30
0.0
 10
117.4818901616018
 20
-161.4905734188287
 30
0.0
 10
117.4860242761841
 20
-161.4440646297779
 30
0.0
 10
117.4860242761841
 20
-161.4354518910648
 30
0.0
 10
117.4860242761841
 20
-161.3551811662584
 30
0.0
 10
117.4905029003149
 20
-161.0041259363115
 30
0.0
 10
117.4905029003149
 20
-160.9321234406698
 30
0.0
 10
117.4905029003149
 20
-160.9321234406698
 30
0.0
 10
117.4905029003149
 20
-160.5259466829588
 30
0.0
 10
117.4905029003149
 20
-160.5259466829588
 30
0.0
 10
117.3086018586937
 20
-160.6506591395248
 30
0.0
 10
117.1139539637771
 20
-160.7609021950528
 30
0.0
 10
116.9106933301473
 20
-160.8473740917326
 30
0.0
 10
116.9106933301473
 20
-160.8473740917326
 30
0.0
 10
116.7077772060661
 20
-160.6844210752803
 30
0.0
 10
116.7077772060661
 20
-160.6844210752803
 30
0.0
 10
116.830422605341
 20
-160.6485920822337
 30
0.0
 10
117.0863931998951
 20
-160.5745225293008
 30
0.0
 10
117.4312472579686
 20
-160.3185519347468
 30
0.0
 10
117.6469102353452
 20
-160.1600775424253
 30
0.0
 10
117.8394910729707
 20
-159.9716308193821
 30
0.0
 10
117.9917642934187
 20
-159.7514892178746
 30
0.0
 10
117.9917642934187
 20
-159.7514892178746
 30
0.0
 10
118.1843451310442
 20
-159.8954942091581
 30
0.0
 10
118.1843451310442
 20
-159.8954942091581
 30
0.0
 10
118.1970919843396
 20
-159.9061740051623
 30
0.0
 10
118.2053602135042
 20
-159.9209879157489
 30
0.0
 10
118.2053602135042
 20
-159.9337347690443
 30
0.0
 10
118.2053602135042
 20
-159.9736978766732
 30
0.0
 10
118.1674641631665
 20
-159.9736978766732
 30
0.0
 10
118.1016628393982
 20
-159.9781765008041
 30
0.0
  0
HATCH
  5
F1
330
B8
100
AcDbEntity
  8
_U+30EC_U+30A4_U+30E4_U+30FC 1
 62
   179
420
  2234388
100
AcDbHatch
 10
0.0
 20
0.0
 30
0.0
210
0.0
220
0.0
230
1.0
  2
SOLID
 70
     1
 71
     0
 91
        1
 92
        1
 93
        1
 72
     4
 94
        3
 73
     0
 74
     1
 95
       50
 96
       46
 40
0.0
 40
0.0
 40
0.0
 40
0.0
 40
1.0
 40
1.0
 40
1.0
 40
2.0
 40
2.0
 40
2.0
 40
3.0
 40
3.0
 40
3.0
 40
4.0
 40
4.0
 40
4.0
 40
5.0
 40
5.0
 40
5.0
 40
6.0
 40
6.0
 40
6.0
 40
7.0
 40
7.0
 40
7.0
 40
8.0
 40
8.0
 40
8.0
 40
9.0
 40
9.0
 40
9.0
 40
10.0
 40
10.0
 40
10.0
 40
11.0
 40
11.0
 40
11.0
 40
12.0
 40
12.0
 40
12.0
 40
13.0
 40
13.0
 40
13.0
 40
14.0
 40
14.0
 40
14.0
 40
15.0
 40
15.0
 40
15.0
 40
15.0
 10
118.1016628393982
 20
-159.9781765008041
 10
117.892201033895
 20
-160.1917724208896
 10
117.8205430478018
 20
-160.2637749165313
 10
117.6786051138095
 20
-160.3819416916754
 10
117.6786051138095
 20
-160.3819416916754
 10
117.6786051138095
 20
-160.9490044085475
 10
117.6786051138095
 20
-160.9490044085475
 10
117.6786051138095
 20
-161.0992105717044
 10
117.6851507952315
 20
-161.1181585968733
 10
117.6892849098138
 20
-161.2959255239121
 10
117.6913519671049
 20
-161.4271836619002
 10
117.6975531389784
 20
-161.4757595082422
 10
117.7040988204004
 20
-161.5350151505885
 10
117.7040988204004
 20
-161.5350151505885
 10
117.4777560470195
 20
-161.5350151505885
 10
117.4777560470195
 20
-161.5350151505885
 10
117.4818901616018
 20
-161.4905734188287
 10
117.4860242761841
 20
-161.4440646297779
 10
117.4860242761841
 20
-161.4354518910648
 10
117.4860242761841
 20
-161.3551811662584
 10
117.4905029003149
 20
-161.0041259363115
 10
117.4905029003149
 20
-160.9321234406698
 10
117.4905029003149
 20
-160.9321234406698
 10
117.4905029003149
 20
-160.5259466829588
 10
117.4905029003149
 20
-160.5259466829588
 10
117.3086018586937
 20
-160.6506591395248
 10
117.1139539637771
 20
-160.7609021950528
 10
116.9106933301473
 20
-160.8473740917326
 10
116.9106933301473
 20
-160.8473740917326
 10
116.7077772060661
 20
-160.6844210752803
 10
116.7077772060661
 20
-160.6844210752803
 10
116.830422605341
 20
-160.6485920822337
 10
117.0863931998951
 20
-160.5745225293008
 10
117.4312472579686
 20
-160.3185519347468
 10
117.6469102353452
 20
-160.1600775424253
 10
117.8394910729707
 20
-159.9716308193821
 10
117.9917642934187
 20
-159.7514892178746
 10
117.9917642934187
 20
-159.7514892178746
 10
118.1843451310442
 20
-159.8954942091581
 10
118.1843451310442
 20
-159.8954942091581
 10
118.1970919843396
 20
-159.9061740051623
 10
118.2053602135042
 20
-159.9209879157489
 10
118.2053602135042
 20
-159.9337347690443
 10
118.2053602135042
 20
-159.9736978766732
 10
118.1674641631665
 20
-159.9736978766732
 10
118.1016628393982
 20
-159.9781765008041
 97
        0
 97
        0
 75
     2
 76
     1
 98
        0
  0
SPLINE
  5
F2
330
B8
100
AcDbEntity
  8
_U+30EC_U+30A4_U+30E4_U+30FC 1
370
     0
100
AcDbSpline
210
0.0
220
0.0
230
1.0
 70
    11
 71
     3
 72
    50
 73
    46
 74
     0
 42
0.0000000001
 43
0.0000000001
 12
1.0
 22
0.0
 32
0.0
 13
1.0
 23
0.0
 33
0.0
 40
0.0
 40
0.0
 40
0.0
 40
0.0
 40
1.0
 40
1.0
 40
1.0
 40
2.0
 40
2.0
 40
2.0
 40
3.0
 40
3.0
 40
3.0
 40
4.0
 40
4.0
 40
4.0
 40
5.0
 40
5.0
 40
5.0
 40
6.0
 40
6.0
 40
6.0
 40
7.0
 40
7.0
 40
7.0
 40
8.0
 40
8.0
 40
8.0
 40
9.0
 40
9.0
 40
9.0
 40
10.0
 40
10.0
 40
10.0
 40
11.0
 40
11.0
 40
11.0
 40
12.0
 40
12.0
 40
12.0
 40
13.0
 40
13.0
 40
13.0
 40
14.0
 40
14.0
 40
14.0
 40
15.0
 40
15.0
 40
15.0
 40
15.0
 10
119.8121527478247
 20
-160.5049316004988
 30
0.0
 10
119.7508300481873
 20
-160.576589586592
 30
0.0
 10
119.4903808295024
 20
-160.8938828807835
 30
0.0
 10
119.4335367539958
 20
-160.9576171472606
 30
0.0
 10
119.5179415933844
 20
-161.0547688399446
 30
0.0
 10
119.5689290065661
 20
-161.1181585968733
 30
0.0
 10
119.6343858207859
 20
-161.2091091176839
 30
0.0
 10
119.6343858207859
 20
-161.2091091176839
 30
0.0
 10
119.4504177218735
 20
-161.3469129370938
 30
0.0
 10
119.4504177218735
 20
-161.3469129370938
 30
0.0
 10
119.3150254693032
 20
-161.135039564751
 30
0.0
 10
119.1434597141377
 20
-160.9111083582097
 30
0.0
 10
118.8495930692459
 20
-160.7119818391623
 30
0.0
 10
118.8495930692459
 20
-160.7119818391623
 30
0.0
 10
118.9977321751117
 20
-160.5576415614231
 30
0.0
 10
118.9977321751117
 20
-160.5576415614231
 30
0.0
 10
119.1076307210912
 20
-160.6379122862294
 30
0.0
 10
119.2113280951972
 20
-160.7267957497489
 30
0.0
 10
119.3084797878812
 20
-160.8222248946903
 30
0.0
 10
119.3763481689406
 20
-160.7460882844663
 30
0.0
 10
119.5792642930219
 20
-160.5025200336591
 30
0.0
 10
119.712589488301
 20
-160.274110202987
 30
0.0
 10
119.712589488301
 20
-160.274110202987
 30
0.0
 10
119.0397623400317
 20
-160.274110202987
 30
0.0
 10
119.0397623400317
 20
-160.274110202987
 30
0.0
 10
118.9150498834657
 20
-160.274110202987
 30
0.0
 10
118.6632134034939
 20
-160.2827229417002
 30
0.0
 10
118.4537515979907
 20
-160.2930582281559
 30
0.0
 10
118.4537515979907
 20
-160.2930582281559
 30
0.0
 10
118.4537515979907
 20
-160.073261136197
 30
0.0
 10
118.4537515979907
 20
-160.073261136197
 30
0.0
 10
118.6380642064516
 20
-160.0922091613658
 30
0.0
 10
118.843047387824
 20
-160.0963432759482
 30
0.0
 10
119.0314941108671
 20
-160.0963432759482
 30
0.0
 10
119.0314941108671
 20
-160.0963432759482
 30
0.0
 10
119.5348225612621
 20
-160.0963432759482
 30
0.0
 10
119.5348225612621
 20
-160.0963432759482
 30
0.0
 10
119.8734754474622
 20
-160.0963432759482
 30
0.0
 10
119.9179171792219
 20
-160.0815293653616
 30
0.0
 10
120.0002549613194
 20
-160.0415662577327
 30
0.0
 10
120.0002549613194
 20
-160.0415662577327
 30
0.0
 10
120.167342092354
 20
-160.2000406500542
 30
0.0
 10
120.167342092354
 20
-160.2000406500542
 30
0.0
 10
120.015068871906
 20
-160.2720431456959
 30
0.0
 10
119.871408390171
 20
-160.4349961621482
 30
0.0
 10
119.8121527478247
 20
-160.5049316004988
 30
0.0
  0
HATCH
  5
F3
330
B8
100
AcDbEntity
  8
_U+30EC_U+30A4_U+30E4_U+30FC 1
 62
   179
420
  2234388
100
AcDbHatch
 10
0.0
 20
0.0
 30
0.0
210
0.0
220
0.0
230
1.0
  2
SOLID
 70
     1
 71
     0
 91
        1
 92
        1
 93
        1
 72
     4
 94
        3
 73
     0
 74
     1
 95
       50
 96
       46
 40
0.0
 40
0.0
 40
0.0
 40
0.0
 40
1.0
 40
1.0
 40
1.0
 40
2.0
 40
2.0
 40
2.0
 40
3.0
 40
3.0
 40
3.0
 40
4.0
 40
4.0
 40
4.0
 40
5.0
 40
5.0
 40
5.0
 40
6.0
 40
6.0
 40
6.0
 40
7.0
 40
7.0
 40
7.0
 40
8.0
 40
8.0
 40
8.0
 40
9.0
 40
9.0
 40
9.0
 40
10.0
 40
10.0
 40
10.0
 40
11.0
 40
11.0
 40
11.0
 40
12.0
 40
12.0
 40
12.0
 40
13.0
 40
13.0
 40
13.0
 40
14.0
 40
14.0
 40
14.0
 40
15.0
 40
15.0
 40
15.0
 40
15.0
 10
119.8121527478247
 20
-160.5049316004988
 10
119.7508300481873
 20
-160.576589586592
 10
119.4903808295024
 20
-160.8938828807835
 10
119.4335367539958
 20
-160.9576171472606
 10
119.5179415933844
 20
-161.0547688399446
 10
119.5689290065661
 20
-161.1181585968733
 10
119.6343858207859
 20
-161.2091091176839
 10
119.6343858207859
 20
-161.2091091176839
 10
119.4504177218735
 20
-161.3469129370938
 10
119.4504177218735
 20
-161.3469129370938
 10
119.3150254693032
 20
-161.135039564751
 10
119.1434597141377
 20
-160.9111083582097
 10
118.8495930692459
 20
-160.7119818391623
 10
118.8495930692459
 20
-160.7119818391623
 10
118.9977321751117
 20
-160.5576415614231
 10
118.9977321751117
 20
-160.5576415614231
 10
119.1076307210912
 20
-160.6379122862294
 10
119.2113280951972
 20
-160.7267957497489
 10
119.3084797878812
 20
-160.8222248946903
 10
119.3763481689406
 20
-160.7460882844663
 10
119.5792642930219
 20
-160.5025200336591
 10
119.712589488301
 20
-160.274110202987
 10
119.712589488301
 20
-160.274110202987
 10
119.0397623400317
 20
-160.274110202987
 10
119.0397623400317
 20
-160.274110202987
 10
118.9150498834657
 20
-160.274110202987
 10
118.6632134034939
 20
-160.2827229417002
 10
118.4537515979907
 20
-160.2930582281559
 10
118.4537515979907
 20
-160.2930582281559
 10
118.4537515979907
 20
-160.073261136197
 10
118.4537515979907
 20
-160.073261136197
 10
118.6380642064516
 20
-160.0922091613658
 10
118.843047387824
 20
-160.0963432759482
 10
119.0314941108671
 20
-160.0963432759482
 10
119.0314941108671
 20
-160.0963432759482
 10
119.5348225612621
 20
-160.0963432759482
 10
119.5348225612621
 20
-160.0963432759482
 10
119.8734754474622
 20
-160.0963432759482
 10
119.9179171792219
 20
-160.0815293653616
 10
120.0002549613194
 20
-160.0415662577327
 10
120.0002549613194
 20
-160.0415662577327
 10
120.167342092354
 20
-160.2000406500542
 10
120.167342092354
 20
-160.2000406500542
 10
120.015068871906
 20
-160.2720431456959
 10
119.871408390171
 20
-160.4349961621482
 10
119.8121527478247
 20
-160.5049316004988
 97
        0
 97
        0
 75
     2
 76
     1
 98
        0
  0
SPLINE
  5
F4
330
B8
100
AcDbEntity
  8
_U+30EC_U+30A4_U+30E4_U+30FC 1
370
     0
100
AcDbSpline
210
0.0
220
0.0
230
1.0
 70
    11
 71
     3
 72
    29
 73
    25
 74
     0
 42
0.0000000001
 43
0.0000000001
 12
1.0
 22
0.0
 32
0.0
 13
1.0
 23
0.0
 33
0.0
 40
0.0
 40
0.0
 40
0.0
 40
0.0
 40
1.0
 40
1.0
 40
1.0
 40
2.0
 40
2.0
 40
2.0
 40
3.0
 40
3.0
 40
3.0
 40
4.0
 40
4.0
 40
4.0
 40
5.0
 40
5.0
 40
5.0
 40
6.0
 40
6.0
 40
6.0
 40
7.0
 40
7.0
 40
7.0
 40
8.0
 40
8.0
 40
8.0
 40
8.0
 10
121.4354817404745
 20
-160.7481553417574
 30
0.0
 10
121.4354817404745
 20
-160.7481553417574
 30
0.0
 10
120.9511013152483
 20
-160.7481553417574
 30
0.0
 10
120.9511013152483
 20
-160.7481553417574
 30
0.0
 10
120.9235405513663
 20
-160.7481553417574
 30
0.0
 10
120.6062472571748
 20
-160.7481553417574
 30
0.0
 10
120.3947183943805
 20
-160.7733045387997
 30
0.0
 10
120.3947183943805
 20
-160.7733045387997
 30
0.0
 10
120.3947183943805
 20
-160.5428276508365
 30
0.0
 10
120.3947183943805
 20
-160.5428276508365
 30
0.0
 10
120.553192786702
 20
-160.5662543001362
 30
0.0
 10
120.7437065670363
 20
-160.5683213574274
 30
0.0
 10
120.9511013152483
 20
-160.5683213574274
 30
0.0
 10
120.9511013152483
 20
-160.5683213574274
 30
0.0
 10
121.4354817404745
 20
-160.5683213574274
 30
0.0
 10
121.4354817404745
 20
-160.5683213574274
 30
0.0
 10
121.621516896678
 20
-160.5683213574274
 30
0.0
 10
121.80789656243
 20
-160.5662543001362
 30
0.0
 10
121.9918646613423
 20
-160.5428276508365
 30
0.0
 10
121.9918646613423
 20
-160.5428276508365
 30
0.0
 10
121.9918646613423
 20
-160.7733045387997
 30
0.0
 10
121.9918646613423
 20
-160.7733045387997
 30
0.0
 10
121.80789656243
 20
-160.7502223990486
 30
0.0
 10
121.5601941970405
 20
-160.7481553417574
 30
0.0
 10
121.4354817404745
 20
-160.7481553417574
 30
0.0
  0
HATCH
  5
F5
330
B8
100
AcDbEntity
  8
_U+30EC_U+30A4_U+30E4_U+30FC 1
 62
   179
420
  2234388
100
AcDbHatch
 10
0.0
 20
0.0
 30
0.0
210
0.0
220
0.0
230
1.0
  2
SOLID
 70
     1
 71
     0
 91
        1
 92
        1
 93
        1
 72
     4
 94
        3
 73
     0
 74
     1
 95
       29
 96
       25
 40
0.0
 40
0.0
 40
0.0
 40
0.0
 40
1.0
 40
1.0
 40
1.0
 40
2.0
 40
2.0
 40
2.0
 40
3.0
 40
3.0
 40
3.0
 40
4.0
 40
4.0
 40
4.0
 40
5.0
 40
5.0
 40
5.0
 40
6.0
 40
6.0
 40
6.0
 40
7.0
 40
7.0
 40
7.0
 40
8.0
 40
8.0
 40
8.0
 40
8.0
 10
121.4354817404745
 20
-160.7481553417574
 10
121.4354817404745
 20
-160.7481553417574
 10
120.9511013152483
 20
-160.7481553417574
 10
120.9511013152483
 20
-160.7481553417574
 10
120.9235405513663
 20
-160.7481553417574
 10
120.6062472571748
 20
-160.7481553417574
 10
120.3947183943805
 20
-160.7733045387997
 10
120.3947183943805
 20
-160.7733045387997
 10
120.3947183943805
 20
-160.5428276508365
 10
120.3947183943805
 20
-160.5428276508365
 10
120.553192786702
 20
-160.5662543001362
 10
120.7437065670363
 20
-160.5683213574274
 10
120.9511013152483
 20
-160.5683213574274
 10
120.9511013152483
 20
-160.5683213574274
 10
121.4354817404745
 20
-160.5683213574274
 10
121.4354817404745
 20
-160.5683213574274
 10
121.621516896678
 20
-160.5683213574274
 10
121.80789656243
 20
-160.5662543001362
 10
121.9918646613423
 20
-160.5428276508365
 10
121.9918646613423
 20
-160.5428276508365
 10
121.9918646613423
 20
-160.7733045387997
 10
121.9918646613423
 20
-160.7733045387997
 10
121.80789656243
 20
-160.7502223990486
 10
121.5601941970405
 20
-160.7481553417574
 10
121.4354817404745
 20
-160.7481553417574
 97
        0
 97
        0
 75
     2
 76
     1
 98
        0
  0
ENDBLK
  5
BB
330
B8
100
AcDbEntity
  8
0
100
AcDbBlockEnd
  0
ENDSEC
  0
SECTION
  2
ENTITIES
  0
POLYLINE
  5
41
330
1F
100
AcDbEntity
  8
_U+30EC_U+30A4_U+30E4_U+30FC 1
 62
   179
420
  2234388
370
    25
100
AcDb2dPolyline
 66
     1
 10
0.0
 20
0.0
 30
0.0
  0
VERTEX
  5
42
330
41
100
AcDbEntity
  8
_U+30EC_U+30A4_U+30E4_U+30FC 1
 62
   179
420
  2234388
370
    25
100
AcDbVertex
100
AcDb2dVertex
 10
89.3383237827327
 20
-165.2968225701667
 30
0.0
  0
VERTEX
  5
43
330
41
100
AcDbEntity
  8
_U+30EC_U+30A4_U+30E4_U+30FC 1
 62
   179
420
  2234388
370
    25
100
AcDbVertex
100
AcDb2dVertex
 10
128.3386133508906
 20
-165.2968225701667
 30
0.0
  0
SEQEND
  5
44
330
41
100
AcDbEntity
  8
_U+30EC_U+30A4_U+30E4_U+30FC 1
 62
   179
420
  2234388
370
    25
  0
POLYLINE
  5
45
330
1F
100
AcDbEntity
  8
_U+30EC_U+30A4_U+30E4_U+30FC 1
 62
   179
420
  2234388
370
    25
100
AcDb2dPolyline
 66
     1
 10
0.0
 20
0.0
 30
0.0
  0
VERTEX
  5
46
330
45
100
AcDbEntity
  8
_U+30EC_U+30A4_U+30E4_U+30FC 1
 62
   179
420
  2234388
370
    25
100
AcDbVertex
100
AcDb2dVertex
 10
128.3385056916567
 20
-165.2968225701667
 30
0.0
  0
VERTEX
  5
47
330
45
100
AcDbEntity
  8
_U+30EC_U+30A4_U+30E4_U+30FC 1
 62
   179
420
  2234388
370
    25
100
AcDbVertex
100
AcDb2dVertex
 10
128.3385056916567
 20
-165.6968842833913
 30
0.0
  0
SEQEND
  5
48
330
45
100
AcDbEntity
  8
_U+30EC_U+30A4_U+30E4_U+30FC 1
 62
   179
420
  2234388
370
    25
  0
POLYLINE
  5
49
330
1F
100
AcDbEntity
  8
_U+30EC_U+30A4_U+30E4_U+30FC 1
 62
   179
420
  2234388
370
    25
100
AcDb2dPolyline
 66
     1
 10
0.0
 20
0.0
 30
0.0
  0
VERTEX
  5
4A
330
49
100
AcDbEntity
  8
_U+30EC_U+30A4_U+30E4_U+30FC 1
 62
   179
420
  2234388
370
    25
100
AcDbVertex
100
AcDb2dVertex
 10
128.3385056916567
 20
-165.6967981560042
 30
0.0
  0
VERTEX
  5
4B
330
49
100
AcDbEntity
  8
_U+30EC_U+30A4_U+30E4_U+30FC 1
 62
   179
420
  2234388
370
    25
100
AcDbVertex
100
AcDb2dVertex
 10
89.15088905648832
 20
-166.2965246844458
 30
0.0
  0
SEQEND
  5
4C
330
49
100
AcDbEntity
  8
_U+30EC_U+30A4_U+30E4_U+30FC 1
 62
   179
420
  2234388
370
    25
  0
POLYLINE
  5
4D
330
1F
100
AcDbEntity
  8
_U+30EC_U+30A4_U+30E4_U+30FC 1
 62
   179
420
  2234388
370
    25
100
AcDb2dPolyline
 66
     1
 10
0.0
 20
0.0
 30
0.0
  0
VERTEX
  5
4E
330
4D
100
AcDbEntity
  8
_U+30EC_U+30A4_U+30E4_U+30FC 1
 62
   179
420
  2234388
370
    25
100
AcDbVertex
100
AcDb2dVertex
 10
90.40837044045129
 20
-126.2968129160173
 30
0.0
  0
VERTEX
  5
4F
330
4D
100
AcDbEntity
  8
_U+30EC_U+30A4_U+30E4_U+30FC 1
 62
   179
420
  2234388
370
    25
100
AcDbVertex
100
AcDb2dVertex
 10
90.80876589730107
 20
-126.2968129160173
 30
0.0
  0
SEQEND
  5
50
330
4D
100
AcDbEntity
  8
_U+30EC_U+30A4_U+30E4_U+30FC 1
 62
   179
420
  2234388
370
    25
  0
POLYLINE
  5
51
330
1F
100
AcDbEntity
  8
_U+30EC_U+30A4_U+30E4_U+30FC 1
 62
   179
420
  2234388
370
    25
100
AcDb2dPolyline
 66
     1
 10
0.0
 20
0.0
 30
0.0
  0
VERTEX
  5
52
330
51
100
AcDbEntity
  8
_U+30EC_U+30A4_U+30E4_U+30FC 1
 62
   179
420
  2234388
370
    25
100
AcDbVertex
100
AcDb2dVertex
 10
89.3383237827327
 20
-165.2968225701667
 30
0.0
  0
VERTEX
  5
53
330
51
100
AcDbEntity
  8
_U+30EC_U+30A4_U+30E4_U+30FC 1
 62
   179
420
  2234388
370
    25
100
AcDbVertex
100
AcDb2dVertex
 10
90.80870130176072
 20
-126.2968990434044
 30
0.0
  0
SEQEND
  5
54
330
51
100
AcDbEntity
  8
_U+30EC_U+30A4_U+30E4_U+30FC 1
 62
   179
420
  2234388
370
    25
  0
POLYLINE
  5
55
330
1F
100
AcDbEntity
  8
_U+30EC_U+30A4_U+30E4_U+30FC 1
 62
   179
420
  2234388
370
    25
100
AcDb2dPolyline
 66
     1
 10
0.0
 20
0.0
 30
0.0
  0
VERTEX
  5
56
330
55
100
AcDbEntity
  8
_U+30EC_U+30A4_U+30E4_U+30FC 1
 62
   179
420
  2234388
370
    25
100
AcDbVertex
100
AcDb2dVertex
 10
90.40837044045129
 20
-126.2968129160173
 30
0.0
  0
VERTEX
  5
57
330
55
100
AcDbEntity
  8
_U+30EC_U+30A4_U+30E4_U+30FC 1
 62
   179
420
  2234388
370
    25
100
AcDbVertex
100
AcDb2dVertex
 10
88.3396767289459
 20
-165.4548017300122
 30
0.0
  0
SEQEND
  5
58
330
55
100
AcDbEntity
  8
_U+30EC_U+30A4_U+30E4_U+30FC 1
 62
   179
420
  2234388
370
    25
  0
SPLINE
  5
59
330
1F
100
AcDbEntity
  8
_U+30EC_U+30A4_U+30E4_U+30FC 1
 62
   179
420
  2234388
370
    25
100
AcDbSpline
210
0.0
220
0.0
230
1.0
 70
     8
 71
     3
 72
    11
 73
     7
 74
     0
 42
0.0000000001
 43
0.0000000001
 12
1.0
 22
0.0
 32
0.0
 13
1.0
 23
0.0
 33
0.0
 40
0.0
 40
0.0
 40
0.0
 40
0.0
 40
1.0
 40
1.0
 40
1.0
 40
2.0
 40
2.0
 40
2.0
 40
2.0
 10
88.33957983563538
 20
-165.4546294752379
 30
0.0
 10
88.31664841881168
 20
-165.8959677387452
 30
0.0
 10
88.65531207093514
 20
-166.2723874842023
 30
0.0
 10
89.09663956851902
 20
-166.2956634105745
 30
0.0
 10
89.11427415103415
 20
-166.2967184710669
 30
0.0
 10
89.1326192844931
 20
-166.2970629806154
 30
0.0
 10
89.15096441795207
 20
-166.2967184710669
 30
0.0
  0
SPLINE
  5
5A
330
1F
100
AcDbEntity
  8
_U+30EC_U+30A4_U+30E4_U+30FC 1
 62
   179
420
  2234388
370
     9
100
AcDbSpline
210
0.0
220
0.0
230
1.0
 70
    11
 71
     3
 72
    17
 73
    13
 74
     0
 42
0.0000000001
 43
0.0000000001
 12
1.0
 22
0.0
 32
0.0
 13
1.0
 23
0.0
 33
0.0
 40
0.0
 40
0.0
 40
0.0
 40
0.0
 40
1.0
 40
1.0
 40
1.0
 40
2.0
 40
2.0
 40
2.0
 40
3.0
 40
3.0
 40
3.0
 40
4.0
 40
4.0
 40
4.0
 40
4.0
 10
128.438413460729
 20
-170.2967111797566
 30
0.0
 10
128.438413460729
 20
-170.2416973112265
 30
0.0
 10
128.3936056875739
 20
-170.1968895380714
 30
0.0
 10
128.3385702871971
 20
-170.1968895380714
 30
0.0
 10
128.2835348868202
 20
-170.1968895380714
 30
0.0
 10
128.2387271136652
 20
-170.2416973112265
 30
0.0
 10
128.2387271136652
 20
-170.2967111797566
 30
0.0
 10
128.2387271136652
 20
-170.3521126215287
 30
0.0
 10
128.2835348868202
 20
-170.3969203946838
 30
0.0
 10
128.3385702871971
 20
-170.3969203946838
 30
0.0
 10
128.3936056875739
 20
-170.3969203946838
 30
0.0
 10
128.438413460729
 20
-170.3521126215287
 30
0.0
 10
128.438413460729
 20
-170.2967111797566
 30
0.0
  0
SPLINE
  5
5B
330
1F
100
AcDbEntity
  8
_U+30EC_U+30A4_U+30E4_U+30FC 1
 62
   179
420
  2234388
370
     9
100
AcDbSpline
210
0.0
220
0.0
230
1.0
 70
    11
 71
     3
 72
    17
 73
    13
 74
     0
 42
0.0000000001
 43
0.0000000001
 12
1.0
 22
0.0
 32
0.0
 13
1.0
 23
0.0
 33
0.0
 40
0.0
 40
0.0
 40
0.0
 40
0.0
 40
1.0
 40
1.0
 40
1.0
 40
2.0
 40
2.0
 40
2.0
 40
3.0
 40
3.0
 40
3.0
 40
4.0
 40
4.0
 40
4.0
 40
4.0
 10
84.43869821768699
 20
-166.2969553213815
 30
0.0
 10
84.43869821768699
 20
-166.2415754114561
 30
0.0
 10
84.39389044453196
 20
-166.1967676383011
 30
0.0
 10
84.33849976868318
 20
-166.1967676383011
 30
0.0
 10
84.2834751342297
 20
-166.1967676383011
 30
0.0
 10
84.23866736107468
 20
-166.2415754114561
 30
0.0
 10
84.23866736107468
 20
-166.2969553213815
 30
0.0
 10
84.23866736107468
 20
-166.3519907217584
 30
0.0
 10
84.2834751342297
 20
-166.3967984949134
 30
0.0
 10
84.33849976868318
 20
-166.3967984949134
 30
0.0
 10
84.39389044453196
 20
-166.3967984949134
 30
0.0
 10
84.43869821768699
 20
-166.3519907217584
 30
0.0
 10
84.43869821768699
 20
-166.2969553213815
 30
0.0
  0
SPLINE
  5
5C
330
1F
100
AcDbEntity
  8
_U+30EC_U+30A4_U+30E4_U+30FC 1
 62
   179
420
  2234388
370
     9
100
AcDbSpline
210
0.0
220
0.0
230
1.0
 70
    11
 71
     3
 72
    17
 73
    13
 74
     0
 42
0.0000000001
 43
0.0000000001
 12
1.0
 22
0.0
 32
0.0
 13
1.0
 23
0.0
 33
0.0
 40
0.0
 40
0.0
 40
0.0
 40
0.0
 40
1.0
 40
1.0
 40
1.0
 40
2.0
 40
2.0
 40
2.0
 40
3.0
 40
3.0
 40
3.0
 40
4.0
 40
4.0
 40
4.0
 40
4.0
 10
88.43846484198544
 20
-170.2967111797566
 30
0.0
 10
88.43846484198544
 20
-170.2416973112265
 30
0.0
 10
88.39365706883041
 20
-170.1968895380714
 30
0.0
 10
88.33862166845354
 20
-170.1968895380714
 30
0.0
 10
88.28358626807668
 20
-170.1968895380714
 30
0.0
 10
88.23878926084504
 20
-170.2416973112265
 30
0.0
 10
88.23878926084504
 20
-170.2967111797566
 30
0.0
 10
88.23878926084504
 20
-170.3521126215287
 30
0.0
 10
88.28358626807668
 20
-170.3969203946838
 30
0.0
 10
88.33862166845354
 20
-170.3969203946838
 30
0.0
 10
88.39365706883041
 20
-170.3969203946838
 30
0.0
 10
88.43846484198544
 20
-170.3521126215287
 30
0.0
 10
88.43846484198544
 20
-170.2967111797566
 30
0.0
  0
SPLINE
  5
5D
330
1F
100
AcDbEntity
  8
_U+30EC_U+30A4_U+30E4_U+30FC 1
 62
   179
420
  2234388
370
     9
100
AcDbSpline
210
0.0
220
0.0
230
1.0
 70
    11
 71
     3
 72
    17
 73
    13
 74
     0
 42
0.0000000001
 43
0.0000000001
 12
1.0
 22
0.0
 32
0.0
 13
1.0
 23
0.0
 33
0.0
 40
0.0
 40
0.0
 40
0.0
 40
0.0
 40
1.0
 40
1.0
 40
1.0
 40
2.0
 40
2.0
 40
2.0
 40
3.0
 40
3.0
 40
3.0
 40
4.0
 40
4.0
 40
4.0
 40
4.0
 10
84.43869821768699
 20
-126.2968129160173
 30
0.0
 10
84.43869821768699
 20
-126.2417990474869
 30
0.0
 10
84.39389044453196
 20
-126.1969912743321
 30
0.0
 10
84.33849976868318
 20
-126.1969912743321
 30
0.0
 10
84.2834751342297
 20
-126.1969912743321
 30
0.0
 10
84.23866736107468
 20
-126.2417990474869
 30
0.0
 10
84.23866736107468
 20
-126.2968129160173
 30
0.0
 10
84.23866736107468
 20
-126.3522143577891
 30
0.0
 10
84.2834751342297
 20
-126.3970221309442
 30
0.0
 10
84.33849976868318
 20
-126.3970221309442
 30
0.0
 10
84.39389044453196
 20
-126.3970221309442
 30
0.0
 10
84.43869821768699
 20
-126.3522143577891
 30
0.0
 10
84.43869821768699
 20
-126.2968129160173
 30
0.0
  0
POLYLINE
  5
5E
330
1F
100
AcDbEntity
  8
_U+30EC_U+30A4_U+30E4_U+30FC 1
 62
   179
420
  2234388
370
     9
100
AcDb2dPolyline
 66
     1
 10
0.0
 20
0.0
 30
0.0
  0
VERTEX
  5
5F
330
5E
100
AcDbEntity
  8
_U+30EC_U+30A4_U+30E4_U+30FC 1
 62
   179
420
  2234388
370
     9
100
AcDbVertex
100
AcDb2dVertex
 10
88.33855707291319
 20
-170.2967111797566
 30
0.0
  0
VERTEX
  5
60
330
5E
100
AcDbEntity
  8
_U+30EC_U+30A4_U+30E4_U+30FC 1
 62
   179
420
  2234388
370
     9
100
AcDbVertex
100
AcDb2dVertex
 10
128.3386133508906
 20
-170.2967111797566
 30
0.0
  0
SEQEND
  5
61
330
5E
100
AcDbEntity
  8
_U+30EC_U+30A4_U+30E4_U+30FC 1
 62
   179
420
  2234388
370
     9
  0
POLYLINE
  5
62
330
1F
100
AcDbEntity
  8
_U+30EC_U+30A4_U+30E4_U+30FC 1
 62
   179
420
  2234388
370
     9
100
AcDb2dPolyline
 66
     1
 10
0.0
 20
0.0
 30
0.0
  0
VERTEX
  5
63
330
62
100
AcDbEntity
  8
_U+30EC_U+30A4_U+30E4_U+30FC 1
 62
   179
420
  2234388
370
     9
100
AcDbVertex
100
AcDb2dVertex
 10
88.33855707291319
 20
-168.0367070095859
 30
0.0
  0
VERTEX
  5
64
330
62
100
AcDbEntity
  8
_U+30EC_U+30A4_U+30E4_U+30FC 1
 62
   179
420
  2234388
370
     9
100
AcDbVertex
100
AcDb2dVertex
 10
88.33855707291319
 20
-171.2967362717374
 30
0.0
  0
SEQEND
  5
65
330
62
100
AcDbEntity
  8
_U+30EC_U+30A4_U+30E4_U+30FC 1
 62
   179
420
  2234388
370
     9
  0
POLYLINE
  5
66
330
1F
100
AcDbEntity
  8
_U+30EC_U+30A4_U+30E4_U+30FC 1
 62
   179
420
  2234388
370
     9
100
AcDb2dPolyline
 66
     1
 10
0.0
 20
0.0
 30
0.0
  0
VERTEX
  5
67
330
66
100
AcDbEntity
  8
_U+30EC_U+30A4_U+30E4_U+30FC 1
 62
   179
420
  2234388
370
     9
100
AcDbVertex
100
AcDb2dVertex
 10
128.3385056916567
 20
-168.2368670572789
 30
0.0
  0
VERTEX
  5
68
330
66
100
AcDbEntity
  8
_U+30EC_U+30A4_U+30E4_U+30FC 1
 62
   179
420
  2234388
370
     9
100
AcDbVertex
100
AcDb2dVertex
 10
128.3385056916567
 20
-171.2968654628181
 30
0.0
  0
SEQEND
  5
69
330
66
100
AcDbEntity
  8
_U+30EC_U+30A4_U+30E4_U+30FC 1
 62
   179
420
  2234388
370
     9
  0
INSERT
  5
6B
330
1F
100
AcDbEntity
  8
_U+30EC_U+30A4_U+30E4_U+30FC 1
100
AcDbBlockReference
  2
block 2
 10
0.0
 20
0.0
 30
0.0
  0
POLYLINE
  5
86
330
1F
100
AcDbEntity
  8
_U+30EC_U+30A4_U+30E4_U+30FC 1
 62
   179
420
  2234388
370
     9
100
AcDb2dPolyline
 66
     1
 10
0.0
 20
0.0
 30
0.0
  0
VERTEX
  5
87
330
86
100
AcDbEntity
  8
_U+30EC_U+30A4_U+30E4_U+30FC 1
 62
   179
420
  2234388
370
     9
100
AcDbVertex
100
AcDb2dVertex
 10
84.33844593906622
 20
-166.2969553213815
 30
0.0
  0
VERTEX
  5
88
330
86
100
AcDbEntity
  8
_U+30EC_U+30A4_U+30E4_U+30FC 1
 62
   179
420
  2234388
370
     9
100
AcDbVertex
100
AcDb2dVertex
 10
84.33844593906622
 20
-126.2968990434044
 30
0.0
  0
SEQEND
  5
89
330
86
100
AcDbEntity
  8
_U+30EC_U+30A4_U+30E4_U+30FC 1
 62
   179
420
  2234388
370
     9
  0
POLYLINE
  5
8A
330
1F
100
AcDbEntity
  8
_U+30EC_U+30A4_U+30E4_U+30FC 1
 62
   179
420
  2234388
370
     9
100
AcDb2dPolyline
 66
     1
 10
0.0
 20
0.0
 30
0.0
  0
VERTEX
  5
8B
330
8A
100
AcDbEntity
  8
_U+30EC_U+30A4_U+30E4_U+30FC 1
 62
   179
420
  2234388
370
     9
100
AcDbVertex
100
AcDb2dVertex
 10
86.59876232101524
 20
-166.2969553213815
 30
0.0
  0
VERTEX
  5
8C
330
8A
100
AcDbEntity
  8
_U+30EC_U+30A4_U+30E4_U+30FC 1
 62
   179
420
  2234388
370
     9
100
AcDbVertex
100
AcDb2dVertex
 10
83.33838854931514
 20
-166.2969553213815
 30
0.0
  0
SEQEND
  5
8D
330
8A
100
AcDbEntity
  8
_U+30EC_U+30A4_U+30E4_U+30FC 1
 62
   179
420
  2234388
370
     9
  0
POLYLINE
  5
8E
330
1F
100
AcDbEntity
  8
_U+30EC_U+30A4_U+30E4_U+30FC 1
 62
   179
420
  2234388
370
     9
100
AcDb2dPolyline
 66
     1
 10
0.0
 20
0.0
 30
0.0
  0
VERTEX
  5
8F
330
8E
100
AcDbEntity
  8
_U+30EC_U+30A4_U+30E4_U+30FC 1
 62
   179
420
  2234388
370
     9
100
AcDbVertex
100
AcDb2dVertex
 10
87.8686568146485
 20
-126.2968129160173
 30
0.0
  0
VERTEX
  5
90
330
8E
100
AcDbEntity
  8
_U+30EC_U+30A4_U+30E4_U+30FC 1
 62
   179
420
  2234388
370
     9
100
AcDbVertex
100
AcDb2dVertex
 10
83.33828089008155
 20
-126.2968129160173
 30
0.0
  0
SEQEND
  5
91
330
8E
100
AcDbEntity
  8
_U+30EC_U+30A4_U+30E4_U+30FC 1
 62
   179
420
  2234388
370
     9
  0
INSERT
  5
93
330
1F
100
AcDbEntity
  8
_U+30EC_U+30A4_U+30E4_U+30FC 1
100
AcDbBlockReference
  2
block 3
 10
0.0
 20
0.0
 30
0.0
  0
POLYLINE
  5
AE
330
1F
100
AcDbEntity
  8
_U+30EC_U+30A4_U+30E4_U+30FC 1
  6
AI-Linetype-1
 62
   154
420
    23468
370
    25
100
AcDb2dPolyline
 66
     1
 10
0.0
 20
0.0
 30
0.0
  0
VERTEX
  5
AF
330
AE
100
AcDbEntity
  8
_U+30EC_U+30A4_U+30E4_U+30FC 1
  6
AI-Linetype-1
 62
   154
420
    23468
370
    25
100
AcDbVertex
100
AcDb2dVertex
 10
89.90848708554155
 20
-126.2968129160173
 30
0.0
  0
VERTEX
  5
B0
330
AE
100
AcDbEntity
  8
_U+30EC_U+30A4_U+30E4_U+30FC 1
  6
AI-Linetype-1
 62
   154
420
    23468
370
    25
100
AcDbVertex
100
AcDb2dVertex
 10
87.61401042867159
 20
-166.9661005238509
 30
0.0
  0
VERTEX
  5
B1
330
AE
100
AcDbEntity
  8
_U+30EC_U+30A4_U+30E4_U+30FC 1
  6
AI-Linetype-1
 62
   154
420
    23468
370
    25
100
AcDbVertex
100
AcDb2dVertex
 10
128.3386779464309
 20
-166.1970475523092
 30
0.0
  0
SEQEND
  5
B3
330
AE
100
AcDbEntity
  8
_U+30EC_U+30A4_U+30E4_U+30FC 1
  6
AI-Linetype-1
 62
   154
420
    23468
370
    25
  0
POLYLINE
  5
B4
330
1F
100
AcDbEntity
  8
_U+30EC_U+30A4_U+30E4_U+30FC 1
 62
   179
420
  2234388
370
     9
100
AcDb2dPolyline
 66
     1
 10
0.0
 20
0.0
 30
0.0
  0
VERTEX
  5
B5
330
B4
100
AcDbEntity
  8
_U+30EC_U+30A4_U+30E4_U+30FC 1
 62
   179
420
  2234388
370
     9
100
AcDbVertex
100
AcDb2dVertex
 10
113.7492153307207
 20
-166.3660294858608
 30
0.0
  0
VERTEX
  5
B6
330
B4
100
AcDbEntity
  8
_U+30EC_U+30A4_U+30E4_U+30FC 1
 62
   179
420
  2234388
370
     9
100
AcDbVertex
100
AcDb2dVertex
 10
110.486020887092
 20
-162.1326961535858
 30
0.0
  0
SEQEND
  5
B7
330
B4
100
AcDbEntity
  8
_U+30EC_U+30A4_U+30E4_U+30FC 1
 62
   179
420
  2234388
370
     9
  0
INSERT
  5
B9
330
1F
100
AcDbEntity
  8
_U+30EC_U+30A4_U+30E4_U+30FC 1
100
AcDbBlockReference
  2
block 4
 10
0.0
 20
0.0
 30
0.0
  0
ENDSEC
  0
SECTION
  2
OBJECTS
  0
DICTIONARY
  5
C
330
0
100
AcDbDictionary
281
     1
  3
ACAD_GROUP
350
D
  3
ACAD_LAYOUT
350
1A
  3
ACAD_MATERIAL
350
3B
  3
ACAD_MLEADERSTYLE
350
F7
  3
ACAD_MLINESTYLE
350
17
  3
ACAD_PLOTSETTINGS
350
19
  3
ACAD_PLOTSTYLENAME
350
E
  3
ACAD_TABLESTYLE
350
F6
  3
ACAD_VISUALSTYLE
350
2A
  0
SUN
  5
3F
330
29
100
AcDbSun
 90
        1
290
     0
 63
     7
421
 16777215
 40
1.0
291
     1
 91
  2455826
 92
 54000000
292
     0
 70
     2
 71
   256
280
     1
  0
DICTIONARY
  5
D
102
{ACAD_REACTORS
330
C
102
}
330
C
100
AcDbDictionary
281
     1
  0
DICTIONARY
  5
1A
102
{ACAD_REACTORS
330
C
102
}
330
C
100
AcDbDictionary
281
     1
  3
Layout1
350
1E
  3
Layout2
350
26
  3
Model
350
22
  0
DICTIONARY
  5
3B
102
{ACAD_REACTORS
330
C
102
}
330
C
100
AcDbDictionary
281
     1
  3
ByBlock
350
3D
  3
ByLayer
350
3C
  3
Global
350
3E
  0
DICTIONARY
  5
F7
102
{ACAD_REACTORS
330
C
102
}
330
C
100
AcDbDictionary
281
     1
  0
DICTIONARY
  5
17
102
{ACAD_REACTORS
330
C
102
}
330
C
100
AcDbDictionary
281
     1
  3
Standard
350
18
  0
DICTIONARY
  5
19
102
{ACAD_REACTORS
330
C
102
}
330
C
100
AcDbDictionary
281
     1
  0
ACDBDICTIONARYWDFLT
  5
E
102
{ACAD_REACTORS
330
C
102
}
330
C
100
AcDbDictionary
281
     1
  3
Normal
350
F
100
AcDbDictionaryWithDefault
340
F
  0
DICTIONARY
  5
F6
102
{ACAD_REACTORS
330
C
102
}
330
C
100
AcDbDictionary
281
     1
  0
DICTIONARY
  5
2A
102
{ACAD_REACTORS
330
C
102
}
330
C
100
AcDbDictionary
281
     1
  3
2dWireframe
350
2F
  3
3D Hidden
350
31
  3
3dWireframe
350
30
  3
Basic
350
32
  3
Brighten
350
36
  3
ColorChange
350
3A
  3
Conceptual
350
34
  3
Dim
350
35
  3
Facepattern
350
39
  3
Flat
350
2B
  3
FlatWithEdges
350
2C
  3
Gouraud
350
2D
  3
GouraudWithEdges
350
2E
  3
Linepattern
350
38
  3
Realistic
350
33
  3
Thicken
350
37
  0
LAYOUT
  5
1E
102
{ACAD_REACTORS
330
1A
102
}
330
1A
100
AcDbPlotSettings
  1

  2
none_device
  4

  6

 40
0.0
 41
0.0
 42
0.0
 43
0.0
 44
0.0
 45
0.0
 46
0.0
 47
0.0
 48
0.0
 49
0.0
140
0.0
141
0.0
142
1.0
143
1.0
 70
   688
 72
     0
 73
     0
 74
     5
  7

 75
    16
 76
     0
 77
     2
 78
   300
147
1.0
148
0.0
149
0.0
100
AcDbLayout
  1
Layout1
 70
     1
 71
     1
 10
0.0
 20
0.0
 11
12.0
 21
9.0
 12
0.0
 22
0.0
 32
0.0
 14
1.000000000000000E+20
 24
1.000000000000000E+20
 34
1.000000000000000E+20
 15
-1.000000000000000E+20
 25
-1.000000000000000E+20
 35
-1.000000000000000E+20
146
0.0
 13
0.0
 23
0.0
 33
0.0
 16
1.0
 26
0.0
 36
0.0
 17
0.0
 27
1.0
 37
0.0
 76
     0
330
1B
  0
LAYOUT
  5
26
102
{ACAD_REACTORS
330
1A
102
}
330
1A
100
AcDbPlotSettings
  1

  2
none_device
  4

  6

 40
0.0
 41
0.0
 42
0.0
 43
0.0
 44
0.0
 45
0.0
 46
0.0
 47
0.0
 48
0.0
 49
0.0
140
0.0
141
0.0
142
1.0
143
1.0
 70
   688
 72
     0
 73
     0
 74
     5
  7

 75
    16
 76
     0
 77
     2
 78
   300
147
1.0
148
0.0
149
0.0
100
AcDbLayout
  1
Layout2
 70
     1
 71
     2
 10
0.0
 20
0.0
 11
0.0
 21
0.0
 12
0.0
 22
0.0
 32
0.0
 14
0.0
 24
0.0
 34
0.0
 15
0.0
 25
0.0
 35
0.0
146
0.0
 13
0.0
 23
0.0
 33
0.0
 16
1.0
 26
0.0
 36
0.0
 17
0.0
 27
1.0
 37
0.0
 76
     0
330
23
  0
LAYOUT
  5
22
102
{ACAD_REACTORS
330
1A
102
}
330
1A
100
AcDbPlotSettings
  1

  2
none_device
  4

  6

 40
0.0
 41
0.0
 42
0.0
 43
0.0
 44
0.0
 45
0.0
 46
0.0
 47
0.0
 48
0.0
 49
0.0
140
0.0
141
0.0
142
1.0
143
1.0
 70
  1712
 72
     0
 73
     0
 74
     0
  7

 75
     0
 76
     0
 77
     2
 78
   300
147
1.0
148
0.0
149
0.0
100
AcDbLayout
  1
Model
 70
     1
 71
     0
 10
0.0
 20
0.0
 11
12.0
 21
9.0
 12
0.0
 22
0.0
 32
0.0
 14
1.000000000000000E+20
 24
1.000000000000000E+20
 34
1.000000000000000E+20
 15
-1.000000000000000E+20
 25
-1.000000000000000E+20
 35
-1.000000000000000E+20
146
0.0
 13
0.0
 23
0.0
 33
0.0
 16
1.0
 26
0.0
 36
0.0
 17
0.0
 27
1.0
 37
0.0
 76
     0
330
1F
331
29
  0
MATERIAL
  5
3D
102
{ACAD_REACTORS
330
3B
102
}
330
3B
100
AcDbMaterial
  1
ByBlock
 72
     1
 94
      127
  0
MATERIAL
  5
3C
102
{ACAD_REACTORS
330
3B
102
}
330
3B
100
AcDbMaterial
  1
ByLayer
 72
     1
 94
      127
  0
MATERIAL
  5
3E
102
{ACAD_REACTORS
330
3B
102
}
330
3B
100
AcDbMaterial
  1
Global
 72
     1
 94
      127
  0
MLINESTYLE
  5
18
102
{ACAD_REACTORS
330
17
102
}
330
17
100
AcDbMlineStyle
  2
Standard
 70
     0
  3

 62
   256
 51
90.0
 52
90.0
 71
     2
 49
0.5
 62
   256
  6
BYLAYER
 49
-0.5
 62
   256
  6
BYLAYER
  0
ACDBPLACEHOLDER
  5
F
102
{ACAD_REACTORS
330
E
102
}
330
E
  0
VISUALSTYLE
  5
2F
102
{ACAD_REACTORS
330
2A
102
}
330
2A
100
AcDbVisualStyle
  2
2dWireframe
 70
     4
177
     2
291
     0
 71
     0
176
     1
 72
     2
176
     1
 73
     0
176
     1
 90
        0
176
     1
 40
-0.6
176
     1
 41
-30.0
176
     1
 62
     5
 63
     7
421
 16777215
176
     1
 74
     1
176
     1
 91
        4
176
     1
 64
     7
176
     1
 65
   257
176
     1
 75
     1
176
     1
175
     1
176
     1
 42
1.0
176
     1
 92
        0
176
     1
 66
   257
176
     1
 43
1.0
176
     1
 76
     1
176
     1
 77
     6
176
     1
 78
     2
176
     1
 67
     7
176
     1
 79
     5
176
     1
170
     0
176
     1
171
     0
176
     1
290
     0
176
     1
 93
        1
176
     1
 44
0.0
176
     1
173
     0
176
     1
  0
VISUALSTYLE
  5
31
102
{ACAD_REACTORS
330
2A
102
}
330
2A
100
AcDbVisualStyle
  2
3D Hidden
 70
     6
177
     2
291
     0
 71
     1
176
     1
 72
     2
176
     1
 73
     2
176
     1
 90
        0
176
     1
 40
-0.6
176
     1
 41
-30.0
176
     1
 62
     5
 63
     7
421
 16777215
176
     1
 74
     2
176
     1
 91
        2
176
     1
 64
     7
176
     1
 65
   257
176
     1
 75
     2
176
     1
175
     1
176
     1
 42
40.0
176
     1
 92
        0
176
     1
 66
   257
176
     1
 43
1.0
176
     1
 76
     1
176
     1
 77
     6
176
     1
 78
     2
176
     1
 67
     7
176
     1
 79
     3
176
     1
170
     0
176
     1
171
     0
176
     1
290
     0
176
     1
 93
        1
176
     1
 44
0.0
176
     1
173
     0
176
     1
  0
VISUALSTYLE
  5
30
102
{ACAD_REACTORS
330
2A
102
}
330
2A
100
AcDbVisualStyle
  2
3dWireframe
 70
     5
177
     2
291
     0
 71
     0
176
     1
 72
     2
176
     1
 73
     0
176
     1
 90
        0
176
     1
 40
-0.6
176
     1
 41
-30.0
176
     1
 62
     5
 63
     7
421
 16777215
176
     1
 74
     1
176
     1
 91
        4
176
     1
 64
     7
176
     1
 65
   257
176
     1
 75
     1
176
     1
175
     1
176
     1
 42
1.0
176
     1
 92
        0
176
     1
 66
   257
176
     1
 43
1.0
176
     1
 76
     1
176
     1
 77
     6
176
     1
 78
     2
176
     1
 67
     7
176
     1
 79
     5
176
     1
170
     0
176
     1
171
     0
176
     1
290
     0
176
     1
 93
        1
176
     1
 44
0.0
176
     1
173
     0
176
     1
  0
VISUALSTYLE
  5
32
102
{ACAD_REACTORS
330
2A
102
}
330
2A
100
AcDbVisualStyle
  2
Basic
 70
     7
177
     2
291
     1
 71
     1
176
     1
 72
     0
176
     1
 73
     1
176
     1
 90
        0
176
     1
 40
-0.6
176
     1
 41
-30.0
176
     1
 62
     5
 63
     7
421
 16777215
176
     1
 74
     0
176
     1
 91
        4
176
     1
 64
     7
176
     1
 65
   257
176
     1
 75
     1
176
     1
175
     1
176
     1
 42
1.0
176
     1
 92
        8
176
     1
 66
     7
176
     1
 43
1.0
176
     1
 76
     1
176
     1
 77
     6
176
     1
 78
     2
176
     1
 67
     7
176
     1
 79
     5
176
     1
170
     0
176
     1
171
     0
176
     1
290
     0
176
     1
 93
        1
176
     1
 44
0.0
176
     1
173
     0
176
     1
  0
VISUALSTYLE
  5
36
102
{ACAD_REACTORS
330
2A
102
}
330
2A
100
AcDbVisualStyle
  2
Brighten
 70
    12
177
     2
291
     1
 71
     2
176
     1
 72
     2
176
     1
 73
     0
176
     1
 90
        0
176
     1
 40
-0.6
176
     1
 41
-30.0
176
     1
 62
     5
 63
     7
421
 16777215
176
     1
 74
     1
176
     1
 91
        4
176
     1
 64
     7
176
     1
 65
   257
176
     1
 75
     1
176
     1
175
     1
176
     1
 42
1.0
176
     1
 92
        8
176
     1
 66
     7
176
     1
 43
1.0
176
     1
 76
     1
176
     1
 77
     6
176
     1
 78
     2
176
     1
 67
     7
176
     1
 79
     5
176
     1
170
     0
176
     1
171
     0
176
     1
290
     0
176
     1
 93
        1
176
     1
 44
50.0
176
     1
173
     0
176
     1
  0
VISUALSTYLE
  5
3A
102
{ACAD_REACTORS
330
2A
102
}
330
2A
100
AcDbVisualStyle
  2
ColorChange
 70
    16
177
     2
291
     1
 71
     2
176
     1
 72
     2
176
     1
 73
     3
176
     1
 90
        0
176
     1
 40
-0.6
176
     1
 41
-30.0
176
     1
 62
     5
 63
     8
421
  8421504
176
     1
 74
     1
176
     1
 91
        4
176
     1
 64
     7
176
     1
 65
   257
176
     1
 75
     1
176
     1
175
     1
176
     1
 42
1.0
176
     1
 92
        8
176
     1
 66
     8
424
  8421504
176
     1
 43
1.0
176
     1
 76
     1
176
     1
 77
     6
176
     1
 78
     2
176
     1
 67
     7
176
     1
 79
     5
176
     1
170
     0
176
     1
171
     0
176
     1
290
     0
176
     1
 93
        1
176
     1
 44
0.0
176
     1
173
     0
176
     1
  0
VISUALSTYLE
  5
34
102
{ACAD_REACTORS
330
2A
102
}
330
2A
100
AcDbVisualStyle
  2
Conceptual
 70
     9
177
     2
291
     0
 71
     3
176
     1
 72
     2
176
     1
 73
     0
176
     1
 90
        0
176
     1
 40
-0.6
176
     1
 41
-30.0
176
     1
 62
     5
 63
     7
421
 16777215
176
     1
 74
     2
176
     1
 91
        2
176
     1
 64
     7
176
     1
 65
   257
176
     1
 75
     1
176
     1
175
     1
176
     1
 42
40.0
176
     1
 92
        8
176
     1
 66
     7
176
     1
 43
1.0
176
     1
 76
     1
176
     1
 77
     6
176
     1
 78
     2
176
     1
 67
     7
176
     1
 79
     3
176
     1
170
     0
176
     1
171
     0
176
     1
290
     0
176
     1
 93
        1
176
     1
 44
0.0
176
     1
173
     0
176
     1
  0
VISUALSTYLE
  5
35
102
{ACAD_REACTORS
330
2A
102
}
330
2A
100
AcDbVisualStyle
  2
Dim
 70
    11
177
     2
291
     1
 71
     2
176
     1
 72
     2
176
     1
 73
     0
176
     1
 90
        0
176
     1
 40
-0.6
176
     1
 41
-30.0
176
     1
 62
     5
 63
     7
421
 16777215
176
     1
 74
     1
176
     1
 91
        4
176
     1
 64
     7
176
     1
 65
   257
176
     1
 75
     1
176
     1
175
     1
176
     1
 42
1.0
176
     1
 92
        8
176
     1
 66
     7
176
     1
 43
1.0
176
     1
 76
     1
176
     1
 77
     6
176
     1
 78
     2
176
     1
 67
     7
176
     1
 79
     5
176
     1
170
     0
176
     1
171
     0
176
     1
290
     0
176
     1
 93
        1
176
     1
 44
-50.0
176
     1
173
     0
176
     1
  0
VISUALSTYLE
  5
39
102
{ACAD_REACTORS
330
2A
102
}
330
2A
100
AcDbVisualStyle
  2
Facepattern
 70
    15
177
     2
291
     1
 71
     2
176
     1
 72
     2
176
     1
 73
     0
176
     1
 90
        0
176
     1
 40
-0.6
176
     1
 41
-30.0
176
     1
 62
     5
 63
     7
421
 16777215
176
     1
 74
     1
176
     1
 91
        4
176
     1
 64
     7
176
     1
 65
   257
176
     1
 75
     1
176
     1
175
     1
176
     1
 42
1.0
176
     1
 92
        8
176
     1
 66
     7
176
     1
 43
1.0
176
     1
 76
     1
176
     1
 77
     6
176
     1
 78
     2
176
     1
 67
     7
176
     1
 79
     5
176
     1
170
     0
176
     1
171
     0
176
     1
290
     0
176
     1
 93
        1
176
     1
 44
0.0
176
     1
173
     0
176
     1
  0
VISUALSTYLE
  5
2B
102
{ACAD_REACTORS
330
2A
102
}
330
2A
100
AcDbVisualStyle
  2
Flat
 70
     0
177
     2
291
     1
 71
     2
176
     1
 72
     1
176
     1
 73
     1
176
     1
 90
        2
176
     1
 40
-0.6
176
     1
 41
30.0
176
     1
 62
     5
 63
     7
421
 16777215
176
     1
 74
     0
176
     1
 91
        4
176
     1
 64
     7
176
     1
 65
   257
176
     1
 75
     1
176
     1
175
     1
176
     1
 42
1.0
176
     1
 92
        8
176
     1
 66
     7
176
     1
 43
1.0
176
     1
 76
     1
176
     1
 77
     6
176
     1
 78
     2
176
     1
 67
     7
176
     1
 79
     5
176
     1
170
     0
176
     1
171
     0
176
     1
290
     0
176
     1
 93
       13
176
     1
 44
0.0
176
     1
173
     0
176
     1
  0
VISUALSTYLE
  5
2C
102
{ACAD_REACTORS
330
2A
102
}
330
2A
100
AcDbVisualStyle
  2
FlatWithEdges
 70
     1
177
     2
291
     1
 71
     2
176
     1
 72
     1
176
     1
 73
     1
176
     1
 90
        2
176
     1
 40
-0.6
176
     1
 41
30.0
176
     1
 62
     5
 63
     7
421
 16777215
176
     1
 74
     1
176
     1
 91
        4
176
     1
 64
     7
176
     1
 65
   257
176
     1
 75
     1
176
     1
175
     1
176
     1
 42
1.0
176
     1
 92
        0
176
     1
 66
   257
176
     1
 43
1.0
176
     1
 76
     1
176
     1
 77
     6
176
     1
 78
     2
176
     1
 67
     7
176
     1
 79
     5
176
     1
170
     0
176
     1
171
     0
176
     1
290
     0
176
     1
 93
       13
176
     1
 44
0.0
176
     1
173
     0
176
     1
  0
VISUALSTYLE
  5
2D
102
{ACAD_REACTORS
330
2A
102
}
330
2A
100
AcDbVisualStyle
  2
Gouraud
 70
     2
177
     2
291
     1
 71
     2
176
     1
 72
     2
176
     1
 73
     1
176
     1
 90
        2
176
     1
 40
-0.6
176
     1
 41
30.0
176
     1
 62
     5
 63
     7
421
 16777215
176
     1
 74
     0
176
     1
 91
        4
176
     1
 64
     7
176
     1
 65
   257
176
     1
 75
     1
176
     1
175
     1
176
     1
 42
1.0
176
     1
 92
        0
176
     1
 66
     7
176
     1
 43
1.0
176
     1
 76
     1
176
     1
 77
     6
176
     1
 78
     2
176
     1
 67
     7
176
     1
 79
     5
176
     1
170
     0
176
     1
171
     0
176
     1
290
     0
176
     1
 93
       13
176
     1
 44
0.0
176
     1
173
     0
176
     1
  0
VISUALSTYLE
  5
2E
102
{ACAD_REACTORS
330
2A
102
}
330
2A
100
AcDbVisualStyle
  2
GouraudWithEdges
 70
     3
177
     2
291
     1
 71
     2
176
     1
 72
     2
176
     1
 73
     1
176
     1
 90
        2
176
     1
 40
-0.6
176
     1
 41
30.0
176
     1
 62
     5
 63
     7
421
 16777215
176
     1
 74
     1
176
     1
 91
        4
176
     1
 64
     7
176
     1
 65
   257
176
     1
 75
     1
176
     1
175
     1
176
     1
 42
1.0
176
     1
 92
        0
176
     1
 66
   257
176
     1
 43
1.0
176
     1
 76
     1
176
     1
 77
     6
176
     1
 78
     2
176
     1
 67
     7
176
     1
 79
     5
176
     1
170
     0
176
     1
171
     0
176
     1
290
     0
176
     1
 93
       13
176
     1
 44
0.0
176
     1
173
     0
176
     1
  0
VISUALSTYLE
  5
38
102
{ACAD_REACTORS
330
2A
102
}
330
2A
100
AcDbVisualStyle
  2
Linepattern
 70
    14
177
     2
291
     1
 71
     2
176
     1
 72
     2
176
     1
 73
     0
176
     1
 90
        0
176
     1
 40
-0.6
176
     1
 41
-30.0
176
     1
 62
     5
 63
     7
421
 16777215
176
     1
 74
     1
176
     1
 91
        4
176
     1
 64
     7
176
     1
 65
   257
176
     1
 75
     7
176
     1
175
     7
176
     1
 42
1.0
176
     1
 92
        8
176
     1
 66
     7
176
     1
 43
1.0
176
     1
 76
     1
176
     1
 77
     6
176
     1
 78
     2
176
     1
 67
     7
176
     1
 79
     5
176
     1
170
     0
176
     1
171
     0
176
     1
290
     0
176
     1
 93
        1
176
     1
 44
0.0
176
     1
173
     0
176
     1
  0
VISUALSTYLE
  5
33
102
{ACAD_REACTORS
330
2A
102
}
330
2A
100
AcDbVisualStyle
  2
Realistic
 70
     8
177
     2
291
     0
 71
     2
176
     1
 72
     2
176
     1
 73
     0
176
     1
 90
        0
176
     1
 40
-0.6
176
     1
 41
-30.0
176
     1
 62
     5
 63
     7
421
 16777215
176
     1
 74
     1
176
     1
 91
        0
176
     1
 64
     7
176
     1
 65
   257
176
     1
 75
     1
176
     1
175
     1
176
     1
 42
1.0
176
     1
 92
        8
176
     1
 66
     8
424
  7895160
176
     1
 43
1.0
176
     1
 76
     1
176
     1
 77
     6
176
     1
 78
     2
176
     1
 67
     7
176
     1
 79
     5
176
     1
170
     0
176
     1
171
     0
176
     1
290
     0
176
     1
 93
       13
176
     1
 44
0.0
176
     1
173
     0
176
     1
  0
VISUALSTYLE
  5
37
102
{ACAD_REACTORS
330
2A
102
}
330
2A
100
AcDbVisualStyle
  2
Thicken
 70
    13
177
     2
291
     1
 71
     2
176
     1
 72
     2
176
     1
 73
     0
176
     1
 90
        0
176
     1
 40
-0.6
176
     1
 41
-30.0
176
     1
 62
     5
 63
     7
421
 16777215
176
     1
 74
     1
176
     1
 91
        4
176
     1
 64
     7
176
     1
 65
   257
176
     1
 75
     1
176
     1
175
     1
176
     1
 42
1.0
176
     1
 92
       12
176
     1
 66
     7
176
     1
 43
1.0
176
     1
 76
     1
176
     1
 77
     6
176
     1
 78
     2
176
     1
 67
     7
176
     1
 79
     5
176
     1
170
     0
176
     1
171
     0
176
     1
290
     0
176
     1
 93
        1
176
     1
 44
0.0
176
     1
173
     0
176
     1
  0
ENDSEC
  0
EOF
