  0
SECTION
  2
HEADER
  9
$ACADVER
  1
AC1024
  9
$ACADMAINTVER
 70
     6
  9
$DWGCODEPAGE
  3
UNDEFINED
  9
$INSBASE
 10
0.0
 20
0.0
 30
0.0
  9
$EXTMIN
 10
1.000000000000000E+20
 20
1.000000000000000E+20
 30
1.000000000000000E+20
  9
$EXTMAX
 10
-1.000000000000000E+20
 20
-1.000000000000000E+20
 30
-1.000000000000000E+20
  9
$LIMMIN
 10
0.0
 20
0.0
  9
$LIMMAX
 10
12.0
 20
9.0
  9
$ORTHOMODE
 70
     0
  9
$REGENMODE
 70
     1
  9
$FILLMODE
 70
     1
  9
$QTEXTMODE
 70
     0
  9
$MIRRTEXT
 70
     1
  9
$LTSCALE
 40
1.0
  9
$ATTMODE
 70
     1
  9
$TEXTSIZE
 40
0.2
  9
$TRACEWID
 40
0.05
  9
$TEXTSTYLE
  7
Standard
  9
$CLAYER
  8
0
  9
$CELTYPE
  6
ByLayer
  9
$CECOLOR
 62
   256
  9
$CELTSCALE
 40
1.0
  9
$DISPSILH
 70
     0
  9
$DIMSCALE
 40
1.0
  9
$DIMASZ
 40
0.18
  9
$DIMEXO
 40
0.0625
  9
$DIMDLI
 40
0.38
  9
$DIMRND
 40
0.0
  9
$DIMDLE
 40
0.0
  9
$DIMEXE
 40
0.18
  9
$DIMTP
 40
0.0
  9
$DIMTM
 40
0.0
  9
$DIMTXT
 40
0.18
  9
$DIMCEN
 40
0.09
  9
$DIMTSZ
 40
0.0
  9
$DIMTOL
 70
     0
  9
$DIMLIM
 70
     0
  9
$DIMTIH
 70
     1
  9
$DIMTOH
 70
     1
  9
$DIMSE1
 70
     0
  9
$DIMSE2
 70
     0
  9
$DIMTAD
 70
     0
  9
$DIMZIN
 70
     0
  9
$DIMBLK
  1

  9
$DIMASO
 70
     1
  9
$DIMSHO
 70
     1
  9
$DIMPOST
  1

  9
$DIMAPOST
  1

  9
$DIMALT
 70
     0
  9
$DIMALTD
 70
     2
  9
$DIMALTF
 40
25.4
  9
$DIMLFAC
 40
1.0
  9
$DIMTOFL
 70
     0
  9
$DIMTVP
 40
0.0
  9
$DIMTIX
 70
     0
  9
$DIMSOXD
 70
     0
  9
$DIMSAH
 70
     0
  9
$DIMBLK1
  1

  9
$DIMBLK2
  1

  9
$DIMSTYLE
  2
Standard
  9
$DIMCLRD
 70
     0
  9
$DIMCLRE
 70
     0
  9
$DIMCLRT
 70
     0
  9
$DIMTFAC
 40
1.0
  9
$DIMGAP
 40
0.09
  9
$DIMJUST
 70
     0
  9
$DIMSD1
 70
     0
  9
$DIMSD2
 70
     0
  9
$DIMTOLJ
 70
     1
  9
$DIMTZIN
 70
     0
  9
$DIMALTZ
 70
     0
  9
$DIMALTTZ
 70
     0
  9
$DIMUPT
 70
     0
  9
$DIMDEC
 70
     4
  9
$DIMTDEC
 70
     4
  9
$DIMALTU
 70
     2
  9
$DIMALTTD
 70
     2
  9
$DIMTXSTY
  7
Standard
  9
$DIMAUNIT
 70
     0
  9
$DIMADEC
 70
     0
  9
$DIMALTRND
 40
0.0
  9
$DIMAZIN
 70
     0
  9
$DIMDSEP
 70
    46
  9
$DIMATFIT
 70
     3
  9
$DIMFRAC
 70
     0
  9
$DIMLDRBLK
  1

  9
$DIMLUNIT
 70
     2
  9
$DIMLWD
 70
    -2
  9
$DIMLWE
 70
    -2
  9
$DIMTMOVE
 70
     0
  9
$DIMFXL
 40
1.0
  9
$DIMFXLON
 70
     0
  9
$DIMJOGANG
 40
0.7853981633974483
  9
$DIMTFILL
 70
     0
  9
$DIMTFILLCLR
 70
     0
  9
$DIMARCSYM
 70
     0
  9
$DIMLTYPE
  6

  9
$DIMLTEX1
  6

  9
$DIMLTEX2
  6

  9
$DIMTXTDIRECTION
 70
     0
  9
$LUNITS
 70
     2
  9
$LUPREC
 70
     4
  9
$SKETCHINC
 40
0.1
  9
$FILLETRAD
 40
0.5
  9
$AUNITS
 70
     0
  9
$AUPREC
 70
     0
  9
$MENU
  1
.
  9
$ELEVATION
 40
0.0
  9
$PELEVATION
 40
0.0
  9
$THICKNESS
 40
0.0
  9
$LIMCHECK
 70
     0
  9
$CHAMFERA
 40
0.5
  9
$CHAMFERB
 40
0.5
  9
$CHAMFERC
 40
1.0
  9
$CHAMFERD
 40
0.0
  9
$SKPOLY
 70
     0
  9
$TDCREATE
 40
2457917.58460647
  9
$TDUCREATE
 40
2457917.209606481
  9
$TDUPDATE
 40
2457917.58460647
  9
$TDUUPDATE
 40
2457917.209606481
  9
$TDINDWG
 40
0.0000000116
  9
$TDUSRTIMER
 40
0.0000000116
  9
$USRTIMER
 70
     1
  9
$ANGBASE
 50
0.0
  9
$ANGDIR
 70
     0
  9
$PDMODE
 70
     0
  9
$PDSIZE
 40
0.0
  9
$PLINEWID
 40
0.0
  9
$SPLFRAME
 70
     0
  9
$SPLINETYPE
 70
     6
  9
$SPLINESEGS
 70
     8
  9
$HANDSEED
  5
D9
  9
$SURFTAB1
 70
     6
  9
$SURFTAB2
 70
     6
  9
$SURFTYPE
 70
     6
  9
$SURFU
 70
     6
  9
$SURFV
 70
     6
  9
$UCSBASE
  2

  9
$UCSNAME
  2

  9
$UCSORG
 10
0.0
 20
0.0
 30
0.0
  9
$UCSXDIR
 10
1.0
 20
0.0
 30
0.0
  9
$UCSYDIR
 10
0.0
 20
1.0
 30
0.0
  9
$UCSORTHOREF
  2

  9
$UCSORTHOVIEW
 70
     0
  9
$UCSORGTOP
 10
0.0
 20
0.0
 30
0.0
  9
$UCSORGBOTTOM
 10
0.0
 20
0.0
 30
0.0
  9
$UCSORGLEFT
 10
0.0
 20
0.0
 30
0.0
  9
$UCSORGRIGHT
 10
0.0
 20
0.0
 30
0.0
  9
$UCSORGFRONT
 10
0.0
 20
0.0
 30
0.0
  9
$UCSORGBACK
 10
0.0
 20
0.0
 30
0.0
  9
$PUCSBASE
  2

  9
$PUCSNAME
  2

  9
$PUCSORG
 10
0.0
 20
0.0
 30
0.0
  9
$PUCSXDIR
 10
1.0
 20
0.0
 30
0.0
  9
$PUCSYDIR
 10
0.0
 20
1.0
 30
0.0
  9
$PUCSORTHOREF
  2

  9
$PUCSORTHOVIEW
 70
     0
  9
$PUCSORGTOP
 10
0.0
 20
0.0
 30
0.0
  9
$PUCSORGBOTTOM
 10
0.0
 20
0.0
 30
0.0
  9
$PUCSORGLEFT
 10
0.0
 20
0.0
 30
0.0
  9
$PUCSORGRIGHT
 10
0.0
 20
0.0
 30
0.0
  9
$PUCSORGFRONT
 10
0.0
 20
0.0
 30
0.0
  9
$PUCSORGBACK
 10
0.0
 20
0.0
 30
0.0
  9
$USERI1
 70
     0
  9
$USERI2
 70
     0
  9
$USERI3
 70
     0
  9
$USERI4
 70
     0
  9
$USERI5
 70
     0
  9
$USERR1
 40
0.0
  9
$USERR2
 40
0.0
  9
$USERR3
 40
0.0
  9
$USERR4
 40
0.0
  9
$USERR5
 40
0.0
  9
$WORLDVIEW
 70
     1
  9
$SHADEDGE
 70
     3
  9
$SHADEDIF
 70
    70
  9
$TILEMODE
 70
     1
  9
$MAXACTVP
 70
    64
  9
$PINSBASE
 10
0.0
 20
0.0
 30
0.0
  9
$PLIMCHECK
 70
     0
  9
$PEXTMIN
 10
1.000000000000000E+20
 20
1.000000000000000E+20
 30
1.000000000000000E+20
  9
$PEXTMAX
 10
-1.000000000000000E+20
 20
-1.000000000000000E+20
 30
-1.000000000000000E+20
  9
$PLIMMIN
 10
0.0
 20
0.0
  9
$PLIMMAX
 10
12.0
 20
9.0
  9
$UNITMODE
 70
     0
  9
$VISRETAIN
 70
     1
  9
$PLINEGEN
 70
     0
  9
$PSLTSCALE
 70
     1
  9
$TREEDEPTH
 70
  3020
  9
$CMLSTYLE
  2
Standard
  9
$CMLJUST
 70
     0
  9
$CMLSCALE
 40
1.0
  9
$PROXYGRAPHICS
 70
     1
  9
$MEASUREMENT
 70
     0
  9
$CELWEIGHT
370
    -1
  9
$ENDCAPS
280
     0
  9
$JOINSTYLE
280
     0
  9
$LWDISPLAY
290
     1
  9
$INSUNITS
 70
     1
  9
$HYPERLINKBASE
  1

  9
$STYLESHEET
  1

  9
$XEDIT
290
     1
  9
$CEPSNTYPE
380
     0
  9
$PSTYLEMODE
290
     1
  9
$FINGERPRINTGUID
  2
{5F7FD80C-DA47-3E85-8205-69E92F8F365D}
  9
$VERSIONGUID
  2
{FAEB1C32-E019-11D5-929B-00C0DF256EC4}
  9
$EXTNAMES
290
     1
  9
$PSVPSCALE
 40
0.0
  9
$OLESTARTUP
290
     0
  9
$SORTENTS
280
   127
  9
$INDEXCTL
280
     0
  9
$HIDETEXT
280
     1
  9
$XCLIPFRAME
280
     2
  9
$HALOGAP
280
     0
  9
$OBSCOLOR
 70
   257
  9
$OBSLTYPE
280
     0
  9
$INTERSECTIONDISPLAY
280
     0
  9
$INTERSECTIONCOLOR
 70
   257
  9
$DIMASSOC
280
     2
  9
$PROJECTNAME
  1

  9
$CAMERADISPLAY
290
     0
  9
$LENSLENGTH
 40
50.0
  9
$CAMERAHEIGHT
 40
0.0
  9
$STEPSPERSEC
 40
2.0
  9
$STEPSIZE
 40
6.0
  9
$3DDWFPREC
 40
2.0
  9
$PSOLWIDTH
 40
0.25
  9
$PSOLHEIGHT
 40
4.0
  9
$LOFTANG1
 40
1.570796326794897
  9
$LOFTANG2
 40
1.570796326794897
  9
$LOFTMAG1
 40
0.0
  9
$LOFTMAG2
 40
0.0
  9
$LOFTPARAM
 70
     7
  9
$LOFTNORMALS
280
     1
  9
$LATITUDE
 40
37.795
  9
$LONGITUDE
 40
-122.394
  9
$NORTHDIRECTION
 40
0.0
  9
$TIMEZONE
 70
 -8000
  9
$LIGHTGLYPHDISPLAY
280
     1
  9
$TILEMODELIGHTSYNCH
280
     1
  9
$CMATERIAL
347
3C
  9
$SOLIDHIST
280
     1
  9
$SHOWHIST
280
     1
  9
$DWFFRAME
280
     2
  9
$DGNFRAME
280
     2
  9
$REALWORLDSCALE
290
     1
  9
$INTERFERECOLOR
 62
   256
  9
$CSHADOW
280
     0
  9
$SHADOWPLANELOCATION
 40
0.0
  0
ENDSEC
  0
SECTION
  2
CLASSES
  0
CLASS
  1
ACDBDICTIONARYWDFLT
  2
AcDbDictionaryWithDefault
  3
ObjectDBX Classes
 90
        0
 91
        4
280
     0
281
     0
  0
CLASS
  1
VISUALSTYLE
  2
AcDbVisualStyle
  3
ObjectDBX Classes
 90
     4095
 91
        4
280
     0
281
     0
  0
CLASS
  1
MATERIAL
  2
AcDbMaterial
  3
ObjectDBX Classes
 90
     1153
 91
        4
280
     0
281
     0
  0
CLASS
  1
SUN
  2
AcDbSun
  3
SCENEOE
 90
     1024
 91
        4
280
     0
281
     0
  0
ENDSEC
  0
SECTION
  2
TABLES
  0
TABLE
  2
VPORT
  5
8
330
0
100
AcDbSymbolTable
 70
     1
  0
VPORT
  5
29
330
8
100
AcDbSymbolTableRecord
100
AcDbViewportTableRecord
  2
*Active
 70
     0
 10
0.0
 20
0.0
 11
1.0
 21
1.0
 12
0.0
 22
0.0
 13
0.0
 23
0.0
 14
0.5
 24
0.5
 15
0.5
 25
0.5
 16
0.0
 26
0.0
 36
1.0
 17
91.00082462281999
 27
-128.4993055234307
 37
0.0
 40
256.9986110468615
 41
0.7081814508812795
 42
50.0
 43
0.0
 44
0.0
 50
0.0
 51
0.0
 71
     0
 72
   100
 73
     1
 74
     3
 75
     0
 76
     0
 77
     0
 78
     0
281
     0
 65
     1
110
0.0
120
0.0
130
0.0
111
1.0
121
0.0
131
0.0
112
0.0
122
1.0
132
0.0
 79
     0
146
0.0
 60
     3
 61
     5
292
     1
282
     1
141
0.0
142
0.0
 63
   250
361
3F
  0
ENDTAB
  0
TABLE
  2
LTYPE
  5
5
330
0
100
AcDbSymbolTable
 70
     2
  0
LTYPE
  5
14
330
5
100
AcDbSymbolTableRecord
100
AcDbLinetypeTableRecord
  2
ByBlock
 70
     0
  3

 72
    65
 73
     0
 40
0.0
  0
LTYPE
  5
15
330
5
100
AcDbSymbolTableRecord
100
AcDbLinetypeTableRecord
  2
ByLayer
 70
     0
  3

 72
    65
 73
     0
 40
0.0
  0
LTYPE
  5
16
330
5
100
AcDbSymbolTableRecord
100
AcDbLinetypeTableRecord
  2
Continuous
 70
     0
  3
Solid line
 72
    65
 73
     0
 40
0.0
  0
LTYPE
  5
62
330
5
100
AcDbSymbolTableRecord
100
AcDbLinetypeTableRecord
  2
AI-Linetype-1
 70
     0
  3
Adobe Illustrator Linetype No. 1
 72
    65
 73
     2
 40
1.411111110758333
 49
0.7055555553791667
 74
     0
 49
-0.7055555553791667
 74
     0
  0
ENDTAB
  0
TABLE
  2
LAYER
  5
2
330
0
100
AcDbSymbolTable
 70
     2
  0
LAYER
  5
10
330
2
100
AcDbSymbolTableRecord
100
AcDbLayerTableRecord
  2
0
 70
     0
 62
     7
  6
Continuous
370
    -3
390
F
347
3E
  0
LAYER
  5
40
330
2
100
AcDbSymbolTableRecord
100
AcDbLayerTableRecord
  2
_U+30EC_U+30A4_U+30E4_U+30FC 1
 70
     0
 62
     7
  6
Continuous
370
    -3
390
F
347
3E
  0
ENDTAB
  0
TABLE
  2
STYLE
  5
3
330
0
100
AcDbSymbolTable
 70
     1
  0
STYLE
  5
11
330
3
100
AcDbSymbolTableRecord
100
AcDbTextStyleTableRecord
  2
Standard
 70
     0
 40
0.0
 41
1.0
 50
0.0
 71
     0
 42
0.2
  3
txt
  4

  0
ENDTAB
  0
TABLE
  2
VIEW
  5
6
330
0
100
AcDbSymbolTable
 70
     0
  0
ENDTAB
  0
TABLE
  2
UCS
  5
7
330
0
100
AcDbSymbolTable
 70
     0
  0
ENDTAB
  0
TABLE
  2
APPID
  5
9
330
0
100
AcDbSymbolTable
 70
     1
  0
APPID
  5
12
330
9
100
AcDbSymbolTableRecord
100
AcDbRegAppTableRecord
  2
ACAD
 70
     0
  0
ENDTAB
  0
TABLE
  2
DIMSTYLE
  5
A
330
0
100
AcDbSymbolTable
 70
     1
100
AcDbDimStyleTable
  0
DIMSTYLE
105
27
330
A
100
AcDbSymbolTableRecord
100
AcDbDimStyleTableRecord
  2
Standard
 70
     0
178
     0
340
11
  0
ENDTAB
  0
TABLE
  2
BLOCK_RECORD
  5
1
330
0
100
AcDbSymbolTable
 70
     5
  0
BLOCK_RECORD
  5
1F
330
1
100
AcDbSymbolTableRecord
100
AcDbBlockTableRecord
  2
*Model_Space
340
22
 70
     0
280
     1
281
     0
  0
BLOCK_RECORD
  5
1B
330
1
100
AcDbSymbolTableRecord
100
AcDbBlockTableRecord
  2
*Paper_Space
340
1E
 70
     0
280
     1
281
     0
  0
BLOCK_RECORD
  5
23
330
1
100
AcDbSymbolTableRecord
100
AcDbBlockTableRecord
  2
*Paper_Space0
340
26
 70
     0
280
     1
281
     0
  0
BLOCK_RECORD
  5
41
330
1
100
AcDbSymbolTableRecord
100
AcDbBlockTableRecord
  2
block 2
340
0
102
{BLKREFS
331
42
102
}
 70
     0
280
     1
281
     0
  0
BLOCK_RECORD
  5
72
330
1
100
AcDbSymbolTableRecord
100
AcDbBlockTableRecord
  2
block 3
340
0
102
{BLKREFS
331
73
102
}
 70
     0
280
     1
281
     0
  0
BLOCK_RECORD
  5
82
330
1
100
AcDbSymbolTableRecord
100
AcDbBlockTableRecord
  2
block 4
340
0
102
{BLKREFS
331
83
102
}
 70
     0
280
     1
281
     0
  0
BLOCK_RECORD
  5
99
330
1
100
AcDbSymbolTableRecord
100
AcDbBlockTableRecord
  2
block 5
340
0
102
{BLKREFS
331
9A
102
}
 70
     0
280
     1
281
     0
  0
ENDTAB
  0
ENDSEC
  0
SECTION
  2
BLOCKS
  0
BLOCK
  5
20
330
1F
100
AcDbEntity
  8
0
100
AcDbBlockBegin
  2
*Model_Space
 70
     0
 10
0.0
 20
0.0
 30
0.0
  3
*Model_Space
  1

  0
ENDBLK
  5
21
330
1F
100
AcDbEntity
  8
0
100
AcDbBlockEnd
  0
BLOCK
  5
1C
330
1B
100
AcDbEntity
 67
     1
  8
0
100
AcDbBlockBegin
  2
*Paper_Space
 70
     0
 10
0.0
 20
0.0
 30
0.0
  3
*Paper_Space
  1

  0
ENDBLK
  5
1D
330
1B
100
AcDbEntity
 67
     1
  8
0
100
AcDbBlockEnd
  0
BLOCK
  5
24
330
23
100
AcDbEntity
  8
0
100
AcDbBlockBegin
  2
*Paper_Space0
 70
     0
 10
0.0
 20
0.0
 30
0.0
  3
*Paper_Space0
  1

  0
ENDBLK
  5
25
330
23
100
AcDbEntity
  8
0
100
AcDbBlockEnd
  0
BLOCK
  5
43
330
41
100
AcDbEntity
  8
0
100
AcDbBlockBegin
  2
block 2
 70
     0
 10
0.0
 20
0.0
 30
0.0
  3
block 2
  1

  0
POLYLINE
  5
45
330
41
100
AcDbEntity
  8
_U+30EC_U+30A4_U+30E4_U+30FC 1
 62
   179
420
  2234388
370
    25
100
AcDb2dPolyline
 66
     1
 10
0.0
 20
0.0
 30
0.0
  0
VERTEX
  5
46
330
45
100
AcDbEntity
  8
_U+30EC_U+30A4_U+30E4_U+30FC 1
 62
   179
420
  2234388
370
    25
100
AcDbVertex
100
AcDb2dVertex
 10
72.32081843271999
 20
-136.8381607991236
 30
0.0
  0
VERTEX
  5
47
330
45
100
AcDbEntity
  8
_U+30EC_U+30A4_U+30E4_U+30FC 1
 62
   179
420
  2234388
370
    25
100
AcDbVertex
100
AcDb2dVertex
 10
96.32074865376408
 20
-136.8381607991236
 30
0.0
  0
SEQEND
  5
48
330
45
100
AcDbEntity
  8
_U+30EC_U+30A4_U+30E4_U+30FC 1
 62
   179
420
  2234388
370
    25
  0
POLYLINE
  5
49
330
41
100
AcDbEntity
  8
_U+30EC_U+30A4_U+30E4_U+30FC 1
 62
   179
420
  2234388
370
    25
100
AcDb2dPolyline
 66
     1
 10
0.0
 20
0.0
 30
0.0
  0
VERTEX
  5
4A
330
49
100
AcDbEntity
  8
_U+30EC_U+30A4_U+30E4_U+30FC 1
 62
   179
420
  2234388
370
    25
100
AcDbVertex
100
AcDb2dVertex
 10
96.32074865376408
 20
-136.8381607991236
 30
0.0
  0
VERTEX
  5
4B
330
49
100
AcDbEntity
  8
_U+30EC_U+30A4_U+30E4_U+30FC 1
 62
   179
420
  2234388
370
    25
100
AcDbVertex
100
AcDb2dVertex
 10
96.32074865376408
 20
-137.2377874656908
 30
0.0
  0
SEQEND
  5
4C
330
49
100
AcDbEntity
  8
_U+30EC_U+30A4_U+30E4_U+30FC 1
 62
   179
420
  2234388
370
    25
  0
POLYLINE
  5
4D
330
41
100
AcDbEntity
  8
_U+30EC_U+30A4_U+30E4_U+30FC 1
 62
   179
420
  2234388
370
    25
100
AcDb2dPolyline
 66
     1
 10
0.0
 20
0.0
 30
0.0
  0
VERTEX
  5
4E
330
4D
100
AcDbEntity
  8
_U+30EC_U+30A4_U+30E4_U+30FC 1
 62
   179
420
  2234388
370
    25
100
AcDbVertex
100
AcDb2dVertex
 10
96.32074865376408
 20
-137.2377874656908
 30
0.0
  0
VERTEX
  5
4F
330
4D
100
AcDbEntity
  8
_U+30EC_U+30A4_U+30E4_U+30FC 1
 62
   179
420
  2234388
370
    25
100
AcDbVertex
100
AcDb2dVertex
 10
72.14030204843645
 20
-137.8379330210961
 30
0.0
  0
SEQEND
  5
50
330
4D
100
AcDbEntity
  8
_U+30EC_U+30A4_U+30E4_U+30FC 1
 62
   179
420
  2234388
370
    25
  0
POLYLINE
  5
51
330
41
100
AcDbEntity
  8
_U+30EC_U+30A4_U+30E4_U+30FC 1
 62
   179
420
  2234388
370
    25
100
AcDb2dPolyline
 66
     1
 10
0.0
 20
0.0
 30
0.0
  0
VERTEX
  5
52
330
51
100
AcDbEntity
  8
_U+30EC_U+30A4_U+30E4_U+30FC 1
 62
   179
420
  2234388
370
    25
100
AcDbVertex
100
AcDb2dVertex
 10
73.22068396531806
 20
-112.837559694013
 30
0.0
  0
VERTEX
  5
53
330
51
100
AcDbEntity
  8
_U+30EC_U+30A4_U+30E4_U+30FC 1
 62
   179
420
  2234388
370
    25
100
AcDbVertex
100
AcDb2dVertex
 10
73.62101617732695
 20
-112.837559694013
 30
0.0
  0
SEQEND
  5
54
330
51
100
AcDbEntity
  8
_U+30EC_U+30A4_U+30E4_U+30FC 1
 62
   179
420
  2234388
370
    25
  0
POLYLINE
  5
55
330
41
100
AcDbEntity
  8
_U+30EC_U+30A4_U+30E4_U+30FC 1
 62
   179
420
  2234388
370
    25
100
AcDb2dPolyline
 66
     1
 10
0.0
 20
0.0
 30
0.0
  0
VERTEX
  5
56
330
55
100
AcDbEntity
  8
_U+30EC_U+30A4_U+30E4_U+30FC 1
 62
   179
420
  2234388
370
    25
100
AcDbVertex
100
AcDb2dVertex
 10
72.32081843271999
 20
-136.8381607991236
 30
0.0
  0
VERTEX
  5
57
330
55
100
AcDbEntity
  8
_U+30EC_U+30A4_U+30E4_U+30FC 1
 62
   179
420
  2234388
370
    25
100
AcDbVertex
100
AcDb2dVertex
 10
73.62101617732695
 20
-112.837559694013
 30
0.0
  0
SEQEND
  5
58
330
55
100
AcDbEntity
  8
_U+30EC_U+30A4_U+30E4_U+30FC 1
 62
   179
420
  2234388
370
    25
  0
POLYLINE
  5
59
330
41
100
AcDbEntity
  8
_U+30EC_U+30A4_U+30E4_U+30FC 1
 62
   179
420
  2234388
370
    25
100
AcDb2dPolyline
 66
     1
 10
0.0
 20
0.0
 30
0.0
  0
VERTEX
  5
5A
330
59
100
AcDbEntity
  8
_U+30EC_U+30A4_U+30E4_U+30FC 1
 62
   179
420
  2234388
370
    25
100
AcDbVertex
100
AcDb2dVertex
 10
73.22068396531806
 20
-112.837559694013
 30
0.0
  0
VERTEX
  5
5B
330
59
100
AcDbEntity
  8
_U+30EC_U+30A4_U+30E4_U+30FC 1
 62
   179
420
  2234388
370
    25
100
AcDbVertex
100
AcDb2dVertex
 10
71.32312762483987
 20
-136.975285521312
 30
0.0
  0
SEQEND
  5
5C
330
59
100
AcDbEntity
  8
_U+30EC_U+30A4_U+30E4_U+30FC 1
 62
   179
420
  2234388
370
    25
  0
SPLINE
  5
5D
330
41
100
AcDbEntity
  8
_U+30EC_U+30A4_U+30E4_U+30FC 1
 62
   179
420
  2234388
370
    25
100
AcDbSpline
210
0.0
220
0.0
230
1.0
 70
     8
 71
     3
 72
    11
 73
     7
 74
     0
 42
0.0000000001
 43
0.0000000001
 12
1.0
 22
0.0
 32
0.0
 13
1.0
 23
0.0
 33
0.0
 40
0.0
 40
0.0
 40
0.0
 40
0.0
 40
1.0
 40
1.0
 40
1.0
 40
2.0
 40
2.0
 40
2.0
 40
2.0
 10
71.32312762483987
 20
-136.975285521312
 30
0.0
 10
71.2886612368303
 20
-137.4155521878684
 30
0.0
 10
71.61734428400044
 20
-137.80071496555
 30
0.0
 10
72.05831649497253
 20
-137.8351813544303
 30
0.0
 10
72.08516288317651
 20
-137.8372274655406
 30
0.0
 10
72.11275010469492
 20
-137.8386032988735
 30
0.0
 10
72.14030204843645
 20
-137.8379330210961
 30
0.0
  0
ENDBLK
  5
44
330
41
100
AcDbEntity
  8
0
100
AcDbBlockEnd
  0
BLOCK
  5
74
330
72
100
AcDbEntity
  8
0
100
AcDbBlockBegin
  2
block 3
 70
     0
 10
0.0
 20
0.0
 30
0.0
  3
block 3
  1

  0
SPLINE
  5
76
330
72
100
AcDbEntity
  8
_U+30EC_U+30A4_U+30E4_U+30FC 1
370
     0
100
AcDbSpline
210
0.0
220
0.0
230
1.0
 70
    11
 71
     3
 72
    44
 73
    40
 74
     0
 42
0.0000000001
 43
0.0000000001
 12
1.0
 22
0.0
 32
0.0
 13
1.0
 23
0.0
 33
0.0
 40
0.0
 40
0.0
 40
0.0
 40
0.0
 40
1.0
 40
1.0
 40
1.0
 40
2.0
 40
2.0
 40
2.0
 40
3.0
 40
3.0
 40
3.0
 40
4.0
 40
4.0
 40
4.0
 40
5.0
 40
5.0
 40
5.0
 40
6.0
 40
6.0
 40
6.0
 40
7.0
 40
7.0
 40
7.0
 40
8.0
 40
8.0
 40
8.0
 40
9.0
 40
9.0
 40
9.0
 40
10.0
 40
10.0
 40
10.0
 40
11.0
 40
11.0
 40
11.0
 40
12.0
 40
12.0
 40
12.0
 40
13.0
 40
13.0
 40
13.0
 40
13.0
 10
83.45261499649796
 20
-140.5784993138137
 30
0.0
 10
83.23488496183018
 20
-140.7373182156837
 30
0.0
 10
83.14186738372842
 20
-140.8113877686166
 30
0.0
 10
83.09294702783788
 20
-140.9550482503515
 30
0.0
 10
83.09294702783788
 20
-140.9550482503515
 30
0.0
 10
83.87153860750435
 20
-140.9550482503515
 30
0.0
 10
83.87153860750435
 20
-140.9550482503515
 30
0.0
 10
83.87153860750435
 20
-140.9550482503515
 30
0.0
 10
83.87153860750435
 20
-141.1603759412724
 30
0.0
 10
83.87153860750435
 20
-141.1603759412724
 30
0.0
 10
83.87153860750435
 20
-141.1603759412724
 30
0.0
 10
82.84352211470579
 20
-141.1603759412724
 30
0.0
 10
82.84352211470579
 20
-141.1603759412724
 30
0.0
 10
82.87521699317008
 20
-140.8027750299035
 30
0.0
 10
82.94067380738984
 20
-140.7245713623883
 30
0.0
 10
83.32583548264077
 20
-140.4262260933657
 30
0.0
 10
83.58180607719483
 20
-140.2274440838667
 30
0.0
 10
83.64726289141457
 20
-140.1595757028073
 30
0.0
 10
83.64726289141457
 20
-140.0221163929459
 30
0.0
 10
83.64726289141457
 20
-139.9036051082533
 30
0.0
 10
83.57526039577286
 20
-139.7726914798138
 30
0.0
 10
83.37854544356509
 20
-139.7726914798138
 30
0.0
 10
83.11844073442873
 20
-139.7726914798138
 30
0.0
 10
83.11017250526413
 20
-140.003168367777
 30
0.0
 10
83.1056938811333
 20
-140.1196125951784
 30
0.0
 10
83.1056938811333
 20
-140.1196125951784
 30
0.0
 10
82.88141816504354
 20
-140.1196125951784
 30
0.0
 10
82.88141816504354
 20
-140.1196125951784
 30
0.0
 10
82.89003090375667
 20
-139.9924885717727
 30
0.0
 10
82.90071069976094
 20
-139.8805229685021
 30
0.0
 10
82.98098142456726
 20
-139.7620116838095
 30
0.0
 10
83.09087997054672
 20
-139.6011257246483
 30
0.0
 10
83.27725963629875
 20
-139.5673637888929
 30
0.0
 10
83.39335935415167
 20
-139.5673637888929
 30
0.0
 10
83.67068954071428
 20
-139.5673637888929
 30
0.0
 10
83.87808428892632
 20
-139.7513318878052
 30
0.0
 10
83.87808428892632
 20
-140.024183450237
 30
0.0
 10
83.87808428892632
 20
-140.2529377904576
 30
0.0
 10
83.76164006152487
 20
-140.3521565404328
 30
0.0
 10
83.45261499649796
 20
-140.5784993138137
 30
0.0
  0
HATCH
  5
77
330
72
100
AcDbEntity
  8
_U+30EC_U+30A4_U+30E4_U+30FC 1
 62
   179
420
  2234388
100
AcDbHatch
 10
0.0
 20
0.0
 30
0.0
210
0.0
220
0.0
230
1.0
  2
SOLID
 70
     1
 71
     0
 91
        1
 92
        1
 93
        1
 72
     4
 94
        3
 73
     0
 74
     1
 95
       44
 96
       40
 40
0.0
 40
0.0
 40
0.0
 40
0.0
 40
1.0
 40
1.0
 40
1.0
 40
2.0
 40
2.0
 40
2.0
 40
3.0
 40
3.0
 40
3.0
 40
4.0
 40
4.0
 40
4.0
 40
5.0
 40
5.0
 40
5.0
 40
6.0
 40
6.0
 40
6.0
 40
7.0
 40
7.0
 40
7.0
 40
8.0
 40
8.0
 40
8.0
 40
9.0
 40
9.0
 40
9.0
 40
10.0
 40
10.0
 40
10.0
 40
11.0
 40
11.0
 40
11.0
 40
12.0
 40
12.0
 40
12.0
 40
13.0
 40
13.0
 40
13.0
 40
13.0
 10
83.45261499649796
 20
-140.5784993138137
 10
83.23488496183018
 20
-140.7373182156837
 10
83.14186738372842
 20
-140.8113877686166
 10
83.09294702783788
 20
-140.9550482503515
 10
83.09294702783788
 20
-140.9550482503515
 10
83.87153860750435
 20
-140.9550482503515
 10
83.87153860750435
 20
-140.9550482503515
 10
83.87153860750435
 20
-140.9550482503515
 10
83.87153860750435
 20
-141.1603759412724
 10
83.87153860750435
 20
-141.1603759412724
 10
83.87153860750435
 20
-141.1603759412724
 10
82.84352211470579
 20
-141.1603759412724
 10
82.84352211470579
 20
-141.1603759412724
 10
82.87521699317008
 20
-140.8027750299035
 10
82.94067380738984
 20
-140.7245713623883
 10
83.32583548264077
 20
-140.4262260933657
 10
83.58180607719483
 20
-140.2274440838667
 10
83.64726289141457
 20
-140.1595757028073
 10
83.64726289141457
 20
-140.0221163929459
 10
83.64726289141457
 20
-139.9036051082533
 10
83.57526039577286
 20
-139.7726914798138
 10
83.37854544356509
 20
-139.7726914798138
 10
83.11844073442873
 20
-139.7726914798138
 10
83.11017250526413
 20
-140.003168367777
 10
83.1056938811333
 20
-140.1196125951784
 10
83.1056938811333
 20
-140.1196125951784
 10
82.88141816504354
 20
-140.1196125951784
 10
82.88141816504354
 20
-140.1196125951784
 10
82.89003090375667
 20
-139.9924885717727
 10
82.90071069976094
 20
-139.8805229685021
 10
82.98098142456726
 20
-139.7620116838095
 10
83.09087997054672
 20
-139.6011257246483
 10
83.27725963629875
 20
-139.5673637888929
 10
83.39335935415167
 20
-139.5673637888929
 10
83.67068954071428
 20
-139.5673637888929
 10
83.87808428892632
 20
-139.7513318878052
 10
83.87808428892632
 20
-140.024183450237
 10
83.87808428892632
 20
-140.2529377904576
 10
83.76164006152487
 20
-140.3521565404328
 10
83.45261499649796
 20
-140.5784993138137
 97
        0
 97
        0
 75
     2
 76
     1
 98
        0
  0
SPLINE
  5
78
330
72
100
AcDbEntity
  8
_U+30EC_U+30A4_U+30E4_U+30FC 1
370
     0
100
AcDbSpline
210
0.0
220
0.0
230
1.0
 70
    11
 71
     3
 72
    53
 73
    49
 74
     0
 42
0.0000000001
 43
0.0000000001
 12
1.0
 22
0.0
 32
0.0
 13
1.0
 23
0.0
 33
0.0
 40
0.0
 40
0.0
 40
0.0
 40
0.0
 40
1.0
 40
1.0
 40
1.0
 40
2.0
 40
2.0
 40
2.0
 40
3.0
 40
3.0
 40
3.0
 40
4.0
 40
4.0
 40
4.0
 40
5.0
 40
5.0
 40
5.0
 40
6.0
 40
6.0
 40
6.0
 40
7.0
 40
7.0
 40
7.0
 40
8.0
 40
8.0
 40
8.0
 40
9.0
 40
9.0
 40
9.0
 40
10.0
 40
10.0
 40
10.0
 40
11.0
 40
11.0
 40
11.0
 40
12.0
 40
12.0
 40
12.0
 40
13.0
 40
13.0
 40
13.0
 40
14.0
 40
14.0
 40
14.0
 40
15.0
 40
15.0
 40
15.0
 40
16.0
 40
16.0
 40
16.0
 40
16.0
 10
84.51749401098868
 20
-141.2110188449056
 30
0.0
 10
84.43929034347352
 20
-141.2110188449056
 30
0.0
 10
84.33766002665864
 20
-141.1941378770279
 30
0.0
 10
84.23602970984378
 20
-141.1307481200993
 30
0.0
 10
84.06274140693571
 20
-141.0208495741198
 30
0.0
 10
84.04138181492716
 20
-140.8895914361318
 30
0.0
 10
84.02243378975828
 20
-140.7817599474434
 30
0.0
 10
84.02243378975828
 20
-140.7817599474434
 30
0.0
 10
84.2446424485569
 20
-140.7817599474434
 30
0.0
 10
84.2446424485569
 20
-140.7817599474434
 30
0.0
 10
84.29941946677238
 20
-140.9805419569424
 30
0.0
 10
84.42654349017809
 20
-141.0101697781155
 30
0.0
 10
84.51956106827984
 20
-141.0101697781155
 30
0.0
 10
84.65908743543245
 20
-141.0101697781155
 30
0.0
 10
84.81136065588049
 20
-140.9106065185918
 30
0.0
 10
84.81136065588049
 20
-140.6780625733374
 30
0.0
 10
84.81136065588049
 20
-140.4220919787834
 30
0.0
 10
84.63152667155046
 20
-140.3521565404328
 30
0.0
 10
84.51094832956672
 20
-140.3521565404328
 30
0.0
 10
84.47925345110241
 20
-140.3521565404328
 30
0.0
 10
84.33766002665864
 20
-140.3521565404328
 30
0.0
 10
84.2487765631392
 20
-140.4813476211297
 30
0.0
 10
84.2487765631392
 20
-140.4813476211297
 30
0.0
 10
84.07307669339146
 20
-140.4623995959608
 30
0.0
 10
84.07307669339146
 20
-140.4623995959608
 30
0.0
 10
84.07307669339146
 20
-140.4623995959608
 30
0.0
 10
84.1936550353752
 20
-139.6159396352349
 30
0.0
 10
84.1936550353752
 20
-139.6159396352349
 30
0.0
 10
84.1936550353752
 20
-139.6159396352349
 30
0.0
 10
84.97224661504167
 20
-139.6159396352349
 30
0.0
 10
84.97224661504167
 20
-139.6159396352349
 30
0.0
 10
84.97224661504167
 20
-139.6159396352349
 30
0.0
 10
84.97224661504167
 20
-139.8105875301515
 30
0.0
 10
84.97224661504167
 20
-139.8105875301515
 30
0.0
 10
84.97224661504167
 20
-139.8105875301515
 30
0.0
 10
84.35660805182752
 20
-139.8105875301515
 30
0.0
 10
84.35660805182752
 20
-139.8105875301515
 30
0.0
 10
84.35660805182752
 20
-139.8105875301515
 30
0.0
 10
84.29115123760778
 20
-140.2336452557402
 30
0.0
 10
84.29115123760778
 20
-140.2336452557402
 30
0.0
 10
84.35247393724522
 20
-140.1998833199848
 30
0.0
 10
84.43481171934269
 20
-140.1595757028073
 30
0.0
 10
84.55332300403528
 20
-140.1595757028073
 30
0.0
 10
84.80722654129819
 20
-140.1595757028073
 30
0.0
 10
85.04424911068338
 20
-140.3459553685593
 30
0.0
 10
85.04424911068338
 20
-140.6591145481686
 30
0.0
 10
85.04424911068338
 20
-140.9764078423601
 30
0.0
 10
84.81997339459362
 20
-141.2110188449056
 30
0.0
 10
84.51749401098868
 20
-141.2110188449056
 30
0.0
  0
HATCH
  5
79
330
72
100
AcDbEntity
  8
_U+30EC_U+30A4_U+30E4_U+30FC 1
 62
   179
420
  2234388
100
AcDbHatch
 10
0.0
 20
0.0
 30
0.0
210
0.0
220
0.0
230
1.0
  2
SOLID
 70
     1
 71
     0
 91
        1
 92
        1
 93
        1
 72
     4
 94
        3
 73
     0
 74
     1
 95
       53
 96
       49
 40
0.0
 40
0.0
 40
0.0
 40
0.0
 40
1.0
 40
1.0
 40
1.0
 40
2.0
 40
2.0
 40
2.0
 40
3.0
 40
3.0
 40
3.0
 40
4.0
 40
4.0
 40
4.0
 40
5.0
 40
5.0
 40
5.0
 40
6.0
 40
6.0
 40
6.0
 40
7.0
 40
7.0
 40
7.0
 40
8.0
 40
8.0
 40
8.0
 40
9.0
 40
9.0
 40
9.0
 40
10.0
 40
10.0
 40
10.0
 40
11.0
 40
11.0
 40
11.0
 40
12.0
 40
12.0
 40
12.0
 40
13.0
 40
13.0
 40
13.0
 40
14.0
 40
14.0
 40
14.0
 40
15.0
 40
15.0
 40
15.0
 40
16.0
 40
16.0
 40
16.0
 40
16.0
 10
84.51749401098868
 20
-141.2110188449056
 10
84.43929034347352
 20
-141.2110188449056
 10
84.33766002665864
 20
-141.1941378770279
 10
84.23602970984378
 20
-141.1307481200993
 10
84.06274140693571
 20
-141.0208495741198
 10
84.04138181492716
 20
-140.8895914361318
 10
84.02243378975828
 20
-140.7817599474434
 10
84.02243378975828
 20
-140.7817599474434
 10
84.2446424485569
 20
-140.7817599474434
 10
84.2446424485569
 20
-140.7817599474434
 10
84.29941946677238
 20
-140.9805419569424
 10
84.42654349017809
 20
-141.0101697781155
 10
84.51956106827984
 20
-141.0101697781155
 10
84.65908743543245
 20
-141.0101697781155
 10
84.81136065588049
 20
-140.9106065185918
 10
84.81136065588049
 20
-140.6780625733374
 10
84.81136065588049
 20
-140.4220919787834
 10
84.63152667155046
 20
-140.3521565404328
 10
84.51094832956672
 20
-140.3521565404328
 10
84.47925345110241
 20
-140.3521565404328
 10
84.33766002665864
 20
-140.3521565404328
 10
84.2487765631392
 20
-140.4813476211297
 10
84.2487765631392
 20
-140.4813476211297
 10
84.07307669339146
 20
-140.4623995959608
 10
84.07307669339146
 20
-140.4623995959608
 10
84.07307669339146
 20
-140.4623995959608
 10
84.1936550353752
 20
-139.6159396352349
 10
84.1936550353752
 20
-139.6159396352349
 10
84.1936550353752
 20
-139.6159396352349
 10
84.97224661504167
 20
-139.6159396352349
 10
84.97224661504167
 20
-139.6159396352349
 10
84.97224661504167
 20
-139.6159396352349
 10
84.97224661504167
 20
-139.8105875301515
 10
84.97224661504167
 20
-139.8105875301515
 10
84.97224661504167
 20
-139.8105875301515
 10
84.35660805182752
 20
-139.8105875301515
 10
84.35660805182752
 20
-139.8105875301515
 10
84.35660805182752
 20
-139.8105875301515
 10
84.29115123760778
 20
-140.2336452557402
 10
84.29115123760778
 20
-140.2336452557402
 10
84.35247393724522
 20
-140.1998833199848
 10
84.43481171934269
 20
-140.1595757028073
 10
84.55332300403528
 20
-140.1595757028073
 10
84.80722654129819
 20
-140.1595757028073
 10
85.04424911068338
 20
-140.3459553685593
 10
85.04424911068338
 20
-140.6591145481686
 10
85.04424911068338
 20
-140.9764078423601
 10
84.81997339459362
 20
-141.2110188449056
 10
84.51749401098868
 20
-141.2110188449056
 97
        0
 97
        0
 75
     2
 76
     1
 98
        0
  0
ENDBLK
  5
75
330
72
100
AcDbEntity
  8
0
100
AcDbBlockEnd
  0
BLOCK
  5
84
330
82
100
AcDbEntity
  8
0
100
AcDbBlockBegin
  2
block 4
 70
     0
 10
0.0
 20
0.0
 30
0.0
  3
block 4
  1

  0
SPLINE
  5
86
330
82
100
AcDbEntity
  8
_U+30EC_U+30A4_U+30E4_U+30FC 1
370
     0
100
AcDbSpline
210
0.0
220
0.0
230
1.0
 70
    11
 71
     3
 72
    44
 73
    40
 74
     0
 42
0.0000000001
 43
0.0000000001
 12
1.0
 22
0.0
 32
0.0
 13
1.0
 23
0.0
 33
0.0
 40
0.0
 40
0.0
 40
0.0
 40
0.0
 40
1.0
 40
1.0
 40
1.0
 40
2.0
 40
2.0
 40
2.0
 40
3.0
 40
3.0
 40
3.0
 40
4.0
 40
4.0
 40
4.0
 40
5.0
 40
5.0
 40
5.0
 40
6.0
 40
6.0
 40
6.0
 40
7.0
 40
7.0
 40
7.0
 40
8.0
 40
8.0
 40
8.0
 40
9.0
 40
9.0
 40
9.0
 40
10.0
 40
10.0
 40
10.0
 40
11.0
 40
11.0
 40
11.0
 40
12.0
 40
12.0
 40
12.0
 40
13.0
 40
13.0
 40
13.0
 40
13.0
 10
67.15662433216919
 20
-125.872592470702
 30
0.0
 10
67.31527097926494
 20
-126.0904947601441
 30
0.0
 10
67.3893405321978
 20
-126.1836845930201
 30
0.0
 10
67.53317326870699
 20
-126.2322604393621
 30
0.0
 10
67.53317326870699
 20
-126.2322604393621
 30
0.0
 10
67.53317326870699
 20
-125.4538411144699
 30
0.0
 10
67.53317326870699
 20
-125.4538411144699
 30
0.0
 10
67.53317326870699
 20
-125.4538411144699
 30
0.0
 10
67.73832870485361
 20
-125.4538411144699
 30
0.0
 10
67.73832870485361
 20
-125.4538411144699
 30
0.0
 10
67.73832870485361
 20
-125.4538411144699
 30
0.0
 10
67.73832870485361
 20
-126.4818576072684
 30
0.0
 10
67.73832870485361
 20
-126.4818576072684
 30
0.0
 10
67.38072779348468
 20
-126.4501627288041
 30
0.0
 10
67.30252412596951
 20
-126.3847059145844
 30
0.0
 10
67.00417885694688
 20
-125.9995442393335
 30
0.0
 10
66.80539684744797
 20
-125.7435736447794
 30
0.0
 10
66.7377007211628
 20
-125.6781168305596
 30
0.0
 10
66.60024141130133
 20
-125.6781168305596
 30
0.0
 10
66.48173012660874
 20
-125.6781168305596
 30
0.0
 10
66.35064424339498
 20
-125.7499470714271
 30
0.0
 10
66.35064424339498
 20
-125.9466620236349
 30
0.0
 10
66.35064424339498
 20
-126.2069389875455
 30
0.0
 10
66.58112113135819
 20
-126.2153794714844
 30
0.0
 10
66.69756535875963
 20
-126.2196858408409
 30
0.0
 10
66.69756535875963
 20
-126.2196858408409
 30
0.0
 10
66.69756535875963
 20
-126.4437893021564
 30
0.0
 10
66.69756535875963
 20
-126.4437893021564
 30
0.0
 10
66.57061359012819
 20
-126.4353488182176
 30
0.0
 10
66.4584757320833
 20
-126.4248412769876
 30
0.0
 10
66.33996444739071
 20
-126.344398297407
 30
0.0
 10
66.1792507430038
 20
-126.2344997514275
 30
0.0
 10
66.14531655247409
 20
-126.0482923404497
 30
0.0
 10
66.14531655247409
 20
-125.9318481130483
 30
0.0
 10
66.14531655247409
 20
-125.6546901812599
 30
0.0
 10
66.3294569061607
 20
-125.4474676878222
 30
0.0
 10
66.60230846859248
 20
-125.4474676878222
 30
0.0
 10
66.83071829926455
 20
-125.4474676878222
 30
0.0
 10
66.93028155878827
 20
-125.5637396604493
 30
0.0
 10
67.15662433216919
 20
-125.872592470702
 30
0.0
  0
HATCH
  5
87
330
82
100
AcDbEntity
  8
_U+30EC_U+30A4_U+30E4_U+30FC 1
 62
   179
420
  2234388
100
AcDbHatch
 10
0.0
 20
0.0
 30
0.0
210
0.0
220
0.0
230
1.0
  2
SOLID
 70
     1
 71
     0
 91
        1
 92
        1
 93
        1
 72
     4
 94
        3
 73
     0
 74
     1
 95
       44
 96
       40
 40
0.0
 40
0.0
 40
0.0
 40
0.0
 40
1.0
 40
1.0
 40
1.0
 40
2.0
 40
2.0
 40
2.0
 40
3.0
 40
3.0
 40
3.0
 40
4.0
 40
4.0
 40
4.0
 40
5.0
 40
5.0
 40
5.0
 40
6.0
 40
6.0
 40
6.0
 40
7.0
 40
7.0
 40
7.0
 40
8.0
 40
8.0
 40
8.0
 40
9.0
 40
9.0
 40
9.0
 40
10.0
 40
10.0
 40
10.0
 40
11.0
 40
11.0
 40
11.0
 40
12.0
 40
12.0
 40
12.0
 40
13.0
 40
13.0
 40
13.0
 40
13.0
 10
67.15662433216919
 20
-125.872592470702
 10
67.31527097926494
 20
-126.0904947601441
 10
67.3893405321978
 20
-126.1836845930201
 10
67.53317326870699
 20
-126.2322604393621
 10
67.53317326870699
 20
-126.2322604393621
 10
67.53317326870699
 20
-125.4538411144699
 10
67.53317326870699
 20
-125.4538411144699
 10
67.53317326870699
 20
-125.4538411144699
 10
67.73832870485361
 20
-125.4538411144699
 10
67.73832870485361
 20
-125.4538411144699
 10
67.73832870485361
 20
-125.4538411144699
 10
67.73832870485361
 20
-126.4818576072684
 10
67.73832870485361
 20
-126.4818576072684
 10
67.38072779348468
 20
-126.4501627288041
 10
67.30252412596951
 20
-126.3847059145844
 10
67.00417885694688
 20
-125.9995442393335
 10
66.80539684744797
 20
-125.7435736447794
 10
66.7377007211628
 20
-125.6781168305596
 10
66.60024141130133
 20
-125.6781168305596
 10
66.48173012660874
 20
-125.6781168305596
 10
66.35064424339498
 20
-125.7499470714271
 10
66.35064424339498
 20
-125.9466620236349
 10
66.35064424339498
 20
-126.2069389875455
 10
66.58112113135819
 20
-126.2153794714844
 10
66.69756535875963
 20
-126.2196858408409
 10
66.69756535875963
 20
-126.2196858408409
 10
66.69756535875963
 20
-126.4437893021564
 10
66.69756535875963
 20
-126.4437893021564
 10
66.57061359012819
 20
-126.4353488182176
 10
66.4584757320833
 20
-126.4248412769876
 10
66.33996444739071
 20
-126.344398297407
 10
66.1792507430038
 20
-126.2344997514275
 10
66.14531655247409
 20
-126.0482923404497
 10
66.14531655247409
 20
-125.9318481130483
 10
66.14531655247409
 20
-125.6546901812599
 10
66.3294569061607
 20
-125.4474676878222
 10
66.60230846859248
 20
-125.4474676878222
 10
66.83071829926455
 20
-125.4474676878222
 10
66.93028155878827
 20
-125.5637396604493
 10
67.15662433216919
 20
-125.872592470702
 97
        0
 97
        0
 75
     2
 76
     1
 98
        0
  0
SPLINE
  5
88
330
82
100
AcDbEntity
  8
_U+30EC_U+30A4_U+30E4_U+30FC 1
370
     0
100
AcDbSpline
210
0.0
220
0.0
230
1.0
 70
    11
 71
     3
 72
    53
 73
    49
 74
     0
 42
0.0000000001
 43
0.0000000001
 12
1.0
 22
0.0
 32
0.0
 13
1.0
 23
0.0
 33
0.0
 40
0.0
 40
0.0
 40
0.0
 40
0.0
 40
1.0
 40
1.0
 40
1.0
 40
2.0
 40
2.0
 40
2.0
 40
3.0
 40
3.0
 40
3.0
 40
4.0
 40
4.0
 40
4.0
 40
5.0
 40
5.0
 40
5.0
 40
6.0
 40
6.0
 40
6.0
 40
7.0
 40
7.0
 40
7.0
 40
8.0
 40
8.0
 40
8.0
 40
9.0
 40
9.0
 40
9.0
 40
10.0
 40
10.0
 40
10.0
 40
11.0
 40
11.0
 40
11.0
 40
12.0
 40
12.0
 40
12.0
 40
13.0
 40
13.0
 40
13.0
 40
14.0
 40
14.0
 40
14.0
 40
15.0
 40
15.0
 40
15.0
 40
16.0
 40
16.0
 40
16.0
 40
16.0
 10
67.78914386326105
 20
-124.8078857109855
 30
0.0
 10
67.78914386326105
 20
-124.886261633275
 30
0.0
 10
67.77209064060906
 20
-124.9877196953156
 30
0.0
 10
67.70870088368046
 20
-125.0893500121305
 30
0.0
 10
67.59863008292673
 20
-125.2628105698128
 30
0.0
 10
67.46754419971298
 20
-125.2839979070471
 30
0.0
 10
67.35971271102466
 20
-125.3029459322159
 30
0.0
 10
67.35971271102466
 20
-125.3029459322159
 30
0.0
 10
67.35971271102466
 20
-125.0809095281916
 30
0.0
 10
67.35971271102466
 20
-125.0809095281916
 30
0.0
 10
67.55849472052357
 20
-125.0257880004276
 30
0.0
 10
67.58812254169672
 20
-124.8988362317961
 30
0.0
 10
67.58812254169672
 20
-124.8058186536944
 30
0.0
 10
67.58812254169672
 20
-124.6662922865418
 30
0.0
 10
67.48873153694727
 20
-124.5138468113195
 30
0.0
 10
67.25601533691864
 20
-124.5138468113195
 30
0.0
 10
67.00004474236458
 20
-124.5138468113195
 30
0.0
 10
66.93028155878827
 20
-124.6936807956495
 30
0.0
 10
66.93028155878827
 20
-124.8142591376332
 30
0.0
 10
66.93028155878827
 20
-124.8459540160976
 30
0.0
 10
66.93028155878827
 20
-124.9877196953156
 30
0.0
 10
67.05930038471087
 20
-125.076603158835
 30
0.0
 10
67.05930038471087
 20
-125.076603158835
 30
0.0
 10
67.04018010476774
 20
-125.2521307738085
 30
0.0
 10
67.04018010476774
 20
-125.2521307738085
 30
0.0
 10
67.04018010476774
 20
-125.2521307738085
 30
0.0
 10
66.19406465359037
 20
-125.1315524318248
 30
0.0
 10
66.19406465359037
 20
-125.1315524318248
 30
0.0
 10
66.19406465359037
 20
-125.1315524318248
 30
0.0
 10
66.19406465359037
 20
-124.3531331069326
 30
0.0
 10
66.19406465359037
 20
-124.3531331069326
 30
0.0
 10
66.19406465359037
 20
-124.3531331069326
 30
0.0
 10
66.38871254850699
 20
-124.3531331069326
 30
0.0
 10
66.38871254850699
 20
-124.3531331069326
 30
0.0
 10
66.38871254850699
 20
-124.3531331069326
 30
0.0
 10
66.38871254850699
 20
-124.9687716701467
 30
0.0
 10
66.38871254850699
 20
-124.9687716701467
 30
0.0
 10
66.38871254850699
 20
-124.9687716701467
 30
0.0
 10
66.81177027409566
 20
-125.0342284843665
 30
0.0
 10
66.81177027409566
 20
-125.0342284843665
 30
0.0
 10
66.77783608356596
 20
-124.972905784729
 30
0.0
 10
66.7377007211628
 20
-124.8903957478573
 30
0.0
 10
66.7377007211628
 20
-124.7720567179389
 30
0.0
 10
66.7377007211628
 20
-124.518153180676
 30
0.0
 10
66.92390813214055
 20
-124.2811306112908
 30
0.0
 10
67.2368950569755
 20
-124.2811306112908
 30
0.0
 10
67.55436060594127
 20
-124.2811306112908
 30
0.0
 10
67.78914386326105
 20
-124.5054063273806
 30
0.0
 10
67.78914386326105
 20
-124.8078857109855
 30
0.0
  0
HATCH
  5
89
330
82
100
AcDbEntity
  8
_U+30EC_U+30A4_U+30E4_U+30FC 1
 62
   179
420
  2234388
100
AcDbHatch
 10
0.0
 20
0.0
 30
0.0
210
0.0
220
0.0
230
1.0
  2
SOLID
 70
     1
 71
     0
 91
        1
 92
        1
 93
        1
 72
     4
 94
        3
 73
     0
 74
     1
 95
       53
 96
       49
 40
0.0
 40
0.0
 40
0.0
 40
0.0
 40
1.0
 40
1.0
 40
1.0
 40
2.0
 40
2.0
 40
2.0
 40
3.0
 40
3.0
 40
3.0
 40
4.0
 40
4.0
 40
4.0
 40
5.0
 40
5.0
 40
5.0
 40
6.0
 40
6.0
 40
6.0
 40
7.0
 40
7.0
 40
7.0
 40
8.0
 40
8.0
 40
8.0
 40
9.0
 40
9.0
 40
9.0
 40
10.0
 40
10.0
 40
10.0
 40
11.0
 40
11.0
 40
11.0
 40
12.0
 40
12.0
 40
12.0
 40
13.0
 40
13.0
 40
13.0
 40
14.0
 40
14.0
 40
14.0
 40
15.0
 40
15.0
 40
15.0
 40
16.0
 40
16.0
 40
16.0
 40
16.0
 10
67.78914386326105
 20
-124.8078857109855
 10
67.78914386326105
 20
-124.886261633275
 10
67.77209064060906
 20
-124.9877196953156
 10
67.70870088368046
 20
-125.0893500121305
 10
67.59863008292673
 20
-125.2628105698128
 10
67.46754419971298
 20
-125.2839979070471
 10
67.35971271102466
 20
-125.3029459322159
 10
67.35971271102466
 20
-125.3029459322159
 10
67.35971271102466
 20
-125.0809095281916
 10
67.35971271102466
 20
-125.0809095281916
 10
67.55849472052357
 20
-125.0257880004276
 10
67.58812254169672
 20
-124.8988362317961
 10
67.58812254169672
 20
-124.8058186536944
 10
67.58812254169672
 20
-124.6662922865418
 10
67.48873153694727
 20
-124.5138468113195
 10
67.25601533691864
 20
-124.5138468113195
 10
67.00004474236458
 20
-124.5138468113195
 10
66.93028155878827
 20
-124.6936807956495
 10
66.93028155878827
 20
-124.8142591376332
 10
66.93028155878827
 20
-124.8459540160976
 10
66.93028155878827
 20
-124.9877196953156
 10
67.05930038471087
 20
-125.076603158835
 10
67.05930038471087
 20
-125.076603158835
 10
67.04018010476774
 20
-125.2521307738085
 10
67.04018010476774
 20
-125.2521307738085
 10
67.04018010476774
 20
-125.2521307738085
 10
66.19406465359037
 20
-125.1315524318248
 10
66.19406465359037
 20
-125.1315524318248
 10
66.19406465359037
 20
-125.1315524318248
 10
66.19406465359037
 20
-124.3531331069326
 10
66.19406465359037
 20
-124.3531331069326
 10
66.19406465359037
 20
-124.3531331069326
 10
66.38871254850699
 20
-124.3531331069326
 10
66.38871254850699
 20
-124.3531331069326
 10
66.38871254850699
 20
-124.3531331069326
 10
66.38871254850699
 20
-124.9687716701467
 10
66.38871254850699
 20
-124.9687716701467
 10
66.38871254850699
 20
-124.9687716701467
 10
66.81177027409566
 20
-125.0342284843665
 10
66.81177027409566
 20
-125.0342284843665
 10
66.77783608356596
 20
-124.972905784729
 10
66.7377007211628
 20
-124.8903957478573
 10
66.7377007211628
 20
-124.7720567179389
 10
66.7377007211628
 20
-124.518153180676
 10
66.92390813214055
 20
-124.2811306112908
 10
67.2368950569755
 20
-124.2811306112908
 10
67.55436060594127
 20
-124.2811306112908
 10
67.78914386326105
 20
-124.5054063273806
 10
67.78914386326105
 20
-124.8078857109855
 97
        0
 97
        0
 75
     2
 76
     1
 98
        0
  0
ENDBLK
  5
85
330
82
100
AcDbEntity
  8
0
100
AcDbBlockEnd
  0
BLOCK
  5
9B
330
99
100
AcDbEntity
  8
0
100
AcDbBlockBegin
  2
block 5
 70
     0
 10
0.0
 20
0.0
 30
0.0
  3
block 5
  1

  0
SPLINE
  5
9D
330
99
100
AcDbEntity
  8
_U+30EC_U+30A4_U+30E4_U+30FC 1
370
     0
100
AcDbSpline
210
0.0
220
0.0
230
1.0
 70
    11
 71
     3
 72
    17
 73
    13
 74
     0
 42
0.0000000001
 43
0.0000000001
 12
1.0
 22
0.0
 32
0.0
 13
1.0
 23
0.0
 33
0.0
 40
0.0
 40
0.0
 40
0.0
 40
0.0
 40
1.0
 40
1.0
 40
1.0
 40
2.0
 40
2.0
 40
2.0
 40
3.0
 40
3.0
 40
3.0
 40
4.0
 40
4.0
 40
4.0
 40
4.0
 10
99.9218939637348
 20
-142.6899983367233
 30
0.0
 10
99.81612953233764
 20
-142.5842339053262
 30
0.0
 10
99.73551429798279
 20
-142.5463378549884
 30
0.0
 10
99.64249671988105
 20
-142.5146429765241
 30
0.0
 10
99.64249671988105
 20
-142.5146429765241
 30
0.0
 10
99.75273977540904
 20
-142.3492783932321
 30
0.0
 10
99.75273977540904
 20
-142.3492783932321
 30
0.0
 10
99.84989146809309
 20
-142.3919975772492
 30
0.0
 10
99.97046981007684
 20
-142.4698567352159
 30
0.0
 10
100.0235242805497
 20
-142.5249782629799
 30
0.0
 10
100.0235242805497
 20
-142.5249782629799
 30
0.0
 10
99.9218939637348
 20
-142.6899983367233
 30
0.0
 10
99.9218939637348
 20
-142.6899983367233
 30
0.0
  0
SPLINE
  5
9E
330
99
100
AcDbEntity
  8
_U+30EC_U+30A4_U+30E4_U+30FC 1
370
     0
100
AcDbSpline
210
0.0
220
0.0
230
1.0
 70
    11
 71
     3
 72
   182
 73
   178
 74
     0
 42
0.0000000001
 43
0.0000000001
 12
1.0
 22
0.0
 32
0.0
 13
1.0
 23
0.0
 33
0.0
 40
0.0
 40
0.0
 40
0.0
 40
0.0
 40
1.0
 40
1.0
 40
1.0
 40
2.0
 40
2.0
 40
2.0
 40
3.0
 40
3.0
 40
3.0
 40
4.0
 40
4.0
 40
4.0
 40
5.0
 40
5.0
 40
5.0
 40
6.0
 40
6.0
 40
6.0
 40
7.0
 40
7.0
 40
7.0
 40
8.0
 40
8.0
 40
8.0
 40
9.0
 40
9.0
 40
9.0
 40
10.0
 40
10.0
 40
10.0
 40
11.0
 40
11.0
 40
11.0
 40
12.0
 40
12.0
 40
12.0
 40
13.0
 40
13.0
 40
13.0
 40
14.0
 40
14.0
 40
14.0
 40
15.0
 40
15.0
 40
15.0
 40
16.0
 40
16.0
 40
16.0
 40
17.0
 40
17.0
 40
17.0
 40
18.0
 40
18.0
 40
18.0
 40
19.0
 40
19.0
 40
19.0
 40
20.0
 40
20.0
 40
20.0
 40
21.0
 40
21.0
 40
21.0
 40
22.0
 40
22.0
 40
22.0
 40
23.0
 40
23.0
 40
23.0
 40
24.0
 40
24.0
 40
24.0
 40
25.0
 40
25.0
 40
25.0
 40
26.0
 40
26.0
 40
26.0
 40
27.0
 40
27.0
 40
27.0
 40
28.0
 40
28.0
 40
28.0
 40
29.0
 40
29.0
 40
29.0
 40
30.0
 40
30.0
 40
30.0
 40
31.0
 40
31.0
 40
31.0
 40
32.0
 40
32.0
 40
32.0
 40
33.0
 40
33.0
 40
33.0
 40
34.0
 40
34.0
 40
34.0
 40
35.0
 40
35.0
 40
35.0
 40
36.0
 40
36.0
 40
36.0
 40
37.0
 40
37.0
 40
37.0
 40
38.0
 40
38.0
 40
38.0
 40
39.0
 40
39.0
 40
39.0
 40
40.0
 40
40.0
 40
40.0
 40
41.0
 40
41.0
 40
41.0
 40
42.0
 40
42.0
 40
42.0
 40
43.0
 40
43.0
 40
43.0
 40
44.0
 40
44.0
 40
44.0
 40
45.0
 40
45.0
 40
45.0
 40
46.0
 40
46.0
 40
46.0
 40
47.0
 40
47.0
 40
47.0
 40
48.0
 40
48.0
 40
48.0
 40
49.0
 40
49.0
 40
49.0
 40
50.0
 40
50.0
 40
50.0
 40
51.0
 40
51.0
 40
51.0
 40
52.0
 40
52.0
 40
52.0
 40
53.0
 40
53.0
 40
53.0
 40
54.0
 40
54.0
 40
54.0
 40
55.0
 40
55.0
 40
55.0
 40
56.0
 40
56.0
 40
56.0
 40
57.0
 40
57.0
 40
57.0
 40
58.0
 40
58.0
 40
58.0
 40
59.0
 40
59.0
 40
59.0
 40
59.0
 10
100.9667914244111
 20
-143.8685655022273
 30
0.0
 10
100.9667914244111
 20
-143.8685655022273
 30
0.0
 10
100.3301377787369
 20
-143.8685655022273
 30
0.0
 10
100.3301377787369
 20
-143.8685655022273
 30
0.0
 10
100.1165418586514
 20
-143.8685655022273
 30
0.0
 10
99.90053437172627
 20
-143.8726996168096
 30
0.0
 10
99.68693845164077
 20
-143.8851019605565
 30
0.0
 10
99.68693845164077
 20
-143.8851019605565
 30
0.0
 10
99.68693845164077
 20
-143.678051721893
 30
0.0
 10
99.68693845164077
 20
-143.678051721893
 30
0.0
 10
99.90914711043938
 20
-143.6907985751884
 30
0.0
 10
100.2326415765043
 20
-143.6949326897707
 30
0.0
 10
100.3301377787369
 20
-143.6949326897707
 30
0.0
 10
100.3301377787369
 20
-143.6949326897707
 30
0.0
 10
100.5502793802444
 20
-143.6949326897707
 30
0.0
 10
100.5502793802444
 20
-143.6949326897707
 30
0.0
 10
100.5502793802444
 20
-143.6949326897707
 30
0.0
 10
100.5502793802444
 20
-143.5529947557784
 30
0.0
 10
100.5502793802444
 20
-143.5529947557784
 30
0.0
 10
100.5502793802444
 20
-143.5529947557784
 30
0.0
 10
100.3893934210832
 20
-143.5529947557784
 30
0.0
 10
100.3893934210832
 20
-143.5529947557784
 30
0.0
 10
100.2243733473397
 20
-143.5529947557784
 30
0.0
 10
100.0593532735963
 20
-143.5574733799093
 30
0.0
 10
99.89433319985281
 20
-143.5722872904958
 30
0.0
 10
99.89433319985281
 20
-143.5722872904958
 30
0.0
 10
99.89433319985281
 20
-143.3628254849926
 30
0.0
 10
99.89433319985281
 20
-143.3628254849926
 30
0.0
 10
100.0655544454697
 20
-143.3776393955792
 30
0.0
 10
100.3132568108592
 20
-143.3817735101615
 30
0.0
 10
100.3893934210832
 20
-143.3817735101615
 30
0.0
 10
100.3893934210832
 20
-143.3817735101615
 30
0.0
 10
100.5502793802444
 20
-143.3817735101615
 30
0.0
 10
100.5502793802444
 20
-143.3817735101615
 30
0.0
 10
100.5458007561136
 20
-143.3097710145198
 30
0.0
 10
100.5458007561136
 20
-143.3035698426463
 30
0.0
 10
100.5395995842401
 20
-143.2505153721735
 30
0.0
 10
100.5395995842401
 20
-143.2505153721735
 30
0.0
 10
100.6791259513927
 20
-143.2656737923086
 30
0.0
 10
100.6791259513927
 20
-143.2656737923086
 30
0.0
 10
100.6791259513927
 20
-143.2656737923086
 30
0.0
 10
100.5799072014175
 20
-143.0941080371431
 30
0.0
 10
100.5799072014175
 20
-143.0941080371431
 30
0.0
 10
100.6264159904684
 20
-143.1003092090166
 30
0.0
 10
100.7004855434013
 20
-143.1089219477297
 30
0.0
 10
100.717366511279
 20
-143.1089219477297
 30
0.0
 10
100.7680094149122
 20
-143.1089219477297
 30
0.0
 10
100.7848903827899
 20
-143.0879068652697
 30
0.0
 10
100.7848903827899
 20
-143.0307182802146
 30
0.0
 10
100.7848903827899
 20
-143.0307182802146
 30
0.0
 10
100.7848903827899
 20
-142.8929144608045
 30
0.0
 10
100.7848903827899
 20
-142.8929144608045
 30
0.0
 10
100.7848903827899
 20
-142.8929144608045
 30
0.0
 10
100.6791259513927
 20
-142.8929144608045
 30
0.0
 10
100.6791259513927
 20
-142.8929144608045
 30
0.0
 10
100.5458007561136
 20
-142.8929144608045
 30
0.0
 10
100.3893934210832
 20
-142.8929144608045
 30
0.0
 10
100.2667480218083
 20
-142.9060058236485
 30
0.0
 10
100.2667480218083
 20
-142.9060058236485
 30
0.0
 10
100.2667480218083
 20
-142.7154920433142
 30
0.0
 10
100.2667480218083
 20
-142.7154920433142
 30
0.0
 10
100.4338351528429
 20
-142.7323730111919
 30
0.0
 10
100.6643120408062
 20
-142.7344400684831
 30
0.0
 10
100.6791259513927
 20
-142.7344400684831
 30
0.0
 10
100.6791259513927
 20
-142.7344400684831
 30
0.0
 10
100.7848903827899
 20
-142.7344400684831
 30
0.0
 10
100.7848903827899
 20
-142.7344400684831
 30
0.0
 10
100.7848903827899
 20
-142.7344400684831
 30
0.0
 10
100.7848903827899
 20
-142.6035264400436
 30
0.0
 10
100.7848903827899
 20
-142.6035264400436
 30
0.0
 10
100.7848903827899
 20
-142.6035264400436
 30
0.0
 10
100.7469943324521
 20
-142.6035264400436
 30
0.0
 10
100.7469943324521
 20
-142.6035264400436
 30
0.0
 10
100.7025526006924
 20
-142.6035264400436
 30
0.0
 10
100.5774956345779
 20
-142.6076605546259
 30
0.0
 10
100.4886121710584
 20
-142.6159287837905
 30
0.0
 10
100.4886121710584
 20
-142.6159287837905
 30
0.0
 10
100.4886121710584
 20
-142.5356580589842
 30
0.0
 10
100.4886121710584
 20
-142.5356580589842
 30
0.0
 10
100.4359022101341
 20
-142.5738986188704
 30
0.0
 10
100.4104085035432
 20
-142.5883680199085
 30
0.0
 10
100.3680338290747
 20
-142.6117946692082
 30
0.0
 10
100.3680338290747
 20
-142.6117946692082
 30
0.0
 10
100.17993161558
 20
-142.4829480980598
 30
0.0
 10
100.17993161558
 20
-142.4829480980598
 30
0.0
 10
100.2581352830952
 20
-142.4488416527558
 30
0.0
 10
100.4148871276741
 20
-142.3854518958273
 30
0.0
 10
100.5712944627044
 20
-142.2417914140923
 30
0.0
 10
100.6536322448019
 20
-142.1632432370286
 30
0.0
 10
100.7321804218656
 20
-142.0784938880915
 30
0.0
 10
100.7848903827899
 20
-141.9772080808251
 30
0.0
 10
100.7848903827899
 20
-141.9772080808251
 30
0.0
 10
100.9964192455842
 20
-142.0385307804626
 30
0.0
 10
100.9964192455842
 20
-142.0385307804626
 30
0.0
 10
101.0157117803016
 20
-142.044731952336
 30
0.0
 10
101.0260470667574
 20
-142.0533446910492
 30
0.0
 10
101.0260470667574
 20
-142.0660915443446
 30
0.0
 10
101.0260470667574
 20
-142.0829725122223
 30
0.0
 10
101.013300213462
 20
-142.0891736840958
 30
0.0
 10
100.9881510164196
 20
-142.1019205373912
 30
0.0
 10
101.068421741226
 20
-142.1990722300752
 30
0.0
 10
101.2313747576783
 20
-142.2965684323078
 30
0.0
 10
101.2651366934337
 20
-142.3155164574767
 30
0.0
 10
101.4153428565906
 20
-142.4043999209961
 30
0.0
 10
101.5297200267009
 20
-142.4319606848781
 30
0.0
 10
101.6079236942161
 20
-142.450908710047
 30
0.0
 10
101.6079236942161
 20
-142.450908710047
 30
0.0
 10
101.4894124095235
 20
-142.6200628983728
 30
0.0
 10
101.4894124095235
 20
-142.6200628983728
 30
0.0
 10
101.4046630605863
 20
-142.5904350771996
 30
0.0
 10
101.3540201569532
 20
-142.5718315615793
 30
0.0
 10
101.2355088722606
 20
-142.506030237811
 30
0.0
 10
101.2355088722606
 20
-142.506030237811
 30
0.0
 10
101.2355088722606
 20
-142.6159287837905
 30
0.0
 10
101.2355088722606
 20
-142.6159287837905
 30
0.0
 10
101.1531710901631
 20
-142.6076605546259
 30
0.0
 10
101.0260470667574
 20
-142.6035264400436
 30
0.0
 10
100.9733371058331
 20
-142.6035264400436
 30
0.0
 10
100.9733371058331
 20
-142.6035264400436
 30
0.0
 10
100.9733371058331
 20
-142.7344400684831
 30
0.0
 10
100.9733371058331
 20
-142.7344400684831
 30
0.0
 10
100.9733371058331
 20
-142.7344400684831
 30
0.0
 10
101.0939154478168
 20
-142.7344400684831
 30
0.0
 10
101.0939154478168
 20
-142.7344400684831
 30
0.0
 10
101.095982505108
 20
-142.7344400684831
 30
0.0
 10
101.3285264503623
 20
-142.7323730111919
 30
0.0
 10
101.5062933774012
 20
-142.7154920433142
 30
0.0
 10
101.5062933774012
 20
-142.7154920433142
 30
0.0
 10
101.5062933774012
 20
-142.9060058236485
 30
0.0
 10
101.5062933774012
 20
-142.9060058236485
 30
0.0
 10
101.3774468062529
 20
-142.8929144608045
 30
0.0
 10
101.220694961674
 20
-142.8929144608045
 30
0.0
 10
101.0939154478168
 20
-142.8929144608045
 30
0.0
 10
101.0939154478168
 20
-142.8929144608045
 30
0.0
 10
100.9733371058331
 20
-142.8929144608045
 30
0.0
 10
100.9733371058331
 20
-142.8929144608045
 30
0.0
 10
100.9733371058331
 20
-142.8929144608045
 30
0.0
 10
100.9733371058331
 20
-143.119601743734
 30
0.0
 10
100.9733371058331
 20
-143.119601743734
 30
0.0
 10
100.9733371058331
 20
-143.2381130284266
 30
0.0
 10
100.9478433992422
 20
-143.2739420214732
 30
0.0
 10
100.786957440081
 20
-143.2887559320598
 30
0.0
 10
100.7914360642119
 20
-143.3077039572286
 30
0.0
 10
100.7848903827899
 20
-143.3183837532329
 30
0.0
 10
100.7469943324521
 20
-143.3414658929841
 30
0.0
 10
100.744927275161
 20
-143.3607584277015
 30
0.0
 10
100.744927275161
 20
-143.3669595995749
 30
0.0
 10
100.7425157083213
 20
-143.3817735101615
 30
0.0
 10
100.7425157083213
 20
-143.3817735101615
 30
0.0
 10
100.8799750181828
 20
-143.3817735101615
 30
0.0
 10
100.8799750181828
 20
-143.3817735101615
 30
0.0
 10
101.0449950919263
 20
-143.3817735101615
 30
0.0
 10
101.2124267325094
 20
-143.3776393955792
 30
0.0
 10
101.379513863544
 20
-143.3628254849926
 30
0.0
 10
101.379513863544
 20
-143.3628254849926
 30
0.0
 10
101.379513863544
 20
-143.5702202332047
 30
0.0
 10
101.379513863544
 20
-143.5702202332047
 30
0.0
 10
101.1635063766189
 20
-143.5529947557784
 30
0.0
 10
100.8992675529002
 20
-143.5529947557784
 30
0.0
 10
100.8799750181828
 20
-143.5529947557784
 30
0.0
 10
100.8799750181828
 20
-143.5529947557784
 30
0.0
 10
100.7404486510302
 20
-143.5529947557784
 30
0.0
 10
100.7404486510302
 20
-143.5529947557784
 30
0.0
 10
100.7404486510302
 20
-143.5529947557784
 30
0.0
 10
100.7404486510302
 20
-143.6949326897707
 30
0.0
 10
100.7404486510302
 20
-143.6949326897707
 30
0.0
 10
100.7404486510302
 20
-143.6949326897707
 30
0.0
 10
100.9667914244111
 20
-143.6949326897707
 30
0.0
 10
100.9667914244111
 20
-143.6949326897707
 30
0.0
 10
101.1827989113362
 20
-143.6949326897707
 30
0.0
 10
101.400528946004
 20
-143.6907985751884
 30
0.0
 10
101.6161919233807
 20
-143.678051721893
 30
0.0
 10
101.6161919233807
 20
-143.678051721893
 30
0.0
 10
101.6161919233807
 20
-143.8851019605565
 30
0.0
 10
101.6161919233807
 20
-143.8851019605565
 30
0.0
 10
101.3350721317843
 20
-143.8685655022273
 30
0.0
 10
100.9902180737108
 20
-143.8685655022273
 30
0.0
 10
100.9667914244111
 20
-143.8685655022273
 30
0.0
  0
SPLINE
  5
9F
330
99
100
AcDbEntity
  8
_U+30EC_U+30A4_U+30E4_U+30FC 1
370
     0
100
AcDbSpline
210
0.0
220
0.0
230
1.0
 70
    11
 71
     3
 72
    23
 73
    19
 74
     0
 42
0.0000000001
 43
0.0000000001
 12
1.0
 22
0.0
 32
0.0
 13
1.0
 23
0.0
 33
0.0
 40
0.0
 40
0.0
 40
0.0
 40
0.0
 40
1.0
 40
1.0
 40
1.0
 40
2.0
 40
2.0
 40
2.0
 40
3.0
 40
3.0
 40
3.0
 40
4.0
 40
4.0
 40
4.0
 40
5.0
 40
5.0
 40
5.0
 40
6.0
 40
6.0
 40
6.0
 40
6.0
 10
99.84782441080193
 20
-143.2401800857178
 30
0.0
 10
99.84782441080193
 20
-143.2611951681777
 30
0.0
 10
99.84989146809309
 20
-143.299435728064
 30
0.0
 10
99.82439776150224
 20
-143.299435728064
 30
0.0
 10
99.81406247504648
 20
-143.299435728064
 30
0.0
 10
99.80544973633336
 20
-143.2928900466421
 30
0.0
 10
99.79476994032909
 20
-143.2760090787643
 30
0.0
 10
99.79476994032909
 20
-143.2760090787643
 30
0.0
 10
99.69107256622307
 20
-143.0941080371431
 30
0.0
 10
99.69107256622307
 20
-143.0941080371431
 30
0.0
 10
99.90708005314823
 20
-142.9652614659948
 30
0.0
 10
100.103795005356
 20
-142.6879312794322
 30
0.0
 10
100.1503037944069
 20
-142.6159287837905
 30
0.0
 10
100.1503037944069
 20
-142.6159287837905
 30
0.0
 10
100.2223062900486
 20
-142.7957627681205
 30
0.0
 10
100.2223062900486
 20
-142.7957627681205
 30
0.0
 10
100.0889810947694
 20
-142.9924777203283
 30
0.0
 10
99.91328122502168
 20
-143.1767903287891
 30
0.0
 10
99.84782441080193
 20
-143.2401800857178
 30
0.0
  0
SPLINE
  5
A0
330
99
100
AcDbEntity
  8
_U+30EC_U+30A4_U+30E4_U+30FC 1
370
     0
100
AcDbSpline
210
0.0
220
0.0
230
1.0
 70
    11
 71
     3
 72
    17
 73
    13
 74
     0
 42
0.0000000001
 43
0.0000000001
 12
1.0
 22
0.0
 32
0.0
 13
1.0
 23
0.0
 33
0.0
 40
0.0
 40
0.0
 40
0.0
 40
0.0
 40
1.0
 40
1.0
 40
1.0
 40
2.0
 40
2.0
 40
2.0
 40
3.0
 40
3.0
 40
3.0
 40
4.0
 40
4.0
 40
4.0
 40
4.0
 10
100.1017279480648
 20
-142.3451442786498
 30
0.0
 10
100.0404052484274
 20
-142.2690076684258
 30
0.0
 10
99.91121416773053
 20
-142.1928710582018
 30
0.0
 10
99.80751679362452
 20
-142.1632432370286
 30
0.0
 10
99.80751679362452
 20
-142.1632432370286
 30
0.0
 10
99.90294593856594
 20
-141.9982231632852
 30
0.0
 10
99.90294593856594
 20
-141.9982231632852
 30
0.0
 10
100.0042317458323
 20
-142.0343966658803
 30
0.0
 10
100.1099961772294
 20
-142.0915852509355
 30
0.0
 10
100.1988796407489
 20
-142.1715114661932
 30
0.0
 10
100.1988796407489
 20
-142.1715114661932
 30
0.0
 10
100.1017279480648
 20
-142.3451442786498
 30
0.0
 10
100.1017279480648
 20
-142.3451442786498
 30
0.0
  0
SPLINE
  5
A1
330
99
100
AcDbEntity
  8
_U+30EC_U+30A4_U+30E4_U+30FC 1
370
     0
100
AcDbSpline
210
0.0
220
0.0
230
1.0
 70
    11
 71
     3
 72
    23
 73
    19
 74
     0
 42
0.0000000001
 43
0.0000000001
 12
1.0
 22
0.0
 32
0.0
 13
1.0
 23
0.0
 33
0.0
 40
0.0
 40
0.0
 40
0.0
 40
0.0
 40
1.0
 40
1.0
 40
1.0
 40
2.0
 40
2.0
 40
2.0
 40
3.0
 40
3.0
 40
3.0
 40
4.0
 40
4.0
 40
4.0
 40
5.0
 40
5.0
 40
5.0
 40
6.0
 40
6.0
 40
6.0
 40
6.0
 10
100.5544134948267
 20
-143.0496663053834
 30
0.0
 10
100.5330539028181
 20
-143.0727484451346
 30
0.0
 10
100.4359022101341
 20
-143.1850585579537
 30
0.0
 10
100.2963758429815
 20
-143.2656737923086
 30
0.0
 10
100.2963758429815
 20
-143.2656737923086
 30
0.0
 10
100.1292887119469
 20
-143.1450954503248
 30
0.0
 10
100.1292887119469
 20
-143.1450954503248
 30
0.0
 10
100.2794948751037
 20
-143.0686143305523
 30
0.0
 10
100.3787136250789
 20
-142.9735296951594
 30
0.0
 10
100.427289471421
 20
-142.9204752246866
 30
0.0
 10
100.427289471421
 20
-142.9204752246866
 30
0.0
 10
100.6009222838776
 20
-143.0031575163325
 30
0.0
 10
100.6009222838776
 20
-143.0031575163325
 30
0.0
 10
100.6091905130422
 20
-143.0072916309149
 30
0.0
 10
100.6178032517553
 20
-143.0134928027883
 30
0.0
 10
100.6178032517553
 20
-143.0245171083411
 30
0.0
 10
100.6178032517553
 20
-143.0496663053834
 30
0.0
 10
100.5819742587087
 20
-143.0496663053834
 30
0.0
 10
100.5544134948267
 20
-143.0496663053834
 30
0.0
  0
SPLINE
  5
A2
330
99
100
AcDbEntity
  8
_U+30EC_U+30A4_U+30E4_U+30FC 1
370
     0
100
AcDbSpline
210
0.0
220
0.0
230
1.0
 70
    11
 71
     3
 72
    20
 73
    16
 74
     0
 42
0.0000000001
 43
0.0000000001
 12
1.0
 22
0.0
 32
0.0
 13
1.0
 23
0.0
 33
0.0
 40
0.0
 40
0.0
 40
0.0
 40
0.0
 40
1.0
 40
1.0
 40
1.0
 40
2.0
 40
2.0
 40
2.0
 40
3.0
 40
3.0
 40
3.0
 40
4.0
 40
4.0
 40
4.0
 40
5.0
 40
5.0
 40
5.0
 40
5.0
 10
100.8527587638493
 20
-142.2076849687884
 30
0.0
 10
100.814518203963
 20
-142.2562608151304
 30
0.0
 10
100.7531955043256
 20
-142.3348089921941
 30
0.0
 10
100.613669137173
 20
-142.4447075381736
 30
0.0
 10
100.6939398619793
 20
-142.4488416527558
 30
0.0
 10
100.7235676831525
 20
-142.4488416527558
 30
0.0
 10
100.7469943324521
 20
-142.4488416527558
 30
0.0
 10
100.7469943324521
 20
-142.4488416527558
 30
0.0
 10
100.9754041631242
 20
-142.4488416527558
 30
0.0
 10
100.9754041631242
 20
-142.4488416527558
 30
0.0
 10
101.0070990415885
 20
-142.4488416527558
 30
0.0
 10
101.0556748879305
 20
-142.4467745954647
 30
0.0
 10
101.1297444408634
 20
-142.4447075381736
 30
0.0
 10
101.0177788375928
 20
-142.3706379852407
 30
0.0
 10
100.9688584817022
 20
-142.3241291961898
 30
0.0
 10
100.8527587638493
 20
-142.2076849687884
 30
0.0
  0
SPLINE
  5
A3
330
99
100
AcDbEntity
  8
_U+30EC_U+30A4_U+30E4_U+30FC 1
370
     0
100
AcDbSpline
210
0.0
220
0.0
230
1.0
 70
    11
 71
     3
 72
    17
 73
    13
 74
     0
 42
0.0000000001
 43
0.0000000001
 12
1.0
 22
0.0
 32
0.0
 13
1.0
 23
0.0
 33
0.0
 40
0.0
 40
0.0
 40
0.0
 40
0.0
 40
1.0
 40
1.0
 40
1.0
 40
2.0
 40
2.0
 40
2.0
 40
3.0
 40
3.0
 40
3.0
 40
4.0
 40
4.0
 40
4.0
 40
4.0
 10
101.4132757992995
 20
-143.2632622254689
 30
0.0
 10
101.2778835467291
 20
-143.1512966221983
 30
0.0
 10
101.172119115332
 20
-143.0879068652697
 30
0.0
 10
101.0536078306394
 20
-143.0245171083411
 30
0.0
 10
101.0536078306394
 20
-143.0245171083411
 30
0.0
 10
101.1803873444966
 20
-142.912206995522
 30
0.0
 10
101.1803873444966
 20
-142.912206995522
 30
0.0
 10
101.3116454824846
 20
-142.9587157845728
 30
0.0
 10
101.4215440284641
 20
-143.015904369628
 30
0.0
 10
101.5466009945786
 20
-143.1175346864428
 30
0.0
 10
101.5466009945786
 20
-143.1175346864428
 30
0.0
 10
101.4132757992995
 20
-143.2632622254689
 30
0.0
 10
101.4132757992995
 20
-143.2632622254689
 30
0.0
  0
HATCH
  5
A4
330
99
100
AcDbEntity
  8
_U+30EC_U+30A4_U+30E4_U+30FC 1
 62
   179
420
  2234388
100
AcDbHatch
 10
0.0
 20
0.0
 30
0.0
210
0.0
220
0.0
230
1.0
  2
SOLID
 70
     1
 71
     0
 91
        7
 92
        1
 93
        1
 72
     4
 94
        3
 73
     0
 74
     1
 95
       17
 96
       13
 40
0.0
 40
0.0
 40
0.0
 40
0.0
 40
1.0
 40
1.0
 40
1.0
 40
2.0
 40
2.0
 40
2.0
 40
3.0
 40
3.0
 40
3.0
 40
4.0
 40
4.0
 40
4.0
 40
4.0
 10
99.9218939637348
 20
-142.6899983367233
 10
99.81612953233764
 20
-142.5842339053262
 10
99.73551429798279
 20
-142.5463378549884
 10
99.64249671988105
 20
-142.5146429765241
 10
99.64249671988105
 20
-142.5146429765241
 10
99.75273977540904
 20
-142.3492783932321
 10
99.75273977540904
 20
-142.3492783932321
 10
99.84989146809309
 20
-142.3919975772492
 10
99.97046981007684
 20
-142.4698567352159
 10
100.0235242805497
 20
-142.5249782629799
 10
100.0235242805497
 20
-142.5249782629799
 10
99.9218939637348
 20
-142.6899983367233
 10
99.9218939637348
 20
-142.6899983367233
 97
        0
 97
        0
 92
        1
 93
        1
 72
     4
 94
        3
 73
     0
 74
     1
 95
      182
 96
      178
 40
0.0
 40
0.0
 40
0.0
 40
0.0
 40
1.0
 40
1.0
 40
1.0
 40
2.0
 40
2.0
 40
2.0
 40
3.0
 40
3.0
 40
3.0
 40
4.0
 40
4.0
 40
4.0
 40
5.0
 40
5.0
 40
5.0
 40
6.0
 40
6.0
 40
6.0
 40
7.0
 40
7.0
 40
7.0
 40
8.0
 40
8.0
 40
8.0
 40
9.0
 40
9.0
 40
9.0
 40
10.0
 40
10.0
 40
10.0
 40
11.0
 40
11.0
 40
11.0
 40
12.0
 40
12.0
 40
12.0
 40
13.0
 40
13.0
 40
13.0
 40
14.0
 40
14.0
 40
14.0
 40
15.0
 40
15.0
 40
15.0
 40
16.0
 40
16.0
 40
16.0
 40
17.0
 40
17.0
 40
17.0
 40
18.0
 40
18.0
 40
18.0
 40
19.0
 40
19.0
 40
19.0
 40
20.0
 40
20.0
 40
20.0
 40
21.0
 40
21.0
 40
21.0
 40
22.0
 40
22.0
 40
22.0
 40
23.0
 40
23.0
 40
23.0
 40
24.0
 40
24.0
 40
24.0
 40
25.0
 40
25.0
 40
25.0
 40
26.0
 40
26.0
 40
26.0
 40
27.0
 40
27.0
 40
27.0
 40
28.0
 40
28.0
 40
28.0
 40
29.0
 40
29.0
 40
29.0
 40
30.0
 40
30.0
 40
30.0
 40
31.0
 40
31.0
 40
31.0
 40
32.0
 40
32.0
 40
32.0
 40
33.0
 40
33.0
 40
33.0
 40
34.0
 40
34.0
 40
34.0
 40
35.0
 40
35.0
 40
35.0
 40
36.0
 40
36.0
 40
36.0
 40
37.0
 40
37.0
 40
37.0
 40
38.0
 40
38.0
 40
38.0
 40
39.0
 40
39.0
 40
39.0
 40
40.0
 40
40.0
 40
40.0
 40
41.0
 40
41.0
 40
41.0
 40
42.0
 40
42.0
 40
42.0
 40
43.0
 40
43.0
 40
43.0
 40
44.0
 40
44.0
 40
44.0
 40
45.0
 40
45.0
 40
45.0
 40
46.0
 40
46.0
 40
46.0
 40
47.0
 40
47.0
 40
47.0
 40
48.0
 40
48.0
 40
48.0
 40
49.0
 40
49.0
 40
49.0
 40
50.0
 40
50.0
 40
50.0
 40
51.0
 40
51.0
 40
51.0
 40
52.0
 40
52.0
 40
52.0
 40
53.0
 40
53.0
 40
53.0
 40
54.0
 40
54.0
 40
54.0
 40
55.0
 40
55.0
 40
55.0
 40
56.0
 40
56.0
 40
56.0
 40
57.0
 40
57.0
 40
57.0
 40
58.0
 40
58.0
 40
58.0
 40
59.0
 40
59.0
 40
59.0
 40
59.0
 10
100.9667914244111
 20
-143.8685655022273
 10
100.9667914244111
 20
-143.8685655022273
 10
100.3301377787369
 20
-143.8685655022273
 10
100.3301377787369
 20
-143.8685655022273
 10
100.1165418586514
 20
-143.8685655022273
 10
99.90053437172627
 20
-143.8726996168096
 10
99.68693845164077
 20
-143.8851019605565
 10
99.68693845164077
 20
-143.8851019605565
 10
99.68693845164077
 20
-143.678051721893
 10
99.68693845164077
 20
-143.678051721893
 10
99.90914711043938
 20
-143.6907985751884
 10
100.2326415765043
 20
-143.6949326897707
 10
100.3301377787369
 20
-143.6949326897707
 10
100.3301377787369
 20
-143.6949326897707
 10
100.5502793802444
 20
-143.6949326897707
 10
100.5502793802444
 20
-143.6949326897707
 10
100.5502793802444
 20
-143.6949326897707
 10
100.5502793802444
 20
-143.5529947557784
 10
100.5502793802444
 20
-143.5529947557784
 10
100.5502793802444
 20
-143.5529947557784
 10
100.3893934210832
 20
-143.5529947557784
 10
100.3893934210832
 20
-143.5529947557784
 10
100.2243733473397
 20
-143.5529947557784
 10
100.0593532735963
 20
-143.5574733799093
 10
99.89433319985281
 20
-143.5722872904958
 10
99.89433319985281
 20
-143.5722872904958
 10
99.89433319985281
 20
-143.3628254849926
 10
99.89433319985281
 20
-143.3628254849926
 10
100.0655544454697
 20
-143.3776393955792
 10
100.3132568108592
 20
-143.3817735101615
 10
100.3893934210832
 20
-143.3817735101615
 10
100.3893934210832
 20
-143.3817735101615
 10
100.5502793802444
 20
-143.3817735101615
 10
100.5502793802444
 20
-143.3817735101615
 10
100.5458007561136
 20
-143.3097710145198
 10
100.5458007561136
 20
-143.3035698426463
 10
100.5395995842401
 20
-143.2505153721735
 10
100.5395995842401
 20
-143.2505153721735
 10
100.6791259513927
 20
-143.2656737923086
 10
100.6791259513927
 20
-143.2656737923086
 10
100.6791259513927
 20
-143.2656737923086
 10
100.5799072014175
 20
-143.0941080371431
 10
100.5799072014175
 20
-143.0941080371431
 10
100.6264159904684
 20
-143.1003092090166
 10
100.7004855434013
 20
-143.1089219477297
 10
100.717366511279
 20
-143.1089219477297
 10
100.7680094149122
 20
-143.1089219477297
 10
100.7848903827899
 20
-143.0879068652697
 10
100.7848903827899
 20
-143.0307182802146
 10
100.7848903827899
 20
-143.0307182802146
 10
100.7848903827899
 20
-142.8929144608045
 10
100.7848903827899
 20
-142.8929144608045
 10
100.7848903827899
 20
-142.8929144608045
 10
100.6791259513927
 20
-142.8929144608045
 10
100.6791259513927
 20
-142.8929144608045
 10
100.5458007561136
 20
-142.8929144608045
 10
100.3893934210832
 20
-142.8929144608045
 10
100.2667480218083
 20
-142.9060058236485
 10
100.2667480218083
 20
-142.9060058236485
 10
100.2667480218083
 20
-142.7154920433142
 10
100.2667480218083
 20
-142.7154920433142
 10
100.4338351528429
 20
-142.7323730111919
 10
100.6643120408062
 20
-142.7344400684831
 10
100.6791259513927
 20
-142.7344400684831
 10
100.6791259513927
 20
-142.7344400684831
 10
100.7848903827899
 20
-142.7344400684831
 10
100.7848903827899
 20
-142.7344400684831
 10
100.7848903827899
 20
-142.7344400684831
 10
100.7848903827899
 20
-142.6035264400436
 10
100.7848903827899
 20
-142.6035264400436
 10
100.7848903827899
 20
-142.6035264400436
 10
100.7469943324521
 20
-142.6035264400436
 10
100.7469943324521
 20
-142.6035264400436
 10
100.7025526006924
 20
-142.6035264400436
 10
100.5774956345779
 20
-142.6076605546259
 10
100.4886121710584
 20
-142.6159287837905
 10
100.4886121710584
 20
-142.6159287837905
 10
100.4886121710584
 20
-142.5356580589842
 10
100.4886121710584
 20
-142.5356580589842
 10
100.4359022101341
 20
-142.5738986188704
 10
100.4104085035432
 20
-142.5883680199085
 10
100.3680338290747
 20
-142.6117946692082
 10
100.3680338290747
 20
-142.6117946692082
 10
100.17993161558
 20
-142.4829480980598
 10
100.17993161558
 20
-142.4829480980598
 10
100.2581352830952
 20
-142.4488416527558
 10
100.4148871276741
 20
-142.3854518958273
 10
100.5712944627044
 20
-142.2417914140923
 10
100.6536322448019
 20
-142.1632432370286
 10
100.7321804218656
 20
-142.0784938880915
 10
100.7848903827899
 20
-141.9772080808251
 10
100.7848903827899
 20
-141.9772080808251
 10
100.9964192455842
 20
-142.0385307804626
 10
100.9964192455842
 20
-142.0385307804626
 10
101.0157117803016
 20
-142.044731952336
 10
101.0260470667574
 20
-142.0533446910492
 10
101.0260470667574
 20
-142.0660915443446
 10
101.0260470667574
 20
-142.0829725122223
 10
101.013300213462
 20
-142.0891736840958
 10
100.9881510164196
 20
-142.1019205373912
 10
101.068421741226
 20
-142.1990722300752
 10
101.2313747576783
 20
-142.2965684323078
 10
101.2651366934337
 20
-142.3155164574767
 10
101.4153428565906
 20
-142.4043999209961
 10
101.5297200267009
 20
-142.4319606848781
 10
101.6079236942161
 20
-142.450908710047
 10
101.6079236942161
 20
-142.450908710047
 10
101.4894124095235
 20
-142.6200628983728
 10
101.4894124095235
 20
-142.6200628983728
 10
101.4046630605863
 20
-142.5904350771996
 10
101.3540201569532
 20
-142.5718315615793
 10
101.2355088722606
 20
-142.506030237811
 10
101.2355088722606
 20
-142.506030237811
 10
101.2355088722606
 20
-142.6159287837905
 10
101.2355088722606
 20
-142.6159287837905
 10
101.1531710901631
 20
-142.6076605546259
 10
101.0260470667574
 20
-142.6035264400436
 10
100.9733371058331
 20
-142.6035264400436
 10
100.9733371058331
 20
-142.6035264400436
 10
100.9733371058331
 20
-142.7344400684831
 10
100.9733371058331
 20
-142.7344400684831
 10
100.9733371058331
 20
-142.7344400684831
 10
101.0939154478168
 20
-142.7344400684831
 10
101.0939154478168
 20
-142.7344400684831
 10
101.095982505108
 20
-142.7344400684831
 10
101.3285264503623
 20
-142.7323730111919
 10
101.5062933774012
 20
-142.7154920433142
 10
101.5062933774012
 20
-142.7154920433142
 10
101.5062933774012
 20
-142.9060058236485
 10
101.5062933774012
 20
-142.9060058236485
 10
101.3774468062529
 20
-142.8929144608045
 10
101.220694961674
 20
-142.8929144608045
 10
101.0939154478168
 20
-142.8929144608045
 10
101.0939154478168
 20
-142.8929144608045
 10
100.9733371058331
 20
-142.8929144608045
 10
100.9733371058331
 20
-142.8929144608045
 10
100.9733371058331
 20
-142.8929144608045
 10
100.9733371058331
 20
-143.119601743734
 10
100.9733371058331
 20
-143.119601743734
 10
100.9733371058331
 20
-143.2381130284266
 10
100.9478433992422
 20
-143.2739420214732
 10
100.786957440081
 20
-143.2887559320598
 10
100.7914360642119
 20
-143.3077039572286
 10
100.7848903827899
 20
-143.3183837532329
 10
100.7469943324521
 20
-143.3414658929841
 10
100.744927275161
 20
-143.3607584277015
 10
100.744927275161
 20
-143.3669595995749
 10
100.7425157083213
 20
-143.3817735101615
 10
100.7425157083213
 20
-143.3817735101615
 10
100.8799750181828
 20
-143.3817735101615
 10
100.8799750181828
 20
-143.3817735101615
 10
101.0449950919263
 20
-143.3817735101615
 10
101.2124267325094
 20
-143.3776393955792
 10
101.379513863544
 20
-143.3628254849926
 10
101.379513863544
 20
-143.3628254849926
 10
101.379513863544
 20
-143.5702202332047
 10
101.379513863544
 20
-143.5702202332047
 10
101.1635063766189
 20
-143.5529947557784
 10
100.8992675529002
 20
-143.5529947557784
 10
100.8799750181828
 20
-143.5529947557784
 10
100.8799750181828
 20
-143.5529947557784
 10
100.7404486510302
 20
-143.5529947557784
 10
100.7404486510302
 20
-143.5529947557784
 10
100.7404486510302
 20
-143.5529947557784
 10
100.7404486510302
 20
-143.6949326897707
 10
100.7404486510302
 20
-143.6949326897707
 10
100.7404486510302
 20
-143.6949326897707
 10
100.9667914244111
 20
-143.6949326897707
 10
100.9667914244111
 20
-143.6949326897707
 10
101.1827989113362
 20
-143.6949326897707
 10
101.400528946004
 20
-143.6907985751884
 10
101.6161919233807
 20
-143.678051721893
 10
101.6161919233807
 20
-143.678051721893
 10
101.6161919233807
 20
-143.8851019605565
 10
101.6161919233807
 20
-143.8851019605565
 10
101.3350721317843
 20
-143.8685655022273
 10
100.9902180737108
 20
-143.8685655022273
 10
100.9667914244111
 20
-143.8685655022273
 97
        0
 97
        0
 92
        1
 93
        1
 72
     4
 94
        3
 73
     0
 74
     1
 95
       23
 96
       19
 40
0.0
 40
0.0
 40
0.0
 40
0.0
 40
1.0
 40
1.0
 40
1.0
 40
2.0
 40
2.0
 40
2.0
 40
3.0
 40
3.0
 40
3.0
 40
4.0
 40
4.0
 40
4.0
 40
5.0
 40
5.0
 40
5.0
 40
6.0
 40
6.0
 40
6.0
 40
6.0
 10
99.84782441080193
 20
-143.2401800857178
 10
99.84782441080193
 20
-143.2611951681777
 10
99.84989146809309
 20
-143.299435728064
 10
99.82439776150224
 20
-143.299435728064
 10
99.81406247504648
 20
-143.299435728064
 10
99.80544973633336
 20
-143.2928900466421
 10
99.79476994032909
 20
-143.2760090787643
 10
99.79476994032909
 20
-143.2760090787643
 10
99.69107256622307
 20
-143.0941080371431
 10
99.69107256622307
 20
-143.0941080371431
 10
99.90708005314823
 20
-142.9652614659948
 10
100.103795005356
 20
-142.6879312794322
 10
100.1503037944069
 20
-142.6159287837905
 10
100.1503037944069
 20
-142.6159287837905
 10
100.2223062900486
 20
-142.7957627681205
 10
100.2223062900486
 20
-142.7957627681205
 10
100.0889810947694
 20
-142.9924777203283
 10
99.91328122502168
 20
-143.1767903287891
 10
99.84782441080193
 20
-143.2401800857178
 97
        0
 97
        0
 92
        1
 93
        1
 72
     4
 94
        3
 73
     0
 74
     1
 95
       17
 96
       13
 40
0.0
 40
0.0
 40
0.0
 40
0.0
 40
1.0
 40
1.0
 40
1.0
 40
2.0
 40
2.0
 40
2.0
 40
3.0
 40
3.0
 40
3.0
 40
4.0
 40
4.0
 40
4.0
 40
4.0
 10
100.1017279480648
 20
-142.3451442786498
 10
100.0404052484274
 20
-142.2690076684258
 10
99.91121416773053
 20
-142.1928710582018
 10
99.80751679362452
 20
-142.1632432370286
 10
99.80751679362452
 20
-142.1632432370286
 10
99.90294593856594
 20
-141.9982231632852
 10
99.90294593856594
 20
-141.9982231632852
 10
100.0042317458323
 20
-142.0343966658803
 10
100.1099961772294
 20
-142.0915852509355
 10
100.1988796407489
 20
-142.1715114661932
 10
100.1988796407489
 20
-142.1715114661932
 10
100.1017279480648
 20
-142.3451442786498
 10
100.1017279480648
 20
-142.3451442786498
 97
        0
 97
        0
 92
        1
 93
        1
 72
     4
 94
        3
 73
     0
 74
     1
 95
       23
 96
       19
 40
0.0
 40
0.0
 40
0.0
 40
0.0
 40
1.0
 40
1.0
 40
1.0
 40
2.0
 40
2.0
 40
2.0
 40
3.0
 40
3.0
 40
3.0
 40
4.0
 40
4.0
 40
4.0
 40
5.0
 40
5.0
 40
5.0
 40
6.0
 40
6.0
 40
6.0
 40
6.0
 10
100.5544134948267
 20
-143.0496663053834
 10
100.5330539028181
 20
-143.0727484451346
 10
100.4359022101341
 20
-143.1850585579537
 10
100.2963758429815
 20
-143.2656737923086
 10
100.2963758429815
 20
-143.2656737923086
 10
100.1292887119469
 20
-143.1450954503248
 10
100.1292887119469
 20
-143.1450954503248
 10
100.2794948751037
 20
-143.0686143305523
 10
100.3787136250789
 20
-142.9735296951594
 10
100.427289471421
 20
-142.9204752246866
 10
100.427289471421
 20
-142.9204752246866
 10
100.6009222838776
 20
-143.0031575163325
 10
100.6009222838776
 20
-143.0031575163325
 10
100.6091905130422
 20
-143.0072916309149
 10
100.6178032517553
 20
-143.0134928027883
 10
100.6178032517553
 20
-143.0245171083411
 10
100.6178032517553
 20
-143.0496663053834
 10
100.5819742587087
 20
-143.0496663053834
 10
100.5544134948267
 20
-143.0496663053834
 97
        0
 97
        0
 92
        1
 93
        1
 72
     4
 94
        3
 73
     0
 74
     1
 95
       20
 96
       16
 40
0.0
 40
0.0
 40
0.0
 40
0.0
 40
1.0
 40
1.0
 40
1.0
 40
2.0
 40
2.0
 40
2.0
 40
3.0
 40
3.0
 40
3.0
 40
4.0
 40
4.0
 40
4.0
 40
5.0
 40
5.0
 40
5.0
 40
5.0
 10
100.8527587638493
 20
-142.2076849687884
 10
100.814518203963
 20
-142.2562608151304
 10
100.7531955043256
 20
-142.3348089921941
 10
100.613669137173
 20
-142.4447075381736
 10
100.6939398619793
 20
-142.4488416527558
 10
100.7235676831525
 20
-142.4488416527558
 10
100.7469943324521
 20
-142.4488416527558
 10
100.7469943324521
 20
-142.4488416527558
 10
100.9754041631242
 20
-142.4488416527558
 10
100.9754041631242
 20
-142.4488416527558
 10
101.0070990415885
 20
-142.4488416527558
 10
101.0556748879305
 20
-142.4467745954647
 10
101.1297444408634
 20
-142.4447075381736
 10
101.0177788375928
 20
-142.3706379852407
 10
100.9688584817022
 20
-142.3241291961898
 10
100.8527587638493
 20
-142.2076849687884
 97
        0
 97
        0
 92
        1
 93
        1
 72
     4
 94
        3
 73
     0
 74
     1
 95
       17
 96
       13
 40
0.0
 40
0.0
 40
0.0
 40
0.0
 40
1.0
 40
1.0
 40
1.0
 40
2.0
 40
2.0
 40
2.0
 40
3.0
 40
3.0
 40
3.0
 40
4.0
 40
4.0
 40
4.0
 40
4.0
 10
101.4132757992995
 20
-143.2632622254689
 10
101.2778835467291
 20
-143.1512966221983
 10
101.172119115332
 20
-143.0879068652697
 10
101.0536078306394
 20
-143.0245171083411
 10
101.0536078306394
 20
-143.0245171083411
 10
101.1803873444966
 20
-142.912206995522
 10
101.1803873444966
 20
-142.912206995522
 10
101.3116454824846
 20
-142.9587157845728
 10
101.4215440284641
 20
-143.015904369628
 10
101.5466009945786
 20
-143.1175346864428
 10
101.5466009945786
 20
-143.1175346864428
 10
101.4132757992995
 20
-143.2632622254689
 10
101.4132757992995
 20
-143.2632622254689
 97
        0
 97
        0
 75
     2
 76
     1
 98
        0
  0
SPLINE
  5
A5
330
99
100
AcDbEntity
  8
_U+30EC_U+30A4_U+30E4_U+30FC 1
370
     0
100
AcDbSpline
210
0.0
220
0.0
230
1.0
 70
    11
 71
     3
 72
   113
 73
   109
 74
     0
 42
0.0000000001
 43
0.0000000001
 12
1.0
 22
0.0
 32
0.0
 13
1.0
 23
0.0
 33
0.0
 40
0.0
 40
0.0
 40
0.0
 40
0.0
 40
1.0
 40
1.0
 40
1.0
 40
2.0
 40
2.0
 40
2.0
 40
3.0
 40
3.0
 40
3.0
 40
4.0
 40
4.0
 40
4.0
 40
5.0
 40
5.0
 40
5.0
 40
6.0
 40
6.0
 40
6.0
 40
7.0
 40
7.0
 40
7.0
 40
8.0
 40
8.0
 40
8.0
 40
9.0
 40
9.0
 40
9.0
 40
10.0
 40
10.0
 40
10.0
 40
11.0
 40
11.0
 40
11.0
 40
12.0
 40
12.0
 40
12.0
 40
13.0
 40
13.0
 40
13.0
 40
14.0
 40
14.0
 40
14.0
 40
15.0
 40
15.0
 40
15.0
 40
16.0
 40
16.0
 40
16.0
 40
17.0
 40
17.0
 40
17.0
 40
18.0
 40
18.0
 40
18.0
 40
19.0
 40
19.0
 40
19.0
 40
20.0
 40
20.0
 40
20.0
 40
21.0
 40
21.0
 40
21.0
 40
22.0
 40
22.0
 40
22.0
 40
23.0
 40
23.0
 40
23.0
 40
24.0
 40
24.0
 40
24.0
 40
25.0
 40
25.0
 40
25.0
 40
26.0
 40
26.0
 40
26.0
 40
27.0
 40
27.0
 40
27.0
 40
28.0
 40
28.0
 40
28.0
 40
29.0
 40
29.0
 40
29.0
 40
30.0
 40
30.0
 40
30.0
 40
31.0
 40
31.0
 40
31.0
 40
32.0
 40
32.0
 40
32.0
 40
33.0
 40
33.0
 40
33.0
 40
34.0
 40
34.0
 40
34.0
 40
35.0
 40
35.0
 40
35.0
 40
36.0
 40
36.0
 40
36.0
 40
36.0
 10
103.2929198960518
 20
-143.2401800857178
 30
0.0
 10
103.2929198960518
 20
-143.2401800857178
 30
0.0
 10
103.3924831555755
 20
-143.3393988356929
 30
0.0
 10
103.3924831555755
 20
-143.3393988356929
 30
0.0
 10
103.4031629515798
 20
-143.3500786316972
 30
0.0
 10
103.4134982380355
 20
-143.3628254849926
 30
0.0
 10
103.4134982380355
 20
-143.3776393955792
 30
0.0
 10
103.4134982380355
 20
-143.3797064528704
 30
0.0
 10
103.4134982380355
 20
-143.4093342740435
 30
0.0
 10
103.3756021876978
 20
-143.4093342740435
 30
0.0
 10
103.3669894489846
 20
-143.4093342740435
 30
0.0
 10
103.3266818318072
 20
-143.4048556499127
 30
0.0
 10
103.3204806599338
 20
-143.4048556499127
 30
0.0
 10
103.2801730427563
 20
-143.4368950379255
 30
0.0
 10
103.2336642537055
 20
-143.4706569736809
 30
0.0
 10
103.1344455037303
 20
-143.5278455587361
 30
0.0
 10
103.2801730427563
 20
-143.6356770474244
 30
0.0
 10
103.4389919446264
 20
-143.6928656324796
 30
0.0
 10
103.7118435070581
 20
-143.7307616828173
 30
0.0
 10
103.7118435070581
 20
-143.7307616828173
 30
0.0
 10
103.5616373439013
 20
-143.906461552565
 30
0.0
 10
103.5616373439013
 20
-143.906461552565
 30
0.0
 10
103.2994655774738
 20
-143.8344590569234
 30
0.0
 10
103.1427137328949
 20
-143.7459201029524
 30
0.0
 10
103.0665771226709
 20
-143.6928656324796
 30
0.0
 10
102.916370959514
 20
-143.5912353156647
 30
0.0
 10
102.772710477779
 20
-143.4282822992124
 30
0.0
 10
102.696573867555
 20
-143.2632622254689
 30
0.0
 10
102.6287054864956
 20
-143.3290635492372
 30
0.0
 10
102.5546359335627
 20
-143.3817735101615
 30
0.0
 10
102.4764322660476
 20
-143.4303493565035
 30
0.0
 10
102.4764322660476
 20
-143.4303493565035
 30
0.0
 10
102.4764322660476
 20
-143.6821858364753
 30
0.0
 10
102.4764322660476
 20
-143.6821858364753
 30
0.0
 10
102.6393852824999
 20
-143.657036639433
 30
0.0
 10
102.8254204387034
 20
-143.6122503981247
 30
0.0
 10
102.888810195632
 20
-143.5977809970867
 30
0.0
 10
102.888810195632
 20
-143.5977809970867
 30
0.0
 10
102.8591823744588
 20
-143.7665906758639
 30
0.0
 10
102.8591823744588
 20
-143.7665906758639
 30
0.0
 10
102.8571153171677
 20
-143.7665906758639
 30
0.0
 10
102.8381672919988
 20
-143.7731363572859
 30
0.0
 10
102.8361002347076
 20
-143.7731363572859
 30
0.0
 10
102.6373182252087
 20
-143.8113769171722
 30
0.0
 10
102.3200249310172
 20
-143.8768337313919
 30
0.0
 10
102.1229654692609
 20
-143.9126627244385
 30
0.0
 10
102.1126301828052
 20
-143.9298882018648
 30
0.0
 10
102.0892035335055
 20
-143.9615830803291
 30
0.0
 10
102.0661213937543
 20
-143.9615830803291
 30
0.0
 10
102.0385606298723
 20
-143.9615830803291
 30
0.0
 10
102.03442651529
 20
-143.9422905456117
 30
0.0
 10
102.0320149484503
 20
-143.9233425204428
 30
0.0
 10
102.0320149484503
 20
-143.9233425204428
 30
0.0
 10
102.006865751408
 20
-143.7500542175347
 30
0.0
 10
102.006865751408
 20
-143.7500542175347
 30
0.0
 10
102.0809353043409
 20
-143.7414414788216
 30
0.0
 10
102.1887667930292
 20
-143.7286946255262
 30
0.0
 10
102.2965982817175
 20
-143.7076795430661
 30
0.0
 10
102.2965982817175
 20
-143.7076795430661
 30
0.0
 10
102.2965982817175
 20
-143.5299126160272
 30
0.0
 10
102.2965982817175
 20
-143.5299126160272
 30
0.0
 10
102.1525932904341
 20
-143.601915111669
 30
0.0
 10
102.0575086550412
 20
-143.6315429328421
 30
0.0
 10
101.8924885812977
 20
-143.6611707540153
 30
0.0
 10
101.8924885812977
 20
-143.6611707540153
 30
0.0
 10
101.771910239314
 20
-143.491672056141
 30
0.0
 10
101.771910239314
 20
-143.491672056141
 30
0.0
 10
102.0892035335055
 20
-143.464111292259
 30
0.0
 10
102.281784371131
 20
-143.3710937141572
 30
0.0
 10
102.4595512981698
 20
-143.2381130284266
 30
0.0
 10
102.3134792495952
 20
-143.2381130284266
 30
0.0
 10
102.0130669232815
 20
-143.2422471430089
 30
0.0
 10
101.8163519710737
 20
-143.2484483148824
 30
0.0
 10
101.8163519710737
 20
-143.2484483148824
 30
0.0
 10
101.8163519710737
 20
-143.0706813878435
 30
0.0
 10
101.8163519710737
 20
-143.0706813878435
 30
0.0
 10
101.9706922488129
 20
-143.0772270692654
 30
0.0
 10
102.2669704605444
 20
-143.0837727506874
 30
0.0
 10
102.4509385594567
 20
-143.0837727506874
 30
0.0
 10
102.4509385594567
 20
-143.0837727506874
 30
0.0
 10
102.6624674222511
 20
-143.0837727506874
 30
0.0
 10
102.6624674222511
 20
-143.0837727506874
 30
0.0
 10
102.6624674222511
 20
-142.988343605746
 30
0.0
 10
102.6604003649599
 20
-142.9377007021128
 30
0.0
 10
102.6541991930865
 20
-142.8908474035134
 30
0.0
 10
102.6541991930865
 20
-142.8908474035134
 30
0.0
 10
102.8698621704631
 20
-142.9080728809396
 30
0.0
 10
102.8698621704631
 20
-142.9080728809396
 30
0.0
 10
102.9184380168051
 20
-142.912206995522
 30
0.0
 10
102.9270507555182
 20
-142.9270209061085
 30
0.0
 10
102.9270507555182
 20
-142.9418348166951
 30
0.0
 10
102.9270507555182
 20
-142.9673285232859
 30
0.0
 10
102.9101697876405
 20
-142.9755967524505
 30
0.0
 10
102.8591823744588
 20
-143.0010904590414
 30
0.0
 10
102.8571153171677
 20
-143.0265841656322
 30
0.0
 10
102.8571153171677
 20
-143.0327853375057
 30
0.0
 10
102.8550482598765
 20
-143.0837727506874
 30
0.0
 10
102.8550482598765
 20
-143.0837727506874
 30
0.0
 10
103.0855251478397
 20
-143.0837727506874
 30
0.0
 10
103.0855251478397
 20
-143.0837727506874
 30
0.0
 10
103.2505452215832
 20
-143.0837727506874
 30
0.0
 10
103.5426893187324
 20
-143.0772270692654
 30
0.0
 10
103.7225233030624
 20
-143.0706813878435
 30
0.0
 10
103.7225233030624
 20
-143.0706813878435
 30
0.0
 10
103.7225233030624
 20
-143.2484483148824
 30
0.0
 10
103.7225233030624
 20
-143.2484483148824
 30
0.0
 10
103.5933322223656
 20
-143.2443142003
 30
0.0
 10
103.5702500826144
 20
-143.2443142003
 30
0.0
 10
103.2929198960518
 20
-143.2401800857178
 30
0.0
  0
SPLINE
  5
A6
330
99
100
AcDbEntity
  8
_U+30EC_U+30A4_U+30E4_U+30FC 1
370
     0
100
AcDbSpline
210
0.0
220
0.0
230
1.0
 70
    11
 71
     3
 72
    23
 73
    19
 74
     0
 42
0.0000000001
 43
0.0000000001
 12
1.0
 22
0.0
 32
0.0
 13
1.0
 23
0.0
 33
0.0
 40
0.0
 40
0.0
 40
0.0
 40
0.0
 40
1.0
 40
1.0
 40
1.0
 40
2.0
 40
2.0
 40
2.0
 40
3.0
 40
3.0
 40
3.0
 40
4.0
 40
4.0
 40
4.0
 40
5.0
 40
5.0
 40
5.0
 40
6.0
 40
6.0
 40
6.0
 40
6.0
 10
102.0089328086992
 20
-142.8887803462223
 30
0.0
 10
101.9920518408214
 20
-142.9290879633997
 30
0.0
 10
101.9855061593995
 20
-142.9459689312774
 30
0.0
 10
101.9644910769394
 20
-142.9459689312774
 30
0.0
 10
101.9496771663529
 20
-142.9459689312774
 30
0.0
 10
101.9389973703486
 20
-142.9290879633997
 30
0.0
 10
101.9327961984751
 20
-142.9163411101042
 30
0.0
 10
101.9327961984751
 20
-142.9163411101042
 30
0.0
 10
101.8332329389514
 20
-142.7513210363608
 30
0.0
 10
101.8332329389514
 20
-142.7513210363608
 30
0.0
 10
101.9348632557663
 20
-142.7196261578965
 30
0.0
 10
102.0850694189232
 20
-142.664849139681
 30
0.0
 10
102.2838514284221
 20
-142.5015516136802
 30
0.0
 10
102.2838514284221
 20
-142.5015516136802
 30
0.0
 10
102.3410400134772
 20
-142.6751844261368
 30
0.0
 10
102.3410400134772
 20
-142.6751844261368
 30
0.0
 10
102.2480224353755
 20
-142.7578667177828
 30
0.0
 10
102.1591389718561
 20
-142.8150553028379
 30
0.0
 10
102.0089328086992
 20
-142.8887803462223
 30
0.0
  0
SPLINE
  5
A7
330
99
100
AcDbEntity
  8
_U+30EC_U+30A4_U+30E4_U+30FC 1
370
     0
100
AcDbSpline
210
0.0
220
0.0
230
1.0
 70
    11
 71
     3
 72
    17
 73
    13
 74
     0
 42
0.0000000001
 43
0.0000000001
 12
1.0
 22
0.0
 32
0.0
 13
1.0
 23
0.0
 33
0.0
 40
0.0
 40
0.0
 40
0.0
 40
0.0
 40
1.0
 40
1.0
 40
1.0
 40
2.0
 40
2.0
 40
2.0
 40
3.0
 40
3.0
 40
3.0
 40
4.0
 40
4.0
 40
4.0
 40
4.0
 10
102.1612060291472
 20
-142.4236924557135
 30
0.0
 10
102.1315782079741
 20
-142.3833848385361
 30
0.0
 10
102.0637098269146
 20
-142.2858886363035
 30
0.0
 10
101.8818087852934
 20
-142.1759900903241
 30
0.0
 10
101.8818087852934
 20
-142.1759900903241
 30
0.0
 10
102.0089328086992
 20
-142.0426648950449
 30
0.0
 10
102.0089328086992
 20
-142.0426648950449
 30
0.0
 10
102.1949679649026
 20
-142.1442952118598
 30
0.0
 10
102.2521565499578
 20
-142.2331786753792
 30
0.0
 10
102.2797173138398
 20
-142.2755533498478
 30
0.0
 10
102.2797173138398
 20
-142.2755533498478
 30
0.0
 10
102.1612060291472
 20
-142.4236924557135
 30
0.0
 10
102.1612060291472
 20
-142.4236924557135
 30
0.0
  0
SPLINE
  5
A8
330
99
100
AcDbEntity
  8
_U+30EC_U+30A4_U+30E4_U+30FC 1
370
     0
100
AcDbSpline
210
0.0
220
0.0
230
1.0
 70
    11
 71
     3
 72
    38
 73
    34
 74
     0
 42
0.0000000001
 43
0.0000000001
 12
1.0
 22
0.0
 32
0.0
 13
1.0
 23
0.0
 33
0.0
 40
0.0
 40
0.0
 40
0.0
 40
0.0
 40
1.0
 40
1.0
 40
1.0
 40
2.0
 40
2.0
 40
2.0
 40
3.0
 40
3.0
 40
3.0
 40
4.0
 40
4.0
 40
4.0
 40
5.0
 40
5.0
 40
5.0
 40
6.0
 40
6.0
 40
6.0
 40
7.0
 40
7.0
 40
7.0
 40
8.0
 40
8.0
 40
8.0
 40
9.0
 40
9.0
 40
9.0
 40
10.0
 40
10.0
 40
10.0
 40
11.0
 40
11.0
 40
11.0
 40
11.0
 10
102.5291422269719
 20
-142.1188015052689
 30
0.0
 10
102.5270751696807
 20
-142.1653102943198
 30
0.0
 10
102.5250081123896
 20
-142.2817545217212
 30
0.0
 10
102.5250081123896
 20
-142.326196253481
 30
0.0
 10
102.5250081123896
 20
-142.326196253481
 30
0.0
 10
102.5250081123896
 20
-142.6731173688456
 30
0.0
 10
102.5250081123896
 20
-142.6731173688456
 30
0.0
 10
102.5250081123896
 20
-142.7599337750739
 30
0.0
 10
102.5270751696807
 20
-142.9015271995177
 30
0.0
 10
102.537754965685
 20
-143.0221055415014
 30
0.0
 10
102.537754965685
 20
-143.0221055415014
 30
0.0
 10
102.3472411853507
 20
-143.0221055415014
 30
0.0
 10
102.3472411853507
 20
-143.0221055415014
 30
0.0
 10
102.3517198094815
 20
-142.9587157845728
 30
0.0
 10
102.3558539240638
 20
-142.9060058236485
 30
0.0
 10
102.357920981355
 20
-142.8508842958845
 30
0.0
 10
102.3599880386461
 20
-142.7282388966096
 30
0.0
 10
102.3620550959373
 20
-142.7130804764745
 30
0.0
 10
102.3620550959373
 20
-142.6689832542633
 30
0.0
 10
102.3620550959373
 20
-142.6689832542633
 30
0.0
 10
102.3620550959373
 20
-142.347211335941
 30
0.0
 10
102.3620550959373
 20
-142.347211335941
 30
0.0
 10
102.3620550959373
 20
-142.292089808177
 30
0.0
 10
102.3493082426418
 20
-142.0533446910492
 30
0.0
 10
102.3472411853507
 20
-142.002701787416
 30
0.0
 10
102.3472411853507
 20
-142.002701787416
 30
0.0
 10
102.5484347616893
 20
-142.030262551298
 30
0.0
 10
102.5484347616893
 20
-142.030262551298
 30
0.0
 10
102.5694498441493
 20
-142.0323296085892
 30
0.0
 10
102.6011447226136
 20
-142.0364637231714
 30
0.0
 10
102.6011447226136
 20
-142.0619574297623
 30
0.0
 10
102.6011447226136
 20
-142.0891736840958
 30
0.0
 10
102.5505018189804
 20
-142.1101887665558
 30
0.0
 10
102.5291422269719
 20
-142.1188015052689
 30
0.0
  0
SPLINE
  5
A9
330
99
100
AcDbEntity
  8
_U+30EC_U+30A4_U+30E4_U+30FC 1
370
     0
100
AcDbSpline
210
0.0
220
0.0
230
1.0
 70
    11
 71
     3
 72
    83
 73
    79
 74
     0
 42
0.0000000001
 43
0.0000000001
 12
1.0
 22
0.0
 32
0.0
 13
1.0
 23
0.0
 33
0.0
 40
0.0
 40
0.0
 40
0.0
 40
0.0
 40
1.0
 40
1.0
 40
1.0
 40
2.0
 40
2.0
 40
2.0
 40
3.0
 40
3.0
 40
3.0
 40
4.0
 40
4.0
 40
4.0
 40
5.0
 40
5.0
 40
5.0
 40
6.0
 40
6.0
 40
6.0
 40
7.0
 40
7.0
 40
7.0
 40
8.0
 40
8.0
 40
8.0
 40
9.0
 40
9.0
 40
9.0
 40
10.0
 40
10.0
 40
10.0
 40
11.0
 40
11.0
 40
11.0
 40
12.0
 40
12.0
 40
12.0
 40
13.0
 40
13.0
 40
13.0
 40
14.0
 40
14.0
 40
14.0
 40
15.0
 40
15.0
 40
15.0
 40
16.0
 40
16.0
 40
16.0
 40
17.0
 40
17.0
 40
17.0
 40
18.0
 40
18.0
 40
18.0
 40
19.0
 40
19.0
 40
19.0
 40
20.0
 40
20.0
 40
20.0
 40
21.0
 40
21.0
 40
21.0
 40
22.0
 40
22.0
 40
22.0
 40
23.0
 40
23.0
 40
23.0
 40
24.0
 40
24.0
 40
24.0
 40
25.0
 40
25.0
 40
25.0
 40
26.0
 40
26.0
 40
26.0
 40
26.0
 10
103.331160455938
 20
-142.4402289140427
 30
0.0
 10
103.331160455938
 20
-142.4402289140427
 30
0.0
 10
103.2336642537055
 20
-142.4402289140427
 30
0.0
 10
103.2336642537055
 20
-142.4402289140427
 30
0.0
 10
103.2336642537055
 20
-142.4402289140427
 30
0.0
 10
103.2336642537055
 20
-142.6879312794322
 30
0.0
 10
103.2336642537055
 20
-142.6879312794322
 30
0.0
 10
103.2336642537055
 20
-142.6879312794322
 30
0.0
 10
103.3163465453515
 20
-142.6879312794322
 30
0.0
 10
103.3163465453515
 20
-142.6879312794322
 30
0.0
 10
103.3818033595712
 20
-142.6879312794322
 30
0.0
 10
103.5213297267238
 20
-142.6834526553014
 30
0.0
 10
103.6208929862476
 20
-142.6751844261368
 30
0.0
 10
103.6208929862476
 20
-142.6751844261368
 30
0.0
 10
103.6208929862476
 20
-142.8550184104668
 30
0.0
 10
103.6208929862476
 20
-142.8550184104668
 30
0.0
 10
103.5278754081458
 20
-142.8467501813022
 30
0.0
 10
103.3776692449889
 20
-142.8426160667199
 30
0.0
 10
103.3163465453515
 20
-142.8426160667199
 30
0.0
 10
103.3163465453515
 20
-142.8426160667199
 30
0.0
 10
103.0114555949069
 20
-142.8426160667199
 30
0.0
 10
103.0114555949069
 20
-142.8426160667199
 30
0.0
 10
102.9587456339825
 20
-142.8426160667199
 30
0.0
 10
102.8126735854079
 20
-142.8467501813022
 30
0.0
 10
102.7069091540108
 20
-142.8550184104668
 30
0.0
 10
102.7069091540108
 20
-142.8550184104668
 30
0.0
 10
102.7069091540108
 20
-142.6751844261368
 30
0.0
 10
102.7069091540108
 20
-142.6751844261368
 30
0.0
 10
102.8064724135345
 20
-142.6834526553014
 30
0.0
 10
102.9459987806871
 20
-142.6879312794322
 30
0.0
 10
103.0114555949069
 20
-142.6879312794322
 30
0.0
 10
103.0114555949069
 20
-142.6879312794322
 30
0.0
 10
103.0558973266666
 20
-142.6879312794322
 30
0.0
 10
103.0558973266666
 20
-142.6879312794322
 30
0.0
 10
103.0558973266666
 20
-142.6879312794322
 30
0.0
 10
103.0558973266666
 20
-142.4402289140427
 30
0.0
 10
103.0558973266666
 20
-142.4402289140427
 30
0.0
 10
103.0558973266666
 20
-142.4402289140427
 30
0.0
 10
102.9821722832822
 20
-142.4402289140427
 30
0.0
 10
102.9821722832822
 20
-142.4402289140427
 30
0.0
 10
102.9205050740963
 20
-142.4402289140427
 30
0.0
 10
102.7534179430616
 20
-142.4447075381736
 30
0.0
 10
102.6328396010779
 20
-142.4533202768867
 30
0.0
 10
102.6328396010779
 20
-142.4533202768867
 30
0.0
 10
102.6328396010779
 20
-142.2755533498478
 30
0.0
 10
102.6328396010779
 20
-142.2755533498478
 30
0.0
 10
102.7472167711882
 20
-142.2817545217212
 30
0.0
 10
102.9056911635097
 20
-142.2858886363035
 30
0.0
 10
102.9821722832822
 20
-142.2858886363035
 30
0.0
 10
102.9821722832822
 20
-142.2858886363035
 30
0.0
 10
103.0538302693754
 20
-142.2858886363035
 30
0.0
 10
103.0538302693754
 20
-142.2858886363035
 30
0.0
 10
103.0496961547931
 20
-142.1336154158555
 30
0.0
 10
103.047629097502
 20
-142.0998534801001
 30
0.0
 10
103.04108341608
 20
-142.0068359019983
 30
0.0
 10
103.04108341608
 20
-142.0068359019983
 30
0.0
 10
103.2529567884229
 20
-142.030262551298
 30
0.0
 10
103.2529567884229
 20
-142.030262551298
 30
0.0
 10
103.2781059854652
 20
-142.0323296085892
 30
0.0
 10
103.3015326347649
 20
-142.0364637231714
 30
0.0
 10
103.3015326347649
 20
-142.0595458629226
 30
0.0
 10
103.3015326347649
 20
-142.0915852509355
 30
0.0
 10
103.2570909030052
 20
-142.1081217092647
 30
0.0
 10
103.2336642537055
 20
-142.1167344479778
 30
0.0
 10
103.2336642537055
 20
-142.1167344479778
 30
0.0
 10
103.2336642537055
 20
-142.2858886363035
 30
0.0
 10
103.2336642537055
 20
-142.2858886363035
 30
0.0
 10
103.2336642537055
 20
-142.2858886363035
 30
0.0
 10
103.331160455938
 20
-142.2858886363035
 30
0.0
 10
103.331160455938
 20
-142.2858886363035
 30
0.0
 10
103.4072970661621
 20
-142.2858886363035
 30
0.0
 10
103.5657714584836
 20
-142.2817545217212
 30
0.0
 10
103.682215685885
 20
-142.2755533498478
 30
0.0
 10
103.682215685885
 20
-142.2755533498478
 30
0.0
 10
103.682215685885
 20
-142.4533202768867
 30
0.0
 10
103.682215685885
 20
-142.4533202768867
 30
0.0
 10
103.5743841971967
 20
-142.4467745954647
 30
0.0
 10
103.4007513847401
 20
-142.4402289140427
 30
0.0
 10
103.331160455938
 20
-142.4402289140427
 30
0.0
  0
SPLINE
  5
AA
330
99
100
AcDbEntity
  8
_U+30EC_U+30A4_U+30E4_U+30FC 1
370
     0
100
AcDbSpline
210
0.0
220
0.0
230
1.0
 70
    11
 71
     3
 72
    17
 73
    13
 74
     0
 42
0.0000000001
 43
0.0000000001
 12
1.0
 22
0.0
 32
0.0
 13
1.0
 23
0.0
 33
0.0
 40
0.0
 40
0.0
 40
0.0
 40
0.0
 40
1.0
 40
1.0
 40
1.0
 40
2.0
 40
2.0
 40
2.0
 40
3.0
 40
3.0
 40
3.0
 40
4.0
 40
4.0
 40
4.0
 40
4.0
 10
103.0855251478397
 20
-143.2381130284266
 30
0.0
 10
103.0855251478397
 20
-143.2381130284266
 30
0.0
 10
102.8826090237585
 20
-143.2381130284266
 30
0.0
 10
102.8826090237585
 20
-143.2381130284266
 30
0.0
 10
102.9101697876405
 20
-143.2973686707729
 30
0.0
 10
102.964946805856
 20
-143.3690266568661
 30
0.0
 10
102.992507569738
 20
-143.3986544780392
 30
0.0
 10
103.02006833362
 20
-143.3841850770012
 30
0.0
 10
103.1344455037303
 20
-143.3204508105241
 30
0.0
 10
103.2253960245409
 20
-143.2381130284266
 30
0.0
 10
103.2253960245409
 20
-143.2381130284266
 30
0.0
 10
103.0855251478397
 20
-143.2381130284266
 30
0.0
 10
103.0855251478397
 20
-143.2381130284266
 30
0.0
  0
HATCH
  5
AB
330
99
100
AcDbEntity
  8
_U+30EC_U+30A4_U+30E4_U+30FC 1
 62
   179
420
  2234388
100
AcDbHatch
 10
0.0
 20
0.0
 30
0.0
210
0.0
220
0.0
230
1.0
  2
SOLID
 70
     1
 71
     0
 91
        6
 92
        1
 93
        1
 72
     4
 94
        3
 73
     0
 74
     1
 95
      113
 96
      109
 40
0.0
 40
0.0
 40
0.0
 40
0.0
 40
1.0
 40
1.0
 40
1.0
 40
2.0
 40
2.0
 40
2.0
 40
3.0
 40
3.0
 40
3.0
 40
4.0
 40
4.0
 40
4.0
 40
5.0
 40
5.0
 40
5.0
 40
6.0
 40
6.0
 40
6.0
 40
7.0
 40
7.0
 40
7.0
 40
8.0
 40
8.0
 40
8.0
 40
9.0
 40
9.0
 40
9.0
 40
10.0
 40
10.0
 40
10.0
 40
11.0
 40
11.0
 40
11.0
 40
12.0
 40
12.0
 40
12.0
 40
13.0
 40
13.0
 40
13.0
 40
14.0
 40
14.0
 40
14.0
 40
15.0
 40
15.0
 40
15.0
 40
16.0
 40
16.0
 40
16.0
 40
17.0
 40
17.0
 40
17.0
 40
18.0
 40
18.0
 40
18.0
 40
19.0
 40
19.0
 40
19.0
 40
20.0
 40
20.0
 40
20.0
 40
21.0
 40
21.0
 40
21.0
 40
22.0
 40
22.0
 40
22.0
 40
23.0
 40
23.0
 40
23.0
 40
24.0
 40
24.0
 40
24.0
 40
25.0
 40
25.0
 40
25.0
 40
26.0
 40
26.0
 40
26.0
 40
27.0
 40
27.0
 40
27.0
 40
28.0
 40
28.0
 40
28.0
 40
29.0
 40
29.0
 40
29.0
 40
30.0
 40
30.0
 40
30.0
 40
31.0
 40
31.0
 40
31.0
 40
32.0
 40
32.0
 40
32.0
 40
33.0
 40
33.0
 40
33.0
 40
34.0
 40
34.0
 40
34.0
 40
35.0
 40
35.0
 40
35.0
 40
36.0
 40
36.0
 40
36.0
 40
36.0
 10
103.2929198960518
 20
-143.2401800857178
 10
103.2929198960518
 20
-143.2401800857178
 10
103.3924831555755
 20
-143.3393988356929
 10
103.3924831555755
 20
-143.3393988356929
 10
103.4031629515798
 20
-143.3500786316972
 10
103.4134982380355
 20
-143.3628254849926
 10
103.4134982380355
 20
-143.3776393955792
 10
103.4134982380355
 20
-143.3797064528704
 10
103.4134982380355
 20
-143.4093342740435
 10
103.3756021876978
 20
-143.4093342740435
 10
103.3669894489846
 20
-143.4093342740435
 10
103.3266818318072
 20
-143.4048556499127
 10
103.3204806599338
 20
-143.4048556499127
 10
103.2801730427563
 20
-143.4368950379255
 10
103.2336642537055
 20
-143.4706569736809
 10
103.1344455037303
 20
-143.5278455587361
 10
103.2801730427563
 20
-143.6356770474244
 10
103.4389919446264
 20
-143.6928656324796
 10
103.7118435070581
 20
-143.7307616828173
 10
103.7118435070581
 20
-143.7307616828173
 10
103.5616373439013
 20
-143.906461552565
 10
103.5616373439013
 20
-143.906461552565
 10
103.2994655774738
 20
-143.8344590569234
 10
103.1427137328949
 20
-143.7459201029524
 10
103.0665771226709
 20
-143.6928656324796
 10
102.916370959514
 20
-143.5912353156647
 10
102.772710477779
 20
-143.4282822992124
 10
102.696573867555
 20
-143.2632622254689
 10
102.6287054864956
 20
-143.3290635492372
 10
102.5546359335627
 20
-143.3817735101615
 10
102.4764322660476
 20
-143.4303493565035
 10
102.4764322660476
 20
-143.4303493565035
 10
102.4764322660476
 20
-143.6821858364753
 10
102.4764322660476
 20
-143.6821858364753
 10
102.6393852824999
 20
-143.657036639433
 10
102.8254204387034
 20
-143.6122503981247
 10
102.888810195632
 20
-143.5977809970867
 10
102.888810195632
 20
-143.5977809970867
 10
102.8591823744588
 20
-143.7665906758639
 10
102.8591823744588
 20
-143.7665906758639
 10
102.8571153171677
 20
-143.7665906758639
 10
102.8381672919988
 20
-143.7731363572859
 10
102.8361002347076
 20
-143.7731363572859
 10
102.6373182252087
 20
-143.8113769171722
 10
102.3200249310172
 20
-143.8768337313919
 10
102.1229654692609
 20
-143.9126627244385
 10
102.1126301828052
 20
-143.9298882018648
 10
102.0892035335055
 20
-143.9615830803291
 10
102.0661213937543
 20
-143.9615830803291
 10
102.0385606298723
 20
-143.9615830803291
 10
102.03442651529
 20
-143.9422905456117
 10
102.0320149484503
 20
-143.9233425204428
 10
102.0320149484503
 20
-143.9233425204428
 10
102.006865751408
 20
-143.7500542175347
 10
102.006865751408
 20
-143.7500542175347
 10
102.0809353043409
 20
-143.7414414788216
 10
102.1887667930292
 20
-143.7286946255262
 10
102.2965982817175
 20
-143.7076795430661
 10
102.2965982817175
 20
-143.7076795430661
 10
102.2965982817175
 20
-143.5299126160272
 10
102.2965982817175
 20
-143.5299126160272
 10
102.1525932904341
 20
-143.601915111669
 10
102.0575086550412
 20
-143.6315429328421
 10
101.8924885812977
 20
-143.6611707540153
 10
101.8924885812977
 20
-143.6611707540153
 10
101.771910239314
 20
-143.491672056141
 10
101.771910239314
 20
-143.491672056141
 10
102.0892035335055
 20
-143.464111292259
 10
102.281784371131
 20
-143.3710937141572
 10
102.4595512981698
 20
-143.2381130284266
 10
102.3134792495952
 20
-143.2381130284266
 10
102.0130669232815
 20
-143.2422471430089
 10
101.8163519710737
 20
-143.2484483148824
 10
101.8163519710737
 20
-143.2484483148824
 10
101.8163519710737
 20
-143.0706813878435
 10
101.8163519710737
 20
-143.0706813878435
 10
101.9706922488129
 20
-143.0772270692654
 10
102.2669704605444
 20
-143.0837727506874
 10
102.4509385594567
 20
-143.0837727506874
 10
102.4509385594567
 20
-143.0837727506874
 10
102.6624674222511
 20
-143.0837727506874
 10
102.6624674222511
 20
-143.0837727506874
 10
102.6624674222511
 20
-142.988343605746
 10
102.6604003649599
 20
-142.9377007021128
 10
102.6541991930865
 20
-142.8908474035134
 10
102.6541991930865
 20
-142.8908474035134
 10
102.8698621704631
 20
-142.9080728809396
 10
102.8698621704631
 20
-142.9080728809396
 10
102.9184380168051
 20
-142.912206995522
 10
102.9270507555182
 20
-142.9270209061085
 10
102.9270507555182
 20
-142.9418348166951
 10
102.9270507555182
 20
-142.9673285232859
 10
102.9101697876405
 20
-142.9755967524505
 10
102.8591823744588
 20
-143.0010904590414
 10
102.8571153171677
 20
-143.0265841656322
 10
102.8571153171677
 20
-143.0327853375057
 10
102.8550482598765
 20
-143.0837727506874
 10
102.8550482598765
 20
-143.0837727506874
 10
103.0855251478397
 20
-143.0837727506874
 10
103.0855251478397
 20
-143.0837727506874
 10
103.2505452215832
 20
-143.0837727506874
 10
103.5426893187324
 20
-143.0772270692654
 10
103.7225233030624
 20
-143.0706813878435
 10
103.7225233030624
 20
-143.0706813878435
 10
103.7225233030624
 20
-143.2484483148824
 10
103.7225233030624
 20
-143.2484483148824
 10
103.5933322223656
 20
-143.2443142003
 10
103.5702500826144
 20
-143.2443142003
 10
103.2929198960518
 20
-143.2401800857178
 97
        0
 97
        0
 92
        1
 93
        1
 72
     4
 94
        3
 73
     0
 74
     1
 95
       23
 96
       19
 40
0.0
 40
0.0
 40
0.0
 40
0.0
 40
1.0
 40
1.0
 40
1.0
 40
2.0
 40
2.0
 40
2.0
 40
3.0
 40
3.0
 40
3.0
 40
4.0
 40
4.0
 40
4.0
 40
5.0
 40
5.0
 40
5.0
 40
6.0
 40
6.0
 40
6.0
 40
6.0
 10
102.0089328086992
 20
-142.8887803462223
 10
101.9920518408214
 20
-142.9290879633997
 10
101.9855061593995
 20
-142.9459689312774
 10
101.9644910769394
 20
-142.9459689312774
 10
101.9496771663529
 20
-142.9459689312774
 10
101.9389973703486
 20
-142.9290879633997
 10
101.9327961984751
 20
-142.9163411101042
 10
101.9327961984751
 20
-142.9163411101042
 10
101.8332329389514
 20
-142.7513210363608
 10
101.8332329389514
 20
-142.7513210363608
 10
101.9348632557663
 20
-142.7196261578965
 10
102.0850694189232
 20
-142.664849139681
 10
102.2838514284221
 20
-142.5015516136802
 10
102.2838514284221
 20
-142.5015516136802
 10
102.3410400134772
 20
-142.6751844261368
 10
102.3410400134772
 20
-142.6751844261368
 10
102.2480224353755
 20
-142.7578667177828
 10
102.1591389718561
 20
-142.8150553028379
 10
102.0089328086992
 20
-142.8887803462223
 97
        0
 97
        0
 92
        1
 93
        1
 72
     4
 94
        3
 73
     0
 74
     1
 95
       17
 96
       13
 40
0.0
 40
0.0
 40
0.0
 40
0.0
 40
1.0
 40
1.0
 40
1.0
 40
2.0
 40
2.0
 40
2.0
 40
3.0
 40
3.0
 40
3.0
 40
4.0
 40
4.0
 40
4.0
 40
4.0
 10
102.1612060291472
 20
-142.4236924557135
 10
102.1315782079741
 20
-142.3833848385361
 10
102.0637098269146
 20
-142.2858886363035
 10
101.8818087852934
 20
-142.1759900903241
 10
101.8818087852934
 20
-142.1759900903241
 10
102.0089328086992
 20
-142.0426648950449
 10
102.0089328086992
 20
-142.0426648950449
 10
102.1949679649026
 20
-142.1442952118598
 10
102.2521565499578
 20
-142.2331786753792
 10
102.2797173138398
 20
-142.2755533498478
 10
102.2797173138398
 20
-142.2755533498478
 10
102.1612060291472
 20
-142.4236924557135
 10
102.1612060291472
 20
-142.4236924557135
 97
        0
 97
        0
 92
        1
 93
        1
 72
     4
 94
        3
 73
     0
 74
     1
 95
       38
 96
       34
 40
0.0
 40
0.0
 40
0.0
 40
0.0
 40
1.0
 40
1.0
 40
1.0
 40
2.0
 40
2.0
 40
2.0
 40
3.0
 40
3.0
 40
3.0
 40
4.0
 40
4.0
 40
4.0
 40
5.0
 40
5.0
 40
5.0
 40
6.0
 40
6.0
 40
6.0
 40
7.0
 40
7.0
 40
7.0
 40
8.0
 40
8.0
 40
8.0
 40
9.0
 40
9.0
 40
9.0
 40
10.0
 40
10.0
 40
10.0
 40
11.0
 40
11.0
 40
11.0
 40
11.0
 10
102.5291422269719
 20
-142.1188015052689
 10
102.5270751696807
 20
-142.1653102943198
 10
102.5250081123896
 20
-142.2817545217212
 10
102.5250081123896
 20
-142.326196253481
 10
102.5250081123896
 20
-142.326196253481
 10
102.5250081123896
 20
-142.6731173688456
 10
102.5250081123896
 20
-142.6731173688456
 10
102.5250081123896
 20
-142.7599337750739
 10
102.5270751696807
 20
-142.9015271995177
 10
102.537754965685
 20
-143.0221055415014
 10
102.537754965685
 20
-143.0221055415014
 10
102.3472411853507
 20
-143.0221055415014
 10
102.3472411853507
 20
-143.0221055415014
 10
102.3517198094815
 20
-142.9587157845728
 10
102.3558539240638
 20
-142.9060058236485
 10
102.357920981355
 20
-142.8508842958845
 10
102.3599880386461
 20
-142.7282388966096
 10
102.3620550959373
 20
-142.7130804764745
 10
102.3620550959373
 20
-142.6689832542633
 10
102.3620550959373
 20
-142.6689832542633
 10
102.3620550959373
 20
-142.347211335941
 10
102.3620550959373
 20
-142.347211335941
 10
102.3620550959373
 20
-142.292089808177
 10
102.3493082426418
 20
-142.0533446910492
 10
102.3472411853507
 20
-142.002701787416
 10
102.3472411853507
 20
-142.002701787416
 10
102.5484347616893
 20
-142.030262551298
 10
102.5484347616893
 20
-142.030262551298
 10
102.5694498441493
 20
-142.0323296085892
 10
102.6011447226136
 20
-142.0364637231714
 10
102.6011447226136
 20
-142.0619574297623
 10
102.6011447226136
 20
-142.0891736840958
 10
102.5505018189804
 20
-142.1101887665558
 10
102.5291422269719
 20
-142.1188015052689
 97
        0
 97
        0
 92
        1
 93
        1
 72
     4
 94
        3
 73
     0
 74
     1
 95
       83
 96
       79
 40
0.0
 40
0.0
 40
0.0
 40
0.0
 40
1.0
 40
1.0
 40
1.0
 40
2.0
 40
2.0
 40
2.0
 40
3.0
 40
3.0
 40
3.0
 40
4.0
 40
4.0
 40
4.0
 40
5.0
 40
5.0
 40
5.0
 40
6.0
 40
6.0
 40
6.0
 40
7.0
 40
7.0
 40
7.0
 40
8.0
 40
8.0
 40
8.0
 40
9.0
 40
9.0
 40
9.0
 40
10.0
 40
10.0
 40
10.0
 40
11.0
 40
11.0
 40
11.0
 40
12.0
 40
12.0
 40
12.0
 40
13.0
 40
13.0
 40
13.0
 40
14.0
 40
14.0
 40
14.0
 40
15.0
 40
15.0
 40
15.0
 40
16.0
 40
16.0
 40
16.0
 40
17.0
 40
17.0
 40
17.0
 40
18.0
 40
18.0
 40
18.0
 40
19.0
 40
19.0
 40
19.0
 40
20.0
 40
20.0
 40
20.0
 40
21.0
 40
21.0
 40
21.0
 40
22.0
 40
22.0
 40
22.0
 40
23.0
 40
23.0
 40
23.0
 40
24.0
 40
24.0
 40
24.0
 40
25.0
 40
25.0
 40
25.0
 40
26.0
 40
26.0
 40
26.0
 40
26.0
 10
103.331160455938
 20
-142.4402289140427
 10
103.331160455938
 20
-142.4402289140427
 10
103.2336642537055
 20
-142.4402289140427
 10
103.2336642537055
 20
-142.4402289140427
 10
103.2336642537055
 20
-142.4402289140427
 10
103.2336642537055
 20
-142.6879312794322
 10
103.2336642537055
 20
-142.6879312794322
 10
103.2336642537055
 20
-142.6879312794322
 10
103.3163465453515
 20
-142.6879312794322
 10
103.3163465453515
 20
-142.6879312794322
 10
103.3818033595712
 20
-142.6879312794322
 10
103.5213297267238
 20
-142.6834526553014
 10
103.6208929862476
 20
-142.6751844261368
 10
103.6208929862476
 20
-142.6751844261368
 10
103.6208929862476
 20
-142.8550184104668
 10
103.6208929862476
 20
-142.8550184104668
 10
103.5278754081458
 20
-142.8467501813022
 10
103.3776692449889
 20
-142.8426160667199
 10
103.3163465453515
 20
-142.8426160667199
 10
103.3163465453515
 20
-142.8426160667199
 10
103.0114555949069
 20
-142.8426160667199
 10
103.0114555949069
 20
-142.8426160667199
 10
102.9587456339825
 20
-142.8426160667199
 10
102.8126735854079
 20
-142.8467501813022
 10
102.7069091540108
 20
-142.8550184104668
 10
102.7069091540108
 20
-142.8550184104668
 10
102.7069091540108
 20
-142.6751844261368
 10
102.7069091540108
 20
-142.6751844261368
 10
102.8064724135345
 20
-142.6834526553014
 10
102.9459987806871
 20
-142.6879312794322
 10
103.0114555949069
 20
-142.6879312794322
 10
103.0114555949069
 20
-142.6879312794322
 10
103.0558973266666
 20
-142.6879312794322
 10
103.0558973266666
 20
-142.6879312794322
 10
103.0558973266666
 20
-142.6879312794322
 10
103.0558973266666
 20
-142.4402289140427
 10
103.0558973266666
 20
-142.4402289140427
 10
103.0558973266666
 20
-142.4402289140427
 10
102.9821722832822
 20
-142.4402289140427
 10
102.9821722832822
 20
-142.4402289140427
 10
102.9205050740963
 20
-142.4402289140427
 10
102.7534179430616
 20
-142.4447075381736
 10
102.6328396010779
 20
-142.4533202768867
 10
102.6328396010779
 20
-142.4533202768867
 10
102.6328396010779
 20
-142.2755533498478
 10
102.6328396010779
 20
-142.2755533498478
 10
102.7472167711882
 20
-142.2817545217212
 10
102.9056911635097
 20
-142.2858886363035
 10
102.9821722832822
 20
-142.2858886363035
 10
102.9821722832822
 20
-142.2858886363035
 10
103.0538302693754
 20
-142.2858886363035
 10
103.0538302693754
 20
-142.2858886363035
 10
103.0496961547931
 20
-142.1336154158555
 10
103.047629097502
 20
-142.0998534801001
 10
103.04108341608
 20
-142.0068359019983
 10
103.04108341608
 20
-142.0068359019983
 10
103.2529567884229
 20
-142.030262551298
 10
103.2529567884229
 20
-142.030262551298
 10
103.2781059854652
 20
-142.0323296085892
 10
103.3015326347649
 20
-142.0364637231714
 10
103.3015326347649
 20
-142.0595458629226
 10
103.3015326347649
 20
-142.0915852509355
 10
103.2570909030052
 20
-142.1081217092647
 10
103.2336642537055
 20
-142.1167344479778
 10
103.2336642537055
 20
-142.1167344479778
 10
103.2336642537055
 20
-142.2858886363035
 10
103.2336642537055
 20
-142.2858886363035
 10
103.2336642537055
 20
-142.2858886363035
 10
103.331160455938
 20
-142.2858886363035
 10
103.331160455938
 20
-142.2858886363035
 10
103.4072970661621
 20
-142.2858886363035
 10
103.5657714584836
 20
-142.2817545217212
 10
103.682215685885
 20
-142.2755533498478
 10
103.682215685885
 20
-142.2755533498478
 10
103.682215685885
 20
-142.4533202768867
 10
103.682215685885
 20
-142.4533202768867
 10
103.5743841971967
 20
-142.4467745954647
 10
103.4007513847401
 20
-142.4402289140427
 10
103.331160455938
 20
-142.4402289140427
 97
        0
 97
        0
 92
        1
 93
        1
 72
     4
 94
        3
 73
     0
 74
     1
 95
       17
 96
       13
 40
0.0
 40
0.0
 40
0.0
 40
0.0
 40
1.0
 40
1.0
 40
1.0
 40
2.0
 40
2.0
 40
2.0
 40
3.0
 40
3.0
 40
3.0
 40
4.0
 40
4.0
 40
4.0
 40
4.0
 10
103.0855251478397
 20
-143.2381130284266
 10
103.0855251478397
 20
-143.2381130284266
 10
102.8826090237585
 20
-143.2381130284266
 10
102.8826090237585
 20
-143.2381130284266
 10
102.9101697876405
 20
-143.2973686707729
 10
102.964946805856
 20
-143.3690266568661
 10
102.992507569738
 20
-143.3986544780392
 10
103.02006833362
 20
-143.3841850770012
 10
103.1344455037303
 20
-143.3204508105241
 10
103.2253960245409
 20
-143.2381130284266
 10
103.2253960245409
 20
-143.2381130284266
 10
103.0855251478397
 20
-143.2381130284266
 10
103.0855251478397
 20
-143.2381130284266
 97
        0
 97
        0
 75
     2
 76
     1
 98
        0
  0
SPLINE
  5
AC
330
99
100
AcDbEntity
  8
_U+30EC_U+30A4_U+30E4_U+30FC 1
370
     0
100
AcDbSpline
210
0.0
220
0.0
230
1.0
 70
    11
 71
     3
 72
    77
 73
    73
 74
     0
 42
0.0000000001
 43
0.0000000001
 12
1.0
 22
0.0
 32
0.0
 13
1.0
 23
0.0
 33
0.0
 40
0.0
 40
0.0
 40
0.0
 40
0.0
 40
1.0
 40
1.0
 40
1.0
 40
2.0
 40
2.0
 40
2.0
 40
3.0
 40
3.0
 40
3.0
 40
4.0
 40
4.0
 40
4.0
 40
5.0
 40
5.0
 40
5.0
 40
6.0
 40
6.0
 40
6.0
 40
7.0
 40
7.0
 40
7.0
 40
8.0
 40
8.0
 40
8.0
 40
9.0
 40
9.0
 40
9.0
 40
10.0
 40
10.0
 40
10.0
 40
11.0
 40
11.0
 40
11.0
 40
12.0
 40
12.0
 40
12.0
 40
13.0
 40
13.0
 40
13.0
 40
14.0
 40
14.0
 40
14.0
 40
15.0
 40
15.0
 40
15.0
 40
16.0
 40
16.0
 40
16.0
 40
17.0
 40
17.0
 40
17.0
 40
18.0
 40
18.0
 40
18.0
 40
19.0
 40
19.0
 40
19.0
 40
20.0
 40
20.0
 40
20.0
 40
21.0
 40
21.0
 40
21.0
 40
22.0
 40
22.0
 40
22.0
 40
23.0
 40
23.0
 40
23.0
 40
24.0
 40
24.0
 40
24.0
 40
24.0
 10
105.5766736932239
 20
-143.8685655022273
 30
0.0
 10
105.530164904173
 20
-143.8937146992696
 30
0.0
 10
105.405452447607
 20
-143.906461552565
 30
0.0
 10
105.3269042705433
 20
-143.906461552565
 30
0.0
 10
105.3145019267964
 20
-143.906461552565
 30
0.0
 10
105.2890082202055
 20
-143.906461552565
 30
0.0
 10
105.2552462844501
 20
-143.9023274379828
 30
0.0
 10
105.2552462844501
 20
-143.9023274379828
 30
0.0
 10
105.1577500822175
 20
-143.6756401550533
 30
0.0
 10
105.1577500822175
 20
-143.6756401550533
 30
0.0
 10
105.1873779033907
 20
-143.6821858364753
 30
0.0
 10
105.2445664884458
 20
-143.6907985751884
 30
0.0
 10
105.3610107158473
 20
-143.6907985751884
 30
0.0
 10
105.4392143833624
 20
-143.6907985751884
 30
0.0
 10
105.4412814406536
 20
-143.6484239007198
 30
0.0
 10
105.4412814406536
 20
-143.5912353156647
 30
0.0
 10
105.4412814406536
 20
-143.5912353156647
 30
0.0
 10
105.4412814406536
 20
-143.2422471430089
 30
0.0
 10
105.4412814406536
 20
-143.2422471430089
 30
0.0
 10
105.4412814406536
 20
-143.2422471430089
 30
0.0
 10
104.9820502124698
 20
-143.2422471430089
 30
0.0
 10
104.9820502124698
 20
-143.2422471430089
 30
0.0
 10
104.9844617793094
 20
-143.3797064528704
 30
0.0
 10
104.9865288366006
 20
-143.5784884623693
 30
0.0
 10
104.992730008474
 20
-143.7118136576484
 30
0.0
 10
104.9947970657652
 20
-143.7393744215304
 30
0.0
 10
104.9947970657652
 20
-143.7838161532902
 30
0.0
 10
105.0075439190606
 20
-143.8451388529276
 30
0.0
 10
105.0075439190606
 20
-143.8451388529276
 30
0.0
 10
104.7663872350931
 20
-143.8451388529276
 30
0.0
 10
104.7663872350931
 20
-143.8451388529276
 30
0.0
 10
104.791880941684
 20
-143.7204263963616
 30
0.0
 10
104.791880941684
 20
-143.3797064528704
 30
0.0
 10
104.791880941684
 20
-143.2422471430089
 30
0.0
 10
104.791880941684
 20
-143.2422471430089
 30
0.0
 10
104.3495306813779
 20
-143.2422471430089
 30
0.0
 10
104.3495306813779
 20
-143.2422471430089
 30
0.0
 10
104.3264485416267
 20
-143.4496418912209
 30
0.0
 10
104.260991727407
 20
-143.7183593390704
 30
0.0
 10
104.0639322656507
 20
-143.9023274379828
 30
0.0
 10
104.0639322656507
 20
-143.9023274379828
 30
0.0
 10
103.875830052156
 20
-143.7796820387079
 30
0.0
 10
103.875830052156
 20
-143.7796820387079
 30
0.0
 10
104.129733589419
 20
-143.5595404372004
 30
0.0
 10
104.1614284678833
 20
-143.2274332324223
 30
0.0
 10
104.1614284678833
 20
-142.8953260276442
 30
0.0
 10
104.1614284678833
 20
-142.8953260276442
 30
0.0
 10
104.1614284678833
 20
-142.4595214487601
 30
0.0
 10
104.1614284678833
 20
-142.4595214487601
 30
0.0
 10
104.1614284678833
 20
-142.4236924557135
 30
0.0
 10
104.1593614105921
 20
-142.1908040009106
 30
0.0
 10
104.150748671879
 20
-142.0891736840958
 30
0.0
 10
104.2906195485801
 20
-142.0998534801001
 30
0.0
 10
104.5317762325476
 20
-142.0998534801001
 30
0.0
 10
104.6754367142825
 20
-142.0998534801001
 30
0.0
 10
104.6754367142825
 20
-142.0998534801001
 30
0.0
 10
105.1346679424663
 20
-142.0998534801001
 30
0.0
 10
105.1346679424663
 20
-142.0998534801001
 30
0.0
 10
105.1494818530529
 20
-142.0998534801001
 30
0.0
 10
105.4984700257087
 20
-142.0998534801001
 30
0.0
 10
105.6569444180302
 20
-142.0891736840958
 30
0.0
 10
105.6548773607391
 20
-142.1418836450201
 30
0.0
 10
105.6486761888656
 20
-142.3031141137298
 30
0.0
 10
105.6486761888656
 20
-142.353757017363
 30
0.0
 10
105.6486761888656
 20
-142.353757017363
 30
0.0
 10
105.6486761888656
 20
-142.960782841864
 30
0.0
 10
105.6486761888656
 20
-142.960782841864
 30
0.0
 10
105.6486761888656
 20
-142.9797308670329
 30
0.0
 10
105.6590114753214
 20
-143.5509276984873
 30
0.0
 10
105.6590114753214
 20
-143.6632378113064
 30
0.0
 10
105.6590114753214
 20
-143.7204263963616
 30
0.0
 10
105.6590114753214
 20
-143.8217122036279
 30
0.0
 10
105.5766736932239
 20
-143.8685655022273
 30
0.0
  0
POLYLINE
  5
AD
330
99
100
AcDbEntity
  8
_U+30EC_U+30A4_U+30E4_U+30FC 1
370
     0
100
AcDb2dPolyline
 66
     1
 10
0.0
 20
0.0
 30
0.0
  0
VERTEX
  5
AE
330
AD
100
AcDbEntity
  8
_U+30EC_U+30A4_U+30E4_U+30FC 1
370
     0
100
AcDbVertex
100
AcDb2dVertex
 10
104.791880941684
 20
-142.2817545217212
 30
0.0
  0
VERTEX
  5
AF
330
AD
100
AcDbEntity
  8
_U+30EC_U+30A4_U+30E4_U+30FC 1
370
     0
100
AcDbVertex
100
AcDb2dVertex
 10
104.3540093055087
 20
-142.2817545217212
 30
0.0
  0
VERTEX
  5
B0
330
AD
100
AcDbEntity
  8
_U+30EC_U+30A4_U+30E4_U+30FC 1
370
     0
100
AcDbVertex
100
AcDb2dVertex
 10
104.3540093055087
 20
-142.5863009626173
 30
0.0
  0
VERTEX
  5
B1
330
AD
100
AcDbEntity
  8
_U+30EC_U+30A4_U+30E4_U+30FC 1
370
     0
100
AcDbVertex
100
AcDb2dVertex
 10
104.791880941684
 20
-142.5863009626173
 30
0.0
  0
VERTEX
  5
B2
330
AD
100
AcDbEntity
  8
_U+30EC_U+30A4_U+30E4_U+30FC 1
370
     0
100
AcDbVertex
100
AcDb2dVertex
 10
104.791880941684
 20
-142.2817545217212
 30
0.0
  0
SEQEND
  5
B3
330
AD
100
AcDbEntity
  8
_U+30EC_U+30A4_U+30E4_U+30FC 1
370
     0
  0
POLYLINE
  5
B4
330
99
100
AcDbEntity
  8
_U+30EC_U+30A4_U+30E4_U+30FC 1
370
     0
100
AcDb2dPolyline
 66
     1
 10
0.0
 20
0.0
 30
0.0
  0
VERTEX
  5
B5
330
B4
100
AcDbEntity
  8
_U+30EC_U+30A4_U+30E4_U+30FC 1
370
     0
100
AcDbVertex
100
AcDb2dVertex
 10
104.791880941684
 20
-142.7537326032005
 30
0.0
  0
VERTEX
  5
B6
330
B4
100
AcDbEntity
  8
_U+30EC_U+30A4_U+30E4_U+30FC 1
370
     0
100
AcDbVertex
100
AcDb2dVertex
 10
104.3540093055087
 20
-142.7537326032005
 30
0.0
  0
VERTEX
  5
B7
330
B4
100
AcDbEntity
  8
_U+30EC_U+30A4_U+30E4_U+30FC 1
370
     0
100
AcDbVertex
100
AcDb2dVertex
 10
104.3540093055087
 20
-143.0624131586789
 30
0.0
  0
VERTEX
  5
B8
330
B4
100
AcDbEntity
  8
_U+30EC_U+30A4_U+30E4_U+30FC 1
370
     0
100
AcDbVertex
100
AcDb2dVertex
 10
104.791880941684
 20
-143.0624131586789
 30
0.0
  0
VERTEX
  5
B9
330
B4
100
AcDbEntity
  8
_U+30EC_U+30A4_U+30E4_U+30FC 1
370
     0
100
AcDbVertex
100
AcDb2dVertex
 10
104.791880941684
 20
-142.7537326032005
 30
0.0
  0
SEQEND
  5
BA
330
B4
100
AcDbEntity
  8
_U+30EC_U+30A4_U+30E4_U+30FC 1
370
     0
  0
POLYLINE
  5
BB
330
99
100
AcDbEntity
  8
_U+30EC_U+30A4_U+30E4_U+30FC 1
370
     0
100
AcDb2dPolyline
 66
     1
 10
0.0
 20
0.0
 30
0.0
  0
VERTEX
  5
BC
330
BB
100
AcDbEntity
  8
_U+30EC_U+30A4_U+30E4_U+30FC 1
370
     0
100
AcDbVertex
100
AcDb2dVertex
 10
105.4412814406536
 20
-142.2817545217212
 30
0.0
  0
VERTEX
  5
BD
330
BB
100
AcDbEntity
  8
_U+30EC_U+30A4_U+30E4_U+30FC 1
370
     0
100
AcDbVertex
100
AcDb2dVertex
 10
104.9820502124698
 20
-142.2817545217212
 30
0.0
  0
VERTEX
  5
BE
330
BB
100
AcDbEntity
  8
_U+30EC_U+30A4_U+30E4_U+30FC 1
370
     0
100
AcDbVertex
100
AcDb2dVertex
 10
104.9820502124698
 20
-142.5863009626173
 30
0.0
  0
VERTEX
  5
BF
330
BB
100
AcDbEntity
  8
_U+30EC_U+30A4_U+30E4_U+30FC 1
370
     0
100
AcDbVertex
100
AcDb2dVertex
 10
105.4412814406536
 20
-142.5863009626173
 30
0.0
  0
VERTEX
  5
C0
330
BB
100
AcDbEntity
  8
_U+30EC_U+30A4_U+30E4_U+30FC 1
370
     0
100
AcDbVertex
100
AcDb2dVertex
 10
105.4412814406536
 20
-142.2817545217212
 30
0.0
  0
SEQEND
  5
C1
330
BB
100
AcDbEntity
  8
_U+30EC_U+30A4_U+30E4_U+30FC 1
370
     0
  0
POLYLINE
  5
C2
330
99
100
AcDbEntity
  8
_U+30EC_U+30A4_U+30E4_U+30FC 1
370
     0
100
AcDb2dPolyline
 66
     1
 10
0.0
 20
0.0
 30
0.0
  0
VERTEX
  5
C3
330
C2
100
AcDbEntity
  8
_U+30EC_U+30A4_U+30E4_U+30FC 1
370
     0
100
AcDbVertex
100
AcDb2dVertex
 10
105.4412814406536
 20
-142.7537326032005
 30
0.0
  0
VERTEX
  5
C4
330
C2
100
AcDbEntity
  8
_U+30EC_U+30A4_U+30E4_U+30FC 1
370
     0
100
AcDbVertex
100
AcDb2dVertex
 10
104.9820502124698
 20
-142.7537326032005
 30
0.0
  0
VERTEX
  5
C5
330
C2
100
AcDbEntity
  8
_U+30EC_U+30A4_U+30E4_U+30FC 1
370
     0
100
AcDbVertex
100
AcDb2dVertex
 10
104.9820502124698
 20
-143.0624131586789
 30
0.0
  0
VERTEX
  5
C6
330
C2
100
AcDbEntity
  8
_U+30EC_U+30A4_U+30E4_U+30FC 1
370
     0
100
AcDbVertex
100
AcDb2dVertex
 10
105.4412814406536
 20
-143.0624131586789
 30
0.0
  0
VERTEX
  5
C7
330
C2
100
AcDbEntity
  8
_U+30EC_U+30A4_U+30E4_U+30FC 1
370
     0
100
AcDbVertex
100
AcDb2dVertex
 10
105.4412814406536
 20
-142.7537326032005
 30
0.0
  0
SEQEND
  5
C8
330
C2
100
AcDbEntity
  8
_U+30EC_U+30A4_U+30E4_U+30FC 1
370
     0
  0
HATCH
  5
C9
330
99
100
AcDbEntity
  8
_U+30EC_U+30A4_U+30E4_U+30FC 1
 62
   179
420
  2234388
100
AcDbHatch
 10
0.0
 20
0.0
 30
0.0
210
0.0
220
0.0
230
1.0
  2
SOLID
 70
     1
 71
     0
 91
        5
 92
        1
 93
        1
 72
     4
 94
        3
 73
     0
 74
     1
 95
       77
 96
       73
 40
0.0
 40
0.0
 40
0.0
 40
0.0
 40
1.0
 40
1.0
 40
1.0
 40
2.0
 40
2.0
 40
2.0
 40
3.0
 40
3.0
 40
3.0
 40
4.0
 40
4.0
 40
4.0
 40
5.0
 40
5.0
 40
5.0
 40
6.0
 40
6.0
 40
6.0
 40
7.0
 40
7.0
 40
7.0
 40
8.0
 40
8.0
 40
8.0
 40
9.0
 40
9.0
 40
9.0
 40
10.0
 40
10.0
 40
10.0
 40
11.0
 40
11.0
 40
11.0
 40
12.0
 40
12.0
 40
12.0
 40
13.0
 40
13.0
 40
13.0
 40
14.0
 40
14.0
 40
14.0
 40
15.0
 40
15.0
 40
15.0
 40
16.0
 40
16.0
 40
16.0
 40
17.0
 40
17.0
 40
17.0
 40
18.0
 40
18.0
 40
18.0
 40
19.0
 40
19.0
 40
19.0
 40
20.0
 40
20.0
 40
20.0
 40
21.0
 40
21.0
 40
21.0
 40
22.0
 40
22.0
 40
22.0
 40
23.0
 40
23.0
 40
23.0
 40
24.0
 40
24.0
 40
24.0
 40
24.0
 10
105.5766736932239
 20
-143.8685655022273
 10
105.530164904173
 20
-143.8937146992696
 10
105.405452447607
 20
-143.906461552565
 10
105.3269042705433
 20
-143.906461552565
 10
105.3145019267964
 20
-143.906461552565
 10
105.2890082202055
 20
-143.906461552565
 10
105.2552462844501
 20
-143.9023274379828
 10
105.2552462844501
 20
-143.9023274379828
 10
105.1577500822175
 20
-143.6756401550533
 10
105.1577500822175
 20
-143.6756401550533
 10
105.1873779033907
 20
-143.6821858364753
 10
105.2445664884458
 20
-143.6907985751884
 10
105.3610107158473
 20
-143.6907985751884
 10
105.4392143833624
 20
-143.6907985751884
 10
105.4412814406536
 20
-143.6484239007198
 10
105.4412814406536
 20
-143.5912353156647
 10
105.4412814406536
 20
-143.5912353156647
 10
105.4412814406536
 20
-143.2422471430089
 10
105.4412814406536
 20
-143.2422471430089
 10
105.4412814406536
 20
-143.2422471430089
 10
104.9820502124698
 20
-143.2422471430089
 10
104.9820502124698
 20
-143.2422471430089
 10
104.9844617793094
 20
-143.3797064528704
 10
104.9865288366006
 20
-143.5784884623693
 10
104.992730008474
 20
-143.7118136576484
 10
104.9947970657652
 20
-143.7393744215304
 10
104.9947970657652
 20
-143.7838161532902
 10
105.0075439190606
 20
-143.8451388529276
 10
105.0075439190606
 20
-143.8451388529276
 10
104.7663872350931
 20
-143.8451388529276
 10
104.7663872350931
 20
-143.8451388529276
 10
104.791880941684
 20
-143.7204263963616
 10
104.791880941684
 20
-143.3797064528704
 10
104.791880941684
 20
-143.2422471430089
 10
104.791880941684
 20
-143.2422471430089
 10
104.3495306813779
 20
-143.2422471430089
 10
104.3495306813779
 20
-143.2422471430089
 10
104.3264485416267
 20
-143.4496418912209
 10
104.260991727407
 20
-143.7183593390704
 10
104.0639322656507
 20
-143.9023274379828
 10
104.0639322656507
 20
-143.9023274379828
 10
103.875830052156
 20
-143.7796820387079
 10
103.875830052156
 20
-143.7796820387079
 10
104.129733589419
 20
-143.5595404372004
 10
104.1614284678833
 20
-143.2274332324223
 10
104.1614284678833
 20
-142.8953260276442
 10
104.1614284678833
 20
-142.8953260276442
 10
104.1614284678833
 20
-142.4595214487601
 10
104.1614284678833
 20
-142.4595214487601
 10
104.1614284678833
 20
-142.4236924557135
 10
104.1593614105921
 20
-142.1908040009106
 10
104.150748671879
 20
-142.0891736840958
 10
104.2906195485801
 20
-142.0998534801001
 10
104.5317762325476
 20
-142.0998534801001
 10
104.6754367142825
 20
-142.0998534801001
 10
104.6754367142825
 20
-142.0998534801001
 10
105.1346679424663
 20
-142.0998534801001
 10
105.1346679424663
 20
-142.0998534801001
 10
105.1494818530529
 20
-142.0998534801001
 10
105.4984700257087
 20
-142.0998534801001
 10
105.6569444180302
 20
-142.0891736840958
 10
105.6548773607391
 20
-142.1418836450201
 10
105.6486761888656
 20
-142.3031141137298
 10
105.6486761888656
 20
-142.353757017363
 10
105.6486761888656
 20
-142.353757017363
 10
105.6486761888656
 20
-142.960782841864
 10
105.6486761888656
 20
-142.960782841864
 10
105.6486761888656
 20
-142.9797308670329
 10
105.6590114753214
 20
-143.5509276984873
 10
105.6590114753214
 20
-143.6632378113064
 10
105.6590114753214
 20
-143.7204263963616
 10
105.6590114753214
 20
-143.8217122036279
 10
105.5766736932239
 20
-143.8685655022273
 97
        0
 97
        0
 92
        1
 93
        4
 72
     1
 10
104.791880941684
 20
-142.2817545217212
 11
104.3540093055087
 21
-142.2817545217212
 72
     1
 10
104.3540093055087
 20
-142.2817545217212
 11
104.3540093055087
 21
-142.5863009626173
 72
     1
 10
104.3540093055087
 20
-142.5863009626173
 11
104.791880941684
 21
-142.5863009626173
 72
     1
 10
104.791880941684
 20
-142.5863009626173
 11
104.791880941684
 21
-142.2817545217212
 97
        0
 92
        1
 93
        4
 72
     1
 10
104.791880941684
 20
-142.7537326032005
 11
104.3540093055087
 21
-142.7537326032005
 72
     1
 10
104.3540093055087
 20
-142.7537326032005
 11
104.3540093055087
 21
-143.0624131586789
 72
     1
 10
104.3540093055087
 20
-143.0624131586789
 11
104.791880941684
 21
-143.0624131586789
 72
     1
 10
104.791880941684
 20
-143.0624131586789
 11
104.791880941684
 21
-142.7537326032005
 97
        0
 92
        1
 93
        4
 72
     1
 10
105.4412814406536
 20
-142.2817545217212
 11
104.9820502124698
 21
-142.2817545217212
 72
     1
 10
104.9820502124698
 20
-142.2817545217212
 11
104.9820502124698
 21
-142.5863009626173
 72
     1
 10
104.9820502124698
 20
-142.5863009626173
 11
105.4412814406536
 21
-142.5863009626173
 72
     1
 10
105.4412814406536
 20
-142.5863009626173
 11
105.4412814406536
 21
-142.2817545217212
 97
        0
 92
        1
 93
        4
 72
     1
 10
105.4412814406536
 20
-142.7537326032005
 11
104.9820502124698
 21
-142.7537326032005
 72
     1
 10
104.9820502124698
 20
-142.7537326032005
 11
104.9820502124698
 21
-143.0624131586789
 72
     1
 10
104.9820502124698
 20
-143.0624131586789
 11
105.4412814406536
 21
-143.0624131586789
 72
     1
 10
105.4412814406536
 20
-143.0624131586789
 11
105.4412814406536
 21
-142.7537326032005
 97
        0
 75
     2
 76
     1
 98
        0
  0
SPLINE
  5
CA
330
99
100
AcDbEntity
  8
_U+30EC_U+30A4_U+30E4_U+30FC 1
370
     0
100
AcDbSpline
210
0.0
220
0.0
230
1.0
 70
    11
 71
     3
 72
    44
 73
    40
 74
     0
 42
0.0000000001
 43
0.0000000001
 12
1.0
 22
0.0
 32
0.0
 13
1.0
 23
0.0
 33
0.0
 40
0.0
 40
0.0
 40
0.0
 40
0.0
 40
1.0
 40
1.0
 40
1.0
 40
2.0
 40
2.0
 40
2.0
 40
3.0
 40
3.0
 40
3.0
 40
4.0
 40
4.0
 40
4.0
 40
5.0
 40
5.0
 40
5.0
 40
6.0
 40
6.0
 40
6.0
 40
7.0
 40
7.0
 40
7.0
 40
8.0
 40
8.0
 40
8.0
 40
9.0
 40
9.0
 40
9.0
 40
10.0
 40
10.0
 40
10.0
 40
11.0
 40
11.0
 40
11.0
 40
12.0
 40
12.0
 40
12.0
 40
13.0
 40
13.0
 40
13.0
 40
13.0
 10
107.4542507326851
 20
-142.6179958410816
 30
0.0
 10
107.3422851294144
 20
-142.9862765484548
 30
0.0
 10
107.2916422257813
 20
-143.1450954503248
 30
0.0
 10
107.0949272735735
 20
-143.3945203634569
 30
0.0
 10
106.9106146651126
 20
-143.6253417609687
 30
0.0
 10
106.673936605276
 20
-143.8113769171722
 30
0.0
 10
106.3945393614222
 20
-143.9043944952739
 30
0.0
 10
106.3945393614222
 20
-143.9043944952739
 30
0.0
 10
106.2019585237967
 20
-143.7245605109439
 30
0.0
 10
106.2019585237967
 20
-143.7245605109439
 30
0.0
 10
106.8430907936017
 20
-143.5722872904958
 30
0.0
 10
107.1731309410887
 20
-143.015904369628
 30
0.0
 10
107.2365206980173
 20
-142.5759656761616
 30
0.0
 10
107.2365206980173
 20
-142.5759656761616
 30
0.0
 10
106.4706759716462
 20
-142.5759656761616
 30
0.0
 10
106.4706759716462
 20
-142.5759656761616
 30
0.0
 10
106.3776583935445
 20
-142.5759656761616
 30
0.0
 10
106.1936902946321
 20
-142.5800997907439
 30
0.0
 10
106.0369384500533
 20
-142.5990478159127
 30
0.0
 10
106.0369384500533
 20
-142.5990478159127
 30
0.0
 10
106.0369384500533
 20
-142.3789062144053
 30
0.0
 10
106.0369384500533
 20
-142.3789062144053
 30
0.0
 10
106.1237548562816
 20
-142.4002658064138
 30
0.0
 10
106.3755913362533
 20
-142.4002658064138
 30
0.0
 10
106.4748100862285
 20
-142.4002658064138
 30
0.0
 10
106.4748100862285
 20
-142.4002658064138
 30
0.0
 10
106.9064805505303
 20
-142.4002658064138
 30
0.0
 10
106.9064805505303
 20
-142.4002658064138
 30
0.0
 10
106.9488552249989
 20
-142.4002658064138
 30
0.0
 10
107.1834662275444
 20
-142.3981987491227
 30
0.0
 10
107.2217067874307
 20
-142.3919975772492
 30
0.0
 10
107.2640814618993
 20
-142.3854518958273
 30
0.0
 10
107.2661485191904
 20
-142.3833848385361
 30
0.0
 10
107.3274712188279
 20
-142.3430772213587
 30
0.0
 10
107.3274712188279
 20
-142.3430772213587
 30
0.0
 10
107.515917941871
 20
-142.4974174990979
 30
0.0
 10
107.515917941871
 20
-142.4974174990979
 30
0.0
 10
107.4862901206979
 20
-142.527045320271
 30
0.0
 10
107.4714762101113
 20
-142.5587401987353
 30
0.0
 10
107.4542507326851
 20
-142.6179958410816
 30
0.0
  0
SPLINE
  5
CB
330
99
100
AcDbEntity
  8
_U+30EC_U+30A4_U+30E4_U+30FC 1
370
     0
100
AcDbSpline
210
0.0
220
0.0
230
1.0
 70
    11
 71
     3
 72
    17
 73
    13
 74
     0
 42
0.0000000001
 43
0.0000000001
 12
1.0
 22
0.0
 32
0.0
 13
1.0
 23
0.0
 33
0.0
 40
0.0
 40
0.0
 40
0.0
 40
0.0
 40
1.0
 40
1.0
 40
1.0
 40
2.0
 40
2.0
 40
2.0
 40
3.0
 40
3.0
 40
3.0
 40
4.0
 40
4.0
 40
4.0
 40
4.0
 10
107.6637125381882
 20
-142.4192138315827
 30
0.0
 10
107.536933024331
 20
-142.4192138315827
 30
0.0
 10
107.4353027075162
 20
-142.3175835147678
 30
0.0
 10
107.4353027075162
 20
-142.1908040009106
 30
0.0
 10
107.4353027075162
 20
-142.0640244870534
 30
0.0
 10
107.536933024331
 20
-141.9599826033989
 30
0.0
 10
107.6637125381882
 20
-141.9599826033989
 30
0.0
 10
107.790836561594
 20
-141.9599826033989
 30
0.0
 10
107.8945339357
 20
-142.0640244870534
 30
0.0
 10
107.8945339357
 20
-142.1908040009106
 30
0.0
 10
107.8945339357
 20
-142.3175835147678
 30
0.0
 10
107.790836561594
 20
-142.4192138315827
 30
0.0
 10
107.6637125381882
 20
-142.4192138315827
 30
0.0
  0
SPLINE
  5
CC
330
99
100
AcDbEntity
  8
_U+30EC_U+30A4_U+30E4_U+30FC 1
370
     0
100
AcDbSpline
210
0.0
220
0.0
230
1.0
 70
    11
 71
     3
 72
    17
 73
    13
 74
     0
 42
0.0000000001
 43
0.0000000001
 12
1.0
 22
0.0
 32
0.0
 13
1.0
 23
0.0
 33
0.0
 40
0.0
 40
0.0
 40
0.0
 40
0.0
 40
1.0
 40
1.0
 40
1.0
 40
2.0
 40
2.0
 40
2.0
 40
3.0
 40
3.0
 40
3.0
 40
4.0
 40
4.0
 40
4.0
 40
4.0
 10
107.6616454808971
 20
-142.0891736840958
 30
0.0
 10
107.6068684626816
 20
-142.0891736840958
 30
0.0
 10
107.5624267309219
 20
-142.1336154158555
 30
0.0
 10
107.5624267309219
 20
-142.1887369436195
 30
0.0
 10
107.5624267309219
 20
-142.2459255286746
 30
0.0
 10
107.6068684626816
 20
-142.2945013750167
 30
0.0
 10
107.6657795954794
 20
-142.2945013750167
 30
0.0
 10
107.7250352378257
 20
-142.2945013750167
 30
0.0
 10
107.7653428550031
 20
-142.2438584713835
 30
0.0
 10
107.7653428550031
 20
-142.1908040009106
 30
0.0
 10
107.7653428550031
 20
-142.1336154158555
 30
0.0
 10
107.7188340659522
 20
-142.0891736840958
 30
0.0
 10
107.6616454808971
 20
-142.0891736840958
 30
0.0
  0
HATCH
  5
CD
330
99
100
AcDbEntity
  8
_U+30EC_U+30A4_U+30E4_U+30FC 1
 62
   179
420
  2234388
100
AcDbHatch
 10
0.0
 20
0.0
 30
0.0
210
0.0
220
0.0
230
1.0
  2
SOLID
 70
     1
 71
     0
 91
        3
 92
        1
 93
        1
 72
     4
 94
        3
 73
     0
 74
     1
 95
       44
 96
       40
 40
0.0
 40
0.0
 40
0.0
 40
0.0
 40
1.0
 40
1.0
 40
1.0
 40
2.0
 40
2.0
 40
2.0
 40
3.0
 40
3.0
 40
3.0
 40
4.0
 40
4.0
 40
4.0
 40
5.0
 40
5.0
 40
5.0
 40
6.0
 40
6.0
 40
6.0
 40
7.0
 40
7.0
 40
7.0
 40
8.0
 40
8.0
 40
8.0
 40
9.0
 40
9.0
 40
9.0
 40
10.0
 40
10.0
 40
10.0
 40
11.0
 40
11.0
 40
11.0
 40
12.0
 40
12.0
 40
12.0
 40
13.0
 40
13.0
 40
13.0
 40
13.0
 10
107.4542507326851
 20
-142.6179958410816
 10
107.3422851294144
 20
-142.9862765484548
 10
107.2916422257813
 20
-143.1450954503248
 10
107.0949272735735
 20
-143.3945203634569
 10
106.9106146651126
 20
-143.6253417609687
 10
106.673936605276
 20
-143.8113769171722
 10
106.3945393614222
 20
-143.9043944952739
 10
106.3945393614222
 20
-143.9043944952739
 10
106.2019585237967
 20
-143.7245605109439
 10
106.2019585237967
 20
-143.7245605109439
 10
106.8430907936017
 20
-143.5722872904958
 10
107.1731309410887
 20
-143.015904369628
 10
107.2365206980173
 20
-142.5759656761616
 10
107.2365206980173
 20
-142.5759656761616
 10
106.4706759716462
 20
-142.5759656761616
 10
106.4706759716462
 20
-142.5759656761616
 10
106.3776583935445
 20
-142.5759656761616
 10
106.1936902946321
 20
-142.5800997907439
 10
106.0369384500533
 20
-142.5990478159127
 10
106.0369384500533
 20
-142.5990478159127
 10
106.0369384500533
 20
-142.3789062144053
 10
106.0369384500533
 20
-142.3789062144053
 10
106.1237548562816
 20
-142.4002658064138
 10
106.3755913362533
 20
-142.4002658064138
 10
106.4748100862285
 20
-142.4002658064138
 10
106.4748100862285
 20
-142.4002658064138
 10
106.9064805505303
 20
-142.4002658064138
 10
106.9064805505303
 20
-142.4002658064138
 10
106.9488552249989
 20
-142.4002658064138
 10
107.1834662275444
 20
-142.3981987491227
 10
107.2217067874307
 20
-142.3919975772492
 10
107.2640814618993
 20
-142.3854518958273
 10
107.2661485191904
 20
-142.3833848385361
 10
107.3274712188279
 20
-142.3430772213587
 10
107.3274712188279
 20
-142.3430772213587
 10
107.515917941871
 20
-142.4974174990979
 10
107.515917941871
 20
-142.4974174990979
 10
107.4862901206979
 20
-142.527045320271
 10
107.4714762101113
 20
-142.5587401987353
 10
107.4542507326851
 20
-142.6179958410816
 97
        0
 97
        0
 92
        1
 93
        1
 72
     4
 94
        3
 73
     0
 74
     1
 95
       17
 96
       13
 40
0.0
 40
0.0
 40
0.0
 40
0.0
 40
1.0
 40
1.0
 40
1.0
 40
2.0
 40
2.0
 40
2.0
 40
3.0
 40
3.0
 40
3.0
 40
4.0
 40
4.0
 40
4.0
 40
4.0
 10
107.6637125381882
 20
-142.4192138315827
 10
107.536933024331
 20
-142.4192138315827
 10
107.4353027075162
 20
-142.3175835147678
 10
107.4353027075162
 20
-142.1908040009106
 10
107.4353027075162
 20
-142.0640244870534
 10
107.536933024331
 20
-141.9599826033989
 10
107.6637125381882
 20
-141.9599826033989
 10
107.790836561594
 20
-141.9599826033989
 10
107.8945339357
 20
-142.0640244870534
 10
107.8945339357
 20
-142.1908040009106
 10
107.8945339357
 20
-142.3175835147678
 10
107.790836561594
 20
-142.4192138315827
 10
107.6637125381882
 20
-142.4192138315827
 97
        0
 97
        0
 92
        1
 93
        1
 72
     4
 94
        3
 73
     0
 74
     1
 95
       17
 96
       13
 40
0.0
 40
0.0
 40
0.0
 40
0.0
 40
1.0
 40
1.0
 40
1.0
 40
2.0
 40
2.0
 40
2.0
 40
3.0
 40
3.0
 40
3.0
 40
4.0
 40
4.0
 40
4.0
 40
4.0
 10
107.6616454808971
 20
-142.0891736840958
 10
107.6068684626816
 20
-142.0891736840958
 10
107.5624267309219
 20
-142.1336154158555
 10
107.5624267309219
 20
-142.1887369436195
 10
107.5624267309219
 20
-142.2459255286746
 10
107.6068684626816
 20
-142.2945013750167
 10
107.6657795954794
 20
-142.2945013750167
 10
107.7250352378257
 20
-142.2945013750167
 10
107.7653428550031
 20
-142.2438584713835
 10
107.7653428550031
 20
-142.1908040009106
 10
107.7653428550031
 20
-142.1336154158555
 10
107.7188340659522
 20
-142.0891736840958
 10
107.6616454808971
 20
-142.0891736840958
 97
        0
 97
        0
 75
     2
 76
     1
 98
        0
  0
SPLINE
  5
CE
330
99
100
AcDbEntity
  8
_U+30EC_U+30A4_U+30E4_U+30FC 1
370
     0
100
AcDbSpline
210
0.0
220
0.0
230
1.0
 70
    11
 71
     3
 72
    50
 73
    46
 74
     0
 42
0.0000000001
 43
0.0000000001
 12
1.0
 22
0.0
 32
0.0
 13
1.0
 23
0.0
 33
0.0
 40
0.0
 40
0.0
 40
0.0
 40
0.0
 40
1.0
 40
1.0
 40
1.0
 40
2.0
 40
2.0
 40
2.0
 40
3.0
 40
3.0
 40
3.0
 40
4.0
 40
4.0
 40
4.0
 40
5.0
 40
5.0
 40
5.0
 40
6.0
 40
6.0
 40
6.0
 40
7.0
 40
7.0
 40
7.0
 40
8.0
 40
8.0
 40
8.0
 40
9.0
 40
9.0
 40
9.0
 40
10.0
 40
10.0
 40
10.0
 40
11.0
 40
11.0
 40
11.0
 40
12.0
 40
12.0
 40
12.0
 40
13.0
 40
13.0
 40
13.0
 40
14.0
 40
14.0
 40
14.0
 40
15.0
 40
15.0
 40
15.0
 40
15.0
 10
109.4589517955519
 20
-142.9270209061085
 30
0.0
 10
109.3804036184882
 20
-143.1044433235989
 30
0.0
 10
109.2450113659179
 20
-143.3118380718109
 30
0.0
 10
109.1075520560564
 20
-143.4517089485121
 30
0.0
 10
108.9383978677307
 20
-143.622930194129
 30
0.0
 10
108.7754448512784
 20
-143.7118136576484
 30
0.0
 10
108.4560844997957
 20
-143.8534070820922
 30
0.0
 10
108.4560844997957
 20
-143.8534070820922
 30
0.0
 10
108.2869303114699
 20
-143.6653048685976
 30
0.0
 10
108.2869303114699
 20
-143.6653048685976
 30
0.0
 10
108.4729654676734
 20
-143.6418782192979
 30
0.0
 10
108.6441867132904
 20
-143.5550618130696
 30
0.0
 10
108.7968044432869
 20
-143.4496418912209
 30
0.0
 10
109.0589762097144
 20
-143.2677408495997
 30
0.0
 10
109.2494899900487
 20
-142.954237160442
 30
0.0
 10
109.2980658363908
 20
-142.7723361188208
 30
0.0
 10
109.2980658363908
 20
-142.7723361188208
 30
0.0
 10
108.6273057454126
 20
-142.7723361188208
 30
0.0
 10
108.6273057454126
 20
-142.7723361188208
 30
0.0
 10
108.4688313530911
 20
-142.7723361188208
 30
0.0
 10
108.1766872559419
 20
-142.7809488575339
 30
0.0
 10
108.0244140354939
 20
-142.7978298254117
 30
0.0
 10
108.0244140354939
 20
-142.7978298254117
 30
0.0
 10
108.0244140354939
 20
-142.5694199947396
 30
0.0
 10
108.0244140354939
 20
-142.5694199947396
 30
0.0
 10
108.0585204807979
 20
-142.5759656761616
 30
0.0
 10
108.0836696778402
 20
-142.582166848035
 30
0.0
 10
108.136724148313
 20
-142.5863009626173
 30
0.0
 10
108.2380099555794
 20
-142.5925021344908
 30
0.0
 10
108.4350694173357
 20
-142.5949137013305
 30
0.0
 10
108.5194742567243
 20
-142.5949137013305
 30
0.0
 10
108.5194742567243
 20
-142.5949137013305
 30
0.0
 10
109.025214273959
 20
-142.5949137013305
 30
0.0
 10
109.025214273959
 20
-142.5949137013305
 30
0.0
 10
109.0927381454699
 20
-142.5949137013305
 30
0.0
 10
109.2388101940445
 20
-142.5904350771996
 30
0.0
 10
109.3001328936819
 20
-142.5842339053262
 30
0.0
 10
109.3721353893236
 20
-142.5759656761616
 30
0.0
 10
109.3996961532056
 20
-142.5608072560265
 30
0.0
 10
109.4334580889611
 20
-142.5377251162753
 30
0.0
 10
109.4334580889611
 20
-142.5377251162753
 30
0.0
 10
109.5984781627046
 20
-142.7048122473099
 30
0.0
 10
109.5984781627046
 20
-142.7048122473099
 30
0.0
 10
109.528542724354
 20
-142.7723361188208
 30
0.0
 10
109.4820339353031
 20
-142.8763780024753
 30
0.0
 10
109.4589517955519
 20
-142.9270209061085
 30
0.0
  0
SPLINE
  5
CF
330
99
100
AcDbEntity
  8
_U+30EC_U+30A4_U+30E4_U+30FC 1
370
     0
100
AcDbSpline
210
0.0
220
0.0
230
1.0
 70
    11
 71
     3
 72
    29
 73
    25
 74
     0
 42
0.0000000001
 43
0.0000000001
 12
1.0
 22
0.0
 32
0.0
 13
1.0
 23
0.0
 33
0.0
 40
0.0
 40
0.0
 40
0.0
 40
0.0
 40
1.0
 40
1.0
 40
1.0
 40
2.0
 40
2.0
 40
2.0
 40
3.0
 40
3.0
 40
3.0
 40
4.0
 40
4.0
 40
4.0
 40
5.0
 40
5.0
 40
5.0
 40
6.0
 40
6.0
 40
6.0
 40
7.0
 40
7.0
 40
7.0
 40
8.0
 40
8.0
 40
8.0
 40
8.0
 10
108.9659586316127
 20
-142.3010470564386
 30
0.0
 10
108.9659586316127
 20
-142.3010470564386
 30
0.0
 10
108.6252386881215
 20
-142.3010470564386
 30
0.0
 10
108.6252386881215
 20
-142.3010470564386
 30
0.0
 10
108.5112060275597
 20
-142.3010470564386
 30
0.0
 10
108.3947618001583
 20
-142.3051811710209
 30
0.0
 10
108.280384630048
 20
-142.319650572059
 30
0.0
 10
108.280384630048
 20
-142.319650572059
 30
0.0
 10
108.280384630048
 20
-142.1101887665558
 30
0.0
 10
108.280384630048
 20
-142.1101887665558
 30
0.0
 10
108.3988959147406
 20
-142.1253471866909
 30
0.0
 10
108.5725287271972
 20
-142.1294813012732
 30
0.0
 10
108.6252386881215
 20
-142.1294813012732
 30
0.0
 10
108.6252386881215
 20
-142.1294813012732
 30
0.0
 10
108.9659586316127
 20
-142.1294813012732
 30
0.0
 10
108.9659586316127
 20
-142.1294813012732
 30
0.0
 10
109.0824028590141
 20
-142.1294813012732
 30
0.0
 10
109.198502576867
 20
-142.1253471866909
 30
0.0
 10
109.3149468042685
 20
-142.1101887665558
 30
0.0
 10
109.3149468042685
 20
-142.1101887665558
 30
0.0
 10
109.3149468042685
 20
-142.319650572059
 30
0.0
 10
109.3149468042685
 20
-142.319650572059
 30
0.0
 10
109.1647406411116
 20
-142.3010470564386
 30
0.0
 10
108.9807725421993
 20
-142.3010470564386
 30
0.0
 10
108.9659586316127
 20
-142.3010470564386
 30
0.0
  0
HATCH
  5
D0
330
99
100
AcDbEntity
  8
_U+30EC_U+30A4_U+30E4_U+30FC 1
 62
   179
420
  2234388
100
AcDbHatch
 10
0.0
 20
0.0
 30
0.0
210
0.0
220
0.0
230
1.0
  2
SOLID
 70
     1
 71
     0
 91
        2
 92
        1
 93
        1
 72
     4
 94
        3
 73
     0
 74
     1
 95
       50
 96
       46
 40
0.0
 40
0.0
 40
0.0
 40
0.0
 40
1.0
 40
1.0
 40
1.0
 40
2.0
 40
2.0
 40
2.0
 40
3.0
 40
3.0
 40
3.0
 40
4.0
 40
4.0
 40
4.0
 40
5.0
 40
5.0
 40
5.0
 40
6.0
 40
6.0
 40
6.0
 40
7.0
 40
7.0
 40
7.0
 40
8.0
 40
8.0
 40
8.0
 40
9.0
 40
9.0
 40
9.0
 40
10.0
 40
10.0
 40
10.0
 40
11.0
 40
11.0
 40
11.0
 40
12.0
 40
12.0
 40
12.0
 40
13.0
 40
13.0
 40
13.0
 40
14.0
 40
14.0
 40
14.0
 40
15.0
 40
15.0
 40
15.0
 40
15.0
 10
109.4589517955519
 20
-142.9270209061085
 10
109.3804036184882
 20
-143.1044433235989
 10
109.2450113659179
 20
-143.3118380718109
 10
109.1075520560564
 20
-143.4517089485121
 10
108.9383978677307
 20
-143.622930194129
 10
108.7754448512784
 20
-143.7118136576484
 10
108.4560844997957
 20
-143.8534070820922
 10
108.4560844997957
 20
-143.8534070820922
 10
108.2869303114699
 20
-143.6653048685976
 10
108.2869303114699
 20
-143.6653048685976
 10
108.4729654676734
 20
-143.6418782192979
 10
108.6441867132904
 20
-143.5550618130696
 10
108.7968044432869
 20
-143.4496418912209
 10
109.0589762097144
 20
-143.2677408495997
 10
109.2494899900487
 20
-142.954237160442
 10
109.2980658363908
 20
-142.7723361188208
 10
109.2980658363908
 20
-142.7723361188208
 10
108.6273057454126
 20
-142.7723361188208
 10
108.6273057454126
 20
-142.7723361188208
 10
108.4688313530911
 20
-142.7723361188208
 10
108.1766872559419
 20
-142.7809488575339
 10
108.0244140354939
 20
-142.7978298254117
 10
108.0244140354939
 20
-142.7978298254117
 10
108.0244140354939
 20
-142.5694199947396
 10
108.0244140354939
 20
-142.5694199947396
 10
108.0585204807979
 20
-142.5759656761616
 10
108.0836696778402
 20
-142.582166848035
 10
108.136724148313
 20
-142.5863009626173
 10
108.2380099555794
 20
-142.5925021344908
 10
108.4350694173357
 20
-142.5949137013305
 10
108.5194742567243
 20
-142.5949137013305
 10
108.5194742567243
 20
-142.5949137013305
 10
109.025214273959
 20
-142.5949137013305
 10
109.025214273959
 20
-142.5949137013305
 10
109.0927381454699
 20
-142.5949137013305
 10
109.2388101940445
 20
-142.5904350771996
 10
109.3001328936819
 20
-142.5842339053262
 10
109.3721353893236
 20
-142.5759656761616
 10
109.3996961532056
 20
-142.5608072560265
 10
109.4334580889611
 20
-142.5377251162753
 10
109.4334580889611
 20
-142.5377251162753
 10
109.5984781627046
 20
-142.7048122473099
 10
109.5984781627046
 20
-142.7048122473099
 10
109.528542724354
 20
-142.7723361188208
 10
109.4820339353031
 20
-142.8763780024753
 10
109.4589517955519
 20
-142.9270209061085
 97
        0
 97
        0
 92
        1
 93
        1
 72
     4
 94
        3
 73
     0
 74
     1
 95
       29
 96
       25
 40
0.0
 40
0.0
 40
0.0
 40
0.0
 40
1.0
 40
1.0
 40
1.0
 40
2.0
 40
2.0
 40
2.0
 40
3.0
 40
3.0
 40
3.0
 40
4.0
 40
4.0
 40
4.0
 40
5.0
 40
5.0
 40
5.0
 40
6.0
 40
6.0
 40
6.0
 40
7.0
 40
7.0
 40
7.0
 40
8.0
 40
8.0
 40
8.0
 40
8.0
 10
108.9659586316127
 20
-142.3010470564386
 10
108.9659586316127
 20
-142.3010470564386
 10
108.6252386881215
 20
-142.3010470564386
 10
108.6252386881215
 20
-142.3010470564386
 10
108.5112060275597
 20
-142.3010470564386
 10
108.3947618001583
 20
-142.3051811710209
 10
108.280384630048
 20
-142.319650572059
 10
108.280384630048
 20
-142.319650572059
 10
108.280384630048
 20
-142.1101887665558
 10
108.280384630048
 20
-142.1101887665558
 10
108.3988959147406
 20
-142.1253471866909
 10
108.5725287271972
 20
-142.1294813012732
 10
108.6252386881215
 20
-142.1294813012732
 10
108.6252386881215
 20
-142.1294813012732
 10
108.9659586316127
 20
-142.1294813012732
 10
108.9659586316127
 20
-142.1294813012732
 10
109.0824028590141
 20
-142.1294813012732
 10
109.198502576867
 20
-142.1253471866909
 10
109.3149468042685
 20
-142.1101887665558
 10
109.3149468042685
 20
-142.1101887665558
 10
109.3149468042685
 20
-142.319650572059
 10
109.3149468042685
 20
-142.319650572059
 10
109.1647406411116
 20
-142.3010470564386
 10
108.9807725421993
 20
-142.3010470564386
 10
108.9659586316127
 20
-142.3010470564386
 97
        0
 97
        0
 75
     2
 76
     1
 98
        0
  0
SPLINE
  5
D1
330
99
100
AcDbEntity
  8
_U+30EC_U+30A4_U+30E4_U+30FC 1
370
     0
100
AcDbSpline
210
0.0
220
0.0
230
1.0
 70
    11
 71
     3
 72
    50
 73
    46
 74
     0
 42
0.0000000001
 43
0.0000000001
 12
1.0
 22
0.0
 32
0.0
 13
1.0
 23
0.0
 33
0.0
 40
0.0
 40
0.0
 40
0.0
 40
0.0
 40
1.0
 40
1.0
 40
1.0
 40
2.0
 40
2.0
 40
2.0
 40
3.0
 40
3.0
 40
3.0
 40
4.0
 40
4.0
 40
4.0
 40
5.0
 40
5.0
 40
5.0
 40
6.0
 40
6.0
 40
6.0
 40
7.0
 40
7.0
 40
7.0
 40
8.0
 40
8.0
 40
8.0
 40
9.0
 40
9.0
 40
9.0
 40
10.0
 40
10.0
 40
10.0
 40
11.0
 40
11.0
 40
11.0
 40
12.0
 40
12.0
 40
12.0
 40
13.0
 40
13.0
 40
13.0
 40
14.0
 40
14.0
 40
14.0
 40
15.0
 40
15.0
 40
15.0
 40
15.0
 10
111.16909719443
 20
-142.2858886363035
 30
0.0
 10
110.9596353889268
 20
-142.499484556389
 30
0.0
 10
110.8879774028336
 20
-142.5718315615793
 30
0.0
 10
110.7460394688413
 20
-142.6899983367233
 30
0.0
 10
110.7460394688413
 20
-142.6899983367233
 30
0.0
 10
110.7460394688413
 20
-143.2570610535955
 30
0.0
 10
110.7460394688413
 20
-143.2570610535955
 30
0.0
 10
110.7460394688413
 20
-143.4072672167524
 30
0.0
 10
110.7525851502632
 20
-143.4262152419212
 30
0.0
 10
110.7567192648455
 20
-143.6039821689601
 30
0.0
 10
110.7587863221367
 20
-143.7348957973996
 30
0.0
 10
110.7649874940101
 20
-143.7838161532902
 30
0.0
 10
110.7715331754321
 20
-143.8430717956365
 30
0.0
 10
110.7715331754321
 20
-143.8430717956365
 30
0.0
 10
110.5451904020512
 20
-143.8430717956365
 30
0.0
 10
110.5451904020512
 20
-143.8430717956365
 30
0.0
 10
110.5493245166335
 20
-143.7986300638767
 30
0.0
 10
110.5534586312158
 20
-143.7521212748259
 30
0.0
 10
110.5534586312158
 20
-143.7435085361127
 30
0.0
 10
110.5534586312158
 20
-143.6632378113064
 30
0.0
 10
110.5579372553466
 20
-143.3118380718109
 30
0.0
 10
110.5579372553466
 20
-143.2401800857178
 30
0.0
 10
110.5579372553466
 20
-143.2401800857178
 30
0.0
 10
110.5579372553466
 20
-142.8336588184582
 30
0.0
 10
110.5579372553466
 20
-142.8336588184582
 30
0.0
 10
110.3760362137254
 20
-142.9587157845728
 30
0.0
 10
110.1813883188088
 20
-143.0686143305523
 30
0.0
 10
109.9781276851791
 20
-143.1554307367806
 30
0.0
 10
109.9781276851791
 20
-143.1554307367806
 30
0.0
 10
109.7752115610979
 20
-142.9924777203283
 30
0.0
 10
109.7752115610979
 20
-142.9924777203283
 30
0.0
 10
109.8978569603728
 20
-142.9566487272817
 30
0.0
 10
110.1538275549268
 20
-142.8825791743488
 30
0.0
 10
110.4986816130003
 20
-142.6266085797947
 30
0.0
 10
110.714344590377
 20
-142.4677896779247
 30
0.0
 10
110.9069254280024
 20
-142.2796874644301
 30
0.0
 10
111.0591986484505
 20
-142.0595458629226
 30
0.0
 10
111.0591986484505
 20
-142.0595458629226
 30
0.0
 10
111.2517794860759
 20
-142.2035508542061
 30
0.0
 10
111.2517794860759
 20
-142.2035508542061
 30
0.0
 10
111.2645263393714
 20
-142.2142306502103
 30
0.0
 10
111.272794568536
 20
-142.2287000512484
 30
0.0
 10
111.272794568536
 20
-142.2417914140923
 30
0.0
 10
111.272794568536
 20
-142.2817545217212
 30
0.0
 10
111.2348985181982
 20
-142.2817545217212
 30
0.0
 10
111.16909719443
 20
-142.2858886363035
 30
0.0
  0
HATCH
  5
D2
330
99
100
AcDbEntity
  8
_U+30EC_U+30A4_U+30E4_U+30FC 1
 62
   179
420
  2234388
100
AcDbHatch
 10
0.0
 20
0.0
 30
0.0
210
0.0
220
0.0
230
1.0
  2
SOLID
 70
     1
 71
     0
 91
        1
 92
        1
 93
        1
 72
     4
 94
        3
 73
     0
 74
     1
 95
       50
 96
       46
 40
0.0
 40
0.0
 40
0.0
 40
0.0
 40
1.0
 40
1.0
 40
1.0
 40
2.0
 40
2.0
 40
2.0
 40
3.0
 40
3.0
 40
3.0
 40
4.0
 40
4.0
 40
4.0
 40
5.0
 40
5.0
 40
5.0
 40
6.0
 40
6.0
 40
6.0
 40
7.0
 40
7.0
 40
7.0
 40
8.0
 40
8.0
 40
8.0
 40
9.0
 40
9.0
 40
9.0
 40
10.0
 40
10.0
 40
10.0
 40
11.0
 40
11.0
 40
11.0
 40
12.0
 40
12.0
 40
12.0
 40
13.0
 40
13.0
 40
13.0
 40
14.0
 40
14.0
 40
14.0
 40
15.0
 40
15.0
 40
15.0
 40
15.0
 10
111.16909719443
 20
-142.2858886363035
 10
110.9596353889268
 20
-142.499484556389
 10
110.8879774028336
 20
-142.5718315615793
 10
110.7460394688413
 20
-142.6899983367233
 10
110.7460394688413
 20
-142.6899983367233
 10
110.7460394688413
 20
-143.2570610535955
 10
110.7460394688413
 20
-143.2570610535955
 10
110.7460394688413
 20
-143.4072672167524
 10
110.7525851502632
 20
-143.4262152419212
 10
110.7567192648455
 20
-143.6039821689601
 10
110.7587863221367
 20
-143.7348957973996
 10
110.7649874940101
 20
-143.7838161532902
 10
110.7715331754321
 20
-143.8430717956365
 10
110.7715331754321
 20
-143.8430717956365
 10
110.5451904020512
 20
-143.8430717956365
 10
110.5451904020512
 20
-143.8430717956365
 10
110.5493245166335
 20
-143.7986300638767
 10
110.5534586312158
 20
-143.7521212748259
 10
110.5534586312158
 20
-143.7435085361127
 10
110.5534586312158
 20
-143.6632378113064
 10
110.5579372553466
 20
-143.3118380718109
 10
110.5579372553466
 20
-143.2401800857178
 10
110.5579372553466
 20
-143.2401800857178
 10
110.5579372553466
 20
-142.8336588184582
 10
110.5579372553466
 20
-142.8336588184582
 10
110.3760362137254
 20
-142.9587157845728
 10
110.1813883188088
 20
-143.0686143305523
 10
109.9781276851791
 20
-143.1554307367806
 10
109.9781276851791
 20
-143.1554307367806
 10
109.7752115610979
 20
-142.9924777203283
 10
109.7752115610979
 20
-142.9924777203283
 10
109.8978569603728
 20
-142.9566487272817
 10
110.1538275549268
 20
-142.8825791743488
 10
110.4986816130003
 20
-142.6266085797947
 10
110.714344590377
 20
-142.4677896779247
 10
110.9069254280024
 20
-142.2796874644301
 10
111.0591986484505
 20
-142.0595458629226
 10
111.0591986484505
 20
-142.0595458629226
 10
111.2517794860759
 20
-142.2035508542061
 10
111.2517794860759
 20
-142.2035508542061
 10
111.2645263393714
 20
-142.2142306502103
 10
111.272794568536
 20
-142.2287000512484
 10
111.272794568536
 20
-142.2417914140923
 10
111.272794568536
 20
-142.2817545217212
 10
111.2348985181982
 20
-142.2817545217212
 10
111.16909719443
 20
-142.2858886363035
 97
        0
 97
        0
 75
     2
 76
     1
 98
        0
  0
SPLINE
  5
D3
330
99
100
AcDbEntity
  8
_U+30EC_U+30A4_U+30E4_U+30FC 1
370
     0
100
AcDbSpline
210
0.0
220
0.0
230
1.0
 70
    11
 71
     3
 72
    50
 73
    46
 74
     0
 42
0.0000000001
 43
0.0000000001
 12
1.0
 22
0.0
 32
0.0
 13
1.0
 23
0.0
 33
0.0
 40
0.0
 40
0.0
 40
0.0
 40
0.0
 40
1.0
 40
1.0
 40
1.0
 40
2.0
 40
2.0
 40
2.0
 40
3.0
 40
3.0
 40
3.0
 40
4.0
 40
4.0
 40
4.0
 40
5.0
 40
5.0
 40
5.0
 40
6.0
 40
6.0
 40
6.0
 40
7.0
 40
7.0
 40
7.0
 40
8.0
 40
8.0
 40
8.0
 40
9.0
 40
9.0
 40
9.0
 40
10.0
 40
10.0
 40
10.0
 40
11.0
 40
11.0
 40
11.0
 40
12.0
 40
12.0
 40
12.0
 40
13.0
 40
13.0
 40
13.0
 40
14.0
 40
14.0
 40
14.0
 40
15.0
 40
15.0
 40
15.0
 40
15.0
 10
112.8775200455653
 20
-142.8129882455468
 30
0.0
 10
112.8161973459279
 20
-142.8846462316399
 30
0.0
 10
112.555748127243
 20
-143.2019395258315
 30
0.0
 10
112.4989040517364
 20
-143.2656737923086
 30
0.0
 10
112.583308891125
 20
-143.3628254849926
 30
0.0
 10
112.6342963043067
 20
-143.4262152419212
 30
0.0
 10
112.6997531185265
 20
-143.5171657627318
 30
0.0
 10
112.6997531185265
 20
-143.5171657627318
 30
0.0
 10
112.5157850196141
 20
-143.6549695821418
 30
0.0
 10
112.5157850196141
 20
-143.6549695821418
 30
0.0
 10
112.3803927670438
 20
-143.443096209799
 30
0.0
 10
112.2088270118784
 20
-143.2188204937092
 30
0.0
 10
111.9149603669865
 20
-143.0200384842103
 30
0.0
 10
111.9149603669865
 20
-143.0200384842103
 30
0.0
 10
112.0630994728523
 20
-142.8656982064711
 30
0.0
 10
112.0630994728523
 20
-142.8656982064711
 30
0.0
 10
112.1729980188318
 20
-142.9459689312774
 30
0.0
 10
112.2766953929378
 20
-143.0348523947968
 30
0.0
 10
112.3738470856218
 20
-143.1299370301898
 30
0.0
 10
112.4417154666812
 20
-143.0541449295143
 30
0.0
 10
112.6446315907625
 20
-142.8105766787071
 30
0.0
 10
112.7779567860416
 20
-142.582166848035
 30
0.0
 10
112.7779567860416
 20
-142.582166848035
 30
0.0
 10
112.1051296377723
 20
-142.582166848035
 30
0.0
 10
112.1051296377723
 20
-142.582166848035
 30
0.0
 10
111.9804171812063
 20
-142.582166848035
 30
0.0
 10
111.7285807012345
 20
-142.5904350771996
 30
0.0
 10
111.5191188957313
 20
-142.6011148732039
 30
0.0
 10
111.5191188957313
 20
-142.6011148732039
 30
0.0
 10
111.5191188957313
 20
-142.3809732716964
 30
0.0
 10
111.5191188957313
 20
-142.3809732716964
 30
0.0
 10
111.7034315041922
 20
-142.4002658064138
 30
0.0
 10
111.9084146855646
 20
-142.4043999209961
 30
0.0
 10
112.0968614086077
 20
-142.4043999209961
 30
0.0
 10
112.0968614086077
 20
-142.4043999209961
 30
0.0
 10
112.6001898590027
 20
-142.4043999209961
 30
0.0
 10
112.6001898590027
 20
-142.4043999209961
 30
0.0
 10
112.9388427452028
 20
-142.4043999209961
 30
0.0
 10
112.9832844769625
 20
-142.3895860104095
 30
0.0
 10
113.06562225906
 20
-142.3492783932321
 30
0.0
 10
113.06562225906
 20
-142.3492783932321
 30
0.0
 10
113.2327093900946
 20
-142.5080972951021
 30
0.0
 10
113.2327093900946
 20
-142.5080972951021
 30
0.0
 10
113.0804361696466
 20
-142.5800997907439
 30
0.0
 10
112.9367756879116
 20
-142.7427082976477
 30
0.0
 10
112.8775200455653
 20
-142.8129882455468
 30
0.0
  0
HATCH
  5
D4
330
99
100
AcDbEntity
  8
_U+30EC_U+30A4_U+30E4_U+30FC 1
 62
   179
420
  2234388
100
AcDbHatch
 10
0.0
 20
0.0
 30
0.0
210
0.0
220
0.0
230
1.0
  2
SOLID
 70
     1
 71
     0
 91
        1
 92
        1
 93
        1
 72
     4
 94
        3
 73
     0
 74
     1
 95
       50
 96
       46
 40
0.0
 40
0.0
 40
0.0
 40
0.0
 40
1.0
 40
1.0
 40
1.0
 40
2.0
 40
2.0
 40
2.0
 40
3.0
 40
3.0
 40
3.0
 40
4.0
 40
4.0
 40
4.0
 40
5.0
 40
5.0
 40
5.0
 40
6.0
 40
6.0
 40
6.0
 40
7.0
 40
7.0
 40
7.0
 40
8.0
 40
8.0
 40
8.0
 40
9.0
 40
9.0
 40
9.0
 40
10.0
 40
10.0
 40
10.0
 40
11.0
 40
11.0
 40
11.0
 40
12.0
 40
12.0
 40
12.0
 40
13.0
 40
13.0
 40
13.0
 40
14.0
 40
14.0
 40
14.0
 40
15.0
 40
15.0
 40
15.0
 40
15.0
 10
112.8775200455653
 20
-142.8129882455468
 10
112.8161973459279
 20
-142.8846462316399
 10
112.555748127243
 20
-143.2019395258315
 10
112.4989040517364
 20
-143.2656737923086
 10
112.583308891125
 20
-143.3628254849926
 10
112.6342963043067
 20
-143.4262152419212
 10
112.6997531185265
 20
-143.5171657627318
 10
112.6997531185265
 20
-143.5171657627318
 10
112.5157850196141
 20
-143.6549695821418
 10
112.5157850196141
 20
-143.6549695821418
 10
112.3803927670438
 20
-143.443096209799
 10
112.2088270118784
 20
-143.2188204937092
 10
111.9149603669865
 20
-143.0200384842103
 10
111.9149603669865
 20
-143.0200384842103
 10
112.0630994728523
 20
-142.8656982064711
 10
112.0630994728523
 20
-142.8656982064711
 10
112.1729980188318
 20
-142.9459689312774
 10
112.2766953929378
 20
-143.0348523947968
 10
112.3738470856218
 20
-143.1299370301898
 10
112.4417154666812
 20
-143.0541449295143
 10
112.6446315907625
 20
-142.8105766787071
 10
112.7779567860416
 20
-142.582166848035
 10
112.7779567860416
 20
-142.582166848035
 10
112.1051296377723
 20
-142.582166848035
 10
112.1051296377723
 20
-142.582166848035
 10
111.9804171812063
 20
-142.582166848035
 10
111.7285807012345
 20
-142.5904350771996
 10
111.5191188957313
 20
-142.6011148732039
 10
111.5191188957313
 20
-142.6011148732039
 10
111.5191188957313
 20
-142.3809732716964
 10
111.5191188957313
 20
-142.3809732716964
 10
111.7034315041922
 20
-142.4002658064138
 10
111.9084146855646
 20
-142.4043999209961
 10
112.0968614086077
 20
-142.4043999209961
 10
112.0968614086077
 20
-142.4043999209961
 10
112.6001898590027
 20
-142.4043999209961
 10
112.6001898590027
 20
-142.4043999209961
 10
112.9388427452028
 20
-142.4043999209961
 10
112.9832844769625
 20
-142.3895860104095
 10
113.06562225906
 20
-142.3492783932321
 10
113.06562225906
 20
-142.3492783932321
 10
113.2327093900946
 20
-142.5080972951021
 10
113.2327093900946
 20
-142.5080972951021
 10
113.0804361696466
 20
-142.5800997907439
 10
112.9367756879116
 20
-142.7427082976477
 10
112.8775200455653
 20
-142.8129882455468
 97
        0
 97
        0
 75
     2
 76
     1
 98
        0
  0
SPLINE
  5
D5
330
99
100
AcDbEntity
  8
_U+30EC_U+30A4_U+30E4_U+30FC 1
370
     0
100
AcDbSpline
210
0.0
220
0.0
230
1.0
 70
    11
 71
     3
 72
    29
 73
    25
 74
     0
 42
0.0000000001
 43
0.0000000001
 12
1.0
 22
0.0
 32
0.0
 13
1.0
 23
0.0
 33
0.0
 40
0.0
 40
0.0
 40
0.0
 40
0.0
 40
1.0
 40
1.0
 40
1.0
 40
2.0
 40
2.0
 40
2.0
 40
3.0
 40
3.0
 40
3.0
 40
4.0
 40
4.0
 40
4.0
 40
5.0
 40
5.0
 40
5.0
 40
6.0
 40
6.0
 40
6.0
 40
7.0
 40
7.0
 40
7.0
 40
8.0
 40
8.0
 40
8.0
 40
8.0
 10
114.5008490382151
 20
-143.0562119868054
 30
0.0
 10
114.5008490382151
 20
-143.0562119868054
 30
0.0
 10
114.0164686129889
 20
-143.0562119868054
 30
0.0
 10
114.0164686129889
 20
-143.0562119868054
 30
0.0
 10
113.988907849107
 20
-143.0562119868054
 30
0.0
 10
113.6716145549154
 20
-143.0562119868054
 30
0.0
 10
113.4600856921211
 20
-143.0813611838477
 30
0.0
 10
113.4600856921211
 20
-143.0813611838477
 30
0.0
 10
113.4600856921211
 20
-142.8508842958845
 30
0.0
 10
113.4600856921211
 20
-142.8508842958845
 30
0.0
 10
113.6185600844426
 20
-142.8743109451842
 30
0.0
 10
113.8090738647769
 20
-142.8763780024753
 30
0.0
 10
114.0164686129889
 20
-142.8763780024753
 30
0.0
 10
114.0164686129889
 20
-142.8763780024753
 30
0.0
 10
114.5008490382151
 20
-142.8763780024753
 30
0.0
 10
114.5008490382151
 20
-142.8763780024753
 30
0.0
 10
114.6868841944186
 20
-142.8763780024753
 30
0.0
 10
114.8732638601706
 20
-142.8743109451842
 30
0.0
 10
115.0572319590829
 20
-142.8508842958845
 30
0.0
 10
115.0572319590829
 20
-142.8508842958845
 30
0.0
 10
115.0572319590829
 20
-143.0813611838477
 30
0.0
 10
115.0572319590829
 20
-143.0813611838477
 30
0.0
 10
114.8732638601706
 20
-143.0582790440965
 30
0.0
 10
114.6255614947811
 20
-143.0562119868054
 30
0.0
 10
114.5008490382151
 20
-143.0562119868054
 30
0.0
  0
HATCH
  5
D6
330
99
100
AcDbEntity
  8
_U+30EC_U+30A4_U+30E4_U+30FC 1
 62
   179
420
  2234388
100
AcDbHatch
 10
0.0
 20
0.0
 30
0.0
210
0.0
220
0.0
230
1.0
  2
SOLID
 70
     1
 71
     0
 91
        1
 92
        1
 93
        1
 72
     4
 94
        3
 73
     0
 74
     1
 95
       29
 96
       25
 40
0.0
 40
0.0
 40
0.0
 40
0.0
 40
1.0
 40
1.0
 40
1.0
 40
2.0
 40
2.0
 40
2.0
 40
3.0
 40
3.0
 40
3.0
 40
4.0
 40
4.0
 40
4.0
 40
5.0
 40
5.0
 40
5.0
 40
6.0
 40
6.0
 40
6.0
 40
7.0
 40
7.0
 40
7.0
 40
8.0
 40
8.0
 40
8.0
 40
8.0
 10
114.5008490382151
 20
-143.0562119868054
 10
114.5008490382151
 20
-143.0562119868054
 10
114.0164686129889
 20
-143.0562119868054
 10
114.0164686129889
 20
-143.0562119868054
 10
113.988907849107
 20
-143.0562119868054
 10
113.6716145549154
 20
-143.0562119868054
 10
113.4600856921211
 20
-143.0813611838477
 10
113.4600856921211
 20
-143.0813611838477
 10
113.4600856921211
 20
-142.8508842958845
 10
113.4600856921211
 20
-142.8508842958845
 10
113.6185600844426
 20
-142.8743109451842
 10
113.8090738647769
 20
-142.8763780024753
 10
114.0164686129889
 20
-142.8763780024753
 10
114.0164686129889
 20
-142.8763780024753
 10
114.5008490382151
 20
-142.8763780024753
 10
114.5008490382151
 20
-142.8763780024753
 10
114.6868841944186
 20
-142.8763780024753
 10
114.8732638601706
 20
-142.8743109451842
 10
115.0572319590829
 20
-142.8508842958845
 10
115.0572319590829
 20
-142.8508842958845
 10
115.0572319590829
 20
-143.0813611838477
 10
115.0572319590829
 20
-143.0813611838477
 10
114.8732638601706
 20
-143.0582790440965
 10
114.6255614947811
 20
-143.0562119868054
 10
114.5008490382151
 20
-143.0562119868054
 97
        0
 97
        0
 75
     2
 76
     1
 98
        0
  0
ENDBLK
  5
9C
330
99
100
AcDbEntity
  8
0
100
AcDbBlockEnd
  0
ENDSEC
  0
SECTION
  2
ENTITIES
  0
INSERT
  5
42
330
1F
100
AcDbEntity
  8
_U+30EC_U+30A4_U+30E4_U+30FC 1
100
AcDbBlockReference
  2
block 2
 10
0.0
 20
0.0
 30
0.0
  0
POLYLINE
  5
5E
330
1F
100
AcDbEntity
  8
_U+30EC_U+30A4_U+30E4_U+30FC 1
  6
AI-Linetype-1
 62
   154
420
    23468
370
    25
100
AcDb2dPolyline
 66
     1
 10
0.0
 20
0.0
 30
0.0
  0
VERTEX
  5
5F
330
5E
100
AcDbEntity
  8
_U+30EC_U+30A4_U+30E4_U+30FC 1
  6
AI-Linetype-1
 62
   154
420
    23468
370
    25
100
AcDbVertex
100
AcDb2dVertex
 10
72.61778675847702
 20
-112.837559694013
 30
0.0
  0
VERTEX
  5
60
330
5E
100
AcDbEntity
  8
_U+30EC_U+30A4_U+30E4_U+30FC 1
  6
AI-Linetype-1
 62
   154
420
    23468
370
    25
100
AcDbVertex
100
AcDb2dVertex
 10
70.47631986866595
 20
-138.531776354256
 30
0.0
  0
VERTEX
  5
61
330
5E
100
AcDbEntity
  8
_U+30EC_U+30A4_U+30E4_U+30FC 1
  6
AI-Linetype-1
 62
   154
420
    23468
370
    25
100
AcDbVertex
100
AcDb2dVertex
 10
96.42065531788192
 20
-137.8406846877619
 30
0.0
  0
SEQEND
  5
63
330
5E
100
AcDbEntity
  8
_U+30EC_U+30A4_U+30E4_U+30FC 1
  6
AI-Linetype-1
 62
   154
420
    23468
370
    25
  0
POLYLINE
  5
64
330
1F
100
AcDbEntity
  8
_U+30EC_U+30A4_U+30E4_U+30FC 1
 62
   179
420
  2234388
370
     9
100
AcDb2dPolyline
 66
     1
 10
0.0
 20
0.0
 30
0.0
  0
VERTEX
  5
65
330
64
100
AcDbEntity
  8
_U+30EC_U+30A4_U+30E4_U+30FC 1
 62
   179
420
  2234388
370
     9
100
AcDbVertex
100
AcDb2dVertex
 10
71.32104623600408
 20
-141.7570824645605
 30
0.0
  0
VERTEX
  5
66
330
64
100
AcDbEntity
  8
_U+30EC_U+30A4_U+30E4_U+30FC 1
 62
   179
420
  2234388
370
     9
100
AcDbVertex
100
AcDb2dVertex
 10
96.32074865376408
 20
-141.7570824645605
 30
0.0
  0
SEQEND
  5
67
330
64
100
AcDbEntity
  8
_U+30EC_U+30A4_U+30E4_U+30FC 1
 62
   179
420
  2234388
370
     9
  0
SPLINE
  5
68
330
1F
100
AcDbEntity
  8
_U+30EC_U+30A4_U+30E4_U+30FC 1
 62
   179
420
  2234388
370
     9
100
AcDbSpline
210
0.0
220
0.0
230
1.0
 70
    11
 71
     3
 72
    17
 73
    13
 74
     0
 42
0.0000000001
 43
0.0000000001
 12
1.0
 22
0.0
 32
0.0
 13
1.0
 23
0.0
 33
0.0
 40
0.0
 40
0.0
 40
0.0
 40
0.0
 40
1.0
 40
1.0
 40
1.0
 40
2.0
 40
2.0
 40
2.0
 40
3.0
 40
3.0
 40
3.0
 40
4.0
 40
4.0
 40
4.0
 40
4.0
 10
96.4213255956426
 20
-141.7570824645605
 30
0.0
 10
96.4213255956426
 20
-141.7019432979081
 30
0.0
 10
96.37655809678472
 20
-141.6571757979189
 30
0.0
 10
96.32074865376408
 20
-141.6571757979189
 30
0.0
 10
96.26560948850414
 20
-141.6571757979189
 30
0.0
 10
96.22084442038938
 20
-141.7019432979081
 30
0.0
 10
96.22084442038938
 20
-141.7570824645605
 30
0.0
 10
96.22084442038938
 20
-141.8121863534361
 30
0.0
 10
96.26560948850414
 20
-141.8569891312022
 30
0.0
 10
96.32074865376408
 20
-141.8569891312022
 30
0.0
 10
96.37655809678472
 20
-141.8569891312022
 30
0.0
 10
96.4213255956426
 20
-141.8121863534361
 30
0.0
 10
96.4213255956426
 20
-141.7570824645605
 30
0.0
  0
POLYLINE
  5
69
330
1F
100
AcDbEntity
  8
_U+30EC_U+30A4_U+30E4_U+30FC 1
 62
   179
420
  2234388
370
     9
100
AcDb2dPolyline
 66
     1
 10
0.0
 20
0.0
 30
0.0
  0
VERTEX
  5
6A
330
69
100
AcDbEntity
  8
_U+30EC_U+30A4_U+30E4_U+30FC 1
 62
   179
420
  2234388
370
     9
100
AcDbVertex
100
AcDb2dVertex
 10
96.32074865376408
 20
-139.2965632985094
 30
0.0
  0
VERTEX
  5
6B
330
69
100
AcDbEntity
  8
_U+30EC_U+30A4_U+30E4_U+30FC 1
 62
   179
420
  2234388
370
     9
100
AcDbVertex
100
AcDb2dVertex
 10
96.32074865376408
 20
-142.7568194087555
 30
0.0
  0
SEQEND
  5
6C
330
69
100
AcDbEntity
  8
_U+30EC_U+30A4_U+30E4_U+30FC 1
 62
   179
420
  2234388
370
     9
  0
SPLINE
  5
6D
330
1F
100
AcDbEntity
  8
_U+30EC_U+30A4_U+30E4_U+30FC 1
 62
   179
420
  2234388
370
     9
100
AcDbSpline
210
0.0
220
0.0
230
1.0
 70
    11
 71
     3
 72
    17
 73
    13
 74
     0
 42
0.0000000001
 43
0.0000000001
 12
1.0
 22
0.0
 32
0.0
 13
1.0
 23
0.0
 33
0.0
 40
0.0
 40
0.0
 40
0.0
 40
0.0
 40
1.0
 40
1.0
 40
1.0
 40
2.0
 40
2.0
 40
2.0
 40
3.0
 40
3.0
 40
3.0
 40
4.0
 40
4.0
 40
4.0
 40
4.0
 10
71.42165845565947
 20
-141.7570824645605
 30
0.0
 10
71.42165845565947
 20
-141.7019432979081
 30
0.0
 10
71.3768556790247
 20
-141.6571757979189
 30
0.0
 10
71.32104623600408
 20
-141.6571757979189
 30
0.0
 10
71.26594234852101
 20
-141.6571757979189
 30
0.0
 10
71.22113957188624
 20
-141.7019432979081
 30
0.0
 10
71.22113957188624
 20
-141.7570824645605
 30
0.0
 10
71.22113957188624
 20
-141.8121863534361
 30
0.0
 10
71.26594234852101
 20
-141.8569891312022
 30
0.0
 10
71.32104623600408
 20
-141.8569891312022
 30
0.0
 10
71.3768556790247
 20
-141.8569891312022
 30
0.0
 10
71.42165845565947
 20
-141.8121863534361
 30
0.0
 10
71.42165845565947
 20
-141.7570824645605
 30
0.0
  0
POLYLINE
  5
6E
330
1F
100
AcDbEntity
  8
_U+30EC_U+30A4_U+30E4_U+30FC 1
 62
   179
420
  2234388
370
     9
100
AcDb2dPolyline
 66
     1
 10
0.0
 20
0.0
 30
0.0
  0
VERTEX
  5
6F
330
6E
100
AcDbEntity
  8
_U+30EC_U+30A4_U+30E4_U+30FC 1
 62
   179
420
  2234388
370
     9
100
AcDbVertex
100
AcDb2dVertex
 10
71.32104623600408
 20
-139.2965632985094
 30
0.0
  0
VERTEX
  5
70
330
6E
100
AcDbEntity
  8
_U+30EC_U+30A4_U+30E4_U+30FC 1
 62
   179
420
  2234388
370
     9
100
AcDbVertex
100
AcDb2dVertex
 10
71.32104623600408
 20
-142.7568194087555
 30
0.0
  0
SEQEND
  5
71
330
6E
100
AcDbEntity
  8
_U+30EC_U+30A4_U+30E4_U+30FC 1
 62
   179
420
  2234388
370
     9
  0
INSERT
  5
73
330
1F
100
AcDbEntity
  8
_U+30EC_U+30A4_U+30E4_U+30FC 1
100
AcDbBlockReference
  2
block 3
 10
0.0
 20
0.0
 30
0.0
  0
POLYLINE
  5
7A
330
1F
100
AcDbEntity
  8
_U+30EC_U+30A4_U+30E4_U+30FC 1
 62
   179
420
  2234388
370
     9
100
AcDb2dPolyline
 66
     1
 10
0.0
 20
0.0
 30
0.0
  0
VERTEX
  5
7B
330
7A
100
AcDbEntity
  8
_U+30EC_U+30A4_U+30E4_U+30FC 1
 62
   179
420
  2234388
370
     9
100
AcDbVertex
100
AcDb2dVertex
 10
68.48090297512884
 20
-137.8379330210961
 30
0.0
  0
VERTEX
  5
7C
330
7A
100
AcDbEntity
  8
_U+30EC_U+30A4_U+30E4_U+30FC 1
 62
   179
420
  2234388
370
     9
100
AcDbVertex
100
AcDb2dVertex
 10
68.48090297512884
 20
-112.8382299717903
 30
0.0
  0
SEQEND
  5
7D
330
7A
100
AcDbEntity
  8
_U+30EC_U+30A4_U+30E4_U+30FC 1
 62
   179
420
  2234388
370
     9
  0
POLYLINE
  5
7E
330
1F
100
AcDbEntity
  8
_U+30EC_U+30A4_U+30E4_U+30FC 1
 62
   179
420
  2234388
370
     9
100
AcDb2dPolyline
 66
     1
 10
0.0
 20
0.0
 30
0.0
  0
VERTEX
  5
7F
330
7E
100
AcDbEntity
  8
_U+30EC_U+30A4_U+30E4_U+30FC 1
 62
   179
420
  2234388
370
     9
100
AcDbVertex
100
AcDb2dVertex
 10
69.48275831596258
 20
-137.8379330210961
 30
0.0
  0
VERTEX
  5
80
330
7E
100
AcDbEntity
  8
_U+30EC_U+30A4_U+30E4_U+30FC 1
 62
   179
420
  2234388
370
     9
100
AcDbVertex
100
AcDb2dVertex
 10
67.0084791238046
 20
-137.8379330210961
 30
0.0
  0
SEQEND
  5
81
330
7E
100
AcDbEntity
  8
_U+30EC_U+30A4_U+30E4_U+30FC 1
 62
   179
420
  2234388
370
     9
  0
INSERT
  5
83
330
1F
100
AcDbEntity
  8
_U+30EC_U+30A4_U+30E4_U+30FC 1
100
AcDbBlockReference
  2
block 4
 10
0.0
 20
0.0
 30
0.0
  0
SPLINE
  5
8A
330
1F
100
AcDbEntity
  8
_U+30EC_U+30A4_U+30E4_U+30FC 1
 62
   179
420
  2234388
370
     9
100
AcDbSpline
210
0.0
220
0.0
230
1.0
 70
    11
 71
     3
 72
    17
 73
    13
 74
     0
 42
0.0000000001
 43
0.0000000001
 12
1.0
 22
0.0
 32
0.0
 13
1.0
 23
0.0
 33
0.0
 40
0.0
 40
0.0
 40
0.0
 40
0.0
 40
1.0
 40
1.0
 40
1.0
 40
2.0
 40
2.0
 40
2.0
 40
3.0
 40
3.0
 40
3.0
 40
4.0
 40
4.0
 40
4.0
 40
4.0
 10
68.57463602829306
 20
-137.8365571877632
 30
0.0
 10
68.57463602829306
 20
-137.7814180211101
 30
0.0
 10
68.5298332516583
 20
-137.7366505211216
 30
0.0
 10
68.47472936417523
 20
-137.7366505211216
 30
0.0
 10
68.41959019891527
 20
-137.7366505211216
 30
0.0
 10
68.3748227000574
 20
-137.7814180211101
 30
0.0
 10
68.3748227000574
 20
-137.8365571877632
 30
0.0
 10
68.3748227000574
 20
-137.8923666321936
 30
0.0
 10
68.41959019891527
 20
-137.9371341321822
 30
0.0
 10
68.47472936417523
 20
-137.9371341321822
 30
0.0
 10
68.5298332516583
 20
-137.9371341321822
 30
0.0
 10
68.57463602829306
 20
-137.8923666321936
 30
0.0
 10
68.57463602829306
 20
-137.8365571877632
 30
0.0
  0
POLYLINE
  5
8B
330
1F
100
AcDbEntity
  8
_U+30EC_U+30A4_U+30E4_U+30FC 1
 62
   179
420
  2234388
370
     9
100
AcDb2dPolyline
 66
     1
 10
0.0
 20
0.0
 30
0.0
  0
VERTEX
  5
8C
330
8B
100
AcDbEntity
  8
_U+30EC_U+30A4_U+30E4_U+30FC 1
 62
   179
420
  2234388
370
     9
100
AcDbVertex
100
AcDb2dVertex
 10
69.48275831596258
 20
-112.837559694013
 30
0.0
  0
VERTEX
  5
8D
330
8B
100
AcDbEntity
  8
_U+30EC_U+30A4_U+30E4_U+30FC 1
 62
   179
420
  2234388
370
     9
100
AcDbVertex
100
AcDb2dVertex
 10
67.0084791238046
 20
-112.837559694013
 30
0.0
  0
SEQEND
  5
8E
330
8B
100
AcDbEntity
  8
_U+30EC_U+30A4_U+30E4_U+30FC 1
 62
   179
420
  2234388
370
     9
  0
SPLINE
  5
8F
330
1F
100
AcDbEntity
  8
_U+30EC_U+30A4_U+30E4_U+30FC 1
 62
   179
420
  2234388
370
     9
100
AcDbSpline
210
0.0
220
0.0
230
1.0
 70
    11
 71
     3
 72
    17
 73
    13
 74
     0
 42
0.0000000001
 43
0.0000000001
 12
1.0
 22
0.0
 32
0.0
 13
1.0
 23
0.0
 33
0.0
 40
0.0
 40
0.0
 40
0.0
 40
0.0
 40
1.0
 40
1.0
 40
1.0
 40
2.0
 40
2.0
 40
2.0
 40
3.0
 40
3.0
 40
3.0
 40
4.0
 40
4.0
 40
4.0
 40
4.0
 10
68.57463602829306
 20
-112.8361838606798
 30
0.0
 10
68.57463602829306
 20
-112.781044694027
 30
0.0
 10
68.5298332516583
 20
-112.7369474718158
 30
0.0
 10
68.47472936417523
 20
-112.7369474718158
 30
0.0
 10
68.41959019891527
 20
-112.7369474718158
 30
0.0
 10
68.3748227000574
 20
-112.781044694027
 30
0.0
 10
68.3748227000574
 20
-112.8361838606798
 30
0.0
 10
68.3748227000574
 20
-112.8919933051102
 30
0.0
 10
68.41959019891527
 20
-112.9367608050991
 30
0.0
 10
68.47472936417523
 20
-112.9367608050991
 30
0.0
 10
68.5298332516583
 20
-112.9367608050991
 30
0.0
 10
68.57463602829306
 20
-112.8919933051102
 30
0.0
 10
68.57463602829306
 20
-112.8361838606798
 30
0.0
  0
POLYLINE
  5
90
330
1F
100
AcDbEntity
  8
_U+30EC_U+30A4_U+30E4_U+30FC 1
 62
   179
420
  2234388
370
     9
100
AcDb2dPolyline
 66
     1
 10
0.0
 20
0.0
 30
0.0
  0
VERTEX
  5
91
330
90
100
AcDbEntity
  8
_U+30EC_U+30A4_U+30E4_U+30FC 1
 62
   179
420
  2234388
370
     9
100
AcDbVertex
100
AcDb2dVertex
 10
95.83843330937361
 20
-137.8351813544303
 30
0.0
  0
VERTEX
  5
92
330
90
100
AcDbEntity
  8
_U+30EC_U+30A4_U+30E4_U+30FC 1
 62
   179
420
  2234388
370
     9
100
AcDbVertex
100
AcDb2dVertex
 10
100.3335957736101
 20
-141.5806935757157
 30
0.0
  0
SEQEND
  5
93
330
90
100
AcDbEntity
  8
_U+30EC_U+30A4_U+30E4_U+30FC 1
 62
   179
420
  2234388
370
     9
  0
POLYLINE
  5
94
330
1F
100
AcDbEntity
  8
_U+30EC_U+30A4_U+30E4_U+30FC 1
 62
   179
420
  2234388
370
     9
100
AcDb2dPolyline
 66
     1
 10
0.0
 20
0.0
 30
0.0
  0
VERTEX
  5
95
330
94
100
AcDbEntity
  8
_U+30EC_U+30A4_U+30E4_U+30FC 1
 62
   179
420
  2234388
370
     9
100
AcDbVertex
100
AcDb2dVertex
 10
96.41511670691212
 20
-138.6523557986704
 30
0.0
  0
VERTEX
  5
96
330
94
100
AcDbEntity
  8
_U+30EC_U+30A4_U+30E4_U+30FC 1
 62
   179
420
  2234388
370
     9
100
AcDbVertex
100
AcDb2dVertex
 10
95.83843330937361
 20
-137.8351813544303
 30
0.0
  0
VERTEX
  5
97
330
94
100
AcDbEntity
  8
_U+30EC_U+30A4_U+30E4_U+30FC 1
 62
   179
420
  2234388
370
     9
100
AcDbVertex
100
AcDb2dVertex
 10
96.74584586514118
 20
-138.2547752432141
 30
0.0
  0
SEQEND
  5
98
330
94
100
AcDbEntity
  8
_U+30EC_U+30A4_U+30E4_U+30FC 1
 62
   179
420
  2234388
370
     9
  0
INSERT
  5
9A
330
1F
100
AcDbEntity
  8
_U+30EC_U+30A4_U+30E4_U+30FC 1
100
AcDbBlockReference
  2
block 5
 10
0.0
 20
0.0
 30
0.0
  0
ENDSEC
  0
SECTION
  2
OBJECTS
  0
DICTIONARY
  5
C
330
0
100
AcDbDictionary
281
     1
  3
ACAD_GROUP
350
D
  3
ACAD_LAYOUT
350
1A
  3
ACAD_MATERIAL
350
3B
  3
ACAD_MLEADERSTYLE
350
D8
  3
ACAD_MLINESTYLE
350
17
  3
ACAD_PLOTSETTINGS
350
19
  3
ACAD_PLOTSTYLENAME
350
E
  3
ACAD_TABLESTYLE
350
D7
  3
ACAD_VISUALSTYLE
350
2A
  0
SUN
  5
3F
330
29
100
AcDbSun
 90
        1
290
     0
 63
     7
421
 16777215
 40
1.0
291
     1
 91
  2455826
 92
 54000000
292
     0
 70
     2
 71
   256
280
     1
  0
DICTIONARY
  5
D
102
{ACAD_REACTORS
330
C
102
}
330
C
100
AcDbDictionary
281
     1
  0
DICTIONARY
  5
1A
102
{ACAD_REACTORS
330
C
102
}
330
C
100
AcDbDictionary
281
     1
  3
Layout1
350
1E
  3
Layout2
350
26
  3
Model
350
22
  0
DICTIONARY
  5
3B
102
{ACAD_REACTORS
330
C
102
}
330
C
100
AcDbDictionary
281
     1
  3
ByBlock
350
3D
  3
ByLayer
350
3C
  3
Global
350
3E
  0
DICTIONARY
  5
D8
102
{ACAD_REACTORS
330
C
102
}
330
C
100
AcDbDictionary
281
     1
  0
DICTIONARY
  5
17
102
{ACAD_REACTORS
330
C
102
}
330
C
100
AcDbDictionary
281
     1
  3
Standard
350
18
  0
DICTIONARY
  5
19
102
{ACAD_REACTORS
330
C
102
}
330
C
100
AcDbDictionary
281
     1
  0
ACDBDICTIONARYWDFLT
  5
E
102
{ACAD_REACTORS
330
C
102
}
330
C
100
AcDbDictionary
281
     1
  3
Normal
350
F
100
AcDbDictionaryWithDefault
340
F
  0
DICTIONARY
  5
D7
102
{ACAD_REACTORS
330
C
102
}
330
C
100
AcDbDictionary
281
     1
  0
DICTIONARY
  5
2A
102
{ACAD_REACTORS
330
C
102
}
330
C
100
AcDbDictionary
281
     1
  3
2dWireframe
350
2F
  3
3D Hidden
350
31
  3
3dWireframe
350
30
  3
Basic
350
32
  3
Brighten
350
36
  3
ColorChange
350
3A
  3
Conceptual
350
34
  3
Dim
350
35
  3
Facepattern
350
39
  3
Flat
350
2B
  3
FlatWithEdges
350
2C
  3
Gouraud
350
2D
  3
GouraudWithEdges
350
2E
  3
Linepattern
350
38
  3
Realistic
350
33
  3
Thicken
350
37
  0
LAYOUT
  5
1E
102
{ACAD_REACTORS
330
1A
102
}
330
1A
100
AcDbPlotSettings
  1

  2
none_device
  4

  6

 40
0.0
 41
0.0
 42
0.0
 43
0.0
 44
0.0
 45
0.0
 46
0.0
 47
0.0
 48
0.0
 49
0.0
140
0.0
141
0.0
142
1.0
143
1.0
 70
   688
 72
     0
 73
     0
 74
     5
  7

 75
    16
 76
     0
 77
     2
 78
   300
147
1.0
148
0.0
149
0.0
100
AcDbLayout
  1
Layout1
 70
     1
 71
     1
 10
0.0
 20
0.0
 11
12.0
 21
9.0
 12
0.0
 22
0.0
 32
0.0
 14
1.000000000000000E+20
 24
1.000000000000000E+20
 34
1.000000000000000E+20
 15
-1.000000000000000E+20
 25
-1.000000000000000E+20
 35
-1.000000000000000E+20
146
0.0
 13
0.0
 23
0.0
 33
0.0
 16
1.0
 26
0.0
 36
0.0
 17
0.0
 27
1.0
 37
0.0
 76
     0
330
1B
  0
LAYOUT
  5
26
102
{ACAD_REACTORS
330
1A
102
}
330
1A
100
AcDbPlotSettings
  1

  2
none_device
  4

  6

 40
0.0
 41
0.0
 42
0.0
 43
0.0
 44
0.0
 45
0.0
 46
0.0
 47
0.0
 48
0.0
 49
0.0
140
0.0
141
0.0
142
1.0
143
1.0
 70
   688
 72
     0
 73
     0
 74
     5
  7

 75
    16
 76
     0
 77
     2
 78
   300
147
1.0
148
0.0
149
0.0
100
AcDbLayout
  1
Layout2
 70
     1
 71
     2
 10
0.0
 20
0.0
 11
0.0
 21
0.0
 12
0.0
 22
0.0
 32
0.0
 14
0.0
 24
0.0
 34
0.0
 15
0.0
 25
0.0
 35
0.0
146
0.0
 13
0.0
 23
0.0
 33
0.0
 16
1.0
 26
0.0
 36
0.0
 17
0.0
 27
1.0
 37
0.0
 76
     0
330
23
  0
LAYOUT
  5
22
102
{ACAD_REACTORS
330
1A
102
}
330
1A
100
AcDbPlotSettings
  1

  2
none_device
  4

  6

 40
0.0
 41
0.0
 42
0.0
 43
0.0
 44
0.0
 45
0.0
 46
0.0
 47
0.0
 48
0.0
 49
0.0
140
0.0
141
0.0
142
1.0
143
1.0
 70
  1712
 72
     0
 73
     0
 74
     0
  7

 75
     0
 76
     0
 77
     2
 78
   300
147
1.0
148
0.0
149
0.0
100
AcDbLayout
  1
Model
 70
     1
 71
     0
 10
0.0
 20
0.0
 11
12.0
 21
9.0
 12
0.0
 22
0.0
 32
0.0
 14
1.000000000000000E+20
 24
1.000000000000000E+20
 34
1.000000000000000E+20
 15
-1.000000000000000E+20
 25
-1.000000000000000E+20
 35
-1.000000000000000E+20
146
0.0
 13
0.0
 23
0.0
 33
0.0
 16
1.0
 26
0.0
 36
0.0
 17
0.0
 27
1.0
 37
0.0
 76
     0
330
1F
331
29
  0
MATERIAL
  5
3D
102
{ACAD_REACTORS
330
3B
102
}
330
3B
100
AcDbMaterial
  1
ByBlock
 72
     1
 94
      127
  0
MATERIAL
  5
3C
102
{ACAD_REACTORS
330
3B
102
}
330
3B
100
AcDbMaterial
  1
ByLayer
 72
     1
 94
      127
  0
MATERIAL
  5
3E
102
{ACAD_REACTORS
330
3B
102
}
330
3B
100
AcDbMaterial
  1
Global
 72
     1
 94
      127
  0
MLINESTYLE
  5
18
102
{ACAD_REACTORS
330
17
102
}
330
17
100
AcDbMlineStyle
  2
Standard
 70
     0
  3

 62
   256
 51
90.0
 52
90.0
 71
     2
 49
0.5
 62
   256
  6
BYLAYER
 49
-0.5
 62
   256
  6
BYLAYER
  0
ACDBPLACEHOLDER
  5
F
102
{ACAD_REACTORS
330
E
102
}
330
E
  0
VISUALSTYLE
  5
2F
102
{ACAD_REACTORS
330
2A
102
}
330
2A
100
AcDbVisualStyle
  2
2dWireframe
 70
     4
177
     2
291
     0
 71
     0
176
     1
 72
     2
176
     1
 73
     0
176
     1
 90
        0
176
     1
 40
-0.6
176
     1
 41
-30.0
176
     1
 62
     5
 63
     7
421
 16777215
176
     1
 74
     1
176
     1
 91
        4
176
     1
 64
     7
176
     1
 65
   257
176
     1
 75
     1
176
     1
175
     1
176
     1
 42
1.0
176
     1
 92
        0
176
     1
 66
   257
176
     1
 43
1.0
176
     1
 76
     1
176
     1
 77
     6
176
     1
 78
     2
176
     1
 67
     7
176
     1
 79
     5
176
     1
170
     0
176
     1
171
     0
176
     1
290
     0
176
     1
 93
        1
176
     1
 44
0.0
176
     1
173
     0
176
     1
  0
VISUALSTYLE
  5
31
102
{ACAD_REACTORS
330
2A
102
}
330
2A
100
AcDbVisualStyle
  2
3D Hidden
 70
     6
177
     2
291
     0
 71
     1
176
     1
 72
     2
176
     1
 73
     2
176
     1
 90
        0
176
     1
 40
-0.6
176
     1
 41
-30.0
176
     1
 62
     5
 63
     7
421
 16777215
176
     1
 74
     2
176
     1
 91
        2
176
     1
 64
     7
176
     1
 65
   257
176
     1
 75
     2
176
     1
175
     1
176
     1
 42
40.0
176
     1
 92
        0
176
     1
 66
   257
176
     1
 43
1.0
176
     1
 76
     1
176
     1
 77
     6
176
     1
 78
     2
176
     1
 67
     7
176
     1
 79
     3
176
     1
170
     0
176
     1
171
     0
176
     1
290
     0
176
     1
 93
        1
176
     1
 44
0.0
176
     1
173
     0
176
     1
  0
VISUALSTYLE
  5
30
102
{ACAD_REACTORS
330
2A
102
}
330
2A
100
AcDbVisualStyle
  2
3dWireframe
 70
     5
177
     2
291
     0
 71
     0
176
     1
 72
     2
176
     1
 73
     0
176
     1
 90
        0
176
     1
 40
-0.6
176
     1
 41
-30.0
176
     1
 62
     5
 63
     7
421
 16777215
176
     1
 74
     1
176
     1
 91
        4
176
     1
 64
     7
176
     1
 65
   257
176
     1
 75
     1
176
     1
175
     1
176
     1
 42
1.0
176
     1
 92
        0
176
     1
 66
   257
176
     1
 43
1.0
176
     1
 76
     1
176
     1
 77
     6
176
     1
 78
     2
176
     1
 67
     7
176
     1
 79
     5
176
     1
170
     0
176
     1
171
     0
176
     1
290
     0
176
     1
 93
        1
176
     1
 44
0.0
176
     1
173
     0
176
     1
  0
VISUALSTYLE
  5
32
102
{ACAD_REACTORS
330
2A
102
}
330
2A
100
AcDbVisualStyle
  2
Basic
 70
     7
177
     2
291
     1
 71
     1
176
     1
 72
     0
176
     1
 73
     1
176
     1
 90
        0
176
     1
 40
-0.6
176
     1
 41
-30.0
176
     1
 62
     5
 63
     7
421
 16777215
176
     1
 74
     0
176
     1
 91
        4
176
     1
 64
     7
176
     1
 65
   257
176
     1
 75
     1
176
     1
175
     1
176
     1
 42
1.0
176
     1
 92
        8
176
     1
 66
     7
176
     1
 43
1.0
176
     1
 76
     1
176
     1
 77
     6
176
     1
 78
     2
176
     1
 67
     7
176
     1
 79
     5
176
     1
170
     0
176
     1
171
     0
176
     1
290
     0
176
     1
 93
        1
176
     1
 44
0.0
176
     1
173
     0
176
     1
  0
VISUALSTYLE
  5
36
102
{ACAD_REACTORS
330
2A
102
}
330
2A
100
AcDbVisualStyle
  2
Brighten
 70
    12
177
     2
291
     1
 71
     2
176
     1
 72
     2
176
     1
 73
     0
176
     1
 90
        0
176
     1
 40
-0.6
176
     1
 41
-30.0
176
     1
 62
     5
 63
     7
421
 16777215
176
     1
 74
     1
176
     1
 91
        4
176
     1
 64
     7
176
     1
 65
   257
176
     1
 75
     1
176
     1
175
     1
176
     1
 42
1.0
176
     1
 92
        8
176
     1
 66
     7
176
     1
 43
1.0
176
     1
 76
     1
176
     1
 77
     6
176
     1
 78
     2
176
     1
 67
     7
176
     1
 79
     5
176
     1
170
     0
176
     1
171
     0
176
     1
290
     0
176
     1
 93
        1
176
     1
 44
50.0
176
     1
173
     0
176
     1
  0
VISUALSTYLE
  5
3A
102
{ACAD_REACTORS
330
2A
102
}
330
2A
100
AcDbVisualStyle
  2
ColorChange
 70
    16
177
     2
291
     1
 71
     2
176
     1
 72
     2
176
     1
 73
     3
176
     1
 90
        0
176
     1
 40
-0.6
176
     1
 41
-30.0
176
     1
 62
     5
 63
     8
421
  8421504
176
     1
 74
     1
176
     1
 91
        4
176
     1
 64
     7
176
     1
 65
   257
176
     1
 75
     1
176
     1
175
     1
176
     1
 42
1.0
176
     1
 92
        8
176
     1
 66
     8
424
  8421504
176
     1
 43
1.0
176
     1
 76
     1
176
     1
 77
     6
176
     1
 78
     2
176
     1
 67
     7
176
     1
 79
     5
176
     1
170
     0
176
     1
171
     0
176
     1
290
     0
176
     1
 93
        1
176
     1
 44
0.0
176
     1
173
     0
176
     1
  0
VISUALSTYLE
  5
34
102
{ACAD_REACTORS
330
2A
102
}
330
2A
100
AcDbVisualStyle
  2
Conceptual
 70
     9
177
     2
291
     0
 71
     3
176
     1
 72
     2
176
     1
 73
     0
176
     1
 90
        0
176
     1
 40
-0.6
176
     1
 41
-30.0
176
     1
 62
     5
 63
     7
421
 16777215
176
     1
 74
     2
176
     1
 91
        2
176
     1
 64
     7
176
     1
 65
   257
176
     1
 75
     1
176
     1
175
     1
176
     1
 42
40.0
176
     1
 92
        8
176
     1
 66
     7
176
     1
 43
1.0
176
     1
 76
     1
176
     1
 77
     6
176
     1
 78
     2
176
     1
 67
     7
176
     1
 79
     3
176
     1
170
     0
176
     1
171
     0
176
     1
290
     0
176
     1
 93
        1
176
     1
 44
0.0
176
     1
173
     0
176
     1
  0
VISUALSTYLE
  5
35
102
{ACAD_REACTORS
330
2A
102
}
330
2A
100
AcDbVisualStyle
  2
Dim
 70
    11
177
     2
291
     1
 71
     2
176
     1
 72
     2
176
     1
 73
     0
176
     1
 90
        0
176
     1
 40
-0.6
176
     1
 41
-30.0
176
     1
 62
     5
 63
     7
421
 16777215
176
     1
 74
     1
176
     1
 91
        4
176
     1
 64
     7
176
     1
 65
   257
176
     1
 75
     1
176
     1
175
     1
176
     1
 42
1.0
176
     1
 92
        8
176
     1
 66
     7
176
     1
 43
1.0
176
     1
 76
     1
176
     1
 77
     6
176
     1
 78
     2
176
     1
 67
     7
176
     1
 79
     5
176
     1
170
     0
176
     1
171
     0
176
     1
290
     0
176
     1
 93
        1
176
     1
 44
-50.0
176
     1
173
     0
176
     1
  0
VISUALSTYLE
  5
39
102
{ACAD_REACTORS
330
2A
102
}
330
2A
100
AcDbVisualStyle
  2
Facepattern
 70
    15
177
     2
291
     1
 71
     2
176
     1
 72
     2
176
     1
 73
     0
176
     1
 90
        0
176
     1
 40
-0.6
176
     1
 41
-30.0
176
     1
 62
     5
 63
     7
421
 16777215
176
     1
 74
     1
176
     1
 91
        4
176
     1
 64
     7
176
     1
 65
   257
176
     1
 75
     1
176
     1
175
     1
176
     1
 42
1.0
176
     1
 92
        8
176
     1
 66
     7
176
     1
 43
1.0
176
     1
 76
     1
176
     1
 77
     6
176
     1
 78
     2
176
     1
 67
     7
176
     1
 79
     5
176
     1
170
     0
176
     1
171
     0
176
     1
290
     0
176
     1
 93
        1
176
     1
 44
0.0
176
     1
173
     0
176
     1
  0
VISUALSTYLE
  5
2B
102
{ACAD_REACTORS
330
2A
102
}
330
2A
100
AcDbVisualStyle
  2
Flat
 70
     0
177
     2
291
     1
 71
     2
176
     1
 72
     1
176
     1
 73
     1
176
     1
 90
        2
176
     1
 40
-0.6
176
     1
 41
30.0
176
     1
 62
     5
 63
     7
421
 16777215
176
     1
 74
     0
176
     1
 91
        4
176
     1
 64
     7
176
     1
 65
   257
176
     1
 75
     1
176
     1
175
     1
176
     1
 42
1.0
176
     1
 92
        8
176
     1
 66
     7
176
     1
 43
1.0
176
     1
 76
     1
176
     1
 77
     6
176
     1
 78
     2
176
     1
 67
     7
176
     1
 79
     5
176
     1
170
     0
176
     1
171
     0
176
     1
290
     0
176
     1
 93
       13
176
     1
 44
0.0
176
     1
173
     0
176
     1
  0
VISUALSTYLE
  5
2C
102
{ACAD_REACTORS
330
2A
102
}
330
2A
100
AcDbVisualStyle
  2
FlatWithEdges
 70
     1
177
     2
291
     1
 71
     2
176
     1
 72
     1
176
     1
 73
     1
176
     1
 90
        2
176
     1
 40
-0.6
176
     1
 41
30.0
176
     1
 62
     5
 63
     7
421
 16777215
176
     1
 74
     1
176
     1
 91
        4
176
     1
 64
     7
176
     1
 65
   257
176
     1
 75
     1
176
     1
175
     1
176
     1
 42
1.0
176
     1
 92
        0
176
     1
 66
   257
176
     1
 43
1.0
176
     1
 76
     1
176
     1
 77
     6
176
     1
 78
     2
176
     1
 67
     7
176
     1
 79
     5
176
     1
170
     0
176
     1
171
     0
176
     1
290
     0
176
     1
 93
       13
176
     1
 44
0.0
176
     1
173
     0
176
     1
  0
VISUALSTYLE
  5
2D
102
{ACAD_REACTORS
330
2A
102
}
330
2A
100
AcDbVisualStyle
  2
Gouraud
 70
     2
177
     2
291
     1
 71
     2
176
     1
 72
     2
176
     1
 73
     1
176
     1
 90
        2
176
     1
 40
-0.6
176
     1
 41
30.0
176
     1
 62
     5
 63
     7
421
 16777215
176
     1
 74
     0
176
     1
 91
        4
176
     1
 64
     7
176
     1
 65
   257
176
     1
 75
     1
176
     1
175
     1
176
     1
 42
1.0
176
     1
 92
        0
176
     1
 66
     7
176
     1
 43
1.0
176
     1
 76
     1
176
     1
 77
     6
176
     1
 78
     2
176
     1
 67
     7
176
     1
 79
     5
176
     1
170
     0
176
     1
171
     0
176
     1
290
     0
176
     1
 93
       13
176
     1
 44
0.0
176
     1
173
     0
176
     1
  0
VISUALSTYLE
  5
2E
102
{ACAD_REACTORS
330
2A
102
}
330
2A
100
AcDbVisualStyle
  2
GouraudWithEdges
 70
     3
177
     2
291
     1
 71
     2
176
     1
 72
     2
176
     1
 73
     1
176
     1
 90
        2
176
     1
 40
-0.6
176
     1
 41
30.0
176
     1
 62
     5
 63
     7
421
 16777215
176
     1
 74
     1
176
     1
 91
        4
176
     1
 64
     7
176
     1
 65
   257
176
     1
 75
     1
176
     1
175
     1
176
     1
 42
1.0
176
     1
 92
        0
176
     1
 66
   257
176
     1
 43
1.0
176
     1
 76
     1
176
     1
 77
     6
176
     1
 78
     2
176
     1
 67
     7
176
     1
 79
     5
176
     1
170
     0
176
     1
171
     0
176
     1
290
     0
176
     1
 93
       13
176
     1
 44
0.0
176
     1
173
     0
176
     1
  0
VISUALSTYLE
  5
38
102
{ACAD_REACTORS
330
2A
102
}
330
2A
100
AcDbVisualStyle
  2
Linepattern
 70
    14
177
     2
291
     1
 71
     2
176
     1
 72
     2
176
     1
 73
     0
176
     1
 90
        0
176
     1
 40
-0.6
176
     1
 41
-30.0
176
     1
 62
     5
 63
     7
421
 16777215
176
     1
 74
     1
176
     1
 91
        4
176
     1
 64
     7
176
     1
 65
   257
176
     1
 75
     7
176
     1
175
     7
176
     1
 42
1.0
176
     1
 92
        8
176
     1
 66
     7
176
     1
 43
1.0
176
     1
 76
     1
176
     1
 77
     6
176
     1
 78
     2
176
     1
 67
     7
176
     1
 79
     5
176
     1
170
     0
176
     1
171
     0
176
     1
290
     0
176
     1
 93
        1
176
     1
 44
0.0
176
     1
173
     0
176
     1
  0
VISUALSTYLE
  5
33
102
{ACAD_REACTORS
330
2A
102
}
330
2A
100
AcDbVisualStyle
  2
Realistic
 70
     8
177
     2
291
     0
 71
     2
176
     1
 72
     2
176
     1
 73
     0
176
     1
 90
        0
176
     1
 40
-0.6
176
     1
 41
-30.0
176
     1
 62
     5
 63
     7
421
 16777215
176
     1
 74
     1
176
     1
 91
        0
176
     1
 64
     7
176
     1
 65
   257
176
     1
 75
     1
176
     1
175
     1
176
     1
 42
1.0
176
     1
 92
        8
176
     1
 66
     8
424
  7895160
176
     1
 43
1.0
176
     1
 76
     1
176
     1
 77
     6
176
     1
 78
     2
176
     1
 67
     7
176
     1
 79
     5
176
     1
170
     0
176
     1
171
     0
176
     1
290
     0
176
     1
 93
       13
176
     1
 44
0.0
176
     1
173
     0
176
     1
  0
VISUALSTYLE
  5
37
102
{ACAD_REACTORS
330
2A
102
}
330
2A
100
AcDbVisualStyle
  2
Thicken
 70
    13
177
     2
291
     1
 71
     2
176
     1
 72
     2
176
     1
 73
     0
176
     1
 90
        0
176
     1
 40
-0.6
176
     1
 41
-30.0
176
     1
 62
     5
 63
     7
421
 16777215
176
     1
 74
     1
176
     1
 91
        4
176
     1
 64
     7
176
     1
 65
   257
176
     1
 75
     1
176
     1
175
     1
176
     1
 42
1.0
176
     1
 92
       12
176
     1
 66
     7
176
     1
 43
1.0
176
     1
 76
     1
176
     1
 77
     6
176
     1
 78
     2
176
     1
 67
     7
176
     1
 79
     5
176
     1
170
     0
176
     1
171
     0
176
     1
290
     0
176
     1
 93
        1
176
     1
 44
0.0
176
     1
173
     0
176
     1
  0
ENDSEC
  0
EOF
