  0
SECTION
  2
HEADER
  9
$ACADVER
  1
AC1024
  9
$ACADMAINTVER
 70
     6
  9
$DWGCODEPAGE
  3
UNDEFINED
  9
$INSBASE
 10
0.0
 20
0.0
 30
0.0
  9
$EXTMIN
 10
1.000000000000000E+20
 20
1.000000000000000E+20
 30
1.000000000000000E+20
  9
$EXTMAX
 10
-1.000000000000000E+20
 20
-1.000000000000000E+20
 30
-1.000000000000000E+20
  9
$LIMMIN
 10
0.0
 20
0.0
  9
$LIMMAX
 10
12.0
 20
9.0
  9
$ORTHOMODE
 70
     0
  9
$REGENMODE
 70
     1
  9
$FILLMODE
 70
     1
  9
$QTEXTMODE
 70
     0
  9
$MIRRTEXT
 70
     1
  9
$LTSCALE
 40
1.0
  9
$ATTMODE
 70
     1
  9
$TEXTSIZE
 40
0.2
  9
$TRACEWID
 40
0.05
  9
$TEXTSTYLE
  7
Standard
  9
$CLAYER
  8
0
  9
$CELTYPE
  6
ByLayer
  9
$CECOLOR
 62
   256
  9
$CELTSCALE
 40
1.0
  9
$DISPSILH
 70
     0
  9
$DIMSCALE
 40
1.0
  9
$DIMASZ
 40
0.18
  9
$DIMEXO
 40
0.0625
  9
$DIMDLI
 40
0.38
  9
$DIMRND
 40
0.0
  9
$DIMDLE
 40
0.0
  9
$DIMEXE
 40
0.18
  9
$DIMTP
 40
0.0
  9
$DIMTM
 40
0.0
  9
$DIMTXT
 40
0.18
  9
$DIMCEN
 40
0.09
  9
$DIMTSZ
 40
0.0
  9
$DIMTOL
 70
     0
  9
$DIMLIM
 70
     0
  9
$DIMTIH
 70
     1
  9
$DIMTOH
 70
     1
  9
$DIMSE1
 70
     0
  9
$DIMSE2
 70
     0
  9
$DIMTAD
 70
     0
  9
$DIMZIN
 70
     0
  9
$DIMBLK
  1

  9
$DIMASO
 70
     1
  9
$DIMSHO
 70
     1
  9
$DIMPOST
  1

  9
$DIMAPOST
  1

  9
$DIMALT
 70
     0
  9
$DIMALTD
 70
     2
  9
$DIMALTF
 40
25.4
  9
$DIMLFAC
 40
1.0
  9
$DIMTOFL
 70
     0
  9
$DIMTVP
 40
0.0
  9
$DIMTIX
 70
     0
  9
$DIMSOXD
 70
     0
  9
$DIMSAH
 70
     0
  9
$DIMBLK1
  1

  9
$DIMBLK2
  1

  9
$DIMSTYLE
  2
Standard
  9
$DIMCLRD
 70
     0
  9
$DIMCLRE
 70
     0
  9
$DIMCLRT
 70
     0
  9
$DIMTFAC
 40
1.0
  9
$DIMGAP
 40
0.09
  9
$DIMJUST
 70
     0
  9
$DIMSD1
 70
     0
  9
$DIMSD2
 70
     0
  9
$DIMTOLJ
 70
     1
  9
$DIMTZIN
 70
     0
  9
$DIMALTZ
 70
     0
  9
$DIMALTTZ
 70
     0
  9
$DIMUPT
 70
     0
  9
$DIMDEC
 70
     4
  9
$DIMTDEC
 70
     4
  9
$DIMALTU
 70
     2
  9
$DIMALTTD
 70
     2
  9
$DIMTXSTY
  7
Standard
  9
$DIMAUNIT
 70
     0
  9
$DIMADEC
 70
     0
  9
$DIMALTRND
 40
0.0
  9
$DIMAZIN
 70
     0
  9
$DIMDSEP
 70
    46
  9
$DIMATFIT
 70
     3
  9
$DIMFRAC
 70
     0
  9
$DIMLDRBLK
  1

  9
$DIMLUNIT
 70
     2
  9
$DIMLWD
 70
    -2
  9
$DIMLWE
 70
    -2
  9
$DIMTMOVE
 70
     0
  9
$DIMFXL
 40
1.0
  9
$DIMFXLON
 70
     0
  9
$DIMJOGANG
 40
0.7853981633974483
  9
$DIMTFILL
 70
     0
  9
$DIMTFILLCLR
 70
     0
  9
$DIMARCSYM
 70
     0
  9
$DIMLTYPE
  6

  9
$DIMLTEX1
  6

  9
$DIMLTEX2
  6

  9
$DIMTXTDIRECTION
 70
     0
  9
$LUNITS
 70
     2
  9
$LUPREC
 70
     4
  9
$SKETCHINC
 40
0.1
  9
$FILLETRAD
 40
0.5
  9
$AUNITS
 70
     0
  9
$AUPREC
 70
     0
  9
$MENU
  1
.
  9
$ELEVATION
 40
0.0
  9
$PELEVATION
 40
0.0
  9
$THICKNESS
 40
0.0
  9
$LIMCHECK
 70
     0
  9
$CHAMFERA
 40
0.5
  9
$CHAMFERB
 40
0.5
  9
$CHAMFERC
 40
1.0
  9
$CHAMFERD
 40
0.0
  9
$SKPOLY
 70
     0
  9
$TDCREATE
 40
2457917.583935185
  9
$TDUCREATE
 40
2457917.208935185
  9
$TDUPDATE
 40
2457917.583935185
  9
$TDUUPDATE
 40
2457917.208935185
  9
$TDINDWG
 40
0.0000000116
  9
$TDUSRTIMER
 40
0.0000000116
  9
$USRTIMER
 70
     1
  9
$ANGBASE
 50
0.0
  9
$ANGDIR
 70
     0
  9
$PDMODE
 70
     0
  9
$PDSIZE
 40
0.0
  9
$PLINEWID
 40
0.0
  9
$SPLFRAME
 70
     0
  9
$SPLINETYPE
 70
     6
  9
$SPLINESEGS
 70
     8
  9
$HANDSEED
  5
F0
  9
$SURFTAB1
 70
     6
  9
$SURFTAB2
 70
     6
  9
$SURFTYPE
 70
     6
  9
$SURFU
 70
     6
  9
$SURFV
 70
     6
  9
$UCSBASE
  2

  9
$UCSNAME
  2

  9
$UCSORG
 10
0.0
 20
0.0
 30
0.0
  9
$UCSXDIR
 10
1.0
 20
0.0
 30
0.0
  9
$UCSYDIR
 10
0.0
 20
1.0
 30
0.0
  9
$UCSORTHOREF
  2

  9
$UCSORTHOVIEW
 70
     0
  9
$UCSORGTOP
 10
0.0
 20
0.0
 30
0.0
  9
$UCSORGBOTTOM
 10
0.0
 20
0.0
 30
0.0
  9
$UCSORGLEFT
 10
0.0
 20
0.0
 30
0.0
  9
$UCSORGRIGHT
 10
0.0
 20
0.0
 30
0.0
  9
$UCSORGFRONT
 10
0.0
 20
0.0
 30
0.0
  9
$UCSORGBACK
 10
0.0
 20
0.0
 30
0.0
  9
$PUCSBASE
  2

  9
$PUCSNAME
  2

  9
$PUCSORG
 10
0.0
 20
0.0
 30
0.0
  9
$PUCSXDIR
 10
1.0
 20
0.0
 30
0.0
  9
$PUCSYDIR
 10
0.0
 20
1.0
 30
0.0
  9
$PUCSORTHOREF
  2

  9
$PUCSORTHOVIEW
 70
     0
  9
$PUCSORGTOP
 10
0.0
 20
0.0
 30
0.0
  9
$PUCSORGBOTTOM
 10
0.0
 20
0.0
 30
0.0
  9
$PUCSORGLEFT
 10
0.0
 20
0.0
 30
0.0
  9
$PUCSORGRIGHT
 10
0.0
 20
0.0
 30
0.0
  9
$PUCSORGFRONT
 10
0.0
 20
0.0
 30
0.0
  9
$PUCSORGBACK
 10
0.0
 20
0.0
 30
0.0
  9
$USERI1
 70
     0
  9
$USERI2
 70
     0
  9
$USERI3
 70
     0
  9
$USERI4
 70
     0
  9
$USERI5
 70
     0
  9
$USERR1
 40
0.0
  9
$USERR2
 40
0.0
  9
$USERR3
 40
0.0
  9
$USERR4
 40
0.0
  9
$USERR5
 40
0.0
  9
$WORLDVIEW
 70
     1
  9
$SHADEDGE
 70
     3
  9
$SHADEDIF
 70
    70
  9
$TILEMODE
 70
     1
  9
$MAXACTVP
 70
    64
  9
$PINSBASE
 10
0.0
 20
0.0
 30
0.0
  9
$PLIMCHECK
 70
     0
  9
$PEXTMIN
 10
1.000000000000000E+20
 20
1.000000000000000E+20
 30
1.000000000000000E+20
  9
$PEXTMAX
 10
-1.000000000000000E+20
 20
-1.000000000000000E+20
 30
-1.000000000000000E+20
  9
$PLIMMIN
 10
0.0
 20
0.0
  9
$PLIMMAX
 10
12.0
 20
9.0
  9
$UNITMODE
 70
     0
  9
$VISRETAIN
 70
     1
  9
$PLINEGEN
 70
     0
  9
$PSLTSCALE
 70
     1
  9
$TREEDEPTH
 70
  3020
  9
$CMLSTYLE
  2
Standard
  9
$CMLJUST
 70
     0
  9
$CMLSCALE
 40
1.0
  9
$PROXYGRAPHICS
 70
     1
  9
$MEASUREMENT
 70
     0
  9
$CELWEIGHT
370
    -1
  9
$ENDCAPS
280
     0
  9
$JOINSTYLE
280
     0
  9
$LWDISPLAY
290
     1
  9
$INSUNITS
 70
     1
  9
$HYPERLINKBASE
  1

  9
$STYLESHEET
  1

  9
$XEDIT
290
     1
  9
$CEPSNTYPE
380
     0
  9
$PSTYLEMODE
290
     1
  9
$FINGERPRINTGUID
  2
{C6FFFC56-7165-6D89-2306-1C83D144C35B}
  9
$VERSIONGUID
  2
{FAEB1C32-E019-11D5-929B-00C0DF256EC4}
  9
$EXTNAMES
290
     1
  9
$PSVPSCALE
 40
0.0
  9
$OLESTARTUP
290
     0
  9
$SORTENTS
280
   127
  9
$INDEXCTL
280
     0
  9
$HIDETEXT
280
     1
  9
$XCLIPFRAME
280
     2
  9
$HALOGAP
280
     0
  9
$OBSCOLOR
 70
   257
  9
$OBSLTYPE
280
     0
  9
$INTERSECTIONDISPLAY
280
     0
  9
$INTERSECTIONCOLOR
 70
   257
  9
$DIMASSOC
280
     2
  9
$PROJECTNAME
  1

  9
$CAMERADISPLAY
290
     0
  9
$LENSLENGTH
 40
50.0
  9
$CAMERAHEIGHT
 40
0.0
  9
$STEPSPERSEC
 40
2.0
  9
$STEPSIZE
 40
6.0
  9
$3DDWFPREC
 40
2.0
  9
$PSOLWIDTH
 40
0.25
  9
$PSOLHEIGHT
 40
4.0
  9
$LOFTANG1
 40
1.570796326794897
  9
$LOFTANG2
 40
1.570796326794897
  9
$LOFTMAG1
 40
0.0
  9
$LOFTMAG2
 40
0.0
  9
$LOFTPARAM
 70
     7
  9
$LOFTNORMALS
280
     1
  9
$LATITUDE
 40
37.795
  9
$LONGITUDE
 40
-122.394
  9
$NORTHDIRECTION
 40
0.0
  9
$TIMEZONE
 70
 -8000
  9
$LIGHTGLYPHDISPLAY
280
     1
  9
$TILEMODELIGHTSYNCH
280
     1
  9
$CMATERIAL
347
3C
  9
$SOLIDHIST
280
     1
  9
$SHOWHIST
280
     1
  9
$DWFFRAME
280
     2
  9
$DGNFRAME
280
     2
  9
$REALWORLDSCALE
290
     1
  9
$INTERFERECOLOR
 62
   256
  9
$CSHADOW
280
     0
  9
$SHADOWPLANELOCATION
 40
0.0
  0
ENDSEC
  0
SECTION
  2
CLASSES
  0
CLASS
  1
ACDBDICTIONARYWDFLT
  2
AcDbDictionaryWithDefault
  3
ObjectDBX Classes
 90
        0
 91
        4
280
     0
281
     0
  0
CLASS
  1
VISUALSTYLE
  2
AcDbVisualStyle
  3
ObjectDBX Classes
 90
     4095
 91
        4
280
     0
281
     0
  0
CLASS
  1
MATERIAL
  2
AcDbMaterial
  3
ObjectDBX Classes
 90
     1153
 91
        4
280
     0
281
     0
  0
CLASS
  1
SUN
  2
AcDbSun
  3
SCENEOE
 90
     1024
 91
        4
280
     0
281
     0
  0
ENDSEC
  0
SECTION
  2
TABLES
  0
TABLE
  2
VPORT
  5
8
330
0
100
AcDbSymbolTable
 70
     1
  0
VPORT
  5
29
330
8
100
AcDbSymbolTableRecord
100
AcDbViewportTableRecord
  2
*Active
 70
     0
 10
0.0
 20
0.0
 11
1.0
 21
1.0
 12
0.0
 22
0.0
 13
0.0
 23
0.0
 14
0.5
 24
0.5
 15
0.5
 25
0.5
 16
0.0
 26
0.0
 36
1.0
 17
91.00082462281999
 27
-128.4993055234307
 37
0.0
 40
256.9986110468615
 41
0.7081814508812795
 42
50.0
 43
0.0
 44
0.0
 50
0.0
 51
0.0
 71
     0
 72
   100
 73
     1
 74
     3
 75
     0
 76
     0
 77
     0
 78
     0
281
     0
 65
     1
110
0.0
120
0.0
130
0.0
111
1.0
121
0.0
131
0.0
112
0.0
122
1.0
132
0.0
 79
     0
146
0.0
 60
     3
 61
     5
292
     1
282
     1
141
0.0
142
0.0
 63
   250
361
3F
  0
ENDTAB
  0
TABLE
  2
LTYPE
  5
5
330
0
100
AcDbSymbolTable
 70
     3
  0
LTYPE
  5
14
330
5
100
AcDbSymbolTableRecord
100
AcDbLinetypeTableRecord
  2
ByBlock
 70
     0
  3

 72
    65
 73
     0
 40
0.0
  0
LTYPE
  5
15
330
5
100
AcDbSymbolTableRecord
100
AcDbLinetypeTableRecord
  2
ByLayer
 70
     0
  3

 72
    65
 73
     0
 40
0.0
  0
LTYPE
  5
16
330
5
100
AcDbSymbolTableRecord
100
AcDbLinetypeTableRecord
  2
Continuous
 70
     0
  3
Solid line
 72
    65
 73
     0
 40
0.0
  0
LTYPE
  5
44
330
5
100
AcDbSymbolTableRecord
100
AcDbLinetypeTableRecord
  2
AI-Linetype-1
 70
     0
  3
Adobe Illustrator Linetype No. 1
 72
    65
 73
     2
 40
1.411111110758333
 49
0.7055555553791667
 74
     0
 49
-0.7055555553791667
 74
     0
  0
LTYPE
  5
49
330
5
100
AcDbSymbolTableRecord
100
AcDbLinetypeTableRecord
  2
AI-Linetype-2
 70
     0
  3
Adobe Illustrator Linetype No. 2
 72
    65
 73
     2
 40
1.411111110758333
 49
0.7055555553791667
 74
     0
 49
-0.7055555553791667
 74
     0
  0
ENDTAB
  0
TABLE
  2
LAYER
  5
2
330
0
100
AcDbSymbolTable
 70
     2
  0
LAYER
  5
10
330
2
100
AcDbSymbolTableRecord
100
AcDbLayerTableRecord
  2
0
 70
     0
 62
     7
  6
Continuous
370
    -3
390
F
347
3E
  0
LAYER
  5
40
330
2
100
AcDbSymbolTableRecord
100
AcDbLayerTableRecord
  2
_U+30EC_U+30A4_U+30E4_U+30FC 1
 70
     0
 62
     7
  6
Continuous
370
    -3
390
F
347
3E
  0
ENDTAB
  0
TABLE
  2
STYLE
  5
3
330
0
100
AcDbSymbolTable
 70
     1
  0
STYLE
  5
11
330
3
100
AcDbSymbolTableRecord
100
AcDbTextStyleTableRecord
  2
Standard
 70
     0
 40
0.0
 41
1.0
 50
0.0
 71
     0
 42
0.2
  3
txt
  4

  0
ENDTAB
  0
TABLE
  2
VIEW
  5
6
330
0
100
AcDbSymbolTable
 70
     0
  0
ENDTAB
  0
TABLE
  2
UCS
  5
7
330
0
100
AcDbSymbolTable
 70
     0
  0
ENDTAB
  0
TABLE
  2
APPID
  5
9
330
0
100
AcDbSymbolTable
 70
     1
  0
APPID
  5
12
330
9
100
AcDbSymbolTableRecord
100
AcDbRegAppTableRecord
  2
ACAD
 70
     0
  0
ENDTAB
  0
TABLE
  2
DIMSTYLE
  5
A
330
0
100
AcDbSymbolTable
 70
     1
100
AcDbDimStyleTable
  0
DIMSTYLE
105
27
330
A
100
AcDbSymbolTableRecord
100
AcDbDimStyleTableRecord
  2
Standard
 70
     0
178
     0
340
11
  0
ENDTAB
  0
TABLE
  2
BLOCK_RECORD
  5
1
330
0
100
AcDbSymbolTable
 70
     5
  0
BLOCK_RECORD
  5
1F
330
1
100
AcDbSymbolTableRecord
100
AcDbBlockTableRecord
  2
*Model_Space
340
22
 70
     0
280
     1
281
     0
  0
BLOCK_RECORD
  5
1B
330
1
100
AcDbSymbolTableRecord
100
AcDbBlockTableRecord
  2
*Paper_Space
340
1E
 70
     0
280
     1
281
     0
  0
BLOCK_RECORD
  5
23
330
1
100
AcDbSymbolTableRecord
100
AcDbBlockTableRecord
  2
*Paper_Space0
340
26
 70
     0
280
     1
281
     0
  0
BLOCK_RECORD
  5
63
330
1
100
AcDbSymbolTableRecord
100
AcDbBlockTableRecord
  2
block 2
340
0
102
{BLKREFS
331
64
102
}
 70
     0
280
     1
281
     0
  0
BLOCK_RECORD
  5
BD
330
1
100
AcDbSymbolTableRecord
100
AcDbBlockTableRecord
  2
block 3
340
0
102
{BLKREFS
331
BE
102
}
 70
     0
280
     1
281
     0
  0
BLOCK_RECORD
  5
D1
330
1
100
AcDbSymbolTableRecord
100
AcDbBlockTableRecord
  2
block 4
340
0
102
{BLKREFS
331
D2
102
}
 70
     0
280
     1
281
     0
  0
BLOCK_RECORD
  5
E5
330
1
100
AcDbSymbolTableRecord
100
AcDbBlockTableRecord
  2
block 5
340
0
102
{BLKREFS
331
E6
102
}
 70
     0
280
     1
281
     0
  0
ENDTAB
  0
ENDSEC
  0
SECTION
  2
BLOCKS
  0
BLOCK
  5
20
330
1F
100
AcDbEntity
  8
0
100
AcDbBlockBegin
  2
*Model_Space
 70
     0
 10
0.0
 20
0.0
 30
0.0
  3
*Model_Space
  1

  0
ENDBLK
  5
21
330
1F
100
AcDbEntity
  8
0
100
AcDbBlockEnd
  0
BLOCK
  5
1C
330
1B
100
AcDbEntity
 67
     1
  8
0
100
AcDbBlockBegin
  2
*Paper_Space
 70
     0
 10
0.0
 20
0.0
 30
0.0
  3
*Paper_Space
  1

  0
ENDBLK
  5
1D
330
1B
100
AcDbEntity
 67
     1
  8
0
100
AcDbBlockEnd
  0
BLOCK
  5
24
330
23
100
AcDbEntity
  8
0
100
AcDbBlockBegin
  2
*Paper_Space0
 70
     0
 10
0.0
 20
0.0
 30
0.0
  3
*Paper_Space0
  1

  0
ENDBLK
  5
25
330
23
100
AcDbEntity
  8
0
100
AcDbBlockEnd
  0
BLOCK
  5
65
330
63
100
AcDbEntity
  8
0
100
AcDbBlockBegin
  2
block 2
 70
     0
 10
0.0
 20
0.0
 30
0.0
  3
block 2
  1

  0
SPLINE
  5
67
330
63
100
AcDbEntity
  8
_U+30EC_U+30A4_U+30E4_U+30FC 1
370
     0
100
AcDbSpline
210
0.0
220
0.0
230
1.0
 70
    11
 71
     3
 72
   242
 73
   238
 74
     0
 42
0.0000000001
 43
0.0000000001
 12
1.0
 22
0.0
 32
0.0
 13
1.0
 23
0.0
 33
0.0
 40
0.0
 40
0.0
 40
0.0
 40
0.0
 40
1.0
 40
1.0
 40
1.0
 40
2.0
 40
2.0
 40
2.0
 40
3.0
 40
3.0
 40
3.0
 40
4.0
 40
4.0
 40
4.0
 40
5.0
 40
5.0
 40
5.0
 40
6.0
 40
6.0
 40
6.0
 40
7.0
 40
7.0
 40
7.0
 40
8.0
 40
8.0
 40
8.0
 40
9.0
 40
9.0
 40
9.0
 40
10.0
 40
10.0
 40
10.0
 40
11.0
 40
11.0
 40
11.0
 40
12.0
 40
12.0
 40
12.0
 40
13.0
 40
13.0
 40
13.0
 40
14.0
 40
14.0
 40
14.0
 40
15.0
 40
15.0
 40
15.0
 40
16.0
 40
16.0
 40
16.0
 40
17.0
 40
17.0
 40
17.0
 40
18.0
 40
18.0
 40
18.0
 40
19.0
 40
19.0
 40
19.0
 40
20.0
 40
20.0
 40
20.0
 40
21.0
 40
21.0
 40
21.0
 40
22.0
 40
22.0
 40
22.0
 40
23.0
 40
23.0
 40
23.0
 40
24.0
 40
24.0
 40
24.0
 40
25.0
 40
25.0
 40
25.0
 40
26.0
 40
26.0
 40
26.0
 40
27.0
 40
27.0
 40
27.0
 40
28.0
 40
28.0
 40
28.0
 40
29.0
 40
29.0
 40
29.0
 40
30.0
 40
30.0
 40
30.0
 40
31.0
 40
31.0
 40
31.0
 40
32.0
 40
32.0
 40
32.0
 40
33.0
 40
33.0
 40
33.0
 40
34.0
 40
34.0
 40
34.0
 40
35.0
 40
35.0
 40
35.0
 40
36.0
 40
36.0
 40
36.0
 40
37.0
 40
37.0
 40
37.0
 40
38.0
 40
38.0
 40
38.0
 40
39.0
 40
39.0
 40
39.0
 40
40.0
 40
40.0
 40
40.0
 40
41.0
 40
41.0
 40
41.0
 40
42.0
 40
42.0
 40
42.0
 40
43.0
 40
43.0
 40
43.0
 40
44.0
 40
44.0
 40
44.0
 40
45.0
 40
45.0
 40
45.0
 40
46.0
 40
46.0
 40
46.0
 40
47.0
 40
47.0
 40
47.0
 40
48.0
 40
48.0
 40
48.0
 40
49.0
 40
49.0
 40
49.0
 40
50.0
 40
50.0
 40
50.0
 40
51.0
 40
51.0
 40
51.0
 40
52.0
 40
52.0
 40
52.0
 40
53.0
 40
53.0
 40
53.0
 40
54.0
 40
54.0
 40
54.0
 40
55.0
 40
55.0
 40
55.0
 40
56.0
 40
56.0
 40
56.0
 40
57.0
 40
57.0
 40
57.0
 40
58.0
 40
58.0
 40
58.0
 40
59.0
 40
59.0
 40
59.0
 40
60.0
 40
60.0
 40
60.0
 40
61.0
 40
61.0
 40
61.0
 40
62.0
 40
62.0
 40
62.0
 40
63.0
 40
63.0
 40
63.0
 40
64.0
 40
64.0
 40
64.0
 40
65.0
 40
65.0
 40
65.0
 40
66.0
 40
66.0
 40
66.0
 40
67.0
 40
67.0
 40
67.0
 40
68.0
 40
68.0
 40
68.0
 40
69.0
 40
69.0
 40
69.0
 40
70.0
 40
70.0
 40
70.0
 40
71.0
 40
71.0
 40
71.0
 40
72.0
 40
72.0
 40
72.0
 40
73.0
 40
73.0
 40
73.0
 40
74.0
 40
74.0
 40
74.0
 40
75.0
 40
75.0
 40
75.0
 40
76.0
 40
76.0
 40
76.0
 40
77.0
 40
77.0
 40
77.0
 40
78.0
 40
78.0
 40
78.0
 40
79.0
 40
79.0
 40
79.0
 40
79.0
 10
94.62678220290582
 20
-117.7487128069343
 30
0.0
 10
94.62678220290582
 20
-117.7487128069343
 30
0.0
 10
94.3728786656429
 20
-117.7487128069343
 30
0.0
 10
94.3728786656429
 20
-117.7487128069343
 30
0.0
 10
94.3728786656429
 20
-117.7487128069343
 30
0.0
 10
94.0958929886288
 20
-117.7487128069343
 30
0.0
 10
94.0958929886288
 20
-117.7487128069343
 30
0.0
 10
94.0958929886288
 20
-117.7487128069343
 30
0.0
 10
94.222672502486
 20
-117.7910874814029
 30
0.0
 10
94.222672502486
 20
-117.7910874814029
 30
0.0
 10
94.23335229849027
 20
-117.7953938507595
 30
0.0
 10
94.2460991517857
 20
-117.8015950226329
 30
0.0
 10
94.2460991517857
 20
-117.8143418759284
 30
0.0
 10
94.2460991517857
 20
-117.8355292131626
 30
0.0
 10
94.21405976377288
 20
-117.8419026398104
 30
0.0
 10
94.19304468131286
 20
-117.8460367543927
 30
0.0
 10
94.18236488530857
 20
-117.8692911489181
 30
0.0
 10
94.15273706413544
 20
-117.9349202179121
 30
0.0
 10
94.13378903896655
 20
-117.9793619496718
 30
0.0
 10
94.13378903896655
 20
-117.9793619496718
 30
0.0
 10
94.4045735441072
 20
-117.9793619496718
 30
0.0
 10
94.4045735441072
 20
-117.9793619496718
 30
0.0
 10
94.49552406491779
 20
-117.9793619496718
 30
0.0
 10
94.69223901712556
 20
-117.9750555803153
 30
0.0
 10
94.83417695111785
 20
-117.9666150963764
 30
0.0
 10
94.83417695111785
 20
-117.9666150963764
 30
0.0
 10
94.83417695111785
 20
-118.1443820234153
 30
0.0
 10
94.83417695111785
 20
-118.1443820234153
 30
0.0
 10
94.75149465947186
 20
-118.1400756540587
 30
0.0
 10
94.73047957701183
 20
-118.1400756540587
 30
0.0
 10
94.55064559268179
 20
-118.1359415394764
 30
0.0
 10
94.51895071421748
 20
-118.2902818172156
 30
0.0
 10
94.47450898245776
 20
-118.3707247967962
 30
0.0
 10
94.43006725069804
 20
-118.4404879803725
 30
0.0
 10
94.55064559268179
 20
-118.4997436227188
 30
0.0
 10
94.65641002407895
 20
-118.567439749004
 30
0.0
 10
94.76010739818497
 20
-118.6499497858757
 30
0.0
 10
94.76010739818497
 20
-118.6499497858757
 30
0.0
 10
94.64159611349238
 20
-118.8170369169103
 30
0.0
 10
94.64159611349238
 20
-118.8170369169103
 30
0.0
 10
94.61816946419269
 20
-118.7980888917415
 30
0.0
 10
94.60542261089726
 20
-118.7896484078026
 30
0.0
 10
94.49345700762665
 20
-118.7048990588655
 30
0.0
 10
94.44488116128461
 20
-118.6668307537534
 30
0.0
 10
94.38562551893833
 20
-118.6310017607068
 30
0.0
 10
94.30501028458347
 20
-118.5865600289471
 30
0.0
 10
94.09348142178914
 20
-118.7727674399249
 30
0.0
 10
93.88849824041677
 20
-118.7960218344503
 30
0.0
 10
93.59842120055873
 20
-118.8256496556235
 30
0.0
 10
93.59842120055873
 20
-118.8256496556235
 30
0.0
 10
93.49506833600124
 20
-118.6458156712934
 30
0.0
 10
93.49506833600124
 20
-118.6458156712934
 30
0.0
 10
93.81236163019275
 20
-118.6415093019368
 30
0.0
 10
93.98771699039196
 20
-118.6161878501203
 30
0.0
 10
94.13999021084001
 20
-118.5061170493665
 30
0.0
 10
94.02182343569594
 20
-118.4553018909591
 30
0.0
 10
93.9329399721765
 20
-118.4279133818514
 30
0.0
 10
93.89676646958137
 20
-118.4151665285559
 30
0.0
 10
93.8778184444125
 20
-118.4427272924379
 30
0.0
 10
93.86300453382592
 20
-118.4616753176068
 30
0.0
 10
93.83544376994392
 20
-118.4956095081365
 30
0.0
 10
93.83544376994392
 20
-118.4956095081365
 30
0.0
 10
93.63872881773615
 20
-118.4130994712648
 30
0.0
 10
93.63872881773615
 20
-118.4130994712648
 30
0.0
 10
93.72141110938215
 20
-118.3326564916842
 30
0.0
 10
93.7827338090196
 20
-118.237399601517
 30
0.0
 10
93.83957788452622
 20
-118.1359415394764
 30
0.0
 10
93.64940861374043
 20
-118.1400756540587
 30
0.0
 10
93.62804902173188
 20
-118.1400756540587
 30
0.0
 10
93.54571123963441
 20
-118.1443820234153
 30
0.0
 10
93.54571123963441
 20
-118.1443820234153
 30
0.0
 10
93.54571123963441
 20
-117.9666150963764
 30
0.0
 10
93.54571123963441
 20
-117.9666150963764
 30
0.0
 10
93.68523760678703
 20
-117.9729885230241
 30
0.0
 10
93.89469941229022
 20
-117.9772948923807
 30
0.0
 10
93.92019311888107
 20
-117.9772948923807
 30
0.0
 10
93.9370740867588
 20
-117.943360701851
 30
0.0
 10
93.99219561452279
 20
-117.8227823598672
 30
0.0
 10
94.01114363969167
 20
-117.7487128069343
 30
0.0
 10
93.99219561452279
 20
-117.7487128069343
 30
0.0
 10
93.8144286874839
 20
-117.7550862335821
 30
0.0
 10
93.61978079256728
 20
-117.7678330868775
 30
0.0
 10
93.61978079256728
 20
-117.7678330868775
 30
0.0
 10
93.61978079256728
 20
-117.9011582821567
 30
0.0
 10
93.61978079256728
 20
-117.9011582821567
 30
0.0
 10
93.57120494622527
 20
-117.9264797339733
 30
0.0
 10
93.51194930387896
 20
-117.9581746124375
 30
0.0
 10
93.3786241085998
 20
-118.0238036814316
 30
0.0
 10
93.3786241085998
 20
-118.0238036814316
 30
0.0
 10
93.3786241085998
 20
-118.1697034752319
 30
0.0
 10
93.3786241085998
 20
-118.1697034752319
 30
0.0
 10
93.3786241085998
 20
-118.1697034752319
 30
0.0
 10
93.3786241085998
 20
-118.6373751873546
 30
0.0
 10
93.3786241085998
 20
-118.6373751873546
 30
0.0
 10
93.3786241085998
 20
-118.7641547012118
 30
0.0
 10
93.34245060600468
 20
-118.823410343558
 30
0.0
 10
93.05926375711714
 20
-118.8149698596192
 30
0.0
 10
93.05926375711714
 20
-118.8149698596192
 30
0.0
 10
92.95556638301112
 20
-118.6077473661814
 30
0.0
 10
92.95556638301112
 20
-118.6077473661814
 30
0.0
 10
93.0189561399397
 20
-118.6203219647026
 30
0.0
 10
93.06753198628174
 20
-118.6246283340591
 30
0.0
 10
93.10783960345915
 20
-118.6246283340591
 30
0.0
 10
93.18397621368318
 20
-118.6246283340591
 30
0.0
 10
93.19465600968745
 20
-118.6013739395337
 30
0.0
 10
93.19465600968745
 20
-118.5357448705397
 30
0.0
 10
93.19465600968745
 20
-118.5357448705397
 30
0.0
 10
93.19465600968745
 20
-118.1063137183033
 30
0.0
 10
93.19465600968745
 20
-118.1063137183033
 30
0.0
 10
93.09715980745489
 20
-118.1464490807064
 30
0.0
 10
93.08027883957716
 20
-118.1528225073542
 30
0.0
 10
93.03377005052629
 20
-118.1719427872973
 30
0.0
 10
93.02963593594399
 20
-118.1929578697573
 30
0.0
 10
93.02515731181316
 20
-118.2225856909305
 30
0.0
 10
93.00620928664428
 20
-118.2225856909305
 30
0.0
 10
92.99794105747968
 20
-118.2225856909305
 30
0.0
 10
92.98726126147541
 20
-118.2184515763482
 30
0.0
 10
92.98071558005344
 20
-118.1951971818227
 30
0.0
 10
92.98071558005344
 20
-118.1951971818227
 30
0.0
 10
92.92800561912911
 20
-118.0026163441973
 30
0.0
 10
92.92800561912911
 20
-118.0026163441973
 30
0.0
 10
93.0740776677037
 20
-117.9561075551464
 30
0.0
 10
93.13953448192345
 20
-117.932853160621
 30
0.0
 10
93.19465600968745
 20
-117.9116658233867
 30
0.0
 10
93.19465600968745
 20
-117.9116658233867
 30
0.0
 10
93.19465600968745
 20
-117.499115639028
 30
0.0
 10
93.19465600968745
 20
-117.499115639028
 30
0.0
 10
93.19465600968745
 20
-117.499115639028
 30
0.0
 10
93.1416015392146
 20
-117.499115639028
 30
0.0
 10
93.1416015392146
 20
-117.499115639028
 30
0.0
 10
93.1416015392146
 20
-117.499115639028
 30
0.0
 10
93.06339787169944
 20
-117.499115639028
 30
0.0
 10
93.06339787169944
 20
-117.499115639028
 30
0.0
 10
92.99552949064001
 20
-117.499115639028
 30
0.0
 10
92.98726126147541
 20
-117.499115639028
 30
0.0
 10
92.95108775888029
 20
-117.5054890656757
 30
0.0
 10
92.95108775888029
 20
-117.5054890656757
 30
0.0
 10
92.95108775888029
 20
-117.3108411707591
 30
0.0
 10
92.95108775888029
 20
-117.3108411707591
 30
0.0
 10
92.97864852276228
 20
-117.3172145974068
 30
0.0
 10
92.98726126147541
 20
-117.3172145974068
 30
0.0
 10
93.05685219027745
 20
-117.3172145974068
 30
0.0
 10
93.05685219027745
 20
-117.3172145974068
 30
0.0
 10
93.19017738555662
 20
-117.3172145974068
 30
0.0
 10
93.19017738555662
 20
-117.3172145974068
 30
0.0
 10
93.19017738555662
 20
-117.2474514138305
 30
0.0
 10
93.19017738555662
 20
-117.1649413769588
 30
0.0
 10
93.18811032826548
 20
-117.1606350076022
 30
0.0
 10
93.17984209910088
 20
-116.9808010232722
 30
0.0
 10
93.17984209910088
 20
-116.9618529981033
 30
0.0
 10
93.1774305322612
 20
-116.9153442090524
 30
0.0
 10
93.1774305322612
 20
-116.9153442090524
 30
0.0
 10
93.39343801918636
 20
-116.9237846929913
 30
0.0
 10
93.39343801918636
 20
-116.9237846929913
 30
0.0
 10
93.40411781519065
 20
-116.9237846929913
 30
0.0
 10
93.42513289765067
 20
-116.9258517502824
 30
0.0
 10
93.42513289765067
 20
-116.9427327181602
 30
0.0
 10
93.42513289765067
 20
-116.9618529981033
 30
0.0
 10
93.41031898706409
 20
-116.9723605393333
 30
0.0
 10
93.38482528047324
 20
-116.9914808192764
 30
0.0
 10
93.38482528047324
 20
-117.0421237229096
 30
0.0
 10
93.3786241085998
 20
-117.2707058083559
 30
0.0
 10
93.38069116589094
 20
-117.3172145974068
 30
0.0
 10
93.50988224658781
 20
-117.3172145974068
 30
0.0
 10
93.5222845903347
 20
-117.3172145974068
 30
0.0
 10
93.61978079256728
 20
-117.3087741134679
 30
0.0
 10
93.61978079256728
 20
-117.3087741134679
 30
0.0
 10
93.61978079256728
 20
-117.5034220083846
 30
0.0
 10
93.61978079256728
 20
-117.5034220083846
 30
0.0
 10
93.58154023268101
 20
-117.5011826963191
 30
0.0
 10
93.5140163611701
 20
-117.4970485817368
 30
0.0
 10
93.3786241085998
 20
-117.499115639028
 30
0.0
 10
93.3786241085998
 20
-117.499115639028
 30
0.0
 10
93.3786241085998
 20
-117.8375962704538
 30
0.0
 10
93.3786241085998
 20
-117.8375962704538
 30
0.0
 10
93.4337456363638
 20
-117.8143418759284
 30
0.0
 10
93.49920245058354
 20
-117.7867811120464
 30
0.0
 10
93.54777829692556
 20
-117.7635267175209
 30
0.0
 10
93.54777829692556
 20
-117.7635267175209
 30
0.0
 10
93.54777829692556
 20
-117.5859320452563
 30
0.0
 10
93.54777829692556
 20
-117.5859320452563
 30
0.0
 10
93.66215546703586
 20
-117.5985066437775
 30
0.0
 10
93.78066675172845
 20
-117.5985066437775
 30
0.0
 10
93.89676646958137
 20
-117.5985066437775
 30
0.0
 10
93.8736843298302
 20
-117.5034220083846
 30
0.0
 10
93.84612356594819
 20
-117.4209119715128
 30
0.0
 10
93.7827338090196
 20
-117.2875867762337
 30
0.0
 10
93.73829207725987
 20
-117.2896538335248
 30
0.0
 10
93.65560978561388
 20
-117.2939602028814
 30
0.0
 10
93.61771373527613
 20
-117.2960272601725
 30
0.0
 10
93.61771373527613
 20
-117.2960272601725
 30
0.0
 10
93.61771373527613
 20
-117.1161932758425
 30
0.0
 10
93.61771373527613
 20
-117.1161932758425
 30
0.0
 10
93.74242619184217
 20
-117.1246337597813
 30
0.0
 10
93.91605900429877
 20
-117.1289401291379
 30
0.0
 10
93.99839678639624
 20
-117.1289401291379
 30
0.0
 10
93.99839678639624
 20
-117.1289401291379
 30
0.0
 10
94.08107907804224
 20
-117.1289401291379
 30
0.0
 10
94.08107907804224
 20
-117.1289401291379
 30
0.0
 10
94.08107907804224
 20
-116.9659871126856
 30
0.0
 10
94.08107907804224
 20
-116.9554795714556
 30
0.0
 10
94.07866751120255
 20
-116.9005302984658
 30
0.0
 10
94.07866751120255
 20
-116.9005302984658
 30
0.0
 10
94.30294322729232
 20
-116.9258517502824
 30
0.0
 10
94.30294322729232
 20
-116.9258517502824
 30
0.0
 10
94.30742185142314
 20
-116.9258517502824
 30
0.0
 10
94.32843693388317
 20
-116.9279188075736
 30
0.0
 10
94.32843693388317
 20
-116.9447997754513
 30
0.0
 10
94.32843693388317
 20
-116.9596136860379
 30
0.0
 10
94.3177571378789
 20
-116.968226424751
 30
0.0
 10
94.2901963739969
 20
-116.9830403353376
 30
0.0
 10
94.28399520212345
 20
-117.0484971495573
 30
0.0
 10
94.2819281448323
 20
-117.0696844867916
 30
0.0
 10
94.2819281448323
 20
-117.1289401291379
 30
0.0
 10
94.2819281448323
 20
-117.1289401291379
 30
0.0
 10
94.3770127802252
 20
-117.1289401291379
 30
0.0
 10
94.3770127802252
 20
-117.1289401291379
 30
0.0
 10
94.4596950718712
 20
-117.1289401291379
 30
0.0
 10
94.63298337477926
 20
-117.1246337597813
 30
0.0
 10
94.75804034089383
 20
-117.1161932758425
 30
0.0
 10
94.75804034089383
 20
-117.1161932758425
 30
0.0
 10
94.75804034089383
 20
-117.2960272601725
 30
0.0
 10
94.75804034089383
 20
-117.2960272601725
 30
0.0
 10
94.72841251972068
 20
-117.2939602028814
 30
0.0
 10
94.60990123502809
 20
-117.2896538335248
 30
0.0
 10
94.56959361785066
 20
-117.2875867762337
 30
0.0
 10
94.55477970726409
 20
-117.3384019346411
 30
0.0
 10
94.52101777150864
 20
-117.450539792686
 30
0.0
 10
94.45521644774037
 20
-117.5900661598386
 30
0.0
 10
94.49759112220895
 20
-117.5900661598386
 30
0.0
 10
94.77492130877155
 20
-117.5711181346697
 30
0.0
 10
94.836244008409
 20
-117.5688788226043
 30
0.0
 10
94.836244008409
 20
-117.5688788226043
 30
0.0
 10
94.836244008409
 20
-117.7530191762909
 30
0.0
 10
94.836244008409
 20
-117.7530191762909
 30
0.0
 10
94.80661618723585
 20
-117.7530191762909
 30
0.0
 10
94.78973521935812
 20
-117.7487128069343
 30
0.0
 10
94.62678220290582
 20
-117.7487128069343
 30
0.0
  0
SPLINE
  5
68
330
63
100
AcDbEntity
  8
_U+30EC_U+30A4_U+30E4_U+30FC 1
370
     0
100
AcDbSpline
210
0.0
220
0.0
230
1.0
 70
    11
 71
     3
 72
    20
 73
    16
 74
     0
 42
0.0000000001
 43
0.0000000001
 12
1.0
 22
0.0
 32
0.0
 13
1.0
 23
0.0
 33
0.0
 40
0.0
 40
0.0
 40
0.0
 40
0.0
 40
1.0
 40
1.0
 40
1.0
 40
2.0
 40
2.0
 40
2.0
 40
3.0
 40
3.0
 40
3.0
 40
4.0
 40
4.0
 40
4.0
 40
5.0
 40
5.0
 40
5.0
 40
5.0
 10
93.99839678639624
 20
-117.2834526616514
 30
0.0
 10
93.99839678639624
 20
-117.2834526616514
 30
0.0
 10
93.96670190793193
 20
-117.2834526616514
 30
0.0
 10
93.96670190793193
 20
-117.2834526616514
 30
0.0
 10
94.01321069698281
 20
-117.3828436664008
 30
0.0
 10
94.04490557544712
 20
-117.4631143912071
 30
0.0
 10
94.07866751120255
 20
-117.5900661598386
 30
0.0
 10
94.07866751120255
 20
-117.5900661598386
 30
0.0
 10
94.2860622594146
 20
-117.5900661598386
 30
0.0
 10
94.2860622594146
 20
-117.5900661598386
 30
0.0
 10
94.3177571378789
 20
-117.4970485817368
 30
0.0
 10
94.3411837871786
 20
-117.412471487574
 30
0.0
 10
94.36426592692978
 20
-117.2834526616514
 30
0.0
 10
94.36426592692978
 20
-117.2834526616514
 30
0.0
 10
93.99839678639624
 20
-117.2834526616514
 30
0.0
 10
93.99839678639624
 20
-117.2834526616514
 30
0.0
  0
SPLINE
  5
69
330
63
100
AcDbEntity
  8
_U+30EC_U+30A4_U+30E4_U+30FC 1
370
     0
100
AcDbSpline
210
0.0
220
0.0
230
1.0
 70
    11
 71
     3
 72
    17
 73
    13
 74
     0
 42
0.0000000001
 43
0.0000000001
 12
1.0
 22
0.0
 32
0.0
 13
1.0
 23
0.0
 33
0.0
 40
0.0
 40
0.0
 40
0.0
 40
0.0
 40
1.0
 40
1.0
 40
1.0
 40
2.0
 40
2.0
 40
2.0
 40
3.0
 40
3.0
 40
3.0
 40
4.0
 40
4.0
 40
4.0
 40
4.0
 10
94.06178654332483
 20
-118.1338744821853
 30
0.0
 10
94.04490557544712
 20
-118.1633300485842
 30
0.0
 10
93.99426267181394
 20
-118.2565198814602
 30
0.0
 10
93.98358287580966
 20
-118.2754679066291
 30
0.0
 10
94.17409665614397
 20
-118.3347235489753
 30
0.0
 10
94.195111738604
 20
-118.3410969756231
 30
0.0
 10
94.26711423424572
 20
-118.3686577395051
 30
0.0
 10
94.32223576200973
 20
-118.2818413332768
 30
0.0
 10
94.3453179017609
 20
-118.2077717803439
 30
0.0
 10
94.36013181234748
 20
-118.1338744821853
 30
0.0
 10
94.36013181234748
 20
-118.1338744821853
 30
0.0
 10
94.06178654332483
 20
-118.1338744821853
 30
0.0
 10
94.06178654332483
 20
-118.1338744821853
 30
0.0
  0
HATCH
  5
6A
330
63
100
AcDbEntity
  8
_U+30EC_U+30A4_U+30E4_U+30FC 1
 62
     7
420
 16777215
100
AcDbHatch
 10
0.0
 20
0.0
 30
0.0
210
0.0
220
0.0
230
1.0
  2
SOLID
 70
     1
 71
     0
 91
        3
 92
        1
 93
        1
 72
     4
 94
        3
 73
     0
 74
     1
 95
      242
 96
      238
 40
0.0
 40
0.0
 40
0.0
 40
0.0
 40
1.0
 40
1.0
 40
1.0
 40
2.0
 40
2.0
 40
2.0
 40
3.0
 40
3.0
 40
3.0
 40
4.0
 40
4.0
 40
4.0
 40
5.0
 40
5.0
 40
5.0
 40
6.0
 40
6.0
 40
6.0
 40
7.0
 40
7.0
 40
7.0
 40
8.0
 40
8.0
 40
8.0
 40
9.0
 40
9.0
 40
9.0
 40
10.0
 40
10.0
 40
10.0
 40
11.0
 40
11.0
 40
11.0
 40
12.0
 40
12.0
 40
12.0
 40
13.0
 40
13.0
 40
13.0
 40
14.0
 40
14.0
 40
14.0
 40
15.0
 40
15.0
 40
15.0
 40
16.0
 40
16.0
 40
16.0
 40
17.0
 40
17.0
 40
17.0
 40
18.0
 40
18.0
 40
18.0
 40
19.0
 40
19.0
 40
19.0
 40
20.0
 40
20.0
 40
20.0
 40
21.0
 40
21.0
 40
21.0
 40
22.0
 40
22.0
 40
22.0
 40
23.0
 40
23.0
 40
23.0
 40
24.0
 40
24.0
 40
24.0
 40
25.0
 40
25.0
 40
25.0
 40
26.0
 40
26.0
 40
26.0
 40
27.0
 40
27.0
 40
27.0
 40
28.0
 40
28.0
 40
28.0
 40
29.0
 40
29.0
 40
29.0
 40
30.0
 40
30.0
 40
30.0
 40
31.0
 40
31.0
 40
31.0
 40
32.0
 40
32.0
 40
32.0
 40
33.0
 40
33.0
 40
33.0
 40
34.0
 40
34.0
 40
34.0
 40
35.0
 40
35.0
 40
35.0
 40
36.0
 40
36.0
 40
36.0
 40
37.0
 40
37.0
 40
37.0
 40
38.0
 40
38.0
 40
38.0
 40
39.0
 40
39.0
 40
39.0
 40
40.0
 40
40.0
 40
40.0
 40
41.0
 40
41.0
 40
41.0
 40
42.0
 40
42.0
 40
42.0
 40
43.0
 40
43.0
 40
43.0
 40
44.0
 40
44.0
 40
44.0
 40
45.0
 40
45.0
 40
45.0
 40
46.0
 40
46.0
 40
46.0
 40
47.0
 40
47.0
 40
47.0
 40
48.0
 40
48.0
 40
48.0
 40
49.0
 40
49.0
 40
49.0
 40
50.0
 40
50.0
 40
50.0
 40
51.0
 40
51.0
 40
51.0
 40
52.0
 40
52.0
 40
52.0
 40
53.0
 40
53.0
 40
53.0
 40
54.0
 40
54.0
 40
54.0
 40
55.0
 40
55.0
 40
55.0
 40
56.0
 40
56.0
 40
56.0
 40
57.0
 40
57.0
 40
57.0
 40
58.0
 40
58.0
 40
58.0
 40
59.0
 40
59.0
 40
59.0
 40
60.0
 40
60.0
 40
60.0
 40
61.0
 40
61.0
 40
61.0
 40
62.0
 40
62.0
 40
62.0
 40
63.0
 40
63.0
 40
63.0
 40
64.0
 40
64.0
 40
64.0
 40
65.0
 40
65.0
 40
65.0
 40
66.0
 40
66.0
 40
66.0
 40
67.0
 40
67.0
 40
67.0
 40
68.0
 40
68.0
 40
68.0
 40
69.0
 40
69.0
 40
69.0
 40
70.0
 40
70.0
 40
70.0
 40
71.0
 40
71.0
 40
71.0
 40
72.0
 40
72.0
 40
72.0
 40
73.0
 40
73.0
 40
73.0
 40
74.0
 40
74.0
 40
74.0
 40
75.0
 40
75.0
 40
75.0
 40
76.0
 40
76.0
 40
76.0
 40
77.0
 40
77.0
 40
77.0
 40
78.0
 40
78.0
 40
78.0
 40
79.0
 40
79.0
 40
79.0
 40
79.0
 10
94.62678220290582
 20
-117.7487128069343
 10
94.62678220290582
 20
-117.7487128069343
 10
94.3728786656429
 20
-117.7487128069343
 10
94.3728786656429
 20
-117.7487128069343
 10
94.3728786656429
 20
-117.7487128069343
 10
94.0958929886288
 20
-117.7487128069343
 10
94.0958929886288
 20
-117.7487128069343
 10
94.0958929886288
 20
-117.7487128069343
 10
94.222672502486
 20
-117.7910874814029
 10
94.222672502486
 20
-117.7910874814029
 10
94.23335229849027
 20
-117.7953938507595
 10
94.2460991517857
 20
-117.8015950226329
 10
94.2460991517857
 20
-117.8143418759284
 10
94.2460991517857
 20
-117.8355292131626
 10
94.21405976377288
 20
-117.8419026398104
 10
94.19304468131286
 20
-117.8460367543927
 10
94.18236488530857
 20
-117.8692911489181
 10
94.15273706413544
 20
-117.9349202179121
 10
94.13378903896655
 20
-117.9793619496718
 10
94.13378903896655
 20
-117.9793619496718
 10
94.4045735441072
 20
-117.9793619496718
 10
94.4045735441072
 20
-117.9793619496718
 10
94.49552406491779
 20
-117.9793619496718
 10
94.69223901712556
 20
-117.9750555803153
 10
94.83417695111785
 20
-117.9666150963764
 10
94.83417695111785
 20
-117.9666150963764
 10
94.83417695111785
 20
-118.1443820234153
 10
94.83417695111785
 20
-118.1443820234153
 10
94.75149465947186
 20
-118.1400756540587
 10
94.73047957701183
 20
-118.1400756540587
 10
94.55064559268179
 20
-118.1359415394764
 10
94.51895071421748
 20
-118.2902818172156
 10
94.47450898245776
 20
-118.3707247967962
 10
94.43006725069804
 20
-118.4404879803725
 10
94.55064559268179
 20
-118.4997436227188
 10
94.65641002407895
 20
-118.567439749004
 10
94.76010739818497
 20
-118.6499497858757
 10
94.76010739818497
 20
-118.6499497858757
 10
94.64159611349238
 20
-118.8170369169103
 10
94.64159611349238
 20
-118.8170369169103
 10
94.61816946419269
 20
-118.7980888917415
 10
94.60542261089726
 20
-118.7896484078026
 10
94.49345700762665
 20
-118.7048990588655
 10
94.44488116128461
 20
-118.6668307537534
 10
94.38562551893833
 20
-118.6310017607068
 10
94.30501028458347
 20
-118.5865600289471
 10
94.09348142178914
 20
-118.7727674399249
 10
93.88849824041677
 20
-118.7960218344503
 10
93.59842120055873
 20
-118.8256496556235
 10
93.59842120055873
 20
-118.8256496556235
 10
93.49506833600124
 20
-118.6458156712934
 10
93.49506833600124
 20
-118.6458156712934
 10
93.81236163019275
 20
-118.6415093019368
 10
93.98771699039196
 20
-118.6161878501203
 10
94.13999021084001
 20
-118.5061170493665
 10
94.02182343569594
 20
-118.4553018909591
 10
93.9329399721765
 20
-118.4279133818514
 10
93.89676646958137
 20
-118.4151665285559
 10
93.8778184444125
 20
-118.4427272924379
 10
93.86300453382592
 20
-118.4616753176068
 10
93.83544376994392
 20
-118.4956095081365
 10
93.83544376994392
 20
-118.4956095081365
 10
93.63872881773615
 20
-118.4130994712648
 10
93.63872881773615
 20
-118.4130994712648
 10
93.72141110938215
 20
-118.3326564916842
 10
93.7827338090196
 20
-118.237399601517
 10
93.83957788452622
 20
-118.1359415394764
 10
93.64940861374043
 20
-118.1400756540587
 10
93.62804902173188
 20
-118.1400756540587
 10
93.54571123963441
 20
-118.1443820234153
 10
93.54571123963441
 20
-118.1443820234153
 10
93.54571123963441
 20
-117.9666150963764
 10
93.54571123963441
 20
-117.9666150963764
 10
93.68523760678703
 20
-117.9729885230241
 10
93.89469941229022
 20
-117.9772948923807
 10
93.92019311888107
 20
-117.9772948923807
 10
93.9370740867588
 20
-117.943360701851
 10
93.99219561452279
 20
-117.8227823598672
 10
94.01114363969167
 20
-117.7487128069343
 10
93.99219561452279
 20
-117.7487128069343
 10
93.8144286874839
 20
-117.7550862335821
 10
93.61978079256728
 20
-117.7678330868775
 10
93.61978079256728
 20
-117.7678330868775
 10
93.61978079256728
 20
-117.9011582821567
 10
93.61978079256728
 20
-117.9011582821567
 10
93.57120494622527
 20
-117.9264797339733
 10
93.51194930387896
 20
-117.9581746124375
 10
93.3786241085998
 20
-118.0238036814316
 10
93.3786241085998
 20
-118.0238036814316
 10
93.3786241085998
 20
-118.1697034752319
 10
93.3786241085998
 20
-118.1697034752319
 10
93.3786241085998
 20
-118.1697034752319
 10
93.3786241085998
 20
-118.6373751873546
 10
93.3786241085998
 20
-118.6373751873546
 10
93.3786241085998
 20
-118.7641547012118
 10
93.34245060600468
 20
-118.823410343558
 10
93.05926375711714
 20
-118.8149698596192
 10
93.05926375711714
 20
-118.8149698596192
 10
92.95556638301112
 20
-118.6077473661814
 10
92.95556638301112
 20
-118.6077473661814
 10
93.0189561399397
 20
-118.6203219647026
 10
93.06753198628174
 20
-118.6246283340591
 10
93.10783960345915
 20
-118.6246283340591
 10
93.18397621368318
 20
-118.6246283340591
 10
93.19465600968745
 20
-118.6013739395337
 10
93.19465600968745
 20
-118.5357448705397
 10
93.19465600968745
 20
-118.5357448705397
 10
93.19465600968745
 20
-118.1063137183033
 10
93.19465600968745
 20
-118.1063137183033
 10
93.09715980745489
 20
-118.1464490807064
 10
93.08027883957716
 20
-118.1528225073542
 10
93.03377005052629
 20
-118.1719427872973
 10
93.02963593594399
 20
-118.1929578697573
 10
93.02515731181316
 20
-118.2225856909305
 10
93.00620928664428
 20
-118.2225856909305
 10
92.99794105747968
 20
-118.2225856909305
 10
92.98726126147541
 20
-118.2184515763482
 10
92.98071558005344
 20
-118.1951971818227
 10
92.98071558005344
 20
-118.1951971818227
 10
92.92800561912911
 20
-118.0026163441973
 10
92.92800561912911
 20
-118.0026163441973
 10
93.0740776677037
 20
-117.9561075551464
 10
93.13953448192345
 20
-117.932853160621
 10
93.19465600968745
 20
-117.9116658233867
 10
93.19465600968745
 20
-117.9116658233867
 10
93.19465600968745
 20
-117.499115639028
 10
93.19465600968745
 20
-117.499115639028
 10
93.19465600968745
 20
-117.499115639028
 10
93.1416015392146
 20
-117.499115639028
 10
93.1416015392146
 20
-117.499115639028
 10
93.1416015392146
 20
-117.499115639028
 10
93.06339787169944
 20
-117.499115639028
 10
93.06339787169944
 20
-117.499115639028
 10
92.99552949064001
 20
-117.499115639028
 10
92.98726126147541
 20
-117.499115639028
 10
92.95108775888029
 20
-117.5054890656757
 10
92.95108775888029
 20
-117.5054890656757
 10
92.95108775888029
 20
-117.3108411707591
 10
92.95108775888029
 20
-117.3108411707591
 10
92.97864852276228
 20
-117.3172145974068
 10
92.98726126147541
 20
-117.3172145974068
 10
93.05685219027745
 20
-117.3172145974068
 10
93.05685219027745
 20
-117.3172145974068
 10
93.19017738555662
 20
-117.3172145974068
 10
93.19017738555662
 20
-117.3172145974068
 10
93.19017738555662
 20
-117.2474514138305
 10
93.19017738555662
 20
-117.1649413769588
 10
93.18811032826548
 20
-117.1606350076022
 10
93.17984209910088
 20
-116.9808010232722
 10
93.17984209910088
 20
-116.9618529981033
 10
93.1774305322612
 20
-116.9153442090524
 10
93.1774305322612
 20
-116.9153442090524
 10
93.39343801918636
 20
-116.9237846929913
 10
93.39343801918636
 20
-116.9237846929913
 10
93.40411781519065
 20
-116.9237846929913
 10
93.42513289765067
 20
-116.9258517502824
 10
93.42513289765067
 20
-116.9427327181602
 10
93.42513289765067
 20
-116.9618529981033
 10
93.41031898706409
 20
-116.9723605393333
 10
93.38482528047324
 20
-116.9914808192764
 10
93.38482528047324
 20
-117.0421237229096
 10
93.3786241085998
 20
-117.2707058083559
 10
93.38069116589094
 20
-117.3172145974068
 10
93.50988224658781
 20
-117.3172145974068
 10
93.5222845903347
 20
-117.3172145974068
 10
93.61978079256728
 20
-117.3087741134679
 10
93.61978079256728
 20
-117.3087741134679
 10
93.61978079256728
 20
-117.5034220083846
 10
93.61978079256728
 20
-117.5034220083846
 10
93.58154023268101
 20
-117.5011826963191
 10
93.5140163611701
 20
-117.4970485817368
 10
93.3786241085998
 20
-117.499115639028
 10
93.3786241085998
 20
-117.499115639028
 10
93.3786241085998
 20
-117.8375962704538
 10
93.3786241085998
 20
-117.8375962704538
 10
93.4337456363638
 20
-117.8143418759284
 10
93.49920245058354
 20
-117.7867811120464
 10
93.54777829692556
 20
-117.7635267175209
 10
93.54777829692556
 20
-117.7635267175209
 10
93.54777829692556
 20
-117.5859320452563
 10
93.54777829692556
 20
-117.5859320452563
 10
93.66215546703586
 20
-117.5985066437775
 10
93.78066675172845
 20
-117.5985066437775
 10
93.89676646958137
 20
-117.5985066437775
 10
93.8736843298302
 20
-117.5034220083846
 10
93.84612356594819
 20
-117.4209119715128
 10
93.7827338090196
 20
-117.2875867762337
 10
93.73829207725987
 20
-117.2896538335248
 10
93.65560978561388
 20
-117.2939602028814
 10
93.61771373527613
 20
-117.2960272601725
 10
93.61771373527613
 20
-117.2960272601725
 10
93.61771373527613
 20
-117.1161932758425
 10
93.61771373527613
 20
-117.1161932758425
 10
93.74242619184217
 20
-117.1246337597813
 10
93.91605900429877
 20
-117.1289401291379
 10
93.99839678639624
 20
-117.1289401291379
 10
93.99839678639624
 20
-117.1289401291379
 10
94.08107907804224
 20
-117.1289401291379
 10
94.08107907804224
 20
-117.1289401291379
 10
94.08107907804224
 20
-116.9659871126856
 10
94.08107907804224
 20
-116.9554795714556
 10
94.07866751120255
 20
-116.9005302984658
 10
94.07866751120255
 20
-116.9005302984658
 10
94.30294322729232
 20
-116.9258517502824
 10
94.30294322729232
 20
-116.9258517502824
 10
94.30742185142314
 20
-116.9258517502824
 10
94.32843693388317
 20
-116.9279188075736
 10
94.32843693388317
 20
-116.9447997754513
 10
94.32843693388317
 20
-116.9596136860379
 10
94.3177571378789
 20
-116.968226424751
 10
94.2901963739969
 20
-116.9830403353376
 10
94.28399520212345
 20
-117.0484971495573
 10
94.2819281448323
 20
-117.0696844867916
 10
94.2819281448323
 20
-117.1289401291379
 10
94.2819281448323
 20
-117.1289401291379
 10
94.3770127802252
 20
-117.1289401291379
 10
94.3770127802252
 20
-117.1289401291379
 10
94.4596950718712
 20
-117.1289401291379
 10
94.63298337477926
 20
-117.1246337597813
 10
94.75804034089383
 20
-117.1161932758425
 10
94.75804034089383
 20
-117.1161932758425
 10
94.75804034089383
 20
-117.2960272601725
 10
94.75804034089383
 20
-117.2960272601725
 10
94.72841251972068
 20
-117.2939602028814
 10
94.60990123502809
 20
-117.2896538335248
 10
94.56959361785066
 20
-117.2875867762337
 10
94.55477970726409
 20
-117.3384019346411
 10
94.52101777150864
 20
-117.450539792686
 10
94.45521644774037
 20
-117.5900661598386
 10
94.49759112220895
 20
-117.5900661598386
 10
94.77492130877155
 20
-117.5711181346697
 10
94.836244008409
 20
-117.5688788226043
 10
94.836244008409
 20
-117.5688788226043
 10
94.836244008409
 20
-117.7530191762909
 10
94.836244008409
 20
-117.7530191762909
 10
94.80661618723585
 20
-117.7530191762909
 10
94.78973521935812
 20
-117.7487128069343
 10
94.62678220290582
 20
-117.7487128069343
 97
        0
 97
        0
 92
        1
 93
        1
 72
     4
 94
        3
 73
     0
 74
     1
 95
       20
 96
       16
 40
0.0
 40
0.0
 40
0.0
 40
0.0
 40
1.0
 40
1.0
 40
1.0
 40
2.0
 40
2.0
 40
2.0
 40
3.0
 40
3.0
 40
3.0
 40
4.0
 40
4.0
 40
4.0
 40
5.0
 40
5.0
 40
5.0
 40
5.0
 10
93.99839678639624
 20
-117.2834526616514
 10
93.99839678639624
 20
-117.2834526616514
 10
93.96670190793193
 20
-117.2834526616514
 10
93.96670190793193
 20
-117.2834526616514
 10
94.01321069698281
 20
-117.3828436664008
 10
94.04490557544712
 20
-117.4631143912071
 10
94.07866751120255
 20
-117.5900661598386
 10
94.07866751120255
 20
-117.5900661598386
 10
94.2860622594146
 20
-117.5900661598386
 10
94.2860622594146
 20
-117.5900661598386
 10
94.3177571378789
 20
-117.4970485817368
 10
94.3411837871786
 20
-117.412471487574
 10
94.36426592692978
 20
-117.2834526616514
 10
94.36426592692978
 20
-117.2834526616514
 10
93.99839678639624
 20
-117.2834526616514
 10
93.99839678639624
 20
-117.2834526616514
 97
        0
 97
        0
 92
        1
 93
        1
 72
     4
 94
        3
 73
     0
 74
     1
 95
       17
 96
       13
 40
0.0
 40
0.0
 40
0.0
 40
0.0
 40
1.0
 40
1.0
 40
1.0
 40
2.0
 40
2.0
 40
2.0
 40
3.0
 40
3.0
 40
3.0
 40
4.0
 40
4.0
 40
4.0
 40
4.0
 10
94.06178654332483
 20
-118.1338744821853
 10
94.04490557544712
 20
-118.1633300485842
 10
93.99426267181394
 20
-118.2565198814602
 10
93.98358287580966
 20
-118.2754679066291
 10
94.17409665614397
 20
-118.3347235489753
 10
94.195111738604
 20
-118.3410969756231
 10
94.26711423424572
 20
-118.3686577395051
 10
94.32223576200973
 20
-118.2818413332768
 10
94.3453179017609
 20
-118.2077717803439
 10
94.36013181234748
 20
-118.1338744821853
 10
94.36013181234748
 20
-118.1338744821853
 10
94.06178654332483
 20
-118.1338744821853
 10
94.06178654332483
 20
-118.1338744821853
 97
        0
 97
        0
 75
     2
 76
     1
 98
        0
  0
SPLINE
  5
6B
330
63
100
AcDbEntity
  8
_U+30EC_U+30A4_U+30E4_U+30FC 1
370
     0
100
AcDbSpline
210
0.0
220
0.0
230
1.0
 70
    11
 71
     3
 72
   203
 73
   199
 74
     0
 42
0.0000000001
 43
0.0000000001
 12
1.0
 22
0.0
 32
0.0
 13
1.0
 23
0.0
 33
0.0
 40
0.0
 40
0.0
 40
0.0
 40
0.0
 40
1.0
 40
1.0
 40
1.0
 40
2.0
 40
2.0
 40
2.0
 40
3.0
 40
3.0
 40
3.0
 40
4.0
 40
4.0
 40
4.0
 40
5.0
 40
5.0
 40
5.0
 40
6.0
 40
6.0
 40
6.0
 40
7.0
 40
7.0
 40
7.0
 40
8.0
 40
8.0
 40
8.0
 40
9.0
 40
9.0
 40
9.0
 40
10.0
 40
10.0
 40
10.0
 40
11.0
 40
11.0
 40
11.0
 40
12.0
 40
12.0
 40
12.0
 40
13.0
 40
13.0
 40
13.0
 40
14.0
 40
14.0
 40
14.0
 40
15.0
 40
15.0
 40
15.0
 40
16.0
 40
16.0
 40
16.0
 40
17.0
 40
17.0
 40
17.0
 40
18.0
 40
18.0
 40
18.0
 40
19.0
 40
19.0
 40
19.0
 40
20.0
 40
20.0
 40
20.0
 40
21.0
 40
21.0
 40
21.0
 40
22.0
 40
22.0
 40
22.0
 40
23.0
 40
23.0
 40
23.0
 40
24.0
 40
24.0
 40
24.0
 40
25.0
 40
25.0
 40
25.0
 40
26.0
 40
26.0
 40
26.0
 40
27.0
 40
27.0
 40
27.0
 40
28.0
 40
28.0
 40
28.0
 40
29.0
 40
29.0
 40
29.0
 40
30.0
 40
30.0
 40
30.0
 40
31.0
 40
31.0
 40
31.0
 40
32.0
 40
32.0
 40
32.0
 40
33.0
 40
33.0
 40
33.0
 40
34.0
 40
34.0
 40
34.0
 40
35.0
 40
35.0
 40
35.0
 40
36.0
 40
36.0
 40
36.0
 40
37.0
 40
37.0
 40
37.0
 40
38.0
 40
38.0
 40
38.0
 40
39.0
 40
39.0
 40
39.0
 40
40.0
 40
40.0
 40
40.0
 40
41.0
 40
41.0
 40
41.0
 40
42.0
 40
42.0
 40
42.0
 40
43.0
 40
43.0
 40
43.0
 40
44.0
 40
44.0
 40
44.0
 40
45.0
 40
45.0
 40
45.0
 40
46.0
 40
46.0
 40
46.0
 40
47.0
 40
47.0
 40
47.0
 40
48.0
 40
48.0
 40
48.0
 40
49.0
 40
49.0
 40
49.0
 40
50.0
 40
50.0
 40
50.0
 40
51.0
 40
51.0
 40
51.0
 40
52.0
 40
52.0
 40
52.0
 40
53.0
 40
53.0
 40
53.0
 40
54.0
 40
54.0
 40
54.0
 40
55.0
 40
55.0
 40
55.0
 40
56.0
 40
56.0
 40
56.0
 40
57.0
 40
57.0
 40
57.0
 40
58.0
 40
58.0
 40
58.0
 40
59.0
 40
59.0
 40
59.0
 40
60.0
 40
60.0
 40
60.0
 40
61.0
 40
61.0
 40
61.0
 40
62.0
 40
62.0
 40
62.0
 40
63.0
 40
63.0
 40
63.0
 40
64.0
 40
64.0
 40
64.0
 40
65.0
 40
65.0
 40
65.0
 40
66.0
 40
66.0
 40
66.0
 40
66.0
 10
96.31832408616349
 20
-117.8164089332195
 30
0.0
 10
96.31832408616349
 20
-117.8164089332195
 30
0.0
 10
95.75952959845596
 20
-117.8164089332195
 30
0.0
 10
95.75952959845596
 20
-117.8164089332195
 30
0.0
 10
95.7491943120002
 20
-117.8608506649792
 30
0.0
 10
95.74058157328709
 20
-117.8925455434435
 30
0.0
 10
95.72783471999166
 20
-117.9307861033298
 30
0.0
 10
95.7533284265825
 20
-117.9307861033298
 30
0.0
 10
95.76814233716908
 20
-117.932853160621
 30
0.0
 10
95.77434350904252
 20
-117.932853160621
 30
0.0
 10
95.77434350904252
 20
-117.932853160621
 30
0.0
 10
95.9627902320857
 20
-117.932853160621
 30
0.0
 10
95.9627902320857
 20
-117.932853160621
 30
0.0
 10
95.9627902320857
 20
-117.932853160621
 30
0.0
 10
96.33727211133235
 20
-117.932853160621
 30
0.0
 10
96.33727211133235
 20
-117.932853160621
 30
0.0
 10
96.38791501496553
 20
-117.932853160621
 30
0.0
 10
96.6714463734016
 20
-117.9201063073255
 30
0.0
 10
96.70314125186589
 20
-117.9201063073255
 30
0.0
 10
96.70107419457473
 20
-117.9476670712075
 30
0.0
 10
96.69900713728359
 20
-117.9666150963764
 30
0.0
 10
96.69900713728359
 20
-117.9962429175496
 30
0.0
 10
96.69694007999243
 20
-118.0279377960139
 30
0.0
 10
96.69694007999243
 20
-118.1633300485842
 30
0.0
 10
96.69694007999243
 20
-118.1908908124662
 30
0.0
 10
96.69694007999243
 20
-118.1908908124662
 30
0.0
 10
96.69694007999243
 20
-118.4363538657902
 30
0.0
 10
96.69694007999243
 20
-118.4363538657902
 30
0.0
 10
96.69694007999243
 20
-118.4807955975499
 30
0.0
 10
96.70107419457473
 20
-118.6775105497577
 30
0.0
 10
96.70520830915703
 20
-118.8297837702058
 30
0.0
 10
96.70520830915703
 20
-118.8297837702058
 30
0.0
 10
96.47886553577612
 20
-118.8297837702058
 30
0.0
 10
96.47886553577612
 20
-118.8297837702058
 30
0.0
 10
96.47886553577612
 20
-118.8297837702058
 30
0.0
 10
96.48093259306727
 20
-118.7960218344503
 30
0.0
 10
96.48093259306727
 20
-118.7960218344503
 30
0.0
 10
96.48093259306727
 20
-118.7960218344503
 30
0.0
 10
95.77882213317335
 20
-118.7960218344503
 30
0.0
 10
95.77882213317335
 20
-118.7960218344503
 30
0.0
 10
95.77882213317335
 20
-118.7960218344503
 30
0.0
 10
95.7808891904645
 20
-118.8297837702058
 30
0.0
 10
95.7808891904645
 20
-118.8297837702058
 30
0.0
 10
95.7808891904645
 20
-118.8297837702058
 30
0.0
 10
95.56281464624819
 20
-118.8297837702058
 30
0.0
 10
95.56281464624819
 20
-118.8297837702058
 30
0.0
 10
95.56729327037901
 20
-118.774834497216
 30
0.0
 10
95.56729327037901
 20
-118.7620876439206
 30
0.0
 10
95.57349444225247
 20
-118.6478827285846
 30
0.0
 10
95.57556149954361
 20
-118.6203219647026
 30
0.0
 10
95.57762855683477
 20
-118.4871690241977
 30
0.0
 10
95.57762855683477
 20
-118.4680487442545
 30
0.0
 10
95.57762855683477
 20
-118.4680487442545
 30
0.0
 10
95.57762855683477
 20
-118.264960365399
 30
0.0
 10
95.57762855683477
 20
-118.264960365399
 30
0.0
 10
95.43810218968214
 20
-118.5145575333054
 30
0.0
 10
95.26894800135638
 20
-118.6458156712934
 30
0.0
 10
95.1631835699592
 20
-118.7112724855132
 30
0.0
 10
95.1631835699592
 20
-118.7112724855132
 30
0.0
 10
94.98955075750261
 20
-118.5717461183605
 30
0.0
 10
94.98955075750261
 20
-118.5717461183605
 30
0.0
 10
95.07843422102206
 20
-118.5209309599531
 30
0.0
 10
95.2224392123055
 20
-118.4341145537248
 30
0.0
 10
95.35989852216697
 20
-118.2396389135825
 30
0.0
 10
95.45084904297757
 20
-118.112687144951
 30
0.0
 10
95.51630585719732
 20
-117.9688544084418
 30
0.0
 10
95.55041230250129
 20
-117.8164089332195
 30
0.0
 10
95.3216579622807
 20
-117.8186482452849
 30
0.0
 10
95.14182397795066
 20
-117.8250216719326
 30
0.0
 10
95.04673934255776
 20
-117.8270887292238
 30
0.0
 10
95.04673934255776
 20
-117.8270887292238
 30
0.0
 10
95.04673934255776
 20
-117.6493218021849
 30
0.0
 10
95.04673934255776
 20
-117.6493218021849
 30
0.0
 10
95.24345429476553
 20
-117.6556952288326
 30
0.0
 10
95.52698565320159
 20
-117.6600015981892
 30
0.0
 10
95.67719181635849
 20
-117.6600015981892
 30
0.0
 10
95.67719181635849
 20
-117.6600015981892
 30
0.0
 10
95.89078773644397
 20
-117.6600015981892
 30
0.0
 10
95.89078773644397
 20
-117.6600015981892
 30
0.0
 10
95.89078773644397
 20
-117.6600015981892
 30
0.0
 10
95.89078773644397
 20
-117.5519978547266
 30
0.0
 10
95.89078773644397
 20
-117.5519978547266
 30
0.0
 10
95.89078773644397
 20
-117.5519978547266
 30
0.0
 10
95.74471568786939
 20
-117.5519978547266
 30
0.0
 10
95.74471568786939
 20
-117.5519978547266
 30
0.0
 10
95.57556149954361
 20
-117.5519978547266
 30
0.0
 10
95.40640731121785
 20
-117.5563042240831
 30
0.0
 10
95.23932018018323
 20
-117.5626776507309
 30
0.0
 10
95.23932018018323
 20
-117.5626776507309
 30
0.0
 10
95.23932018018323
 20
-117.3912841503397
 30
0.0
 10
95.23932018018323
 20
-117.3912841503397
 30
0.0
 10
95.39366045792242
 20
-117.4017916915697
 30
0.0
 10
95.57969561412591
 20
-117.4017916915697
 30
0.0
 10
95.74471568786939
 20
-117.4017916915697
 30
0.0
 10
95.74471568786939
 20
-117.4017916915697
 30
0.0
 10
95.89078773644397
 20
-117.4017916915697
 30
0.0
 10
95.89078773644397
 20
-117.4017916915697
 30
0.0
 10
95.89078773644397
 20
-117.4017916915697
 30
0.0
 10
95.89078773644397
 20
-117.2834526616514
 30
0.0
 10
95.89078773644397
 20
-117.2834526616514
 30
0.0
 10
95.89078773644397
 20
-117.2834526616514
 30
0.0
 10
95.75952959845596
 20
-117.2834526616514
 30
0.0
 10
95.75952959845596
 20
-117.2834526616514
 30
0.0
 10
95.71302080940508
 20
-117.2834526616514
 30
0.0
 10
95.51010468532387
 20
-117.2918931455902
 30
0.0
 10
95.46773001085529
 20
-117.2918931455902
 30
0.0
 10
95.26481388677408
 20
-117.2960272601725
 30
0.0
 10
95.18833276700153
 20
-117.2980943174637
 30
0.0
 10
95.11012909948636
 20
-117.3003336295291
 30
0.0
 10
95.11012909948636
 20
-117.3003336295291
 30
0.0
 10
95.11012909948636
 20
-117.1161932758425
 30
0.0
 10
95.11012909948636
 20
-117.1161932758425
 30
0.0
 10
95.22450626959666
 20
-117.1246337597813
 30
0.0
 10
95.26894800135638
 20
-117.1246337597813
 30
0.0
 10
95.65169810976764
 20
-117.1332464984945
 30
0.0
 10
95.58830835283904
 20
-117.0379896083273
 30
0.0
 10
95.56074758895704
 20
-117.0104288444453
 30
0.0
 10
95.52491859591044
 20
-116.9744275966245
 30
0.0
 10
95.52491859591044
 20
-116.9744275966245
 30
0.0
 10
95.70027395610965
 20
-116.8919175597527
 30
0.0
 10
95.70027395610965
 20
-116.8919175597527
 30
0.0
 10
95.74058157328709
 20
-116.9279188075736
 30
0.0
 10
95.7850233050468
 20
-116.9702934820422
 30
0.0
 10
95.85909285797968
 20
-117.0801920280216
 30
0.0
 10
95.85909285797968
 20
-117.0801920280216
 30
0.0
 10
95.74471568786939
 20
-117.1353135557856
 30
0.0
 10
95.74471568786939
 20
-117.1353135557856
 30
0.0
 10
95.74471568786939
 20
-117.1353135557856
 30
0.0
 10
95.75539548387366
 20
-117.1353135557856
 30
0.0
 10
95.75539548387366
 20
-117.1353135557856
 30
0.0
 10
95.75539548387366
 20
-117.1353135557856
 30
0.0
 10
96.27801646898605
 20
-117.1353135557856
 30
0.0
 10
96.27801646898605
 20
-117.1353135557856
 30
0.0
 10
96.27801646898605
 20
-117.1353135557856
 30
0.0
 10
96.18293183359316
 20
-117.0908718240259
 30
0.0
 10
96.18293183359316
 20
-117.0908718240259
 30
0.0
 10
96.21014808792664
 20
-117.0528035189139
 30
0.0
 10
96.26733667298178
 20
-116.9723605393333
 30
0.0
 10
96.28215058356835
 20
-116.8982909864004
 30
0.0
 10
96.28215058356835
 20
-116.8982909864004
 30
0.0
 10
96.49574650365385
 20
-116.9618529981033
 30
0.0
 10
96.49574650365385
 20
-116.9618529981033
 30
0.0
 10
96.50435924236697
 20
-116.9639200553944
 30
0.0
 10
96.525374324827
 20
-116.9744275966245
 30
0.0
 10
96.525374324827
 20
-116.9956149338587
 30
0.0
 10
96.525374324827
 20
-117.0336832389708
 30
0.0
 10
96.45991751060724
 20
-117.0336832389708
 30
0.0
 10
96.44096948543837
 20
-117.0336832389708
 30
0.0
 10
96.4302896894341
 20
-117.0528035189139
 30
0.0
 10
96.4068630401344
 20
-117.0929388813171
 30
0.0
 10
96.37723521896125
 20
-117.1332464984945
 30
0.0
 10
96.77721080479876
 20
-117.1268730718468
 30
0.0
 10
96.8068386259719
 20
-117.1246337597813
 30
0.0
 10
96.88297523619593
 20
-117.1184325879079
 30
0.0
 10
96.88297523619593
 20
-117.1184325879079
 30
0.0
 10
96.88297523619593
 20
-117.3003336295291
 30
0.0
 10
96.88297523619593
 20
-117.3003336295291
 30
0.0
 10
96.86402721102705
 20
-117.3003336295291
 30
0.0
 10
96.8385335044362
 20
-117.2980943174637
 30
0.0
 10
96.61873641247726
 20
-117.2896538335248
 30
0.0
 10
96.56774899929557
 20
-117.2875867762337
 30
0.0
 10
96.34795190733662
 20
-117.2834526616514
 30
0.0
 10
96.3035101755769
 20
-117.2834526616514
 30
0.0
 10
96.3035101755769
 20
-117.2834526616514
 30
0.0
 10
96.08750268865174
 20
-117.2834526616514
 30
0.0
 10
96.08750268865174
 20
-117.2834526616514
 30
0.0
 10
96.08750268865174
 20
-117.2834526616514
 30
0.0
 10
96.08750268865174
 20
-117.4017916915697
 30
0.0
 10
96.08750268865174
 20
-117.4017916915697
 30
0.0
 10
96.08750268865174
 20
-117.4017916915697
 30
0.0
 10
96.26113550110833
 20
-117.4017916915697
 30
0.0
 10
96.26113550110833
 20
-117.4017916915697
 30
0.0
 10
96.42408851756065
 20
-117.4017916915697
 30
0.0
 10
96.61425778834644
 20
-117.4017916915697
 30
0.0
 10
96.77100963292531
 20
-117.3912841503397
 30
0.0
 10
96.77100963292531
 20
-117.3912841503397
 30
0.0
 10
96.77100963292531
 20
-117.5626776507309
 30
0.0
 10
96.77100963292531
 20
-117.5626776507309
 30
0.0
 10
96.56154782742212
 20
-117.554237166792
 30
0.0
 10
96.36483287521435
 20
-117.5519978547266
 30
0.0
 10
96.26113550110833
 20
-117.5519978547266
 30
0.0
 10
96.26113550110833
 20
-117.5519978547266
 30
0.0
 10
96.08750268865174
 20
-117.5519978547266
 30
0.0
 10
96.08750268865174
 20
-117.5519978547266
 30
0.0
 10
96.08750268865174
 20
-117.5519978547266
 30
0.0
 10
96.08750268865174
 20
-117.6600015981892
 30
0.0
 10
96.08750268865174
 20
-117.6600015981892
 30
0.0
 10
96.08750268865174
 20
-117.6600015981892
 30
0.0
 10
96.31832408616349
 20
-117.6600015981892
 30
0.0
 10
96.31832408616349
 20
-117.6600015981892
 30
0.0
 10
96.45130477189413
 20
-117.6600015981892
 30
0.0
 10
96.739314754461
 20
-117.6556952288326
 30
0.0
 10
96.94843205041568
 20
-117.6493218021849
 30
0.0
 10
96.94843205041568
 20
-117.6493218021849
 30
0.0
 10
96.94843205041568
 20
-117.8270887292238
 30
0.0
 10
96.94843205041568
 20
-117.8270887292238
 30
0.0
 10
96.75619572233873
 20
-117.8207153025761
 30
0.0
 10
96.44303654272953
 20
-117.8164089332195
 30
0.0
 10
96.31832408616349
 20
-117.8164089332195
 30
0.0
  0
POLYLINE
  5
6C
330
63
100
AcDbEntity
  8
_U+30EC_U+30A4_U+30E4_U+30FC 1
370
     0
100
AcDb2dPolyline
 66
     1
 10
0.0
 20
0.0
 30
0.0
  0
VERTEX
  5
6D
330
6C
100
AcDbEntity
  8
_U+30EC_U+30A4_U+30E4_U+30FC 1
370
     0
100
AcDbVertex
100
AcDb2dVertex
 10
96.48334415990695
 20
-118.0723795277736
 30
0.0
  0
VERTEX
  5
6E
330
6C
100
AcDbEntity
  8
_U+30EC_U+30A4_U+30E4_U+30FC 1
370
     0
100
AcDbVertex
100
AcDb2dVertex
 10
95.7767550758822
 20
-118.0723795277736
 30
0.0
  0
VERTEX
  5
6F
330
6C
100
AcDbEntity
  8
_U+30EC_U+30A4_U+30E4_U+30FC 1
370
     0
100
AcDbVertex
100
AcDb2dVertex
 10
95.7767550758822
 20
-118.1803832712362
 30
0.0
  0
VERTEX
  5
70
330
6C
100
AcDbEntity
  8
_U+30EC_U+30A4_U+30E4_U+30FC 1
370
     0
100
AcDbVertex
100
AcDb2dVertex
 10
96.48334415990695
 20
-118.1803832712362
 30
0.0
  0
VERTEX
  5
71
330
6C
100
AcDbEntity
  8
_U+30EC_U+30A4_U+30E4_U+30FC 1
370
     0
100
AcDbVertex
100
AcDb2dVertex
 10
96.48334415990695
 20
-118.0723795277736
 30
0.0
  0
SEQEND
  5
72
330
6C
100
AcDbEntity
  8
_U+30EC_U+30A4_U+30E4_U+30FC 1
370
     0
  0
POLYLINE
  5
73
330
63
100
AcDbEntity
  8
_U+30EC_U+30A4_U+30E4_U+30FC 1
370
     0
100
AcDb2dPolyline
 66
     1
 10
0.0
 20
0.0
 30
0.0
  0
VERTEX
  5
74
330
73
100
AcDbEntity
  8
_U+30EC_U+30A4_U+30E4_U+30FC 1
370
     0
100
AcDbVertex
100
AcDb2dVertex
 10
96.48334415990695
 20
-118.3050957278022
 30
0.0
  0
VERTEX
  5
75
330
73
100
AcDbEntity
  8
_U+30EC_U+30A4_U+30E4_U+30FC 1
370
     0
100
AcDbVertex
100
AcDb2dVertex
 10
95.7767550758822
 20
-118.3050957278022
 30
0.0
  0
VERTEX
  5
76
330
73
100
AcDbEntity
  8
_U+30EC_U+30A4_U+30E4_U+30FC 1
370
     0
100
AcDbVertex
100
AcDb2dVertex
 10
95.7767550758822
 20
-118.4194728979125
 30
0.0
  0
VERTEX
  5
77
330
73
100
AcDbEntity
  8
_U+30EC_U+30A4_U+30E4_U+30FC 1
370
     0
100
AcDbVertex
100
AcDb2dVertex
 10
96.48334415990695
 20
-118.4194728979125
 30
0.0
  0
VERTEX
  5
78
330
73
100
AcDbEntity
  8
_U+30EC_U+30A4_U+30E4_U+30FC 1
370
     0
100
AcDbVertex
100
AcDb2dVertex
 10
96.48334415990695
 20
-118.3050957278022
 30
0.0
  0
SEQEND
  5
79
330
73
100
AcDbEntity
  8
_U+30EC_U+30A4_U+30E4_U+30FC 1
370
     0
  0
POLYLINE
  5
7A
330
63
100
AcDbEntity
  8
_U+30EC_U+30A4_U+30E4_U+30FC 1
370
     0
100
AcDb2dPolyline
 66
     1
 10
0.0
 20
0.0
 30
0.0
  0
VERTEX
  5
7B
330
7A
100
AcDbEntity
  8
_U+30EC_U+30A4_U+30E4_U+30FC 1
370
     0
100
AcDbVertex
100
AcDb2dVertex
 10
96.48334415990695
 20
-118.5484917238351
 30
0.0
  0
VERTEX
  5
7C
330
7A
100
AcDbEntity
  8
_U+30EC_U+30A4_U+30E4_U+30FC 1
370
     0
100
AcDbVertex
100
AcDb2dVertex
 10
95.7767550758822
 20
-118.5484917238351
 30
0.0
  0
VERTEX
  5
7D
330
7A
100
AcDbEntity
  8
_U+30EC_U+30A4_U+30E4_U+30FC 1
370
     0
100
AcDbVertex
100
AcDb2dVertex
 10
95.7767550758822
 20
-118.6626966391711
 30
0.0
  0
VERTEX
  5
7E
330
7A
100
AcDbEntity
  8
_U+30EC_U+30A4_U+30E4_U+30FC 1
370
     0
100
AcDbVertex
100
AcDb2dVertex
 10
96.48334415990695
 20
-118.6626966391711
 30
0.0
  0
VERTEX
  5
7F
330
7A
100
AcDbEntity
  8
_U+30EC_U+30A4_U+30E4_U+30FC 1
370
     0
100
AcDbVertex
100
AcDb2dVertex
 10
96.48334415990695
 20
-118.5484917238351
 30
0.0
  0
SEQEND
  5
80
330
7A
100
AcDbEntity
  8
_U+30EC_U+30A4_U+30E4_U+30FC 1
370
     0
  0
HATCH
  5
81
330
63
100
AcDbEntity
  8
_U+30EC_U+30A4_U+30E4_U+30FC 1
 62
     7
420
 16777215
100
AcDbHatch
 10
0.0
 20
0.0
 30
0.0
210
0.0
220
0.0
230
1.0
  2
SOLID
 70
     1
 71
     0
 91
        4
 92
        1
 93
        1
 72
     4
 94
        3
 73
     0
 74
     1
 95
      203
 96
      199
 40
0.0
 40
0.0
 40
0.0
 40
0.0
 40
1.0
 40
1.0
 40
1.0
 40
2.0
 40
2.0
 40
2.0
 40
3.0
 40
3.0
 40
3.0
 40
4.0
 40
4.0
 40
4.0
 40
5.0
 40
5.0
 40
5.0
 40
6.0
 40
6.0
 40
6.0
 40
7.0
 40
7.0
 40
7.0
 40
8.0
 40
8.0
 40
8.0
 40
9.0
 40
9.0
 40
9.0
 40
10.0
 40
10.0
 40
10.0
 40
11.0
 40
11.0
 40
11.0
 40
12.0
 40
12.0
 40
12.0
 40
13.0
 40
13.0
 40
13.0
 40
14.0
 40
14.0
 40
14.0
 40
15.0
 40
15.0
 40
15.0
 40
16.0
 40
16.0
 40
16.0
 40
17.0
 40
17.0
 40
17.0
 40
18.0
 40
18.0
 40
18.0
 40
19.0
 40
19.0
 40
19.0
 40
20.0
 40
20.0
 40
20.0
 40
21.0
 40
21.0
 40
21.0
 40
22.0
 40
22.0
 40
22.0
 40
23.0
 40
23.0
 40
23.0
 40
24.0
 40
24.0
 40
24.0
 40
25.0
 40
25.0
 40
25.0
 40
26.0
 40
26.0
 40
26.0
 40
27.0
 40
27.0
 40
27.0
 40
28.0
 40
28.0
 40
28.0
 40
29.0
 40
29.0
 40
29.0
 40
30.0
 40
30.0
 40
30.0
 40
31.0
 40
31.0
 40
31.0
 40
32.0
 40
32.0
 40
32.0
 40
33.0
 40
33.0
 40
33.0
 40
34.0
 40
34.0
 40
34.0
 40
35.0
 40
35.0
 40
35.0
 40
36.0
 40
36.0
 40
36.0
 40
37.0
 40
37.0
 40
37.0
 40
38.0
 40
38.0
 40
38.0
 40
39.0
 40
39.0
 40
39.0
 40
40.0
 40
40.0
 40
40.0
 40
41.0
 40
41.0
 40
41.0
 40
42.0
 40
42.0
 40
42.0
 40
43.0
 40
43.0
 40
43.0
 40
44.0
 40
44.0
 40
44.0
 40
45.0
 40
45.0
 40
45.0
 40
46.0
 40
46.0
 40
46.0
 40
47.0
 40
47.0
 40
47.0
 40
48.0
 40
48.0
 40
48.0
 40
49.0
 40
49.0
 40
49.0
 40
50.0
 40
50.0
 40
50.0
 40
51.0
 40
51.0
 40
51.0
 40
52.0
 40
52.0
 40
52.0
 40
53.0
 40
53.0
 40
53.0
 40
54.0
 40
54.0
 40
54.0
 40
55.0
 40
55.0
 40
55.0
 40
56.0
 40
56.0
 40
56.0
 40
57.0
 40
57.0
 40
57.0
 40
58.0
 40
58.0
 40
58.0
 40
59.0
 40
59.0
 40
59.0
 40
60.0
 40
60.0
 40
60.0
 40
61.0
 40
61.0
 40
61.0
 40
62.0
 40
62.0
 40
62.0
 40
63.0
 40
63.0
 40
63.0
 40
64.0
 40
64.0
 40
64.0
 40
65.0
 40
65.0
 40
65.0
 40
66.0
 40
66.0
 40
66.0
 40
66.0
 10
96.31832408616349
 20
-117.8164089332195
 10
96.31832408616349
 20
-117.8164089332195
 10
95.75952959845596
 20
-117.8164089332195
 10
95.75952959845596
 20
-117.8164089332195
 10
95.7491943120002
 20
-117.8608506649792
 10
95.74058157328709
 20
-117.8925455434435
 10
95.72783471999166
 20
-117.9307861033298
 10
95.7533284265825
 20
-117.9307861033298
 10
95.76814233716908
 20
-117.932853160621
 10
95.77434350904252
 20
-117.932853160621
 10
95.77434350904252
 20
-117.932853160621
 10
95.9627902320857
 20
-117.932853160621
 10
95.9627902320857
 20
-117.932853160621
 10
95.9627902320857
 20
-117.932853160621
 10
96.33727211133235
 20
-117.932853160621
 10
96.33727211133235
 20
-117.932853160621
 10
96.38791501496553
 20
-117.932853160621
 10
96.6714463734016
 20
-117.9201063073255
 10
96.70314125186589
 20
-117.9201063073255
 10
96.70107419457473
 20
-117.9476670712075
 10
96.69900713728359
 20
-117.9666150963764
 10
96.69900713728359
 20
-117.9962429175496
 10
96.69694007999243
 20
-118.0279377960139
 10
96.69694007999243
 20
-118.1633300485842
 10
96.69694007999243
 20
-118.1908908124662
 10
96.69694007999243
 20
-118.1908908124662
 10
96.69694007999243
 20
-118.4363538657902
 10
96.69694007999243
 20
-118.4363538657902
 10
96.69694007999243
 20
-118.4807955975499
 10
96.70107419457473
 20
-118.6775105497577
 10
96.70520830915703
 20
-118.8297837702058
 10
96.70520830915703
 20
-118.8297837702058
 10
96.47886553577612
 20
-118.8297837702058
 10
96.47886553577612
 20
-118.8297837702058
 10
96.47886553577612
 20
-118.8297837702058
 10
96.48093259306727
 20
-118.7960218344503
 10
96.48093259306727
 20
-118.7960218344503
 10
96.48093259306727
 20
-118.7960218344503
 10
95.77882213317335
 20
-118.7960218344503
 10
95.77882213317335
 20
-118.7960218344503
 10
95.77882213317335
 20
-118.7960218344503
 10
95.7808891904645
 20
-118.8297837702058
 10
95.7808891904645
 20
-118.8297837702058
 10
95.7808891904645
 20
-118.8297837702058
 10
95.56281464624819
 20
-118.8297837702058
 10
95.56281464624819
 20
-118.8297837702058
 10
95.56729327037901
 20
-118.774834497216
 10
95.56729327037901
 20
-118.7620876439206
 10
95.57349444225247
 20
-118.6478827285846
 10
95.57556149954361
 20
-118.6203219647026
 10
95.57762855683477
 20
-118.4871690241977
 10
95.57762855683477
 20
-118.4680487442545
 10
95.57762855683477
 20
-118.4680487442545
 10
95.57762855683477
 20
-118.264960365399
 10
95.57762855683477
 20
-118.264960365399
 10
95.43810218968214
 20
-118.5145575333054
 10
95.26894800135638
 20
-118.6458156712934
 10
95.1631835699592
 20
-118.7112724855132
 10
95.1631835699592
 20
-118.7112724855132
 10
94.98955075750261
 20
-118.5717461183605
 10
94.98955075750261
 20
-118.5717461183605
 10
95.07843422102206
 20
-118.5209309599531
 10
95.2224392123055
 20
-118.4341145537248
 10
95.35989852216697
 20
-118.2396389135825
 10
95.45084904297757
 20
-118.112687144951
 10
95.51630585719732
 20
-117.9688544084418
 10
95.55041230250129
 20
-117.8164089332195
 10
95.3216579622807
 20
-117.8186482452849
 10
95.14182397795066
 20
-117.8250216719326
 10
95.04673934255776
 20
-117.8270887292238
 10
95.04673934255776
 20
-117.8270887292238
 10
95.04673934255776
 20
-117.6493218021849
 10
95.04673934255776
 20
-117.6493218021849
 10
95.24345429476553
 20
-117.6556952288326
 10
95.52698565320159
 20
-117.6600015981892
 10
95.67719181635849
 20
-117.6600015981892
 10
95.67719181635849
 20
-117.6600015981892
 10
95.89078773644397
 20
-117.6600015981892
 10
95.89078773644397
 20
-117.6600015981892
 10
95.89078773644397
 20
-117.6600015981892
 10
95.89078773644397
 20
-117.5519978547266
 10
95.89078773644397
 20
-117.5519978547266
 10
95.89078773644397
 20
-117.5519978547266
 10
95.74471568786939
 20
-117.5519978547266
 10
95.74471568786939
 20
-117.5519978547266
 10
95.57556149954361
 20
-117.5519978547266
 10
95.40640731121785
 20
-117.5563042240831
 10
95.23932018018323
 20
-117.5626776507309
 10
95.23932018018323
 20
-117.5626776507309
 10
95.23932018018323
 20
-117.3912841503397
 10
95.23932018018323
 20
-117.3912841503397
 10
95.39366045792242
 20
-117.4017916915697
 10
95.57969561412591
 20
-117.4017916915697
 10
95.74471568786939
 20
-117.4017916915697
 10
95.74471568786939
 20
-117.4017916915697
 10
95.89078773644397
 20
-117.4017916915697
 10
95.89078773644397
 20
-117.4017916915697
 10
95.89078773644397
 20
-117.4017916915697
 10
95.89078773644397
 20
-117.2834526616514
 10
95.89078773644397
 20
-117.2834526616514
 10
95.89078773644397
 20
-117.2834526616514
 10
95.75952959845596
 20
-117.2834526616514
 10
95.75952959845596
 20
-117.2834526616514
 10
95.71302080940508
 20
-117.2834526616514
 10
95.51010468532387
 20
-117.2918931455902
 10
95.46773001085529
 20
-117.2918931455902
 10
95.26481388677408
 20
-117.2960272601725
 10
95.18833276700153
 20
-117.2980943174637
 10
95.11012909948636
 20
-117.3003336295291
 10
95.11012909948636
 20
-117.3003336295291
 10
95.11012909948636
 20
-117.1161932758425
 10
95.11012909948636
 20
-117.1161932758425
 10
95.22450626959666
 20
-117.1246337597813
 10
95.26894800135638
 20
-117.1246337597813
 10
95.65169810976764
 20
-117.1332464984945
 10
95.58830835283904
 20
-117.0379896083273
 10
95.56074758895704
 20
-117.0104288444453
 10
95.52491859591044
 20
-116.9744275966245
 10
95.52491859591044
 20
-116.9744275966245
 10
95.70027395610965
 20
-116.8919175597527
 10
95.70027395610965
 20
-116.8919175597527
 10
95.74058157328709
 20
-116.9279188075736
 10
95.7850233050468
 20
-116.9702934820422
 10
95.85909285797968
 20
-117.0801920280216
 10
95.85909285797968
 20
-117.0801920280216
 10
95.74471568786939
 20
-117.1353135557856
 10
95.74471568786939
 20
-117.1353135557856
 10
95.74471568786939
 20
-117.1353135557856
 10
95.75539548387366
 20
-117.1353135557856
 10
95.75539548387366
 20
-117.1353135557856
 10
95.75539548387366
 20
-117.1353135557856
 10
96.27801646898605
 20
-117.1353135557856
 10
96.27801646898605
 20
-117.1353135557856
 10
96.27801646898605
 20
-117.1353135557856
 10
96.18293183359316
 20
-117.0908718240259
 10
96.18293183359316
 20
-117.0908718240259
 10
96.21014808792664
 20
-117.0528035189139
 10
96.26733667298178
 20
-116.9723605393333
 10
96.28215058356835
 20
-116.8982909864004
 10
96.28215058356835
 20
-116.8982909864004
 10
96.49574650365385
 20
-116.9618529981033
 10
96.49574650365385
 20
-116.9618529981033
 10
96.50435924236697
 20
-116.9639200553944
 10
96.525374324827
 20
-116.9744275966245
 10
96.525374324827
 20
-116.9956149338587
 10
96.525374324827
 20
-117.0336832389708
 10
96.45991751060724
 20
-117.0336832389708
 10
96.44096948543837
 20
-117.0336832389708
 10
96.4302896894341
 20
-117.0528035189139
 10
96.4068630401344
 20
-117.0929388813171
 10
96.37723521896125
 20
-117.1332464984945
 10
96.77721080479876
 20
-117.1268730718468
 10
96.8068386259719
 20
-117.1246337597813
 10
96.88297523619593
 20
-117.1184325879079
 10
96.88297523619593
 20
-117.1184325879079
 10
96.88297523619593
 20
-117.3003336295291
 10
96.88297523619593
 20
-117.3003336295291
 10
96.86402721102705
 20
-117.3003336295291
 10
96.8385335044362
 20
-117.2980943174637
 10
96.61873641247726
 20
-117.2896538335248
 10
96.56774899929557
 20
-117.2875867762337
 10
96.34795190733662
 20
-117.2834526616514
 10
96.3035101755769
 20
-117.2834526616514
 10
96.3035101755769
 20
-117.2834526616514
 10
96.08750268865174
 20
-117.2834526616514
 10
96.08750268865174
 20
-117.2834526616514
 10
96.08750268865174
 20
-117.2834526616514
 10
96.08750268865174
 20
-117.4017916915697
 10
96.08750268865174
 20
-117.4017916915697
 10
96.08750268865174
 20
-117.4017916915697
 10
96.26113550110833
 20
-117.4017916915697
 10
96.26113550110833
 20
-117.4017916915697
 10
96.42408851756065
 20
-117.4017916915697
 10
96.61425778834644
 20
-117.4017916915697
 10
96.77100963292531
 20
-117.3912841503397
 10
96.77100963292531
 20
-117.3912841503397
 10
96.77100963292531
 20
-117.5626776507309
 10
96.77100963292531
 20
-117.5626776507309
 10
96.56154782742212
 20
-117.554237166792
 10
96.36483287521435
 20
-117.5519978547266
 10
96.26113550110833
 20
-117.5519978547266
 10
96.26113550110833
 20
-117.5519978547266
 10
96.08750268865174
 20
-117.5519978547266
 10
96.08750268865174
 20
-117.5519978547266
 10
96.08750268865174
 20
-117.5519978547266
 10
96.08750268865174
 20
-117.6600015981892
 10
96.08750268865174
 20
-117.6600015981892
 10
96.08750268865174
 20
-117.6600015981892
 10
96.31832408616349
 20
-117.6600015981892
 10
96.31832408616349
 20
-117.6600015981892
 10
96.45130477189413
 20
-117.6600015981892
 10
96.739314754461
 20
-117.6556952288326
 10
96.94843205041568
 20
-117.6493218021849
 10
96.94843205041568
 20
-117.6493218021849
 10
96.94843205041568
 20
-117.8270887292238
 10
96.94843205041568
 20
-117.8270887292238
 10
96.75619572233873
 20
-117.8207153025761
 10
96.44303654272953
 20
-117.8164089332195
 10
96.31832408616349
 20
-117.8164089332195
 97
        0
 97
        0
 92
        1
 93
        4
 72
     1
 10
96.48334415990695
 20
-118.0723795277736
 11
95.7767550758822
 21
-118.0723795277736
 72
     1
 10
95.7767550758822
 20
-118.0723795277736
 11
95.7767550758822
 21
-118.1803832712362
 72
     1
 10
95.7767550758822
 20
-118.1803832712362
 11
96.48334415990695
 21
-118.1803832712362
 72
     1
 10
96.48334415990695
 20
-118.1803832712362
 11
96.48334415990695
 21
-118.0723795277736
 97
        0
 92
        1
 93
        4
 72
     1
 10
96.48334415990695
 20
-118.3050957278022
 11
95.7767550758822
 21
-118.3050957278022
 72
     1
 10
95.7767550758822
 20
-118.3050957278022
 11
95.7767550758822
 21
-118.4194728979125
 72
     1
 10
95.7767550758822
 20
-118.4194728979125
 11
96.48334415990695
 21
-118.4194728979125
 72
     1
 10
96.48334415990695
 20
-118.4194728979125
 11
96.48334415990695
 21
-118.3050957278022
 97
        0
 92
        1
 93
        4
 72
     1
 10
96.48334415990695
 20
-118.5484917238351
 11
95.7767550758822
 21
-118.5484917238351
 72
     1
 10
95.7767550758822
 20
-118.5484917238351
 11
95.7767550758822
 21
-118.6626966391711
 72
     1
 10
95.7767550758822
 20
-118.6626966391711
 11
96.48334415990695
 21
-118.6626966391711
 72
     1
 10
96.48334415990695
 20
-118.6626966391711
 11
96.48334415990695
 21
-118.5484917238351
 97
        0
 75
     2
 76
     1
 98
        0
  0
SPLINE
  5
82
330
63
100
AcDbEntity
  8
_U+30EC_U+30A4_U+30E4_U+30FC 1
370
     0
100
AcDbSpline
210
0.0
220
0.0
230
1.0
 70
    11
 71
     3
 72
    47
 73
    43
 74
     0
 42
0.0000000001
 43
0.0000000001
 12
1.0
 22
0.0
 32
0.0
 13
1.0
 23
0.0
 33
0.0
 40
0.0
 40
0.0
 40
0.0
 40
0.0
 40
1.0
 40
1.0
 40
1.0
 40
2.0
 40
2.0
 40
2.0
 40
3.0
 40
3.0
 40
3.0
 40
4.0
 40
4.0
 40
4.0
 40
5.0
 40
5.0
 40
5.0
 40
6.0
 40
6.0
 40
6.0
 40
7.0
 40
7.0
 40
7.0
 40
8.0
 40
8.0
 40
8.0
 40
9.0
 40
9.0
 40
9.0
 40
10.0
 40
10.0
 40
10.0
 40
11.0
 40
11.0
 40
11.0
 40
12.0
 40
12.0
 40
12.0
 40
13.0
 40
13.0
 40
13.0
 40
14.0
 40
14.0
 40
14.0
 40
14.0
 10
98.29511987559984
 20
-117.7931545386941
 30
0.0
 10
98.29511987559984
 20
-117.7931545386941
 30
0.0
 10
98.19348955878496
 20
-117.7931545386941
 30
0.0
 10
98.19348955878496
 20
-117.7931545386941
 30
0.0
 10
98.19348955878496
 20
-117.8799709449224
 30
0.0
 10
98.17247447632494
 20
-118.2692667347556
 30
0.0
 10
97.97575952411718
 20
-118.4892360814888
 30
0.0
 10
97.8231417941206
 20
-118.6583902698146
 30
0.0
 10
97.61609155545709
 20
-118.7283257081651
 30
0.0
 10
97.53134220651995
 20
-118.7557142172729
 30
0.0
 10
97.53134220651995
 20
-118.7557142172729
 30
0.0
 10
97.33669431160332
 20
-118.5886270862383
 30
0.0
 10
97.33669431160332
 20
-118.5886270862383
 30
0.0
 10
97.4341905138359
 20
-118.5758802329428
 30
0.0
 10
97.60954587403512
 20
-118.5526258384174
 30
0.0
 10
97.79799259707828
 20
-118.3643513701485
 30
0.0
 10
97.87206215001116
 20
-118.292521129281
 30
0.0
 10
97.97575952411718
 20
-118.1528225073542
 30
0.0
 10
97.97575952411718
 20
-117.7931545386941
 30
0.0
 10
97.97575952411718
 20
-117.7931545386941
 30
0.0
 10
97.74493812660543
 20
-117.7931545386941
 30
0.0
 10
97.74493812660543
 20
-117.7931545386941
 30
0.0
 10
97.55890297040195
 20
-117.7931545386941
 30
0.0
 10
97.37252330464993
 20
-117.7974609080506
 30
0.0
 10
97.18648814844644
 20
-117.8122748186372
 30
0.0
 10
97.18648814844644
 20
-117.8122748186372
 30
0.0
 10
97.18648814844644
 20
-117.592305471904
 30
0.0
 10
97.18648814844644
 20
-117.592305471904
 30
0.0
 10
97.3749348714896
 20
-117.6071193824906
 30
0.0
 10
97.66053328721682
 20
-117.6112534970729
 30
0.0
 10
97.74493812660543
 20
-117.6112534970729
 30
0.0
 10
97.74493812660543
 20
-117.6112534970729
 30
0.0
 10
98.29511987559984
 20
-117.6112534970729
 30
0.0
 10
98.29511987559984
 20
-117.6112534970729
 30
0.0
 10
98.3140679007687
 20
-117.6112534970729
 30
0.0
 10
98.63136119496022
 20
-117.6112534970729
 30
0.0
 10
98.85977102563228
 20
-117.592305471904
 30
0.0
 10
98.85977102563228
 20
-117.592305471904
 30
0.0
 10
98.85977102563228
 20
-117.8122748186372
 30
0.0
 10
98.85977102563228
 20
-117.8122748186372
 30
0.0
 10
98.67166881213764
 20
-117.7974609080506
 30
0.0
 10
98.48322208909448
 20
-117.7931545386941
 30
0.0
 10
98.29511987559984
 20
-117.7931545386941
 30
0.0
  0
SPLINE
  5
83
330
63
100
AcDbEntity
  8
_U+30EC_U+30A4_U+30E4_U+30FC 1
370
     0
100
AcDbSpline
210
0.0
220
0.0
230
1.0
 70
    11
 71
     3
 72
    29
 73
    25
 74
     0
 42
0.0000000001
 43
0.0000000001
 12
1.0
 22
0.0
 32
0.0
 13
1.0
 23
0.0
 33
0.0
 40
0.0
 40
0.0
 40
0.0
 40
0.0
 40
1.0
 40
1.0
 40
1.0
 40
2.0
 40
2.0
 40
2.0
 40
3.0
 40
3.0
 40
3.0
 40
4.0
 40
4.0
 40
4.0
 40
5.0
 40
5.0
 40
5.0
 40
6.0
 40
6.0
 40
6.0
 40
7.0
 40
7.0
 40
7.0
 40
8.0
 40
8.0
 40
8.0
 40
8.0
 10
98.19348955878496
 20
-117.2643323817082
 30
0.0
 10
98.19348955878496
 20
-117.2643323817082
 30
0.0
 10
97.84002276199833
 20
-117.2643323817082
 30
0.0
 10
97.84002276199833
 20
-117.2643323817082
 30
0.0
 10
97.72805715872771
 20
-117.2643323817082
 30
0.0
 10
97.5885307915751
 20
-117.2707058083559
 30
0.0
 10
97.48069930288678
 20
-117.2834526616514
 30
0.0
 10
97.48069930288678
 20
-117.2834526616514
 30
0.0
 10
97.48069930288678
 20
-117.0484971495573
 30
0.0
 10
97.48069930288678
 20
-117.0484971495573
 30
0.0
 10
97.59886607803084
 20
-117.0633110601439
 30
0.0
 10
97.78317868649171
 20
-117.0676174295005
 30
0.0
 10
97.84002276199833
 20
-117.0676174295005
 30
0.0
 10
97.84002276199833
 20
-117.0676174295005
 30
0.0
 10
98.19348955878496
 20
-117.0676174295005
 30
0.0
 10
98.19348955878496
 20
-117.0676174295005
 30
0.0
 10
98.21243758395384
 20
-117.0676174295005
 30
0.0
 10
98.41569821758358
 20
-117.0676174295005
 30
0.0
 10
98.55729164202735
 20
-117.0484971495573
 30
0.0
 10
98.55729164202735
 20
-117.0484971495573
 30
0.0
 10
98.55729164202735
 20
-117.2834526616514
 30
0.0
 10
98.55729164202735
 20
-117.2834526616514
 30
0.0
 10
98.400884306997
 20
-117.2643323817082
 30
0.0
 10
98.21037052666269
 20
-117.2643323817082
 30
0.0
 10
98.19348955878496
 20
-117.2643323817082
 30
0.0
  0
HATCH
  5
84
330
63
100
AcDbEntity
  8
_U+30EC_U+30A4_U+30E4_U+30FC 1
 62
     7
420
 16777215
100
AcDbHatch
 10
0.0
 20
0.0
 30
0.0
210
0.0
220
0.0
230
1.0
  2
SOLID
 70
     1
 71
     0
 91
        2
 92
        1
 93
        1
 72
     4
 94
        3
 73
     0
 74
     1
 95
       47
 96
       43
 40
0.0
 40
0.0
 40
0.0
 40
0.0
 40
1.0
 40
1.0
 40
1.0
 40
2.0
 40
2.0
 40
2.0
 40
3.0
 40
3.0
 40
3.0
 40
4.0
 40
4.0
 40
4.0
 40
5.0
 40
5.0
 40
5.0
 40
6.0
 40
6.0
 40
6.0
 40
7.0
 40
7.0
 40
7.0
 40
8.0
 40
8.0
 40
8.0
 40
9.0
 40
9.0
 40
9.0
 40
10.0
 40
10.0
 40
10.0
 40
11.0
 40
11.0
 40
11.0
 40
12.0
 40
12.0
 40
12.0
 40
13.0
 40
13.0
 40
13.0
 40
14.0
 40
14.0
 40
14.0
 40
14.0
 10
98.29511987559984
 20
-117.7931545386941
 10
98.29511987559984
 20
-117.7931545386941
 10
98.19348955878496
 20
-117.7931545386941
 10
98.19348955878496
 20
-117.7931545386941
 10
98.19348955878496
 20
-117.8799709449224
 10
98.17247447632494
 20
-118.2692667347556
 10
97.97575952411718
 20
-118.4892360814888
 10
97.8231417941206
 20
-118.6583902698146
 10
97.61609155545709
 20
-118.7283257081651
 10
97.53134220651995
 20
-118.7557142172729
 10
97.53134220651995
 20
-118.7557142172729
 10
97.33669431160332
 20
-118.5886270862383
 10
97.33669431160332
 20
-118.5886270862383
 10
97.4341905138359
 20
-118.5758802329428
 10
97.60954587403512
 20
-118.5526258384174
 10
97.79799259707828
 20
-118.3643513701485
 10
97.87206215001116
 20
-118.292521129281
 10
97.97575952411718
 20
-118.1528225073542
 10
97.97575952411718
 20
-117.7931545386941
 10
97.97575952411718
 20
-117.7931545386941
 10
97.74493812660543
 20
-117.7931545386941
 10
97.74493812660543
 20
-117.7931545386941
 10
97.55890297040195
 20
-117.7931545386941
 10
97.37252330464993
 20
-117.7974609080506
 10
97.18648814844644
 20
-117.8122748186372
 10
97.18648814844644
 20
-117.8122748186372
 10
97.18648814844644
 20
-117.592305471904
 10
97.18648814844644
 20
-117.592305471904
 10
97.3749348714896
 20
-117.6071193824906
 10
97.66053328721682
 20
-117.6112534970729
 10
97.74493812660543
 20
-117.6112534970729
 10
97.74493812660543
 20
-117.6112534970729
 10
98.29511987559984
 20
-117.6112534970729
 10
98.29511987559984
 20
-117.6112534970729
 10
98.3140679007687
 20
-117.6112534970729
 10
98.63136119496022
 20
-117.6112534970729
 10
98.85977102563228
 20
-117.592305471904
 10
98.85977102563228
 20
-117.592305471904
 10
98.85977102563228
 20
-117.8122748186372
 10
98.85977102563228
 20
-117.8122748186372
 10
98.67166881213764
 20
-117.7974609080506
 10
98.48322208909448
 20
-117.7931545386941
 10
98.29511987559984
 20
-117.7931545386941
 97
        0
 97
        0
 92
        1
 93
        1
 72
     4
 94
        3
 73
     0
 74
     1
 95
       29
 96
       25
 40
0.0
 40
0.0
 40
0.0
 40
0.0
 40
1.0
 40
1.0
 40
1.0
 40
2.0
 40
2.0
 40
2.0
 40
3.0
 40
3.0
 40
3.0
 40
4.0
 40
4.0
 40
4.0
 40
5.0
 40
5.0
 40
5.0
 40
6.0
 40
6.0
 40
6.0
 40
7.0
 40
7.0
 40
7.0
 40
8.0
 40
8.0
 40
8.0
 40
8.0
 10
98.19348955878496
 20
-117.2643323817082
 10
98.19348955878496
 20
-117.2643323817082
 10
97.84002276199833
 20
-117.2643323817082
 10
97.84002276199833
 20
-117.2643323817082
 10
97.72805715872771
 20
-117.2643323817082
 10
97.5885307915751
 20
-117.2707058083559
 10
97.48069930288678
 20
-117.2834526616514
 10
97.48069930288678
 20
-117.2834526616514
 10
97.48069930288678
 20
-117.0484971495573
 10
97.48069930288678
 20
-117.0484971495573
 10
97.59886607803084
 20
-117.0633110601439
 10
97.78317868649171
 20
-117.0676174295005
 10
97.84002276199833
 20
-117.0676174295005
 10
97.84002276199833
 20
-117.0676174295005
 10
98.19348955878496
 20
-117.0676174295005
 10
98.19348955878496
 20
-117.0676174295005
 10
98.21243758395384
 20
-117.0676174295005
 10
98.41569821758358
 20
-117.0676174295005
 10
98.55729164202735
 20
-117.0484971495573
 10
98.55729164202735
 20
-117.0484971495573
 10
98.55729164202735
 20
-117.2834526616514
 10
98.55729164202735
 20
-117.2834526616514
 10
98.400884306997
 20
-117.2643323817082
 10
98.21037052666269
 20
-117.2643323817082
 10
98.19348955878496
 20
-117.2643323817082
 97
        0
 97
        0
 75
     2
 76
     1
 98
        0
  0
SPLINE
  5
85
330
63
100
AcDbEntity
  8
_U+30EC_U+30A4_U+30E4_U+30FC 1
370
     0
100
AcDbSpline
210
0.0
220
0.0
230
1.0
 70
    11
 71
     3
 72
    29
 73
    25
 74
     0
 42
0.0000000001
 43
0.0000000001
 12
1.0
 22
0.0
 32
0.0
 13
1.0
 23
0.0
 33
0.0
 40
0.0
 40
0.0
 40
0.0
 40
0.0
 40
1.0
 40
1.0
 40
1.0
 40
2.0
 40
2.0
 40
2.0
 40
3.0
 40
3.0
 40
3.0
 40
4.0
 40
4.0
 40
4.0
 40
5.0
 40
5.0
 40
5.0
 40
6.0
 40
6.0
 40
6.0
 40
7.0
 40
7.0
 40
7.0
 40
8.0
 40
8.0
 40
8.0
 40
8.0
 10
100.1410020365967
 20
-117.9561075551464
 30
0.0
 10
100.1410020365967
 20
-117.9561075551464
 30
0.0
 10
99.65662161137057
 20
-117.9561075551464
 30
0.0
 10
99.65662161137057
 20
-117.9561075551464
 30
0.0
 10
99.62906084748857
 20
-117.9561075551464
 30
0.0
 10
99.31176755329706
 20
-117.9561075551464
 30
0.0
 10
99.10023869050272
 20
-117.981429006963
 30
0.0
 10
99.10023869050272
 20
-117.981429006963
 30
0.0
 10
99.10023869050272
 20
-117.7509521189998
 30
0.0
 10
99.10023869050272
 20
-117.7509521189998
 30
0.0
 10
99.25871308282422
 20
-117.7742065135252
 30
0.0
 10
99.44922686315853
 20
-117.7762735708164
 30
0.0
 10
99.65662161137057
 20
-117.7762735708164
 30
0.0
 10
99.65662161137057
 20
-117.7762735708164
 30
0.0
 10
100.1410020365967
 20
-117.7762735708164
 30
0.0
 10
100.1410020365967
 20
-117.7762735708164
 30
0.0
 10
100.3270371928002
 20
-117.7762735708164
 30
0.0
 10
100.5134168585522
 20
-117.7742065135252
 30
0.0
 10
100.6973849574645
 20
-117.7509521189998
 30
0.0
 10
100.6973849574645
 20
-117.7509521189998
 30
0.0
 10
100.6973849574645
 20
-117.981429006963
 30
0.0
 10
100.6973849574645
 20
-117.981429006963
 30
0.0
 10
100.5134168585522
 20
-117.9581746124375
 30
0.0
 10
100.2657144931627
 20
-117.9561075551464
 30
0.0
 10
100.1410020365967
 20
-117.9561075551464
 30
0.0
  0
HATCH
  5
86
330
63
100
AcDbEntity
  8
_U+30EC_U+30A4_U+30E4_U+30FC 1
 62
     7
420
 16777215
100
AcDbHatch
 10
0.0
 20
0.0
 30
0.0
210
0.0
220
0.0
230
1.0
  2
SOLID
 70
     1
 71
     0
 91
        1
 92
        1
 93
        1
 72
     4
 94
        3
 73
     0
 74
     1
 95
       29
 96
       25
 40
0.0
 40
0.0
 40
0.0
 40
0.0
 40
1.0
 40
1.0
 40
1.0
 40
2.0
 40
2.0
 40
2.0
 40
3.0
 40
3.0
 40
3.0
 40
4.0
 40
4.0
 40
4.0
 40
5.0
 40
5.0
 40
5.0
 40
6.0
 40
6.0
 40
6.0
 40
7.0
 40
7.0
 40
7.0
 40
8.0
 40
8.0
 40
8.0
 40
8.0
 10
100.1410020365967
 20
-117.9561075551464
 10
100.1410020365967
 20
-117.9561075551464
 10
99.65662161137057
 20
-117.9561075551464
 10
99.65662161137057
 20
-117.9561075551464
 10
99.62906084748857
 20
-117.9561075551464
 10
99.31176755329706
 20
-117.9561075551464
 10
99.10023869050272
 20
-117.981429006963
 10
99.10023869050272
 20
-117.981429006963
 10
99.10023869050272
 20
-117.7509521189998
 10
99.10023869050272
 20
-117.7509521189998
 10
99.25871308282422
 20
-117.7742065135252
 10
99.44922686315853
 20
-117.7762735708164
 10
99.65662161137057
 20
-117.7762735708164
 10
99.65662161137057
 20
-117.7762735708164
 10
100.1410020365967
 20
-117.7762735708164
 10
100.1410020365967
 20
-117.7762735708164
 10
100.3270371928002
 20
-117.7762735708164
 10
100.5134168585522
 20
-117.7742065135252
 10
100.6973849574645
 20
-117.7509521189998
 10
100.6973849574645
 20
-117.7509521189998
 10
100.6973849574645
 20
-117.981429006963
 10
100.6973849574645
 20
-117.981429006963
 10
100.5134168585522
 20
-117.9581746124375
 10
100.2657144931627
 20
-117.9561075551464
 10
100.1410020365967
 20
-117.9561075551464
 97
        0
 97
        0
 75
     2
 76
     1
 98
        0
  0
SPLINE
  5
87
330
63
100
AcDbEntity
  8
_U+30EC_U+30A4_U+30E4_U+30FC 1
370
     0
100
AcDbSpline
210
0.0
220
0.0
230
1.0
 70
    11
 71
     3
 72
    44
 73
    40
 74
     0
 42
0.0000000001
 43
0.0000000001
 12
1.0
 22
0.0
 32
0.0
 13
1.0
 23
0.0
 33
0.0
 40
0.0
 40
0.0
 40
0.0
 40
0.0
 40
1.0
 40
1.0
 40
1.0
 40
2.0
 40
2.0
 40
2.0
 40
3.0
 40
3.0
 40
3.0
 40
4.0
 40
4.0
 40
4.0
 40
5.0
 40
5.0
 40
5.0
 40
6.0
 40
6.0
 40
6.0
 40
7.0
 40
7.0
 40
7.0
 40
8.0
 40
8.0
 40
8.0
 40
9.0
 40
9.0
 40
9.0
 40
10.0
 40
10.0
 40
10.0
 40
11.0
 40
11.0
 40
11.0
 40
12.0
 40
12.0
 40
12.0
 40
13.0
 40
13.0
 40
13.0
 40
13.0
 10
102.3524088285786
 20
-117.5182359189711
 30
0.0
 10
102.240443225308
 20
-117.8863443715701
 30
0.0
 10
102.1898003216748
 20
-118.0449910186658
 30
0.0
 10
101.993085369467
 20
-118.2945881865722
 30
0.0
 10
101.8087727610061
 20
-118.5252373293097
 30
0.0
 10
101.5720947011695
 20
-118.7112724855132
 30
0.0
 10
101.2926974573157
 20
-118.8044623183892
 30
0.0
 10
101.2926974573157
 20
-118.8044623183892
 30
0.0
 10
101.1001166196903
 20
-118.6246283340591
 30
0.0
 10
101.1001166196903
 20
-118.6246283340591
 30
0.0
 10
101.7412488894953
 20
-118.4723551136111
 30
0.0
 10
102.0712890369822
 20
-117.9159721927432
 30
0.0
 10
102.1346787939108
 20
-117.4758612445026
 30
0.0
 10
102.1346787939108
 20
-117.4758612445026
 30
0.0
 10
101.3688340675397
 20
-117.4758612445026
 30
0.0
 10
101.3688340675397
 20
-117.4758612445026
 30
0.0
 10
101.275816489438
 20
-117.4758612445026
 30
0.0
 10
101.0918483905257
 20
-117.4801676138591
 30
0.0
 10
100.9350965459468
 20
-117.499115639028
 30
0.0
 10
100.9350965459468
 20
-117.499115639028
 30
0.0
 10
100.9350965459468
 20
-117.2791462922948
 30
0.0
 10
100.9350965459468
 20
-117.2791462922948
 30
0.0
 10
101.0219129521751
 20
-117.3003336295291
 30
0.0
 10
101.2737494321468
 20
-117.3003336295291
 30
0.0
 10
101.372968182122
 20
-117.3003336295291
 30
0.0
 10
101.372968182122
 20
-117.3003336295291
 30
0.0
 10
101.8046386464238
 20
-117.3003336295291
 30
0.0
 10
101.8046386464238
 20
-117.3003336295291
 30
0.0
 10
101.8470133208924
 20
-117.3003336295291
 30
0.0
 10
102.0816243234379
 20
-117.2980943174637
 30
0.0
 10
102.1198648833242
 20
-117.2918931455902
 30
0.0
 10
102.1622395577928
 20
-117.2855197189425
 30
0.0
 10
102.1643066150839
 20
-117.2834526616514
 30
0.0
 10
102.2256293147214
 20
-117.2431450444739
 30
0.0
 10
102.2256293147214
 20
-117.2431450444739
 30
0.0
 10
102.413731528216
 20
-117.3976575769874
 30
0.0
 10
102.413731528216
 20
-117.3976575769874
 30
0.0
 10
102.3844482165914
 20
-117.4272853981605
 30
0.0
 10
102.3696343060048
 20
-117.4589802766248
 30
0.0
 10
102.3524088285786
 20
-117.5182359189711
 30
0.0
  0
SPLINE
  5
88
330
63
100
AcDbEntity
  8
_U+30EC_U+30A4_U+30E4_U+30FC 1
370
     0
100
AcDbSpline
210
0.0
220
0.0
230
1.0
 70
    11
 71
     3
 72
    17
 73
    13
 74
     0
 42
0.0000000001
 43
0.0000000001
 12
1.0
 22
0.0
 32
0.0
 13
1.0
 23
0.0
 33
0.0
 40
0.0
 40
0.0
 40
0.0
 40
0.0
 40
1.0
 40
1.0
 40
1.0
 40
2.0
 40
2.0
 40
2.0
 40
3.0
 40
3.0
 40
3.0
 40
4.0
 40
4.0
 40
4.0
 40
4.0
 10
102.5618706340818
 20
-117.319281654698
 30
0.0
 10
102.4350911202246
 20
-117.319281654698
 30
0.0
 10
102.3334608034097
 20
-117.2178235926574
 30
0.0
 10
102.3334608034097
 20
-117.0908718240259
 30
0.0
 10
102.3334608034097
 20
-116.9639200553944
 30
0.0
 10
102.4350911202246
 20
-116.8602226812884
 30
0.0
 10
102.5618706340818
 20
-116.8602226812884
 30
0.0
 10
102.6889946574875
 20
-116.8602226812884
 30
0.0
 10
102.7926920315935
 20
-116.9639200553944
 30
0.0
 10
102.7926920315935
 20
-117.0908718240259
 30
0.0
 10
102.7926920315935
 20
-117.2178235926574
 30
0.0
 10
102.6889946574875
 20
-117.319281654698
 30
0.0
 10
102.5618706340818
 20
-117.319281654698
 30
0.0
  0
SPLINE
  5
89
330
63
100
AcDbEntity
  8
_U+30EC_U+30A4_U+30E4_U+30FC 1
370
     0
100
AcDbSpline
210
0.0
220
0.0
230
1.0
 70
    11
 71
     3
 72
    17
 73
    13
 74
     0
 42
0.0000000001
 43
0.0000000001
 12
1.0
 22
0.0
 32
0.0
 13
1.0
 23
0.0
 33
0.0
 40
0.0
 40
0.0
 40
0.0
 40
0.0
 40
1.0
 40
1.0
 40
1.0
 40
2.0
 40
2.0
 40
2.0
 40
3.0
 40
3.0
 40
3.0
 40
4.0
 40
4.0
 40
4.0
 40
4.0
 10
102.5598035767906
 20
-116.989241507211
 30
0.0
 10
102.5050265585751
 20
-116.989241507211
 30
0.0
 10
102.4605848268154
 20
-117.0336832389708
 30
0.0
 10
102.4605848268154
 20
-117.0888047667348
 30
0.0
 10
102.4605848268154
 20
-117.1458210970156
 30
0.0
 10
102.5050265585751
 20
-117.1945691981319
 30
0.0
 10
102.5639376913729
 20
-117.1945691981319
 30
0.0
 10
102.6231933337192
 20
-117.1945691981319
 30
0.0
 10
102.6635009508966
 20
-117.1437540397245
 30
0.0
 10
102.6635009508966
 20
-117.0908718240259
 30
0.0
 10
102.6635009508966
 20
-117.0336832389708
 30
0.0
 10
102.6169921618458
 20
-116.989241507211
 30
0.0
 10
102.5598035767906
 20
-116.989241507211
 30
0.0
  0
HATCH
  5
8A
330
63
100
AcDbEntity
  8
_U+30EC_U+30A4_U+30E4_U+30FC 1
 62
     7
420
 16777215
100
AcDbHatch
 10
0.0
 20
0.0
 30
0.0
210
0.0
220
0.0
230
1.0
  2
SOLID
 70
     1
 71
     0
 91
        3
 92
        1
 93
        1
 72
     4
 94
        3
 73
     0
 74
     1
 95
       44
 96
       40
 40
0.0
 40
0.0
 40
0.0
 40
0.0
 40
1.0
 40
1.0
 40
1.0
 40
2.0
 40
2.0
 40
2.0
 40
3.0
 40
3.0
 40
3.0
 40
4.0
 40
4.0
 40
4.0
 40
5.0
 40
5.0
 40
5.0
 40
6.0
 40
6.0
 40
6.0
 40
7.0
 40
7.0
 40
7.0
 40
8.0
 40
8.0
 40
8.0
 40
9.0
 40
9.0
 40
9.0
 40
10.0
 40
10.0
 40
10.0
 40
11.0
 40
11.0
 40
11.0
 40
12.0
 40
12.0
 40
12.0
 40
13.0
 40
13.0
 40
13.0
 40
13.0
 10
102.3524088285786
 20
-117.5182359189711
 10
102.240443225308
 20
-117.8863443715701
 10
102.1898003216748
 20
-118.0449910186658
 10
101.993085369467
 20
-118.2945881865722
 10
101.8087727610061
 20
-118.5252373293097
 10
101.5720947011695
 20
-118.7112724855132
 10
101.2926974573157
 20
-118.8044623183892
 10
101.2926974573157
 20
-118.8044623183892
 10
101.1001166196903
 20
-118.6246283340591
 10
101.1001166196903
 20
-118.6246283340591
 10
101.7412488894953
 20
-118.4723551136111
 10
102.0712890369822
 20
-117.9159721927432
 10
102.1346787939108
 20
-117.4758612445026
 10
102.1346787939108
 20
-117.4758612445026
 10
101.3688340675397
 20
-117.4758612445026
 10
101.3688340675397
 20
-117.4758612445026
 10
101.275816489438
 20
-117.4758612445026
 10
101.0918483905257
 20
-117.4801676138591
 10
100.9350965459468
 20
-117.499115639028
 10
100.9350965459468
 20
-117.499115639028
 10
100.9350965459468
 20
-117.2791462922948
 10
100.9350965459468
 20
-117.2791462922948
 10
101.0219129521751
 20
-117.3003336295291
 10
101.2737494321468
 20
-117.3003336295291
 10
101.372968182122
 20
-117.3003336295291
 10
101.372968182122
 20
-117.3003336295291
 10
101.8046386464238
 20
-117.3003336295291
 10
101.8046386464238
 20
-117.3003336295291
 10
101.8470133208924
 20
-117.3003336295291
 10
102.0816243234379
 20
-117.2980943174637
 10
102.1198648833242
 20
-117.2918931455902
 10
102.1622395577928
 20
-117.2855197189425
 10
102.1643066150839
 20
-117.2834526616514
 10
102.2256293147214
 20
-117.2431450444739
 10
102.2256293147214
 20
-117.2431450444739
 10
102.413731528216
 20
-117.3976575769874
 10
102.413731528216
 20
-117.3976575769874
 10
102.3844482165914
 20
-117.4272853981605
 10
102.3696343060048
 20
-117.4589802766248
 10
102.3524088285786
 20
-117.5182359189711
 97
        0
 97
        0
 92
        1
 93
        1
 72
     4
 94
        3
 73
     0
 74
     1
 95
       17
 96
       13
 40
0.0
 40
0.0
 40
0.0
 40
0.0
 40
1.0
 40
1.0
 40
1.0
 40
2.0
 40
2.0
 40
2.0
 40
3.0
 40
3.0
 40
3.0
 40
4.0
 40
4.0
 40
4.0
 40
4.0
 10
102.5618706340818
 20
-117.319281654698
 10
102.4350911202246
 20
-117.319281654698
 10
102.3334608034097
 20
-117.2178235926574
 10
102.3334608034097
 20
-117.0908718240259
 10
102.3334608034097
 20
-116.9639200553944
 10
102.4350911202246
 20
-116.8602226812884
 10
102.5618706340818
 20
-116.8602226812884
 10
102.6889946574875
 20
-116.8602226812884
 10
102.7926920315935
 20
-116.9639200553944
 10
102.7926920315935
 20
-117.0908718240259
 10
102.7926920315935
 20
-117.2178235926574
 10
102.6889946574875
 20
-117.319281654698
 10
102.5618706340818
 20
-117.319281654698
 97
        0
 97
        0
 92
        1
 93
        1
 72
     4
 94
        3
 73
     0
 74
     1
 95
       17
 96
       13
 40
0.0
 40
0.0
 40
0.0
 40
0.0
 40
1.0
 40
1.0
 40
1.0
 40
2.0
 40
2.0
 40
2.0
 40
3.0
 40
3.0
 40
3.0
 40
4.0
 40
4.0
 40
4.0
 40
4.0
 10
102.5598035767906
 20
-116.989241507211
 10
102.5050265585751
 20
-116.989241507211
 10
102.4605848268154
 20
-117.0336832389708
 10
102.4605848268154
 20
-117.0888047667348
 10
102.4605848268154
 20
-117.1458210970156
 10
102.5050265585751
 20
-117.1945691981319
 10
102.5639376913729
 20
-117.1945691981319
 10
102.6231933337192
 20
-117.1945691981319
 10
102.6635009508966
 20
-117.1437540397245
 10
102.6635009508966
 20
-117.0908718240259
 10
102.6635009508966
 20
-117.0336832389708
 10
102.6169921618458
 20
-116.989241507211
 10
102.5598035767906
 20
-116.989241507211
 97
        0
 97
        0
 75
     2
 76
     1
 98
        0
  0
ENDBLK
  5
66
330
63
100
AcDbEntity
  8
0
100
AcDbBlockEnd
  0
BLOCK
  5
BF
330
BD
100
AcDbEntity
  8
0
100
AcDbBlockBegin
  2
block 3
 70
     0
 10
0.0
 20
0.0
 30
0.0
  3
block 3
  1

  0
SPLINE
  5
C1
330
BD
100
AcDbEntity
  8
_U+30EC_U+30A4_U+30E4_U+30FC 1
370
     0
100
AcDbSpline
210
0.0
220
0.0
230
1.0
 70
    11
 71
     3
 72
    26
 73
    22
 74
     0
 42
0.0000000001
 43
0.0000000001
 12
1.0
 22
0.0
 32
0.0
 13
1.0
 23
0.0
 33
0.0
 40
0.0
 40
0.0
 40
0.0
 40
0.0
 40
1.0
 40
1.0
 40
1.0
 40
2.0
 40
2.0
 40
2.0
 40
3.0
 40
3.0
 40
3.0
 40
4.0
 40
4.0
 40
4.0
 40
5.0
 40
5.0
 40
5.0
 40
6.0
 40
6.0
 40
6.0
 40
7.0
 40
7.0
 40
7.0
 40
7.0
 10
100.8524142543008
 20
-145.0230169993345
 30
0.0
 10
100.8524142543008
 20
-145.0230169993345
 30
0.0
 10
100.8524142543008
 20
-143.918863896312
 30
0.0
 10
100.8524142543008
 20
-143.918863896312
 30
0.0
 10
100.8524142543008
 20
-143.918863896312
 30
0.0
 10
100.5223741068139
 20
-143.918863896312
 30
0.0
 10
100.5223741068139
 20
-143.918863896312
 30
0.0
 10
100.5223741068139
 20
-143.918863896312
 30
0.0
 10
100.5223741068139
 20
-143.7707247904462
 30
0.0
 10
100.5223741068139
 20
-143.7707247904462
 30
0.0
 10
100.8544813115919
 20
-143.7559108798596
 30
0.0
 10
100.9009901006428
 20
-143.5929578634073
 30
0.0
 10
100.930617921816
 20
-143.478580693297
 30
0.0
 10
100.930617921816
 20
-143.478580693297
 30
0.0
 10
101.0766899703906
 20
-143.478580693297
 30
0.0
 10
101.0766899703906
 20
-143.478580693297
 30
0.0
 10
101.0766899703906
 20
-143.478580693297
 30
0.0
 10
101.0766899703906
 20
-145.0230169993345
 30
0.0
 10
101.0766899703906
 20
-145.0230169993345
 30
0.0
 10
101.0766899703906
 20
-145.0230169993345
 30
0.0
 10
100.8524142543008
 20
-145.0230169993345
 30
0.0
 10
100.8524142543008
 20
-145.0230169993345
 30
0.0
  0
HATCH
  5
C2
330
BD
100
AcDbEntity
  8
_U+30EC_U+30A4_U+30E4_U+30FC 1
 62
     7
420
 16777215
100
AcDbHatch
 10
0.0
 20
0.0
 30
0.0
210
0.0
220
0.0
230
1.0
  2
SOLID
 70
     1
 71
     0
 91
        1
 92
        1
 93
        1
 72
     4
 94
        3
 73
     0
 74
     1
 95
       26
 96
       22
 40
0.0
 40
0.0
 40
0.0
 40
0.0
 40
1.0
 40
1.0
 40
1.0
 40
2.0
 40
2.0
 40
2.0
 40
3.0
 40
3.0
 40
3.0
 40
4.0
 40
4.0
 40
4.0
 40
5.0
 40
5.0
 40
5.0
 40
6.0
 40
6.0
 40
6.0
 40
7.0
 40
7.0
 40
7.0
 40
7.0
 10
100.8524142543008
 20
-145.0230169993345
 10
100.8524142543008
 20
-145.0230169993345
 10
100.8524142543008
 20
-143.918863896312
 10
100.8524142543008
 20
-143.918863896312
 10
100.8524142543008
 20
-143.918863896312
 10
100.5223741068139
 20
-143.918863896312
 10
100.5223741068139
 20
-143.918863896312
 10
100.5223741068139
 20
-143.918863896312
 10
100.5223741068139
 20
-143.7707247904462
 10
100.5223741068139
 20
-143.7707247904462
 10
100.8544813115919
 20
-143.7559108798596
 10
100.9009901006428
 20
-143.5929578634073
 10
100.930617921816
 20
-143.478580693297
 10
100.930617921816
 20
-143.478580693297
 10
101.0766899703906
 20
-143.478580693297
 10
101.0766899703906
 20
-143.478580693297
 10
101.0766899703906
 20
-143.478580693297
 10
101.0766899703906
 20
-145.0230169993345
 10
101.0766899703906
 20
-145.0230169993345
 10
101.0766899703906
 20
-145.0230169993345
 10
100.8524142543008
 20
-145.0230169993345
 10
100.8524142543008
 20
-145.0230169993345
 97
        0
 97
        0
 75
     2
 76
     1
 98
        0
  0
SPLINE
  5
C3
330
BD
100
AcDbEntity
  8
_U+30EC_U+30A4_U+30E4_U+30FC 1
370
     0
100
AcDbSpline
210
0.0
220
0.0
230
1.0
 70
    11
 71
     3
 72
    26
 73
    22
 74
     0
 42
0.0000000001
 43
0.0000000001
 12
1.0
 22
0.0
 32
0.0
 13
1.0
 23
0.0
 33
0.0
 40
0.0
 40
0.0
 40
0.0
 40
0.0
 40
1.0
 40
1.0
 40
1.0
 40
2.0
 40
2.0
 40
2.0
 40
3.0
 40
3.0
 40
3.0
 40
4.0
 40
4.0
 40
4.0
 40
5.0
 40
5.0
 40
5.0
 40
6.0
 40
6.0
 40
6.0
 40
7.0
 40
7.0
 40
7.0
 40
7.0
 10
101.9889512548847
 20
-145.0230169993345
 30
0.0
 10
101.9889512548847
 20
-145.0230169993345
 30
0.0
 10
101.7519286854995
 20
-145.0230169993345
 30
0.0
 10
101.7519286854995
 20
-145.0230169993345
 30
0.0
 10
101.7774223920904
 20
-144.7139919343076
 30
0.0
 10
101.9700032297158
 20
-144.1958495733261
 30
0.0
 10
102.3761799874268
 20
-143.6901095560914
 30
0.0
 10
102.3761799874268
 20
-143.6901095560914
 30
0.0
 10
101.538332765414
 20
-143.6901095560914
 30
0.0
 10
101.538332765414
 20
-143.6901095560914
 30
0.0
 10
101.538332765414
 20
-143.6901095560914
 30
0.0
 10
101.538332765414
 20
-143.478580693297
 30
0.0
 10
101.538332765414
 20
-143.478580693297
 30
0.0
 10
101.538332765414
 20
-143.478580693297
 30
0.0
 10
102.613202556812
 20
-143.478580693297
 30
0.0
 10
102.613202556812
 20
-143.478580693297
 30
0.0
 10
102.613202556812
 20
-143.478580693297
 30
0.0
 10
102.613202556812
 20
-143.6901095560914
 30
0.0
 10
102.613202556812
 20
-143.6901095560914
 30
0.0
 10
102.2893635811985
 20
-143.9801865959494
 30
0.0
 10
102.0227131906402
 20
-144.5723985098639
 30
0.0
 10
101.9889512548847
 20
-145.0230169993345
 30
0.0
  0
HATCH
  5
C4
330
BD
100
AcDbEntity
  8
_U+30EC_U+30A4_U+30E4_U+30FC 1
 62
     7
420
 16777215
100
AcDbHatch
 10
0.0
 20
0.0
 30
0.0
210
0.0
220
0.0
230
1.0
  2
SOLID
 70
     1
 71
     0
 91
        1
 92
        1
 93
        1
 72
     4
 94
        3
 73
     0
 74
     1
 95
       26
 96
       22
 40
0.0
 40
0.0
 40
0.0
 40
0.0
 40
1.0
 40
1.0
 40
1.0
 40
2.0
 40
2.0
 40
2.0
 40
3.0
 40
3.0
 40
3.0
 40
4.0
 40
4.0
 40
4.0
 40
5.0
 40
5.0
 40
5.0
 40
6.0
 40
6.0
 40
6.0
 40
7.0
 40
7.0
 40
7.0
 40
7.0
 10
101.9889512548847
 20
-145.0230169993345
 10
101.9889512548847
 20
-145.0230169993345
 10
101.7519286854995
 20
-145.0230169993345
 10
101.7519286854995
 20
-145.0230169993345
 10
101.7774223920904
 20
-144.7139919343076
 10
101.9700032297158
 20
-144.1958495733261
 10
102.3761799874268
 20
-143.6901095560914
 10
102.3761799874268
 20
-143.6901095560914
 10
101.538332765414
 20
-143.6901095560914
 10
101.538332765414
 20
-143.6901095560914
 10
101.538332765414
 20
-143.6901095560914
 10
101.538332765414
 20
-143.478580693297
 10
101.538332765414
 20
-143.478580693297
 10
101.538332765414
 20
-143.478580693297
 10
102.613202556812
 20
-143.478580693297
 10
102.613202556812
 20
-143.478580693297
 10
102.613202556812
 20
-143.478580693297
 10
102.613202556812
 20
-143.6901095560914
 10
102.613202556812
 20
-143.6901095560914
 10
102.2893635811985
 20
-143.9801865959494
 10
102.0227131906402
 20
-144.5723985098639
 10
101.9889512548847
 20
-145.0230169993345
 97
        0
 97
        0
 75
     2
 76
     1
 98
        0
  0
ENDBLK
  5
C0
330
BD
100
AcDbEntity
  8
0
100
AcDbBlockEnd
  0
BLOCK
  5
D3
330
D1
100
AcDbEntity
  8
0
100
AcDbBlockBegin
  2
block 4
 70
     0
 10
0.0
 20
0.0
 30
0.0
  3
block 4
  1

  0
SPLINE
  5
D5
330
D1
100
AcDbEntity
  8
_U+30EC_U+30A4_U+30E4_U+30FC 1
370
     0
100
AcDbSpline
210
0.0
220
0.0
230
1.0
 70
    11
 71
     3
 72
    26
 73
    22
 74
     0
 42
0.0000000001
 43
0.0000000001
 12
1.0
 22
0.0
 32
0.0
 13
1.0
 23
0.0
 33
0.0
 40
0.0
 40
0.0
 40
0.0
 40
0.0
 40
1.0
 40
1.0
 40
1.0
 40
2.0
 40
2.0
 40
2.0
 40
3.0
 40
3.0
 40
3.0
 40
4.0
 40
4.0
 40
4.0
 40
5.0
 40
5.0
 40
5.0
 40
6.0
 40
6.0
 40
6.0
 40
7.0
 40
7.0
 40
7.0
 40
7.0
 10
73.83787026148845
 20
-119.4343980278671
 30
0.0
 10
73.83787026148845
 20
-119.4343980278671
 30
0.0
 10
72.73354490369162
 20
-119.4343980278671
 30
0.0
 10
72.73354490369162
 20
-119.4343980278671
 30
0.0
 10
72.73354490369162
 20
-119.4343980278671
 30
0.0
 10
72.73354490369162
 20
-119.764438175354
 30
0.0
 10
72.73354490369162
 20
-119.764438175354
 30
0.0
 10
72.73354490369162
 20
-119.764438175354
 30
0.0
 10
72.58557805260014
 20
-119.764438175354
 30
0.0
 10
72.58557805260014
 20
-119.764438175354
 30
0.0
 10
72.57076414201356
 20
-119.4323309705759
 30
0.0
 10
72.40781112556124
 20
-119.3858221815251
 30
0.0
 10
72.2936062102252
 20
-119.3561943603519
 30
0.0
 10
72.2936062102252
 20
-119.3561943603519
 30
0.0
 10
72.2936062102252
 20
-119.2101223117773
 30
0.0
 10
72.2936062102252
 20
-119.2101223117773
 30
0.0
 10
72.2936062102252
 20
-119.2101223117773
 30
0.0
 10
73.83787026148845
 20
-119.2101223117773
 30
0.0
 10
73.83787026148845
 20
-119.2101223117773
 30
0.0
 10
73.83787026148845
 20
-119.2101223117773
 30
0.0
 10
73.83787026148845
 20
-119.4343980278671
 30
0.0
 10
73.83787026148845
 20
-119.4343980278671
 30
0.0
  0
HATCH
  5
D6
330
D1
100
AcDbEntity
  8
_U+30EC_U+30A4_U+30E4_U+30FC 1
 62
     7
420
 16777215
100
AcDbHatch
 10
0.0
 20
0.0
 30
0.0
210
0.0
220
0.0
230
1.0
  2
SOLID
 70
     1
 71
     0
 91
        1
 92
        1
 93
        1
 72
     4
 94
        3
 73
     0
 74
     1
 95
       26
 96
       22
 40
0.0
 40
0.0
 40
0.0
 40
0.0
 40
1.0
 40
1.0
 40
1.0
 40
2.0
 40
2.0
 40
2.0
 40
3.0
 40
3.0
 40
3.0
 40
4.0
 40
4.0
 40
4.0
 40
5.0
 40
5.0
 40
5.0
 40
6.0
 40
6.0
 40
6.0
 40
7.0
 40
7.0
 40
7.0
 40
7.0
 10
73.83787026148845
 20
-119.4343980278671
 10
73.83787026148845
 20
-119.4343980278671
 10
72.73354490369162
 20
-119.4343980278671
 10
72.73354490369162
 20
-119.4343980278671
 10
72.73354490369162
 20
-119.4343980278671
 10
72.73354490369162
 20
-119.764438175354
 10
72.73354490369162
 20
-119.764438175354
 10
72.73354490369162
 20
-119.764438175354
 10
72.58557805260014
 20
-119.764438175354
 10
72.58557805260014
 20
-119.764438175354
 10
72.57076414201356
 20
-119.4323309705759
 10
72.40781112556124
 20
-119.3858221815251
 10
72.2936062102252
 20
-119.3561943603519
 10
72.2936062102252
 20
-119.3561943603519
 10
72.2936062102252
 20
-119.2101223117773
 10
72.2936062102252
 20
-119.2101223117773
 10
72.2936062102252
 20
-119.2101223117773
 10
73.83787026148845
 20
-119.2101223117773
 10
73.83787026148845
 20
-119.2101223117773
 10
73.83787026148845
 20
-119.2101223117773
 10
73.83787026148845
 20
-119.4343980278671
 10
73.83787026148845
 20
-119.4343980278671
 97
        0
 97
        0
 75
     2
 76
     1
 98
        0
  0
SPLINE
  5
D7
330
D1
100
AcDbEntity
  8
_U+30EC_U+30A4_U+30E4_U+30FC 1
370
     0
100
AcDbSpline
210
0.0
220
0.0
230
1.0
 70
    11
 71
     3
 72
    26
 73
    22
 74
     0
 42
0.0000000001
 43
0.0000000001
 12
1.0
 22
0.0
 32
0.0
 13
1.0
 23
0.0
 33
0.0
 40
0.0
 40
0.0
 40
0.0
 40
0.0
 40
1.0
 40
1.0
 40
1.0
 40
2.0
 40
2.0
 40
2.0
 40
3.0
 40
3.0
 40
3.0
 40
4.0
 40
4.0
 40
4.0
 40
5.0
 40
5.0
 40
5.0
 40
6.0
 40
6.0
 40
6.0
 40
7.0
 40
7.0
 40
7.0
 40
7.0
 10
73.83787026148845
 20
-118.2978610272832
 30
0.0
 10
73.83787026148845
 20
-118.2978610272832
 30
0.0
 10
73.83787026148845
 20
-118.5347113418941
 30
0.0
 10
73.83787026148845
 20
-118.5347113418941
 30
0.0
 10
73.5290174512358
 20
-118.5093898900775
 30
0.0
 10
73.01070283547996
 20
-118.3168090524521
 30
0.0
 10
72.50513507301956
 20
-117.9106322947411
 30
0.0
 10
72.50513507301956
 20
-117.9106322947411
 30
0.0
 10
72.50513507301956
 20
-118.7484795167539
 30
0.0
 10
72.50513507301956
 20
-118.7484795167539
 30
0.0
 10
72.50513507301956
 20
-118.7484795167539
 30
0.0
 10
72.2936062102252
 20
-118.7484795167539
 30
0.0
 10
72.2936062102252
 20
-118.7484795167539
 30
0.0
 10
72.2936062102252
 20
-118.7484795167539
 30
0.0
 10
72.2936062102252
 20
-117.6737819801302
 30
0.0
 10
72.2936062102252
 20
-117.6737819801302
 30
0.0
 10
72.2936062102252
 20
-117.6737819801302
 30
0.0
 10
72.50513507301956
 20
-117.6737819801302
 30
0.0
 10
72.50513507301956
 20
-117.6737819801302
 30
0.0
 10
72.79486760332907
 20
-117.9974487009694
 30
0.0
 10
73.38725177201778
 20
-118.2639268367535
 30
0.0
 10
73.83787026148845
 20
-118.2978610272832
 30
0.0
  0
HATCH
  5
D8
330
D1
100
AcDbEntity
  8
_U+30EC_U+30A4_U+30E4_U+30FC 1
 62
     7
420
 16777215
100
AcDbHatch
 10
0.0
 20
0.0
 30
0.0
210
0.0
220
0.0
230
1.0
  2
SOLID
 70
     1
 71
     0
 91
        1
 92
        1
 93
        1
 72
     4
 94
        3
 73
     0
 74
     1
 95
       26
 96
       22
 40
0.0
 40
0.0
 40
0.0
 40
0.0
 40
1.0
 40
1.0
 40
1.0
 40
2.0
 40
2.0
 40
2.0
 40
3.0
 40
3.0
 40
3.0
 40
4.0
 40
4.0
 40
4.0
 40
5.0
 40
5.0
 40
5.0
 40
6.0
 40
6.0
 40
6.0
 40
7.0
 40
7.0
 40
7.0
 40
7.0
 10
73.83787026148845
 20
-118.2978610272832
 10
73.83787026148845
 20
-118.2978610272832
 10
73.83787026148845
 20
-118.5347113418941
 10
73.83787026148845
 20
-118.5347113418941
 10
73.5290174512358
 20
-118.5093898900775
 10
73.01070283547996
 20
-118.3168090524521
 10
72.50513507301956
 20
-117.9106322947411
 10
72.50513507301956
 20
-117.9106322947411
 10
72.50513507301956
 20
-118.7484795167539
 10
72.50513507301956
 20
-118.7484795167539
 10
72.50513507301956
 20
-118.7484795167539
 10
72.2936062102252
 20
-118.7484795167539
 10
72.2936062102252
 20
-118.7484795167539
 10
72.2936062102252
 20
-118.7484795167539
 10
72.2936062102252
 20
-117.6737819801302
 10
72.2936062102252
 20
-117.6737819801302
 10
72.2936062102252
 20
-117.6737819801302
 10
72.50513507301956
 20
-117.6737819801302
 10
72.50513507301956
 20
-117.6737819801302
 10
72.79486760332907
 20
-117.9974487009694
 10
73.38725177201778
 20
-118.2639268367535
 10
73.83787026148845
 20
-118.2978610272832
 97
        0
 97
        0
 75
     2
 76
     1
 98
        0
  0
ENDBLK
  5
D4
330
D1
100
AcDbEntity
  8
0
100
AcDbBlockEnd
  0
BLOCK
  5
E7
330
E5
100
AcDbEntity
  8
0
100
AcDbBlockBegin
  2
block 5
 70
     0
 10
0.0
 20
0.0
 30
0.0
  3
block 5
  1

  0
SPLINE
  5
E9
330
E5
100
AcDbEntity
  8
_U+30EC_U+30A4_U+30E4_U+30FC 1
370
     0
100
AcDbSpline
210
0.0
220
0.0
230
1.0
 70
    11
 71
     3
 72
    44
 73
    40
 74
     0
 42
0.0000000001
 43
0.0000000001
 12
1.0
 22
0.0
 32
0.0
 13
1.0
 23
0.0
 33
0.0
 40
0.0
 40
0.0
 40
0.0
 40
0.0
 40
1.0
 40
1.0
 40
1.0
 40
2.0
 40
2.0
 40
2.0
 40
3.0
 40
3.0
 40
3.0
 40
4.0
 40
4.0
 40
4.0
 40
5.0
 40
5.0
 40
5.0
 40
6.0
 40
6.0
 40
6.0
 40
7.0
 40
7.0
 40
7.0
 40
8.0
 40
8.0
 40
8.0
 40
9.0
 40
9.0
 40
9.0
 40
10.0
 40
10.0
 40
10.0
 40
11.0
 40
11.0
 40
11.0
 40
12.0
 40
12.0
 40
12.0
 40
13.0
 40
13.0
 40
13.0
 40
13.0
 10
83.57112628119056
 20
-136.4681558903621
 30
0.0
 10
83.304992654955
 20
-136.4261257254421
 30
0.0
 10
83.18682587981094
 20
-136.4126898530496
 30
0.0
 10
83.05074460814357
 20
-136.4802137245605
 30
0.0
 10
83.05074460814357
 20
-136.4802137245605
 30
0.0
 10
83.60127086668649
 20
-137.0307399831034
 30
0.0
 10
83.60127086668649
 20
-137.0307399831034
 30
0.0
 10
83.60127086668649
 20
-137.0307399831034
 30
0.0
 10
83.4560600919832
 20
-137.1757785030325
 30
0.0
 10
83.4560600919832
 20
-137.1757785030325
 30
0.0
 10
83.4560600919832
 20
-137.1757785030325
 30
0.0
 10
82.72914494459549
 20
-136.4488633556447
 30
0.0
 10
82.72914494459549
 20
-136.4488633556447
 30
0.0
 10
83.00440807386695
 20
-136.2183864676815
 30
0.0
 10
83.10586613590756
 20
-136.2090847098713
 30
0.0
 10
83.58938528726237
 20
-136.2707519190573
 30
0.0
 10
83.91081269603619
 20
-136.3110595362348
 30
0.0
 10
84.0048638027835
 20
-136.3093369884921
 30
0.0
 10
84.10201549546755
 20
-136.2121852958081
 30
0.0
 10
84.18590357053338
 20
-136.1284694755165
 30
0.0
 10
84.22793373545343
 20
-135.9848089937816
 30
0.0
 10
84.08875187784935
 20
-135.8456271361775
 30
0.0
 10
83.904783778937
 20
-135.6616590372651
 30
0.0
 10
83.73597410015977
 20
-135.8190999009411
 30
0.0
 10
83.65053573212556
 20
-135.8983370971018
 30
0.0
 10
83.65053573212556
 20
-135.8983370971018
 30
0.0
 10
83.49171683025554
 20
-135.7395181952318
 30
0.0
 10
83.49171683025554
 20
-135.7395181952318
 30
0.0
 10
83.58766273951976
 20
-135.6558023749402
 30
0.0
 10
83.67447914574805
 20
-135.584144388847
 30
0.0
 10
83.81503904154624
 20
-135.5572726440621
 30
0.0
 10
84.00624184097761
 20
-135.5210991414669
 30
0.0
 10
84.16213241168516
 20
-135.6289306301553
 30
0.0
 10
84.2441256842341
 20
-135.7109239027042
 30
0.0
 10
84.44015161734482
 20
-135.9069498358149
 30
0.0
 10
84.4568603304483
 20
-136.183935512829
 30
0.0
 10
84.2639349832743
 20
-136.376860860003
 30
0.0
 10
84.10236000501608
 20
-136.5384358382612
 30
0.0
 10
83.94974227501952
 20
-136.5263780040628
 30
0.0
 10
83.57112628119056
 20
-136.4681558903621
 30
0.0
  0
HATCH
  5
EA
330
E5
100
AcDbEntity
  8
_U+30EC_U+30A4_U+30E4_U+30FC 1
 62
     7
420
 16777215
100
AcDbHatch
 10
0.0
 20
0.0
 30
0.0
210
0.0
220
0.0
230
1.0
  2
SOLID
 70
     1
 71
     0
 91
        1
 92
        1
 93
        1
 72
     4
 94
        3
 73
     0
 74
     1
 95
       44
 96
       40
 40
0.0
 40
0.0
 40
0.0
 40
0.0
 40
1.0
 40
1.0
 40
1.0
 40
2.0
 40
2.0
 40
2.0
 40
3.0
 40
3.0
 40
3.0
 40
4.0
 40
4.0
 40
4.0
 40
5.0
 40
5.0
 40
5.0
 40
6.0
 40
6.0
 40
6.0
 40
7.0
 40
7.0
 40
7.0
 40
8.0
 40
8.0
 40
8.0
 40
9.0
 40
9.0
 40
9.0
 40
10.0
 40
10.0
 40
10.0
 40
11.0
 40
11.0
 40
11.0
 40
12.0
 40
12.0
 40
12.0
 40
13.0
 40
13.0
 40
13.0
 40
13.0
 10
83.57112628119056
 20
-136.4681558903621
 10
83.304992654955
 20
-136.4261257254421
 10
83.18682587981094
 20
-136.4126898530496
 10
83.05074460814357
 20
-136.4802137245605
 10
83.05074460814357
 20
-136.4802137245605
 10
83.60127086668649
 20
-137.0307399831034
 10
83.60127086668649
 20
-137.0307399831034
 10
83.60127086668649
 20
-137.0307399831034
 10
83.4560600919832
 20
-137.1757785030325
 10
83.4560600919832
 20
-137.1757785030325
 10
83.4560600919832
 20
-137.1757785030325
 10
82.72914494459549
 20
-136.4488633556447
 10
82.72914494459549
 20
-136.4488633556447
 10
83.00440807386695
 20
-136.2183864676815
 10
83.10586613590756
 20
-136.2090847098713
 10
83.58938528726237
 20
-136.2707519190573
 10
83.91081269603619
 20
-136.3110595362348
 10
84.0048638027835
 20
-136.3093369884921
 10
84.10201549546755
 20
-136.2121852958081
 10
84.18590357053338
 20
-136.1284694755165
 10
84.22793373545343
 20
-135.9848089937816
 10
84.08875187784935
 20
-135.8456271361775
 10
83.904783778937
 20
-135.6616590372651
 10
83.73597410015977
 20
-135.8190999009411
 10
83.65053573212556
 20
-135.8983370971018
 10
83.65053573212556
 20
-135.8983370971018
 10
83.49171683025554
 20
-135.7395181952318
 10
83.49171683025554
 20
-135.7395181952318
 10
83.58766273951976
 20
-135.6558023749402
 10
83.67447914574805
 20
-135.584144388847
 10
83.81503904154624
 20
-135.5572726440621
 10
84.00624184097761
 20
-135.5210991414669
 10
84.16213241168516
 20
-135.6289306301553
 10
84.2441256842341
 20
-135.7109239027042
 10
84.44015161734482
 20
-135.9069498358149
 10
84.4568603304483
 20
-136.183935512829
 10
84.2639349832743
 20
-136.376860860003
 10
84.10236000501608
 20
-136.5384358382612
 10
83.94974227501952
 20
-136.5263780040628
 10
83.57112628119056
 20
-136.4681558903621
 97
        0
 97
        0
 75
     2
 76
     1
 98
        0
  0
SPLINE
  5
EB
330
E5
100
AcDbEntity
  8
_U+30EC_U+30A4_U+30E4_U+30FC 1
370
     0
100
AcDbSpline
210
0.0
220
0.0
230
1.0
 70
    11
 71
     3
 72
    29
 73
    25
 74
     0
 42
0.0000000001
 43
0.0000000001
 12
1.0
 22
0.0
 32
0.0
 13
1.0
 23
0.0
 33
0.0
 40
0.0
 40
0.0
 40
0.0
 40
0.0
 40
1.0
 40
1.0
 40
1.0
 40
2.0
 40
2.0
 40
2.0
 40
3.0
 40
3.0
 40
3.0
 40
4.0
 40
4.0
 40
4.0
 40
5.0
 40
5.0
 40
5.0
 40
6.0
 40
6.0
 40
6.0
 40
7.0
 40
7.0
 40
7.0
 40
8.0
 40
8.0
 40
8.0
 40
8.0
 10
84.33318140252781
 20
-137.8014078431538
 30
0.0
 10
84.10856117688952
 20
-137.873065829247
 30
0.0
 10
83.97247990522216
 20
-137.7638563023646
 30
0.0
 10
83.89014212312469
 20
-137.6815185202671
 30
0.0
 10
83.77645397211144
 20
-137.5678303692539
 30
0.0
 10
83.70944686492334
 20
-137.4351941930718
 30
0.0
 10
83.77059730978652
 20
-137.2388237504125
 30
0.0
 10
83.83519285013496
 20
-137.0283284162637
 30
0.0
 10
83.98918861832563
 20
-136.8471163937396
 30
0.0
 10
84.10442706230722
 20
-136.7320502045323
 30
0.0
 10
84.20622963389636
 20
-136.6304198877174
 30
0.0
 10
84.39588214035936
 20
-136.4640217757798
 30
0.0
 10
84.61120060818749
 20
-136.3982204520116
 30
0.0
 10
84.83134220969495
 20
-136.3310410900492
 30
0.0
 10
84.96156681903739
 20
-136.4281927827332
 30
0.0
 10
85.05251733984798
 20
-136.5191433035438
 30
0.0
 10
85.16482745266713
 20
-136.631453416363
 30
0.0
 10
85.23510740056622
 20
-136.7644341020936
 30
0.0
 10
85.17378470092878
 20
-136.9608045447528
 30
0.0
 10
85.10798337716051
 20
-137.1671657643193
 30
0.0
 10
84.96294485723149
 20
-137.3452772009067
 30
0.0
 10
84.84029945795659
 20
-137.4679226001816
 30
0.0
 10
84.71903209687581
 20
-137.5891899612624
 30
0.0
 10
84.54092066028838
 20
-137.7369845575797
 30
0.0
 10
84.33318140252781
 20
-137.8014078431538
 30
0.0
  0
SPLINE
  5
EC
330
E5
100
AcDbEntity
  8
_U+30EC_U+30A4_U+30E4_U+30FC 1
370
     0
100
AcDbSpline
210
0.0
220
0.0
230
1.0
 70
    11
 71
     3
 72
    17
 73
    13
 74
     0
 42
0.0000000001
 43
0.0000000001
 12
1.0
 22
0.0
 32
0.0
 13
1.0
 23
0.0
 33
0.0
 40
0.0
 40
0.0
 40
0.0
 40
0.0
 40
1.0
 40
1.0
 40
1.0
 40
2.0
 40
2.0
 40
2.0
 40
3.0
 40
3.0
 40
3.0
 40
4.0
 40
4.0
 40
4.0
 40
4.0
 10
84.91643606818062
 20
-136.6552245752112
 30
0.0
 10
84.74004717933583
 20
-136.4788356863664
 30
0.0
 10
84.50646970543589
 20
-136.6462673269496
 30
0.0
 10
84.26255694508019
 20
-136.8901800873052
 30
0.0
 10
84.03673093602207
 20
-137.1161783511376
 30
0.0
 10
83.84415009839661
 20
-137.3604356210418
 30
0.0
 10
84.02777368776042
 20
-137.5440592104057
 30
0.0
 10
84.20312904795964
 20
-137.7194145706049
 30
0.0
 10
84.43653426708532
 20
-137.5547390064099
 30
0.0
 10
84.68182506563511
 20
-137.3094482078602
 30
0.0
 10
84.90782332946749
 20
-137.0834499440278
 30
0.0
 10
85.09902612889886
 20
-136.8378146359294
 30
0.0
 10
84.91643606818062
 20
-136.6552245752112
 30
0.0
  0
HATCH
  5
ED
330
E5
100
AcDbEntity
  8
_U+30EC_U+30A4_U+30E4_U+30FC 1
 62
     7
420
 16777215
100
AcDbHatch
 10
0.0
 20
0.0
 30
0.0
210
0.0
220
0.0
230
1.0
  2
SOLID
 70
     1
 71
     0
 91
        2
 92
        1
 93
        1
 72
     4
 94
        3
 73
     0
 74
     1
 95
       29
 96
       25
 40
0.0
 40
0.0
 40
0.0
 40
0.0
 40
1.0
 40
1.0
 40
1.0
 40
2.0
 40
2.0
 40
2.0
 40
3.0
 40
3.0
 40
3.0
 40
4.0
 40
4.0
 40
4.0
 40
5.0
 40
5.0
 40
5.0
 40
6.0
 40
6.0
 40
6.0
 40
7.0
 40
7.0
 40
7.0
 40
8.0
 40
8.0
 40
8.0
 40
8.0
 10
84.33318140252781
 20
-137.8014078431538
 10
84.10856117688952
 20
-137.873065829247
 10
83.97247990522216
 20
-137.7638563023646
 10
83.89014212312469
 20
-137.6815185202671
 10
83.77645397211144
 20
-137.5678303692539
 10
83.70944686492334
 20
-137.4351941930718
 10
83.77059730978652
 20
-137.2388237504125
 10
83.83519285013496
 20
-137.0283284162637
 10
83.98918861832563
 20
-136.8471163937396
 10
84.10442706230722
 20
-136.7320502045323
 10
84.20622963389636
 20
-136.6304198877174
 10
84.39588214035936
 20
-136.4640217757798
 10
84.61120060818749
 20
-136.3982204520116
 10
84.83134220969495
 20
-136.3310410900492
 10
84.96156681903739
 20
-136.4281927827332
 10
85.05251733984798
 20
-136.5191433035438
 10
85.16482745266713
 20
-136.631453416363
 10
85.23510740056622
 20
-136.7644341020936
 10
85.17378470092878
 20
-136.9608045447528
 10
85.10798337716051
 20
-137.1671657643193
 10
84.96294485723149
 20
-137.3452772009067
 10
84.84029945795659
 20
-137.4679226001816
 10
84.71903209687581
 20
-137.5891899612624
 10
84.54092066028838
 20
-137.7369845575797
 10
84.33318140252781
 20
-137.8014078431538
 97
        0
 97
        0
 92
        1
 93
        1
 72
     4
 94
        3
 73
     0
 74
     1
 95
       17
 96
       13
 40
0.0
 40
0.0
 40
0.0
 40
0.0
 40
1.0
 40
1.0
 40
1.0
 40
2.0
 40
2.0
 40
2.0
 40
3.0
 40
3.0
 40
3.0
 40
4.0
 40
4.0
 40
4.0
 40
4.0
 10
84.91643606818062
 20
-136.6552245752112
 10
84.74004717933583
 20
-136.4788356863664
 10
84.50646970543589
 20
-136.6462673269496
 10
84.26255694508019
 20
-136.8901800873052
 10
84.03673093602207
 20
-137.1161783511376
 10
83.84415009839661
 20
-137.3604356210418
 10
84.02777368776042
 20
-137.5440592104057
 10
84.20312904795964
 20
-137.7194145706049
 10
84.43653426708532
 20
-137.5547390064099
 10
84.68182506563511
 20
-137.3094482078602
 10
84.90782332946749
 20
-137.0834499440278
 10
85.09902612889886
 20
-136.8378146359294
 10
84.91643606818062
 20
-136.6552245752112
 97
        0
 97
        0
 75
     2
 76
     1
 98
        0
  0
ENDBLK
  5
E8
330
E5
100
AcDbEntity
  8
0
100
AcDbBlockEnd
  0
ENDSEC
  0
SECTION
  2
ENTITIES
  0
POLYLINE
  5
41
330
1F
100
AcDbEntity
  8
_U+30EC_U+30A4_U+30E4_U+30FC 1
  6
AI-Linetype-1
 62
   154
420
    23468
370
    25
100
AcDb2dPolyline
 66
     1
 10
0.0
 20
0.0
 30
0.0
  0
VERTEX
  5
42
330
41
100
AcDbEntity
  8
_U+30EC_U+30A4_U+30E4_U+30FC 1
  6
AI-Linetype-1
 62
   154
420
    23468
370
    25
100
AcDbVertex
100
AcDb2dVertex
 10
80.0488740688942
 20
-110.3219366390863
 30
0.0
  0
VERTEX
  5
43
330
41
100
AcDbEntity
  8
_U+30EC_U+30A4_U+30E4_U+30FC 1
  6
AI-Linetype-1
 62
   154
420
    23468
370
    25
100
AcDbVertex
100
AcDb2dVertex
 10
80.0488740688942
 20
-120.3216696921419
 30
0.0
  0
SEQEND
  5
45
330
41
100
AcDbEntity
  8
_U+30EC_U+30A4_U+30E4_U+30FC 1
  6
AI-Linetype-1
 62
   154
420
    23468
370
    25
  0
POLYLINE
  5
46
330
1F
100
AcDbEntity
  8
_U+30EC_U+30A4_U+30E4_U+30FC 1
  6
AI-Linetype-2
 62
   154
420
    23468
370
    25
100
AcDb2dPolyline
 66
     1
 10
0.0
 20
0.0
 30
0.0
  0
VERTEX
  5
47
330
46
100
AcDbEntity
  8
_U+30EC_U+30A4_U+30E4_U+30FC 1
  6
AI-Linetype-2
 62
   154
420
    23468
370
    25
100
AcDbVertex
100
AcDb2dVertex
 10
100.0662255026535
 20
-140.3563077426886
 30
0.0
  0
VERTEX
  5
48
330
46
100
AcDbEntity
  8
_U+30EC_U+30A4_U+30E4_U+30FC 1
  6
AI-Linetype-2
 62
   154
420
    23468
370
    25
100
AcDbVertex
100
AcDb2dVertex
 10
110.0659610835945
 20
-140.3563077426886
 30
0.0
  0
SEQEND
  5
4A
330
46
100
AcDbEntity
  8
_U+30EC_U+30A4_U+30E4_U+30FC 1
  6
AI-Linetype-2
 62
   154
420
    23468
370
    25
  0
POLYLINE
  5
4B
330
1F
100
AcDbEntity
  8
_U+30EC_U+30A4_U+30E4_U+30FC 1
 62
     7
420
 16777215
370
     9
100
AcDb2dPolyline
 66
     1
 10
0.0
 20
0.0
 30
0.0
  0
VERTEX
  5
4C
330
4B
100
AcDbEntity
  8
_U+30EC_U+30A4_U+30E4_U+30FC 1
 62
     7
420
 16777215
370
     9
100
AcDbVertex
100
AcDb2dVertex
 10
80.48984627986628
 20
-118.1257691371351
 30
0.0
  0
VERTEX
  5
4D
330
4B
100
AcDbEntity
  8
_U+30EC_U+30A4_U+30E4_U+30FC 1
 62
     7
420
 16777215
370
     9
100
AcDbVertex
100
AcDb2dVertex
 10
91.93582682118831
 20
-118.1257691371351
 30
0.0
  0
SEQEND
  5
4E
330
4B
100
AcDbEntity
  8
_U+30EC_U+30A4_U+30E4_U+30FC 1
 62
     7
420
 16777215
370
     9
  0
POLYLINE
  5
4F
330
1F
100
AcDbEntity
  8
_U+30EC_U+30A4_U+30E4_U+30FC 1
 62
     7
420
 16777215
370
     9
100
AcDb2dPolyline
 66
     1
 10
0.0
 20
0.0
 30
0.0
  0
VERTEX
  5
50
330
4F
100
AcDbEntity
  8
_U+30EC_U+30A4_U+30E4_U+30FC 1
 62
     7
420
 16777215
370
     9
100
AcDbVertex
100
AcDb2dVertex
 10
80.48984627986628
 20
-118.1257691371351
 30
0.0
  0
VERTEX
  5
51
330
4F
100
AcDbEntity
  8
_U+30EC_U+30A4_U+30E4_U+30FC 1
 62
     7
420
 16777215
370
     9
100
AcDbVertex
100
AcDb2dVertex
 10
81.4558223663333
 20
-117.8667244149776
 30
0.0
  0
SEQEND
  5
52
330
4F
100
AcDbEntity
  8
_U+30EC_U+30A4_U+30E4_U+30FC 1
 62
     7
420
 16777215
370
     9
  0
POLYLINE
  5
53
330
1F
100
AcDbEntity
  8
_U+30EC_U+30A4_U+30E4_U+30FC 1
 62
     7
420
 16777215
370
     9
100
AcDb2dPolyline
 66
     1
 10
0.0
 20
0.0
 30
0.0
  0
VERTEX
  5
54
330
53
100
AcDbEntity
  8
_U+30EC_U+30A4_U+30E4_U+30FC 1
 62
     7
420
 16777215
370
     9
100
AcDbVertex
100
AcDb2dVertex
 10
80.48984627986628
 20
-118.1257691371351
 30
0.0
  0
VERTEX
  5
55
330
53
100
AcDbEntity
  8
_U+30EC_U+30A4_U+30E4_U+30FC 1
 62
     7
420
 16777215
370
     9
100
AcDbVertex
100
AcDb2dVertex
 10
81.4558223663333
 20
-118.3841435815152
 30
0.0
  0
SEQEND
  5
56
330
53
100
AcDbEntity
  8
_U+30EC_U+30A4_U+30E4_U+30FC 1
 62
     7
420
 16777215
370
     9
  0
POLYLINE
  5
57
330
1F
100
AcDbEntity
  8
_U+30EC_U+30A4_U+30E4_U+30FC 1
 62
     7
420
 16777215
370
     9
100
AcDb2dPolyline
 66
     1
 10
0.0
 20
0.0
 30
0.0
  0
VERTEX
  5
58
330
57
100
AcDbEntity
  8
_U+30EC_U+30A4_U+30E4_U+30FC 1
 62
     7
420
 16777215
370
     9
100
AcDbVertex
100
AcDb2dVertex
 10
101.3519593587405
 20
-139.6500466317539
 30
0.0
  0
VERTEX
  5
59
330
57
100
AcDbEntity
  8
_U+30EC_U+30A4_U+30E4_U+30FC 1
 62
     7
420
 16777215
370
     9
100
AcDbVertex
100
AcDb2dVertex
 10
101.6110393521309
 20
-138.6840352431068
 30
0.0
  0
SEQEND
  5
5A
330
57
100
AcDbEntity
  8
_U+30EC_U+30A4_U+30E4_U+30FC 1
 62
     7
420
 16777215
370
     9
  0
POLYLINE
  5
5B
330
1F
100
AcDbEntity
  8
_U+30EC_U+30A4_U+30E4_U+30FC 1
 62
     7
420
 16777215
370
     9
100
AcDb2dPolyline
 66
     1
 10
0.0
 20
0.0
 30
0.0
  0
VERTEX
  5
5C
330
5B
100
AcDbEntity
  8
_U+30EC_U+30A4_U+30E4_U+30FC 1
 62
     7
420
 16777215
370
     9
100
AcDbVertex
100
AcDb2dVertex
 10
101.3519593587405
 20
-139.6500466317539
 30
0.0
  0
VERTEX
  5
5D
330
5B
100
AcDbEntity
  8
_U+30EC_U+30A4_U+30E4_U+30FC 1
 62
     7
420
 16777215
370
     9
100
AcDbVertex
100
AcDb2dVertex
 10
101.3519593587405
 20
-119.611316358986
 30
0.0
  0
SEQEND
  5
5E
330
5B
100
AcDbEntity
  8
_U+30EC_U+30A4_U+30E4_U+30FC 1
 62
     7
420
 16777215
370
     9
  0
POLYLINE
  5
5F
330
1F
100
AcDbEntity
  8
_U+30EC_U+30A4_U+30E4_U+30FC 1
 62
     7
420
 16777215
370
     9
100
AcDb2dPolyline
 66
     1
 10
0.0
 20
0.0
 30
0.0
  0
VERTEX
  5
60
330
5F
100
AcDbEntity
  8
_U+30EC_U+30A4_U+30E4_U+30FC 1
 62
     7
420
 16777215
370
     9
100
AcDbVertex
100
AcDb2dVertex
 10
101.3519593587405
 20
-139.6500466317539
 30
0.0
  0
VERTEX
  5
61
330
5F
100
AcDbEntity
  8
_U+30EC_U+30A4_U+30E4_U+30FC 1
 62
     7
420
 16777215
370
     9
100
AcDbVertex
100
AcDb2dVertex
 10
101.0928793653502
 20
-138.6840352431068
 30
0.0
  0
SEQEND
  5
62
330
5F
100
AcDbEntity
  8
_U+30EC_U+30A4_U+30E4_U+30FC 1
 62
     7
420
 16777215
370
     9
  0
INSERT
  5
64
330
1F
100
AcDbEntity
  8
_U+30EC_U+30A4_U+30E4_U+30FC 1
100
AcDbBlockReference
  2
block 2
 10
0.0
 20
0.0
 30
0.0
  0
SPLINE
  5
8B
330
1F
100
AcDbEntity
  8
_U+30EC_U+30A4_U+30E4_U+30FC 1
 62
     7
420
 16777215
370
     9
100
AcDbSpline
210
0.0
220
0.0
230
1.0
 70
    11
 71
     3
 72
    17
 73
    13
 74
     0
 42
0.0000000001
 43
0.0000000001
 12
1.0
 22
0.0
 32
0.0
 13
1.0
 23
0.0
 33
0.0
 40
0.0
 40
0.0
 40
0.0
 40
0.0
 40
1.0
 40
1.0
 40
1.0
 40
2.0
 40
2.0
 40
2.0
 40
3.0
 40
3.0
 40
3.0
 40
4.0
 40
4.0
 40
4.0
 40
4.0
 10
89.96453992703559
 20
-144.5648055194147
 30
0.0
 10
89.96453992703559
 20
-144.5097016305391
 30
0.0
 10
89.91973715040083
 20
-144.4648988527724
 30
0.0
 10
89.86463326291776
 20
-144.4648988527724
 30
0.0
 10
89.8094940976578
 20
-144.4648988527724
 30
0.0
 10
89.76472659879992
 20
-144.5097016305391
 30
0.0
 10
89.76472659879992
 20
-144.5648055194147
 30
0.0
 10
89.76472659879992
 20
-144.6199446860671
 30
0.0
 10
89.8094940976578
 20
-144.6647121860563
 30
0.0
 10
89.86463326291776
 20
-144.6647121860563
 30
0.0
 10
89.91973715040083
 20
-144.6647121860563
 30
0.0
 10
89.96453992703559
 20
-144.6199446860671
 30
0.0
 10
89.96453992703559
 20
-144.5648055194147
 30
0.0
  0
SPLINE
  5
8C
330
1F
100
AcDbEntity
  8
_U+30EC_U+30A4_U+30E4_U+30FC 1
 62
     7
420
 16777215
370
     9
100
AcDbSpline
210
0.0
220
0.0
230
1.0
 70
    11
 71
     3
 72
    17
 73
    13
 74
     0
 42
0.0000000001
 43
0.0000000001
 12
1.0
 22
0.0
 32
0.0
 13
1.0
 23
0.0
 33
0.0
 40
0.0
 40
0.0
 40
0.0
 40
0.0
 40
1.0
 40
1.0
 40
1.0
 40
2.0
 40
2.0
 40
2.0
 40
3.0
 40
3.0
 40
3.0
 40
4.0
 40
4.0
 40
4.0
 40
4.0
 10
93.1657159564779
 20
-145.7368391302327
 30
0.0
 10
93.1657159564779
 20
-145.6817352413572
 30
0.0
 10
93.12091317984314
 20
-145.6369324635911
 30
0.0
 10
93.06580929236007
 20
-145.6369324635911
 30
0.0
 10
93.01067012710011
 20
-145.6369324635911
 30
0.0
 10
92.96590262824223
 20
-145.6817352413572
 30
0.0
 10
92.96590262824223
 20
-145.7368391302327
 30
0.0
 10
92.96590262824223
 20
-145.7919782968851
 30
0.0
 10
93.01067012710011
 20
-145.8367457968743
 30
0.0
 10
93.06580929236007
 20
-145.8367457968743
 30
0.0
 10
93.12091317984314
 20
-145.8367457968743
 30
0.0
 10
93.1657159564779
 20
-145.7919782968851
 30
0.0
 10
93.1657159564779
 20
-145.7368391302327
 30
0.0
  0
SPLINE
  5
8D
330
1F
100
AcDbEntity
  8
_U+30EC_U+30A4_U+30E4_U+30FC 1
 62
     7
420
 16777215
370
     9
100
AcDbSpline
210
0.0
220
0.0
230
1.0
 70
    11
 71
     3
 72
    17
 73
    13
 74
     0
 42
0.0000000001
 43
0.0000000001
 12
1.0
 22
0.0
 32
0.0
 13
1.0
 23
0.0
 33
0.0
 40
0.0
 40
0.0
 40
0.0
 40
0.0
 40
1.0
 40
1.0
 40
1.0
 40
2.0
 40
2.0
 40
2.0
 40
3.0
 40
3.0
 40
3.0
 40
4.0
 40
4.0
 40
4.0
 40
4.0
 10
110.1659002449893
 20
-145.7368391302327
 30
0.0
 10
110.1659002449893
 20
-145.6817352413572
 30
0.0
 10
110.1210974683545
 20
-145.6369324635911
 30
0.0
 10
110.0659610835945
 20
-145.6369324635911
 30
0.0
 10
110.0108544156115
 20
-145.6369324635911
 30
0.0
 10
109.9660516389767
 20
-145.6817352413572
 30
0.0
 10
109.9660516389767
 20
-145.7368391302327
 30
0.0
 10
109.9660516389767
 20
-145.7919782968851
 30
0.0
 10
110.0108544156115
 20
-145.8367457968743
 30
0.0
 10
110.0659610835945
 20
-145.8367457968743
 30
0.0
 10
110.1210974683545
 20
-145.8367457968743
 30
0.0
 10
110.1659002449893
 20
-145.7919782968851
 30
0.0
 10
110.1659002449893
 20
-145.7368391302327
 30
0.0
  0
POLYLINE
  5
8E
330
1F
100
AcDbEntity
  8
_U+30EC_U+30A4_U+30E4_U+30FC 1
 62
     7
420
 16777215
370
     9
100
AcDb2dPolyline
 66
     1
 10
0.0
 20
0.0
 30
0.0
  0
VERTEX
  5
8F
330
8E
100
AcDbEntity
  8
_U+30EC_U+30A4_U+30E4_U+30FC 1
 62
     7
420
 16777215
370
     9
100
AcDbVertex
100
AcDb2dVertex
 10
93.06580929236007
 20
-145.7368391302327
 30
0.0
  0
VERTEX
  5
90
330
8E
100
AcDbEntity
  8
_U+30EC_U+30A4_U+30E4_U+30FC 1
 62
     7
420
 16777215
370
     9
100
AcDbVertex
100
AcDb2dVertex
 10
110.0659610835945
 20
-145.7368391302327
 30
0.0
  0
SEQEND
  5
91
330
8E
100
AcDbEntity
  8
_U+30EC_U+30A4_U+30E4_U+30FC 1
 62
     7
420
 16777215
370
     9
  0
POLYLINE
  5
92
330
1F
100
AcDbEntity
  8
_U+30EC_U+30A4_U+30E4_U+30FC 1
 62
     7
420
 16777215
370
    25
100
AcDb2dPolyline
 66
     1
 10
0.0
 20
0.0
 30
0.0
  0
VERTEX
  5
93
330
92
100
AcDbEntity
  8
_U+30EC_U+30A4_U+30E4_U+30FC 1
 62
     7
420
 16777215
370
    25
100
AcDbVertex
100
AcDb2dVertex
 10
78.55094438488734
 20
-127.5942894125457
 30
0.0
  0
VERTEX
  5
94
330
92
100
AcDbEntity
  8
_U+30EC_U+30A4_U+30E4_U+30FC 1
 62
     7
420
 16777215
370
    25
100
AcDbVertex
100
AcDb2dVertex
 10
92.69306664349355
 20
-141.7364096867878
 30
0.0
  0
SEQEND
  5
95
330
92
100
AcDbEntity
  8
_U+30EC_U+30A4_U+30E4_U+30FC 1
 62
     7
420
 16777215
370
    25
  0
POLYLINE
  5
96
330
1F
100
AcDbEntity
  8
_U+30EC_U+30A4_U+30E4_U+30FC 1
 62
     7
420
 16777215
370
    25
100
AcDb2dPolyline
 66
     1
 10
0.0
 20
0.0
 30
0.0
  0
VERTEX
  5
97
330
96
100
AcDbEntity
  8
_U+30EC_U+30A4_U+30E4_U+30FC 1
 62
     7
420
 16777215
370
    25
100
AcDbVertex
100
AcDb2dVertex
 10
79.45077463970854
 20
-127.2215091348614
 30
0.0
  0
VERTEX
  5
98
330
96
100
AcDbEntity
  8
_U+30EC_U+30A4_U+30E4_U+30FC 1
 62
     7
420
 16777215
370
    25
100
AcDbVertex
100
AcDb2dVertex
 10
93.06580929236007
 20
-140.8365441314575
 30
0.0
  0
SEQEND
  5
99
330
96
100
AcDbEntity
  8
_U+30EC_U+30A4_U+30E4_U+30FC 1
 62
     7
420
 16777215
370
    25
  0
POLYLINE
  5
9A
330
1F
100
AcDbEntity
  8
_U+30EC_U+30A4_U+30E4_U+30FC 1
 62
     7
420
 16777215
370
    25
100
AcDb2dPolyline
 66
     1
 10
0.0
 20
0.0
 30
0.0
  0
VERTEX
  5
9B
330
9A
100
AcDbEntity
  8
_U+30EC_U+30A4_U+30E4_U+30FC 1
 62
     7
420
 16777215
370
    25
100
AcDbVertex
100
AcDb2dVertex
 10
93.06580929236007
 20
-140.8365441314575
 30
0.0
  0
VERTEX
  5
9C
330
9A
100
AcDbEntity
  8
_U+30EC_U+30A4_U+30E4_U+30FC 1
 62
     7
420
 16777215
370
    25
100
AcDbVertex
100
AcDb2dVertex
 10
110.0659610835945
 20
-140.8365441314575
 30
0.0
  0
SEQEND
  5
9D
330
9A
100
AcDbEntity
  8
_U+30EC_U+30A4_U+30E4_U+30FC 1
 62
     7
420
 16777215
370
    25
  0
POLYLINE
  5
9E
330
1F
100
AcDbEntity
  8
_U+30EC_U+30A4_U+30E4_U+30FC 1
 62
     7
420
 16777215
370
    25
100
AcDb2dPolyline
 66
     1
 10
0.0
 20
0.0
 30
0.0
  0
VERTEX
  5
9F
330
9E
100
AcDbEntity
  8
_U+30EC_U+30A4_U+30E4_U+30FC 1
 62
     7
420
 16777215
370
    25
100
AcDbVertex
100
AcDb2dVertex
 10
110.0659610835945
 20
-140.8365441314575
 30
0.0
  0
VERTEX
  5
A0
330
9E
100
AcDbEntity
  8
_U+30EC_U+30A4_U+30E4_U+30FC 1
 62
     7
420
 16777215
370
    25
100
AcDbVertex
100
AcDb2dVertex
 10
110.0659610835945
 20
-141.3367477424437
 30
0.0
  0
SEQEND
  5
A1
330
9E
100
AcDbEntity
  8
_U+30EC_U+30A4_U+30E4_U+30FC 1
 62
     7
420
 16777215
370
    25
  0
POLYLINE
  5
A2
330
1F
100
AcDbEntity
  8
_U+30EC_U+30A4_U+30E4_U+30FC 1
 62
     7
420
 16777215
370
    25
100
AcDb2dPolyline
 66
     1
 10
0.0
 20
0.0
 30
0.0
  0
VERTEX
  5
A3
330
A2
100
AcDbEntity
  8
_U+30EC_U+30A4_U+30E4_U+30FC 1
 62
     7
420
 16777215
370
    25
100
AcDbVertex
100
AcDb2dVertex
 10
92.69306664349355
 20
-141.7364096867878
 30
0.0
  0
VERTEX
  5
A4
330
A2
100
AcDbEntity
  8
_U+30EC_U+30A4_U+30E4_U+30FC 1
 62
     7
420
 16777215
370
    25
100
AcDbVertex
100
AcDb2dVertex
 10
110.0659610835945
 20
-141.3367477424437
 30
0.0
  0
SEQEND
  5
A5
330
A2
100
AcDbEntity
  8
_U+30EC_U+30A4_U+30E4_U+30FC 1
 62
     7
420
 16777215
370
    25
  0
POLYLINE
  5
A6
330
1F
100
AcDbEntity
  8
_U+30EC_U+30A4_U+30E4_U+30FC 1
 62
     7
420
 16777215
370
    25
100
AcDb2dPolyline
 66
     1
 10
0.0
 20
0.0
 30
0.0
  0
VERTEX
  5
A7
330
A6
100
AcDbEntity
  8
_U+30EC_U+30A4_U+30E4_U+30FC 1
 62
     7
420
 16777215
370
    25
100
AcDbVertex
100
AcDb2dVertex
 10
79.45077463970854
 20
-110.221359694667
 30
0.0
  0
VERTEX
  5
A8
330
A6
100
AcDbEntity
  8
_U+30EC_U+30A4_U+30E4_U+30FC 1
 62
     7
420
 16777215
370
    25
100
AcDbVertex
100
AcDb2dVertex
 10
78.95124131911936
 20
-110.221359694667
 30
0.0
  0
SEQEND
  5
A9
330
A6
100
AcDbEntity
  8
_U+30EC_U+30A4_U+30E4_U+30FC 1
 62
     7
420
 16777215
370
    25
  0
POLYLINE
  5
AA
330
1F
100
AcDbEntity
  8
_U+30EC_U+30A4_U+30E4_U+30FC 1
 62
     7
420
 16777215
370
    25
100
AcDb2dPolyline
 66
     1
 10
0.0
 20
0.0
 30
0.0
  0
VERTEX
  5
AB
330
AA
100
AcDbEntity
  8
_U+30EC_U+30A4_U+30E4_U+30FC 1
 62
     7
420
 16777215
370
    25
100
AcDbVertex
100
AcDb2dVertex
 10
79.45077463970854
 20
-127.2215091348614
 30
0.0
  0
VERTEX
  5
AC
330
AA
100
AcDbEntity
  8
_U+30EC_U+30A4_U+30E4_U+30FC 1
 62
     7
420
 16777215
370
    25
100
AcDbVertex
100
AcDb2dVertex
 10
79.45077463970854
 20
-110.221359694667
 30
0.0
  0
SEQEND
  5
AD
330
AA
100
AcDbEntity
  8
_U+30EC_U+30A4_U+30E4_U+30FC 1
 62
     7
420
 16777215
370
    25
  0
POLYLINE
  5
AE
330
1F
100
AcDbEntity
  8
_U+30EC_U+30A4_U+30E4_U+30FC 1
 62
     7
420
 16777215
370
    25
100
AcDb2dPolyline
 66
     1
 10
0.0
 20
0.0
 30
0.0
  0
VERTEX
  5
AF
330
AE
100
AcDbEntity
  8
_U+30EC_U+30A4_U+30E4_U+30FC 1
 62
     7
420
 16777215
370
    25
100
AcDbVertex
100
AcDb2dVertex
 10
78.55094438488734
 20
-127.5942894125457
 30
0.0
  0
VERTEX
  5
B0
330
AE
100
AcDbEntity
  8
_U+30EC_U+30A4_U+30E4_U+30FC 1
 62
     7
420
 16777215
370
    25
100
AcDbVertex
100
AcDb2dVertex
 10
78.95124131911936
 20
-110.221359694667
 30
0.0
  0
SEQEND
  5
B1
330
AE
100
AcDbEntity
  8
_U+30EC_U+30A4_U+30E4_U+30FC 1
 62
     7
420
 16777215
370
    25
  0
SPLINE
  5
B2
330
1F
100
AcDbEntity
  8
_U+30EC_U+30A4_U+30E4_U+30FC 1
 62
     7
420
 16777215
370
     9
100
AcDbSpline
210
0.0
220
0.0
230
1.0
 70
    11
 71
     3
 72
    17
 73
    13
 74
     0
 42
0.0000000001
 43
0.0000000001
 12
1.0
 22
0.0
 32
0.0
 13
1.0
 23
0.0
 33
0.0
 40
0.0
 40
0.0
 40
0.0
 40
0.0
 40
1.0
 40
1.0
 40
1.0
 40
2.0
 40
2.0
 40
2.0
 40
3.0
 40
3.0
 40
3.0
 40
4.0
 40
4.0
 40
4.0
 40
4.0
 10
74.65109198438087
 20
-110.221359694667
 30
0.0
 10
74.65109198438087
 20
-110.1662205280139
 30
0.0
 10
74.6062892077461
 20
-110.1214530280253
 30
0.0
 10
74.55118532026303
 20
-110.1214530280253
 30
0.0
 10
74.49604615500309
 20
-110.1214530280253
 30
0.0
 10
74.45128053694262
 20
-110.1662205280139
 30
0.0
 10
74.45128053694262
 20
-110.221359694667
 30
0.0
 10
74.45128053694262
 20
-110.2771691390974
 30
0.0
 10
74.49604615500309
 20
-110.3219366390863
 30
0.0
 10
74.55118532026303
 20
-110.3219366390863
 30
0.0
 10
74.6062892077461
 20
-110.3219366390863
 30
0.0
 10
74.65109198438087
 20
-110.2771691390974
 30
0.0
 10
74.65109198438087
 20
-110.221359694667
 30
0.0
  0
SPLINE
  5
B3
330
1F
100
AcDbEntity
  8
_U+30EC_U+30A4_U+30E4_U+30FC 1
 62
     7
420
 16777215
370
     9
100
AcDbSpline
210
0.0
220
0.0
230
1.0
 70
    11
 71
     3
 72
    17
 73
    13
 74
     0
 42
0.0000000001
 43
0.0000000001
 12
1.0
 22
0.0
 32
0.0
 13
1.0
 23
0.0
 33
0.0
 40
0.0
 40
0.0
 40
0.0
 40
0.0
 40
1.0
 40
1.0
 40
1.0
 40
2.0
 40
2.0
 40
2.0
 40
3.0
 40
3.0
 40
3.0
 40
4.0
 40
4.0
 40
4.0
 40
4.0
 10
74.65109198438087
 20
-127.2215091348614
 30
0.0
 10
74.65109198438087
 20
-127.1664052459862
 30
0.0
 10
74.6062892077461
 20
-127.1216024682195
 30
0.0
 10
74.55118532026303
 20
-127.1216024682195
 30
0.0
 10
74.49604615500309
 20
-127.1216024682195
 30
0.0
 10
74.45128053694262
 20
-127.1664052459862
 30
0.0
 10
74.45128053694262
 20
-127.2215091348614
 30
0.0
 10
74.45128053694262
 20
-127.2766483015142
 30
0.0
 10
74.49604615500309
 20
-127.3214158015031
 30
0.0
 10
74.55118532026303
 20
-127.3214158015031
 30
0.0
 10
74.6062892077461
 20
-127.3214158015031
 30
0.0
 10
74.65109198438087
 20
-127.2766483015142
 30
0.0
 10
74.65109198438087
 20
-127.2215091348614
 30
0.0
  0
SPLINE
  5
B4
330
1F
100
AcDbEntity
  8
_U+30EC_U+30A4_U+30E4_U+30FC 1
 62
     7
420
 16777215
370
     9
100
AcDbSpline
210
0.0
220
0.0
230
1.0
 70
    11
 71
     3
 72
    17
 73
    13
 74
     0
 42
0.0000000001
 43
0.0000000001
 12
1.0
 22
0.0
 32
0.0
 13
1.0
 23
0.0
 33
0.0
 40
0.0
 40
0.0
 40
0.0
 40
0.0
 40
1.0
 40
1.0
 40
1.0
 40
2.0
 40
2.0
 40
2.0
 40
3.0
 40
3.0
 40
3.0
 40
4.0
 40
4.0
 40
4.0
 40
4.0
 10
75.82242001005335
 20
-130.4226852451723
 30
0.0
 10
75.82242001005335
 20
-130.3675813562967
 30
0.0
 10
75.7776172334186
 20
-130.3227785785306
 30
0.0
 10
75.72251334593552
 20
-130.3227785785306
 30
0.0
 10
75.66737418067557
 20
-130.3227785785306
 30
0.0
 10
75.62260668181769
 20
-130.3675813562967
 30
0.0
 10
75.62260668181769
 20
-130.4226852451723
 30
0.0
 10
75.62260668181769
 20
-130.4778244118247
 30
0.0
 10
75.66737418067557
 20
-130.5226271895914
 30
0.0
 10
75.72251334593552
 20
-130.5226271895914
 30
0.0
 10
75.7776172334186
 20
-130.5226271895914
 30
0.0
 10
75.82242001005335
 20
-130.4778244118247
 30
0.0
 10
75.82242001005335
 20
-130.4226852451723
 30
0.0
  0
POLYLINE
  5
B5
330
1F
100
AcDbEntity
  8
_U+30EC_U+30A4_U+30E4_U+30FC 1
 62
     7
420
 16777215
370
     9
100
AcDb2dPolyline
 66
     1
 10
0.0
 20
0.0
 30
0.0
  0
VERTEX
  5
B6
330
B5
100
AcDbEntity
  8
_U+30EC_U+30A4_U+30E4_U+30FC 1
 62
     7
420
 16777215
370
     9
100
AcDbVertex
100
AcDb2dVertex
 10
93.06580929236007
 20
-143.3769674641556
 30
0.0
  0
VERTEX
  5
B7
330
B5
100
AcDbEntity
  8
_U+30EC_U+30A4_U+30E4_U+30FC 1
 62
     7
420
 16777215
370
     9
100
AcDbVertex
100
AcDb2dVertex
 10
93.06580929236007
 20
-146.7366113522046
 30
0.0
  0
SEQEND
  5
B8
330
B5
100
AcDbEntity
  8
_U+30EC_U+30A4_U+30E4_U+30FC 1
 62
     7
420
 16777215
370
     9
  0
POLYLINE
  5
B9
330
1F
100
AcDbEntity
  8
_U+30EC_U+30A4_U+30E4_U+30FC 1
 62
     7
420
 16777215
370
     9
100
AcDb2dPolyline
 66
     1
 10
0.0
 20
0.0
 30
0.0
  0
VERTEX
  5
BA
330
B9
100
AcDbEntity
  8
_U+30EC_U+30A4_U+30E4_U+30FC 1
 62
     7
420
 16777215
370
     9
100
AcDbVertex
100
AcDb2dVertex
 10
110.0659610835945
 20
-143.8765007973645
 30
0.0
  0
VERTEX
  5
BB
330
B9
100
AcDbEntity
  8
_U+30EC_U+30A4_U+30E4_U+30FC 1
 62
     7
420
 16777215
370
     9
100
AcDbVertex
100
AcDb2dVertex
 10
110.0659610835945
 20
-146.7366113522046
 30
0.0
  0
SEQEND
  5
BC
330
B9
100
AcDbEntity
  8
_U+30EC_U+30A4_U+30E4_U+30FC 1
 62
     7
420
 16777215
370
     9
  0
INSERT
  5
BE
330
1F
100
AcDbEntity
  8
_U+30EC_U+30A4_U+30E4_U+30FC 1
100
AcDbBlockReference
  2
block 3
 10
0.0
 20
0.0
 30
0.0
  0
POLYLINE
  5
C5
330
1F
100
AcDbEntity
  8
_U+30EC_U+30A4_U+30E4_U+30FC 1
 62
     7
420
 16777215
370
     9
100
AcDb2dPolyline
 66
     1
 10
0.0
 20
0.0
 30
0.0
  0
VERTEX
  5
C6
330
C5
100
AcDbEntity
  8
_U+30EC_U+30A4_U+30E4_U+30FC 1
 62
     7
420
 16777215
370
     9
100
AcDbVertex
100
AcDb2dVertex
 10
74.55118532026303
 20
-127.2215091348614
 30
0.0
  0
VERTEX
  5
C7
330
C5
100
AcDbEntity
  8
_U+30EC_U+30A4_U+30E4_U+30FC 1
 62
     7
420
 16777215
370
     9
100
AcDbVertex
100
AcDb2dVertex
 10
74.55118532026303
 20
-110.221359694667
 30
0.0
  0
SEQEND
  5
C8
330
C5
100
AcDbEntity
  8
_U+30EC_U+30A4_U+30E4_U+30FC 1
 62
     7
420
 16777215
370
     9
  0
POLYLINE
  5
C9
330
1F
100
AcDbEntity
  8
_U+30EC_U+30A4_U+30E4_U+30FC 1
 62
     7
420
 16777215
370
     9
100
AcDb2dPolyline
 66
     1
 10
0.0
 20
0.0
 30
0.0
  0
VERTEX
  5
CA
330
C9
100
AcDbEntity
  8
_U+30EC_U+30A4_U+30E4_U+30FC 1
 62
     7
420
 16777215
370
     9
100
AcDbVertex
100
AcDb2dVertex
 10
76.91105692672436
 20
-127.2215091348614
 30
0.0
  0
VERTEX
  5
CB
330
C9
100
AcDbEntity
  8
_U+30EC_U+30A4_U+30E4_U+30FC 1
 62
     7
420
 16777215
370
     9
100
AcDbVertex
100
AcDb2dVertex
 10
73.55070756800957
 20
-127.2215091348614
 30
0.0
  0
SEQEND
  5
CC
330
C9
100
AcDbEntity
  8
_U+30EC_U+30A4_U+30E4_U+30FC 1
 62
     7
420
 16777215
370
     9
  0
POLYLINE
  5
CD
330
1F
100
AcDbEntity
  8
_U+30EC_U+30A4_U+30E4_U+30FC 1
 62
     7
420
 16777215
370
     9
100
AcDb2dPolyline
 66
     1
 10
0.0
 20
0.0
 30
0.0
  0
VERTEX
  5
CE
330
CD
100
AcDbEntity
  8
_U+30EC_U+30A4_U+30E4_U+30FC 1
 62
     7
420
 16777215
370
     9
100
AcDbVertex
100
AcDb2dVertex
 10
76.4108533283745
 20
-110.221359694667
 30
0.0
  0
VERTEX
  5
CF
330
CD
100
AcDbEntity
  8
_U+30EC_U+30A4_U+30E4_U+30FC 1
 62
     7
420
 16777215
370
     9
100
AcDbVertex
100
AcDb2dVertex
 10
73.55070756800957
 20
-110.221359694667
 30
0.0
  0
SEQEND
  5
D0
330
CD
100
AcDbEntity
  8
_U+30EC_U+30A4_U+30E4_U+30FC 1
 62
     7
420
 16777215
370
     9
  0
INSERT
  5
D2
330
1F
100
AcDbEntity
  8
_U+30EC_U+30A4_U+30E4_U+30FC 1
100
AcDbBlockReference
  2
block 4
 10
0.0
 20
0.0
 30
0.0
  0
POLYLINE
  5
D9
330
1F
100
AcDbEntity
  8
_U+30EC_U+30A4_U+30E4_U+30FC 1
 62
     7
420
 16777215
370
     9
100
AcDb2dPolyline
 66
     1
 10
0.0
 20
0.0
 30
0.0
  0
VERTEX
  5
DA
330
D9
100
AcDbEntity
  8
_U+30EC_U+30A4_U+30E4_U+30FC 1
 62
     7
420
 16777215
370
     9
100
AcDbVertex
100
AcDb2dVertex
 10
75.72251334593552
 20
-130.4226852451723
 30
0.0
  0
VERTEX
  5
DB
330
D9
100
AcDbEntity
  8
_U+30EC_U+30A4_U+30E4_U+30FC 1
 62
     7
420
 16777215
370
     9
100
AcDbVertex
100
AcDb2dVertex
 10
89.86463326291776
 20
-144.5648055194147
 30
0.0
  0
SEQEND
  5
DC
330
D9
100
AcDbEntity
  8
_U+30EC_U+30A4_U+30E4_U+30FC 1
 62
     7
420
 16777215
370
     9
  0
POLYLINE
  5
DD
330
1F
100
AcDbEntity
  8
_U+30EC_U+30A4_U+30E4_U+30FC 1
 62
     7
420
 16777215
370
     9
100
AcDb2dPolyline
 66
     1
 10
0.0
 20
0.0
 30
0.0
  0
VERTEX
  5
DE
330
DD
100
AcDbEntity
  8
_U+30EC_U+30A4_U+30E4_U+30FC 1
 62
     7
420
 16777215
370
     9
100
AcDbVertex
100
AcDb2dVertex
 10
76.75467054182522
 20
-129.3905633009859
 30
0.0
  0
VERTEX
  5
DF
330
DD
100
AcDbEntity
  8
_U+30EC_U+30A4_U+30E4_U+30FC 1
 62
     7
420
 16777215
370
     9
100
AcDbVertex
100
AcDb2dVertex
 10
75.01558197508196
 20
-131.1296519116618
 30
0.0
  0
SEQEND
  5
E0
330
DD
100
AcDbEntity
  8
_U+30EC_U+30A4_U+30E4_U+30FC 1
 62
     7
420
 16777215
370
     9
  0
POLYLINE
  5
E1
330
1F
100
AcDbEntity
  8
_U+30EC_U+30A4_U+30E4_U+30FC 1
 62
     7
420
 16777215
370
     9
100
AcDb2dPolyline
 66
     1
 10
0.0
 20
0.0
 30
0.0
  0
VERTEX
  5
E2
330
E1
100
AcDbEntity
  8
_U+30EC_U+30A4_U+30E4_U+30FC 1
 62
     7
420
 16777215
370
     9
100
AcDbVertex
100
AcDb2dVertex
 10
90.89679045880746
 20
-143.5326835752277
 30
0.0
  0
VERTEX
  5
E3
330
E1
100
AcDbEntity
  8
_U+30EC_U+30A4_U+30E4_U+30FC 1
 62
     7
420
 16777215
370
     9
100
AcDbVertex
100
AcDb2dVertex
 10
89.1577018920642
 20
-145.2724424636816
 30
0.0
  0
SEQEND
  5
E4
330
E1
100
AcDbEntity
  8
_U+30EC_U+30A4_U+30E4_U+30FC 1
 62
     7
420
 16777215
370
     9
  0
INSERT
  5
E6
330
1F
100
AcDbEntity
  8
_U+30EC_U+30A4_U+30E4_U+30FC 1
100
AcDbBlockReference
  2
block 5
 10
0.0
 20
0.0
 30
0.0
  0
ENDSEC
  0
SECTION
  2
OBJECTS
  0
DICTIONARY
  5
C
330
0
100
AcDbDictionary
281
     1
  3
ACAD_GROUP
350
D
  3
ACAD_LAYOUT
350
1A
  3
ACAD_MATERIAL
350
3B
  3
ACAD_MLEADERSTYLE
350
EF
  3
ACAD_MLINESTYLE
350
17
  3
ACAD_PLOTSETTINGS
350
19
  3
ACAD_PLOTSTYLENAME
350
E
  3
ACAD_TABLESTYLE
350
EE
  3
ACAD_VISUALSTYLE
350
2A
  0
SUN
  5
3F
330
29
100
AcDbSun
 90
        1
290
     0
 63
     7
421
 16777215
 40
1.0
291
     1
 91
  2455826
 92
 54000000
292
     0
 70
     2
 71
   256
280
     1
  0
DICTIONARY
  5
D
102
{ACAD_REACTORS
330
C
102
}
330
C
100
AcDbDictionary
281
     1
  0
DICTIONARY
  5
1A
102
{ACAD_REACTORS
330
C
102
}
330
C
100
AcDbDictionary
281
     1
  3
Layout1
350
1E
  3
Layout2
350
26
  3
Model
350
22
  0
DICTIONARY
  5
3B
102
{ACAD_REACTORS
330
C
102
}
330
C
100
AcDbDictionary
281
     1
  3
ByBlock
350
3D
  3
ByLayer
350
3C
  3
Global
350
3E
  0
DICTIONARY
  5
EF
102
{ACAD_REACTORS
330
C
102
}
330
C
100
AcDbDictionary
281
     1
  0
DICTIONARY
  5
17
102
{ACAD_REACTORS
330
C
102
}
330
C
100
AcDbDictionary
281
     1
  3
Standard
350
18
  0
DICTIONARY
  5
19
102
{ACAD_REACTORS
330
C
102
}
330
C
100
AcDbDictionary
281
     1
  0
ACDBDICTIONARYWDFLT
  5
E
102
{ACAD_REACTORS
330
C
102
}
330
C
100
AcDbDictionary
281
     1
  3
Normal
350
F
100
AcDbDictionaryWithDefault
340
F
  0
DICTIONARY
  5
EE
102
{ACAD_REACTORS
330
C
102
}
330
C
100
AcDbDictionary
281
     1
  0
DICTIONARY
  5
2A
102
{ACAD_REACTORS
330
C
102
}
330
C
100
AcDbDictionary
281
     1
  3
2dWireframe
350
2F
  3
3D Hidden
350
31
  3
3dWireframe
350
30
  3
Basic
350
32
  3
Brighten
350
36
  3
ColorChange
350
3A
  3
Conceptual
350
34
  3
Dim
350
35
  3
Facepattern
350
39
  3
Flat
350
2B
  3
FlatWithEdges
350
2C
  3
Gouraud
350
2D
  3
GouraudWithEdges
350
2E
  3
Linepattern
350
38
  3
Realistic
350
33
  3
Thicken
350
37
  0
LAYOUT
  5
1E
102
{ACAD_REACTORS
330
1A
102
}
330
1A
100
AcDbPlotSettings
  1

  2
none_device
  4

  6

 40
0.0
 41
0.0
 42
0.0
 43
0.0
 44
0.0
 45
0.0
 46
0.0
 47
0.0
 48
0.0
 49
0.0
140
0.0
141
0.0
142
1.0
143
1.0
 70
   688
 72
     0
 73
     0
 74
     5
  7

 75
    16
 76
     0
 77
     2
 78
   300
147
1.0
148
0.0
149
0.0
100
AcDbLayout
  1
Layout1
 70
     1
 71
     1
 10
0.0
 20
0.0
 11
12.0
 21
9.0
 12
0.0
 22
0.0
 32
0.0
 14
1.000000000000000E+20
 24
1.000000000000000E+20
 34
1.000000000000000E+20
 15
-1.000000000000000E+20
 25
-1.000000000000000E+20
 35
-1.000000000000000E+20
146
0.0
 13
0.0
 23
0.0
 33
0.0
 16
1.0
 26
0.0
 36
0.0
 17
0.0
 27
1.0
 37
0.0
 76
     0
330
1B
  0
LAYOUT
  5
26
102
{ACAD_REACTORS
330
1A
102
}
330
1A
100
AcDbPlotSettings
  1

  2
none_device
  4

  6

 40
0.0
 41
0.0
 42
0.0
 43
0.0
 44
0.0
 45
0.0
 46
0.0
 47
0.0
 48
0.0
 49
0.0
140
0.0
141
0.0
142
1.0
143
1.0
 70
   688
 72
     0
 73
     0
 74
     5
  7

 75
    16
 76
     0
 77
     2
 78
   300
147
1.0
148
0.0
149
0.0
100
AcDbLayout
  1
Layout2
 70
     1
 71
     2
 10
0.0
 20
0.0
 11
0.0
 21
0.0
 12
0.0
 22
0.0
 32
0.0
 14
0.0
 24
0.0
 34
0.0
 15
0.0
 25
0.0
 35
0.0
146
0.0
 13
0.0
 23
0.0
 33
0.0
 16
1.0
 26
0.0
 36
0.0
 17
0.0
 27
1.0
 37
0.0
 76
     0
330
23
  0
LAYOUT
  5
22
102
{ACAD_REACTORS
330
1A
102
}
330
1A
100
AcDbPlotSettings
  1

  2
none_device
  4

  6

 40
0.0
 41
0.0
 42
0.0
 43
0.0
 44
0.0
 45
0.0
 46
0.0
 47
0.0
 48
0.0
 49
0.0
140
0.0
141
0.0
142
1.0
143
1.0
 70
  1712
 72
     0
 73
     0
 74
     0
  7

 75
     0
 76
     0
 77
     2
 78
   300
147
1.0
148
0.0
149
0.0
100
AcDbLayout
  1
Model
 70
     1
 71
     0
 10
0.0
 20
0.0
 11
12.0
 21
9.0
 12
0.0
 22
0.0
 32
0.0
 14
1.000000000000000E+20
 24
1.000000000000000E+20
 34
1.000000000000000E+20
 15
-1.000000000000000E+20
 25
-1.000000000000000E+20
 35
-1.000000000000000E+20
146
0.0
 13
0.0
 23
0.0
 33
0.0
 16
1.0
 26
0.0
 36
0.0
 17
0.0
 27
1.0
 37
0.0
 76
     0
330
1F
331
29
  0
MATERIAL
  5
3D
102
{ACAD_REACTORS
330
3B
102
}
330
3B
100
AcDbMaterial
  1
ByBlock
 72
     1
 94
      127
  0
MATERIAL
  5
3C
102
{ACAD_REACTORS
330
3B
102
}
330
3B
100
AcDbMaterial
  1
ByLayer
 72
     1
 94
      127
  0
MATERIAL
  5
3E
102
{ACAD_REACTORS
330
3B
102
}
330
3B
100
AcDbMaterial
  1
Global
 72
     1
 94
      127
  0
MLINESTYLE
  5
18
102
{ACAD_REACTORS
330
17
102
}
330
17
100
AcDbMlineStyle
  2
Standard
 70
     0
  3

 62
   256
 51
90.0
 52
90.0
 71
     2
 49
0.5
 62
   256
  6
BYLAYER
 49
-0.5
 62
   256
  6
BYLAYER
  0
ACDBPLACEHOLDER
  5
F
102
{ACAD_REACTORS
330
E
102
}
330
E
  0
VISUALSTYLE
  5
2F
102
{ACAD_REACTORS
330
2A
102
}
330
2A
100
AcDbVisualStyle
  2
2dWireframe
 70
     4
177
     2
291
     0
 71
     0
176
     1
 72
     2
176
     1
 73
     0
176
     1
 90
        0
176
     1
 40
-0.6
176
     1
 41
-30.0
176
     1
 62
     5
 63
     7
421
 16777215
176
     1
 74
     1
176
     1
 91
        4
176
     1
 64
     7
176
     1
 65
   257
176
     1
 75
     1
176
     1
175
     1
176
     1
 42
1.0
176
     1
 92
        0
176
     1
 66
   257
176
     1
 43
1.0
176
     1
 76
     1
176
     1
 77
     6
176
     1
 78
     2
176
     1
 67
     7
176
     1
 79
     5
176
     1
170
     0
176
     1
171
     0
176
     1
290
     0
176
     1
 93
        1
176
     1
 44
0.0
176
     1
173
     0
176
     1
  0
VISUALSTYLE
  5
31
102
{ACAD_REACTORS
330
2A
102
}
330
2A
100
AcDbVisualStyle
  2
3D Hidden
 70
     6
177
     2
291
     0
 71
     1
176
     1
 72
     2
176
     1
 73
     2
176
     1
 90
        0
176
     1
 40
-0.6
176
     1
 41
-30.0
176
     1
 62
     5
 63
     7
421
 16777215
176
     1
 74
     2
176
     1
 91
        2
176
     1
 64
     7
176
     1
 65
   257
176
     1
 75
     2
176
     1
175
     1
176
     1
 42
40.0
176
     1
 92
        0
176
     1
 66
   257
176
     1
 43
1.0
176
     1
 76
     1
176
     1
 77
     6
176
     1
 78
     2
176
     1
 67
     7
176
     1
 79
     3
176
     1
170
     0
176
     1
171
     0
176
     1
290
     0
176
     1
 93
        1
176
     1
 44
0.0
176
     1
173
     0
176
     1
  0
VISUALSTYLE
  5
30
102
{ACAD_REACTORS
330
2A
102
}
330
2A
100
AcDbVisualStyle
  2
3dWireframe
 70
     5
177
     2
291
     0
 71
     0
176
     1
 72
     2
176
     1
 73
     0
176
     1
 90
        0
176
     1
 40
-0.6
176
     1
 41
-30.0
176
     1
 62
     5
 63
     7
421
 16777215
176
     1
 74
     1
176
     1
 91
        4
176
     1
 64
     7
176
     1
 65
   257
176
     1
 75
     1
176
     1
175
     1
176
     1
 42
1.0
176
     1
 92
        0
176
     1
 66
   257
176
     1
 43
1.0
176
     1
 76
     1
176
     1
 77
     6
176
     1
 78
     2
176
     1
 67
     7
176
     1
 79
     5
176
     1
170
     0
176
     1
171
     0
176
     1
290
     0
176
     1
 93
        1
176
     1
 44
0.0
176
     1
173
     0
176
     1
  0
VISUALSTYLE
  5
32
102
{ACAD_REACTORS
330
2A
102
}
330
2A
100
AcDbVisualStyle
  2
Basic
 70
     7
177
     2
291
     1
 71
     1
176
     1
 72
     0
176
     1
 73
     1
176
     1
 90
        0
176
     1
 40
-0.6
176
     1
 41
-30.0
176
     1
 62
     5
 63
     7
421
 16777215
176
     1
 74
     0
176
     1
 91
        4
176
     1
 64
     7
176
     1
 65
   257
176
     1
 75
     1
176
     1
175
     1
176
     1
 42
1.0
176
     1
 92
        8
176
     1
 66
     7
176
     1
 43
1.0
176
     1
 76
     1
176
     1
 77
     6
176
     1
 78
     2
176
     1
 67
     7
176
     1
 79
     5
176
     1
170
     0
176
     1
171
     0
176
     1
290
     0
176
     1
 93
        1
176
     1
 44
0.0
176
     1
173
     0
176
     1
  0
VISUALSTYLE
  5
36
102
{ACAD_REACTORS
330
2A
102
}
330
2A
100
AcDbVisualStyle
  2
Brighten
 70
    12
177
     2
291
     1
 71
     2
176
     1
 72
     2
176
     1
 73
     0
176
     1
 90
        0
176
     1
 40
-0.6
176
     1
 41
-30.0
176
     1
 62
     5
 63
     7
421
 16777215
176
     1
 74
     1
176
     1
 91
        4
176
     1
 64
     7
176
     1
 65
   257
176
     1
 75
     1
176
     1
175
     1
176
     1
 42
1.0
176
     1
 92
        8
176
     1
 66
     7
176
     1
 43
1.0
176
     1
 76
     1
176
     1
 77
     6
176
     1
 78
     2
176
     1
 67
     7
176
     1
 79
     5
176
     1
170
     0
176
     1
171
     0
176
     1
290
     0
176
     1
 93
        1
176
     1
 44
50.0
176
     1
173
     0
176
     1
  0
VISUALSTYLE
  5
3A
102
{ACAD_REACTORS
330
2A
102
}
330
2A
100
AcDbVisualStyle
  2
ColorChange
 70
    16
177
     2
291
     1
 71
     2
176
     1
 72
     2
176
     1
 73
     3
176
     1
 90
        0
176
     1
 40
-0.6
176
     1
 41
-30.0
176
     1
 62
     5
 63
     8
421
  8421504
176
     1
 74
     1
176
     1
 91
        4
176
     1
 64
     7
176
     1
 65
   257
176
     1
 75
     1
176
     1
175
     1
176
     1
 42
1.0
176
     1
 92
        8
176
     1
 66
     8
424
  8421504
176
     1
 43
1.0
176
     1
 76
     1
176
     1
 77
     6
176
     1
 78
     2
176
     1
 67
     7
176
     1
 79
     5
176
     1
170
     0
176
     1
171
     0
176
     1
290
     0
176
     1
 93
        1
176
     1
 44
0.0
176
     1
173
     0
176
     1
  0
VISUALSTYLE
  5
34
102
{ACAD_REACTORS
330
2A
102
}
330
2A
100
AcDbVisualStyle
  2
Conceptual
 70
     9
177
     2
291
     0
 71
     3
176
     1
 72
     2
176
     1
 73
     0
176
     1
 90
        0
176
     1
 40
-0.6
176
     1
 41
-30.0
176
     1
 62
     5
 63
     7
421
 16777215
176
     1
 74
     2
176
     1
 91
        2
176
     1
 64
     7
176
     1
 65
   257
176
     1
 75
     1
176
     1
175
     1
176
     1
 42
40.0
176
     1
 92
        8
176
     1
 66
     7
176
     1
 43
1.0
176
     1
 76
     1
176
     1
 77
     6
176
     1
 78
     2
176
     1
 67
     7
176
     1
 79
     3
176
     1
170
     0
176
     1
171
     0
176
     1
290
     0
176
     1
 93
        1
176
     1
 44
0.0
176
     1
173
     0
176
     1
  0
VISUALSTYLE
  5
35
102
{ACAD_REACTORS
330
2A
102
}
330
2A
100
AcDbVisualStyle
  2
Dim
 70
    11
177
     2
291
     1
 71
     2
176
     1
 72
     2
176
     1
 73
     0
176
     1
 90
        0
176
     1
 40
-0.6
176
     1
 41
-30.0
176
     1
 62
     5
 63
     7
421
 16777215
176
     1
 74
     1
176
     1
 91
        4
176
     1
 64
     7
176
     1
 65
   257
176
     1
 75
     1
176
     1
175
     1
176
     1
 42
1.0
176
     1
 92
        8
176
     1
 66
     7
176
     1
 43
1.0
176
     1
 76
     1
176
     1
 77
     6
176
     1
 78
     2
176
     1
 67
     7
176
     1
 79
     5
176
     1
170
     0
176
     1
171
     0
176
     1
290
     0
176
     1
 93
        1
176
     1
 44
-50.0
176
     1
173
     0
176
     1
  0
VISUALSTYLE
  5
39
102
{ACAD_REACTORS
330
2A
102
}
330
2A
100
AcDbVisualStyle
  2
Facepattern
 70
    15
177
     2
291
     1
 71
     2
176
     1
 72
     2
176
     1
 73
     0
176
     1
 90
        0
176
     1
 40
-0.6
176
     1
 41
-30.0
176
     1
 62
     5
 63
     7
421
 16777215
176
     1
 74
     1
176
     1
 91
        4
176
     1
 64
     7
176
     1
 65
   257
176
     1
 75
     1
176
     1
175
     1
176
     1
 42
1.0
176
     1
 92
        8
176
     1
 66
     7
176
     1
 43
1.0
176
     1
 76
     1
176
     1
 77
     6
176
     1
 78
     2
176
     1
 67
     7
176
     1
 79
     5
176
     1
170
     0
176
     1
171
     0
176
     1
290
     0
176
     1
 93
        1
176
     1
 44
0.0
176
     1
173
     0
176
     1
  0
VISUALSTYLE
  5
2B
102
{ACAD_REACTORS
330
2A
102
}
330
2A
100
AcDbVisualStyle
  2
Flat
 70
     0
177
     2
291
     1
 71
     2
176
     1
 72
     1
176
     1
 73
     1
176
     1
 90
        2
176
     1
 40
-0.6
176
     1
 41
30.0
176
     1
 62
     5
 63
     7
421
 16777215
176
     1
 74
     0
176
     1
 91
        4
176
     1
 64
     7
176
     1
 65
   257
176
     1
 75
     1
176
     1
175
     1
176
     1
 42
1.0
176
     1
 92
        8
176
     1
 66
     7
176
     1
 43
1.0
176
     1
 76
     1
176
     1
 77
     6
176
     1
 78
     2
176
     1
 67
     7
176
     1
 79
     5
176
     1
170
     0
176
     1
171
     0
176
     1
290
     0
176
     1
 93
       13
176
     1
 44
0.0
176
     1
173
     0
176
     1
  0
VISUALSTYLE
  5
2C
102
{ACAD_REACTORS
330
2A
102
}
330
2A
100
AcDbVisualStyle
  2
FlatWithEdges
 70
     1
177
     2
291
     1
 71
     2
176
     1
 72
     1
176
     1
 73
     1
176
     1
 90
        2
176
     1
 40
-0.6
176
     1
 41
30.0
176
     1
 62
     5
 63
     7
421
 16777215
176
     1
 74
     1
176
     1
 91
        4
176
     1
 64
     7
176
     1
 65
   257
176
     1
 75
     1
176
     1
175
     1
176
     1
 42
1.0
176
     1
 92
        0
176
     1
 66
   257
176
     1
 43
1.0
176
     1
 76
     1
176
     1
 77
     6
176
     1
 78
     2
176
     1
 67
     7
176
     1
 79
     5
176
     1
170
     0
176
     1
171
     0
176
     1
290
     0
176
     1
 93
       13
176
     1
 44
0.0
176
     1
173
     0
176
     1
  0
VISUALSTYLE
  5
2D
102
{ACAD_REACTORS
330
2A
102
}
330
2A
100
AcDbVisualStyle
  2
Gouraud
 70
     2
177
     2
291
     1
 71
     2
176
     1
 72
     2
176
     1
 73
     1
176
     1
 90
        2
176
     1
 40
-0.6
176
     1
 41
30.0
176
     1
 62
     5
 63
     7
421
 16777215
176
     1
 74
     0
176
     1
 91
        4
176
     1
 64
     7
176
     1
 65
   257
176
     1
 75
     1
176
     1
175
     1
176
     1
 42
1.0
176
     1
 92
        0
176
     1
 66
     7
176
     1
 43
1.0
176
     1
 76
     1
176
     1
 77
     6
176
     1
 78
     2
176
     1
 67
     7
176
     1
 79
     5
176
     1
170
     0
176
     1
171
     0
176
     1
290
     0
176
     1
 93
       13
176
     1
 44
0.0
176
     1
173
     0
176
     1
  0
VISUALSTYLE
  5
2E
102
{ACAD_REACTORS
330
2A
102
}
330
2A
100
AcDbVisualStyle
  2
GouraudWithEdges
 70
     3
177
     2
291
     1
 71
     2
176
     1
 72
     2
176
     1
 73
     1
176
     1
 90
        2
176
     1
 40
-0.6
176
     1
 41
30.0
176
     1
 62
     5
 63
     7
421
 16777215
176
     1
 74
     1
176
     1
 91
        4
176
     1
 64
     7
176
     1
 65
   257
176
     1
 75
     1
176
     1
175
     1
176
     1
 42
1.0
176
     1
 92
        0
176
     1
 66
   257
176
     1
 43
1.0
176
     1
 76
     1
176
     1
 77
     6
176
     1
 78
     2
176
     1
 67
     7
176
     1
 79
     5
176
     1
170
     0
176
     1
171
     0
176
     1
290
     0
176
     1
 93
       13
176
     1
 44
0.0
176
     1
173
     0
176
     1
  0
VISUALSTYLE
  5
38
102
{ACAD_REACTORS
330
2A
102
}
330
2A
100
AcDbVisualStyle
  2
Linepattern
 70
    14
177
     2
291
     1
 71
     2
176
     1
 72
     2
176
     1
 73
     0
176
     1
 90
        0
176
     1
 40
-0.6
176
     1
 41
-30.0
176
     1
 62
     5
 63
     7
421
 16777215
176
     1
 74
     1
176
     1
 91
        4
176
     1
 64
     7
176
     1
 65
   257
176
     1
 75
     7
176
     1
175
     7
176
     1
 42
1.0
176
     1
 92
        8
176
     1
 66
     7
176
     1
 43
1.0
176
     1
 76
     1
176
     1
 77
     6
176
     1
 78
     2
176
     1
 67
     7
176
     1
 79
     5
176
     1
170
     0
176
     1
171
     0
176
     1
290
     0
176
     1
 93
        1
176
     1
 44
0.0
176
     1
173
     0
176
     1
  0
VISUALSTYLE
  5
33
102
{ACAD_REACTORS
330
2A
102
}
330
2A
100
AcDbVisualStyle
  2
Realistic
 70
     8
177
     2
291
     0
 71
     2
176
     1
 72
     2
176
     1
 73
     0
176
     1
 90
        0
176
     1
 40
-0.6
176
     1
 41
-30.0
176
     1
 62
     5
 63
     7
421
 16777215
176
     1
 74
     1
176
     1
 91
        0
176
     1
 64
     7
176
     1
 65
   257
176
     1
 75
     1
176
     1
175
     1
176
     1
 42
1.0
176
     1
 92
        8
176
     1
 66
     8
424
  7895160
176
     1
 43
1.0
176
     1
 76
     1
176
     1
 77
     6
176
     1
 78
     2
176
     1
 67
     7
176
     1
 79
     5
176
     1
170
     0
176
     1
171
     0
176
     1
290
     0
176
     1
 93
       13
176
     1
 44
0.0
176
     1
173
     0
176
     1
  0
VISUALSTYLE
  5
37
102
{ACAD_REACTORS
330
2A
102
}
330
2A
100
AcDbVisualStyle
  2
Thicken
 70
    13
177
     2
291
     1
 71
     2
176
     1
 72
     2
176
     1
 73
     0
176
     1
 90
        0
176
     1
 40
-0.6
176
     1
 41
-30.0
176
     1
 62
     5
 63
     7
421
 16777215
176
     1
 74
     1
176
     1
 91
        4
176
     1
 64
     7
176
     1
 65
   257
176
     1
 75
     1
176
     1
175
     1
176
     1
 42
1.0
176
     1
 92
       12
176
     1
 66
     7
176
     1
 43
1.0
176
     1
 76
     1
176
     1
 77
     6
176
     1
 78
     2
176
     1
 67
     7
176
     1
 79
     5
176
     1
170
     0
176
     1
171
     0
176
     1
290
     0
176
     1
 93
        1
176
     1
 44
0.0
176
     1
173
     0
176
     1
  0
ENDSEC
  0
EOF
