  0
SECTION
  2
HEADER
  9
$ACADVER
  1
AC1024
  9
$ACADMAINTVER
 70
     6
  9
$DWGCODEPAGE
  3
UNDEFINED
  9
$INSBASE
 10
0.0
 20
0.0
 30
0.0
  9
$EXTMIN
 10
1.000000000000000E+20
 20
1.000000000000000E+20
 30
1.000000000000000E+20
  9
$EXTMAX
 10
-1.000000000000000E+20
 20
-1.000000000000000E+20
 30
-1.000000000000000E+20
  9
$LIMMIN
 10
0.0
 20
0.0
  9
$LIMMAX
 10
12.0
 20
9.0
  9
$ORTHOMODE
 70
     0
  9
$REGENMODE
 70
     1
  9
$FILLMODE
 70
     1
  9
$QTEXTMODE
 70
     0
  9
$MIRRTEXT
 70
     1
  9
$LTSCALE
 40
1.0
  9
$ATTMODE
 70
     1
  9
$TEXTSIZE
 40
0.2
  9
$TRACEWID
 40
0.05
  9
$TEXTSTYLE
  7
Standard
  9
$CLAYER
  8
0
  9
$CELTYPE
  6
ByLayer
  9
$CECOLOR
 62
   256
  9
$CELTSCALE
 40
1.0
  9
$DISPSILH
 70
     0
  9
$DIMSCALE
 40
1.0
  9
$DIMASZ
 40
0.18
  9
$DIMEXO
 40
0.0625
  9
$DIMDLI
 40
0.38
  9
$DIMRND
 40
0.0
  9
$DIMDLE
 40
0.0
  9
$DIMEXE
 40
0.18
  9
$DIMTP
 40
0.0
  9
$DIMTM
 40
0.0
  9
$DIMTXT
 40
0.18
  9
$DIMCEN
 40
0.09
  9
$DIMTSZ
 40
0.0
  9
$DIMTOL
 70
     0
  9
$DIMLIM
 70
     0
  9
$DIMTIH
 70
     1
  9
$DIMTOH
 70
     1
  9
$DIMSE1
 70
     0
  9
$DIMSE2
 70
     0
  9
$DIMTAD
 70
     0
  9
$DIMZIN
 70
     0
  9
$DIMBLK
  1

  9
$DIMASO
 70
     1
  9
$DIMSHO
 70
     1
  9
$DIMPOST
  1

  9
$DIMAPOST
  1

  9
$DIMALT
 70
     0
  9
$DIMALTD
 70
     2
  9
$DIMALTF
 40
25.4
  9
$DIMLFAC
 40
1.0
  9
$DIMTOFL
 70
     0
  9
$DIMTVP
 40
0.0
  9
$DIMTIX
 70
     0
  9
$DIMSOXD
 70
     0
  9
$DIMSAH
 70
     0
  9
$DIMBLK1
  1

  9
$DIMBLK2
  1

  9
$DIMSTYLE
  2
Standard
  9
$DIMCLRD
 70
     0
  9
$DIMCLRE
 70
     0
  9
$DIMCLRT
 70
     0
  9
$DIMTFAC
 40
1.0
  9
$DIMGAP
 40
0.09
  9
$DIMJUST
 70
     0
  9
$DIMSD1
 70
     0
  9
$DIMSD2
 70
     0
  9
$DIMTOLJ
 70
     1
  9
$DIMTZIN
 70
     0
  9
$DIMALTZ
 70
     0
  9
$DIMALTTZ
 70
     0
  9
$DIMUPT
 70
     0
  9
$DIMDEC
 70
     4
  9
$DIMTDEC
 70
     4
  9
$DIMALTU
 70
     2
  9
$DIMALTTD
 70
     2
  9
$DIMTXSTY
  7
Standard
  9
$DIMAUNIT
 70
     0
  9
$DIMADEC
 70
     0
  9
$DIMALTRND
 40
0.0
  9
$DIMAZIN
 70
     0
  9
$DIMDSEP
 70
    46
  9
$DIMATFIT
 70
     3
  9
$DIMFRAC
 70
     0
  9
$DIMLDRBLK
  1

  9
$DIMLUNIT
 70
     2
  9
$DIMLWD
 70
    -2
  9
$DIMLWE
 70
    -2
  9
$DIMTMOVE
 70
     0
  9
$DIMFXL
 40
1.0
  9
$DIMFXLON
 70
     0
  9
$DIMJOGANG
 40
0.7853981633974483
  9
$DIMTFILL
 70
     0
  9
$DIMTFILLCLR
 70
     0
  9
$DIMARCSYM
 70
     0
  9
$DIMLTYPE
  6

  9
$DIMLTEX1
  6

  9
$DIMLTEX2
  6

  9
$DIMTXTDIRECTION
 70
     0
  9
$LUNITS
 70
     2
  9
$LUPREC
 70
     4
  9
$SKETCHINC
 40
0.1
  9
$FILLETRAD
 40
0.5
  9
$AUNITS
 70
     0
  9
$AUPREC
 70
     0
  9
$MENU
  1
.
  9
$ELEVATION
 40
0.0
  9
$PELEVATION
 40
0.0
  9
$THICKNESS
 40
0.0
  9
$LIMCHECK
 70
     0
  9
$CHAMFERA
 40
0.5
  9
$CHAMFERB
 40
0.5
  9
$CHAMFERC
 40
1.0
  9
$CHAMFERD
 40
0.0
  9
$SKPOLY
 70
     0
  9
$TDCREATE
 40
2457917.648344907
  9
$TDUCREATE
 40
2457917.273344907
  9
$TDUPDATE
 40
2457917.648344907
  9
$TDUUPDATE
 40
2457917.273344907
  9
$TDINDWG
 40
0.0000000116
  9
$TDUSRTIMER
 40
0.0000000116
  9
$USRTIMER
 70
     1
  9
$ANGBASE
 50
0.0
  9
$ANGDIR
 70
     0
  9
$PDMODE
 70
     0
  9
$PDSIZE
 40
0.0
  9
$PLINEWID
 40
0.0
  9
$SPLFRAME
 70
     0
  9
$SPLINETYPE
 70
     6
  9
$SPLINESEGS
 70
     8
  9
$HANDSEED
  5
D6
  9
$SURFTAB1
 70
     6
  9
$SURFTAB2
 70
     6
  9
$SURFTYPE
 70
     6
  9
$SURFU
 70
     6
  9
$SURFV
 70
     6
  9
$UCSBASE
  2

  9
$UCSNAME
  2

  9
$UCSORG
 10
0.0
 20
0.0
 30
0.0
  9
$UCSXDIR
 10
1.0
 20
0.0
 30
0.0
  9
$UCSYDIR
 10
0.0
 20
1.0
 30
0.0
  9
$UCSORTHOREF
  2

  9
$UCSORTHOVIEW
 70
     0
  9
$UCSORGTOP
 10
0.0
 20
0.0
 30
0.0
  9
$UCSORGBOTTOM
 10
0.0
 20
0.0
 30
0.0
  9
$UCSORGLEFT
 10
0.0
 20
0.0
 30
0.0
  9
$UCSORGRIGHT
 10
0.0
 20
0.0
 30
0.0
  9
$UCSORGFRONT
 10
0.0
 20
0.0
 30
0.0
  9
$UCSORGBACK
 10
0.0
 20
0.0
 30
0.0
  9
$PUCSBASE
  2

  9
$PUCSNAME
  2

  9
$PUCSORG
 10
0.0
 20
0.0
 30
0.0
  9
$PUCSXDIR
 10
1.0
 20
0.0
 30
0.0
  9
$PUCSYDIR
 10
0.0
 20
1.0
 30
0.0
  9
$PUCSORTHOREF
  2

  9
$PUCSORTHOVIEW
 70
     0
  9
$PUCSORGTOP
 10
0.0
 20
0.0
 30
0.0
  9
$PUCSORGBOTTOM
 10
0.0
 20
0.0
 30
0.0
  9
$PUCSORGLEFT
 10
0.0
 20
0.0
 30
0.0
  9
$PUCSORGRIGHT
 10
0.0
 20
0.0
 30
0.0
  9
$PUCSORGFRONT
 10
0.0
 20
0.0
 30
0.0
  9
$PUCSORGBACK
 10
0.0
 20
0.0
 30
0.0
  9
$USERI1
 70
     0
  9
$USERI2
 70
     0
  9
$USERI3
 70
     0
  9
$USERI4
 70
     0
  9
$USERI5
 70
     0
  9
$USERR1
 40
0.0
  9
$USERR2
 40
0.0
  9
$USERR3
 40
0.0
  9
$USERR4
 40
0.0
  9
$USERR5
 40
0.0
  9
$WORLDVIEW
 70
     1
  9
$SHADEDGE
 70
     3
  9
$SHADEDIF
 70
    70
  9
$TILEMODE
 70
     1
  9
$MAXACTVP
 70
    64
  9
$PINSBASE
 10
0.0
 20
0.0
 30
0.0
  9
$PLIMCHECK
 70
     0
  9
$PEXTMIN
 10
1.000000000000000E+20
 20
1.000000000000000E+20
 30
1.000000000000000E+20
  9
$PEXTMAX
 10
-1.000000000000000E+20
 20
-1.000000000000000E+20
 30
-1.000000000000000E+20
  9
$PLIMMIN
 10
0.0
 20
0.0
  9
$PLIMMAX
 10
12.0
 20
9.0
  9
$UNITMODE
 70
     0
  9
$VISRETAIN
 70
     1
  9
$PLINEGEN
 70
     0
  9
$PSLTSCALE
 70
     1
  9
$TREEDEPTH
 70
  3020
  9
$CMLSTYLE
  2
Standard
  9
$CMLJUST
 70
     0
  9
$CMLSCALE
 40
1.0
  9
$PROXYGRAPHICS
 70
     1
  9
$MEASUREMENT
 70
     0
  9
$CELWEIGHT
370
    -1
  9
$ENDCAPS
280
     0
  9
$JOINSTYLE
280
     0
  9
$LWDISPLAY
290
     1
  9
$INSUNITS
 70
     1
  9
$HYPERLINKBASE
  1

  9
$STYLESHEET
  1

  9
$XEDIT
290
     1
  9
$CEPSNTYPE
380
     0
  9
$PSTYLEMODE
290
     1
  9
$FINGERPRINTGUID
  2
{4C03B3F3-7EC4-E15F-9785-817D5D39AFE6}
  9
$VERSIONGUID
  2
{FAEB1C32-E019-11D5-929B-00C0DF256EC4}
  9
$EXTNAMES
290
     1
  9
$PSVPSCALE
 40
0.0
  9
$OLESTARTUP
290
     0
  9
$SORTENTS
280
   127
  9
$INDEXCTL
280
     0
  9
$HIDETEXT
280
     1
  9
$XCLIPFRAME
280
     2
  9
$HALOGAP
280
     0
  9
$OBSCOLOR
 70
   257
  9
$OBSLTYPE
280
     0
  9
$INTERSECTIONDISPLAY
280
     0
  9
$INTERSECTIONCOLOR
 70
   257
  9
$DIMASSOC
280
     2
  9
$PROJECTNAME
  1

  9
$CAMERADISPLAY
290
     0
  9
$LENSLENGTH
 40
50.0
  9
$CAMERAHEIGHT
 40
0.0
  9
$STEPSPERSEC
 40
2.0
  9
$STEPSIZE
 40
6.0
  9
$3DDWFPREC
 40
2.0
  9
$PSOLWIDTH
 40
0.25
  9
$PSOLHEIGHT
 40
4.0
  9
$LOFTANG1
 40
1.570796326794897
  9
$LOFTANG2
 40
1.570796326794897
  9
$LOFTMAG1
 40
0.0
  9
$LOFTMAG2
 40
0.0
  9
$LOFTPARAM
 70
     7
  9
$LOFTNORMALS
280
     1
  9
$LATITUDE
 40
37.795
  9
$LONGITUDE
 40
-122.394
  9
$NORTHDIRECTION
 40
0.0
  9
$TIMEZONE
 70
 -8000
  9
$LIGHTGLYPHDISPLAY
280
     1
  9
$TILEMODELIGHTSYNCH
280
     1
  9
$CMATERIAL
347
3C
  9
$SOLIDHIST
280
     1
  9
$SHOWHIST
280
     1
  9
$DWFFRAME
280
     2
  9
$DGNFRAME
280
     2
  9
$REALWORLDSCALE
290
     1
  9
$INTERFERECOLOR
 62
   256
  9
$CSHADOW
280
     0
  9
$SHADOWPLANELOCATION
 40
0.0
  0
ENDSEC
  0
SECTION
  2
CLASSES
  0
CLASS
  1
ACDBDICTIONARYWDFLT
  2
AcDbDictionaryWithDefault
  3
ObjectDBX Classes
 90
        0
 91
        4
280
     0
281
     0
  0
CLASS
  1
VISUALSTYLE
  2
AcDbVisualStyle
  3
ObjectDBX Classes
 90
     4095
 91
        4
280
     0
281
     0
  0
CLASS
  1
MATERIAL
  2
AcDbMaterial
  3
ObjectDBX Classes
 90
     1153
 91
        4
280
     0
281
     0
  0
CLASS
  1
SUN
  2
AcDbSun
  3
SCENEOE
 90
     1024
 91
        4
280
     0
281
     0
  0
ENDSEC
  0
SECTION
  2
TABLES
  0
TABLE
  2
VPORT
  5
8
330
0
100
AcDbSymbolTable
 70
     1
  0
VPORT
  5
29
330
8
100
AcDbSymbolTableRecord
100
AcDbViewportTableRecord
  2
*Active
 70
     0
 10
0.0
 20
0.0
 11
1.0
 21
1.0
 12
0.0
 22
0.0
 13
0.0
 23
0.0
 14
0.5
 24
0.5
 15
0.5
 25
0.5
 16
0.0
 26
0.0
 36
1.0
 17
91.00082462281999
 27
-128.4993055234307
 37
0.0
 40
256.9986110468615
 41
0.7081814508812795
 42
50.0
 43
0.0
 44
0.0
 50
0.0
 51
0.0
 71
     0
 72
   100
 73
     1
 74
     3
 75
     0
 76
     0
 77
     0
 78
     0
281
     0
 65
     1
110
0.0
120
0.0
130
0.0
111
1.0
121
0.0
131
0.0
112
0.0
122
1.0
132
0.0
 79
     0
146
0.0
 60
     3
 61
     5
292
     1
282
     1
141
0.0
142
0.0
 63
   250
361
3F
  0
ENDTAB
  0
TABLE
  2
LTYPE
  5
5
330
0
100
AcDbSymbolTable
 70
     1
  0
LTYPE
  5
14
330
5
100
AcDbSymbolTableRecord
100
AcDbLinetypeTableRecord
  2
ByBlock
 70
     0
  3

 72
    65
 73
     0
 40
0.0
  0
LTYPE
  5
15
330
5
100
AcDbSymbolTableRecord
100
AcDbLinetypeTableRecord
  2
ByLayer
 70
     0
  3

 72
    65
 73
     0
 40
0.0
  0
LTYPE
  5
16
330
5
100
AcDbSymbolTableRecord
100
AcDbLinetypeTableRecord
  2
Continuous
 70
     0
  3
Solid line
 72
    65
 73
     0
 40
0.0
  0
ENDTAB
  0
TABLE
  2
LAYER
  5
2
330
0
100
AcDbSymbolTable
 70
     2
  0
LAYER
  5
10
330
2
100
AcDbSymbolTableRecord
100
AcDbLayerTableRecord
  2
0
 70
     0
 62
     7
  6
Continuous
370
    -3
390
F
347
3E
  0
LAYER
  5
40
330
2
100
AcDbSymbolTableRecord
100
AcDbLayerTableRecord
  2
_U+30EC_U+30A4_U+30E4_U+30FC 1
 70
     0
 62
     7
  6
Continuous
370
    -3
390
F
347
3E
  0
ENDTAB
  0
TABLE
  2
STYLE
  5
3
330
0
100
AcDbSymbolTable
 70
     1
  0
STYLE
  5
11
330
3
100
AcDbSymbolTableRecord
100
AcDbTextStyleTableRecord
  2
Standard
 70
     0
 40
0.0
 41
1.0
 50
0.0
 71
     0
 42
0.2
  3
txt
  4

  0
ENDTAB
  0
TABLE
  2
VIEW
  5
6
330
0
100
AcDbSymbolTable
 70
     0
  0
ENDTAB
  0
TABLE
  2
UCS
  5
7
330
0
100
AcDbSymbolTable
 70
     0
  0
ENDTAB
  0
TABLE
  2
APPID
  5
9
330
0
100
AcDbSymbolTable
 70
     1
  0
APPID
  5
12
330
9
100
AcDbSymbolTableRecord
100
AcDbRegAppTableRecord
  2
ACAD
 70
     0
  0
ENDTAB
  0
TABLE
  2
DIMSTYLE
  5
A
330
0
100
AcDbSymbolTable
 70
     1
100
AcDbDimStyleTable
  0
DIMSTYLE
105
27
330
A
100
AcDbSymbolTableRecord
100
AcDbDimStyleTableRecord
  2
Standard
 70
     0
178
     0
340
11
  0
ENDTAB
  0
TABLE
  2
BLOCK_RECORD
  5
1
330
0
100
AcDbSymbolTable
 70
     4
  0
BLOCK_RECORD
  5
1F
330
1
100
AcDbSymbolTableRecord
100
AcDbBlockTableRecord
  2
*Model_Space
340
22
 70
     0
280
     1
281
     0
  0
BLOCK_RECORD
  5
1B
330
1
100
AcDbSymbolTableRecord
100
AcDbBlockTableRecord
  2
*Paper_Space
340
1E
 70
     0
280
     1
281
     0
  0
BLOCK_RECORD
  5
23
330
1
100
AcDbSymbolTableRecord
100
AcDbBlockTableRecord
  2
*Paper_Space0
340
26
 70
     0
280
     1
281
     0
  0
BLOCK_RECORD
  5
41
330
1
100
AcDbSymbolTableRecord
100
AcDbBlockTableRecord
  2
block 2
340
0
102
{BLKREFS
331
42
102
}
 70
     0
280
     1
281
     0
  0
BLOCK_RECORD
  5
A5
330
1
100
AcDbSymbolTableRecord
100
AcDbBlockTableRecord
  2
block 3
340
0
102
{BLKREFS
331
A6
102
}
 70
     0
280
     1
281
     0
  0
BLOCK_RECORD
  5
C6
330
1
100
AcDbSymbolTableRecord
100
AcDbBlockTableRecord
  2
block 4
340
0
102
{BLKREFS
331
C7
102
}
 70
     0
280
     1
281
     0
  0
ENDTAB
  0
ENDSEC
  0
SECTION
  2
BLOCKS
  0
BLOCK
  5
20
330
1F
100
AcDbEntity
  8
0
100
AcDbBlockBegin
  2
*Model_Space
 70
     0
 10
0.0
 20
0.0
 30
0.0
  3
*Model_Space
  1

  0
ENDBLK
  5
21
330
1F
100
AcDbEntity
  8
0
100
AcDbBlockEnd
  0
BLOCK
  5
1C
330
1B
100
AcDbEntity
 67
     1
  8
0
100
AcDbBlockBegin
  2
*Paper_Space
 70
     0
 10
0.0
 20
0.0
 30
0.0
  3
*Paper_Space
  1

  0
ENDBLK
  5
1D
330
1B
100
AcDbEntity
 67
     1
  8
0
100
AcDbBlockEnd
  0
BLOCK
  5
24
330
23
100
AcDbEntity
  8
0
100
AcDbBlockBegin
  2
*Paper_Space0
 70
     0
 10
0.0
 20
0.0
 30
0.0
  3
*Paper_Space0
  1

  0
ENDBLK
  5
25
330
23
100
AcDbEntity
  8
0
100
AcDbBlockEnd
  0
BLOCK
  5
43
330
41
100
AcDbEntity
  8
0
100
AcDbBlockBegin
  2
block 2
 70
     0
 10
0.0
 20
0.0
 30
0.0
  3
block 2
  1

  0
SPLINE
  5
45
330
41
100
AcDbEntity
  8
_U+30EC_U+30A4_U+30E4_U+30FC 1
370
     0
100
AcDbSpline
210
0.0
220
0.0
230
1.0
 70
    11
 71
     3
 72
    35
 73
    31
 74
     0
 42
0.0000000001
 43
0.0000000001
 12
1.0
 22
0.0
 32
0.0
 13
1.0
 23
0.0
 33
0.0
 40
0.0
 40
0.0
 40
0.0
 40
0.0
 40
1.0
 40
1.0
 40
1.0
 40
2.0
 40
2.0
 40
2.0
 40
3.0
 40
3.0
 40
3.0
 40
4.0
 40
4.0
 40
4.0
 40
5.0
 40
5.0
 40
5.0
 40
6.0
 40
6.0
 40
6.0
 40
7.0
 40
7.0
 40
7.0
 40
8.0
 40
8.0
 40
8.0
 40
9.0
 40
9.0
 40
9.0
 40
10.0
 40
10.0
 40
10.0
 40
10.0
 10
68.988037092128
 20
-119.5861544839924
 30
0.0
 10
69.4619099761241
 20
-119.3970187418521
 30
0.0
 10
70.28563230664734
 20
-118.8554497315709
 30
0.0
 10
70.67199976531812
 20
-117.7781683733332
 30
0.0
 10
70.67199976531812
 20
-117.7781683733332
 30
0.0
 10
69.13462590502537
 20
-117.7781683733332
 30
0.0
 10
69.13462590502537
 20
-117.7781683733332
 30
0.0
 10
69.13462590502537
 20
-117.7781683733332
 30
0.0
 10
69.13462590502537
 20
-117.5356336511717
 30
0.0
 10
69.13462590502537
 20
-117.5356336511717
 30
0.0
 10
69.13462590502537
 20
-117.5356336511717
 30
0.0
 10
71.01892088068277
 20
-117.5356336511717
 30
0.0
 10
71.01892088068277
 20
-117.5356336511717
 30
0.0
 10
70.9145344874797
 20
-117.9614474531485
 30
0.0
 10
70.72281492372555
 20
-118.3617675485346
 30
0.0
 10
70.46047090252378
 20
-118.7117892498359
 30
0.0
 10
70.80170761033777
 20
-118.9853298313648
 30
0.0
 10
71.13174775782471
 20
-119.2729953043831
 30
0.0
 10
71.44197860627145
 20
-119.5833984076042
 30
0.0
 10
71.44197860627145
 20
-119.5833984076042
 30
0.0
 10
71.23337807463957
 20
-119.7921711940103
 30
0.0
 10
71.23337807463957
 20
-119.7921711940103
 30
0.0
 10
71.0752481918666
 20
-119.6144042669714
 30
0.0
 10
70.86940373662293
 20
-119.3915065890757
 30
0.0
 10
70.30802542730147
 20
-118.9033365588158
 30
0.0
 10
69.98935409491585
 20
-119.2816080430963
 30
0.0
 10
69.60005830508263
 20
-119.6002793754819
 30
0.0
 10
69.1432386437385
 20
-119.7949272703985
 30
0.0
 10
69.1432386437385
 20
-119.7949272703985
 30
0.0
 10
68.988037092128
 20
-119.5861544839924
 30
0.0
 10
68.988037092128
 20
-119.5861544839924
 30
0.0
  0
HATCH
  5
46
330
41
100
AcDbEntity
  8
_U+30EC_U+30A4_U+30E4_U+30FC 1
 62
   179
420
  2234388
100
AcDbHatch
 10
0.0
 20
0.0
 30
0.0
210
0.0
220
0.0
230
1.0
  2
SOLID
 70
     1
 71
     0
 91
        1
 92
        1
 93
        1
 72
     4
 94
        3
 73
     0
 74
     1
 95
       35
 96
       31
 40
0.0
 40
0.0
 40
0.0
 40
0.0
 40
1.0
 40
1.0
 40
1.0
 40
2.0
 40
2.0
 40
2.0
 40
3.0
 40
3.0
 40
3.0
 40
4.0
 40
4.0
 40
4.0
 40
5.0
 40
5.0
 40
5.0
 40
6.0
 40
6.0
 40
6.0
 40
7.0
 40
7.0
 40
7.0
 40
8.0
 40
8.0
 40
8.0
 40
9.0
 40
9.0
 40
9.0
 40
10.0
 40
10.0
 40
10.0
 40
10.0
 10
68.988037092128
 20
-119.5861544839924
 10
69.4619099761241
 20
-119.3970187418521
 10
70.28563230664734
 20
-118.8554497315709
 10
70.67199976531812
 20
-117.7781683733332
 10
70.67199976531812
 20
-117.7781683733332
 10
69.13462590502537
 20
-117.7781683733332
 10
69.13462590502537
 20
-117.7781683733332
 10
69.13462590502537
 20
-117.7781683733332
 10
69.13462590502537
 20
-117.5356336511717
 10
69.13462590502537
 20
-117.5356336511717
 10
69.13462590502537
 20
-117.5356336511717
 10
71.01892088068277
 20
-117.5356336511717
 10
71.01892088068277
 20
-117.5356336511717
 10
70.9145344874797
 20
-117.9614474531485
 10
70.72281492372555
 20
-118.3617675485346
 10
70.46047090252378
 20
-118.7117892498359
 10
70.80170761033777
 20
-118.9853298313648
 10
71.13174775782471
 20
-119.2729953043831
 10
71.44197860627145
 20
-119.5833984076042
 10
71.44197860627145
 20
-119.5833984076042
 10
71.23337807463957
 20
-119.7921711940103
 10
71.23337807463957
 20
-119.7921711940103
 10
71.0752481918666
 20
-119.6144042669714
 10
70.86940373662293
 20
-119.3915065890757
 10
70.30802542730147
 20
-118.9033365588158
 10
69.98935409491585
 20
-119.2816080430963
 10
69.60005830508263
 20
-119.6002793754819
 10
69.1432386437385
 20
-119.7949272703985
 10
69.1432386437385
 20
-119.7949272703985
 10
68.988037092128
 20
-119.5861544839924
 10
68.988037092128
 20
-119.5861544839924
 97
        0
 97
        0
 75
     2
 76
     1
 98
        0
  0
SPLINE
  5
47
330
41
100
AcDbEntity
  8
_U+30EC_U+30A4_U+30E4_U+30FC 1
370
     0
100
AcDbSpline
210
0.0
220
0.0
230
1.0
 70
    11
 71
     3
 72
    29
 73
    25
 74
     0
 42
0.0000000001
 43
0.0000000001
 12
1.0
 22
0.0
 32
0.0
 13
1.0
 23
0.0
 33
0.0
 40
0.0
 40
0.0
 40
0.0
 40
0.0
 40
1.0
 40
1.0
 40
1.0
 40
2.0
 40
2.0
 40
2.0
 40
3.0
 40
3.0
 40
3.0
 40
4.0
 40
4.0
 40
4.0
 40
5.0
 40
5.0
 40
5.0
 40
6.0
 40
6.0
 40
6.0
 40
7.0
 40
7.0
 40
7.0
 40
8.0
 40
8.0
 40
8.0
 40
8.0
 10
74.21355792415494
 20
-118.2322319582892
 30
0.0
 10
74.21355792415494
 20
-118.2322319582892
 30
0.0
 10
74.21355792415494
 20
-118.477522756839
 30
0.0
 10
74.21355792415494
 20
-118.477522756839
 30
0.0
 10
74.21355792415494
 20
-118.477522756839
 30
0.0
 10
73.25444334106139
 20
-118.477522756839
 30
0.0
 10
73.25444334106139
 20
-118.477522756839
 30
0.0
 10
73.2263658128566
 20
-119.2785074571595
 30
0.0
 10
72.93008760112512
 20
-119.670559323381
 30
0.0
 10
72.11222193292681
 20
-119.8342013589303
 30
0.0
 10
72.11222193292681
 20
-119.8342013589303
 30
0.0
 10
71.99922280101062
 20
-119.6144042669714
 30
0.0
 10
71.99922280101062
 20
-119.6144042669714
 30
0.0
 10
72.71287433078012
 20
-119.4958929822788
 30
0.0
 10
72.9724622755937
 20
-119.1630967584037
 30
0.0
 10
72.98365883592075
 20
-118.477522756839
 30
0.0
 10
72.98365883592075
 20
-118.477522756839
 30
0.0
 10
71.8583183956639
 20
-118.477522756839
 30
0.0
 10
71.8583183956639
 20
-118.477522756839
 30
0.0
 10
71.8583183956639
 20
-118.477522756839
 30
0.0
 10
71.8583183956639
 20
-118.2322319582892
 30
0.0
 10
71.8583183956639
 20
-118.2322319582892
 30
0.0
 10
71.8583183956639
 20
-118.2322319582892
 30
0.0
 10
74.21355792415494
 20
-118.2322319582892
 30
0.0
 10
74.21355792415494
 20
-118.2322319582892
 30
0.0
  0
POLYLINE
  5
48
330
41
100
AcDbEntity
  8
_U+30EC_U+30A4_U+30E4_U+30FC 1
370
     0
100
AcDb2dPolyline
 66
     1
 10
0.0
 20
0.0
 30
0.0
  0
VERTEX
  5
49
330
48
100
AcDbEntity
  8
_U+30EC_U+30A4_U+30E4_U+30FC 1
370
     0
100
AcDbVertex
100
AcDb2dVertex
 10
73.97946368593222
 20
-117.4932589767031
 30
0.0
  0
VERTEX
  5
4A
330
48
100
AcDbEntity
  8
_U+30EC_U+30A4_U+30E4_U+30FC 1
370
     0
100
AcDbVertex
100
AcDb2dVertex
 10
73.97946368593222
 20
-117.7357936988647
 30
0.0
  0
VERTEX
  5
4B
330
48
100
AcDbEntity
  8
_U+30EC_U+30A4_U+30E4_U+30FC 1
370
     0
100
AcDbVertex
100
AcDb2dVertex
 10
72.09241263388662
 20
-117.7357936988647
 30
0.0
  0
VERTEX
  5
4C
330
48
100
AcDbEntity
  8
_U+30EC_U+30A4_U+30E4_U+30FC 1
370
     0
100
AcDbVertex
100
AcDb2dVertex
 10
72.09241263388662
 20
-117.4932589767031
 30
0.0
  0
VERTEX
  5
4D
330
48
100
AcDbEntity
  8
_U+30EC_U+30A4_U+30E4_U+30FC 1
370
     0
100
AcDbVertex
100
AcDb2dVertex
 10
73.97946368593222
 20
-117.4932589767031
 30
0.0
  0
SEQEND
  5
4E
330
48
100
AcDbEntity
  8
_U+30EC_U+30A4_U+30E4_U+30FC 1
370
     0
  0
HATCH
  5
4F
330
41
100
AcDbEntity
  8
_U+30EC_U+30A4_U+30E4_U+30FC 1
 62
   179
420
  2234388
100
AcDbHatch
 10
0.0
 20
0.0
 30
0.0
210
0.0
220
0.0
230
1.0
  2
SOLID
 70
     1
 71
     0
 91
        2
 92
        1
 93
        1
 72
     4
 94
        3
 73
     0
 74
     1
 95
       29
 96
       25
 40
0.0
 40
0.0
 40
0.0
 40
0.0
 40
1.0
 40
1.0
 40
1.0
 40
2.0
 40
2.0
 40
2.0
 40
3.0
 40
3.0
 40
3.0
 40
4.0
 40
4.0
 40
4.0
 40
5.0
 40
5.0
 40
5.0
 40
6.0
 40
6.0
 40
6.0
 40
7.0
 40
7.0
 40
7.0
 40
8.0
 40
8.0
 40
8.0
 40
8.0
 10
74.21355792415494
 20
-118.2322319582892
 10
74.21355792415494
 20
-118.2322319582892
 10
74.21355792415494
 20
-118.477522756839
 10
74.21355792415494
 20
-118.477522756839
 10
74.21355792415494
 20
-118.477522756839
 10
73.25444334106139
 20
-118.477522756839
 10
73.25444334106139
 20
-118.477522756839
 10
73.2263658128566
 20
-119.2785074571595
 10
72.93008760112512
 20
-119.670559323381
 10
72.11222193292681
 20
-119.8342013589303
 10
72.11222193292681
 20
-119.8342013589303
 10
71.99922280101062
 20
-119.6144042669714
 10
71.99922280101062
 20
-119.6144042669714
 10
72.71287433078012
 20
-119.4958929822788
 10
72.9724622755937
 20
-119.1630967584037
 10
72.98365883592075
 20
-118.477522756839
 10
72.98365883592075
 20
-118.477522756839
 10
71.8583183956639
 20
-118.477522756839
 10
71.8583183956639
 20
-118.477522756839
 10
71.8583183956639
 20
-118.477522756839
 10
71.8583183956639
 20
-118.2322319582892
 10
71.8583183956639
 20
-118.2322319582892
 10
71.8583183956639
 20
-118.2322319582892
 10
74.21355792415494
 20
-118.2322319582892
 10
74.21355792415494
 20
-118.2322319582892
 97
        0
 97
        0
 92
        1
 93
        4
 72
     1
 10
73.97946368593222
 20
-117.4932589767031
 11
73.97946368593222
 21
-117.7357936988647
 72
     1
 10
73.97946368593222
 20
-117.7357936988647
 11
72.09241263388662
 21
-117.7357936988647
 72
     1
 10
72.09241263388662
 20
-117.7357936988647
 11
72.09241263388662
 21
-117.4932589767031
 72
     1
 10
72.09241263388662
 20
-117.4932589767031
 11
73.97946368593222
 21
-117.4932589767031
 97
        0
 75
     2
 76
     1
 98
        0
  0
SPLINE
  5
50
330
41
100
AcDbEntity
  8
_U+30EC_U+30A4_U+30E4_U+30FC 1
370
     0
100
AcDbSpline
210
0.0
220
0.0
230
1.0
 70
    11
 71
     3
 72
    17
 73
    13
 74
     0
 42
0.0000000001
 43
0.0000000001
 12
1.0
 22
0.0
 32
0.0
 13
1.0
 23
0.0
 33
0.0
 40
0.0
 40
0.0
 40
0.0
 40
0.0
 40
1.0
 40
1.0
 40
1.0
 40
2.0
 40
2.0
 40
2.0
 40
3.0
 40
3.0
 40
3.0
 40
4.0
 40
4.0
 40
4.0
 40
4.0
 10
75.49943981402446
 20
-118.2067382516983
 30
0.0
 10
75.26810165218993
 20
-118.0262152482712
 30
0.0
 10
74.83935951905057
 20
-117.8512043976205
 30
0.0
 10
74.6335150638069
 20
-117.7922932648228
 30
0.0
 10
74.6335150638069
 20
-117.7922932648228
 30
0.0
 10
74.76046683243835
 20
-117.5666395105389
 30
0.0
 10
74.76046683243835
 20
-117.5666395105389
 30
0.0
 10
74.80835365968333
 20
-117.5804198924799
 30
0.0
 10
75.27102998335239
 20
-117.713056068662
 30
0.0
 10
75.65739744202315
 20
-117.9614474531485
 30
0.0
 10
75.65739744202315
 20
-117.9614474531485
 30
0.0
 10
75.49943981402446
 20
-118.2067382516983
 30
0.0
 10
75.49943981402446
 20
-118.2067382516983
 30
0.0
  0
SPLINE
  5
51
330
41
100
AcDbEntity
  8
_U+30EC_U+30A4_U+30E4_U+30FC 1
370
     0
100
AcDbSpline
210
0.0
220
0.0
230
1.0
 70
    11
 71
     3
 72
    17
 73
    13
 74
     0
 42
0.0000000001
 43
0.0000000001
 12
1.0
 22
0.0
 32
0.0
 13
1.0
 23
0.0
 33
0.0
 40
0.0
 40
0.0
 40
0.0
 40
0.0
 40
1.0
 40
1.0
 40
1.0
 40
2.0
 40
2.0
 40
2.0
 40
3.0
 40
3.0
 40
3.0
 40
4.0
 40
4.0
 40
4.0
 40
4.0
 10
74.64763995529643
 20
-119.470399275688
 30
0.0
 10
75.44294024806635
 20
-119.4138997097299
 30
0.0
 10
76.32316214454768
 20
-119.1713649875683
 30
0.0
 10
76.76310083801408
 20
-117.7554307431306
 30
0.0
 10
76.76310083801408
 20
-117.7554307431306
 30
0.0
 10
77.017004375277
 20
-117.8684298750468
 30
0.0
 10
77.017004375277
 20
-117.8684298750468
 30
0.0
 10
76.79135062099314
 20
-118.5171413549193
 30
0.0
 10
76.42462020658829
 20
-119.5720295925028
 30
0.0
 10
74.74634194094884
 20
-119.7497965195417
 30
0.0
 10
74.74634194094884
 20
-119.7497965195417
 30
0.0
 10
74.64763995529643
 20
-119.470399275688
 30
0.0
 10
74.64763995529643
 20
-119.470399275688
 30
0.0
  0
HATCH
  5
52
330
41
100
AcDbEntity
  8
_U+30EC_U+30A4_U+30E4_U+30FC 1
 62
   179
420
  2234388
100
AcDbHatch
 10
0.0
 20
0.0
 30
0.0
210
0.0
220
0.0
230
1.0
  2
SOLID
 70
     1
 71
     0
 91
        2
 92
        1
 93
        1
 72
     4
 94
        3
 73
     0
 74
     1
 95
       17
 96
       13
 40
0.0
 40
0.0
 40
0.0
 40
0.0
 40
1.0
 40
1.0
 40
1.0
 40
2.0
 40
2.0
 40
2.0
 40
3.0
 40
3.0
 40
3.0
 40
4.0
 40
4.0
 40
4.0
 40
4.0
 10
75.49943981402446
 20
-118.2067382516983
 10
75.26810165218993
 20
-118.0262152482712
 10
74.83935951905057
 20
-117.8512043976205
 10
74.6335150638069
 20
-117.7922932648228
 10
74.6335150638069
 20
-117.7922932648228
 10
74.76046683243835
 20
-117.5666395105389
 10
74.76046683243835
 20
-117.5666395105389
 10
74.80835365968333
 20
-117.5804198924799
 10
75.27102998335239
 20
-117.713056068662
 10
75.65739744202315
 20
-117.9614474531485
 10
75.65739744202315
 20
-117.9614474531485
 10
75.49943981402446
 20
-118.2067382516983
 10
75.49943981402446
 20
-118.2067382516983
 97
        0
 97
        0
 92
        1
 93
        1
 72
     4
 94
        3
 73
     0
 74
     1
 95
       17
 96
       13
 40
0.0
 40
0.0
 40
0.0
 40
0.0
 40
1.0
 40
1.0
 40
1.0
 40
2.0
 40
2.0
 40
2.0
 40
3.0
 40
3.0
 40
3.0
 40
4.0
 40
4.0
 40
4.0
 40
4.0
 10
74.64763995529643
 20
-119.470399275688
 10
75.44294024806635
 20
-119.4138997097299
 10
76.32316214454768
 20
-119.1713649875683
 10
76.76310083801408
 20
-117.7554307431306
 10
76.76310083801408
 20
-117.7554307431306
 10
77.017004375277
 20
-117.8684298750468
 10
77.017004375277
 20
-117.8684298750468
 10
76.79135062099314
 20
-118.5171413549193
 10
76.42462020658829
 20
-119.5720295925028
 10
74.74634194094884
 20
-119.7497965195417
 10
74.74634194094884
 20
-119.7497965195417
 10
74.64763995529643
 20
-119.470399275688
 10
74.64763995529643
 20
-119.470399275688
 97
        0
 97
        0
 75
     2
 76
     1
 98
        0
  0
SPLINE
  5
53
330
41
100
AcDbEntity
  8
_U+30EC_U+30A4_U+30E4_U+30FC 1
370
     0
100
AcDbSpline
210
0.0
220
0.0
230
1.0
 70
    11
 71
     3
 72
    23
 73
    19
 74
     0
 42
0.0000000001
 43
0.0000000001
 12
1.0
 22
0.0
 32
0.0
 13
1.0
 23
0.0
 33
0.0
 40
0.0
 40
0.0
 40
0.0
 40
0.0
 40
1.0
 40
1.0
 40
1.0
 40
2.0
 40
2.0
 40
2.0
 40
3.0
 40
3.0
 40
3.0
 40
4.0
 40
4.0
 40
4.0
 40
5.0
 40
5.0
 40
5.0
 40
6.0
 40
6.0
 40
6.0
 40
6.0
 10
77.8932644119503
 20
-119.5014051350552
 30
0.0
 10
78.86064722420845
 20
-119.3942626654639
 30
0.0
 10
79.27819279702074
 20
-118.8950683296512
 30
0.0
 10
79.53485241067185
 20
-118.0741020755162
 30
0.0
 10
79.53485241067185
 20
-118.0741020755162
 30
0.0
 10
79.76894664889457
 20
-118.1871012074324
 30
0.0
 10
79.76894664889457
 20
-118.1871012074324
 30
0.0
 10
79.54604897099891
 20
-118.8189317194272
 30
0.0
 10
79.17656248020586
 20
-119.7187906601745
 30
0.0
 10
77.62523598319787
 20
-119.780802378909
 30
0.0
 10
77.62523598319787
 20
-119.780802378909
 30
0.0
 10
77.62523598319787
 20
-117.4312472579686
 30
0.0
 10
77.62523598319787
 20
-117.4312472579686
 30
0.0
 10
77.62523598319787
 20
-117.4312472579686
 30
0.0
 10
77.8932644119503
 20
-117.4312472579686
 30
0.0
 10
77.8932644119503
 20
-117.4312472579686
 30
0.0
 10
77.8932644119503
 20
-117.4312472579686
 30
0.0
 10
77.8932644119503
 20
-119.5014051350552
 30
0.0
 10
77.8932644119503
 20
-119.5014051350552
 30
0.0
  0
HATCH
  5
54
330
41
100
AcDbEntity
  8
_U+30EC_U+30A4_U+30E4_U+30FC 1
 62
   179
420
  2234388
100
AcDbHatch
 10
0.0
 20
0.0
 30
0.0
210
0.0
220
0.0
230
1.0
  2
SOLID
 70
     1
 71
     0
 91
        1
 92
        1
 93
        1
 72
     4
 94
        3
 73
     0
 74
     1
 95
       23
 96
       19
 40
0.0
 40
0.0
 40
0.0
 40
0.0
 40
1.0
 40
1.0
 40
1.0
 40
2.0
 40
2.0
 40
2.0
 40
3.0
 40
3.0
 40
3.0
 40
4.0
 40
4.0
 40
4.0
 40
5.0
 40
5.0
 40
5.0
 40
6.0
 40
6.0
 40
6.0
 40
6.0
 10
77.8932644119503
 20
-119.5014051350552
 10
78.86064722420845
 20
-119.3942626654639
 10
79.27819279702074
 20
-118.8950683296512
 10
79.53485241067185
 20
-118.0741020755162
 10
79.53485241067185
 20
-118.0741020755162
 10
79.76894664889457
 20
-118.1871012074324
 10
79.76894664889457
 20
-118.1871012074324
 10
79.54604897099891
 20
-118.8189317194272
 10
79.17656248020586
 20
-119.7187906601745
 10
77.62523598319787
 20
-119.780802378909
 10
77.62523598319787
 20
-119.780802378909
 10
77.62523598319787
 20
-117.4312472579686
 10
77.62523598319787
 20
-117.4312472579686
 10
77.62523598319787
 20
-117.4312472579686
 10
77.8932644119503
 20
-117.4312472579686
 10
77.8932644119503
 20
-117.4312472579686
 10
77.8932644119503
 20
-117.4312472579686
 10
77.8932644119503
 20
-119.5014051350552
 10
77.8932644119503
 20
-119.5014051350552
 97
        0
 97
        0
 75
     2
 76
     1
 98
        0
  0
SPLINE
  5
55
330
41
100
AcDbEntity
  8
_U+30EC_U+30A4_U+30E4_U+30FC 1
370
     0
100
AcDbSpline
210
0.0
220
0.0
230
1.0
 70
    11
 71
     3
 72
    35
 73
    31
 74
     0
 42
0.0000000001
 43
0.0000000001
 12
1.0
 22
0.0
 32
0.0
 13
1.0
 23
0.0
 33
0.0
 40
0.0
 40
0.0
 40
0.0
 40
0.0
 40
1.0
 40
1.0
 40
1.0
 40
2.0
 40
2.0
 40
2.0
 40
3.0
 40
3.0
 40
3.0
 40
4.0
 40
4.0
 40
4.0
 40
5.0
 40
5.0
 40
5.0
 40
6.0
 40
6.0
 40
6.0
 40
7.0
 40
7.0
 40
7.0
 40
8.0
 40
8.0
 40
8.0
 40
9.0
 40
9.0
 40
9.0
 40
10.0
 40
10.0
 40
10.0
 40
10.0
 10
79.99356687453286
 20
-119.5861544839924
 30
0.0
 10
80.46743975852898
 20
-119.3970187418521
 30
0.0
 10
81.29098983427795
 20
-118.8554497315709
 30
0.0
 10
81.67752954772298
 20
-117.7781683733332
 30
0.0
 10
81.67752954772298
 20
-117.7781683733332
 30
0.0
 10
80.14032794220451
 20
-117.7781683733332
 30
0.0
 10
80.14032794220451
 20
-117.7781683733332
 30
0.0
 10
80.14032794220451
 20
-117.7781683733332
 30
0.0
 10
80.14032794220451
 20
-117.5356336511717
 30
0.0
 10
80.14032794220451
 20
-117.5356336511717
 30
0.0
 10
80.14032794220451
 20
-117.5356336511717
 30
0.0
 10
82.02445066308763
 20
-117.5356336511717
 30
0.0
 10
82.02445066308763
 20
-117.5356336511717
 30
0.0
 10
81.92006426988458
 20
-117.9614474531485
 30
0.0
 10
81.72834470613041
 20
-118.3617675485346
 30
0.0
 10
81.46600068492864
 20
-118.7117892498359
 30
0.0
 10
81.80723739274264
 20
-118.9853298313648
 30
0.0
 10
82.13727754022958
 20
-119.2729953043831
 30
0.0
 10
82.44750838867633
 20
-119.5833984076042
 30
0.0
 10
82.44750838867633
 20
-119.5833984076042
 30
0.0
 10
82.23873560227018
 20
-119.7921711940103
 30
0.0
 10
82.23873560227018
 20
-119.7921711940103
 30
0.0
 10
82.08095022904574
 20
-119.6144042669714
 30
0.0
 10
81.87493351902779
 20
-119.3915065890757
 30
0.0
 10
81.31372746448059
 20
-118.9033365588158
 30
0.0
 10
80.99488387732073
 20
-119.2816080430963
 30
0.0
 10
80.60558808748749
 20
-119.6002793754819
 30
0.0
 10
80.14876842614336
 20
-119.7949272703985
 30
0.0
 10
80.14876842614336
 20
-119.7949272703985
 30
0.0
 10
79.99356687453286
 20
-119.5861544839924
 30
0.0
 10
79.99356687453286
 20
-119.5861544839924
 30
0.0
  0
HATCH
  5
56
330
41
100
AcDbEntity
  8
_U+30EC_U+30A4_U+30E4_U+30FC 1
 62
   179
420
  2234388
100
AcDbHatch
 10
0.0
 20
0.0
 30
0.0
210
0.0
220
0.0
230
1.0
  2
SOLID
 70
     1
 71
     0
 91
        1
 92
        1
 93
        1
 72
     4
 94
        3
 73
     0
 74
     1
 95
       35
 96
       31
 40
0.0
 40
0.0
 40
0.0
 40
0.0
 40
1.0
 40
1.0
 40
1.0
 40
2.0
 40
2.0
 40
2.0
 40
3.0
 40
3.0
 40
3.0
 40
4.0
 40
4.0
 40
4.0
 40
5.0
 40
5.0
 40
5.0
 40
6.0
 40
6.0
 40
6.0
 40
7.0
 40
7.0
 40
7.0
 40
8.0
 40
8.0
 40
8.0
 40
9.0
 40
9.0
 40
9.0
 40
10.0
 40
10.0
 40
10.0
 40
10.0
 10
79.99356687453286
 20
-119.5861544839924
 10
80.46743975852898
 20
-119.3970187418521
 10
81.29098983427795
 20
-118.8554497315709
 10
81.67752954772298
 20
-117.7781683733332
 10
81.67752954772298
 20
-117.7781683733332
 10
80.14032794220451
 20
-117.7781683733332
 10
80.14032794220451
 20
-117.7781683733332
 10
80.14032794220451
 20
-117.7781683733332
 10
80.14032794220451
 20
-117.5356336511717
 10
80.14032794220451
 20
-117.5356336511717
 10
80.14032794220451
 20
-117.5356336511717
 10
82.02445066308763
 20
-117.5356336511717
 10
82.02445066308763
 20
-117.5356336511717
 10
81.92006426988458
 20
-117.9614474531485
 10
81.72834470613041
 20
-118.3617675485346
 10
81.46600068492864
 20
-118.7117892498359
 10
81.80723739274264
 20
-118.9853298313648
 10
82.13727754022958
 20
-119.2729953043831
 10
82.44750838867633
 20
-119.5833984076042
 10
82.44750838867633
 20
-119.5833984076042
 10
82.23873560227018
 20
-119.7921711940103
 10
82.23873560227018
 20
-119.7921711940103
 10
82.08095022904574
 20
-119.6144042669714
 10
81.87493351902779
 20
-119.3915065890757
 10
81.31372746448059
 20
-118.9033365588158
 10
80.99488387732073
 20
-119.2816080430963
 10
80.60558808748749
 20
-119.6002793754819
 10
80.14876842614336
 20
-119.7949272703985
 10
80.14876842614336
 20
-119.7949272703985
 10
79.99356687453286
 20
-119.5861544839924
 10
79.99356687453286
 20
-119.5861544839924
 97
        0
 97
        0
 75
     2
 76
     1
 98
        0
  0
SPLINE
  5
57
330
41
100
AcDbEntity
  8
_U+30EC_U+30A4_U+30E4_U+30FC 1
370
     0
100
AcDbSpline
210
0.0
220
0.0
230
1.0
 70
    11
 71
     3
 72
    53
 73
    49
 74
     0
 42
0.0000000001
 43
0.0000000001
 12
1.0
 22
0.0
 32
0.0
 13
1.0
 23
0.0
 33
0.0
 40
0.0
 40
0.0
 40
0.0
 40
0.0
 40
1.0
 40
1.0
 40
1.0
 40
2.0
 40
2.0
 40
2.0
 40
3.0
 40
3.0
 40
3.0
 40
4.0
 40
4.0
 40
4.0
 40
5.0
 40
5.0
 40
5.0
 40
6.0
 40
6.0
 40
6.0
 40
7.0
 40
7.0
 40
7.0
 40
8.0
 40
8.0
 40
8.0
 40
9.0
 40
9.0
 40
9.0
 40
10.0
 40
10.0
 40
10.0
 40
11.0
 40
11.0
 40
11.0
 40
12.0
 40
12.0
 40
12.0
 40
13.0
 40
13.0
 40
13.0
 40
14.0
 40
14.0
 40
14.0
 40
15.0
 40
15.0
 40
15.0
 40
16.0
 40
16.0
 40
16.0
 40
16.0
 10
85.23355710759786
 20
-118.119232826373
 30
0.0
 10
85.23631318398607
 20
-117.760942895907
 30
0.0
 10
85.08972437108868
 20
-117.6737819801302
 30
0.0
 10
84.64117293890915
 20
-117.6737819801302
 30
0.0
 10
84.3901977328087
 20
-117.6737819801302
 30
0.0
 10
84.08840736830082
 20
-117.684806285683
 30
0.0
 10
84.08840736830082
 20
-118.0685899227398
 30
0.0
 10
84.08840736830082
 20
-118.2856309383105
 30
0.0
 10
84.19830591428028
 20
-118.3648681344713
 30
0.0
 10
84.40139429313577
 20
-118.3872612551254
 30
0.0
 10
84.40139429313577
 20
-118.3872612551254
 30
0.0
 10
85.01634383725286
 20
-118.4551296361848
 30
0.0
 10
85.01634383725286
 20
-118.4551296361848
 30
0.0
 10
85.20823565578128
 20
-118.4747666804508
 30
0.0
 10
85.60597192955338
 20
-118.5254095840839
 30
0.0
 10
85.60597192955338
 20
-119.0528537028757
 30
0.0
 10
85.60597192955338
 20
-119.6199164197478
 30
0.0
 10
85.17705754163977
 20
-119.7019096922968
 30
0.0
 10
84.71455347274498
 20
-119.7019096922968
 30
0.0
 10
84.00934242691433
 20
-119.7019096922968
 30
0.0
 10
83.80918237922133
 20
-119.4731553520762
 30
0.0
 10
83.80074189528246
 20
-118.9598361247739
 30
0.0
 10
83.80074189528246
 20
-118.9598361247739
 30
0.0
 10
84.07428247681129
 20
-118.9598361247739
 30
0.0
 10
84.07428247681129
 20
-118.9598361247739
 30
0.0
 10
84.0715264004231
 20
-119.2816080430963
 30
0.0
 10
84.14197860309645
 20
-119.4590304605866
 30
0.0
 10
84.72023788029564
 20
-119.4590304605866
 30
0.0
 10
85.19118243312928
 20
-119.4590304605866
 30
0.0
 10
85.33518742441274
 20
-119.3491319146072
 30
0.0
 10
85.33518742441274
 20
-119.064222517977
 30
0.0
 10
85.33518742441274
 20
-118.8075629043259
 30
0.0
 10
85.22218829249654
 20
-118.7173014026123
 30
0.0
 10
84.98809405427382
 20
-118.6918076960215
 30
0.0
 10
84.98809405427382
 20
-118.6918076960215
 30
0.0
 10
84.32250160652355
 20
-118.6215277481224
 30
0.0
 10
84.32250160652355
 20
-118.6215277481224
 30
0.0
 10
83.88807506583355
 20
-118.5763969972656
 30
0.0
 10
83.82606334709904
 20
-118.2546250789433
 30
0.0
 10
83.82606334709904
 20
-118.0517089548621
 30
0.0
 10
83.82606334709904
 20
-117.4340033343568
 30
0.0
 10
84.40139429313577
 20
-117.4340033343568
 30
0.0
 10
84.63548853135849
 20
-117.4340033343568
 30
0.0
 10
85.442329894004
 20
-117.4340033343568
 30
0.0
 10
85.49865720518784
 20
-117.760942895907
 30
0.0
 10
85.5070976891267
 20
-118.119232826373
 30
0.0
 10
85.5070976891267
 20
-118.119232826373
 30
0.0
 10
85.23355710759786
 20
-118.119232826373
 30
0.0
 10
85.23355710759786
 20
-118.119232826373
 30
0.0
  0
HATCH
  5
58
330
41
100
AcDbEntity
  8
_U+30EC_U+30A4_U+30E4_U+30FC 1
 62
   179
420
  2234388
100
AcDbHatch
 10
0.0
 20
0.0
 30
0.0
210
0.0
220
0.0
230
1.0
  2
SOLID
 70
     1
 71
     0
 91
        1
 92
        1
 93
        1
 72
     4
 94
        3
 73
     0
 74
     1
 95
       53
 96
       49
 40
0.0
 40
0.0
 40
0.0
 40
0.0
 40
1.0
 40
1.0
 40
1.0
 40
2.0
 40
2.0
 40
2.0
 40
3.0
 40
3.0
 40
3.0
 40
4.0
 40
4.0
 40
4.0
 40
5.0
 40
5.0
 40
5.0
 40
6.0
 40
6.0
 40
6.0
 40
7.0
 40
7.0
 40
7.0
 40
8.0
 40
8.0
 40
8.0
 40
9.0
 40
9.0
 40
9.0
 40
10.0
 40
10.0
 40
10.0
 40
11.0
 40
11.0
 40
11.0
 40
12.0
 40
12.0
 40
12.0
 40
13.0
 40
13.0
 40
13.0
 40
14.0
 40
14.0
 40
14.0
 40
15.0
 40
15.0
 40
15.0
 40
16.0
 40
16.0
 40
16.0
 40
16.0
 10
85.23355710759786
 20
-118.119232826373
 10
85.23631318398607
 20
-117.760942895907
 10
85.08972437108868
 20
-117.6737819801302
 10
84.64117293890915
 20
-117.6737819801302
 10
84.3901977328087
 20
-117.6737819801302
 10
84.08840736830082
 20
-117.684806285683
 10
84.08840736830082
 20
-118.0685899227398
 10
84.08840736830082
 20
-118.2856309383105
 10
84.19830591428028
 20
-118.3648681344713
 10
84.40139429313577
 20
-118.3872612551254
 10
84.40139429313577
 20
-118.3872612551254
 10
85.01634383725286
 20
-118.4551296361848
 10
85.01634383725286
 20
-118.4551296361848
 10
85.20823565578128
 20
-118.4747666804508
 10
85.60597192955338
 20
-118.5254095840839
 10
85.60597192955338
 20
-119.0528537028757
 10
85.60597192955338
 20
-119.6199164197478
 10
85.17705754163977
 20
-119.7019096922968
 10
84.71455347274498
 20
-119.7019096922968
 10
84.00934242691433
 20
-119.7019096922968
 10
83.80918237922133
 20
-119.4731553520762
 10
83.80074189528246
 20
-118.9598361247739
 10
83.80074189528246
 20
-118.9598361247739
 10
84.07428247681129
 20
-118.9598361247739
 10
84.07428247681129
 20
-118.9598361247739
 10
84.0715264004231
 20
-119.2816080430963
 10
84.14197860309645
 20
-119.4590304605866
 10
84.72023788029564
 20
-119.4590304605866
 10
85.19118243312928
 20
-119.4590304605866
 10
85.33518742441274
 20
-119.3491319146072
 10
85.33518742441274
 20
-119.064222517977
 10
85.33518742441274
 20
-118.8075629043259
 10
85.22218829249654
 20
-118.7173014026123
 10
84.98809405427382
 20
-118.6918076960215
 10
84.98809405427382
 20
-118.6918076960215
 10
84.32250160652355
 20
-118.6215277481224
 10
84.32250160652355
 20
-118.6215277481224
 10
83.88807506583355
 20
-118.5763969972656
 10
83.82606334709904
 20
-118.2546250789433
 10
83.82606334709904
 20
-118.0517089548621
 10
83.82606334709904
 20
-117.4340033343568
 10
84.40139429313577
 20
-117.4340033343568
 10
84.63548853135849
 20
-117.4340033343568
 10
85.442329894004
 20
-117.4340033343568
 10
85.49865720518784
 20
-117.760942895907
 10
85.5070976891267
 20
-118.119232826373
 10
85.5070976891267
 20
-118.119232826373
 10
85.23355710759786
 20
-118.119232826373
 10
85.23355710759786
 20
-118.119232826373
 97
        0
 97
        0
 75
     2
 76
     1
 98
        0
  0
SPLINE
  5
59
330
41
100
AcDbEntity
  8
_U+30EC_U+30A4_U+30E4_U+30FC 1
370
     0
100
AcDbSpline
210
0.0
220
0.0
230
1.0
 70
    11
 71
     3
 72
    35
 73
    31
 74
     0
 42
0.0000000001
 43
0.0000000001
 12
1.0
 22
0.0
 32
0.0
 13
1.0
 23
0.0
 33
0.0
 40
0.0
 40
0.0
 40
0.0
 40
0.0
 40
1.0
 40
1.0
 40
1.0
 40
2.0
 40
2.0
 40
2.0
 40
3.0
 40
3.0
 40
3.0
 40
4.0
 40
4.0
 40
4.0
 40
5.0
 40
5.0
 40
5.0
 40
6.0
 40
6.0
 40
6.0
 40
7.0
 40
7.0
 40
7.0
 40
8.0
 40
8.0
 40
8.0
 40
9.0
 40
9.0
 40
9.0
 40
10.0
 40
10.0
 40
10.0
 40
10.0
 10
86.34218883475127
 20
-117.4563964550109
 30
0.0
 10
86.34218883475127
 20
-117.4563964550109
 30
0.0
 10
86.34218883475127
 20
-118.9064371447526
 30
0.0
 10
86.34218883475127
 20
-118.9064371447526
 30
0.0
 10
86.34218883475127
 20
-119.2192518148132
 30
0.0
 10
86.4296942600766
 20
-119.4590304605866
 30
0.0
 10
86.99934079856267
 20
-119.4590304605866
 30
0.0
 10
87.47614201372124
 20
-119.4590304605866
 30
0.0
 10
87.645296202047
 20
-119.2871201958727
 30
0.0
 10
87.645296202047
 20
-118.9005804824276
 30
0.0
 10
87.645296202047
 20
-118.9005804824276
 30
0.0
 10
87.645296202047
 20
-117.4563964550109
 30
0.0
 10
87.645296202047
 20
-117.4563964550109
 30
0.0
 10
87.645296202047
 20
-117.4563964550109
 30
0.0
 10
87.91608070718765
 20
-117.4563964550109
 30
0.0
 10
87.91608070718765
 20
-117.4563964550109
 30
0.0
 10
87.91608070718765
 20
-117.4563964550109
 30
0.0
 10
87.91608070718765
 20
-118.9374430041198
 30
0.0
 10
87.91608070718765
 20
-118.9374430041198
 30
0.0
 10
87.91608070718765
 20
-119.3773816975862
 30
0.0
 10
87.69886743684265
 20
-119.7019096922968
 30
0.0
 10
86.9909003146238
 20
-119.7019096922968
 30
0.0
 10
86.32806394326174
 20
-119.7019096922968
 30
0.0
 10
86.07140432961063
 20
-119.4197563720548
 30
0.0
 10
86.07140432961063
 20
-118.9374430041198
 30
0.0
 10
86.07140432961063
 20
-118.9374430041198
 30
0.0
 10
86.07140432961063
 20
-117.4563964550109
 30
0.0
 10
86.07140432961063
 20
-117.4563964550109
 30
0.0
 10
86.07140432961063
 20
-117.4563964550109
 30
0.0
 10
86.34218883475127
 20
-117.4563964550109
 30
0.0
 10
86.34218883475127
 20
-117.4563964550109
 30
0.0
  0
HATCH
  5
5A
330
41
100
AcDbEntity
  8
_U+30EC_U+30A4_U+30E4_U+30FC 1
 62
   179
420
  2234388
100
AcDbHatch
 10
0.0
 20
0.0
 30
0.0
210
0.0
220
0.0
230
1.0
  2
SOLID
 70
     1
 71
     0
 91
        1
 92
        1
 93
        1
 72
     4
 94
        3
 73
     0
 74
     1
 95
       35
 96
       31
 40
0.0
 40
0.0
 40
0.0
 40
0.0
 40
1.0
 40
1.0
 40
1.0
 40
2.0
 40
2.0
 40
2.0
 40
3.0
 40
3.0
 40
3.0
 40
4.0
 40
4.0
 40
4.0
 40
5.0
 40
5.0
 40
5.0
 40
6.0
 40
6.0
 40
6.0
 40
7.0
 40
7.0
 40
7.0
 40
8.0
 40
8.0
 40
8.0
 40
9.0
 40
9.0
 40
9.0
 40
10.0
 40
10.0
 40
10.0
 40
10.0
 10
86.34218883475127
 20
-117.4563964550109
 10
86.34218883475127
 20
-117.4563964550109
 10
86.34218883475127
 20
-118.9064371447526
 10
86.34218883475127
 20
-118.9064371447526
 10
86.34218883475127
 20
-119.2192518148132
 10
86.4296942600766
 20
-119.4590304605866
 10
86.99934079856267
 20
-119.4590304605866
 10
87.47614201372124
 20
-119.4590304605866
 10
87.645296202047
 20
-119.2871201958727
 10
87.645296202047
 20
-118.9005804824276
 10
87.645296202047
 20
-118.9005804824276
 10
87.645296202047
 20
-117.4563964550109
 10
87.645296202047
 20
-117.4563964550109
 10
87.645296202047
 20
-117.4563964550109
 10
87.91608070718765
 20
-117.4563964550109
 10
87.91608070718765
 20
-117.4563964550109
 10
87.91608070718765
 20
-117.4563964550109
 10
87.91608070718765
 20
-118.9374430041198
 10
87.91608070718765
 20
-118.9374430041198
 10
87.91608070718765
 20
-119.3773816975862
 10
87.69886743684265
 20
-119.7019096922968
 10
86.9909003146238
 20
-119.7019096922968
 10
86.32806394326174
 20
-119.7019096922968
 10
86.07140432961063
 20
-119.4197563720548
 10
86.07140432961063
 20
-118.9374430041198
 10
86.07140432961063
 20
-118.9374430041198
 10
86.07140432961063
 20
-117.4563964550109
 10
86.07140432961063
 20
-117.4563964550109
 10
86.07140432961063
 20
-117.4563964550109
 10
86.34218883475127
 20
-117.4563964550109
 10
86.34218883475127
 20
-117.4563964550109
 97
        0
 97
        0
 75
     2
 76
     1
 98
        0
  0
SPLINE
  5
5B
330
41
100
AcDbEntity
  8
_U+30EC_U+30A4_U+30E4_U+30FC 1
370
     0
100
AcDbSpline
210
0.0
220
0.0
230
1.0
 70
    11
 71
     3
 72
    53
 73
    49
 74
     0
 42
0.0000000001
 43
0.0000000001
 12
1.0
 22
0.0
 32
0.0
 13
1.0
 23
0.0
 33
0.0
 40
0.0
 40
0.0
 40
0.0
 40
0.0
 40
1.0
 40
1.0
 40
1.0
 40
2.0
 40
2.0
 40
2.0
 40
3.0
 40
3.0
 40
3.0
 40
4.0
 40
4.0
 40
4.0
 40
5.0
 40
5.0
 40
5.0
 40
6.0
 40
6.0
 40
6.0
 40
7.0
 40
7.0
 40
7.0
 40
8.0
 40
8.0
 40
8.0
 40
9.0
 40
9.0
 40
9.0
 40
10.0
 40
10.0
 40
10.0
 40
11.0
 40
11.0
 40
11.0
 40
12.0
 40
12.0
 40
12.0
 40
13.0
 40
13.0
 40
13.0
 40
14.0
 40
14.0
 40
14.0
 40
15.0
 40
15.0
 40
15.0
 40
16.0
 40
16.0
 40
16.0
 40
16.0
 10
89.82018498188523
 20
-118.119232826373
 30
0.0
 10
89.82294105827343
 20
-117.760942895907
 30
0.0
 10
89.67635224537605
 20
-117.6737819801302
 30
0.0
 10
89.22780081319652
 20
-117.6737819801302
 30
0.0
 10
88.97682560709607
 20
-117.6737819801302
 30
0.0
 10
88.6750352425882
 20
-117.684806285683
 30
0.0
 10
88.6750352425882
 20
-118.0685899227398
 30
0.0
 10
88.6750352425882
 20
-118.2856309383105
 30
0.0
 10
88.78493378856766
 20
-118.3648681344713
 30
0.0
 10
88.98802216742314
 20
-118.3872612551254
 30
0.0
 10
88.98802216742314
 20
-118.3872612551254
 30
0.0
 10
89.60297171154023
 20
-118.4551296361848
 30
0.0
 10
89.60297171154023
 20
-118.4551296361848
 30
0.0
 10
89.79486353006865
 20
-118.4747666804508
 30
0.0
 10
90.19242754906648
 20
-118.5254095840839
 30
0.0
 10
90.19242754906648
 20
-119.0528537028757
 30
0.0
 10
90.19242754906648
 20
-119.6199164197478
 30
0.0
 10
89.7638576707014
 20
-119.7019096922968
 30
0.0
 10
89.30118134703235
 20
-119.7019096922968
 30
0.0
 10
88.5959703012017
 20
-119.7019096922968
 30
0.0
 10
88.39581025350869
 20
-119.4731553520762
 30
0.0
 10
88.38719751479556
 20
-118.9598361247739
 30
0.0
 10
88.38719751479556
 20
-118.9598361247739
 30
0.0
 10
88.66091035109866
 20
-118.9598361247739
 30
0.0
 10
88.66091035109866
 20
-118.9598361247739
 30
0.0
 10
88.6579820199362
 20
-119.2816080430963
 30
0.0
 10
88.72860647738382
 20
-119.4590304605866
 30
0.0
 10
89.30686575458301
 20
-119.4590304605866
 30
0.0
 10
89.77781030741666
 20
-119.4590304605866
 30
0.0
 10
89.92164304392584
 20
-119.3491319146072
 30
0.0
 10
89.92164304392584
 20
-119.064222517977
 30
0.0
 10
89.92164304392584
 20
-118.8075629043259
 30
0.0
 10
89.80898842155817
 20
-118.7173014026123
 30
0.0
 10
89.57472192856119
 20
-118.6918076960215
 30
0.0
 10
89.57472192856119
 20
-118.6918076960215
 30
0.0
 10
88.90912948081092
 20
-118.6215277481224
 30
0.0
 10
88.90912948081092
 20
-118.6215277481224
 30
0.0
 10
88.4747029401209
 20
-118.5763969972656
 30
0.0
 10
88.41269122138641
 20
-118.2546250789433
 30
0.0
 10
88.41269122138641
 20
-118.0517089548621
 30
0.0
 10
88.41269122138641
 20
-117.4340033343568
 30
0.0
 10
88.98802216742314
 20
-117.4340033343568
 30
0.0
 10
89.22228866042012
 20
-117.4340033343568
 30
0.0
 10
90.02895776829138
 20
-117.4340033343568
 30
0.0
 10
90.08528507947521
 20
-117.760942895907
 30
0.0
 10
90.09372556341407
 20
-118.119232826373
 30
0.0
 10
90.09372556341407
 20
-118.119232826373
 30
0.0
 10
89.82018498188523
 20
-118.119232826373
 30
0.0
 10
89.82018498188523
 20
-118.119232826373
 30
0.0
  0
HATCH
  5
5C
330
41
100
AcDbEntity
  8
_U+30EC_U+30A4_U+30E4_U+30FC 1
 62
   179
420
  2234388
100
AcDbHatch
 10
0.0
 20
0.0
 30
0.0
210
0.0
220
0.0
230
1.0
  2
SOLID
 70
     1
 71
     0
 91
        1
 92
        1
 93
        1
 72
     4
 94
        3
 73
     0
 74
     1
 95
       53
 96
       49
 40
0.0
 40
0.0
 40
0.0
 40
0.0
 40
1.0
 40
1.0
 40
1.0
 40
2.0
 40
2.0
 40
2.0
 40
3.0
 40
3.0
 40
3.0
 40
4.0
 40
4.0
 40
4.0
 40
5.0
 40
5.0
 40
5.0
 40
6.0
 40
6.0
 40
6.0
 40
7.0
 40
7.0
 40
7.0
 40
8.0
 40
8.0
 40
8.0
 40
9.0
 40
9.0
 40
9.0
 40
10.0
 40
10.0
 40
10.0
 40
11.0
 40
11.0
 40
11.0
 40
12.0
 40
12.0
 40
12.0
 40
13.0
 40
13.0
 40
13.0
 40
14.0
 40
14.0
 40
14.0
 40
15.0
 40
15.0
 40
15.0
 40
16.0
 40
16.0
 40
16.0
 40
16.0
 10
89.82018498188523
 20
-118.119232826373
 10
89.82294105827343
 20
-117.760942895907
 10
89.67635224537605
 20
-117.6737819801302
 10
89.22780081319652
 20
-117.6737819801302
 10
88.97682560709607
 20
-117.6737819801302
 10
88.6750352425882
 20
-117.684806285683
 10
88.6750352425882
 20
-118.0685899227398
 10
88.6750352425882
 20
-118.2856309383105
 10
88.78493378856766
 20
-118.3648681344713
 10
88.98802216742314
 20
-118.3872612551254
 10
88.98802216742314
 20
-118.3872612551254
 10
89.60297171154023
 20
-118.4551296361848
 10
89.60297171154023
 20
-118.4551296361848
 10
89.79486353006865
 20
-118.4747666804508
 10
90.19242754906648
 20
-118.5254095840839
 10
90.19242754906648
 20
-119.0528537028757
 10
90.19242754906648
 20
-119.6199164197478
 10
89.7638576707014
 20
-119.7019096922968
 10
89.30118134703235
 20
-119.7019096922968
 10
88.5959703012017
 20
-119.7019096922968
 10
88.39581025350869
 20
-119.4731553520762
 10
88.38719751479556
 20
-118.9598361247739
 10
88.38719751479556
 20
-118.9598361247739
 10
88.66091035109866
 20
-118.9598361247739
 10
88.66091035109866
 20
-118.9598361247739
 10
88.6579820199362
 20
-119.2816080430963
 10
88.72860647738382
 20
-119.4590304605866
 10
89.30686575458301
 20
-119.4590304605866
 10
89.77781030741666
 20
-119.4590304605866
 10
89.92164304392584
 20
-119.3491319146072
 10
89.92164304392584
 20
-119.064222517977
 10
89.92164304392584
 20
-118.8075629043259
 10
89.80898842155817
 20
-118.7173014026123
 10
89.57472192856119
 20
-118.6918076960215
 10
89.57472192856119
 20
-118.6918076960215
 10
88.90912948081092
 20
-118.6215277481224
 10
88.90912948081092
 20
-118.6215277481224
 10
88.4747029401209
 20
-118.5763969972656
 10
88.41269122138641
 20
-118.2546250789433
 10
88.41269122138641
 20
-118.0517089548621
 10
88.41269122138641
 20
-117.4340033343568
 10
88.98802216742314
 20
-117.4340033343568
 10
89.22228866042012
 20
-117.4340033343568
 10
90.02895776829138
 20
-117.4340033343568
 10
90.08528507947521
 20
-117.760942895907
 10
90.09372556341407
 20
-118.119232826373
 10
90.09372556341407
 20
-118.119232826373
 10
89.82018498188523
 20
-118.119232826373
 10
89.82018498188523
 20
-118.119232826373
 97
        0
 97
        0
 75
     2
 76
     1
 98
        0
  0
SPLINE
  5
5D
330
41
100
AcDbEntity
  8
_U+30EC_U+30A4_U+30E4_U+30FC 1
370
     0
100
AcDbSpline
210
0.0
220
0.0
230
1.0
 70
    11
 71
     3
 72
    56
 73
    52
 74
     0
 42
0.0000000001
 43
0.0000000001
 12
1.0
 22
0.0
 32
0.0
 13
1.0
 23
0.0
 33
0.0
 40
0.0
 40
0.0
 40
0.0
 40
0.0
 40
1.0
 40
1.0
 40
1.0
 40
2.0
 40
2.0
 40
2.0
 40
3.0
 40
3.0
 40
3.0
 40
4.0
 40
4.0
 40
4.0
 40
5.0
 40
5.0
 40
5.0
 40
6.0
 40
6.0
 40
6.0
 40
7.0
 40
7.0
 40
7.0
 40
8.0
 40
8.0
 40
8.0
 40
9.0
 40
9.0
 40
9.0
 40
10.0
 40
10.0
 40
10.0
 40
11.0
 40
11.0
 40
11.0
 40
12.0
 40
12.0
 40
12.0
 40
13.0
 40
13.0
 40
13.0
 40
14.0
 40
14.0
 40
14.0
 40
15.0
 40
15.0
 40
15.0
 40
16.0
 40
16.0
 40
16.0
 40
17.0
 40
17.0
 40
17.0
 40
17.0
 10
90.90590682406172
 20
-118.9315863417949
 30
0.0
 10
90.90022241651106
 20
-119.1941026177709
 30
0.0
 10
90.8945380089604
 20
-119.4590304605866
 30
0.0
 10
91.52929685211768
 20
-119.4590304605866
 30
0.0
 10
91.88207462980726
 20
-119.4590304605866
 30
0.0
 10
92.14424639623478
 20
-119.4170002956666
 30
0.0
 10
92.14424639623478
 20
-119.0500976264875
 30
0.0
 10
92.14424639623478
 20
-118.9064371447526
 30
0.0
 10
92.13563365752165
 20
-118.6439208687765
 30
0.0
 10
91.6674451810762
 20
-118.6439208687765
 30
0.0
 10
91.6674451810762
 20
-118.6439208687765
 30
0.0
 10
91.33464895720107
 20
-118.6439208687765
 30
0.0
 10
91.33464895720107
 20
-118.6439208687765
 30
0.0
 10
91.33464895720107
 20
-118.6439208687765
 30
0.0
 10
91.33464895720107
 20
-118.4155110381045
 30
0.0
 10
91.33464895720107
 20
-118.4155110381045
 30
0.0
 10
91.33464895720107
 20
-118.4155110381045
 30
0.0
 10
91.67054576701292
 20
-118.4155110381045
 30
0.0
 10
91.67054576701292
 20
-118.4155110381045
 30
0.0
 10
91.83935544579016
 20
-118.4155110381045
 30
0.0
 10
92.11875268964393
 20
-118.4155110381045
 30
0.0
 10
92.11875268964393
 20
-118.0572211076385
 30
0.0
 10
92.11875268964393
 20
-117.7499185903542
 30
0.0
 10
91.91308048917452
 20
-117.6765380565184
 30
0.0
 10
91.57442760297445
 20
-117.6765380565184
 30
0.0
 10
90.99892440216347
 20
-117.6765380565184
 30
0.0
 10
90.9537936513067
 20
-117.8853108429245
 30
0.0
 10
90.9510375749185
 20
-118.1219889027612
 30
0.0
 10
90.9510375749185
 20
-118.1219889027612
 30
0.0
 10
90.68025306977786
 20
-118.1219889027612
 30
0.0
 10
90.68025306977786
 20
-118.1219889027612
 30
0.0
 10
90.70006236881804
 20
-117.6624131650289
 30
0.0
 10
90.88334144863333
 20
-117.4340033343568
 30
0.0
 10
91.56581486426133
 20
-117.4340033343568
 30
0.0
 10
91.80559351003471
 20
-117.4340033343568
 30
0.0
 10
92.38953719478457
 20
-117.4340033343568
 30
0.0
 10
92.38953719478457
 20
-118.0317274010476
 30
0.0
 10
92.38953719478457
 20
-118.4323920059822
 30
0.0
 10
92.13838973390985
 20
-118.5002603870416
 30
0.0
 10
92.05949704729763
 20
-118.5226535076957
 30
0.0
 10
92.14700247262297
 20
-118.553659367063
 30
0.0
 10
92.41503090137542
 20
-118.6439208687765
 30
0.0
 10
92.41503090137542
 20
-119.0559542888124
 30
0.0
 10
92.41503090137542
 20
-119.6764159857059
 30
0.0
 10
91.86760522876921
 20
-119.7019096922968
 30
0.0
 10
91.56305878787313
 20
-119.7019096922968
 30
0.0
 10
90.85233558926609
 20
-119.7019096922968
 30
0.0
 10
90.63236624253288
 20
-119.4900363199539
 30
0.0
 10
90.63236624253288
 20
-118.9315863417949
 30
0.0
 10
90.63236624253288
 20
-118.9315863417949
 30
0.0
 10
90.90590682406172
 20
-118.9315863417949
 30
0.0
 10
90.90590682406172
 20
-118.9315863417949
 30
0.0
  0
HATCH
  5
5E
330
41
100
AcDbEntity
  8
_U+30EC_U+30A4_U+30E4_U+30FC 1
 62
   179
420
  2234388
100
AcDbHatch
 10
0.0
 20
0.0
 30
0.0
210
0.0
220
0.0
230
1.0
  2
SOLID
 70
     1
 71
     0
 91
        1
 92
        1
 93
        1
 72
     4
 94
        3
 73
     0
 74
     1
 95
       56
 96
       52
 40
0.0
 40
0.0
 40
0.0
 40
0.0
 40
1.0
 40
1.0
 40
1.0
 40
2.0
 40
2.0
 40
2.0
 40
3.0
 40
3.0
 40
3.0
 40
4.0
 40
4.0
 40
4.0
 40
5.0
 40
5.0
 40
5.0
 40
6.0
 40
6.0
 40
6.0
 40
7.0
 40
7.0
 40
7.0
 40
8.0
 40
8.0
 40
8.0
 40
9.0
 40
9.0
 40
9.0
 40
10.0
 40
10.0
 40
10.0
 40
11.0
 40
11.0
 40
11.0
 40
12.0
 40
12.0
 40
12.0
 40
13.0
 40
13.0
 40
13.0
 40
14.0
 40
14.0
 40
14.0
 40
15.0
 40
15.0
 40
15.0
 40
16.0
 40
16.0
 40
16.0
 40
17.0
 40
17.0
 40
17.0
 40
17.0
 10
90.90590682406172
 20
-118.9315863417949
 10
90.90022241651106
 20
-119.1941026177709
 10
90.8945380089604
 20
-119.4590304605866
 10
91.52929685211768
 20
-119.4590304605866
 10
91.88207462980726
 20
-119.4590304605866
 10
92.14424639623478
 20
-119.4170002956666
 10
92.14424639623478
 20
-119.0500976264875
 10
92.14424639623478
 20
-118.9064371447526
 10
92.13563365752165
 20
-118.6439208687765
 10
91.6674451810762
 20
-118.6439208687765
 10
91.6674451810762
 20
-118.6439208687765
 10
91.33464895720107
 20
-118.6439208687765
 10
91.33464895720107
 20
-118.6439208687765
 10
91.33464895720107
 20
-118.6439208687765
 10
91.33464895720107
 20
-118.4155110381045
 10
91.33464895720107
 20
-118.4155110381045
 10
91.33464895720107
 20
-118.4155110381045
 10
91.67054576701292
 20
-118.4155110381045
 10
91.67054576701292
 20
-118.4155110381045
 10
91.83935544579016
 20
-118.4155110381045
 10
92.11875268964393
 20
-118.4155110381045
 10
92.11875268964393
 20
-118.0572211076385
 10
92.11875268964393
 20
-117.7499185903542
 10
91.91308048917452
 20
-117.6765380565184
 10
91.57442760297445
 20
-117.6765380565184
 10
90.99892440216347
 20
-117.6765380565184
 10
90.9537936513067
 20
-117.8853108429245
 10
90.9510375749185
 20
-118.1219889027612
 10
90.9510375749185
 20
-118.1219889027612
 10
90.68025306977786
 20
-118.1219889027612
 10
90.68025306977786
 20
-118.1219889027612
 10
90.70006236881804
 20
-117.6624131650289
 10
90.88334144863333
 20
-117.4340033343568
 10
91.56581486426133
 20
-117.4340033343568
 10
91.80559351003471
 20
-117.4340033343568
 10
92.38953719478457
 20
-117.4340033343568
 10
92.38953719478457
 20
-118.0317274010476
 10
92.38953719478457
 20
-118.4323920059822
 10
92.13838973390985
 20
-118.5002603870416
 10
92.05949704729763
 20
-118.5226535076957
 10
92.14700247262297
 20
-118.553659367063
 10
92.41503090137542
 20
-118.6439208687765
 10
92.41503090137542
 20
-119.0559542888124
 10
92.41503090137542
 20
-119.6764159857059
 10
91.86760522876921
 20
-119.7019096922968
 10
91.56305878787313
 20
-119.7019096922968
 10
90.85233558926609
 20
-119.7019096922968
 10
90.63236624253288
 20
-119.4900363199539
 10
90.63236624253288
 20
-118.9315863417949
 10
90.63236624253288
 20
-118.9315863417949
 10
90.90590682406172
 20
-118.9315863417949
 10
90.90590682406172
 20
-118.9315863417949
 97
        0
 97
        0
 75
     2
 76
     1
 98
        0
  0
SPLINE
  5
5F
330
41
100
AcDbEntity
  8
_U+30EC_U+30A4_U+30E4_U+30FC 1
370
     0
100
AcDbSpline
210
0.0
220
0.0
230
1.0
 70
    11
 71
     3
 72
    17
 73
    13
 74
     0
 42
0.0000000001
 43
0.0000000001
 12
1.0
 22
0.0
 32
0.0
 13
1.0
 23
0.0
 33
0.0
 40
0.0
 40
0.0
 40
0.0
 40
0.0
 40
1.0
 40
1.0
 40
1.0
 40
2.0
 40
2.0
 40
2.0
 40
3.0
 40
3.0
 40
3.0
 40
4.0
 40
4.0
 40
4.0
 40
4.0
 10
93.75689559288023
 20
-117.4340033343568
 30
0.0
 10
94.43626842257149
 20
-117.4340033343568
 30
0.0
 10
94.66502276279208
 20
-117.6482882735393
 30
0.0
 10
94.66502276279208
 20
-118.581909150042
 30
0.0
 10
94.66502276279208
 20
-119.4759114284644
 30
0.0
 10
94.4390244989597
 20
-119.7019096922968
 30
0.0
 10
93.75689559288023
 20
-119.7019096922968
 30
0.0
 10
93.08510197325651
 20
-119.7019096922968
 30
0.0
 10
92.84532332748311
 20
-119.4931369058906
 30
0.0
 10
92.84532332748311
 20
-118.5677842585525
 30
0.0
 10
92.84532332748311
 20
-117.6482882735393
 30
0.0
 10
93.07958982048011
 20
-117.4340033343568
 30
0.0
 10
93.75689559288023
 20
-117.4340033343568
 30
0.0
  0
SPLINE
  5
60
330
41
100
AcDbEntity
  8
_U+30EC_U+30A4_U+30E4_U+30FC 1
370
     0
100
AcDbSpline
210
0.0
220
0.0
230
1.0
 70
    11
 71
     3
 72
    17
 73
    13
 74
     0
 42
0.0000000001
 43
0.0000000001
 12
1.0
 22
0.0
 32
0.0
 13
1.0
 23
0.0
 33
0.0
 40
0.0
 40
0.0
 40
0.0
 40
0.0
 40
1.0
 40
1.0
 40
1.0
 40
2.0
 40
2.0
 40
2.0
 40
3.0
 40
3.0
 40
3.0
 40
4.0
 40
4.0
 40
4.0
 40
4.0
 10
93.11610783262375
 20
-118.5732964113289
 30
0.0
 10
93.11610783262375
 20
-119.3322509467294
 30
0.0
 10
93.24047577964127
 20
-119.4590304605866
 30
0.0
 10
93.76791989843302
 20
-119.4590304605866
 30
0.0
 10
94.27572697295885
 20
-119.4590304605866
 30
0.0
 10
94.39423825765145
 20
-119.3067572401386
 30
0.0
 10
94.39423825765145
 20
-118.581909150042
 30
0.0
 10
94.39423825765145
 20
-117.7922932648228
 30
0.0
 10
94.26160208146932
 20
-117.6765380565184
 30
0.0
 10
93.7537950069435
 20
-117.6765380565184
 30
0.0
 10
93.23186304092815
 20
-117.6765380565184
 30
0.0
 10
93.11610783262375
 20
-117.8201985382533
 30
0.0
 10
93.11610783262375
 20
-118.5732964113289
 30
0.0
  0
HATCH
  5
61
330
41
100
AcDbEntity
  8
_U+30EC_U+30A4_U+30E4_U+30FC 1
 62
   179
420
  2234388
100
AcDbHatch
 10
0.0
 20
0.0
 30
0.0
210
0.0
220
0.0
230
1.0
  2
SOLID
 70
     1
 71
     0
 91
        2
 92
        1
 93
        1
 72
     4
 94
        3
 73
     0
 74
     1
 95
       17
 96
       13
 40
0.0
 40
0.0
 40
0.0
 40
0.0
 40
1.0
 40
1.0
 40
1.0
 40
2.0
 40
2.0
 40
2.0
 40
3.0
 40
3.0
 40
3.0
 40
4.0
 40
4.0
 40
4.0
 40
4.0
 10
93.75689559288023
 20
-117.4340033343568
 10
94.43626842257149
 20
-117.4340033343568
 10
94.66502276279208
 20
-117.6482882735393
 10
94.66502276279208
 20
-118.581909150042
 10
94.66502276279208
 20
-119.4759114284644
 10
94.4390244989597
 20
-119.7019096922968
 10
93.75689559288023
 20
-119.7019096922968
 10
93.08510197325651
 20
-119.7019096922968
 10
92.84532332748311
 20
-119.4931369058906
 10
92.84532332748311
 20
-118.5677842585525
 10
92.84532332748311
 20
-117.6482882735393
 10
93.07958982048011
 20
-117.4340033343568
 10
93.75689559288023
 20
-117.4340033343568
 97
        0
 97
        0
 92
        1
 93
        1
 72
     4
 94
        3
 73
     0
 74
     1
 95
       17
 96
       13
 40
0.0
 40
0.0
 40
0.0
 40
0.0
 40
1.0
 40
1.0
 40
1.0
 40
2.0
 40
2.0
 40
2.0
 40
3.0
 40
3.0
 40
3.0
 40
4.0
 40
4.0
 40
4.0
 40
4.0
 10
93.11610783262375
 20
-118.5732964113289
 10
93.11610783262375
 20
-119.3322509467294
 10
93.24047577964127
 20
-119.4590304605866
 10
93.76791989843302
 20
-119.4590304605866
 10
94.27572697295885
 20
-119.4590304605866
 10
94.39423825765145
 20
-119.3067572401386
 10
94.39423825765145
 20
-118.581909150042
 10
94.39423825765145
 20
-117.7922932648228
 10
94.26160208146932
 20
-117.6765380565184
 10
93.7537950069435
 20
-117.6765380565184
 10
93.23186304092815
 20
-117.6765380565184
 10
93.11610783262375
 20
-117.8201985382533
 10
93.11610783262375
 20
-118.5732964113289
 97
        0
 97
        0
 75
     2
 76
     1
 98
        0
  0
POLYLINE
  5
62
330
41
100
AcDbEntity
  8
_U+30EC_U+30A4_U+30E4_U+30FC 1
370
     0
100
AcDb2dPolyline
 66
     1
 10
0.0
 20
0.0
 30
0.0
  0
VERTEX
  5
63
330
62
100
AcDbEntity
  8
_U+30EC_U+30A4_U+30E4_U+30FC 1
370
     0
100
AcDbVertex
100
AcDb2dVertex
 10
96.64044051403434
 20
-117.4563964550109
 30
0.0
  0
VERTEX
  5
64
330
62
100
AcDbEntity
  8
_U+30EC_U+30A4_U+30E4_U+30FC 1
370
     0
100
AcDbVertex
100
AcDb2dVertex
 10
96.64044051403434
 20
-118.9174614503054
 30
0.0
  0
VERTEX
  5
65
330
62
100
AcDbEntity
  8
_U+30EC_U+30A4_U+30E4_U+30FC 1
370
     0
100
AcDbVertex
100
AcDb2dVertex
 10
97.02387964154265
 20
-118.9174614503054
 30
0.0
  0
VERTEX
  5
66
330
62
100
AcDbEntity
  8
_U+30EC_U+30A4_U+30E4_U+30FC 1
370
     0
100
AcDbVertex
100
AcDb2dVertex
 10
97.02387964154265
 20
-119.1603406820155
 30
0.0
  0
VERTEX
  5
67
330
62
100
AcDbEntity
  8
_U+30EC_U+30A4_U+30E4_U+30FC 1
370
     0
100
AcDbVertex
100
AcDb2dVertex
 10
96.64044051403434
 20
-119.1603406820155
 30
0.0
  0
VERTEX
  5
68
330
62
100
AcDbEntity
  8
_U+30EC_U+30A4_U+30E4_U+30FC 1
370
     0
100
AcDbVertex
100
AcDb2dVertex
 10
96.64044051403434
 20
-119.6791720620941
 30
0.0
  0
VERTEX
  5
69
330
62
100
AcDbEntity
  8
_U+30EC_U+30A4_U+30E4_U+30FC 1
370
     0
100
AcDbVertex
100
AcDb2dVertex
 10
96.37241208528191
 20
-119.6791720620941
 30
0.0
  0
VERTEX
  5
6A
330
62
100
AcDbEntity
  8
_U+30EC_U+30A4_U+30E4_U+30FC 1
370
     0
100
AcDbVertex
100
AcDb2dVertex
 10
96.37241208528191
 20
-119.1603406820155
 30
0.0
  0
VERTEX
  5
6B
330
62
100
AcDbEntity
  8
_U+30EC_U+30A4_U+30E4_U+30FC 1
370
     0
100
AcDbVertex
100
AcDb2dVertex
 10
95.04949541894597
 20
-119.1603406820155
 30
0.0
  0
VERTEX
  5
6C
330
62
100
AcDbEntity
  8
_U+30EC_U+30A4_U+30E4_U+30FC 1
370
     0
100
AcDbVertex
100
AcDb2dVertex
 10
95.04949541894597
 20
-118.8582058079591
 30
0.0
  0
VERTEX
  5
6D
330
62
100
AcDbEntity
  8
_U+30EC_U+30A4_U+30E4_U+30FC 1
370
     0
100
AcDbVertex
100
AcDb2dVertex
 10
96.2621690297539
 20
-117.4563964550109
 30
0.0
  0
VERTEX
  5
6E
330
62
100
AcDbEntity
  8
_U+30EC_U+30A4_U+30E4_U+30FC 1
370
     0
100
AcDbVertex
100
AcDb2dVertex
 10
96.64044051403434
 20
-117.4563964550109
 30
0.0
  0
SEQEND
  5
6F
330
62
100
AcDbEntity
  8
_U+30EC_U+30A4_U+30E4_U+30FC 1
370
     0
  0
POLYLINE
  5
70
330
41
100
AcDbEntity
  8
_U+30EC_U+30A4_U+30E4_U+30FC 1
370
     0
100
AcDb2dPolyline
 66
     1
 10
0.0
 20
0.0
 30
0.0
  0
VERTEX
  5
71
330
70
100
AcDbEntity
  8
_U+30EC_U+30A4_U+30E4_U+30FC 1
370
     0
100
AcDbVertex
100
AcDb2dVertex
 10
96.37241208528191
 20
-117.6879068716197
 30
0.0
  0
VERTEX
  5
72
330
70
100
AcDbEntity
  8
_U+30EC_U+30A4_U+30E4_U+30FC 1
370
     0
100
AcDbVertex
100
AcDb2dVertex
 10
95.3147677713102
 20
-118.9174614503054
 30
0.0
  0
VERTEX
  5
73
330
70
100
AcDbEntity
  8
_U+30EC_U+30A4_U+30E4_U+30FC 1
370
     0
100
AcDbVertex
100
AcDb2dVertex
 10
96.37241208528191
 20
-118.9174614503054
 30
0.0
  0
VERTEX
  5
74
330
70
100
AcDbEntity
  8
_U+30EC_U+30A4_U+30E4_U+30FC 1
370
     0
100
AcDbVertex
100
AcDb2dVertex
 10
96.37241208528191
 20
-117.6879068716197
 30
0.0
  0
SEQEND
  5
75
330
70
100
AcDbEntity
  8
_U+30EC_U+30A4_U+30E4_U+30FC 1
370
     0
  0
HATCH
  5
76
330
41
100
AcDbEntity
  8
_U+30EC_U+30A4_U+30E4_U+30FC 1
 62
   179
420
  2234388
100
AcDbHatch
 10
0.0
 20
0.0
 30
0.0
210
0.0
220
0.0
230
1.0
  2
SOLID
 70
     1
 71
     0
 91
        2
 92
        1
 93
       11
 72
     1
 10
96.64044051403434
 20
-117.4563964550109
 11
96.64044051403434
 21
-118.9174614503054
 72
     1
 10
96.64044051403434
 20
-118.9174614503054
 11
97.02387964154265
 21
-118.9174614503054
 72
     1
 10
97.02387964154265
 20
-118.9174614503054
 11
97.02387964154265
 21
-119.1603406820155
 72
     1
 10
97.02387964154265
 20
-119.1603406820155
 11
96.64044051403434
 21
-119.1603406820155
 72
     1
 10
96.64044051403434
 20
-119.1603406820155
 11
96.64044051403434
 21
-119.6791720620941
 72
     1
 10
96.64044051403434
 20
-119.6791720620941
 11
96.37241208528191
 21
-119.6791720620941
 72
     1
 10
96.37241208528191
 20
-119.6791720620941
 11
96.37241208528191
 21
-119.1603406820155
 72
     1
 10
96.37241208528191
 20
-119.1603406820155
 11
95.04949541894597
 21
-119.1603406820155
 72
     1
 10
95.04949541894597
 20
-119.1603406820155
 11
95.04949541894597
 21
-118.8582058079591
 72
     1
 10
95.04949541894597
 20
-118.8582058079591
 11
96.2621690297539
 21
-117.4563964550109
 72
     1
 10
96.2621690297539
 20
-117.4563964550109
 11
96.64044051403434
 21
-117.4563964550109
 97
        0
 92
        1
 93
        3
 72
     1
 10
96.37241208528191
 20
-117.6879068716197
 11
95.3147677713102
 21
-118.9174614503054
 72
     1
 10
95.3147677713102
 20
-118.9174614503054
 11
96.37241208528191
 21
-118.9174614503054
 72
     1
 10
96.37241208528191
 20
-118.9174614503054
 11
96.37241208528191
 21
-117.6879068716197
 97
        0
 75
     2
 76
     1
 98
        0
  0
ENDBLK
  5
44
330
41
100
AcDbEntity
  8
0
100
AcDbBlockEnd
  0
BLOCK
  5
A7
330
A5
100
AcDbEntity
  8
0
100
AcDbBlockBegin
  2
block 3
 70
     0
 10
0.0
 20
0.0
 30
0.0
  3
block 3
  1

  0
POLYLINE
  5
A9
330
A5
100
AcDbEntity
  8
_U+30EC_U+30A4_U+30E4_U+30FC 1
370
     0
100
AcDb2dPolyline
 66
     1
 10
0.0
 20
0.0
 30
0.0
  0
VERTEX
  5
AA
330
A9
100
AcDbEntity
  8
_U+30EC_U+30A4_U+30E4_U+30FC 1
370
     0
100
AcDbVertex
100
AcDb2dVertex
 10
81.85322941747073
 20
-135.6599364895225
 30
0.0
  0
VERTEX
  5
AB
330
A9
100
AcDbEntity
  8
_U+30EC_U+30A4_U+30E4_U+30FC 1
370
     0
100
AcDbVertex
100
AcDb2dVertex
 10
81.85322941747073
 20
-135.9307209946631
 30
0.0
  0
VERTEX
  5
AC
330
A9
100
AcDbEntity
  8
_U+30EC_U+30A4_U+30E4_U+30FC 1
370
     0
100
AcDbVertex
100
AcDb2dVertex
 10
80.57974987134813
 20
-136.2163194103904
 30
0.0
  0
VERTEX
  5
AD
330
A9
100
AcDbEntity
  8
_U+30EC_U+30A4_U+30E4_U+30FC 1
370
     0
100
AcDbVertex
100
AcDb2dVertex
 10
81.85322941747073
 20
-136.4998507688264
 30
0.0
  0
VERTEX
  5
AE
330
A9
100
AcDbEntity
  8
_U+30EC_U+30A4_U+30E4_U+30FC 1
370
     0
100
AcDbVertex
100
AcDb2dVertex
 10
81.85322941747073
 20
-136.7706352739671
 30
0.0
  0
VERTEX
  5
AF
330
A9
100
AcDbEntity
  8
_U+30EC_U+30A4_U+30E4_U+30FC 1
370
     0
100
AcDbVertex
100
AcDb2dVertex
 10
80.30896536620749
 20
-137.1533853823783
 30
0.0
  0
VERTEX
  5
B0
330
A9
100
AcDbEntity
  8
_U+30EC_U+30A4_U+30E4_U+30FC 1
370
     0
100
AcDbVertex
100
AcDb2dVertex
 10
80.30896536620749
 20
-136.920841437124
 30
0.0
  0
VERTEX
  5
B1
330
A9
100
AcDbEntity
  8
_U+30EC_U+30A4_U+30E4_U+30FC 1
370
     0
100
AcDbVertex
100
AcDb2dVertex
 10
81.55919051780465
 20
-136.6352430213967
 30
0.0
  0
VERTEX
  5
B2
330
A9
100
AcDbEntity
  8
_U+30EC_U+30A4_U+30E4_U+30FC 1
370
     0
100
AcDbVertex
100
AcDb2dVertex
 10
80.30896536620749
 20
-136.3561902870915
 30
0.0
  0
VERTEX
  5
B3
330
A9
100
AcDbEntity
  8
_U+30EC_U+30A4_U+30E4_U+30FC 1
370
     0
100
AcDbVertex
100
AcDb2dVertex
 10
80.30896536620749
 20
-136.0767930432378
 30
0.0
  0
VERTEX
  5
B4
330
A9
100
AcDbEntity
  8
_U+30EC_U+30A4_U+30E4_U+30FC 1
370
     0
100
AcDbVertex
100
AcDb2dVertex
 10
81.55919051780465
 20
-135.797395799384
 30
0.0
  0
VERTEX
  5
B5
330
A9
100
AcDbEntity
  8
_U+30EC_U+30A4_U+30E4_U+30FC 1
370
     0
100
AcDbVertex
100
AcDb2dVertex
 10
80.30896536620749
 20
-135.5097303263656
 30
0.0
  0
VERTEX
  5
B6
330
A9
100
AcDbEntity
  8
_U+30EC_U+30A4_U+30E4_U+30FC 1
370
     0
100
AcDbVertex
100
AcDb2dVertex
 10
80.30896536620749
 20
-135.2771863811113
 30
0.0
  0
VERTEX
  5
B7
330
A9
100
AcDbEntity
  8
_U+30EC_U+30A4_U+30E4_U+30FC 1
370
     0
100
AcDbVertex
100
AcDb2dVertex
 10
81.85322941747073
 20
-135.6599364895225
 30
0.0
  0
SEQEND
  5
B8
330
A9
100
AcDbEntity
  8
_U+30EC_U+30A4_U+30E4_U+30FC 1
370
     0
  0
HATCH
  5
B9
330
A5
100
AcDbEntity
  8
_U+30EC_U+30A4_U+30E4_U+30FC 1
 62
   179
420
  2234388
100
AcDbHatch
 10
0.0
 20
0.0
 30
0.0
210
0.0
220
0.0
230
1.0
  2
SOLID
 70
     1
 71
     0
 91
        1
 92
        1
 93
       13
 72
     1
 10
81.85322941747073
 20
-135.6599364895225
 11
81.85322941747073
 21
-135.9307209946631
 72
     1
 10
81.85322941747073
 20
-135.9307209946631
 11
80.57974987134813
 21
-136.2163194103904
 72
     1
 10
80.57974987134813
 20
-136.2163194103904
 11
81.85322941747073
 21
-136.4998507688264
 72
     1
 10
81.85322941747073
 20
-136.4998507688264
 11
81.85322941747073
 21
-136.7706352739671
 72
     1
 10
81.85322941747073
 20
-136.7706352739671
 11
80.30896536620749
 21
-137.1533853823783
 72
     1
 10
80.30896536620749
 20
-137.1533853823783
 11
80.30896536620749
 21
-136.920841437124
 72
     1
 10
80.30896536620749
 20
-136.920841437124
 11
81.55919051780465
 21
-136.6352430213967
 72
     1
 10
81.55919051780465
 20
-136.6352430213967
 11
80.30896536620749
 21
-136.3561902870915
 72
     1
 10
80.30896536620749
 20
-136.3561902870915
 11
80.30896536620749
 21
-136.0767930432378
 72
     1
 10
80.30896536620749
 20
-136.0767930432378
 11
81.55919051780465
 21
-135.797395799384
 72
     1
 10
81.55919051780465
 20
-135.797395799384
 11
80.30896536620749
 21
-135.5097303263656
 72
     1
 10
80.30896536620749
 20
-135.5097303263656
 11
80.30896536620749
 21
-135.2771863811113
 72
     1
 10
80.30896536620749
 20
-135.2771863811113
 11
81.85322941747073
 21
-135.6599364895225
 97
        0
 75
     2
 76
     1
 98
        0
  0
ENDBLK
  5
A8
330
A5
100
AcDbEntity
  8
0
100
AcDbBlockEnd
  0
BLOCK
  5
C8
330
C6
100
AcDbEntity
  8
0
100
AcDbBlockBegin
  2
block 4
 70
     0
 10
0.0
 20
0.0
 30
0.0
  3
block 4
  1

  0
POLYLINE
  5
CA
330
C6
100
AcDbEntity
  8
_U+30EC_U+30A4_U+30E4_U+30FC 1
370
     0
100
AcDb2dPolyline
 66
     1
 10
0.0
 20
0.0
 30
0.0
  0
VERTEX
  5
CB
330
CA
100
AcDbEntity
  8
_U+30EC_U+30A4_U+30E4_U+30FC 1
370
     0
100
AcDbVertex
100
AcDb2dVertex
 10
99.55843639004095
 20
-127.9332763352042
 30
0.0
  0
VERTEX
  5
CC
330
CA
100
AcDbEntity
  8
_U+30EC_U+30A4_U+30E4_U+30FC 1
370
     0
100
AcDbVertex
100
AcDb2dVertex
 10
99.55843639004095
 20
-126.3888400291667
 30
0.0
  0
VERTEX
  5
CD
330
CA
100
AcDbEntity
  8
_U+30EC_U+30A4_U+30E4_U+30FC 1
370
     0
100
AcDbVertex
100
AcDb2dVertex
 10
99.79304739258646
 20
-126.3888400291667
 30
0.0
  0
VERTEX
  5
CE
330
CA
100
AcDbEntity
  8
_U+30EC_U+30A4_U+30E4_U+30FC 1
370
     0
100
AcDbVertex
100
AcDb2dVertex
 10
99.79304739258646
 20
-127.7217474724098
 30
0.0
  0
VERTEX
  5
CF
330
CA
100
AcDbEntity
  8
_U+30EC_U+30A4_U+30E4_U+30FC 1
370
     0
100
AcDbVertex
100
AcDb2dVertex
 10
100.5189290113286
 20
-127.7217474724098
 30
0.0
  0
VERTEX
  5
D0
330
CA
100
AcDbEntity
  8
_U+30EC_U+30A4_U+30E4_U+30FC 1
370
     0
100
AcDbVertex
100
AcDb2dVertex
 10
100.5189290113286
 20
-127.9332763352042
 30
0.0
  0
VERTEX
  5
D1
330
CA
100
AcDbEntity
  8
_U+30EC_U+30A4_U+30E4_U+30FC 1
370
     0
100
AcDbVertex
100
AcDb2dVertex
 10
99.55843639004095
 20
-127.9332763352042
 30
0.0
  0
SEQEND
  5
D2
330
CA
100
AcDbEntity
  8
_U+30EC_U+30A4_U+30E4_U+30FC 1
370
     0
  0
HATCH
  5
D3
330
C6
100
AcDbEntity
  8
_U+30EC_U+30A4_U+30E4_U+30FC 1
 62
   179
420
  2234388
100
AcDbHatch
 10
0.0
 20
0.0
 30
0.0
210
0.0
220
0.0
230
1.0
  2
SOLID
 70
     1
 71
     0
 91
        1
 92
        1
 93
        6
 72
     1
 10
99.55843639004095
 20
-127.9332763352042
 11
99.55843639004095
 21
-126.3888400291667
 72
     1
 10
99.55843639004095
 20
-126.3888400291667
 11
99.79304739258646
 21
-126.3888400291667
 72
     1
 10
99.79304739258646
 20
-126.3888400291667
 11
99.79304739258646
 21
-127.7217474724098
 72
     1
 10
99.79304739258646
 20
-127.7217474724098
 11
100.5189290113286
 21
-127.7217474724098
 72
     1
 10
100.5189290113286
 20
-127.7217474724098
 11
100.5189290113286
 21
-127.9332763352042
 72
     1
 10
100.5189290113286
 20
-127.9332763352042
 11
99.55843639004095
 21
-127.9332763352042
 97
        0
 75
     2
 76
     1
 98
        0
  0
ENDBLK
  5
C9
330
C6
100
AcDbEntity
  8
0
100
AcDbBlockEnd
  0
ENDSEC
  0
SECTION
  2
ENTITIES
  0
INSERT
  5
42
330
1F
100
AcDbEntity
  8
_U+30EC_U+30A4_U+30E4_U+30FC 1
100
AcDbBlockReference
  2
block 2
 10
0.0
 20
0.0
 30
0.0
  0
POLYLINE
  5
77
330
1F
100
AcDbEntity
  8
_U+30EC_U+30A4_U+30E4_U+30FC 1
 62
   179
420
  2234388
370
    25
100
AcDb2dPolyline
 66
     1
 10
0.0
 20
0.0
 30
0.0
  0
VERTEX
  5
78
330
77
100
AcDbEntity
  8
_U+30EC_U+30A4_U+30E4_U+30FC 1
 62
   179
420
  2234388
370
    25
100
AcDbVertex
100
AcDb2dVertex
 10
87.49939943437101
 20
-139.2156360763074
 30
0.0
  0
VERTEX
  5
79
330
77
100
AcDbEntity
  8
_U+30EC_U+30A4_U+30E4_U+30FC 1
 62
   179
420
  2234388
370
    25
100
AcDbVertex
100
AcDb2dVertex
 10
113.1245444161632
 20
-139.2156360763074
 30
0.0
  0
SEQEND
  5
7A
330
77
100
AcDbEntity
  8
_U+30EC_U+30A4_U+30E4_U+30FC 1
 62
   179
420
  2234388
370
    25
  0
POLYLINE
  5
7B
330
1F
100
AcDbEntity
  8
_U+30EC_U+30A4_U+30E4_U+30FC 1
 62
   179
420
  2234388
370
    25
100
AcDb2dPolyline
 66
     1
 10
0.0
 20
0.0
 30
0.0
  0
VERTEX
  5
7C
330
7B
100
AcDbEntity
  8
_U+30EC_U+30A4_U+30E4_U+30FC 1
 62
   179
420
  2234388
370
    25
100
AcDbVertex
100
AcDb2dVertex
 10
87.49939943437101
 20
-133.2156269111405
 30
0.0
  0
VERTEX
  5
7D
330
7B
100
AcDbEntity
  8
_U+30EC_U+30A4_U+30E4_U+30FC 1
 62
   179
420
  2234388
370
    25
100
AcDbVertex
100
AcDb2dVertex
 10
113.1245444161632
 20
-133.2156269111405
 30
0.0
  0
SEQEND
  5
7E
330
7B
100
AcDbEntity
  8
_U+30EC_U+30A4_U+30E4_U+30FC 1
 62
   179
420
  2234388
370
    25
  0
POLYLINE
  5
7F
330
1F
100
AcDbEntity
  8
_U+30EC_U+30A4_U+30E4_U+30FC 1
 62
   179
420
  2234388
370
    25
100
AcDb2dPolyline
 66
     1
 10
0.0
 20
0.0
 30
0.0
  0
VERTEX
  5
80
330
7F
100
AcDbEntity
  8
_U+30EC_U+30A4_U+30E4_U+30FC 1
 62
   179
420
  2234388
370
    25
100
AcDbVertex
100
AcDb2dVertex
 10
87.49939943437101
 20
-139.9659591316751
 30
0.0
  0
VERTEX
  5
81
330
7F
100
AcDbEntity
  8
_U+30EC_U+30A4_U+30E4_U+30FC 1
 62
   179
420
  2234388
370
    25
100
AcDbVertex
100
AcDb2dVertex
 10
113.1245444161632
 20
-139.9659591316751
 30
0.0
  0
SEQEND
  5
82
330
7F
100
AcDbEntity
  8
_U+30EC_U+30A4_U+30E4_U+30FC 1
 62
   179
420
  2234388
370
    25
  0
POLYLINE
  5
83
330
1F
100
AcDbEntity
  8
_U+30EC_U+30A4_U+30E4_U+30FC 1
 62
   179
420
  2234388
370
    25
100
AcDb2dPolyline
 66
     1
 10
0.0
 20
0.0
 30
0.0
  0
VERTEX
  5
84
330
83
100
AcDbEntity
  8
_U+30EC_U+30A4_U+30E4_U+30FC 1
 62
   179
420
  2234388
370
    25
100
AcDbVertex
100
AcDb2dVertex
 10
87.49939943437101
 20
-132.4659741335501
 30
0.0
  0
VERTEX
  5
85
330
83
100
AcDbEntity
  8
_U+30EC_U+30A4_U+30E4_U+30FC 1
 62
   179
420
  2234388
370
    25
100
AcDbVertex
100
AcDb2dVertex
 10
113.1245444161632
 20
-132.4659741335501
 30
0.0
  0
SEQEND
  5
86
330
83
100
AcDbEntity
  8
_U+30EC_U+30A4_U+30E4_U+30FC 1
 62
   179
420
  2234388
370
    25
  0
POLYLINE
  5
87
330
1F
100
AcDbEntity
  8
_U+30EC_U+30A4_U+30E4_U+30FC 1
 62
   179
420
  2234388
370
    25
100
AcDb2dPolyline
 66
     1
 10
0.0
 20
0.0
 30
0.0
  0
VERTEX
  5
88
330
87
100
AcDbEntity
  8
_U+30EC_U+30A4_U+30E4_U+30FC 1
 62
   179
420
  2234388
370
    25
100
AcDbVertex
100
AcDb2dVertex
 10
86.49927445988632
 20
-138.9661869097032
 30
0.0
  0
VERTEX
  5
89
330
87
100
AcDbEntity
  8
_U+30EC_U+30A4_U+30E4_U+30FC 1
 62
   179
420
  2234388
370
    25
100
AcDbVertex
100
AcDb2dVertex
 10
86.49927445988632
 20
-133.4657463555227
 30
0.0
  0
SEQEND
  5
8A
330
87
100
AcDbEntity
  8
_U+30EC_U+30A4_U+30E4_U+30FC 1
 62
   179
420
  2234388
370
    25
  0
POLYLINE
  5
8B
330
1F
100
AcDbEntity
  8
_U+30EC_U+30A4_U+30E4_U+30FC 1
 62
   179
420
  2234388
370
    25
100
AcDb2dPolyline
 66
     1
 10
0.0
 20
0.0
 30
0.0
  0
VERTEX
  5
8C
330
8B
100
AcDbEntity
  8
_U+30EC_U+30A4_U+30E4_U+30FC 1
 62
   179
420
  2234388
370
    25
100
AcDbVertex
100
AcDb2dVertex
 10
87.24963277407643
 20
-138.9661869097032
 30
0.0
  0
VERTEX
  5
8D
330
8B
100
AcDbEntity
  8
_U+30EC_U+30A4_U+30E4_U+30FC 1
 62
   179
420
  2234388
370
    25
100
AcDbVertex
100
AcDb2dVertex
 10
87.24963277407643
 20
-133.4657463555227
 30
0.0
  0
SEQEND
  5
8E
330
8B
100
AcDbEntity
  8
_U+30EC_U+30A4_U+30E4_U+30FC 1
 62
   179
420
  2234388
370
    25
  0
SPLINE
  5
8F
330
1F
100
AcDbEntity
  8
_U+30EC_U+30A4_U+30E4_U+30FC 1
 62
   179
420
  2234388
370
    25
100
AcDbSpline
210
0.0
220
0.0
230
1.0
 70
     8
 71
     3
 72
    11
 73
     7
 74
     0
 42
0.0000000001
 43
0.0000000001
 12
1.0
 22
0.0
 32
0.0
 13
1.0
 23
0.0
 33
0.0
 40
0.0
 40
0.0
 40
0.0
 40
0.0
 40
1.0
 40
1.0
 40
1.0
 40
2.0
 40
2.0
 40
2.0
 40
2.0
 10
113.1245444161632
 20
-133.2156269111405
 30
0.0
 10
113.3312340531238
 20
-133.2156269111405
 30
0.0
 10
113.4993679377232
 20
-133.0481985778492
 30
0.0
 10
113.4993679377232
 20
-132.8408005223453
 30
0.0
 10
113.4993679377232
 20
-132.6334377446196
 30
0.0
 10
113.3312340531238
 20
-132.4659741335501
 30
0.0
 10
113.1245444161632
 20
-132.4659741335501
 30
0.0
  0
SPLINE
  5
90
330
1F
100
AcDbEntity
  8
_U+30EC_U+30A4_U+30E4_U+30FC 1
 62
   179
420
  2234388
370
    25
100
AcDbSpline
210
0.0
220
0.0
230
1.0
 70
     8
 71
     3
 72
    11
 73
     7
 74
     0
 42
0.0000000001
 43
0.0000000001
 12
1.0
 22
0.0
 32
0.0
 13
1.0
 23
0.0
 33
0.0
 40
0.0
 40
0.0
 40
0.0
 40
0.0
 40
1.0
 40
1.0
 40
1.0
 40
2.0
 40
2.0
 40
2.0
 40
2.0
 10
113.1245444161632
 20
-139.9659591316751
 30
0.0
 10
113.3312340531238
 20
-139.9659591316751
 30
0.0
 10
113.4993679377232
 20
-139.7978252428282
 30
0.0
 10
113.4993679377232
 20
-139.5911327428799
 30
0.0
 10
113.4993679377232
 20
-139.383734687376
 30
0.0
 10
113.3312340531238
 20
-139.2156360763074
 30
0.0
 10
113.1245444161632
 20
-139.2156360763074
 30
0.0
  0
SPLINE
  5
91
330
1F
100
AcDbEntity
  8
_U+30EC_U+30A4_U+30E4_U+30FC 1
 62
   179
420
  2234388
370
    25
100
AcDbSpline
210
0.0
220
0.0
230
1.0
 70
     8
 71
     3
 72
     8
 73
     4
 74
     0
 42
0.0000000001
 43
0.0000000001
 12
1.0
 22
0.0
 32
0.0
 13
1.0
 23
0.0
 33
0.0
 40
0.0
 40
0.0
 40
0.0
 40
0.0
 40
1.0
 40
1.0
 40
1.0
 40
1.0
 10
86.49927445988632
 20
-138.9661869097032
 30
0.0
 10
86.49927445988632
 20
-139.518107742898
 30
0.0
 10
86.94716111512645
 20
-139.9659591316751
 30
0.0
 10
87.49939943437101
 20
-139.9659591316751
 30
0.0
  0
SPLINE
  5
92
330
1F
100
AcDbEntity
  8
_U+30EC_U+30A4_U+30E4_U+30FC 1
 62
   179
420
  2234388
370
    25
100
AcDbSpline
210
0.0
220
0.0
230
1.0
 70
     8
 71
     3
 72
     8
 73
     4
 74
     0
 42
0.0000000001
 43
0.0000000001
 12
1.0
 22
0.0
 32
0.0
 13
1.0
 23
0.0
 33
0.0
 40
0.0
 40
0.0
 40
0.0
 40
0.0
 40
1.0
 40
1.0
 40
1.0
 40
1.0
 10
87.49939943437101
 20
-132.4659741335501
 30
0.0
 10
86.94716111512645
 20
-132.4659741335501
 30
0.0
 10
86.49927445988632
 20
-132.9131552445492
 30
0.0
 10
86.49927445988632
 20
-133.4657463555227
 30
0.0
  0
SPLINE
  5
93
330
1F
100
AcDbEntity
  8
_U+30EC_U+30A4_U+30E4_U+30FC 1
 62
   179
420
  2234388
370
    25
100
AcDbSpline
210
0.0
220
0.0
230
1.0
 70
     8
 71
     3
 72
     8
 73
     4
 74
     0
 42
0.0000000001
 43
0.0000000001
 12
1.0
 22
0.0
 32
0.0
 13
1.0
 23
0.0
 33
0.0
 40
0.0
 40
0.0
 40
0.0
 40
0.0
 40
1.0
 40
1.0
 40
1.0
 40
1.0
 10
87.24963277407643
 20
-138.9661869097032
 30
0.0
 10
87.24963277407643
 20
-139.1039819096683
 30
0.0
 10
87.36125166011767
 20
-139.2156360763074
 30
0.0
 10
87.49939943437101
 20
-139.2156360763074
 30
0.0
  0
SPLINE
  5
94
330
1F
100
AcDbEntity
  8
_U+30EC_U+30A4_U+30E4_U+30FC 1
 62
   179
420
  2234388
370
    25
100
AcDbSpline
210
0.0
220
0.0
230
1.0
 70
     8
 71
     3
 72
     8
 73
     4
 74
     0
 42
0.0000000001
 43
0.0000000001
 12
1.0
 22
0.0
 32
0.0
 13
1.0
 23
0.0
 33
0.0
 40
0.0
 40
0.0
 40
0.0
 40
0.0
 40
1.0
 40
1.0
 40
1.0
 40
1.0
 10
87.49939943437101
 20
-133.2156269111405
 30
0.0
 10
87.36125166011767
 20
-133.2156269111405
 30
0.0
 10
87.24963277407643
 20
-133.3279513555569
 30
0.0
 10
87.24963277407643
 20
-133.4657463555227
 30
0.0
  0
SPLINE
  5
95
330
1F
100
AcDbEntity
  8
_U+30EC_U+30A4_U+30E4_U+30FC 1
 62
   179
420
  2234388
370
     9
100
AcDbSpline
210
0.0
220
0.0
230
1.0
 70
    11
 71
     3
 72
    17
 73
    13
 74
     0
 42
0.0000000001
 43
0.0000000001
 12
1.0
 22
0.0
 32
0.0
 13
1.0
 23
0.0
 33
0.0
 40
0.0
 40
0.0
 40
0.0
 40
0.0
 40
1.0
 40
1.0
 40
1.0
 40
2.0
 40
2.0
 40
2.0
 40
3.0
 40
3.0
 40
3.0
 40
4.0
 40
4.0
 40
4.0
 40
4.0
 10
113.4993679377232
 20
-128.68052746783
 30
0.0
 10
113.5544718252063
 20
-128.68052746783
 30
0.0
 10
113.5992746018411
 20
-128.6357246900633
 30
0.0
 10
113.5992746018411
 20
-128.5806208011881
 30
0.0
 10
113.5992746018411
 20
-128.5254816345353
 30
0.0
 10
113.5544718252063
 20
-128.4807141345464
 30
0.0
 10
113.4993679377232
 20
-128.4807141345464
 30
0.0
 10
113.4442287724633
 20
-128.4807141345464
 30
0.0
 10
113.3994612736054
 20
-128.5254816345353
 30
0.0
 10
113.3994612736054
 20
-128.5806208011881
 30
0.0
 10
113.3994612736054
 20
-128.6357246900633
 30
0.0
 10
113.4442287724633
 20
-128.68052746783
 30
0.0
 10
113.4993679377232
 20
-128.68052746783
 30
0.0
  0
SPLINE
  5
96
330
1F
100
AcDbEntity
  8
_U+30EC_U+30A4_U+30E4_U+30FC 1
 62
   179
420
  2234388
370
     9
100
AcDbSpline
210
0.0
220
0.0
230
1.0
 70
    11
 71
     3
 72
    17
 73
    13
 74
     0
 42
0.0000000001
 43
0.0000000001
 12
1.0
 22
0.0
 32
0.0
 13
1.0
 23
0.0
 33
0.0
 40
0.0
 40
0.0
 40
0.0
 40
0.0
 40
1.0
 40
1.0
 40
1.0
 40
2.0
 40
2.0
 40
2.0
 40
3.0
 40
3.0
 40
3.0
 40
4.0
 40
4.0
 40
4.0
 40
4.0
 10
82.49951539526201
 20
-138.9710199652574
 30
0.0
 10
82.44441150777894
 20
-138.9710199652574
 30
0.0
 10
82.39960873114418
 20
-139.0157874652459
 30
0.0
 10
82.39960873114418
 20
-139.070926631899
 30
0.0
 10
82.39960873114418
 20
-139.1260305207739
 30
0.0
 10
82.44441150777894
 20
-139.1708332985406
 30
0.0
 10
82.49951539526201
 20
-139.1708332985406
 30
0.0
 10
82.55465456052197
 20
-139.1708332985406
 30
0.0
 10
82.59942205937985
 20
-139.1260305207739
 30
0.0
 10
82.59942205937985
 20
-139.070926631899
 30
0.0
 10
82.59942205937985
 20
-139.0157874652459
 30
0.0
 10
82.55465456052197
 20
-138.9710199652574
 30
0.0
 10
82.49951539526201
 20
-138.9710199652574
 30
0.0
  0
SPLINE
  5
97
330
1F
100
AcDbEntity
  8
_U+30EC_U+30A4_U+30E4_U+30FC 1
 62
   179
420
  2234388
370
     9
100
AcDbSpline
210
0.0
220
0.0
230
1.0
 70
    11
 71
     3
 72
    17
 73
    13
 74
     0
 42
0.0000000001
 43
0.0000000001
 12
1.0
 22
0.0
 32
0.0
 13
1.0
 23
0.0
 33
0.0
 40
0.0
 40
0.0
 40
0.0
 40
0.0
 40
1.0
 40
1.0
 40
1.0
 40
2.0
 40
2.0
 40
2.0
 40
3.0
 40
3.0
 40
3.0
 40
4.0
 40
4.0
 40
4.0
 40
4.0
 10
82.49951539526201
 20
-133.209453300031
 30
0.0
 10
82.44441150777894
 20
-133.209453300031
 30
0.0
 10
82.39960873114418
 20
-133.2542208000195
 30
0.0
 10
82.39960873114418
 20
-133.3093599666726
 30
0.0
 10
82.39960873114418
 20
-133.3644638555475
 30
0.0
 10
82.44441150777894
 20
-133.4092666333142
 30
0.0
 10
82.49951539526201
 20
-133.4092666333142
 30
0.0
 10
82.55465456052197
 20
-133.4092666333142
 30
0.0
 10
82.59942205937985
 20
-133.3644638555475
 30
0.0
 10
82.59942205937985
 20
-133.3093599666726
 30
0.0
 10
82.59942205937985
 20
-133.2542208000195
 30
0.0
 10
82.55465456052197
 20
-133.209453300031
 30
0.0
 10
82.49951539526201
 20
-133.209453300031
 30
0.0
  0
SPLINE
  5
98
330
1F
100
AcDbEntity
  8
_U+30EC_U+30A4_U+30E4_U+30FC 1
 62
   179
420
  2234388
370
     9
100
AcDbSpline
210
0.0
220
0.0
230
1.0
 70
    11
 71
     3
 72
    17
 73
    13
 74
     0
 42
0.0000000001
 43
0.0000000001
 12
1.0
 22
0.0
 32
0.0
 13
1.0
 23
0.0
 33
0.0
 40
0.0
 40
0.0
 40
0.0
 40
0.0
 40
1.0
 40
1.0
 40
1.0
 40
2.0
 40
2.0
 40
2.0
 40
3.0
 40
3.0
 40
3.0
 40
4.0
 40
4.0
 40
4.0
 40
4.0
 10
86.49927445988632
 20
-128.68052746783
 30
0.0
 10
86.55476640291505
 20
-128.68052746783
 30
0.0
 10
86.59953608946132
 20
-128.6357246900633
 30
0.0
 10
86.59953608946132
 20
-128.5806208011881
 30
0.0
 10
86.59953608946132
 20
-128.5254816345353
 30
0.0
 10
86.55476640291505
 20
-128.4807141345464
 30
0.0
 10
86.49927445988632
 20
-128.4807141345464
 30
0.0
 10
86.44417057240325
 20
-128.4807141345464
 30
0.0
 10
86.3993677957685
 20
-128.5254816345353
 30
0.0
 10
86.3993677957685
 20
-128.5806208011881
 30
0.0
 10
86.3993677957685
 20
-128.6357246900633
 30
0.0
 10
86.44417057240325
 20
-128.68052746783
 30
0.0
 10
86.49927445988632
 20
-128.68052746783
 30
0.0
  0
POLYLINE
  5
99
330
1F
100
AcDbEntity
  8
_U+30EC_U+30A4_U+30E4_U+30FC 1
 62
   179
420
  2234388
370
     9
100
AcDb2dPolyline
 66
     1
 10
0.0
 20
0.0
 30
0.0
  0
VERTEX
  5
9A
330
99
100
AcDbEntity
  8
_U+30EC_U+30A4_U+30E4_U+30FC 1
 62
   179
420
  2234388
370
     9
100
AcDbVertex
100
AcDb2dVertex
 10
82.49951539526201
 20
-133.209453300031
 30
0.0
  0
VERTEX
  5
9B
330
99
100
AcDbEntity
  8
_U+30EC_U+30A4_U+30E4_U+30FC 1
 62
   179
420
  2234388
370
     9
100
AcDbVertex
100
AcDb2dVertex
 10
82.49951539526201
 20
-139.0247480207994
 30
0.0
  0
SEQEND
  5
9C
330
99
100
AcDbEntity
  8
_U+30EC_U+30A4_U+30E4_U+30FC 1
 62
   179
420
  2234388
370
     9
  0
POLYLINE
  5
9D
330
1F
100
AcDbEntity
  8
_U+30EC_U+30A4_U+30E4_U+30FC 1
 62
   179
420
  2234388
370
     9
100
AcDb2dPolyline
 66
     1
 10
0.0
 20
0.0
 30
0.0
  0
VERTEX
  5
9E
330
9D
100
AcDbEntity
  8
_U+30EC_U+30A4_U+30E4_U+30FC 1
 62
   179
420
  2234388
370
     9
100
AcDbVertex
100
AcDb2dVertex
 10
84.95932894361806
 20
-133.3093599666726
 30
0.0
  0
VERTEX
  5
9F
330
9D
100
AcDbEntity
  8
_U+30EC_U+30A4_U+30E4_U+30FC 1
 62
   179
420
  2234388
370
     9
100
AcDbVertex
100
AcDb2dVertex
 10
81.4994277574029
 20
-133.3093599666726
 30
0.0
  0
SEQEND
  5
A0
330
9D
100
AcDbEntity
  8
_U+30EC_U+30A4_U+30E4_U+30FC 1
 62
   179
420
  2234388
370
     9
  0
POLYLINE
  5
A1
330
1F
100
AcDbEntity
  8
_U+30EC_U+30A4_U+30E4_U+30FC 1
 62
   179
420
  2234388
370
     9
100
AcDb2dPolyline
 66
     1
 10
0.0
 20
0.0
 30
0.0
  0
VERTEX
  5
A2
330
A1
100
AcDbEntity
  8
_U+30EC_U+30A4_U+30E4_U+30FC 1
 62
   179
420
  2234388
370
     9
100
AcDbVertex
100
AcDb2dVertex
 10
84.95932894361806
 20
-139.070926631899
 30
0.0
  0
VERTEX
  5
A3
330
A1
100
AcDbEntity
  8
_U+30EC_U+30A4_U+30E4_U+30FC 1
 62
   179
420
  2234388
370
     9
100
AcDbVertex
100
AcDb2dVertex
 10
81.4994277574029
 20
-139.070926631899
 30
0.0
  0
SEQEND
  5
A4
330
A1
100
AcDbEntity
  8
_U+30EC_U+30A4_U+30E4_U+30FC 1
 62
   179
420
  2234388
370
     9
  0
INSERT
  5
A6
330
1F
100
AcDbEntity
  8
_U+30EC_U+30A4_U+30E4_U+30FC 1
100
AcDbBlockReference
  2
block 3
 10
0.0
 20
0.0
 30
0.0
  0
POLYLINE
  5
BA
330
1F
100
AcDbEntity
  8
_U+30EC_U+30A4_U+30E4_U+30FC 1
 62
   179
420
  2234388
370
     9
100
AcDb2dPolyline
 66
     1
 10
0.0
 20
0.0
 30
0.0
  0
VERTEX
  5
BB
330
BA
100
AcDbEntity
  8
_U+30EC_U+30A4_U+30E4_U+30FC 1
 62
   179
420
  2234388
370
     9
100
AcDbVertex
100
AcDb2dVertex
 10
113.4993679377232
 20
-128.5806208011881
 30
0.0
  0
VERTEX
  5
BC
330
BA
100
AcDbEntity
  8
_U+30EC_U+30A4_U+30E4_U+30FC 1
 62
   179
420
  2234388
370
     9
100
AcDbVertex
100
AcDb2dVertex
 10
86.49927445988632
 20
-128.5806208011881
 30
0.0
  0
SEQEND
  5
BD
330
BA
100
AcDbEntity
  8
_U+30EC_U+30A4_U+30E4_U+30FC 1
 62
   179
420
  2234388
370
     9
  0
POLYLINE
  5
BE
330
1F
100
AcDbEntity
  8
_U+30EC_U+30A4_U+30E4_U+30FC 1
 62
   179
420
  2234388
370
     9
100
AcDb2dPolyline
 66
     1
 10
0.0
 20
0.0
 30
0.0
  0
VERTEX
  5
BF
330
BE
100
AcDbEntity
  8
_U+30EC_U+30A4_U+30E4_U+30FC 1
 62
   179
420
  2234388
370
     9
100
AcDbVertex
100
AcDb2dVertex
 10
113.4993679377232
 20
-131.0403991339068
 30
0.0
  0
VERTEX
  5
C0
330
BE
100
AcDbEntity
  8
_U+30EC_U+30A4_U+30E4_U+30FC 1
 62
   179
420
  2234388
370
     9
100
AcDbVertex
100
AcDb2dVertex
 10
113.4993679377232
 20
-127.5801430236606
 30
0.0
  0
SEQEND
  5
C1
330
BE
100
AcDbEntity
  8
_U+30EC_U+30A4_U+30E4_U+30FC 1
 62
   179
420
  2234388
370
     9
  0
POLYLINE
  5
C2
330
1F
100
AcDbEntity
  8
_U+30EC_U+30A4_U+30E4_U+30FC 1
 62
   179
420
  2234388
370
     9
100
AcDb2dPolyline
 66
     1
 10
0.0
 20
0.0
 30
0.0
  0
VERTEX
  5
C3
330
C2
100
AcDbEntity
  8
_U+30EC_U+30A4_U+30E4_U+30FC 1
 62
   179
420
  2234388
370
     9
100
AcDbVertex
100
AcDb2dVertex
 10
86.49927445988632
 20
-130.4154533007294
 30
0.0
  0
VERTEX
  5
C4
330
C2
100
AcDbEntity
  8
_U+30EC_U+30A4_U+30E4_U+30FC 1
 62
   179
420
  2234388
370
     9
100
AcDbVertex
100
AcDb2dVertex
 10
86.49927445988632
 20
-127.5801430236606
 30
0.0
  0
SEQEND
  5
C5
330
C2
100
AcDbEntity
  8
_U+30EC_U+30A4_U+30E4_U+30FC 1
 62
   179
420
  2234388
370
     9
  0
INSERT
  5
C7
330
1F
100
AcDbEntity
  8
_U+30EC_U+30A4_U+30E4_U+30FC 1
100
AcDbBlockReference
  2
block 4
 10
0.0
 20
0.0
 30
0.0
  0
ENDSEC
  0
SECTION
  2
OBJECTS
  0
DICTIONARY
  5
C
330
0
100
AcDbDictionary
281
     1
  3
ACAD_GROUP
350
D
  3
ACAD_LAYOUT
350
1A
  3
ACAD_MATERIAL
350
3B
  3
ACAD_MLEADERSTYLE
350
D5
  3
ACAD_MLINESTYLE
350
17
  3
ACAD_PLOTSETTINGS
350
19
  3
ACAD_PLOTSTYLENAME
350
E
  3
ACAD_TABLESTYLE
350
D4
  3
ACAD_VISUALSTYLE
350
2A
  0
SUN
  5
3F
330
29
100
AcDbSun
 90
        1
290
     0
 63
     7
421
 16777215
 40
1.0
291
     1
 91
  2455826
 92
 54000000
292
     0
 70
     2
 71
   256
280
     1
  0
DICTIONARY
  5
D
102
{ACAD_REACTORS
330
C
102
}
330
C
100
AcDbDictionary
281
     1
  0
DICTIONARY
  5
1A
102
{ACAD_REACTORS
330
C
102
}
330
C
100
AcDbDictionary
281
     1
  3
Layout1
350
1E
  3
Layout2
350
26
  3
Model
350
22
  0
DICTIONARY
  5
3B
102
{ACAD_REACTORS
330
C
102
}
330
C
100
AcDbDictionary
281
     1
  3
ByBlock
350
3D
  3
ByLayer
350
3C
  3
Global
350
3E
  0
DICTIONARY
  5
D5
102
{ACAD_REACTORS
330
C
102
}
330
C
100
AcDbDictionary
281
     1
  0
DICTIONARY
  5
17
102
{ACAD_REACTORS
330
C
102
}
330
C
100
AcDbDictionary
281
     1
  3
Standard
350
18
  0
DICTIONARY
  5
19
102
{ACAD_REACTORS
330
C
102
}
330
C
100
AcDbDictionary
281
     1
  0
ACDBDICTIONARYWDFLT
  5
E
102
{ACAD_REACTORS
330
C
102
}
330
C
100
AcDbDictionary
281
     1
  3
Normal
350
F
100
AcDbDictionaryWithDefault
340
F
  0
DICTIONARY
  5
D4
102
{ACAD_REACTORS
330
C
102
}
330
C
100
AcDbDictionary
281
     1
  0
DICTIONARY
  5
2A
102
{ACAD_REACTORS
330
C
102
}
330
C
100
AcDbDictionary
281
     1
  3
2dWireframe
350
2F
  3
3D Hidden
350
31
  3
3dWireframe
350
30
  3
Basic
350
32
  3
Brighten
350
36
  3
ColorChange
350
3A
  3
Conceptual
350
34
  3
Dim
350
35
  3
Facepattern
350
39
  3
Flat
350
2B
  3
FlatWithEdges
350
2C
  3
Gouraud
350
2D
  3
GouraudWithEdges
350
2E
  3
Linepattern
350
38
  3
Realistic
350
33
  3
Thicken
350
37
  0
LAYOUT
  5
1E
102
{ACAD_REACTORS
330
1A
102
}
330
1A
100
AcDbPlotSettings
  1

  2
none_device
  4

  6

 40
0.0
 41
0.0
 42
0.0
 43
0.0
 44
0.0
 45
0.0
 46
0.0
 47
0.0
 48
0.0
 49
0.0
140
0.0
141
0.0
142
1.0
143
1.0
 70
   688
 72
     0
 73
     0
 74
     5
  7

 75
    16
 76
     0
 77
     2
 78
   300
147
1.0
148
0.0
149
0.0
100
AcDbLayout
  1
Layout1
 70
     1
 71
     1
 10
0.0
 20
0.0
 11
12.0
 21
9.0
 12
0.0
 22
0.0
 32
0.0
 14
1.000000000000000E+20
 24
1.000000000000000E+20
 34
1.000000000000000E+20
 15
-1.000000000000000E+20
 25
-1.000000000000000E+20
 35
-1.000000000000000E+20
146
0.0
 13
0.0
 23
0.0
 33
0.0
 16
1.0
 26
0.0
 36
0.0
 17
0.0
 27
1.0
 37
0.0
 76
     0
330
1B
  0
LAYOUT
  5
26
102
{ACAD_REACTORS
330
1A
102
}
330
1A
100
AcDbPlotSettings
  1

  2
none_device
  4

  6

 40
0.0
 41
0.0
 42
0.0
 43
0.0
 44
0.0
 45
0.0
 46
0.0
 47
0.0
 48
0.0
 49
0.0
140
0.0
141
0.0
142
1.0
143
1.0
 70
   688
 72
     0
 73
     0
 74
     5
  7

 75
    16
 76
     0
 77
     2
 78
   300
147
1.0
148
0.0
149
0.0
100
AcDbLayout
  1
Layout2
 70
     1
 71
     2
 10
0.0
 20
0.0
 11
0.0
 21
0.0
 12
0.0
 22
0.0
 32
0.0
 14
0.0
 24
0.0
 34
0.0
 15
0.0
 25
0.0
 35
0.0
146
0.0
 13
0.0
 23
0.0
 33
0.0
 16
1.0
 26
0.0
 36
0.0
 17
0.0
 27
1.0
 37
0.0
 76
     0
330
23
  0
LAYOUT
  5
22
102
{ACAD_REACTORS
330
1A
102
}
330
1A
100
AcDbPlotSettings
  1

  2
none_device
  4

  6

 40
0.0
 41
0.0
 42
0.0
 43
0.0
 44
0.0
 45
0.0
 46
0.0
 47
0.0
 48
0.0
 49
0.0
140
0.0
141
0.0
142
1.0
143
1.0
 70
  1712
 72
     0
 73
     0
 74
     0
  7

 75
     0
 76
     0
 77
     2
 78
   300
147
1.0
148
0.0
149
0.0
100
AcDbLayout
  1
Model
 70
     1
 71
     0
 10
0.0
 20
0.0
 11
12.0
 21
9.0
 12
0.0
 22
0.0
 32
0.0
 14
1.000000000000000E+20
 24
1.000000000000000E+20
 34
1.000000000000000E+20
 15
-1.000000000000000E+20
 25
-1.000000000000000E+20
 35
-1.000000000000000E+20
146
0.0
 13
0.0
 23
0.0
 33
0.0
 16
1.0
 26
0.0
 36
0.0
 17
0.0
 27
1.0
 37
0.0
 76
     0
330
1F
331
29
  0
MATERIAL
  5
3D
102
{ACAD_REACTORS
330
3B
102
}
330
3B
100
AcDbMaterial
  1
ByBlock
 72
     1
 94
      127
  0
MATERIAL
  5
3C
102
{ACAD_REACTORS
330
3B
102
}
330
3B
100
AcDbMaterial
  1
ByLayer
 72
     1
 94
      127
  0
MATERIAL
  5
3E
102
{ACAD_REACTORS
330
3B
102
}
330
3B
100
AcDbMaterial
  1
Global
 72
     1
 94
      127
  0
MLINESTYLE
  5
18
102
{ACAD_REACTORS
330
17
102
}
330
17
100
AcDbMlineStyle
  2
Standard
 70
     0
  3

 62
   256
 51
90.0
 52
90.0
 71
     2
 49
0.5
 62
   256
  6
BYLAYER
 49
-0.5
 62
   256
  6
BYLAYER
  0
ACDBPLACEHOLDER
  5
F
102
{ACAD_REACTORS
330
E
102
}
330
E
  0
VISUALSTYLE
  5
2F
102
{ACAD_REACTORS
330
2A
102
}
330
2A
100
AcDbVisualStyle
  2
2dWireframe
 70
     4
177
     2
291
     0
 71
     0
176
     1
 72
     2
176
     1
 73
     0
176
     1
 90
        0
176
     1
 40
-0.6
176
     1
 41
-30.0
176
     1
 62
     5
 63
     7
421
 16777215
176
     1
 74
     1
176
     1
 91
        4
176
     1
 64
     7
176
     1
 65
   257
176
     1
 75
     1
176
     1
175
     1
176
     1
 42
1.0
176
     1
 92
        0
176
     1
 66
   257
176
     1
 43
1.0
176
     1
 76
     1
176
     1
 77
     6
176
     1
 78
     2
176
     1
 67
     7
176
     1
 79
     5
176
     1
170
     0
176
     1
171
     0
176
     1
290
     0
176
     1
 93
        1
176
     1
 44
0.0
176
     1
173
     0
176
     1
  0
VISUALSTYLE
  5
31
102
{ACAD_REACTORS
330
2A
102
}
330
2A
100
AcDbVisualStyle
  2
3D Hidden
 70
     6
177
     2
291
     0
 71
     1
176
     1
 72
     2
176
     1
 73
     2
176
     1
 90
        0
176
     1
 40
-0.6
176
     1
 41
-30.0
176
     1
 62
     5
 63
     7
421
 16777215
176
     1
 74
     2
176
     1
 91
        2
176
     1
 64
     7
176
     1
 65
   257
176
     1
 75
     2
176
     1
175
     1
176
     1
 42
40.0
176
     1
 92
        0
176
     1
 66
   257
176
     1
 43
1.0
176
     1
 76
     1
176
     1
 77
     6
176
     1
 78
     2
176
     1
 67
     7
176
     1
 79
     3
176
     1
170
     0
176
     1
171
     0
176
     1
290
     0
176
     1
 93
        1
176
     1
 44
0.0
176
     1
173
     0
176
     1
  0
VISUALSTYLE
  5
30
102
{ACAD_REACTORS
330
2A
102
}
330
2A
100
AcDbVisualStyle
  2
3dWireframe
 70
     5
177
     2
291
     0
 71
     0
176
     1
 72
     2
176
     1
 73
     0
176
     1
 90
        0
176
     1
 40
-0.6
176
     1
 41
-30.0
176
     1
 62
     5
 63
     7
421
 16777215
176
     1
 74
     1
176
     1
 91
        4
176
     1
 64
     7
176
     1
 65
   257
176
     1
 75
     1
176
     1
175
     1
176
     1
 42
1.0
176
     1
 92
        0
176
     1
 66
   257
176
     1
 43
1.0
176
     1
 76
     1
176
     1
 77
     6
176
     1
 78
     2
176
     1
 67
     7
176
     1
 79
     5
176
     1
170
     0
176
     1
171
     0
176
     1
290
     0
176
     1
 93
        1
176
     1
 44
0.0
176
     1
173
     0
176
     1
  0
VISUALSTYLE
  5
32
102
{ACAD_REACTORS
330
2A
102
}
330
2A
100
AcDbVisualStyle
  2
Basic
 70
     7
177
     2
291
     1
 71
     1
176
     1
 72
     0
176
     1
 73
     1
176
     1
 90
        0
176
     1
 40
-0.6
176
     1
 41
-30.0
176
     1
 62
     5
 63
     7
421
 16777215
176
     1
 74
     0
176
     1
 91
        4
176
     1
 64
     7
176
     1
 65
   257
176
     1
 75
     1
176
     1
175
     1
176
     1
 42
1.0
176
     1
 92
        8
176
     1
 66
     7
176
     1
 43
1.0
176
     1
 76
     1
176
     1
 77
     6
176
     1
 78
     2
176
     1
 67
     7
176
     1
 79
     5
176
     1
170
     0
176
     1
171
     0
176
     1
290
     0
176
     1
 93
        1
176
     1
 44
0.0
176
     1
173
     0
176
     1
  0
VISUALSTYLE
  5
36
102
{ACAD_REACTORS
330
2A
102
}
330
2A
100
AcDbVisualStyle
  2
Brighten
 70
    12
177
     2
291
     1
 71
     2
176
     1
 72
     2
176
     1
 73
     0
176
     1
 90
        0
176
     1
 40
-0.6
176
     1
 41
-30.0
176
     1
 62
     5
 63
     7
421
 16777215
176
     1
 74
     1
176
     1
 91
        4
176
     1
 64
     7
176
     1
 65
   257
176
     1
 75
     1
176
     1
175
     1
176
     1
 42
1.0
176
     1
 92
        8
176
     1
 66
     7
176
     1
 43
1.0
176
     1
 76
     1
176
     1
 77
     6
176
     1
 78
     2
176
     1
 67
     7
176
     1
 79
     5
176
     1
170
     0
176
     1
171
     0
176
     1
290
     0
176
     1
 93
        1
176
     1
 44
50.0
176
     1
173
     0
176
     1
  0
VISUALSTYLE
  5
3A
102
{ACAD_REACTORS
330
2A
102
}
330
2A
100
AcDbVisualStyle
  2
ColorChange
 70
    16
177
     2
291
     1
 71
     2
176
     1
 72
     2
176
     1
 73
     3
176
     1
 90
        0
176
     1
 40
-0.6
176
     1
 41
-30.0
176
     1
 62
     5
 63
     8
421
  8421504
176
     1
 74
     1
176
     1
 91
        4
176
     1
 64
     7
176
     1
 65
   257
176
     1
 75
     1
176
     1
175
     1
176
     1
 42
1.0
176
     1
 92
        8
176
     1
 66
     8
424
  8421504
176
     1
 43
1.0
176
     1
 76
     1
176
     1
 77
     6
176
     1
 78
     2
176
     1
 67
     7
176
     1
 79
     5
176
     1
170
     0
176
     1
171
     0
176
     1
290
     0
176
     1
 93
        1
176
     1
 44
0.0
176
     1
173
     0
176
     1
  0
VISUALSTYLE
  5
34
102
{ACAD_REACTORS
330
2A
102
}
330
2A
100
AcDbVisualStyle
  2
Conceptual
 70
     9
177
     2
291
     0
 71
     3
176
     1
 72
     2
176
     1
 73
     0
176
     1
 90
        0
176
     1
 40
-0.6
176
     1
 41
-30.0
176
     1
 62
     5
 63
     7
421
 16777215
176
     1
 74
     2
176
     1
 91
        2
176
     1
 64
     7
176
     1
 65
   257
176
     1
 75
     1
176
     1
175
     1
176
     1
 42
40.0
176
     1
 92
        8
176
     1
 66
     7
176
     1
 43
1.0
176
     1
 76
     1
176
     1
 77
     6
176
     1
 78
     2
176
     1
 67
     7
176
     1
 79
     3
176
     1
170
     0
176
     1
171
     0
176
     1
290
     0
176
     1
 93
        1
176
     1
 44
0.0
176
     1
173
     0
176
     1
  0
VISUALSTYLE
  5
35
102
{ACAD_REACTORS
330
2A
102
}
330
2A
100
AcDbVisualStyle
  2
Dim
 70
    11
177
     2
291
     1
 71
     2
176
     1
 72
     2
176
     1
 73
     0
176
     1
 90
        0
176
     1
 40
-0.6
176
     1
 41
-30.0
176
     1
 62
     5
 63
     7
421
 16777215
176
     1
 74
     1
176
     1
 91
        4
176
     1
 64
     7
176
     1
 65
   257
176
     1
 75
     1
176
     1
175
     1
176
     1
 42
1.0
176
     1
 92
        8
176
     1
 66
     7
176
     1
 43
1.0
176
     1
 76
     1
176
     1
 77
     6
176
     1
 78
     2
176
     1
 67
     7
176
     1
 79
     5
176
     1
170
     0
176
     1
171
     0
176
     1
290
     0
176
     1
 93
        1
176
     1
 44
-50.0
176
     1
173
     0
176
     1
  0
VISUALSTYLE
  5
39
102
{ACAD_REACTORS
330
2A
102
}
330
2A
100
AcDbVisualStyle
  2
Facepattern
 70
    15
177
     2
291
     1
 71
     2
176
     1
 72
     2
176
     1
 73
     0
176
     1
 90
        0
176
     1
 40
-0.6
176
     1
 41
-30.0
176
     1
 62
     5
 63
     7
421
 16777215
176
     1
 74
     1
176
     1
 91
        4
176
     1
 64
     7
176
     1
 65
   257
176
     1
 75
     1
176
     1
175
     1
176
     1
 42
1.0
176
     1
 92
        8
176
     1
 66
     7
176
     1
 43
1.0
176
     1
 76
     1
176
     1
 77
     6
176
     1
 78
     2
176
     1
 67
     7
176
     1
 79
     5
176
     1
170
     0
176
     1
171
     0
176
     1
290
     0
176
     1
 93
        1
176
     1
 44
0.0
176
     1
173
     0
176
     1
  0
VISUALSTYLE
  5
2B
102
{ACAD_REACTORS
330
2A
102
}
330
2A
100
AcDbVisualStyle
  2
Flat
 70
     0
177
     2
291
     1
 71
     2
176
     1
 72
     1
176
     1
 73
     1
176
     1
 90
        2
176
     1
 40
-0.6
176
     1
 41
30.0
176
     1
 62
     5
 63
     7
421
 16777215
176
     1
 74
     0
176
     1
 91
        4
176
     1
 64
     7
176
     1
 65
   257
176
     1
 75
     1
176
     1
175
     1
176
     1
 42
1.0
176
     1
 92
        8
176
     1
 66
     7
176
     1
 43
1.0
176
     1
 76
     1
176
     1
 77
     6
176
     1
 78
     2
176
     1
 67
     7
176
     1
 79
     5
176
     1
170
     0
176
     1
171
     0
176
     1
290
     0
176
     1
 93
       13
176
     1
 44
0.0
176
     1
173
     0
176
     1
  0
VISUALSTYLE
  5
2C
102
{ACAD_REACTORS
330
2A
102
}
330
2A
100
AcDbVisualStyle
  2
FlatWithEdges
 70
     1
177
     2
291
     1
 71
     2
176
     1
 72
     1
176
     1
 73
     1
176
     1
 90
        2
176
     1
 40
-0.6
176
     1
 41
30.0
176
     1
 62
     5
 63
     7
421
 16777215
176
     1
 74
     1
176
     1
 91
        4
176
     1
 64
     7
176
     1
 65
   257
176
     1
 75
     1
176
     1
175
     1
176
     1
 42
1.0
176
     1
 92
        0
176
     1
 66
   257
176
     1
 43
1.0
176
     1
 76
     1
176
     1
 77
     6
176
     1
 78
     2
176
     1
 67
     7
176
     1
 79
     5
176
     1
170
     0
176
     1
171
     0
176
     1
290
     0
176
     1
 93
       13
176
     1
 44
0.0
176
     1
173
     0
176
     1
  0
VISUALSTYLE
  5
2D
102
{ACAD_REACTORS
330
2A
102
}
330
2A
100
AcDbVisualStyle
  2
Gouraud
 70
     2
177
     2
291
     1
 71
     2
176
     1
 72
     2
176
     1
 73
     1
176
     1
 90
        2
176
     1
 40
-0.6
176
     1
 41
30.0
176
     1
 62
     5
 63
     7
421
 16777215
176
     1
 74
     0
176
     1
 91
        4
176
     1
 64
     7
176
     1
 65
   257
176
     1
 75
     1
176
     1
175
     1
176
     1
 42
1.0
176
     1
 92
        0
176
     1
 66
     7
176
     1
 43
1.0
176
     1
 76
     1
176
     1
 77
     6
176
     1
 78
     2
176
     1
 67
     7
176
     1
 79
     5
176
     1
170
     0
176
     1
171
     0
176
     1
290
     0
176
     1
 93
       13
176
     1
 44
0.0
176
     1
173
     0
176
     1
  0
VISUALSTYLE
  5
2E
102
{ACAD_REACTORS
330
2A
102
}
330
2A
100
AcDbVisualStyle
  2
GouraudWithEdges
 70
     3
177
     2
291
     1
 71
     2
176
     1
 72
     2
176
     1
 73
     1
176
     1
 90
        2
176
     1
 40
-0.6
176
     1
 41
30.0
176
     1
 62
     5
 63
     7
421
 16777215
176
     1
 74
     1
176
     1
 91
        4
176
     1
 64
     7
176
     1
 65
   257
176
     1
 75
     1
176
     1
175
     1
176
     1
 42
1.0
176
     1
 92
        0
176
     1
 66
   257
176
     1
 43
1.0
176
     1
 76
     1
176
     1
 77
     6
176
     1
 78
     2
176
     1
 67
     7
176
     1
 79
     5
176
     1
170
     0
176
     1
171
     0
176
     1
290
     0
176
     1
 93
       13
176
     1
 44
0.0
176
     1
173
     0
176
     1
  0
VISUALSTYLE
  5
38
102
{ACAD_REACTORS
330
2A
102
}
330
2A
100
AcDbVisualStyle
  2
Linepattern
 70
    14
177
     2
291
     1
 71
     2
176
     1
 72
     2
176
     1
 73
     0
176
     1
 90
        0
176
     1
 40
-0.6
176
     1
 41
-30.0
176
     1
 62
     5
 63
     7
421
 16777215
176
     1
 74
     1
176
     1
 91
        4
176
     1
 64
     7
176
     1
 65
   257
176
     1
 75
     7
176
     1
175
     7
176
     1
 42
1.0
176
     1
 92
        8
176
     1
 66
     7
176
     1
 43
1.0
176
     1
 76
     1
176
     1
 77
     6
176
     1
 78
     2
176
     1
 67
     7
176
     1
 79
     5
176
     1
170
     0
176
     1
171
     0
176
     1
290
     0
176
     1
 93
        1
176
     1
 44
0.0
176
     1
173
     0
176
     1
  0
VISUALSTYLE
  5
33
102
{ACAD_REACTORS
330
2A
102
}
330
2A
100
AcDbVisualStyle
  2
Realistic
 70
     8
177
     2
291
     0
 71
     2
176
     1
 72
     2
176
     1
 73
     0
176
     1
 90
        0
176
     1
 40
-0.6
176
     1
 41
-30.0
176
     1
 62
     5
 63
     7
421
 16777215
176
     1
 74
     1
176
     1
 91
        0
176
     1
 64
     7
176
     1
 65
   257
176
     1
 75
     1
176
     1
175
     1
176
     1
 42
1.0
176
     1
 92
        8
176
     1
 66
     8
424
  7895160
176
     1
 43
1.0
176
     1
 76
     1
176
     1
 77
     6
176
     1
 78
     2
176
     1
 67
     7
176
     1
 79
     5
176
     1
170
     0
176
     1
171
     0
176
     1
290
     0
176
     1
 93
       13
176
     1
 44
0.0
176
     1
173
     0
176
     1
  0
VISUALSTYLE
  5
37
102
{ACAD_REACTORS
330
2A
102
}
330
2A
100
AcDbVisualStyle
  2
Thicken
 70
    13
177
     2
291
     1
 71
     2
176
     1
 72
     2
176
     1
 73
     0
176
     1
 90
        0
176
     1
 40
-0.6
176
     1
 41
-30.0
176
     1
 62
     5
 63
     7
421
 16777215
176
     1
 74
     1
176
     1
 91
        4
176
     1
 64
     7
176
     1
 65
   257
176
     1
 75
     1
176
     1
175
     1
176
     1
 42
1.0
176
     1
 92
       12
176
     1
 66
     7
176
     1
 43
1.0
176
     1
 76
     1
176
     1
 77
     6
176
     1
 78
     2
176
     1
 67
     7
176
     1
 79
     5
176
     1
170
     0
176
     1
171
     0
176
     1
290
     0
176
     1
 93
        1
176
     1
 44
0.0
176
     1
173
     0
176
     1
  0
ENDSEC
  0
EOF
