  0
SECTION
  2
HEADER
  9
$ACADVER
  1
AC1024
  9
$ACADMAINTVER
 70
     6
  9
$DWGCODEPAGE
  3
UNDEFINED
  9
$INSBASE
 10
0.0
 20
0.0
 30
0.0
  9
$EXTMIN
 10
1.000000000000000E+20
 20
1.000000000000000E+20
 30
1.000000000000000E+20
  9
$EXTMAX
 10
-1.000000000000000E+20
 20
-1.000000000000000E+20
 30
-1.000000000000000E+20
  9
$LIMMIN
 10
0.0
 20
0.0
  9
$LIMMAX
 10
12.0
 20
9.0
  9
$ORTHOMODE
 70
     0
  9
$REGENMODE
 70
     1
  9
$FILLMODE
 70
     1
  9
$QTEXTMODE
 70
     0
  9
$MIRRTEXT
 70
     1
  9
$LTSCALE
 40
1.0
  9
$ATTMODE
 70
     1
  9
$TEXTSIZE
 40
0.2
  9
$TRACEWID
 40
0.05
  9
$TEXTSTYLE
  7
Standard
  9
$CLAYER
  8
0
  9
$CELTYPE
  6
ByLayer
  9
$CECOLOR
 62
   256
  9
$CELTSCALE
 40
1.0
  9
$DISPSILH
 70
     0
  9
$DIMSCALE
 40
1.0
  9
$DIMASZ
 40
0.18
  9
$DIMEXO
 40
0.0625
  9
$DIMDLI
 40
0.38
  9
$DIMRND
 40
0.0
  9
$DIMDLE
 40
0.0
  9
$DIMEXE
 40
0.18
  9
$DIMTP
 40
0.0
  9
$DIMTM
 40
0.0
  9
$DIMTXT
 40
0.18
  9
$DIMCEN
 40
0.09
  9
$DIMTSZ
 40
0.0
  9
$DIMTOL
 70
     0
  9
$DIMLIM
 70
     0
  9
$DIMTIH
 70
     1
  9
$DIMTOH
 70
     1
  9
$DIMSE1
 70
     0
  9
$DIMSE2
 70
     0
  9
$DIMTAD
 70
     0
  9
$DIMZIN
 70
     0
  9
$DIMBLK
  1

  9
$DIMASO
 70
     1
  9
$DIMSHO
 70
     1
  9
$DIMPOST
  1

  9
$DIMAPOST
  1

  9
$DIMALT
 70
     0
  9
$DIMALTD
 70
     2
  9
$DIMALTF
 40
25.4
  9
$DIMLFAC
 40
1.0
  9
$DIMTOFL
 70
     0
  9
$DIMTVP
 40
0.0
  9
$DIMTIX
 70
     0
  9
$DIMSOXD
 70
     0
  9
$DIMSAH
 70
     0
  9
$DIMBLK1
  1

  9
$DIMBLK2
  1

  9
$DIMSTYLE
  2
Standard
  9
$DIMCLRD
 70
     0
  9
$DIMCLRE
 70
     0
  9
$DIMCLRT
 70
     0
  9
$DIMTFAC
 40
1.0
  9
$DIMGAP
 40
0.09
  9
$DIMJUST
 70
     0
  9
$DIMSD1
 70
     0
  9
$DIMSD2
 70
     0
  9
$DIMTOLJ
 70
     1
  9
$DIMTZIN
 70
     0
  9
$DIMALTZ
 70
     0
  9
$DIMALTTZ
 70
     0
  9
$DIMUPT
 70
     0
  9
$DIMDEC
 70
     4
  9
$DIMTDEC
 70
     4
  9
$DIMALTU
 70
     2
  9
$DIMALTTD
 70
     2
  9
$DIMTXSTY
  7
Standard
  9
$DIMAUNIT
 70
     0
  9
$DIMADEC
 70
     0
  9
$DIMALTRND
 40
0.0
  9
$DIMAZIN
 70
     0
  9
$DIMDSEP
 70
    46
  9
$DIMATFIT
 70
     3
  9
$DIMFRAC
 70
     0
  9
$DIMLDRBLK
  1

  9
$DIMLUNIT
 70
     2
  9
$DIMLWD
 70
    -2
  9
$DIMLWE
 70
    -2
  9
$DIMTMOVE
 70
     0
  9
$DIMFXL
 40
1.0
  9
$DIMFXLON
 70
     0
  9
$DIMJOGANG
 40
0.7853981633974483
  9
$DIMTFILL
 70
     0
  9
$DIMTFILLCLR
 70
     0
  9
$DIMARCSYM
 70
     0
  9
$DIMLTYPE
  6

  9
$DIMLTEX1
  6

  9
$DIMLTEX2
  6

  9
$DIMTXTDIRECTION
 70
     0
  9
$LUNITS
 70
     2
  9
$LUPREC
 70
     4
  9
$SKETCHINC
 40
0.1
  9
$FILLETRAD
 40
0.5
  9
$AUNITS
 70
     0
  9
$AUPREC
 70
     0
  9
$MENU
  1
.
  9
$ELEVATION
 40
0.0
  9
$PELEVATION
 40
0.0
  9
$THICKNESS
 40
0.0
  9
$LIMCHECK
 70
     0
  9
$CHAMFERA
 40
0.5
  9
$CHAMFERB
 40
0.5
  9
$CHAMFERC
 40
1.0
  9
$CHAMFERD
 40
0.0
  9
$SKPOLY
 70
     0
  9
$TDCREATE
 40
2457917.647638889
  9
$TDUCREATE
 40
2457917.272638889
  9
$TDUPDATE
 40
2457917.647650463
  9
$TDUUPDATE
 40
2457917.272650463
  9
$TDINDWG
 40
0.0000000116
  9
$TDUSRTIMER
 40
0.0000000116
  9
$USRTIMER
 70
     1
  9
$ANGBASE
 50
0.0
  9
$ANGDIR
 70
     0
  9
$PDMODE
 70
     0
  9
$PDSIZE
 40
0.0
  9
$PLINEWID
 40
0.0
  9
$SPLFRAME
 70
     0
  9
$SPLINETYPE
 70
     6
  9
$SPLINESEGS
 70
     8
  9
$HANDSEED
  5
B7
  9
$SURFTAB1
 70
     6
  9
$SURFTAB2
 70
     6
  9
$SURFTYPE
 70
     6
  9
$SURFU
 70
     6
  9
$SURFV
 70
     6
  9
$UCSBASE
  2

  9
$UCSNAME
  2

  9
$UCSORG
 10
0.0
 20
0.0
 30
0.0
  9
$UCSXDIR
 10
1.0
 20
0.0
 30
0.0
  9
$UCSYDIR
 10
0.0
 20
1.0
 30
0.0
  9
$UCSORTHOREF
  2

  9
$UCSORTHOVIEW
 70
     0
  9
$UCSORGTOP
 10
0.0
 20
0.0
 30
0.0
  9
$UCSORGBOTTOM
 10
0.0
 20
0.0
 30
0.0
  9
$UCSORGLEFT
 10
0.0
 20
0.0
 30
0.0
  9
$UCSORGRIGHT
 10
0.0
 20
0.0
 30
0.0
  9
$UCSORGFRONT
 10
0.0
 20
0.0
 30
0.0
  9
$UCSORGBACK
 10
0.0
 20
0.0
 30
0.0
  9
$PUCSBASE
  2

  9
$PUCSNAME
  2

  9
$PUCSORG
 10
0.0
 20
0.0
 30
0.0
  9
$PUCSXDIR
 10
1.0
 20
0.0
 30
0.0
  9
$PUCSYDIR
 10
0.0
 20
1.0
 30
0.0
  9
$PUCSORTHOREF
  2

  9
$PUCSORTHOVIEW
 70
     0
  9
$PUCSORGTOP
 10
0.0
 20
0.0
 30
0.0
  9
$PUCSORGBOTTOM
 10
0.0
 20
0.0
 30
0.0
  9
$PUCSORGLEFT
 10
0.0
 20
0.0
 30
0.0
  9
$PUCSORGRIGHT
 10
0.0
 20
0.0
 30
0.0
  9
$PUCSORGFRONT
 10
0.0
 20
0.0
 30
0.0
  9
$PUCSORGBACK
 10
0.0
 20
0.0
 30
0.0
  9
$USERI1
 70
     0
  9
$USERI2
 70
     0
  9
$USERI3
 70
     0
  9
$USERI4
 70
     0
  9
$USERI5
 70
     0
  9
$USERR1
 40
0.0
  9
$USERR2
 40
0.0
  9
$USERR3
 40
0.0
  9
$USERR4
 40
0.0
  9
$USERR5
 40
0.0
  9
$WORLDVIEW
 70
     1
  9
$SHADEDGE
 70
     3
  9
$SHADEDIF
 70
    70
  9
$TILEMODE
 70
     1
  9
$MAXACTVP
 70
    64
  9
$PINSBASE
 10
0.0
 20
0.0
 30
0.0
  9
$PLIMCHECK
 70
     0
  9
$PEXTMIN
 10
1.000000000000000E+20
 20
1.000000000000000E+20
 30
1.000000000000000E+20
  9
$PEXTMAX
 10
-1.000000000000000E+20
 20
-1.000000000000000E+20
 30
-1.000000000000000E+20
  9
$PLIMMIN
 10
0.0
 20
0.0
  9
$PLIMMAX
 10
12.0
 20
9.0
  9
$UNITMODE
 70
     0
  9
$VISRETAIN
 70
     1
  9
$PLINEGEN
 70
     0
  9
$PSLTSCALE
 70
     1
  9
$TREEDEPTH
 70
  3020
  9
$CMLSTYLE
  2
Standard
  9
$CMLJUST
 70
     0
  9
$CMLSCALE
 40
1.0
  9
$PROXYGRAPHICS
 70
     1
  9
$MEASUREMENT
 70
     0
  9
$CELWEIGHT
370
    -1
  9
$ENDCAPS
280
     0
  9
$JOINSTYLE
280
     0
  9
$LWDISPLAY
290
     1
  9
$INSUNITS
 70
     1
  9
$HYPERLINKBASE
  1

  9
$STYLESHEET
  1

  9
$XEDIT
290
     1
  9
$CEPSNTYPE
380
     0
  9
$PSTYLEMODE
290
     1
  9
$FINGERPRINTGUID
  2
{5DD16209-8A3B-8BB2-14B9-7DCCDC8F4979}
  9
$VERSIONGUID
  2
{FAEB1C32-E019-11D5-929B-00C0DF256EC4}
  9
$EXTNAMES
290
     1
  9
$PSVPSCALE
 40
0.0
  9
$OLESTARTUP
290
     0
  9
$SORTENTS
280
   127
  9
$INDEXCTL
280
     0
  9
$HIDETEXT
280
     1
  9
$XCLIPFRAME
280
     2
  9
$HALOGAP
280
     0
  9
$OBSCOLOR
 70
   257
  9
$OBSLTYPE
280
     0
  9
$INTERSECTIONDISPLAY
280
     0
  9
$INTERSECTIONCOLOR
 70
   257
  9
$DIMASSOC
280
     2
  9
$PROJECTNAME
  1

  9
$CAMERADISPLAY
290
     0
  9
$LENSLENGTH
 40
50.0
  9
$CAMERAHEIGHT
 40
0.0
  9
$STEPSPERSEC
 40
2.0
  9
$STEPSIZE
 40
6.0
  9
$3DDWFPREC
 40
2.0
  9
$PSOLWIDTH
 40
0.25
  9
$PSOLHEIGHT
 40
4.0
  9
$LOFTANG1
 40
1.570796326794897
  9
$LOFTANG2
 40
1.570796326794897
  9
$LOFTMAG1
 40
0.0
  9
$LOFTMAG2
 40
0.0
  9
$LOFTPARAM
 70
     7
  9
$LOFTNORMALS
280
     1
  9
$LATITUDE
 40
37.795
  9
$LONGITUDE
 40
-122.394
  9
$NORTHDIRECTION
 40
0.0
  9
$TIMEZONE
 70
 -8000
  9
$LIGHTGLYPHDISPLAY
280
     1
  9
$TILEMODELIGHTSYNCH
280
     1
  9
$CMATERIAL
347
3C
  9
$SOLIDHIST
280
     1
  9
$SHOWHIST
280
     1
  9
$DWFFRAME
280
     2
  9
$DGNFRAME
280
     2
  9
$REALWORLDSCALE
290
     1
  9
$INTERFERECOLOR
 62
   256
  9
$CSHADOW
280
     0
  9
$SHADOWPLANELOCATION
 40
0.0
  0
ENDSEC
  0
SECTION
  2
CLASSES
  0
CLASS
  1
ACDBDICTIONARYWDFLT
  2
AcDbDictionaryWithDefault
  3
ObjectDBX Classes
 90
        0
 91
        4
280
     0
281
     0
  0
CLASS
  1
VISUALSTYLE
  2
AcDbVisualStyle
  3
ObjectDBX Classes
 90
     4095
 91
        4
280
     0
281
     0
  0
CLASS
  1
MATERIAL
  2
AcDbMaterial
  3
ObjectDBX Classes
 90
     1153
 91
        4
280
     0
281
     0
  0
CLASS
  1
SUN
  2
AcDbSun
  3
SCENEOE
 90
     1024
 91
        4
280
     0
281
     0
  0
CLASS
  1
IMAGEDEF
  2
AcDbRasterImageDef
  3
ISM
 90
        0
 91
        4
280
     0
281
     0
  0
CLASS
  1
RASTERVARIABLES
  2
AcDbRasterVariables
  3
ISM
 90
        0
 91
        4
280
     0
281
     0
  0
CLASS
  1
IMAGE
  2
AcDbRasterImage
  3
ISM
 90
      127
 91
        5
280
     0
281
     1
  0
CLASS
  1
IMAGEDEF_REACTOR
  2
AcDbRasterImageDefReactor
  3
ISM
 90
        1
 91
        4
280
     0
281
     0
  0
ENDSEC
  0
SECTION
  2
TABLES
  0
TABLE
  2
VPORT
  5
8
330
0
100
AcDbSymbolTable
 70
     1
  0
VPORT
  5
29
330
8
100
AcDbSymbolTableRecord
100
AcDbViewportTableRecord
  2
*Active
 70
     0
 10
0.0
 20
0.0
 11
1.0
 21
1.0
 12
0.0
 22
0.0
 13
0.0
 23
0.0
 14
0.5
 24
0.5
 15
0.5
 25
0.5
 16
0.0
 26
0.0
 36
1.0
 17
91.00082462281999
 27
-128.4993055234307
 37
0.0
 40
256.9986110468615
 41
0.7081814508812795
 42
50.0
 43
0.0
 44
0.0
 50
0.0
 51
0.0
 71
     0
 72
   100
 73
     1
 74
     3
 75
     0
 76
     0
 77
     0
 78
     0
281
     0
 65
     1
110
0.0
120
0.0
130
0.0
111
1.0
121
0.0
131
0.0
112
0.0
122
1.0
132
0.0
 79
     0
146
0.0
 60
     3
 61
     5
292
     1
282
     1
141
0.0
142
0.0
 63
   250
361
3F
  0
ENDTAB
  0
TABLE
  2
LTYPE
  5
5
330
0
100
AcDbSymbolTable
 70
     1
  0
LTYPE
  5
14
330
5
100
AcDbSymbolTableRecord
100
AcDbLinetypeTableRecord
  2
ByBlock
 70
     0
  3

 72
    65
 73
     0
 40
0.0
  0
LTYPE
  5
15
330
5
100
AcDbSymbolTableRecord
100
AcDbLinetypeTableRecord
  2
ByLayer
 70
     0
  3

 72
    65
 73
     0
 40
0.0
  0
LTYPE
  5
16
330
5
100
AcDbSymbolTableRecord
100
AcDbLinetypeTableRecord
  2
Continuous
 70
     0
  3
Solid line
 72
    65
 73
     0
 40
0.0
  0
ENDTAB
  0
TABLE
  2
LAYER
  5
2
330
0
100
AcDbSymbolTable
 70
     2
  0
LAYER
  5
10
330
2
100
AcDbSymbolTableRecord
100
AcDbLayerTableRecord
  2
0
 70
     0
 62
     7
  6
Continuous
370
    -3
390
F
347
3E
  0
LAYER
  5
40
330
2
100
AcDbSymbolTableRecord
100
AcDbLayerTableRecord
  2
_U+30EC_U+30A4_U+30E4_U+30FC 1
 70
     0
 62
     7
  6
Continuous
370
    -3
390
F
347
3E
  0
ENDTAB
  0
TABLE
  2
STYLE
  5
3
330
0
100
AcDbSymbolTable
 70
     1
  0
STYLE
  5
11
330
3
100
AcDbSymbolTableRecord
100
AcDbTextStyleTableRecord
  2
Standard
 70
     0
 40
0.0
 41
1.0
 50
0.0
 71
     0
 42
0.2
  3
txt
  4

  0
ENDTAB
  0
TABLE
  2
VIEW
  5
6
330
0
100
AcDbSymbolTable
 70
     0
  0
ENDTAB
  0
TABLE
  2
UCS
  5
7
330
0
100
AcDbSymbolTable
 70
     0
  0
ENDTAB
  0
TABLE
  2
APPID
  5
9
330
0
100
AcDbSymbolTable
 70
     1
  0
APPID
  5
12
330
9
100
AcDbSymbolTableRecord
100
AcDbRegAppTableRecord
  2
ACAD
 70
     0
  0
ENDTAB
  0
TABLE
  2
DIMSTYLE
  5
A
330
0
100
AcDbSymbolTable
 70
     1
100
AcDbDimStyleTable
  0
DIMSTYLE
105
27
330
A
100
AcDbSymbolTableRecord
100
AcDbDimStyleTableRecord
  2
Standard
 70
     0
178
     0
340
11
  0
ENDTAB
  0
TABLE
  2
BLOCK_RECORD
  5
1
330
0
100
AcDbSymbolTable
 70
     6
  0
BLOCK_RECORD
  5
1F
330
1
100
AcDbSymbolTableRecord
100
AcDbBlockTableRecord
  2
*Model_Space
340
22
 70
     0
280
     1
281
     0
  0
BLOCK_RECORD
  5
1B
330
1
100
AcDbSymbolTableRecord
100
AcDbBlockTableRecord
  2
*Paper_Space
340
1E
 70
     0
280
     1
281
     0
  0
BLOCK_RECORD
  5
23
330
1
100
AcDbSymbolTableRecord
100
AcDbBlockTableRecord
  2
*Paper_Space0
340
26
 70
     0
280
     1
281
     0
  0
BLOCK_RECORD
  5
41
330
1
100
AcDbSymbolTableRecord
100
AcDbBlockTableRecord
  2
block 2
340
0
102
{BLKREFS
331
42
102
}
 70
     0
280
     1
281
     0
  0
BLOCK_RECORD
  5
45
330
1
100
AcDbSymbolTableRecord
100
AcDbBlockTableRecord
  2
block 3
340
0
102
{BLKREFS
331
46
102
}
 70
     0
280
     1
281
     0
  0
BLOCK_RECORD
  5
50
330
1
100
AcDbSymbolTableRecord
100
AcDbBlockTableRecord
  2
block 4
340
0
102
{BLKREFS
331
51
102
}
 70
     0
280
     1
281
     0
  0
BLOCK_RECORD
  5
71
330
1
100
AcDbSymbolTableRecord
100
AcDbBlockTableRecord
  2
block 5
340
0
102
{BLKREFS
331
72
102
}
 70
     0
280
     1
281
     0
  0
BLOCK_RECORD
  5
9C
330
1
100
AcDbSymbolTableRecord
100
AcDbBlockTableRecord
  2
block 6
340
0
102
{BLKREFS
331
9D
102
}
 70
     0
280
     1
281
     0
  0
ENDTAB
  0
ENDSEC
  0
SECTION
  2
BLOCKS
  0
BLOCK
  5
20
330
1F
100
AcDbEntity
  8
0
100
AcDbBlockBegin
  2
*Model_Space
 70
     0
 10
0.0
 20
0.0
 30
0.0
  3
*Model_Space
  1

  0
ENDBLK
  5
21
330
1F
100
AcDbEntity
  8
0
100
AcDbBlockEnd
  0
BLOCK
  5
1C
330
1B
100
AcDbEntity
 67
     1
  8
0
100
AcDbBlockBegin
  2
*Paper_Space
 70
     0
 10
0.0
 20
0.0
 30
0.0
  3
*Paper_Space
  1

  0
ENDBLK
  5
1D
330
1B
100
AcDbEntity
 67
     1
  8
0
100
AcDbBlockEnd
  0
BLOCK
  5
24
330
23
100
AcDbEntity
  8
0
100
AcDbBlockBegin
  2
*Paper_Space0
 70
     0
 10
0.0
 20
0.0
 30
0.0
  3
*Paper_Space0
  1

  0
ENDBLK
  5
25
330
23
100
AcDbEntity
  8
0
100
AcDbBlockEnd
  0
BLOCK
  5
43
330
41
100
AcDbEntity
  8
0
100
AcDbBlockBegin
  2
block 2
 70
     0
 10
0.0
 20
0.0
 30
0.0
  3
block 2
  1

  0
INSERT
  5
46
330
41
100
AcDbEntity
  8
_U+30EC_U+30A4_U+30E4_U+30FC 1
100
AcDbBlockReference
  2
block 3
 10
0.0
 20
0.0
 30
0.0
  0
ENDBLK
  5
44
330
41
100
AcDbEntity
  8
0
100
AcDbBlockEnd
  0
BLOCK
  5
47
330
45
100
AcDbEntity
  8
0
100
AcDbBlockBegin
  2
block 3
 70
     0
 10
0.0
 20
0.0
 30
0.0
  3
block 3
  1

  0
IMAGE
  5
4C
330
45
100
AcDbEntity
  8
_U+30EC_U+30A4_U+30E4_U+30FC 1
160
                 8
310
0800000000000000
100
AcDbRasterImage
 90
        0
 10
65.28456000111878
 20
-141.2157802424737
 30
0.0
 11
0.0725663888707473
 21
0.0
 31
0.0
 12
0.0
 22
0.0725663888707473
 32
0.0
 13
705.0
 23
401.0
340
4A
 70
     3
280
     0
281
    50
282
    50
283
     0
360
4D
 71
     1
 91
        2
 14
-0.5
 24
-0.5
 14
704.5
 24
400.5
290
     0
  0
SPLINE
  5
4E
330
45
100
AcDbEntity
  8
_U+30EC_U+30A4_U+30E4_U+30FC 1
370
     0
100
AcDbSpline
210
0.0
220
0.0
230
1.0
 70
    11
 71
     3
 72
   167
 73
   163
 74
     0
 42
0.0000000001
 43
0.0000000001
 12
1.0
 22
0.0
 32
0.0
 13
1.0
 23
0.0
 33
0.0
 40
0.0
 40
0.0
 40
0.0
 40
0.0
 40
1.0
 40
1.0
 40
1.0
 40
2.0
 40
2.0
 40
2.0
 40
3.0
 40
3.0
 40
3.0
 40
4.0
 40
4.0
 40
4.0
 40
5.0
 40
5.0
 40
5.0
 40
6.0
 40
6.0
 40
6.0
 40
7.0
 40
7.0
 40
7.0
 40
8.0
 40
8.0
 40
8.0
 40
9.0
 40
9.0
 40
9.0
 40
10.0
 40
10.0
 40
10.0
 40
11.0
 40
11.0
 40
11.0
 40
12.0
 40
12.0
 40
12.0
 40
13.0
 40
13.0
 40
13.0
 40
14.0
 40
14.0
 40
14.0
 40
15.0
 40
15.0
 40
15.0
 40
16.0
 40
16.0
 40
16.0
 40
17.0
 40
17.0
 40
17.0
 40
18.0
 40
18.0
 40
18.0
 40
19.0
 40
19.0
 40
19.0
 40
20.0
 40
20.0
 40
20.0
 40
21.0
 40
21.0
 40
21.0
 40
22.0
 40
22.0
 40
22.0
 40
23.0
 40
23.0
 40
23.0
 40
24.0
 40
24.0
 40
24.0
 40
25.0
 40
25.0
 40
25.0
 40
26.0
 40
26.0
 40
26.0
 40
27.0
 40
27.0
 40
27.0
 40
28.0
 40
28.0
 40
28.0
 40
29.0
 40
29.0
 40
29.0
 40
30.0
 40
30.0
 40
30.0
 40
31.0
 40
31.0
 40
31.0
 40
32.0
 40
32.0
 40
32.0
 40
33.0
 40
33.0
 40
33.0
 40
34.0
 40
34.0
 40
34.0
 40
35.0
 40
35.0
 40
35.0
 40
36.0
 40
36.0
 40
36.0
 40
37.0
 40
37.0
 40
37.0
 40
38.0
 40
38.0
 40
38.0
 40
39.0
 40
39.0
 40
39.0
 40
40.0
 40
40.0
 40
40.0
 40
41.0
 40
41.0
 40
41.0
 40
42.0
 40
42.0
 40
42.0
 40
43.0
 40
43.0
 40
43.0
 40
44.0
 40
44.0
 40
44.0
 40
45.0
 40
45.0
 40
45.0
 40
46.0
 40
46.0
 40
46.0
 40
47.0
 40
47.0
 40
47.0
 40
48.0
 40
48.0
 40
48.0
 40
49.0
 40
49.0
 40
49.0
 40
50.0
 40
50.0
 40
50.0
 40
51.0
 40
51.0
 40
51.0
 40
52.0
 40
52.0
 40
52.0
 40
53.0
 40
53.0
 40
53.0
 40
54.0
 40
54.0
 40
54.0
 40
54.0
 10
115.9164277487988
 20
-114.5807758046882
 30
0.0
 10
115.9164277487988
 20
-114.5807758046882
 30
0.0
 10
110.9344999722661
 20
-114.5807758046882
 30
0.0
 10
110.9344999722661
 20
-114.5807758046882
 30
0.0
 10
110.8876130043546
 20
-113.4892108049609
 30
0.0
 10
110.8876130043546
 20
-112.7249177495966
 30
0.0
 10
110.059784692141
 20
-112.7249177495966
 30
0.0
 10
109.2322738799192
 20
-112.7249177495966
 30
0.0
 10
108.2169794613771
 20
-112.7874299718033
 30
0.0
 10
108.2169794613771
 20
-112.7874299718033
 30
0.0
 10
108.2169794613771
 20
-112.7874299718033
 30
0.0
 10
108.279350570897
 20
-112.6782099718304
 30
0.0
 10
107.7639775284897
 20
-112.6937321940487
 30
0.0
 10
107.2485692083055
 20
-112.7093955273783
 30
0.0
 10
106.3428475647457
 20
-112.7560680273664
 30
0.0
 10
106.1399297921448
 20
-112.7874299718033
 30
0.0
 10
105.9370120195439
 20
-112.8186155273509
 30
0.0
 10
105.515019252532
 20
-112.9276591384349
 30
0.0
 10
105.4371638625297
 20
-113.286469416123
 30
0.0
 10
105.3589503676248
 20
-113.6451033049222
 30
0.0
 10
105.1873592608913
 20
-114.5184046935926
 30
0.0
 10
105.1873592608913
 20
-114.5184046935926
 30
0.0
 10
105.1873592608913
 20
-114.5184046935926
 30
0.0
 10
101.6888999745779
 20
-114.5029177491521
 30
0.0
 10
101.6888999745779
 20
-114.5029177491521
 30
0.0
 10
101.6888999745779
 20
-114.5029177491521
 30
0.0
 10
101.7670729592612
 20
-114.0038783048324
 30
0.0
 10
101.2048510291603
 20
-113.9413660826258
 30
0.0
 10
100.6425938212824
 20
-113.8789949715302
 30
0.0
 10
97.36288946051019
 20
-113.8478446937604
 30
0.0
 10
97.14409668831429
 20
-113.8789949715302
 30
0.0
 10
96.92569442021302
 20
-113.9101805270782
 30
0.0
 10
96.80063225263235
 20
-113.9570294159551
 30
0.0
 10
96.66008558955133
 20
-114.1597708047934
 30
0.0
 10
96.51950364869343
 20
-114.3625121936316
 30
0.0
 10
96.53502587051965
 20
-114.4403702491677
 30
0.0
 10
96.53502587051965
 20
-114.4403702491677
 30
0.0
 10
96.53502587051965
 20
-114.4403702491677
 30
0.0
 10
95.50424450792818
 20
-114.4560688602748
 30
0.0
 10
95.26996479168292
 20
-114.4560688602748
 30
0.0
 10
95.03572035321456
 20
-114.4560688602748
 30
0.0
 10
93.84887010571586
 20
-114.5341033046998
 30
0.0
 10
93.80202121802218
 20
-114.6119613602358
 30
0.0
 10
93.7551723303285
 20
-114.6899958046607
 30
0.0
 10
93.8175434398484
 20
-114.9395860823763
 30
0.0
 10
93.88023204936019
 20
-115.0174441379123
 30
0.0
 10
93.88023204936019
 20
-115.0174441379123
 30
0.0
 10
93.8175434398484
 20
-118.0897858038108
 30
0.0
 10
93.8175434398484
 20
-118.0897858038108
 30
0.0
 10
93.8175434398484
 20
-118.0897858038108
 30
0.0
 10
85.13416560582426
 20
-118.0586002482632
 30
0.0
 10
85.13416560582426
 20
-118.0586002482632
 30
0.0
 10
85.13416560582426
 20
-118.0586002482632
 30
0.0
 10
85.15000532764239
 20
-117.6064449705983
 30
0.0
 10
84.6814833121631
 20
-117.5438974706141
 30
0.0
 10
84.20226785182118
 20
-117.4801505261857
 30
0.0
 10
80.88153543654012
 20
-117.3790444150997
 30
0.0
 10
80.38648239361443
 20
-117.5907463594911
 30
0.0
 10
80.27726239640086
 20
-117.6375952483684
 30
0.0
 10
80.08986684562616
 20
-117.8246733038773
 30
0.0
 10
80.0588576797506
 20
-118.0586002482632
 30
0.0
 10
80.05850490198182
 20
-118.0586002482632
 30
0.0
 10
79.34021408697362
 20
-118.0274146927152
 30
0.0
 10
79.21515436794193
 20
-118.0429369149338
 30
0.0
 10
79.09044742667903
 20
-118.0586002482632
 30
0.0
 10
78.85616771043378
 20
-118.0742635815925
 30
0.0
 10
78.43449442483576
 20
-118.1989705260059
 30
0.0
 10
78.0128171763939
 20
-118.323712748197
 30
0.0
 10
77.20079330822145
 20
-118.4174105259513
 30
0.0
 10
77.21631553004767
 20
-118.5109319148167
 30
0.0
 10
77.23180247409701
 20
-118.6044885814599
 30
0.0
 10
77.2786513617907
 20
-118.7760444147505
 30
0.0
 10
77.34137524907935
 20
-118.885264414723
 30
0.0
 10
77.34137524907935
 20
-118.885264414723
 30
0.0
 10
77.46608219034226
 20
-122.4254246916158
 30
0.0
 10
77.46608219034226
 20
-122.4254246916158
 30
0.0
 10
77.46608219034226
 20
-122.4254246916158
 30
0.0
 10
77.23180247409701
 20
-122.3005413583139
 30
0.0
 10
76.23238305514988
 20
-122.2850544138731
 30
0.0
 10
76.23238305514988
 20
-122.2850544138731
 30
0.0
 10
76.43530275866908
 20
-121.848386080649
 30
0.0
 10
76.43530275866908
 20
-121.7391660806764
 30
0.0
 10
76.43530275866908
 20
-121.6299460807036
 30
0.0
 10
76.34160305236345
 20
-121.7079805251285
 30
0.0
 10
76.24786999919922
 20
-121.8015371917717
 30
0.0
 10
76.15417222381187
 20
-121.8950585806374
 30
0.0
 10
75.96677667303717
 20
-121.9730930250623
 30
0.0
 10
75.65463890322269
 20
-121.9730930250623
 30
0.0
 10
75.65463890322269
 20
-121.9730930250623
 30
0.0
 10
75.60779001552902
 20
-121.6611316362515
 30
0.0
 10
75.04553280765117
 20
-121.5676102473858
 30
0.0
 10
74.48331087755021
 20
-121.4740535807426
 30
0.0
 10
72.54649037140706
 20
-121.3180199696706
 30
0.0
 10
71.28178207033912
 20
-121.7546530251169
 30
0.0
 10
71.21909346082734
 20
-121.6456446918107
 30
0.0
 10
71.21909346082734
 20
-121.5987958029338
 30
0.0
 10
70.86010680331918
 20
-121.6611316362515
 30
0.0
 10
70.50076736804225
 20
-121.7235027473468
 30
0.0
 10
70.1414632105422
 20
-121.8326874695418
 30
0.0
 10
70.26652292957388
 20
-121.9107219139667
 30
0.0
 10
70.39158264860556
 20
-121.9885799695028
 30
0.0
 10
70.36022070496122
 20
-122.3162046916432
 30
0.0
 10
70.36022070496122
 20
-122.3162046916432
 30
0.0
 10
67.2679118949637
 20
-122.7217227470972
 30
0.0
 10
65.8154552653523
 20
-123.0960199692261
 30
0.0
 10
65.8154552653523
 20
-123.5326883024502
 30
0.0
 10
65.8154552653523
 20
-123.8132877468245
 30
0.0
 10
65.97184165025143
 20
-123.8913221912494
 30
0.0
 10
65.97184165025143
 20
-123.8913221912494
 30
0.0
 10
65.97184165025143
 20
-123.8913221912494
 30
0.0
 10
67.03363217871846
 20
-138.519711354259
 30
0.0
 10
67.03363217871846
 20
-138.519711354259
 30
0.0
 10
67.03363217871846
 20
-138.519711354259
 30
0.0
 10
66.94370912545703
 20
-138.6547546875584
 30
0.0
 10
66.93993609437621
 20
-138.8628582986178
 30
0.0
 10
66.91580440394671
 20
-140.2353755204964
 30
0.0
 10
69.10895323688372
 20
-140.7655652425866
 30
0.0
 10
70.65683625294949
 20
-140.7655652425866
 30
0.0
 10
73.80463887043774
 20
-140.7655652425866
 30
0.0
 10
75.6563694255303
 20
-140.2301896871645
 30
0.0
 10
77.950446066874
 20
-138.8941849652765
 30
0.0
 10
77.950446066874
 20
-138.8941849652765
 30
0.0
 10
77.99729495456768
 20
-139.6428146873117
 30
0.0
 10
77.99729495456768
 20
-139.6428146873117
 30
0.0
 10
77.99729495456768
 20
-139.6428146873117
 30
0.0
 10
77.93460831384982
 20
-139.7516819095068
 30
0.0
 10
77.98145523274955
 20
-139.9232377427968
 30
0.0
 10
78.02830412044322
 20
-140.0947935760874
 30
0.0
 10
78.34079466802649
 20
-140.5784871870777
 30
0.0
 10
79.57445852544198
 20
-140.6408582981729
 30
0.0
 10
80.80815766063436
 20
-140.7032294092688
 30
0.0
 10
86.24315779975375
 20
-140.6722202426098
 30
0.0
 10
86.24315779975375
 20
-140.6722202426098
 30
0.0
 10
86.24315779975375
 20
-140.6722202426098
 30
0.0
 10
91.69360960514557
 20
-140.6408582981729
 30
0.0
 10
92.3027157007171
 20
-140.6408582981729
 30
0.0
 10
93.13022651293886
 20
-140.6408582981729
 30
0.0
 10
94.19268731916657
 20
-140.5523110759728
 30
0.0
 10
94.0831498219611
 20
-139.393400798485
 30
0.0
 10
94.0831498219611
 20
-139.393400798485
 30
0.0
 10
94.17684997645598
 20
-139.393400798485
 30
0.0
 10
94.17684997645598
 20
-139.393400798485
 30
0.0
 10
94.17684997645598
 20
-139.393400798485
 30
0.0
 10
94.28606759456201
 20
-139.9859263538923
 30
0.0
 10
94.81728035878743
 20
-140.1885266316195
 30
0.0
 10
95.34817562302094
 20
-140.3910916315692
 30
0.0
 10
95.62930422695986
 20
-140.4847894093231
 30
0.0
 10
96.51950364869343
 20
-140.4847894093231
 30
0.0
 10
97.40973834820387
 20
-140.4847894093231
 30
0.0
 10
112.3087429680986
 20
-140.4069313537871
 30
0.0
 10
112.6522074037805
 20
-140.4069313537871
 30
0.0
 10
112.9960246172312
 20
-140.4069313537871
 30
0.0
 10
114.3079345837616
 20
-140.453780242664
 30
0.0
 10
113.8862240389648
 20
-139.455383854025
 30
0.0
 10
113.8862240389648
 20
-139.455383854025
 30
0.0
 10
115.885098154636
 20
-114.9862585823647
 30
0.0
 10
115.885098154636
 20
-114.9862585823647
 30
0.0
 10
115.885098154636
 20
-114.9862585823647
 30
0.0
 10
116.3381000875234
 20
-114.5807758046882
 30
0.0
 10
115.9164277487988
 20
-114.5807758046882
 30
0.0
 10
115.9164277487988
 20
-114.5807758046882
 30
0.0
 10
115.9164277487988
 20
-114.5807758046882
 30
0.0
 10
115.9164277487988
 20
-114.5807758046882
 30
0.0
  0
SPLINE
  5
4F
330
45
100
AcDbEntity
  8
_U+30EC_U+30A4_U+30E4_U+30FC 1
370
     0
100
AcDbSpline
210
0.0
220
0.0
230
1.0
 70
    11
 71
     3
 72
    17
 73
    13
 74
     0
 42
0.0000000001
 43
0.0000000001
 12
1.0
 22
0.0
 32
0.0
 13
1.0
 23
0.0
 33
0.0
 40
0.0
 40
0.0
 40
0.0
 40
0.0
 40
1.0
 40
1.0
 40
1.0
 40
2.0
 40
2.0
 40
2.0
 40
3.0
 40
3.0
 40
3.0
 40
4.0
 40
4.0
 40
4.0
 40
4.0
 10
107.4673267027245
 20
-114.5029177491521
 30
0.0
 10
107.4673267027245
 20
-114.5029177491521
 30
0.0
 10
108.3261994585906
 20
-114.5184046935926
 30
0.0
 10
108.3261994585906
 20
-114.5184046935926
 30
0.0
 10
108.3261994585906
 20
-114.5184046935926
 30
0.0
 10
108.2014925173277
 20
-113.3799908049884
 30
0.0
 10
107.9513730792644
 20
-113.0213569161891
 30
0.0
 10
107.8266661380015
 20
-113.1772494161501
 30
0.0
 10
107.5455375340625
 20
-113.7854735826648
 30
0.0
 10
107.4673267027245
 20
-114.5029177491521
 30
0.0
 10
107.4673267027245
 20
-114.5029177491521
 30
0.0
 10
107.4673267027245
 20
-114.5029177491521
 30
0.0
 10
107.4673267027245
 20
-114.5029177491521
 30
0.0
  0
ENDBLK
  5
48
330
45
100
AcDbEntity
  8
0
100
AcDbBlockEnd
  0
BLOCK
  5
52
330
50
100
AcDbEntity
  8
0
100
AcDbBlockBegin
  2
block 4
 70
     0
 10
0.0
 20
0.0
 30
0.0
  3
block 4
  1

  0
POLYLINE
  5
54
330
50
100
AcDbEntity
  8
_U+30EC_U+30A4_U+30E4_U+30FC 1
370
     0
100
AcDb2dPolyline
 66
     1
 10
0.0
 20
0.0
 30
0.0
  0
VERTEX
  5
55
330
54
100
AcDbEntity
  8
_U+30EC_U+30A4_U+30E4_U+30FC 1
370
     0
100
AcDbVertex
100
AcDb2dVertex
 10
70.43291013864177
 20
-142.843994104914
 30
0.0
  0
VERTEX
  5
56
330
54
100
AcDbEntity
  8
_U+30EC_U+30A4_U+30E4_U+30FC 1
370
     0
100
AcDbVertex
100
AcDb2dVertex
 10
70.43291013864177
 20
-144.3712049335253
 30
0.0
  0
VERTEX
  5
57
330
54
100
AcDbEntity
  8
_U+30EC_U+30A4_U+30E4_U+30FC 1
370
     0
100
AcDbVertex
100
AcDb2dVertex
 10
70.30113523633096
 20
-144.3712049335253
 30
0.0
  0
VERTEX
  5
58
330
54
100
AcDbEntity
  8
_U+30EC_U+30A4_U+30E4_U+30FC 1
370
     0
100
AcDbVertex
100
AcDb2dVertex
 10
70.30113523633096
 20
-142.9583712750243
 30
0.0
  0
VERTEX
  5
59
330
54
100
AcDbEntity
  8
_U+30EC_U+30A4_U+30E4_U+30FC 1
370
     0
100
AcDbVertex
100
AcDb2dVertex
 10
70.0181206422177
 20
-142.9583712750243
 30
0.0
  0
VERTEX
  5
5A
330
54
100
AcDbEntity
  8
_U+30EC_U+30A4_U+30E4_U+30FC 1
370
     0
100
AcDbVertex
100
AcDb2dVertex
 10
70.0181206422177
 20
-142.843994104914
 30
0.0
  0
VERTEX
  5
5B
330
54
100
AcDbEntity
  8
_U+30EC_U+30A4_U+30E4_U+30FC 1
370
     0
100
AcDbVertex
100
AcDb2dVertex
 10
70.43291013864177
 20
-142.843994104914
 30
0.0
  0
SEQEND
  5
5C
330
54
100
AcDbEntity
  8
_U+30EC_U+30A4_U+30E4_U+30FC 1
370
     0
  0
HATCH
  5
5D
330
50
100
AcDbEntity
  8
_U+30EC_U+30A4_U+30E4_U+30FC 1
 62
   179
420
  2234388
100
AcDbHatch
 10
0.0
 20
0.0
 30
0.0
210
0.0
220
0.0
230
1.0
  2
SOLID
 70
     1
 71
     0
 91
        1
 92
        1
 93
        6
 72
     1
 10
70.43291013864177
 20
-142.843994104914
 11
70.43291013864177
 21
-144.3712049335253
 72
     1
 10
70.43291013864177
 20
-144.3712049335253
 11
70.30113523633096
 21
-144.3712049335253
 72
     1
 10
70.30113523633096
 20
-144.3712049335253
 11
70.30113523633096
 21
-142.9583712750243
 72
     1
 10
70.30113523633096
 20
-142.9583712750243
 11
70.0181206422177
 21
-142.9583712750243
 72
     1
 10
70.0181206422177
 20
-142.9583712750243
 11
70.0181206422177
 21
-142.843994104914
 72
     1
 10
70.0181206422177
 20
-142.843994104914
 11
70.43291013864177
 21
-142.843994104914
 97
        0
 75
     2
 76
     1
 98
        0
  0
POLYLINE
  5
5E
330
50
100
AcDbEntity
  8
_U+30EC_U+30A4_U+30E4_U+30FC 1
370
     0
100
AcDb2dPolyline
 66
     1
 10
0.0
 20
0.0
 30
0.0
  0
VERTEX
  5
5F
330
5E
100
AcDbEntity
  8
_U+30EC_U+30A4_U+30E4_U+30FC 1
370
     0
100
AcDbVertex
100
AcDb2dVertex
 10
71.85711261224405
 20
-143.229844799262
 30
0.0
  0
VERTEX
  5
60
330
5E
100
AcDbEntity
  8
_U+30EC_U+30A4_U+30E4_U+30FC 1
370
     0
100
AcDbVertex
100
AcDb2dVertex
 10
72.0333292463146
 20
-143.229844799262
 30
0.0
  0
VERTEX
  5
61
330
5E
100
AcDbEntity
  8
_U+30EC_U+30A4_U+30E4_U+30FC 1
370
     0
100
AcDbVertex
100
AcDb2dVertex
 10
71.45593124298672
 20
-143.760734013539
 30
0.0
  0
VERTEX
  5
62
330
5E
100
AcDbEntity
  8
_U+30EC_U+30A4_U+30E4_U+30FC 1
370
     0
100
AcDbVertex
100
AcDb2dVertex
 10
72.0934461625322
 20
-144.3712049335253
 30
0.0
  0
VERTEX
  5
63
330
5E
100
AcDbEntity
  8
_U+30EC_U+30A4_U+30E4_U+30FC 1
370
     0
100
AcDbVertex
100
AcDb2dVertex
 10
71.91516247117052
 20
-144.3712049335253
 30
0.0
  0
VERTEX
  5
64
330
5E
100
AcDbEntity
  8
_U+30EC_U+30A4_U+30E4_U+30FC 1
370
     0
100
AcDbVertex
100
AcDb2dVertex
 10
71.31829967835098
 20
-143.7762369432226
 30
0.0
  0
VERTEX
  5
65
330
5E
100
AcDbEntity
  8
_U+30EC_U+30A4_U+30E4_U+30FC 1
370
     0
100
AcDbVertex
100
AcDb2dVertex
 10
71.31829967835098
 20
-144.3712049335253
 30
0.0
  0
VERTEX
  5
66
330
5E
100
AcDbEntity
  8
_U+30EC_U+30A4_U+30E4_U+30FC 1
370
     0
100
AcDbVertex
100
AcDb2dVertex
 10
71.19617104339888
 20
-144.3712049335253
 30
0.0
  0
VERTEX
  5
67
330
5E
100
AcDbEntity
  8
_U+30EC_U+30A4_U+30E4_U+30FC 1
370
     0
100
AcDbVertex
100
AcDb2dVertex
 10
71.19617104339888
 20
-142.843994104914
 30
0.0
  0
VERTEX
  5
68
330
5E
100
AcDbEntity
  8
_U+30EC_U+30A4_U+30E4_U+30FC 1
370
     0
100
AcDbVertex
100
AcDb2dVertex
 10
71.31829967835098
 20
-142.843994104914
 30
0.0
  0
VERTEX
  5
69
330
5E
100
AcDbEntity
  8
_U+30EC_U+30A4_U+30E4_U+30FC 1
370
     0
100
AcDbVertex
100
AcDb2dVertex
 10
71.31829967835098
 20
-143.7452310838554
 30
0.0
  0
VERTEX
  5
6A
330
5E
100
AcDbEntity
  8
_U+30EC_U+30A4_U+30E4_U+30FC 1
370
     0
100
AcDbVertex
100
AcDb2dVertex
 10
71.85711261224405
 20
-143.229844799262
 30
0.0
  0
SEQEND
  5
6B
330
5E
100
AcDbEntity
  8
_U+30EC_U+30A4_U+30E4_U+30FC 1
370
     0
  0
HATCH
  5
6C
330
50
100
AcDbEntity
  8
_U+30EC_U+30A4_U+30E4_U+30FC 1
 62
   179
420
  2234388
100
AcDbHatch
 10
0.0
 20
0.0
 30
0.0
210
0.0
220
0.0
230
1.0
  2
SOLID
 70
     1
 71
     0
 91
        1
 92
        1
 93
       11
 72
     1
 10
71.85711261224405
 20
-143.229844799262
 11
72.0333292463146
 21
-143.229844799262
 72
     1
 10
72.0333292463146
 20
-143.229844799262
 11
71.45593124298672
 21
-143.760734013539
 72
     1
 10
71.45593124298672
 20
-143.760734013539
 11
72.0934461625322
 21
-144.3712049335253
 72
     1
 10
72.0934461625322
 20
-144.3712049335253
 11
71.91516247117052
 21
-144.3712049335253
 72
     1
 10
71.91516247117052
 20
-144.3712049335253
 11
71.31829967835098
 21
-143.7762369432226
 72
     1
 10
71.31829967835098
 20
-143.7762369432226
 11
71.31829967835098
 21
-144.3712049335253
 72
     1
 10
71.31829967835098
 20
-144.3712049335253
 11
71.19617104339888
 21
-144.3712049335253
 72
     1
 10
71.19617104339888
 20
-144.3712049335253
 11
71.19617104339888
 21
-142.843994104914
 72
     1
 10
71.19617104339888
 20
-142.843994104914
 11
71.31829967835098
 21
-142.843994104914
 72
     1
 10
71.31829967835098
 20
-142.843994104914
 11
71.31829967835098
 21
-143.7452310838554
 72
     1
 10
71.31829967835098
 20
-143.7452310838554
 11
71.85711261224405
 21
-143.229844799262
 97
        0
 75
     2
 76
     1
 98
        0
  0
SPLINE
  5
6D
330
50
100
AcDbEntity
  8
_U+30EC_U+30A4_U+30E4_U+30FC 1
370
     0
100
AcDbSpline
210
0.0
220
0.0
230
1.0
 70
    11
 71
     3
 72
    59
 73
    55
 74
     0
 42
0.0000000001
 43
0.0000000001
 12
1.0
 22
0.0
 32
0.0
 13
1.0
 23
0.0
 33
0.0
 40
0.0
 40
0.0
 40
0.0
 40
0.0
 40
1.0
 40
1.0
 40
1.0
 40
2.0
 40
2.0
 40
2.0
 40
3.0
 40
3.0
 40
3.0
 40
4.0
 40
4.0
 40
4.0
 40
5.0
 40
5.0
 40
5.0
 40
6.0
 40
6.0
 40
6.0
 40
7.0
 40
7.0
 40
7.0
 40
8.0
 40
8.0
 40
8.0
 40
9.0
 40
9.0
 40
9.0
 40
10.0
 40
10.0
 40
10.0
 40
11.0
 40
11.0
 40
11.0
 40
12.0
 40
12.0
 40
12.0
 40
13.0
 40
13.0
 40
13.0
 40
14.0
 40
14.0
 40
14.0
 40
15.0
 40
15.0
 40
15.0
 40
16.0
 40
16.0
 40
16.0
 40
17.0
 40
17.0
 40
17.0
 40
18.0
 40
18.0
 40
18.0
 40
18.0
 10
73.38156736446712
 20
-143.2977131803214
 30
0.0
 10
73.27115205416486
 20
-143.3035698426463
 30
0.0
 10
73.24393579983138
 20
-143.3149386577477
 30
0.0
 10
73.21103513794725
 20
-143.3769503764822
 30
0.0
 10
73.23428953247269
 20
-143.4158799554655
 30
0.0
 10
73.25564912448122
 20
-143.4468858148327
 30
0.0
 10
73.25564912448122
 20
-143.5419704502256
 30
0.0
 10
73.25564912448122
 20
-143.8596082539657
 30
0.0
 10
73.0132866570939
 20
-143.8885470560417
 30
0.0
 10
72.8002075013312
 20
-143.8885470560417
 30
0.0
 10
72.62967527481133
 20
-143.8885470560417
 30
0.0
 10
72.51925996450908
 20
-143.8692545213244
 30
0.0
 10
72.45139158344965
 20
-143.8189561272397
 30
0.0
 10
72.38937986471515
 20
-143.8537515916407
 30
0.0
 10
72.36612547018971
 20
-143.8830349032654
 30
0.0
 10
72.36612547018971
 20
-143.9274766350251
 30
0.0
 10
72.36612547018971
 20
-144.0012016784094
 30
0.0
 10
72.43209904873225
 20
-144.0242838181606
 30
0.0
 10
72.49014890765872
 20
-144.0280734231944
 30
0.0
 10
72.49014890765872
 20
-144.0280734231944
 30
0.0
 10
73.00174558721832
 20
-144.0590792825616
 30
0.0
 10
73.00174558721832
 20
-144.0590792825616
 30
0.0
 10
73.23825139228072
 20
-144.0728596645026
 30
0.0
 10
73.33505857541624
 20
-144.1658772426044
 30
0.0
 10
73.33505857541624
 20
-144.3305528067993
 30
0.0
 10
73.33505857541624
 20
-144.5803222294799
 30
0.0
 10
73.12576902468732
 20
-144.6309651331131
 30
0.0
 10
72.79624564152316
 20
-144.6309651331131
 30
0.0
 10
72.44553492112473
 20
-144.6309651331131
 30
0.0
 10
72.2381401729127
 20
-144.5765326244461
 30
0.0
 10
72.2381401729127
 20
-144.3481227937741
 30
0.0
 10
72.2381401729127
 20
-144.1948160446805
 30
0.0
 10
72.33701441333936
 20
-144.140728045562
 30
0.0
 10
72.37387693503153
 20
-144.1210910012961
 30
0.0
 10
72.27500269460486
 20
-144.09215219922
 30
0.0
 10
72.25174830007943
 20
-144.0029242261521
 30
0.0
 10
72.25174830007943
 20
-143.9488362270336
 30
0.0
 10
72.25174830007943
 20
-143.8558186489319
 30
0.0
 10
72.30221894893833
 20
-143.7800265482564
 30
0.0
 10
72.39902613207386
 20
-143.7686577331551
 30
0.0
 10
72.3390814706305
 20
-143.6987222948045
 30
0.0
 10
72.32926294849754
 20
-143.6136284363188
 30
0.0
 10
72.32926294849754
 20
-143.547482603002
 30
0.0
 10
72.32926294849754
 20
-143.2918565179965
 30
0.0
 10
72.50565183734234
 20
-143.2143418695784
 30
0.0
 10
72.78470457164758
 20
-143.2143418695784
 30
0.0
 10
72.89908174175787
 20
-143.2143418695784
 30
0.0
 10
73.06375730595282
 20
-143.2239881369371
 30
0.0
 10
73.14316675688782
 20
-143.3015027853552
 30
0.0
 10
73.16452634889637
 20
-143.2570610535955
 30
0.0
 10
73.1974270107805
 20
-143.1871256152449
 30
0.0
 10
73.38156736446712
 20
-143.18126895292
 30
0.0
 10
73.38156736446712
 20
-143.18126895292
 30
0.0
 10
73.38156736446712
 20
-143.2977131803214
 30
0.0
 10
73.38156736446712
 20
-143.2977131803214
 30
0.0
  0
SPLINE
  5
6E
330
50
100
AcDbEntity
  8
_U+30EC_U+30A4_U+30E4_U+30FC 1
370
     0
100
AcDbSpline
210
0.0
220
0.0
230
1.0
 70
    11
 71
     3
 72
    20
 73
    16
 74
     0
 42
0.0000000001
 43
0.0000000001
 12
1.0
 22
0.0
 32
0.0
 13
1.0
 23
0.0
 33
0.0
 40
0.0
 40
0.0
 40
0.0
 40
0.0
 40
1.0
 40
1.0
 40
1.0
 40
2.0
 40
2.0
 40
2.0
 40
3.0
 40
3.0
 40
3.0
 40
4.0
 40
4.0
 40
4.0
 40
5.0
 40
5.0
 40
5.0
 40
5.0
 10
72.5347628941927
 20
-144.140728045562
 30
0.0
 10
72.52890623186778
 20
-144.140728045562
 30
0.0
 10
72.35251734302298
 20
-144.1579535229883
 30
0.0
 10
72.35251734302298
 20
-144.3267632017655
 30
0.0
 10
72.35251734302298
 20
-144.464222511627
 30
0.0
 10
72.4222805265993
 20
-144.5183105107454
 30
0.0
 10
72.79624564152316
 20
-144.5183105107454
 30
0.0
 10
73.13162568701223
 20
-144.5183105107454
 30
0.0
 10
73.21292994046414
 20
-144.4545762442683
 30
0.0
 10
73.21292994046414
 20
-144.3343424118331
 30
0.0
 10
73.21292994046414
 20
-144.1968831019716
 30
0.0
 10
73.10440943267876
 20
-144.1755235099631
 30
0.0
 10
72.90476614930853
 20
-144.1638101853132
 30
0.0
 10
72.90476614930853
 20
-144.1638101853132
 30
0.0
 10
72.5347628941927
 20
-144.140728045562
 30
0.0
 10
72.5347628941927
 20
-144.140728045562
 30
0.0
  0
SPLINE
  5
6F
330
50
100
AcDbEntity
  8
_U+30EC_U+30A4_U+30E4_U+30FC 1
370
     0
100
AcDbSpline
210
0.0
220
0.0
230
1.0
 70
    11
 71
     3
 72
    17
 73
    13
 74
     0
 42
0.0000000001
 43
0.0000000001
 12
1.0
 22
0.0
 32
0.0
 13
1.0
 23
0.0
 33
0.0
 40
0.0
 40
0.0
 40
0.0
 40
0.0
 40
1.0
 40
1.0
 40
1.0
 40
2.0
 40
2.0
 40
2.0
 40
3.0
 40
3.0
 40
3.0
 40
4.0
 40
4.0
 40
4.0
 40
4.0
 10
72.45139158344965
 20
-143.5629855326856
 30
0.0
 10
72.45139158344965
 20
-143.7355848164967
 30
0.0
 10
72.5618068937519
 20
-143.7762369432226
 30
0.0
 10
72.79624564152316
 20
-143.7762369432226
 30
0.0
 10
73.03671330639361
 20
-143.7762369432226
 30
0.0
 10
73.135415292046
 20
-143.7280056064291
 30
0.0
 10
73.135415292046
 20
-143.5399033929345
 30
0.0
 10
73.135415292046
 20
-143.4255262228242
 30
0.0
 10
73.08701170047826
 20
-143.3249294346549
 30
0.0
 10
72.7905612339725
 20
-143.3249294346549
 30
0.0
 10
72.55801728871813
 20
-143.3249294346549
 30
0.0
 10
72.45139158344965
 20
-143.3655815613808
 30
0.0
 10
72.45139158344965
 20
-143.5629855326856
 30
0.0
  0
HATCH
  5
70
330
50
100
AcDbEntity
  8
_U+30EC_U+30A4_U+30E4_U+30FC 1
 62
   179
420
  2234388
100
AcDbHatch
 10
0.0
 20
0.0
 30
0.0
210
0.0
220
0.0
230
1.0
  2
SOLID
 70
     1
 71
     0
 91
        3
 92
        1
 93
        1
 72
     4
 94
        3
 73
     0
 74
     1
 95
       59
 96
       55
 40
0.0
 40
0.0
 40
0.0
 40
0.0
 40
1.0
 40
1.0
 40
1.0
 40
2.0
 40
2.0
 40
2.0
 40
3.0
 40
3.0
 40
3.0
 40
4.0
 40
4.0
 40
4.0
 40
5.0
 40
5.0
 40
5.0
 40
6.0
 40
6.0
 40
6.0
 40
7.0
 40
7.0
 40
7.0
 40
8.0
 40
8.0
 40
8.0
 40
9.0
 40
9.0
 40
9.0
 40
10.0
 40
10.0
 40
10.0
 40
11.0
 40
11.0
 40
11.0
 40
12.0
 40
12.0
 40
12.0
 40
13.0
 40
13.0
 40
13.0
 40
14.0
 40
14.0
 40
14.0
 40
15.0
 40
15.0
 40
15.0
 40
16.0
 40
16.0
 40
16.0
 40
17.0
 40
17.0
 40
17.0
 40
18.0
 40
18.0
 40
18.0
 40
18.0
 10
73.38156736446712
 20
-143.2977131803214
 10
73.27115205416486
 20
-143.3035698426463
 10
73.24393579983138
 20
-143.3149386577477
 10
73.21103513794725
 20
-143.3769503764822
 10
73.23428953247269
 20
-143.4158799554655
 10
73.25564912448122
 20
-143.4468858148327
 10
73.25564912448122
 20
-143.5419704502256
 10
73.25564912448122
 20
-143.8596082539657
 10
73.0132866570939
 20
-143.8885470560417
 10
72.8002075013312
 20
-143.8885470560417
 10
72.62967527481133
 20
-143.8885470560417
 10
72.51925996450908
 20
-143.8692545213244
 10
72.45139158344965
 20
-143.8189561272397
 10
72.38937986471515
 20
-143.8537515916407
 10
72.36612547018971
 20
-143.8830349032654
 10
72.36612547018971
 20
-143.9274766350251
 10
72.36612547018971
 20
-144.0012016784094
 10
72.43209904873225
 20
-144.0242838181606
 10
72.49014890765872
 20
-144.0280734231944
 10
72.49014890765872
 20
-144.0280734231944
 10
73.00174558721832
 20
-144.0590792825616
 10
73.00174558721832
 20
-144.0590792825616
 10
73.23825139228072
 20
-144.0728596645026
 10
73.33505857541624
 20
-144.1658772426044
 10
73.33505857541624
 20
-144.3305528067993
 10
73.33505857541624
 20
-144.5803222294799
 10
73.12576902468732
 20
-144.6309651331131
 10
72.79624564152316
 20
-144.6309651331131
 10
72.44553492112473
 20
-144.6309651331131
 10
72.2381401729127
 20
-144.5765326244461
 10
72.2381401729127
 20
-144.3481227937741
 10
72.2381401729127
 20
-144.1948160446805
 10
72.33701441333936
 20
-144.140728045562
 10
72.37387693503153
 20
-144.1210910012961
 10
72.27500269460486
 20
-144.09215219922
 10
72.25174830007943
 20
-144.0029242261521
 10
72.25174830007943
 20
-143.9488362270336
 10
72.25174830007943
 20
-143.8558186489319
 10
72.30221894893833
 20
-143.7800265482564
 10
72.39902613207386
 20
-143.7686577331551
 10
72.3390814706305
 20
-143.6987222948045
 10
72.32926294849754
 20
-143.6136284363188
 10
72.32926294849754
 20
-143.547482603002
 10
72.32926294849754
 20
-143.2918565179965
 10
72.50565183734234
 20
-143.2143418695784
 10
72.78470457164758
 20
-143.2143418695784
 10
72.89908174175787
 20
-143.2143418695784
 10
73.06375730595282
 20
-143.2239881369371
 10
73.14316675688782
 20
-143.3015027853552
 10
73.16452634889637
 20
-143.2570610535955
 10
73.1974270107805
 20
-143.1871256152449
 10
73.38156736446712
 20
-143.18126895292
 10
73.38156736446712
 20
-143.18126895292
 10
73.38156736446712
 20
-143.2977131803214
 10
73.38156736446712
 20
-143.2977131803214
 97
        0
 97
        0
 92
        1
 93
        1
 72
     4
 94
        3
 73
     0
 74
     1
 95
       20
 96
       16
 40
0.0
 40
0.0
 40
0.0
 40
0.0
 40
1.0
 40
1.0
 40
1.0
 40
2.0
 40
2.0
 40
2.0
 40
3.0
 40
3.0
 40
3.0
 40
4.0
 40
4.0
 40
4.0
 40
5.0
 40
5.0
 40
5.0
 40
5.0
 10
72.5347628941927
 20
-144.140728045562
 10
72.52890623186778
 20
-144.140728045562
 10
72.35251734302298
 20
-144.1579535229883
 10
72.35251734302298
 20
-144.3267632017655
 10
72.35251734302298
 20
-144.464222511627
 10
72.4222805265993
 20
-144.5183105107454
 10
72.79624564152316
 20
-144.5183105107454
 10
73.13162568701223
 20
-144.5183105107454
 10
73.21292994046414
 20
-144.4545762442683
 10
73.21292994046414
 20
-144.3343424118331
 10
73.21292994046414
 20
-144.1968831019716
 10
73.10440943267876
 20
-144.1755235099631
 10
72.90476614930853
 20
-144.1638101853132
 10
72.90476614930853
 20
-144.1638101853132
 10
72.5347628941927
 20
-144.140728045562
 10
72.5347628941927
 20
-144.140728045562
 97
        0
 97
        0
 92
        1
 93
        1
 72
     4
 94
        3
 73
     0
 74
     1
 95
       17
 96
       13
 40
0.0
 40
0.0
 40
0.0
 40
0.0
 40
1.0
 40
1.0
 40
1.0
 40
2.0
 40
2.0
 40
2.0
 40
3.0
 40
3.0
 40
3.0
 40
4.0
 40
4.0
 40
4.0
 40
4.0
 10
72.45139158344965
 20
-143.5629855326856
 10
72.45139158344965
 20
-143.7355848164967
 10
72.5618068937519
 20
-143.7762369432226
 10
72.79624564152316
 20
-143.7762369432226
 10
73.03671330639361
 20
-143.7762369432226
 10
73.135415292046
 20
-143.7280056064291
 10
73.135415292046
 20
-143.5399033929345
 10
73.135415292046
 20
-143.4255262228242
 10
73.08701170047826
 20
-143.3249294346549
 10
72.7905612339725
 20
-143.3249294346549
 10
72.55801728871813
 20
-143.3249294346549
 10
72.45139158344965
 20
-143.3655815613808
 10
72.45139158344965
 20
-143.5629855326856
 97
        0
 97
        0
 75
     2
 76
     1
 98
        0
  0
ENDBLK
  5
53
330
50
100
AcDbEntity
  8
0
100
AcDbBlockEnd
  0
BLOCK
  5
73
330
71
100
AcDbEntity
  8
0
100
AcDbBlockBegin
  2
block 5
 70
     0
 10
0.0
 20
0.0
 30
0.0
  3
block 5
  1

  0
POLYLINE
  5
75
330
71
100
AcDbEntity
  8
_U+30EC_U+30A4_U+30E4_U+30FC 1
370
     0
100
AcDb2dPolyline
 66
     1
 10
0.0
 20
0.0
 30
0.0
  0
VERTEX
  5
76
330
75
100
AcDbEntity
  8
_U+30EC_U+30A4_U+30E4_U+30FC 1
370
     0
100
AcDbVertex
100
AcDb2dVertex
 10
83.70255667395284
 20
-142.843994104914
 30
0.0
  0
VERTEX
  5
77
330
75
100
AcDbEntity
  8
_U+30EC_U+30A4_U+30E4_U+30FC 1
370
     0
100
AcDbVertex
100
AcDb2dVertex
 10
83.70255667395284
 20
-144.3712049335253
 30
0.0
  0
VERTEX
  5
78
330
75
100
AcDbEntity
  8
_U+30EC_U+30A4_U+30E4_U+30FC 1
370
     0
100
AcDbVertex
100
AcDb2dVertex
 10
83.57078177164203
 20
-144.3712049335253
 30
0.0
  0
VERTEX
  5
79
330
75
100
AcDbEntity
  8
_U+30EC_U+30A4_U+30E4_U+30FC 1
370
     0
100
AcDbVertex
100
AcDb2dVertex
 10
83.57078177164203
 20
-142.9583712750243
 30
0.0
  0
VERTEX
  5
7A
330
75
100
AcDbEntity
  8
_U+30EC_U+30A4_U+30E4_U+30FC 1
370
     0
100
AcDbVertex
100
AcDb2dVertex
 10
83.28776717752875
 20
-142.9583712750243
 30
0.0
  0
VERTEX
  5
7B
330
75
100
AcDbEntity
  8
_U+30EC_U+30A4_U+30E4_U+30FC 1
370
     0
100
AcDbVertex
100
AcDb2dVertex
 10
83.28776717752875
 20
-142.843994104914
 30
0.0
  0
VERTEX
  5
7C
330
75
100
AcDbEntity
  8
_U+30EC_U+30A4_U+30E4_U+30FC 1
370
     0
100
AcDbVertex
100
AcDb2dVertex
 10
83.70255667395284
 20
-142.843994104914
 30
0.0
  0
SEQEND
  5
7D
330
75
100
AcDbEntity
  8
_U+30EC_U+30A4_U+30E4_U+30FC 1
370
     0
  0
HATCH
  5
7E
330
71
100
AcDbEntity
  8
_U+30EC_U+30A4_U+30E4_U+30FC 1
 62
   179
420
  2234388
100
AcDbHatch
 10
0.0
 20
0.0
 30
0.0
210
0.0
220
0.0
230
1.0
  2
SOLID
 70
     1
 71
     0
 91
        1
 92
        1
 93
        6
 72
     1
 10
83.70255667395284
 20
-142.843994104914
 11
83.70255667395284
 21
-144.3712049335253
 72
     1
 10
83.70255667395284
 20
-144.3712049335253
 11
83.57078177164203
 21
-144.3712049335253
 72
     1
 10
83.57078177164203
 20
-144.3712049335253
 11
83.57078177164203
 21
-142.9583712750243
 72
     1
 10
83.57078177164203
 20
-142.9583712750243
 11
83.28776717752875
 21
-142.9583712750243
 72
     1
 10
83.28776717752875
 20
-142.9583712750243
 11
83.28776717752875
 21
-142.843994104914
 72
     1
 10
83.28776717752875
 20
-142.843994104914
 11
83.70255667395284
 21
-142.843994104914
 97
        0
 75
     2
 76
     1
 98
        0
  0
POLYLINE
  5
7F
330
71
100
AcDbEntity
  8
_U+30EC_U+30A4_U+30E4_U+30FC 1
370
     0
100
AcDb2dPolyline
 66
     1
 10
0.0
 20
0.0
 30
0.0
  0
VERTEX
  5
80
330
7F
100
AcDbEntity
  8
_U+30EC_U+30A4_U+30E4_U+30FC 1
370
     0
100
AcDbVertex
100
AcDb2dVertex
 10
84.64995793239655
 20
-144.1930934969378
 30
0.0
  0
VERTEX
  5
81
330
7F
100
AcDbEntity
  8
_U+30EC_U+30A4_U+30E4_U+30FC 1
370
     0
100
AcDbVertex
100
AcDb2dVertex
 10
84.64995793239655
 20
-144.3712049335253
 30
0.0
  0
VERTEX
  5
82
330
7F
100
AcDbEntity
  8
_U+30EC_U+30A4_U+30E4_U+30FC 1
370
     0
100
AcDbVertex
100
AcDb2dVertex
 10
84.48717717071848
 20
-144.3712049335253
 30
0.0
  0
VERTEX
  5
83
330
7F
100
AcDbEntity
  8
_U+30EC_U+30A4_U+30E4_U+30FC 1
370
     0
100
AcDbVertex
100
AcDb2dVertex
 10
84.48717717071848
 20
-144.1930934969378
 30
0.0
  0
VERTEX
  5
84
330
7F
100
AcDbEntity
  8
_U+30EC_U+30A4_U+30E4_U+30FC 1
370
     0
100
AcDbVertex
100
AcDb2dVertex
 10
84.64995793239655
 20
-144.1930934969378
 30
0.0
  0
SEQEND
  5
85
330
7F
100
AcDbEntity
  8
_U+30EC_U+30A4_U+30E4_U+30FC 1
370
     0
  0
HATCH
  5
86
330
71
100
AcDbEntity
  8
_U+30EC_U+30A4_U+30E4_U+30FC 1
 62
   179
420
  2234388
100
AcDbHatch
 10
0.0
 20
0.0
 30
0.0
210
0.0
220
0.0
230
1.0
  2
SOLID
 70
     1
 71
     0
 91
        1
 92
        1
 93
        4
 72
     1
 10
84.64995793239655
 20
-144.1930934969378
 11
84.64995793239655
 21
-144.3712049335253
 72
     1
 10
84.64995793239655
 20
-144.3712049335253
 11
84.48717717071848
 21
-144.3712049335253
 72
     1
 10
84.48717717071848
 20
-144.3712049335253
 11
84.48717717071848
 21
-144.1930934969378
 72
     1
 10
84.48717717071848
 20
-144.1930934969378
 11
84.64995793239655
 21
-144.1930934969378
 97
        0
 75
     2
 76
     1
 98
        0
  0
SPLINE
  5
87
330
71
100
AcDbEntity
  8
_U+30EC_U+30A4_U+30E4_U+30FC 1
370
     0
100
AcDbSpline
210
0.0
220
0.0
230
1.0
 70
    11
 71
     3
 72
    50
 73
    46
 74
     0
 42
0.0000000001
 43
0.0000000001
 12
1.0
 22
0.0
 32
0.0
 13
1.0
 23
0.0
 33
0.0
 40
0.0
 40
0.0
 40
0.0
 40
0.0
 40
1.0
 40
1.0
 40
1.0
 40
2.0
 40
2.0
 40
2.0
 40
3.0
 40
3.0
 40
3.0
 40
4.0
 40
4.0
 40
4.0
 40
5.0
 40
5.0
 40
5.0
 40
6.0
 40
6.0
 40
6.0
 40
7.0
 40
7.0
 40
7.0
 40
8.0
 40
8.0
 40
8.0
 40
9.0
 40
9.0
 40
9.0
 40
10.0
 40
10.0
 40
10.0
 40
11.0
 40
11.0
 40
11.0
 40
12.0
 40
12.0
 40
12.0
 40
13.0
 40
13.0
 40
13.0
 40
14.0
 40
14.0
 40
14.0
 40
15.0
 40
15.0
 40
15.0
 40
15.0
 10
86.07863903012965
 20
-142.843994104914
 30
0.0
 10
86.07863903012965
 20
-142.843994104914
 30
0.0
 10
86.07863903012965
 20
-142.9583712750243
 30
0.0
 10
86.07863903012965
 20
-142.9583712750243
 30
0.0
 10
86.07863903012965
 20
-142.9583712750243
 30
0.0
 10
85.1484632491122
 20
-142.9583712750243
 30
0.0
 10
85.1484632491122
 20
-142.9583712750243
 30
0.0
 10
85.1484632491122
 20
-142.9583712750243
 30
0.0
 10
85.13502737671972
 20
-143.4875379415587
 30
0.0
 10
85.13502737671972
 20
-143.4875379415587
 30
0.0
 10
85.19307723564619
 20
-143.4331054328917
 30
0.0
 10
85.28230520871415
 20
-143.3500786316972
 30
0.0
 10
85.57289901289498
 20
-143.3500786316972
 30
0.0
 10
85.75307750677354
 20
-143.3500786316972
 30
0.0
 10
86.13875594634726
 20
-143.3693711664146
 30
0.0
 10
86.13875594634726
 20
-143.8671874640332
 30
0.0
 10
86.13875594634726
 20
-144.2433918910225
 30
0.0
 10
85.94117972026818
 20
-144.3867078632089
 30
0.0
 10
85.54774981585265
 20
-144.3867078632089
 30
0.0
 10
85.01100393925073
 20
-144.3867078632089
 30
0.0
 10
84.97414141755856
 20
-144.1076551289036
 30
0.0
 10
84.96828475523363
 20
-143.919552915409
 30
0.0
 10
84.96828475523363
 20
-143.919552915409
 30
0.0
 10
85.09816485502755
 20
-143.919552915409
 30
0.0
 10
85.09816485502755
 20
-143.919552915409
 30
0.0
 10
85.10195446006132
 20
-144.0728596645026
 30
0.0
 10
85.10591631986935
 20
-144.2723306930986
 30
0.0
 10
85.54964461836954
 20
-144.2723306930986
 30
0.0
 10
85.86159801455891
 20
-144.2723306930986
 30
0.0
 10
86.00904810132761
 20
-144.1755235099631
 30
0.0
 10
86.00904810132761
 20
-143.8868245082991
 30
0.0
 10
86.00904810132761
 20
-143.6463568434287
 30
0.0
 10
85.94307452278507
 20
-143.464111292259
 30
0.0
 10
85.58650714006171
 20
-143.464111292259
 30
0.0
 10
85.2705918840643
 20
-143.464111292259
 30
0.0
 10
85.19497203816307
 20
-143.5516167175843
 30
0.0
 10
85.13296031942856
 20
-143.6618597731123
 30
0.0
 10
85.13296031942856
 20
-143.6618597731123
 30
0.0
 10
85.00893688195957
 20
-143.6618597731123
 30
0.0
 10
85.00893688195957
 20
-143.6618597731123
 30
0.0
 10
85.00893688195957
 20
-143.6618597731123
 30
0.0
 10
85.02254500912632
 20
-142.843994104914
 30
0.0
 10
85.02254500912632
 20
-142.843994104914
 30
0.0
 10
85.02254500912632
 20
-142.843994104914
 30
0.0
 10
86.07863903012965
 20
-142.843994104914
 30
0.0
 10
86.07863903012965
 20
-142.843994104914
 30
0.0
  0
HATCH
  5
88
330
71
100
AcDbEntity
  8
_U+30EC_U+30A4_U+30E4_U+30FC 1
 62
   179
420
  2234388
100
AcDbHatch
 10
0.0
 20
0.0
 30
0.0
210
0.0
220
0.0
230
1.0
  2
SOLID
 70
     1
 71
     0
 91
        1
 92
        1
 93
        1
 72
     4
 94
        3
 73
     0
 74
     1
 95
       50
 96
       46
 40
0.0
 40
0.0
 40
0.0
 40
0.0
 40
1.0
 40
1.0
 40
1.0
 40
2.0
 40
2.0
 40
2.0
 40
3.0
 40
3.0
 40
3.0
 40
4.0
 40
4.0
 40
4.0
 40
5.0
 40
5.0
 40
5.0
 40
6.0
 40
6.0
 40
6.0
 40
7.0
 40
7.0
 40
7.0
 40
8.0
 40
8.0
 40
8.0
 40
9.0
 40
9.0
 40
9.0
 40
10.0
 40
10.0
 40
10.0
 40
11.0
 40
11.0
 40
11.0
 40
12.0
 40
12.0
 40
12.0
 40
13.0
 40
13.0
 40
13.0
 40
14.0
 40
14.0
 40
14.0
 40
15.0
 40
15.0
 40
15.0
 40
15.0
 10
86.07863903012965
 20
-142.843994104914
 10
86.07863903012965
 20
-142.843994104914
 10
86.07863903012965
 20
-142.9583712750243
 10
86.07863903012965
 20
-142.9583712750243
 10
86.07863903012965
 20
-142.9583712750243
 10
85.1484632491122
 20
-142.9583712750243
 10
85.1484632491122
 20
-142.9583712750243
 10
85.1484632491122
 20
-142.9583712750243
 10
85.13502737671972
 20
-143.4875379415587
 10
85.13502737671972
 20
-143.4875379415587
 10
85.19307723564619
 20
-143.4331054328917
 10
85.28230520871415
 20
-143.3500786316972
 10
85.57289901289498
 20
-143.3500786316972
 10
85.75307750677354
 20
-143.3500786316972
 10
86.13875594634726
 20
-143.3693711664146
 10
86.13875594634726
 20
-143.8671874640332
 10
86.13875594634726
 20
-144.2433918910225
 10
85.94117972026818
 20
-144.3867078632089
 10
85.54774981585265
 20
-144.3867078632089
 10
85.01100393925073
 20
-144.3867078632089
 10
84.97414141755856
 20
-144.1076551289036
 10
84.96828475523363
 20
-143.919552915409
 10
84.96828475523363
 20
-143.919552915409
 10
85.09816485502755
 20
-143.919552915409
 10
85.09816485502755
 20
-143.919552915409
 10
85.10195446006132
 20
-144.0728596645026
 10
85.10591631986935
 20
-144.2723306930986
 10
85.54964461836954
 20
-144.2723306930986
 10
85.86159801455891
 20
-144.2723306930986
 10
86.00904810132761
 20
-144.1755235099631
 10
86.00904810132761
 20
-143.8868245082991
 10
86.00904810132761
 20
-143.6463568434287
 10
85.94307452278507
 20
-143.464111292259
 10
85.58650714006171
 20
-143.464111292259
 10
85.2705918840643
 20
-143.464111292259
 10
85.19497203816307
 20
-143.5516167175843
 10
85.13296031942856
 20
-143.6618597731123
 10
85.13296031942856
 20
-143.6618597731123
 10
85.00893688195957
 20
-143.6618597731123
 10
85.00893688195957
 20
-143.6618597731123
 10
85.00893688195957
 20
-143.6618597731123
 10
85.02254500912632
 20
-142.843994104914
 10
85.02254500912632
 20
-142.843994104914
 10
85.02254500912632
 20
-142.843994104914
 10
86.07863903012965
 20
-142.843994104914
 10
86.07863903012965
 20
-142.843994104914
 97
        0
 97
        0
 75
     2
 76
     1
 98
        0
  0
POLYLINE
  5
89
330
71
100
AcDbEntity
  8
_U+30EC_U+30A4_U+30E4_U+30FC 1
370
     0
100
AcDb2dPolyline
 66
     1
 10
0.0
 20
0.0
 30
0.0
  0
VERTEX
  5
8A
330
89
100
AcDbEntity
  8
_U+30EC_U+30A4_U+30E4_U+30FC 1
370
     0
100
AcDbVertex
100
AcDb2dVertex
 10
87.10183238924886
 20
-143.229844799262
 30
0.0
  0
VERTEX
  5
8B
330
89
100
AcDbEntity
  8
_U+30EC_U+30A4_U+30E4_U+30FC 1
370
     0
100
AcDbVertex
100
AcDb2dVertex
 10
87.27822127809364
 20
-143.229844799262
 30
0.0
  0
VERTEX
  5
8C
330
89
100
AcDbEntity
  8
_U+30EC_U+30A4_U+30E4_U+30FC 1
370
     0
100
AcDbVertex
100
AcDb2dVertex
 10
86.70082327476577
 20
-143.760734013539
 30
0.0
  0
VERTEX
  5
8D
330
89
100
AcDbEntity
  8
_U+30EC_U+30A4_U+30E4_U+30FC 1
370
     0
100
AcDbVertex
100
AcDb2dVertex
 10
87.33833819431125
 20
-144.3712049335253
 30
0.0
  0
VERTEX
  5
8E
330
89
100
AcDbEntity
  8
_U+30EC_U+30A4_U+30E4_U+30FC 1
370
     0
100
AcDbVertex
100
AcDb2dVertex
 10
87.16005450294958
 20
-144.3712049335253
 30
0.0
  0
VERTEX
  5
8F
330
89
100
AcDbEntity
  8
_U+30EC_U+30A4_U+30E4_U+30FC 1
370
     0
100
AcDbVertex
100
AcDb2dVertex
 10
86.56319171013004
 20
-143.7762369432226
 30
0.0
  0
VERTEX
  5
90
330
89
100
AcDbEntity
  8
_U+30EC_U+30A4_U+30E4_U+30FC 1
370
     0
100
AcDbVertex
100
AcDb2dVertex
 10
86.56319171013004
 20
-144.3712049335253
 30
0.0
  0
VERTEX
  5
91
330
89
100
AcDbEntity
  8
_U+30EC_U+30A4_U+30E4_U+30FC 1
370
     0
100
AcDbVertex
100
AcDb2dVertex
 10
86.44106307517794
 20
-144.3712049335253
 30
0.0
  0
VERTEX
  5
92
330
89
100
AcDbEntity
  8
_U+30EC_U+30A4_U+30E4_U+30FC 1
370
     0
100
AcDbVertex
100
AcDb2dVertex
 10
86.44106307517794
 20
-142.843994104914
 30
0.0
  0
VERTEX
  5
93
330
89
100
AcDbEntity
  8
_U+30EC_U+30A4_U+30E4_U+30FC 1
370
     0
100
AcDbVertex
100
AcDb2dVertex
 10
86.56319171013004
 20
-142.843994104914
 30
0.0
  0
VERTEX
  5
94
330
89
100
AcDbEntity
  8
_U+30EC_U+30A4_U+30E4_U+30FC 1
370
     0
100
AcDbVertex
100
AcDb2dVertex
 10
86.56319171013004
 20
-143.7452310838554
 30
0.0
  0
VERTEX
  5
95
330
89
100
AcDbEntity
  8
_U+30EC_U+30A4_U+30E4_U+30FC 1
370
     0
100
AcDbVertex
100
AcDb2dVertex
 10
87.10183238924886
 20
-143.229844799262
 30
0.0
  0
SEQEND
  5
96
330
89
100
AcDbEntity
  8
_U+30EC_U+30A4_U+30E4_U+30FC 1
370
     0
  0
HATCH
  5
97
330
71
100
AcDbEntity
  8
_U+30EC_U+30A4_U+30E4_U+30FC 1
 62
   179
420
  2234388
100
AcDbHatch
 10
0.0
 20
0.0
 30
0.0
210
0.0
220
0.0
230
1.0
  2
SOLID
 70
     1
 71
     0
 91
        1
 92
        1
 93
       11
 72
     1
 10
87.10183238924886
 20
-143.229844799262
 11
87.27822127809364
 21
-143.229844799262
 72
     1
 10
87.27822127809364
 20
-143.229844799262
 11
86.70082327476577
 21
-143.760734013539
 72
     1
 10
86.70082327476577
 20
-143.760734013539
 11
87.33833819431125
 21
-144.3712049335253
 72
     1
 10
87.33833819431125
 20
-144.3712049335253
 11
87.16005450294958
 21
-144.3712049335253
 72
     1
 10
87.16005450294958
 20
-144.3712049335253
 11
86.56319171013004
 21
-143.7762369432226
 72
     1
 10
86.56319171013004
 20
-143.7762369432226
 11
86.56319171013004
 21
-144.3712049335253
 72
     1
 10
86.56319171013004
 20
-144.3712049335253
 11
86.44106307517794
 21
-144.3712049335253
 72
     1
 10
86.44106307517794
 20
-144.3712049335253
 11
86.44106307517794
 21
-142.843994104914
 72
     1
 10
86.44106307517794
 20
-142.843994104914
 11
86.56319171013004
 21
-142.843994104914
 72
     1
 10
86.56319171013004
 20
-142.843994104914
 11
86.56319171013004
 21
-143.7452310838554
 72
     1
 10
86.56319171013004
 20
-143.7452310838554
 11
87.10183238924886
 21
-143.229844799262
 97
        0
 75
     2
 76
     1
 98
        0
  0
SPLINE
  5
98
330
71
100
AcDbEntity
  8
_U+30EC_U+30A4_U+30E4_U+30FC 1
370
     0
100
AcDbSpline
210
0.0
220
0.0
230
1.0
 70
    11
 71
     3
 72
    59
 73
    55
 74
     0
 42
0.0000000001
 43
0.0000000001
 12
1.0
 22
0.0
 32
0.0
 13
1.0
 23
0.0
 33
0.0
 40
0.0
 40
0.0
 40
0.0
 40
0.0
 40
1.0
 40
1.0
 40
1.0
 40
2.0
 40
2.0
 40
2.0
 40
3.0
 40
3.0
 40
3.0
 40
4.0
 40
4.0
 40
4.0
 40
5.0
 40
5.0
 40
5.0
 40
6.0
 40
6.0
 40
6.0
 40
7.0
 40
7.0
 40
7.0
 40
8.0
 40
8.0
 40
8.0
 40
9.0
 40
9.0
 40
9.0
 40
10.0
 40
10.0
 40
10.0
 40
11.0
 40
11.0
 40
11.0
 40
12.0
 40
12.0
 40
12.0
 40
13.0
 40
13.0
 40
13.0
 40
14.0
 40
14.0
 40
14.0
 40
15.0
 40
15.0
 40
15.0
 40
16.0
 40
16.0
 40
16.0
 40
17.0
 40
17.0
 40
17.0
 40
18.0
 40
18.0
 40
18.0
 40
18.0
 10
88.6262871414719
 20
-143.2977131803214
 30
0.0
 10
88.51587183116965
 20
-143.3035698426463
 30
0.0
 10
88.48865557683618
 20
-143.3149386577477
 30
0.0
 10
88.45575491495204
 20
-143.3769503764822
 30
0.0
 10
88.47900930947748
 20
-143.4158799554655
 30
0.0
 10
88.50036890148603
 20
-143.4468858148327
 30
0.0
 10
88.50036890148603
 20
-143.5419704502256
 30
0.0
 10
88.50036890148603
 20
-143.8596082539657
 30
0.0
 10
88.2580064340987
 20
-143.8885470560417
 30
0.0
 10
88.04492727833599
 20
-143.8885470560417
 30
0.0
 10
87.87439505181612
 20
-143.8885470560417
 30
0.0
 10
87.76397974151386
 20
-143.8692545213244
 30
0.0
 10
87.69611136045445
 20
-143.8189561272397
 30
0.0
 10
87.63409964171996
 20
-143.8537515916407
 30
0.0
 10
87.61084524719452
 20
-143.8830349032654
 30
0.0
 10
87.61084524719452
 20
-143.9274766350251
 30
0.0
 10
87.61084524719452
 20
-144.0012016784094
 30
0.0
 10
87.67681882573704
 20
-144.0242838181606
 30
0.0
 10
87.73486868466351
 20
-144.0280734231944
 30
0.0
 10
87.73486868466351
 20
-144.0280734231944
 30
0.0
 10
88.24646536422311
 20
-144.0590792825616
 30
0.0
 10
88.24646536422311
 20
-144.0590792825616
 30
0.0
 10
88.4829711692855
 20
-144.0728596645026
 30
0.0
 10
88.57977835242103
 20
-144.1658772426044
 30
0.0
 10
88.57977835242103
 20
-144.3305528067993
 30
0.0
 10
88.57977835242103
 20
-144.5803222294799
 30
0.0
 10
88.3704888016921
 20
-144.6309651331131
 30
0.0
 10
88.04096541852796
 20
-144.6309651331131
 30
0.0
 10
87.69025469812952
 20
-144.6309651331131
 30
0.0
 10
87.48285994991748
 20
-144.5765326244461
 30
0.0
 10
87.48285994991748
 20
-144.3481227937741
 30
0.0
 10
87.48285994991748
 20
-144.1948160446805
 30
0.0
 10
87.58173419034415
 20
-144.140728045562
 30
0.0
 10
87.61859671203632
 20
-144.1210910012961
 30
0.0
 10
87.51972247160965
 20
-144.09215219922
 30
0.0
 10
87.49646807708422
 20
-144.0029242261521
 30
0.0
 10
87.49646807708422
 20
-143.9488362270336
 30
0.0
 10
87.49646807708422
 20
-143.8558186489319
 30
0.0
 10
87.54693872594314
 20
-143.7800265482564
 30
0.0
 10
87.64374590907865
 20
-143.7686577331551
 30
0.0
 10
87.58380124763531
 20
-143.6987222948045
 30
0.0
 10
87.57398272550235
 20
-143.6136284363188
 30
0.0
 10
87.57398272550235
 20
-143.547482603002
 30
0.0
 10
87.57398272550235
 20
-143.2918565179965
 30
0.0
 10
87.75037161434713
 20
-143.2143418695784
 30
0.0
 10
88.02942434865237
 20
-143.2143418695784
 30
0.0
 10
88.14380151876267
 20
-143.2143418695784
 30
0.0
 10
88.30847708295761
 20
-143.2239881369371
 30
0.0
 10
88.38788653389261
 20
-143.3015027853552
 30
0.0
 10
88.40924612590116
 20
-143.2570610535955
 30
0.0
 10
88.4421467877853
 20
-143.1871256152449
 30
0.0
 10
88.6262871414719
 20
-143.18126895292
 30
0.0
 10
88.6262871414719
 20
-143.18126895292
 30
0.0
 10
88.6262871414719
 20
-143.2977131803214
 30
0.0
 10
88.6262871414719
 20
-143.2977131803214
 30
0.0
  0
SPLINE
  5
99
330
71
100
AcDbEntity
  8
_U+30EC_U+30A4_U+30E4_U+30FC 1
370
     0
100
AcDbSpline
210
0.0
220
0.0
230
1.0
 70
    11
 71
     3
 72
    20
 73
    16
 74
     0
 42
0.0000000001
 43
0.0000000001
 12
1.0
 22
0.0
 32
0.0
 13
1.0
 23
0.0
 33
0.0
 40
0.0
 40
0.0
 40
0.0
 40
0.0
 40
1.0
 40
1.0
 40
1.0
 40
2.0
 40
2.0
 40
2.0
 40
3.0
 40
3.0
 40
3.0
 40
4.0
 40
4.0
 40
4.0
 40
5.0
 40
5.0
 40
5.0
 40
5.0
 10
87.7794826711975
 20
-144.140728045562
 30
0.0
 10
87.77362600887257
 20
-144.140728045562
 30
0.0
 10
87.59723712002778
 20
-144.1579535229883
 30
0.0
 10
87.59723712002778
 20
-144.3267632017655
 30
0.0
 10
87.59723712002778
 20
-144.464222511627
 30
0.0
 10
87.66700030360408
 20
-144.5183105107454
 30
0.0
 10
88.04096541852796
 20
-144.5183105107454
 30
0.0
 10
88.37634546401704
 20
-144.5183105107454
 30
0.0
 10
88.45764971746893
 20
-144.4545762442683
 30
0.0
 10
88.45764971746893
 20
-144.3343424118331
 30
0.0
 10
88.45764971746893
 20
-144.1968831019716
 30
0.0
 10
88.34912920968355
 20
-144.1755235099631
 30
0.0
 10
88.14948592631333
 20
-144.1638101853132
 30
0.0
 10
88.14948592631333
 20
-144.1638101853132
 30
0.0
 10
87.7794826711975
 20
-144.140728045562
 30
0.0
 10
87.7794826711975
 20
-144.140728045562
 30
0.0
  0
SPLINE
  5
9A
330
71
100
AcDbEntity
  8
_U+30EC_U+30A4_U+30E4_U+30FC 1
370
     0
100
AcDbSpline
210
0.0
220
0.0
230
1.0
 70
    11
 71
     3
 72
    17
 73
    13
 74
     0
 42
0.0000000001
 43
0.0000000001
 12
1.0
 22
0.0
 32
0.0
 13
1.0
 23
0.0
 33
0.0
 40
0.0
 40
0.0
 40
0.0
 40
0.0
 40
1.0
 40
1.0
 40
1.0
 40
2.0
 40
2.0
 40
2.0
 40
3.0
 40
3.0
 40
3.0
 40
4.0
 40
4.0
 40
4.0
 40
4.0
 10
87.69611136045445
 20
-143.5629855326856
 30
0.0
 10
87.69611136045445
 20
-143.7355848164967
 30
0.0
 10
87.80652667075671
 20
-143.7762369432226
 30
0.0
 10
88.04096541852796
 20
-143.7762369432226
 30
0.0
 10
88.2814330833984
 20
-143.7762369432226
 30
0.0
 10
88.38013506905081
 20
-143.7280056064291
 30
0.0
 10
88.38013506905081
 20
-143.5399033929345
 30
0.0
 10
88.38013506905081
 20
-143.4255262228242
 30
0.0
 10
88.33173147748305
 20
-143.3249294346549
 30
0.0
 10
88.0352810109773
 20
-143.3249294346549
 30
0.0
 10
87.80273706572294
 20
-143.3249294346549
 30
0.0
 10
87.69611136045445
 20
-143.3655815613808
 30
0.0
 10
87.69611136045445
 20
-143.5629855326856
 30
0.0
  0
HATCH
  5
9B
330
71
100
AcDbEntity
  8
_U+30EC_U+30A4_U+30E4_U+30FC 1
 62
   179
420
  2234388
100
AcDbHatch
 10
0.0
 20
0.0
 30
0.0
210
0.0
220
0.0
230
1.0
  2
SOLID
 70
     1
 71
     0
 91
        3
 92
        1
 93
        1
 72
     4
 94
        3
 73
     0
 74
     1
 95
       59
 96
       55
 40
0.0
 40
0.0
 40
0.0
 40
0.0
 40
1.0
 40
1.0
 40
1.0
 40
2.0
 40
2.0
 40
2.0
 40
3.0
 40
3.0
 40
3.0
 40
4.0
 40
4.0
 40
4.0
 40
5.0
 40
5.0
 40
5.0
 40
6.0
 40
6.0
 40
6.0
 40
7.0
 40
7.0
 40
7.0
 40
8.0
 40
8.0
 40
8.0
 40
9.0
 40
9.0
 40
9.0
 40
10.0
 40
10.0
 40
10.0
 40
11.0
 40
11.0
 40
11.0
 40
12.0
 40
12.0
 40
12.0
 40
13.0
 40
13.0
 40
13.0
 40
14.0
 40
14.0
 40
14.0
 40
15.0
 40
15.0
 40
15.0
 40
16.0
 40
16.0
 40
16.0
 40
17.0
 40
17.0
 40
17.0
 40
18.0
 40
18.0
 40
18.0
 40
18.0
 10
88.6262871414719
 20
-143.2977131803214
 10
88.51587183116965
 20
-143.3035698426463
 10
88.48865557683618
 20
-143.3149386577477
 10
88.45575491495204
 20
-143.3769503764822
 10
88.47900930947748
 20
-143.4158799554655
 10
88.50036890148603
 20
-143.4468858148327
 10
88.50036890148603
 20
-143.5419704502256
 10
88.50036890148603
 20
-143.8596082539657
 10
88.2580064340987
 20
-143.8885470560417
 10
88.04492727833599
 20
-143.8885470560417
 10
87.87439505181612
 20
-143.8885470560417
 10
87.76397974151386
 20
-143.8692545213244
 10
87.69611136045445
 20
-143.8189561272397
 10
87.63409964171996
 20
-143.8537515916407
 10
87.61084524719452
 20
-143.8830349032654
 10
87.61084524719452
 20
-143.9274766350251
 10
87.61084524719452
 20
-144.0012016784094
 10
87.67681882573704
 20
-144.0242838181606
 10
87.73486868466351
 20
-144.0280734231944
 10
87.73486868466351
 20
-144.0280734231944
 10
88.24646536422311
 20
-144.0590792825616
 10
88.24646536422311
 20
-144.0590792825616
 10
88.4829711692855
 20
-144.0728596645026
 10
88.57977835242103
 20
-144.1658772426044
 10
88.57977835242103
 20
-144.3305528067993
 10
88.57977835242103
 20
-144.5803222294799
 10
88.3704888016921
 20
-144.6309651331131
 10
88.04096541852796
 20
-144.6309651331131
 10
87.69025469812952
 20
-144.6309651331131
 10
87.48285994991748
 20
-144.5765326244461
 10
87.48285994991748
 20
-144.3481227937741
 10
87.48285994991748
 20
-144.1948160446805
 10
87.58173419034415
 20
-144.140728045562
 10
87.61859671203632
 20
-144.1210910012961
 10
87.51972247160965
 20
-144.09215219922
 10
87.49646807708422
 20
-144.0029242261521
 10
87.49646807708422
 20
-143.9488362270336
 10
87.49646807708422
 20
-143.8558186489319
 10
87.54693872594314
 20
-143.7800265482564
 10
87.64374590907865
 20
-143.7686577331551
 10
87.58380124763531
 20
-143.6987222948045
 10
87.57398272550235
 20
-143.6136284363188
 10
87.57398272550235
 20
-143.547482603002
 10
87.57398272550235
 20
-143.2918565179965
 10
87.75037161434713
 20
-143.2143418695784
 10
88.02942434865237
 20
-143.2143418695784
 10
88.14380151876267
 20
-143.2143418695784
 10
88.30847708295761
 20
-143.2239881369371
 10
88.38788653389261
 20
-143.3015027853552
 10
88.40924612590116
 20
-143.2570610535955
 10
88.4421467877853
 20
-143.1871256152449
 10
88.6262871414719
 20
-143.18126895292
 10
88.6262871414719
 20
-143.18126895292
 10
88.6262871414719
 20
-143.2977131803214
 10
88.6262871414719
 20
-143.2977131803214
 97
        0
 97
        0
 92
        1
 93
        1
 72
     4
 94
        3
 73
     0
 74
     1
 95
       20
 96
       16
 40
0.0
 40
0.0
 40
0.0
 40
0.0
 40
1.0
 40
1.0
 40
1.0
 40
2.0
 40
2.0
 40
2.0
 40
3.0
 40
3.0
 40
3.0
 40
4.0
 40
4.0
 40
4.0
 40
5.0
 40
5.0
 40
5.0
 40
5.0
 10
87.7794826711975
 20
-144.140728045562
 10
87.77362600887257
 20
-144.140728045562
 10
87.59723712002778
 20
-144.1579535229883
 10
87.59723712002778
 20
-144.3267632017655
 10
87.59723712002778
 20
-144.464222511627
 10
87.66700030360408
 20
-144.5183105107454
 10
88.04096541852796
 20
-144.5183105107454
 10
88.37634546401704
 20
-144.5183105107454
 10
88.45764971746893
 20
-144.4545762442683
 10
88.45764971746893
 20
-144.3343424118331
 10
88.45764971746893
 20
-144.1968831019716
 10
88.34912920968355
 20
-144.1755235099631
 10
88.14948592631333
 20
-144.1638101853132
 10
88.14948592631333
 20
-144.1638101853132
 10
87.7794826711975
 20
-144.140728045562
 10
87.7794826711975
 20
-144.140728045562
 97
        0
 97
        0
 92
        1
 93
        1
 72
     4
 94
        3
 73
     0
 74
     1
 95
       17
 96
       13
 40
0.0
 40
0.0
 40
0.0
 40
0.0
 40
1.0
 40
1.0
 40
1.0
 40
2.0
 40
2.0
 40
2.0
 40
3.0
 40
3.0
 40
3.0
 40
4.0
 40
4.0
 40
4.0
 40
4.0
 10
87.69611136045445
 20
-143.5629855326856
 10
87.69611136045445
 20
-143.7355848164967
 10
87.80652667075671
 20
-143.7762369432226
 10
88.04096541852796
 20
-143.7762369432226
 10
88.2814330833984
 20
-143.7762369432226
 10
88.38013506905081
 20
-143.7280056064291
 10
88.38013506905081
 20
-143.5399033929345
 10
88.38013506905081
 20
-143.4255262228242
 10
88.33173147748305
 20
-143.3249294346549
 10
88.0352810109773
 20
-143.3249294346549
 10
87.80273706572294
 20
-143.3249294346549
 10
87.69611136045445
 20
-143.3655815613808
 10
87.69611136045445
 20
-143.5629855326856
 97
        0
 97
        0
 75
     2
 76
     1
 98
        0
  0
ENDBLK
  5
74
330
71
100
AcDbEntity
  8
0
100
AcDbBlockEnd
  0
BLOCK
  5
9E
330
9C
100
AcDbEntity
  8
0
100
AcDbBlockBegin
  2
block 6
 70
     0
 10
0.0
 20
0.0
 30
0.0
  3
block 6
  1

  0
SPLINE
  5
A0
330
9C
100
AcDbEntity
  8
_U+30EC_U+30A4_U+30E4_U+30FC 1
370
     0
100
AcDbSpline
210
0.0
220
0.0
230
1.0
 70
    11
 71
     3
 72
    59
 73
    55
 74
     0
 42
0.0000000001
 43
0.0000000001
 12
1.0
 22
0.0
 32
0.0
 13
1.0
 23
0.0
 33
0.0
 40
0.0
 40
0.0
 40
0.0
 40
0.0
 40
1.0
 40
1.0
 40
1.0
 40
2.0
 40
2.0
 40
2.0
 40
3.0
 40
3.0
 40
3.0
 40
4.0
 40
4.0
 40
4.0
 40
5.0
 40
5.0
 40
5.0
 40
6.0
 40
6.0
 40
6.0
 40
7.0
 40
7.0
 40
7.0
 40
8.0
 40
8.0
 40
8.0
 40
9.0
 40
9.0
 40
9.0
 40
10.0
 40
10.0
 40
10.0
 40
11.0
 40
11.0
 40
11.0
 40
12.0
 40
12.0
 40
12.0
 40
13.0
 40
13.0
 40
13.0
 40
14.0
 40
14.0
 40
14.0
 40
15.0
 40
15.0
 40
15.0
 40
16.0
 40
16.0
 40
16.0
 40
17.0
 40
17.0
 40
17.0
 40
18.0
 40
18.0
 40
18.0
 40
18.0
 10
102.3978840889839
 20
-143.8692545213244
 30
0.0
 10
102.3923719362075
 20
-144.0862955368951
 30
0.0
 10
102.4095974136337
 20
-144.2723306930986
 30
0.0
 10
102.8591823744588
 20
-144.2723306930986
 30
0.0
 10
103.0452175306623
 20
-144.2723306930986
 30
0.0
 10
103.3108343925751
 20
-144.2685410880648
 30
0.0
 10
103.3108343925751
 20
-143.9526258320674
 30
0.0
 10
103.3108343925751
 20
-143.8868245082991
 30
0.0
 10
103.302910672959
 20
-143.7376518737878
 30
0.0
 10
103.1709635158739
 20
-143.6832193651209
 30
0.0
 10
103.1478813761228
 20
-143.6735730977622
 30
0.0
 10
103.0531412502784
 20
-143.6349880283274
 30
0.0
 10
102.9404866279107
 20
-143.6349880283274
 30
0.0
 10
102.9404866279107
 20
-143.6349880283274
 30
0.0
 10
102.7293022746649
 20
-143.6349880283274
 30
0.0
 10
102.7293022746649
 20
-143.6349880283274
 30
0.0
 10
102.7293022746649
 20
-143.6349880283274
 30
0.0
 10
102.7293022746649
 20
-143.5206108582171
 30
0.0
 10
102.7293022746649
 20
-143.5206108582171
 30
0.0
 10
102.7293022746649
 20
-143.5206108582171
 30
0.0
 10
102.9442762329445
 20
-143.5206108582171
 30
0.0
 10
102.9442762329445
 20
-143.5206108582171
 30
0.0
 10
103.054863798021
 20
-143.5206108582171
 30
0.0
 10
103.2949869533429
 20
-143.5206108582171
 30
0.0
 10
103.2949869533429
 20
-143.2394910666207
 30
0.0
 10
103.2949869533429
 20
-143.0010904590414
 30
0.0
 10
103.130311389148
 20
-142.9428683453407
 30
0.0
 10
102.8784749091762
 20
-142.9428683453407
 30
0.0
 10
102.5956325698372
 20
-142.9428683453407
 30
0.0
 10
102.434746610676
 20
-142.9990234017503
 30
0.0
 10
102.4288899483511
 20
-143.2859998556715
 30
0.0
 10
102.4288899483511
 20
-143.2859998556715
 30
0.0
 10
102.2972873008146
 20
-143.2859998556715
 30
0.0
 10
102.2972873008146
 20
-143.2859998556715
 30
0.0
 10
102.316579835532
 20
-142.9022162186147
 30
0.0
 10
102.5474012330437
 20
-142.8288356847789
 30
0.0
 10
102.8746853041424
 20
-142.8288356847789
 30
0.0
 10
103.0124891235524
 20
-142.8288356847789
 30
0.0
 10
103.4231445053942
 20
-142.8288356847789
 30
0.0
 10
103.4231445053942
 20
-143.2336344042958
 30
0.0
 10
103.4231445053942
 20
-143.5164767436348
 30
0.0
 10
103.2488226738406
 20
-143.561262984943
 30
0.0
 10
103.1847438978149
 20
-143.5784884623693
 30
0.0
 10
103.2488226738406
 20
-143.5981255066352
 30
0.0
 10
103.4403699828205
 20
-143.6601372253697
 30
0.0
 10
103.4403699828205
 20
-143.9505587747763
 30
0.0
 10
103.4403699828205
 20
-144.3846408059177
 30
0.0
 10
103.0317816582698
 20
-144.3867078632089
 30
0.0
 10
102.8801974569189
 20
-144.3867078632089
 30
0.0
 10
102.4812553997269
 20
-144.3867078632089
 30
0.0
 10
102.2662814414473
 20
-144.2781873554235
 30
0.0
 10
102.2662814414473
 20
-143.8692545213244
 30
0.0
 10
102.2662814414473
 20
-143.8692545213244
 30
0.0
 10
102.3978840889839
 20
-143.8692545213244
 30
0.0
 10
102.3978840889839
 20
-143.8692545213244
 30
0.0
  0
HATCH
  5
A1
330
9C
100
AcDbEntity
  8
_U+30EC_U+30A4_U+30E4_U+30FC 1
 62
   179
420
  2234388
100
AcDbHatch
 10
0.0
 20
0.0
 30
0.0
210
0.0
220
0.0
230
1.0
  2
SOLID
 70
     1
 71
     0
 91
        1
 92
        1
 93
        1
 72
     4
 94
        3
 73
     0
 74
     1
 95
       59
 96
       55
 40
0.0
 40
0.0
 40
0.0
 40
0.0
 40
1.0
 40
1.0
 40
1.0
 40
2.0
 40
2.0
 40
2.0
 40
3.0
 40
3.0
 40
3.0
 40
4.0
 40
4.0
 40
4.0
 40
5.0
 40
5.0
 40
5.0
 40
6.0
 40
6.0
 40
6.0
 40
7.0
 40
7.0
 40
7.0
 40
8.0
 40
8.0
 40
8.0
 40
9.0
 40
9.0
 40
9.0
 40
10.0
 40
10.0
 40
10.0
 40
11.0
 40
11.0
 40
11.0
 40
12.0
 40
12.0
 40
12.0
 40
13.0
 40
13.0
 40
13.0
 40
14.0
 40
14.0
 40
14.0
 40
15.0
 40
15.0
 40
15.0
 40
16.0
 40
16.0
 40
16.0
 40
17.0
 40
17.0
 40
17.0
 40
18.0
 40
18.0
 40
18.0
 40
18.0
 10
102.3978840889839
 20
-143.8692545213244
 10
102.3923719362075
 20
-144.0862955368951
 10
102.4095974136337
 20
-144.2723306930986
 10
102.8591823744588
 20
-144.2723306930986
 10
103.0452175306623
 20
-144.2723306930986
 10
103.3108343925751
 20
-144.2685410880648
 10
103.3108343925751
 20
-143.9526258320674
 10
103.3108343925751
 20
-143.8868245082991
 10
103.302910672959
 20
-143.7376518737878
 10
103.1709635158739
 20
-143.6832193651209
 10
103.1478813761228
 20
-143.6735730977622
 10
103.0531412502784
 20
-143.6349880283274
 10
102.9404866279107
 20
-143.6349880283274
 10
102.9404866279107
 20
-143.6349880283274
 10
102.7293022746649
 20
-143.6349880283274
 10
102.7293022746649
 20
-143.6349880283274
 10
102.7293022746649
 20
-143.6349880283274
 10
102.7293022746649
 20
-143.5206108582171
 10
102.7293022746649
 20
-143.5206108582171
 10
102.7293022746649
 20
-143.5206108582171
 10
102.9442762329445
 20
-143.5206108582171
 10
102.9442762329445
 20
-143.5206108582171
 10
103.054863798021
 20
-143.5206108582171
 10
103.2949869533429
 20
-143.5206108582171
 10
103.2949869533429
 20
-143.2394910666207
 10
103.2949869533429
 20
-143.0010904590414
 10
103.130311389148
 20
-142.9428683453407
 10
102.8784749091762
 20
-142.9428683453407
 10
102.5956325698372
 20
-142.9428683453407
 10
102.434746610676
 20
-142.9990234017503
 10
102.4288899483511
 20
-143.2859998556715
 10
102.4288899483511
 20
-143.2859998556715
 10
102.2972873008146
 20
-143.2859998556715
 10
102.2972873008146
 20
-143.2859998556715
 10
102.316579835532
 20
-142.9022162186147
 10
102.5474012330437
 20
-142.8288356847789
 10
102.8746853041424
 20
-142.8288356847789
 10
103.0124891235524
 20
-142.8288356847789
 10
103.4231445053942
 20
-142.8288356847789
 10
103.4231445053942
 20
-143.2336344042958
 10
103.4231445053942
 20
-143.5164767436348
 10
103.2488226738406
 20
-143.561262984943
 10
103.1847438978149
 20
-143.5784884623693
 10
103.2488226738406
 20
-143.5981255066352
 10
103.4403699828205
 20
-143.6601372253697
 10
103.4403699828205
 20
-143.9505587747763
 10
103.4403699828205
 20
-144.3846408059177
 10
103.0317816582698
 20
-144.3867078632089
 10
102.8801974569189
 20
-144.3867078632089
 10
102.4812553997269
 20
-144.3867078632089
 10
102.2662814414473
 20
-144.2781873554235
 10
102.2662814414473
 20
-143.8692545213244
 10
102.2662814414473
 20
-143.8692545213244
 10
102.3978840889839
 20
-143.8692545213244
 10
102.3978840889839
 20
-143.8692545213244
 97
        0
 97
        0
 75
     2
 76
     1
 98
        0
  0
POLYLINE
  5
A2
330
9C
100
AcDbEntity
  8
_U+30EC_U+30A4_U+30E4_U+30FC 1
370
     0
100
AcDb2dPolyline
 66
     1
 10
0.0
 20
0.0
 30
0.0
  0
VERTEX
  5
A3
330
A2
100
AcDbEntity
  8
_U+30EC_U+30A4_U+30E4_U+30FC 1
370
     0
100
AcDbVertex
100
AcDb2dVertex
 10
104.399484565914
 20
-143.229844799262
 30
0.0
  0
VERTEX
  5
A4
330
A2
100
AcDbEntity
  8
_U+30EC_U+30A4_U+30E4_U+30FC 1
370
     0
100
AcDbVertex
100
AcDb2dVertex
 10
104.5758734547588
 20
-143.229844799262
 30
0.0
  0
VERTEX
  5
A5
330
A2
100
AcDbEntity
  8
_U+30EC_U+30A4_U+30E4_U+30FC 1
370
     0
100
AcDbVertex
100
AcDb2dVertex
 10
103.9984754514309
 20
-143.760734013539
 30
0.0
  0
VERTEX
  5
A6
330
A2
100
AcDbEntity
  8
_U+30EC_U+30A4_U+30E4_U+30FC 1
370
     0
100
AcDbVertex
100
AcDb2dVertex
 10
104.6358181162022
 20
-144.3712049335253
 30
0.0
  0
VERTEX
  5
A7
330
A2
100
AcDbEntity
  8
_U+30EC_U+30A4_U+30E4_U+30FC 1
370
     0
100
AcDbVertex
100
AcDb2dVertex
 10
104.4577066796147
 20
-144.3712049335253
 30
0.0
  0
VERTEX
  5
A8
330
A2
100
AcDbEntity
  8
_U+30EC_U+30A4_U+30E4_U+30FC 1
370
     0
100
AcDbVertex
100
AcDb2dVertex
 10
103.860671632021
 20
-143.7762369432226
 30
0.0
  0
VERTEX
  5
A9
330
A2
100
AcDbEntity
  8
_U+30EC_U+30A4_U+30E4_U+30FC 1
370
     0
100
AcDbVertex
100
AcDb2dVertex
 10
103.860671632021
 20
-144.3712049335253
 30
0.0
  0
VERTEX
  5
AA
330
A2
100
AcDbEntity
  8
_U+30EC_U+30A4_U+30E4_U+30FC 1
370
     0
100
AcDbVertex
100
AcDb2dVertex
 10
103.7387152518431
 20
-144.3712049335253
 30
0.0
  0
VERTEX
  5
AB
330
A2
100
AcDbEntity
  8
_U+30EC_U+30A4_U+30E4_U+30FC 1
370
     0
100
AcDbVertex
100
AcDb2dVertex
 10
103.7387152518431
 20
-142.843994104914
 30
0.0
  0
VERTEX
  5
AC
330
A2
100
AcDbEntity
  8
_U+30EC_U+30A4_U+30E4_U+30FC 1
370
     0
100
AcDbVertex
100
AcDb2dVertex
 10
103.860671632021
 20
-142.843994104914
 30
0.0
  0
VERTEX
  5
AD
330
A2
100
AcDbEntity
  8
_U+30EC_U+30A4_U+30E4_U+30FC 1
370
     0
100
AcDbVertex
100
AcDb2dVertex
 10
103.860671632021
 20
-143.7452310838554
 30
0.0
  0
VERTEX
  5
AE
330
A2
100
AcDbEntity
  8
_U+30EC_U+30A4_U+30E4_U+30FC 1
370
     0
100
AcDbVertex
100
AcDb2dVertex
 10
104.399484565914
 20
-143.229844799262
 30
0.0
  0
SEQEND
  5
AF
330
A2
100
AcDbEntity
  8
_U+30EC_U+30A4_U+30E4_U+30FC 1
370
     0
  0
HATCH
  5
B0
330
9C
100
AcDbEntity
  8
_U+30EC_U+30A4_U+30E4_U+30FC 1
 62
   179
420
  2234388
100
AcDbHatch
 10
0.0
 20
0.0
 30
0.0
210
0.0
220
0.0
230
1.0
  2
SOLID
 70
     1
 71
     0
 91
        1
 92
        1
 93
       11
 72
     1
 10
104.399484565914
 20
-143.229844799262
 11
104.5758734547588
 21
-143.229844799262
 72
     1
 10
104.5758734547588
 20
-143.229844799262
 11
103.9984754514309
 21
-143.760734013539
 72
     1
 10
103.9984754514309
 20
-143.760734013539
 11
104.6358181162022
 21
-144.3712049335253
 72
     1
 10
104.6358181162022
 20
-144.3712049335253
 11
104.4577066796147
 21
-144.3712049335253
 72
     1
 10
104.4577066796147
 20
-144.3712049335253
 11
103.860671632021
 21
-143.7762369432226
 72
     1
 10
103.860671632021
 20
-143.7762369432226
 11
103.860671632021
 21
-144.3712049335253
 72
     1
 10
103.860671632021
 20
-144.3712049335253
 11
103.7387152518431
 21
-144.3712049335253
 72
     1
 10
103.7387152518431
 20
-144.3712049335253
 11
103.7387152518431
 21
-142.843994104914
 72
     1
 10
103.7387152518431
 20
-142.843994104914
 11
103.860671632021
 21
-142.843994104914
 72
     1
 10
103.860671632021
 20
-142.843994104914
 11
103.860671632021
 21
-143.7452310838554
 72
     1
 10
103.860671632021
 20
-143.7452310838554
 11
104.399484565914
 21
-143.229844799262
 97
        0
 75
     2
 76
     1
 98
        0
  0
SPLINE
  5
B1
330
9C
100
AcDbEntity
  8
_U+30EC_U+30A4_U+30E4_U+30FC 1
370
     0
100
AcDbSpline
210
0.0
220
0.0
230
1.0
 70
    11
 71
     3
 72
    59
 73
    55
 74
     0
 42
0.0000000001
 43
0.0000000001
 12
1.0
 22
0.0
 32
0.0
 13
1.0
 23
0.0
 33
0.0
 40
0.0
 40
0.0
 40
0.0
 40
0.0
 40
1.0
 40
1.0
 40
1.0
 40
2.0
 40
2.0
 40
2.0
 40
3.0
 40
3.0
 40
3.0
 40
4.0
 40
4.0
 40
4.0
 40
5.0
 40
5.0
 40
5.0
 40
6.0
 40
6.0
 40
6.0
 40
7.0
 40
7.0
 40
7.0
 40
8.0
 40
8.0
 40
8.0
 40
9.0
 40
9.0
 40
9.0
 40
10.0
 40
10.0
 40
10.0
 40
11.0
 40
11.0
 40
11.0
 40
12.0
 40
12.0
 40
12.0
 40
13.0
 40
13.0
 40
13.0
 40
14.0
 40
14.0
 40
14.0
 40
15.0
 40
15.0
 40
15.0
 40
16.0
 40
16.0
 40
16.0
 40
17.0
 40
17.0
 40
17.0
 40
18.0
 40
18.0
 40
18.0
 40
18.0
 10
105.9242838276856
 20
-143.2977131803214
 30
0.0
 10
105.8136962626091
 20
-143.3035698426463
 30
0.0
 10
105.7864800082756
 20
-143.3149386577477
 30
0.0
 10
105.7534070916172
 20
-143.3769503764822
 30
0.0
 10
105.7768337409169
 20
-143.4158799554655
 30
0.0
 10
105.7981933329255
 20
-143.4468858148327
 30
0.0
 10
105.7981933329255
 20
-143.5419704502256
 30
0.0
 10
105.7981933329255
 20
-143.8596082539657
 30
0.0
 10
105.5556586107639
 20
-143.8885470560417
 30
0.0
 10
105.3427517097754
 20
-143.8885470560417
 30
0.0
 10
105.1722194832556
 20
-143.8885470560417
 30
0.0
 10
105.061631918179
 20
-143.8692545213244
 30
0.0
 10
104.9941080466681
 20
-143.8189561272397
 30
0.0
 10
104.9320963279336
 20
-143.8537515916407
 30
0.0
 10
104.9086696786339
 20
-143.8830349032654
 30
0.0
 10
104.9086696786339
 20
-143.9274766350251
 30
0.0
 10
104.9086696786339
 20
-144.0012016784094
 30
0.0
 10
104.9748155119508
 20
-144.0242838181606
 30
0.0
 10
105.0326931161029
 20
-144.0280734231944
 30
0.0
 10
105.0326931161029
 20
-144.0280734231944
 30
0.0
 10
105.5442897956626
 20
-144.0590792825616
 30
0.0
 10
105.5442897956626
 20
-144.0590792825616
 30
0.0
 10
105.7809678554992
 20
-144.0728596645026
 30
0.0
 10
105.8774305290862
 20
-144.1658772426044
 30
0.0
 10
105.8774305290862
 20
-144.3305528067993
 30
0.0
 10
105.8774305290862
 20
-144.5803222294799
 30
0.0
 10
105.6683132331315
 20
-144.6309651331131
 30
0.0
 10
105.3386175951931
 20
-144.6309651331131
 30
0.0
 10
104.9879068747947
 20
-144.6309651331131
 30
0.0
 10
104.7805121265827
 20
-144.5765326244461
 30
0.0
 10
104.7805121265827
 20
-144.3481227937741
 30
0.0
 10
104.7805121265827
 20
-144.1948160446805
 30
0.0
 10
104.8797308765578
 20
-144.140728045562
 30
0.0
 10
104.9162488887015
 20
-144.1210910012961
 30
0.0
 10
104.8177191578233
 20
-144.09215219922
 30
0.0
 10
104.7942925085237
 20
-144.0029242261521
 30
0.0
 10
104.7942925085237
 20
-143.9488362270336
 30
0.0
 10
104.7942925085237
 20
-143.8558186489319
 30
0.0
 10
104.8445909026083
 20
-143.7800265482564
 30
0.0
 10
104.9417425952924
 20
-143.7686577331551
 30
0.0
 10
104.881797933849
 20
-143.6987222948045
 30
0.0
 10
104.8718071569418
 20
-143.6136284363188
 30
0.0
 10
104.8718071569418
 20
-143.547482603002
 30
0.0
 10
104.8718071569418
 20
-143.2918565179965
 30
0.0
 10
105.0481960457866
 20
-143.2143418695784
 30
0.0
 10
105.3272487800918
 20
-143.2143418695784
 30
0.0
 10
105.4416259502021
 20
-143.2143418695784
 30
0.0
 10
105.606301514397
 20
-143.2239881369371
 30
0.0
 10
105.6858832201063
 20
-143.3015027853552
 30
0.0
 10
105.7072428121149
 20
-143.2570610535955
 30
0.0
 10
105.7399712192247
 20
-143.1871256152449
 30
0.0
 10
105.9242838276856
 20
-143.18126895292
 30
0.0
 10
105.9242838276856
 20
-143.18126895292
 30
0.0
 10
105.9242838276856
 20
-143.2977131803214
 30
0.0
 10
105.9242838276856
 20
-143.2977131803214
 30
0.0
  0
SPLINE
  5
B2
330
9C
100
AcDbEntity
  8
_U+30EC_U+30A4_U+30E4_U+30FC 1
370
     0
100
AcDbSpline
210
0.0
220
0.0
230
1.0
 70
    11
 71
     3
 72
    20
 73
    16
 74
     0
 42
0.0000000001
 43
0.0000000001
 12
1.0
 22
0.0
 32
0.0
 13
1.0
 23
0.0
 33
0.0
 40
0.0
 40
0.0
 40
0.0
 40
0.0
 40
1.0
 40
1.0
 40
1.0
 40
2.0
 40
2.0
 40
2.0
 40
3.0
 40
3.0
 40
3.0
 40
4.0
 40
4.0
 40
4.0
 40
5.0
 40
5.0
 40
5.0
 40
5.0
 10
105.0774793574112
 20
-144.140728045562
 30
0.0
 10
105.0712781855377
 20
-144.140728045562
 30
0.0
 10
104.894889296693
 20
-144.1579535229883
 30
0.0
 10
104.894889296693
 20
-144.3267632017655
 30
0.0
 10
104.894889296693
 20
-144.464222511627
 30
0.0
 10
104.9648247350435
 20
-144.5183105107454
 30
0.0
 10
105.3386175951931
 20
-144.5183105107454
 30
0.0
 10
105.6741698954565
 20
-144.5183105107454
 30
0.0
 10
105.7554741489084
 20
-144.4545762442683
 30
0.0
 10
105.7554741489084
 20
-144.3343424118331
 30
0.0
 10
105.7554741489084
 20
-144.1968831019716
 30
0.0
 10
105.646953641123
 20
-144.1755235099631
 30
0.0
 10
105.447482612527
 20
-144.1638101853132
 30
0.0
 10
105.447482612527
 20
-144.1638101853132
 30
0.0
 10
105.0774793574112
 20
-144.140728045562
 30
0.0
 10
105.0774793574112
 20
-144.140728045562
 30
0.0
  0
SPLINE
  5
B3
330
9C
100
AcDbEntity
  8
_U+30EC_U+30A4_U+30E4_U+30FC 1
370
     0
100
AcDbSpline
210
0.0
220
0.0
230
1.0
 70
    11
 71
     3
 72
    17
 73
    13
 74
     0
 42
0.0000000001
 43
0.0000000001
 12
1.0
 22
0.0
 32
0.0
 13
1.0
 23
0.0
 33
0.0
 40
0.0
 40
0.0
 40
0.0
 40
0.0
 40
1.0
 40
1.0
 40
1.0
 40
2.0
 40
2.0
 40
2.0
 40
3.0
 40
3.0
 40
3.0
 40
4.0
 40
4.0
 40
4.0
 40
4.0
 10
104.9941080466681
 20
-143.5629855326856
 30
0.0
 10
104.9941080466681
 20
-143.7355848164967
 30
0.0
 10
105.1043511021961
 20
-143.7762369432226
 30
0.0
 10
105.3386175951931
 20
-143.7762369432226
 30
0.0
 10
105.5790852600636
 20
-143.7762369432226
 30
0.0
 10
105.6779595004902
 20
-143.7280056064291
 30
0.0
 10
105.6779595004902
 20
-143.5399033929345
 30
0.0
 10
105.6779595004902
 20
-143.4255262228242
 30
0.0
 10
105.6293836541482
 20
-143.3249294346549
 30
0.0
 10
105.3331054424167
 20
-143.3249294346549
 30
0.0
 10
105.1005614971624
 20
-143.3249294346549
 30
0.0
 10
104.9941080466681
 20
-143.3655815613808
 30
0.0
 10
104.9941080466681
 20
-143.5629855326856
 30
0.0
  0
HATCH
  5
B4
330
9C
100
AcDbEntity
  8
_U+30EC_U+30A4_U+30E4_U+30FC 1
 62
   179
420
  2234388
100
AcDbHatch
 10
0.0
 20
0.0
 30
0.0
210
0.0
220
0.0
230
1.0
  2
SOLID
 70
     1
 71
     0
 91
        3
 92
        1
 93
        1
 72
     4
 94
        3
 73
     0
 74
     1
 95
       59
 96
       55
 40
0.0
 40
0.0
 40
0.0
 40
0.0
 40
1.0
 40
1.0
 40
1.0
 40
2.0
 40
2.0
 40
2.0
 40
3.0
 40
3.0
 40
3.0
 40
4.0
 40
4.0
 40
4.0
 40
5.0
 40
5.0
 40
5.0
 40
6.0
 40
6.0
 40
6.0
 40
7.0
 40
7.0
 40
7.0
 40
8.0
 40
8.0
 40
8.0
 40
9.0
 40
9.0
 40
9.0
 40
10.0
 40
10.0
 40
10.0
 40
11.0
 40
11.0
 40
11.0
 40
12.0
 40
12.0
 40
12.0
 40
13.0
 40
13.0
 40
13.0
 40
14.0
 40
14.0
 40
14.0
 40
15.0
 40
15.0
 40
15.0
 40
16.0
 40
16.0
 40
16.0
 40
17.0
 40
17.0
 40
17.0
 40
18.0
 40
18.0
 40
18.0
 40
18.0
 10
105.9242838276856
 20
-143.2977131803214
 10
105.8136962626091
 20
-143.3035698426463
 10
105.7864800082756
 20
-143.3149386577477
 10
105.7534070916172
 20
-143.3769503764822
 10
105.7768337409169
 20
-143.4158799554655
 10
105.7981933329255
 20
-143.4468858148327
 10
105.7981933329255
 20
-143.5419704502256
 10
105.7981933329255
 20
-143.8596082539657
 10
105.5556586107639
 20
-143.8885470560417
 10
105.3427517097754
 20
-143.8885470560417
 10
105.1722194832556
 20
-143.8885470560417
 10
105.061631918179
 20
-143.8692545213244
 10
104.9941080466681
 20
-143.8189561272397
 10
104.9320963279336
 20
-143.8537515916407
 10
104.9086696786339
 20
-143.8830349032654
 10
104.9086696786339
 20
-143.9274766350251
 10
104.9086696786339
 20
-144.0012016784094
 10
104.9748155119508
 20
-144.0242838181606
 10
105.0326931161029
 20
-144.0280734231944
 10
105.0326931161029
 20
-144.0280734231944
 10
105.5442897956626
 20
-144.0590792825616
 10
105.5442897956626
 20
-144.0590792825616
 10
105.7809678554992
 20
-144.0728596645026
 10
105.8774305290862
 20
-144.1658772426044
 10
105.8774305290862
 20
-144.3305528067993
 10
105.8774305290862
 20
-144.5803222294799
 10
105.6683132331315
 20
-144.6309651331131
 10
105.3386175951931
 20
-144.6309651331131
 10
104.9879068747947
 20
-144.6309651331131
 10
104.7805121265827
 20
-144.5765326244461
 10
104.7805121265827
 20
-144.3481227937741
 10
104.7805121265827
 20
-144.1948160446805
 10
104.8797308765578
 20
-144.140728045562
 10
104.9162488887015
 20
-144.1210910012961
 10
104.8177191578233
 20
-144.09215219922
 10
104.7942925085237
 20
-144.0029242261521
 10
104.7942925085237
 20
-143.9488362270336
 10
104.7942925085237
 20
-143.8558186489319
 10
104.8445909026083
 20
-143.7800265482564
 10
104.9417425952924
 20
-143.7686577331551
 10
104.881797933849
 20
-143.6987222948045
 10
104.8718071569418
 20
-143.6136284363188
 10
104.8718071569418
 20
-143.547482603002
 10
104.8718071569418
 20
-143.2918565179965
 10
105.0481960457866
 20
-143.2143418695784
 10
105.3272487800918
 20
-143.2143418695784
 10
105.4416259502021
 20
-143.2143418695784
 10
105.606301514397
 20
-143.2239881369371
 10
105.6858832201063
 20
-143.3015027853552
 10
105.7072428121149
 20
-143.2570610535955
 10
105.7399712192247
 20
-143.1871256152449
 10
105.9242838276856
 20
-143.18126895292
 10
105.9242838276856
 20
-143.18126895292
 10
105.9242838276856
 20
-143.2977131803214
 10
105.9242838276856
 20
-143.2977131803214
 97
        0
 97
        0
 92
        1
 93
        1
 72
     4
 94
        3
 73
     0
 74
     1
 95
       20
 96
       16
 40
0.0
 40
0.0
 40
0.0
 40
0.0
 40
1.0
 40
1.0
 40
1.0
 40
2.0
 40
2.0
 40
2.0
 40
3.0
 40
3.0
 40
3.0
 40
4.0
 40
4.0
 40
4.0
 40
5.0
 40
5.0
 40
5.0
 40
5.0
 10
105.0774793574112
 20
-144.140728045562
 10
105.0712781855377
 20
-144.140728045562
 10
104.894889296693
 20
-144.1579535229883
 10
104.894889296693
 20
-144.3267632017655
 10
104.894889296693
 20
-144.464222511627
 10
104.9648247350435
 20
-144.5183105107454
 10
105.3386175951931
 20
-144.5183105107454
 10
105.6741698954565
 20
-144.5183105107454
 10
105.7554741489084
 20
-144.4545762442683
 10
105.7554741489084
 20
-144.3343424118331
 10
105.7554741489084
 20
-144.1968831019716
 10
105.646953641123
 20
-144.1755235099631
 10
105.447482612527
 20
-144.1638101853132
 10
105.447482612527
 20
-144.1638101853132
 10
105.0774793574112
 20
-144.140728045562
 10
105.0774793574112
 20
-144.140728045562
 97
        0
 97
        0
 92
        1
 93
        1
 72
     4
 94
        3
 73
     0
 74
     1
 95
       17
 96
       13
 40
0.0
 40
0.0
 40
0.0
 40
0.0
 40
1.0
 40
1.0
 40
1.0
 40
2.0
 40
2.0
 40
2.0
 40
3.0
 40
3.0
 40
3.0
 40
4.0
 40
4.0
 40
4.0
 40
4.0
 10
104.9941080466681
 20
-143.5629855326856
 10
104.9941080466681
 20
-143.7355848164967
 10
105.1043511021961
 20
-143.7762369432226
 10
105.3386175951931
 20
-143.7762369432226
 10
105.5790852600636
 20
-143.7762369432226
 10
105.6779595004902
 20
-143.7280056064291
 10
105.6779595004902
 20
-143.5399033929345
 10
105.6779595004902
 20
-143.4255262228242
 10
105.6293836541482
 20
-143.3249294346549
 10
105.3331054424167
 20
-143.3249294346549
 10
105.1005614971624
 20
-143.3249294346549
 10
104.9941080466681
 20
-143.3655815613808
 10
104.9941080466681
 20
-143.5629855326856
 97
        0
 97
        0
 75
     2
 76
     1
 98
        0
  0
ENDBLK
  5
9F
330
9C
100
AcDbEntity
  8
0
100
AcDbBlockEnd
  0
ENDSEC
  0
SECTION
  2
ENTITIES
  0
INSERT
  5
42
330
1F
100
AcDbEntity
  8
_U+30EC_U+30A4_U+30E4_U+30FC 1
100
AcDbBlockReference
  2
block 2
 10
0.0
 20
0.0
 30
0.0
  0
INSERT
  5
51
330
1F
100
AcDbEntity
  8
_U+30EC_U+30A4_U+30E4_U+30FC 1
100
AcDbBlockReference
  2
block 4
 10
0.0
 20
0.0
 30
0.0
  0
INSERT
  5
72
330
1F
100
AcDbEntity
  8
_U+30EC_U+30A4_U+30E4_U+30FC 1
100
AcDbBlockReference
  2
block 5
 10
0.0
 20
0.0
 30
0.0
  0
INSERT
  5
9D
330
1F
100
AcDbEntity
  8
_U+30EC_U+30A4_U+30E4_U+30FC 1
100
AcDbBlockReference
  2
block 6
 10
0.0
 20
0.0
 30
0.0
  0
ENDSEC
  0
SECTION
  2
OBJECTS
  0
DICTIONARY
  5
C
330
0
100
AcDbDictionary
281
     1
  3
ACAD_GROUP
350
D
  3
ACAD_IMAGE_DICT
350
49
  3
ACAD_IMAGE_VARS
350
4B
  3
ACAD_LAYOUT
350
1A
  3
ACAD_MATERIAL
350
3B
  3
ACAD_MLEADERSTYLE
350
B6
  3
ACAD_MLINESTYLE
350
17
  3
ACAD_PLOTSETTINGS
350
19
  3
ACAD_PLOTSTYLENAME
350
E
  3
ACAD_TABLESTYLE
350
B5
  3
ACAD_VISUALSTYLE
350
2A
  0
SUN
  5
3F
330
29
100
AcDbSun
 90
        1
290
     0
 63
     7
421
 16777215
 40
1.0
291
     1
 91
  2455826
 92
 54000000
292
     0
 70
     2
 71
   256
280
     1
  0
IMAGEDEF_REACTOR
  5
4D
330
4C
100
AcDbRasterImageDefReactor
 90
        2
330
4C
  0
DICTIONARY
  5
D
102
{ACAD_REACTORS
330
C
102
}
330
C
100
AcDbDictionary
281
     1
  0
DICTIONARY
  5
49
102
{ACAD_REACTORS
330
C
102
}
330
C
100
AcDbDictionary
281
     1
  3
/Users/logox/Desktop/dxf0611/60-051_1.png
350
4A
  0
RASTERVARIABLES
  5
4B
102
{ACAD_REACTORS
330
C
102
}
330
C
100
AcDbRasterVariables
 90
        0
 70
     0
 71
     1
 72
     0
  0
DICTIONARY
  5
1A
102
{ACAD_REACTORS
330
C
102
}
330
C
100
AcDbDictionary
281
     1
  3
Layout1
350
1E
  3
Layout2
350
26
  3
Model
350
22
  0
DICTIONARY
  5
3B
102
{ACAD_REACTORS
330
C
102
}
330
C
100
AcDbDictionary
281
     1
  3
ByBlock
350
3D
  3
ByLayer
350
3C
  3
Global
350
3E
  0
DICTIONARY
  5
B6
102
{ACAD_REACTORS
330
C
102
}
330
C
100
AcDbDictionary
281
     1
  0
DICTIONARY
  5
17
102
{ACAD_REACTORS
330
C
102
}
330
C
100
AcDbDictionary
281
     1
  3
Standard
350
18
  0
DICTIONARY
  5
19
102
{ACAD_REACTORS
330
C
102
}
330
C
100
AcDbDictionary
281
     1
  0
ACDBDICTIONARYWDFLT
  5
E
102
{ACAD_REACTORS
330
C
102
}
330
C
100
AcDbDictionary
281
     1
  3
Normal
350
F
100
AcDbDictionaryWithDefault
340
F
  0
DICTIONARY
  5
B5
102
{ACAD_REACTORS
330
C
102
}
330
C
100
AcDbDictionary
281
     1
  0
DICTIONARY
  5
2A
102
{ACAD_REACTORS
330
C
102
}
330
C
100
AcDbDictionary
281
     1
  3
2dWireframe
350
2F
  3
3D Hidden
350
31
  3
3dWireframe
350
30
  3
Basic
350
32
  3
Brighten
350
36
  3
ColorChange
350
3A
  3
Conceptual
350
34
  3
Dim
350
35
  3
Facepattern
350
39
  3
Flat
350
2B
  3
FlatWithEdges
350
2C
  3
Gouraud
350
2D
  3
GouraudWithEdges
350
2E
  3
Linepattern
350
38
  3
Realistic
350
33
  3
Thicken
350
37
  0
IMAGEDEF
  5
4A
102
{ACAD_REACTORS
330
49
330
4D
102
}
330
49
100
AcDbRasterImageDef
 90
        0
  1
/Users/logox/Desktop/dxf0611/60-051_1.png
 10
705.0
 20
401.0
 11
0.3527777777777777
 21
0.3527777777777777
280
     1
281
     5
  0
LAYOUT
  5
1E
102
{ACAD_REACTORS
330
1A
102
}
330
1A
100
AcDbPlotSettings
  1

  2
none_device
  4

  6

 40
0.0
 41
0.0
 42
0.0
 43
0.0
 44
0.0
 45
0.0
 46
0.0
 47
0.0
 48
0.0
 49
0.0
140
0.0
141
0.0
142
1.0
143
1.0
 70
   688
 72
     0
 73
     0
 74
     5
  7

 75
    16
 76
     0
 77
     2
 78
   300
147
1.0
148
0.0
149
0.0
100
AcDbLayout
  1
Layout1
 70
     1
 71
     1
 10
0.0
 20
0.0
 11
12.0
 21
9.0
 12
0.0
 22
0.0
 32
0.0
 14
1.000000000000000E+20
 24
1.000000000000000E+20
 34
1.000000000000000E+20
 15
-1.000000000000000E+20
 25
-1.000000000000000E+20
 35
-1.000000000000000E+20
146
0.0
 13
0.0
 23
0.0
 33
0.0
 16
1.0
 26
0.0
 36
0.0
 17
0.0
 27
1.0
 37
0.0
 76
     0
330
1B
  0
LAYOUT
  5
26
102
{ACAD_REACTORS
330
1A
102
}
330
1A
100
AcDbPlotSettings
  1

  2
none_device
  4

  6

 40
0.0
 41
0.0
 42
0.0
 43
0.0
 44
0.0
 45
0.0
 46
0.0
 47
0.0
 48
0.0
 49
0.0
140
0.0
141
0.0
142
1.0
143
1.0
 70
   688
 72
     0
 73
     0
 74
     5
  7

 75
    16
 76
     0
 77
     2
 78
   300
147
1.0
148
0.0
149
0.0
100
AcDbLayout
  1
Layout2
 70
     1
 71
     2
 10
0.0
 20
0.0
 11
0.0
 21
0.0
 12
0.0
 22
0.0
 32
0.0
 14
0.0
 24
0.0
 34
0.0
 15
0.0
 25
0.0
 35
0.0
146
0.0
 13
0.0
 23
0.0
 33
0.0
 16
1.0
 26
0.0
 36
0.0
 17
0.0
 27
1.0
 37
0.0
 76
     0
330
23
  0
LAYOUT
  5
22
102
{ACAD_REACTORS
330
1A
102
}
330
1A
100
AcDbPlotSettings
  1

  2
none_device
  4

  6

 40
0.0
 41
0.0
 42
0.0
 43
0.0
 44
0.0
 45
0.0
 46
0.0
 47
0.0
 48
0.0
 49
0.0
140
0.0
141
0.0
142
1.0
143
1.0
 70
  1712
 72
     0
 73
     0
 74
     0
  7

 75
     0
 76
     0
 77
     2
 78
   300
147
1.0
148
0.0
149
0.0
100
AcDbLayout
  1
Model
 70
     1
 71
     0
 10
0.0
 20
0.0
 11
12.0
 21
9.0
 12
0.0
 22
0.0
 32
0.0
 14
1.000000000000000E+20
 24
1.000000000000000E+20
 34
1.000000000000000E+20
 15
-1.000000000000000E+20
 25
-1.000000000000000E+20
 35
-1.000000000000000E+20
146
0.0
 13
0.0
 23
0.0
 33
0.0
 16
1.0
 26
0.0
 36
0.0
 17
0.0
 27
1.0
 37
0.0
 76
     0
330
1F
331
29
  0
MATERIAL
  5
3D
102
{ACAD_REACTORS
330
3B
102
}
330
3B
100
AcDbMaterial
  1
ByBlock
 72
     1
 94
      127
  0
MATERIAL
  5
3C
102
{ACAD_REACTORS
330
3B
102
}
330
3B
100
AcDbMaterial
  1
ByLayer
 72
     1
 94
      127
  0
MATERIAL
  5
3E
102
{ACAD_REACTORS
330
3B
102
}
330
3B
100
AcDbMaterial
  1
Global
 72
     1
 94
      127
  0
MLINESTYLE
  5
18
102
{ACAD_REACTORS
330
17
102
}
330
17
100
AcDbMlineStyle
  2
Standard
 70
     0
  3

 62
   256
 51
90.0
 52
90.0
 71
     2
 49
0.5
 62
   256
  6
BYLAYER
 49
-0.5
 62
   256
  6
BYLAYER
  0
ACDBPLACEHOLDER
  5
F
102
{ACAD_REACTORS
330
E
102
}
330
E
  0
VISUALSTYLE
  5
2F
102
{ACAD_REACTORS
330
2A
102
}
330
2A
100
AcDbVisualStyle
  2
2dWireframe
 70
     4
177
     2
291
     0
 71
     0
176
     1
 72
     2
176
     1
 73
     0
176
     1
 90
        0
176
     1
 40
-0.6
176
     1
 41
-30.0
176
     1
 62
     5
 63
     7
421
 16777215
176
     1
 74
     1
176
     1
 91
        4
176
     1
 64
     7
176
     1
 65
   257
176
     1
 75
     1
176
     1
175
     1
176
     1
 42
1.0
176
     1
 92
        0
176
     1
 66
   257
176
     1
 43
1.0
176
     1
 76
     1
176
     1
 77
     6
176
     1
 78
     2
176
     1
 67
     7
176
     1
 79
     5
176
     1
170
     0
176
     1
171
     0
176
     1
290
     0
176
     1
 93
        1
176
     1
 44
0.0
176
     1
173
     0
176
     1
  0
VISUALSTYLE
  5
31
102
{ACAD_REACTORS
330
2A
102
}
330
2A
100
AcDbVisualStyle
  2
3D Hidden
 70
     6
177
     2
291
     0
 71
     1
176
     1
 72
     2
176
     1
 73
     2
176
     1
 90
        0
176
     1
 40
-0.6
176
     1
 41
-30.0
176
     1
 62
     5
 63
     7
421
 16777215
176
     1
 74
     2
176
     1
 91
        2
176
     1
 64
     7
176
     1
 65
   257
176
     1
 75
     2
176
     1
175
     1
176
     1
 42
40.0
176
     1
 92
        0
176
     1
 66
   257
176
     1
 43
1.0
176
     1
 76
     1
176
     1
 77
     6
176
     1
 78
     2
176
     1
 67
     7
176
     1
 79
     3
176
     1
170
     0
176
     1
171
     0
176
     1
290
     0
176
     1
 93
        1
176
     1
 44
0.0
176
     1
173
     0
176
     1
  0
VISUALSTYLE
  5
30
102
{ACAD_REACTORS
330
2A
102
}
330
2A
100
AcDbVisualStyle
  2
3dWireframe
 70
     5
177
     2
291
     0
 71
     0
176
     1
 72
     2
176
     1
 73
     0
176
     1
 90
        0
176
     1
 40
-0.6
176
     1
 41
-30.0
176
     1
 62
     5
 63
     7
421
 16777215
176
     1
 74
     1
176
     1
 91
        4
176
     1
 64
     7
176
     1
 65
   257
176
     1
 75
     1
176
     1
175
     1
176
     1
 42
1.0
176
     1
 92
        0
176
     1
 66
   257
176
     1
 43
1.0
176
     1
 76
     1
176
     1
 77
     6
176
     1
 78
     2
176
     1
 67
     7
176
     1
 79
     5
176
     1
170
     0
176
     1
171
     0
176
     1
290
     0
176
     1
 93
        1
176
     1
 44
0.0
176
     1
173
     0
176
     1
  0
VISUALSTYLE
  5
32
102
{ACAD_REACTORS
330
2A
102
}
330
2A
100
AcDbVisualStyle
  2
Basic
 70
     7
177
     2
291
     1
 71
     1
176
     1
 72
     0
176
     1
 73
     1
176
     1
 90
        0
176
     1
 40
-0.6
176
     1
 41
-30.0
176
     1
 62
     5
 63
     7
421
 16777215
176
     1
 74
     0
176
     1
 91
        4
176
     1
 64
     7
176
     1
 65
   257
176
     1
 75
     1
176
     1
175
     1
176
     1
 42
1.0
176
     1
 92
        8
176
     1
 66
     7
176
     1
 43
1.0
176
     1
 76
     1
176
     1
 77
     6
176
     1
 78
     2
176
     1
 67
     7
176
     1
 79
     5
176
     1
170
     0
176
     1
171
     0
176
     1
290
     0
176
     1
 93
        1
176
     1
 44
0.0
176
     1
173
     0
176
     1
  0
VISUALSTYLE
  5
36
102
{ACAD_REACTORS
330
2A
102
}
330
2A
100
AcDbVisualStyle
  2
Brighten
 70
    12
177
     2
291
     1
 71
     2
176
     1
 72
     2
176
     1
 73
     0
176
     1
 90
        0
176
     1
 40
-0.6
176
     1
 41
-30.0
176
     1
 62
     5
 63
     7
421
 16777215
176
     1
 74
     1
176
     1
 91
        4
176
     1
 64
     7
176
     1
 65
   257
176
     1
 75
     1
176
     1
175
     1
176
     1
 42
1.0
176
     1
 92
        8
176
     1
 66
     7
176
     1
 43
1.0
176
     1
 76
     1
176
     1
 77
     6
176
     1
 78
     2
176
     1
 67
     7
176
     1
 79
     5
176
     1
170
     0
176
     1
171
     0
176
     1
290
     0
176
     1
 93
        1
176
     1
 44
50.0
176
     1
173
     0
176
     1
  0
VISUALSTYLE
  5
3A
102
{ACAD_REACTORS
330
2A
102
}
330
2A
100
AcDbVisualStyle
  2
ColorChange
 70
    16
177
     2
291
     1
 71
     2
176
     1
 72
     2
176
     1
 73
     3
176
     1
 90
        0
176
     1
 40
-0.6
176
     1
 41
-30.0
176
     1
 62
     5
 63
     8
421
  8421504
176
     1
 74
     1
176
     1
 91
        4
176
     1
 64
     7
176
     1
 65
   257
176
     1
 75
     1
176
     1
175
     1
176
     1
 42
1.0
176
     1
 92
        8
176
     1
 66
     8
424
  8421504
176
     1
 43
1.0
176
     1
 76
     1
176
     1
 77
     6
176
     1
 78
     2
176
     1
 67
     7
176
     1
 79
     5
176
     1
170
     0
176
     1
171
     0
176
     1
290
     0
176
     1
 93
        1
176
     1
 44
0.0
176
     1
173
     0
176
     1
  0
VISUALSTYLE
  5
34
102
{ACAD_REACTORS
330
2A
102
}
330
2A
100
AcDbVisualStyle
  2
Conceptual
 70
     9
177
     2
291
     0
 71
     3
176
     1
 72
     2
176
     1
 73
     0
176
     1
 90
        0
176
     1
 40
-0.6
176
     1
 41
-30.0
176
     1
 62
     5
 63
     7
421
 16777215
176
     1
 74
     2
176
     1
 91
        2
176
     1
 64
     7
176
     1
 65
   257
176
     1
 75
     1
176
     1
175
     1
176
     1
 42
40.0
176
     1
 92
        8
176
     1
 66
     7
176
     1
 43
1.0
176
     1
 76
     1
176
     1
 77
     6
176
     1
 78
     2
176
     1
 67
     7
176
     1
 79
     3
176
     1
170
     0
176
     1
171
     0
176
     1
290
     0
176
     1
 93
        1
176
     1
 44
0.0
176
     1
173
     0
176
     1
  0
VISUALSTYLE
  5
35
102
{ACAD_REACTORS
330
2A
102
}
330
2A
100
AcDbVisualStyle
  2
Dim
 70
    11
177
     2
291
     1
 71
     2
176
     1
 72
     2
176
     1
 73
     0
176
     1
 90
        0
176
     1
 40
-0.6
176
     1
 41
-30.0
176
     1
 62
     5
 63
     7
421
 16777215
176
     1
 74
     1
176
     1
 91
        4
176
     1
 64
     7
176
     1
 65
   257
176
     1
 75
     1
176
     1
175
     1
176
     1
 42
1.0
176
     1
 92
        8
176
     1
 66
     7
176
     1
 43
1.0
176
     1
 76
     1
176
     1
 77
     6
176
     1
 78
     2
176
     1
 67
     7
176
     1
 79
     5
176
     1
170
     0
176
     1
171
     0
176
     1
290
     0
176
     1
 93
        1
176
     1
 44
-50.0
176
     1
173
     0
176
     1
  0
VISUALSTYLE
  5
39
102
{ACAD_REACTORS
330
2A
102
}
330
2A
100
AcDbVisualStyle
  2
Facepattern
 70
    15
177
     2
291
     1
 71
     2
176
     1
 72
     2
176
     1
 73
     0
176
     1
 90
        0
176
     1
 40
-0.6
176
     1
 41
-30.0
176
     1
 62
     5
 63
     7
421
 16777215
176
     1
 74
     1
176
     1
 91
        4
176
     1
 64
     7
176
     1
 65
   257
176
     1
 75
     1
176
     1
175
     1
176
     1
 42
1.0
176
     1
 92
        8
176
     1
 66
     7
176
     1
 43
1.0
176
     1
 76
     1
176
     1
 77
     6
176
     1
 78
     2
176
     1
 67
     7
176
     1
 79
     5
176
     1
170
     0
176
     1
171
     0
176
     1
290
     0
176
     1
 93
        1
176
     1
 44
0.0
176
     1
173
     0
176
     1
  0
VISUALSTYLE
  5
2B
102
{ACAD_REACTORS
330
2A
102
}
330
2A
100
AcDbVisualStyle
  2
Flat
 70
     0
177
     2
291
     1
 71
     2
176
     1
 72
     1
176
     1
 73
     1
176
     1
 90
        2
176
     1
 40
-0.6
176
     1
 41
30.0
176
     1
 62
     5
 63
     7
421
 16777215
176
     1
 74
     0
176
     1
 91
        4
176
     1
 64
     7
176
     1
 65
   257
176
     1
 75
     1
176
     1
175
     1
176
     1
 42
1.0
176
     1
 92
        8
176
     1
 66
     7
176
     1
 43
1.0
176
     1
 76
     1
176
     1
 77
     6
176
     1
 78
     2
176
     1
 67
     7
176
     1
 79
     5
176
     1
170
     0
176
     1
171
     0
176
     1
290
     0
176
     1
 93
       13
176
     1
 44
0.0
176
     1
173
     0
176
     1
  0
VISUALSTYLE
  5
2C
102
{ACAD_REACTORS
330
2A
102
}
330
2A
100
AcDbVisualStyle
  2
FlatWithEdges
 70
     1
177
     2
291
     1
 71
     2
176
     1
 72
     1
176
     1
 73
     1
176
     1
 90
        2
176
     1
 40
-0.6
176
     1
 41
30.0
176
     1
 62
     5
 63
     7
421
 16777215
176
     1
 74
     1
176
     1
 91
        4
176
     1
 64
     7
176
     1
 65
   257
176
     1
 75
     1
176
     1
175
     1
176
     1
 42
1.0
176
     1
 92
        0
176
     1
 66
   257
176
     1
 43
1.0
176
     1
 76
     1
176
     1
 77
     6
176
     1
 78
     2
176
     1
 67
     7
176
     1
 79
     5
176
     1
170
     0
176
     1
171
     0
176
     1
290
     0
176
     1
 93
       13
176
     1
 44
0.0
176
     1
173
     0
176
     1
  0
VISUALSTYLE
  5
2D
102
{ACAD_REACTORS
330
2A
102
}
330
2A
100
AcDbVisualStyle
  2
Gouraud
 70
     2
177
     2
291
     1
 71
     2
176
     1
 72
     2
176
     1
 73
     1
176
     1
 90
        2
176
     1
 40
-0.6
176
     1
 41
30.0
176
     1
 62
     5
 63
     7
421
 16777215
176
     1
 74
     0
176
     1
 91
        4
176
     1
 64
     7
176
     1
 65
   257
176
     1
 75
     1
176
     1
175
     1
176
     1
 42
1.0
176
     1
 92
        0
176
     1
 66
     7
176
     1
 43
1.0
176
     1
 76
     1
176
     1
 77
     6
176
     1
 78
     2
176
     1
 67
     7
176
     1
 79
     5
176
     1
170
     0
176
     1
171
     0
176
     1
290
     0
176
     1
 93
       13
176
     1
 44
0.0
176
     1
173
     0
176
     1
  0
VISUALSTYLE
  5
2E
102
{ACAD_REACTORS
330
2A
102
}
330
2A
100
AcDbVisualStyle
  2
GouraudWithEdges
 70
     3
177
     2
291
     1
 71
     2
176
     1
 72
     2
176
     1
 73
     1
176
     1
 90
        2
176
     1
 40
-0.6
176
     1
 41
30.0
176
     1
 62
     5
 63
     7
421
 16777215
176
     1
 74
     1
176
     1
 91
        4
176
     1
 64
     7
176
     1
 65
   257
176
     1
 75
     1
176
     1
175
     1
176
     1
 42
1.0
176
     1
 92
        0
176
     1
 66
   257
176
     1
 43
1.0
176
     1
 76
     1
176
     1
 77
     6
176
     1
 78
     2
176
     1
 67
     7
176
     1
 79
     5
176
     1
170
     0
176
     1
171
     0
176
     1
290
     0
176
     1
 93
       13
176
     1
 44
0.0
176
     1
173
     0
176
     1
  0
VISUALSTYLE
  5
38
102
{ACAD_REACTORS
330
2A
102
}
330
2A
100
AcDbVisualStyle
  2
Linepattern
 70
    14
177
     2
291
     1
 71
     2
176
     1
 72
     2
176
     1
 73
     0
176
     1
 90
        0
176
     1
 40
-0.6
176
     1
 41
-30.0
176
     1
 62
     5
 63
     7
421
 16777215
176
     1
 74
     1
176
     1
 91
        4
176
     1
 64
     7
176
     1
 65
   257
176
     1
 75
     7
176
     1
175
     7
176
     1
 42
1.0
176
     1
 92
        8
176
     1
 66
     7
176
     1
 43
1.0
176
     1
 76
     1
176
     1
 77
     6
176
     1
 78
     2
176
     1
 67
     7
176
     1
 79
     5
176
     1
170
     0
176
     1
171
     0
176
     1
290
     0
176
     1
 93
        1
176
     1
 44
0.0
176
     1
173
     0
176
     1
  0
VISUALSTYLE
  5
33
102
{ACAD_REACTORS
330
2A
102
}
330
2A
100
AcDbVisualStyle
  2
Realistic
 70
     8
177
     2
291
     0
 71
     2
176
     1
 72
     2
176
     1
 73
     0
176
     1
 90
        0
176
     1
 40
-0.6
176
     1
 41
-30.0
176
     1
 62
     5
 63
     7
421
 16777215
176
     1
 74
     1
176
     1
 91
        0
176
     1
 64
     7
176
     1
 65
   257
176
     1
 75
     1
176
     1
175
     1
176
     1
 42
1.0
176
     1
 92
        8
176
     1
 66
     8
424
  7895160
176
     1
 43
1.0
176
     1
 76
     1
176
     1
 77
     6
176
     1
 78
     2
176
     1
 67
     7
176
     1
 79
     5
176
     1
170
     0
176
     1
171
     0
176
     1
290
     0
176
     1
 93
       13
176
     1
 44
0.0
176
     1
173
     0
176
     1
  0
VISUALSTYLE
  5
37
102
{ACAD_REACTORS
330
2A
102
}
330
2A
100
AcDbVisualStyle
  2
Thicken
 70
    13
177
     2
291
     1
 71
     2
176
     1
 72
     2
176
     1
 73
     0
176
     1
 90
        0
176
     1
 40
-0.6
176
     1
 41
-30.0
176
     1
 62
     5
 63
     7
421
 16777215
176
     1
 74
     1
176
     1
 91
        4
176
     1
 64
     7
176
     1
 65
   257
176
     1
 75
     1
176
     1
175
     1
176
     1
 42
1.0
176
     1
 92
       12
176
     1
 66
     7
176
     1
 43
1.0
176
     1
 76
     1
176
     1
 77
     6
176
     1
 78
     2
176
     1
 67
     7
176
     1
 79
     5
176
     1
170
     0
176
     1
171
     0
176
     1
290
     0
176
     1
 93
        1
176
     1
 44
0.0
176
     1
173
     0
176
     1
  0
ENDSEC
  0
EOF
