  0
SECTION
  2
HEADER
  9
$ACADVER
  1
AC1024
  9
$ACADMAINTVER
 70
     6
  9
$DWGCODEPAGE
  3
UNDEFINED
  9
$INSBASE
 10
0.0
 20
0.0
 30
0.0
  9
$EXTMIN
 10
1.000000000000000E+20
 20
1.000000000000000E+20
 30
1.000000000000000E+20
  9
$EXTMAX
 10
-1.000000000000000E+20
 20
-1.000000000000000E+20
 30
-1.000000000000000E+20
  9
$LIMMIN
 10
0.0
 20
0.0
  9
$LIMMAX
 10
12.0
 20
9.0
  9
$ORTHOMODE
 70
     0
  9
$REGENMODE
 70
     1
  9
$FILLMODE
 70
     1
  9
$QTEXTMODE
 70
     0
  9
$MIRRTEXT
 70
     1
  9
$LTSCALE
 40
1.0
  9
$ATTMODE
 70
     1
  9
$TEXTSIZE
 40
0.2
  9
$TRACEWID
 40
0.05
  9
$TEXTSTYLE
  7
Standard
  9
$CLAYER
  8
0
  9
$CELTYPE
  6
ByLayer
  9
$CECOLOR
 62
   256
  9
$CELTSCALE
 40
1.0
  9
$DISPSILH
 70
     0
  9
$DIMSCALE
 40
1.0
  9
$DIMASZ
 40
0.18
  9
$DIMEXO
 40
0.0625
  9
$DIMDLI
 40
0.38
  9
$DIMRND
 40
0.0
  9
$DIMDLE
 40
0.0
  9
$DIMEXE
 40
0.18
  9
$DIMTP
 40
0.0
  9
$DIMTM
 40
0.0
  9
$DIMTXT
 40
0.18
  9
$DIMCEN
 40
0.09
  9
$DIMTSZ
 40
0.0
  9
$DIMTOL
 70
     0
  9
$DIMLIM
 70
     0
  9
$DIMTIH
 70
     1
  9
$DIMTOH
 70
     1
  9
$DIMSE1
 70
     0
  9
$DIMSE2
 70
     0
  9
$DIMTAD
 70
     0
  9
$DIMZIN
 70
     0
  9
$DIMBLK
  1

  9
$DIMASO
 70
     1
  9
$DIMSHO
 70
     1
  9
$DIMPOST
  1

  9
$DIMAPOST
  1

  9
$DIMALT
 70
     0
  9
$DIMALTD
 70
     2
  9
$DIMALTF
 40
25.4
  9
$DIMLFAC
 40
1.0
  9
$DIMTOFL
 70
     0
  9
$DIMTVP
 40
0.0
  9
$DIMTIX
 70
     0
  9
$DIMSOXD
 70
     0
  9
$DIMSAH
 70
     0
  9
$DIMBLK1
  1

  9
$DIMBLK2
  1

  9
$DIMSTYLE
  2
Standard
  9
$DIMCLRD
 70
     0
  9
$DIMCLRE
 70
     0
  9
$DIMCLRT
 70
     0
  9
$DIMTFAC
 40
1.0
  9
$DIMGAP
 40
0.09
  9
$DIMJUST
 70
     0
  9
$DIMSD1
 70
     0
  9
$DIMSD2
 70
     0
  9
$DIMTOLJ
 70
     1
  9
$DIMTZIN
 70
     0
  9
$DIMALTZ
 70
     0
  9
$DIMALTTZ
 70
     0
  9
$DIMUPT
 70
     0
  9
$DIMDEC
 70
     4
  9
$DIMTDEC
 70
     4
  9
$DIMALTU
 70
     2
  9
$DIMALTTD
 70
     2
  9
$DIMTXSTY
  7
Standard
  9
$DIMAUNIT
 70
     0
  9
$DIMADEC
 70
     0
  9
$DIMALTRND
 40
0.0
  9
$DIMAZIN
 70
     0
  9
$DIMDSEP
 70
    46
  9
$DIMATFIT
 70
     3
  9
$DIMFRAC
 70
     0
  9
$DIMLDRBLK
  1

  9
$DIMLUNIT
 70
     2
  9
$DIMLWD
 70
    -2
  9
$DIMLWE
 70
    -2
  9
$DIMTMOVE
 70
     0
  9
$DIMFXL
 40
1.0
  9
$DIMFXLON
 70
     0
  9
$DIMJOGANG
 40
0.7853981633974483
  9
$DIMTFILL
 70
     0
  9
$DIMTFILLCLR
 70
     0
  9
$DIMARCSYM
 70
     0
  9
$DIMLTYPE
  6

  9
$DIMLTEX1
  6

  9
$DIMLTEX2
  6

  9
$DIMTXTDIRECTION
 70
     0
  9
$LUNITS
 70
     2
  9
$LUPREC
 70
     4
  9
$SKETCHINC
 40
0.1
  9
$FILLETRAD
 40
0.5
  9
$AUNITS
 70
     0
  9
$AUPREC
 70
     0
  9
$MENU
  1
.
  9
$ELEVATION
 40
0.0
  9
$PELEVATION
 40
0.0
  9
$THICKNESS
 40
0.0
  9
$LIMCHECK
 70
     0
  9
$CHAMFERA
 40
0.5
  9
$CHAMFERB
 40
0.5
  9
$CHAMFERC
 40
1.0
  9
$CHAMFERD
 40
0.0
  9
$SKPOLY
 70
     0
  9
$TDCREATE
 40
2457917.646805556
  9
$TDUCREATE
 40
2457917.271805556
  9
$TDUPDATE
 40
2457917.646932859
  9
$TDUUPDATE
 40
2457917.27193287
  9
$TDINDWG
 40
0.0000000116
  9
$TDUSRTIMER
 40
0.0000000116
  9
$USRTIMER
 70
     1
  9
$ANGBASE
 50
0.0
  9
$ANGDIR
 70
     0
  9
$PDMODE
 70
     0
  9
$PDSIZE
 40
0.0
  9
$PLINEWID
 40
0.0
  9
$SPLFRAME
 70
     0
  9
$SPLINETYPE
 70
     6
  9
$SPLINESEGS
 70
     8
  9
$HANDSEED
  5
D5
  9
$SURFTAB1
 70
     6
  9
$SURFTAB2
 70
     6
  9
$SURFTYPE
 70
     6
  9
$SURFU
 70
     6
  9
$SURFV
 70
     6
  9
$UCSBASE
  2

  9
$UCSNAME
  2

  9
$UCSORG
 10
0.0
 20
0.0
 30
0.0
  9
$UCSXDIR
 10
1.0
 20
0.0
 30
0.0
  9
$UCSYDIR
 10
0.0
 20
1.0
 30
0.0
  9
$UCSORTHOREF
  2

  9
$UCSORTHOVIEW
 70
     0
  9
$UCSORGTOP
 10
0.0
 20
0.0
 30
0.0
  9
$UCSORGBOTTOM
 10
0.0
 20
0.0
 30
0.0
  9
$UCSORGLEFT
 10
0.0
 20
0.0
 30
0.0
  9
$UCSORGRIGHT
 10
0.0
 20
0.0
 30
0.0
  9
$UCSORGFRONT
 10
0.0
 20
0.0
 30
0.0
  9
$UCSORGBACK
 10
0.0
 20
0.0
 30
0.0
  9
$PUCSBASE
  2

  9
$PUCSNAME
  2

  9
$PUCSORG
 10
0.0
 20
0.0
 30
0.0
  9
$PUCSXDIR
 10
1.0
 20
0.0
 30
0.0
  9
$PUCSYDIR
 10
0.0
 20
1.0
 30
0.0
  9
$PUCSORTHOREF
  2

  9
$PUCSORTHOVIEW
 70
     0
  9
$PUCSORGTOP
 10
0.0
 20
0.0
 30
0.0
  9
$PUCSORGBOTTOM
 10
0.0
 20
0.0
 30
0.0
  9
$PUCSORGLEFT
 10
0.0
 20
0.0
 30
0.0
  9
$PUCSORGRIGHT
 10
0.0
 20
0.0
 30
0.0
  9
$PUCSORGFRONT
 10
0.0
 20
0.0
 30
0.0
  9
$PUCSORGBACK
 10
0.0
 20
0.0
 30
0.0
  9
$USERI1
 70
     0
  9
$USERI2
 70
     0
  9
$USERI3
 70
     0
  9
$USERI4
 70
     0
  9
$USERI5
 70
     0
  9
$USERR1
 40
0.0
  9
$USERR2
 40
0.0
  9
$USERR3
 40
0.0
  9
$USERR4
 40
0.0
  9
$USERR5
 40
0.0
  9
$WORLDVIEW
 70
     1
  9
$SHADEDGE
 70
     3
  9
$SHADEDIF
 70
    70
  9
$TILEMODE
 70
     1
  9
$MAXACTVP
 70
    64
  9
$PINSBASE
 10
0.0
 20
0.0
 30
0.0
  9
$PLIMCHECK
 70
     0
  9
$PEXTMIN
 10
1.000000000000000E+20
 20
1.000000000000000E+20
 30
1.000000000000000E+20
  9
$PEXTMAX
 10
-1.000000000000000E+20
 20
-1.000000000000000E+20
 30
-1.000000000000000E+20
  9
$PLIMMIN
 10
0.0
 20
0.0
  9
$PLIMMAX
 10
12.0
 20
9.0
  9
$UNITMODE
 70
     0
  9
$VISRETAIN
 70
     1
  9
$PLINEGEN
 70
     0
  9
$PSLTSCALE
 70
     1
  9
$TREEDEPTH
 70
  3020
  9
$CMLSTYLE
  2
Standard
  9
$CMLJUST
 70
     0
  9
$CMLSCALE
 40
1.0
  9
$PROXYGRAPHICS
 70
     1
  9
$MEASUREMENT
 70
     0
  9
$CELWEIGHT
370
    -1
  9
$ENDCAPS
280
     0
  9
$JOINSTYLE
280
     0
  9
$LWDISPLAY
290
     1
  9
$INSUNITS
 70
     1
  9
$HYPERLINKBASE
  1

  9
$STYLESHEET
  1

  9
$XEDIT
290
     1
  9
$CEPSNTYPE
380
     0
  9
$PSTYLEMODE
290
     1
  9
$FINGERPRINTGUID
  2
{83283EAF-8CC2-3522-1194-C73E2A6A0908}
  9
$VERSIONGUID
  2
{FAEB1C32-E019-11D5-929B-00C0DF256EC4}
  9
$EXTNAMES
290
     1
  9
$PSVPSCALE
 40
0.0
  9
$OLESTARTUP
290
     0
  9
$SORTENTS
280
   127
  9
$INDEXCTL
280
     0
  9
$HIDETEXT
280
     1
  9
$XCLIPFRAME
280
     2
  9
$HALOGAP
280
     0
  9
$OBSCOLOR
 70
   257
  9
$OBSLTYPE
280
     0
  9
$INTERSECTIONDISPLAY
280
     0
  9
$INTERSECTIONCOLOR
 70
   257
  9
$DIMASSOC
280
     2
  9
$PROJECTNAME
  1

  9
$CAMERADISPLAY
290
     0
  9
$LENSLENGTH
 40
50.0
  9
$CAMERAHEIGHT
 40
0.0
  9
$STEPSPERSEC
 40
2.0
  9
$STEPSIZE
 40
6.0
  9
$3DDWFPREC
 40
2.0
  9
$PSOLWIDTH
 40
0.25
  9
$PSOLHEIGHT
 40
4.0
  9
$LOFTANG1
 40
1.570796326794897
  9
$LOFTANG2
 40
1.570796326794897
  9
$LOFTMAG1
 40
0.0
  9
$LOFTMAG2
 40
0.0
  9
$LOFTPARAM
 70
     7
  9
$LOFTNORMALS
280
     1
  9
$LATITUDE
 40
37.795
  9
$LONGITUDE
 40
-122.394
  9
$NORTHDIRECTION
 40
0.0
  9
$TIMEZONE
 70
 -8000
  9
$LIGHTGLYPHDISPLAY
280
     1
  9
$TILEMODELIGHTSYNCH
280
     1
  9
$CMATERIAL
347
3C
  9
$SOLIDHIST
280
     1
  9
$SHOWHIST
280
     1
  9
$DWFFRAME
280
     2
  9
$DGNFRAME
280
     2
  9
$REALWORLDSCALE
290
     1
  9
$INTERFERECOLOR
 62
   256
  9
$CSHADOW
280
     0
  9
$SHADOWPLANELOCATION
 40
0.0
  0
ENDSEC
  0
SECTION
  2
CLASSES
  0
CLASS
  1
ACDBDICTIONARYWDFLT
  2
AcDbDictionaryWithDefault
  3
ObjectDBX Classes
 90
        0
 91
        4
280
     0
281
     0
  0
CLASS
  1
VISUALSTYLE
  2
AcDbVisualStyle
  3
ObjectDBX Classes
 90
     4095
 91
        4
280
     0
281
     0
  0
CLASS
  1
MATERIAL
  2
AcDbMaterial
  3
ObjectDBX Classes
 90
     1153
 91
        4
280
     0
281
     0
  0
CLASS
  1
SUN
  2
AcDbSun
  3
SCENEOE
 90
     1024
 91
        4
280
     0
281
     0
  0
CLASS
  1
IMAGEDEF
  2
AcDbRasterImageDef
  3
ISM
 90
        0
 91
        4
280
     0
281
     0
  0
CLASS
  1
RASTERVARIABLES
  2
AcDbRasterVariables
  3
ISM
 90
        0
 91
        4
280
     0
281
     0
  0
CLASS
  1
IMAGE
  2
AcDbRasterImage
  3
ISM
 90
      127
 91
        5
280
     0
281
     1
  0
CLASS
  1
IMAGEDEF_REACTOR
  2
AcDbRasterImageDefReactor
  3
ISM
 90
        1
 91
        4
280
     0
281
     0
  0
ENDSEC
  0
SECTION
  2
TABLES
  0
TABLE
  2
VPORT
  5
8
330
0
100
AcDbSymbolTable
 70
     1
  0
VPORT
  5
29
330
8
100
AcDbSymbolTableRecord
100
AcDbViewportTableRecord
  2
*Active
 70
     0
 10
0.0
 20
0.0
 11
1.0
 21
1.0
 12
0.0
 22
0.0
 13
0.0
 23
0.0
 14
0.5
 24
0.5
 15
0.5
 25
0.5
 16
0.0
 26
0.0
 36
1.0
 17
91.00082462281999
 27
-128.4993055234307
 37
0.0
 40
256.9986110468615
 41
0.7081814508812795
 42
50.0
 43
0.0
 44
0.0
 50
0.0
 51
0.0
 71
     0
 72
   100
 73
     1
 74
     3
 75
     0
 76
     0
 77
     0
 78
     0
281
     0
 65
     1
110
0.0
120
0.0
130
0.0
111
1.0
121
0.0
131
0.0
112
0.0
122
1.0
132
0.0
 79
     0
146
0.0
 60
     3
 61
     5
292
     1
282
     1
141
0.0
142
0.0
 63
   250
361
3F
  0
ENDTAB
  0
TABLE
  2
LTYPE
  5
5
330
0
100
AcDbSymbolTable
 70
     1
  0
LTYPE
  5
14
330
5
100
AcDbSymbolTableRecord
100
AcDbLinetypeTableRecord
  2
ByBlock
 70
     0
  3

 72
    65
 73
     0
 40
0.0
  0
LTYPE
  5
15
330
5
100
AcDbSymbolTableRecord
100
AcDbLinetypeTableRecord
  2
ByLayer
 70
     0
  3

 72
    65
 73
     0
 40
0.0
  0
LTYPE
  5
16
330
5
100
AcDbSymbolTableRecord
100
AcDbLinetypeTableRecord
  2
Continuous
 70
     0
  3
Solid line
 72
    65
 73
     0
 40
0.0
  0
ENDTAB
  0
TABLE
  2
LAYER
  5
2
330
0
100
AcDbSymbolTable
 70
     2
  0
LAYER
  5
10
330
2
100
AcDbSymbolTableRecord
100
AcDbLayerTableRecord
  2
0
 70
     0
 62
     7
  6
Continuous
370
    -3
390
F
347
3E
  0
LAYER
  5
40
330
2
100
AcDbSymbolTableRecord
100
AcDbLayerTableRecord
  2
_U+30EC_U+30A4_U+30E4_U+30FC 1
 70
     0
 62
     7
  6
Continuous
370
    -3
390
F
347
3E
  0
ENDTAB
  0
TABLE
  2
STYLE
  5
3
330
0
100
AcDbSymbolTable
 70
     1
  0
STYLE
  5
11
330
3
100
AcDbSymbolTableRecord
100
AcDbTextStyleTableRecord
  2
Standard
 70
     0
 40
0.0
 41
1.0
 50
0.0
 71
     0
 42
0.2
  3
txt
  4

  0
ENDTAB
  0
TABLE
  2
VIEW
  5
6
330
0
100
AcDbSymbolTable
 70
     0
  0
ENDTAB
  0
TABLE
  2
UCS
  5
7
330
0
100
AcDbSymbolTable
 70
     0
  0
ENDTAB
  0
TABLE
  2
APPID
  5
9
330
0
100
AcDbSymbolTable
 70
     1
  0
APPID
  5
12
330
9
100
AcDbSymbolTableRecord
100
AcDbRegAppTableRecord
  2
ACAD
 70
     0
  0
ENDTAB
  0
TABLE
  2
DIMSTYLE
  5
A
330
0
100
AcDbSymbolTable
 70
     1
100
AcDbDimStyleTable
  0
DIMSTYLE
105
27
330
A
100
AcDbSymbolTableRecord
100
AcDbDimStyleTableRecord
  2
Standard
 70
     0
178
     0
340
11
  0
ENDTAB
  0
TABLE
  2
BLOCK_RECORD
  5
1
330
0
100
AcDbSymbolTable
 70
     6
  0
BLOCK_RECORD
  5
1F
330
1
100
AcDbSymbolTableRecord
100
AcDbBlockTableRecord
  2
*Model_Space
340
22
 70
     0
280
     1
281
     0
  0
BLOCK_RECORD
  5
1B
330
1
100
AcDbSymbolTableRecord
100
AcDbBlockTableRecord
  2
*Paper_Space
340
1E
 70
     0
280
     1
281
     0
  0
BLOCK_RECORD
  5
23
330
1
100
AcDbSymbolTableRecord
100
AcDbBlockTableRecord
  2
*Paper_Space0
340
26
 70
     0
280
     1
281
     0
  0
BLOCK_RECORD
  5
41
330
1
100
AcDbSymbolTableRecord
100
AcDbBlockTableRecord
  2
block 2
340
0
102
{BLKREFS
331
42
102
}
 70
     0
280
     1
281
     0
  0
BLOCK_RECORD
  5
81
330
1
100
AcDbSymbolTableRecord
100
AcDbBlockTableRecord
  2
block 3
340
0
102
{BLKREFS
331
82
102
}
 70
     0
280
     1
281
     0
  0
BLOCK_RECORD
  5
A6
330
1
100
AcDbSymbolTableRecord
100
AcDbBlockTableRecord
  2
block 4
340
0
102
{BLKREFS
331
A7
102
}
 70
     0
280
     1
281
     0
  0
BLOCK_RECORD
  5
BF
330
1
100
AcDbSymbolTableRecord
100
AcDbBlockTableRecord
  2
block 5
340
0
102
{BLKREFS
331
C0
102
}
 70
     0
280
     1
281
     0
  0
BLOCK_RECORD
  5
C3
330
1
100
AcDbSymbolTableRecord
100
AcDbBlockTableRecord
  2
block 6
340
0
102
{BLKREFS
331
C4
102
}
 70
     0
280
     1
281
     0
  0
ENDTAB
  0
ENDSEC
  0
SECTION
  2
BLOCKS
  0
BLOCK
  5
20
330
1F
100
AcDbEntity
  8
0
100
AcDbBlockBegin
  2
*Model_Space
 70
     0
 10
0.0
 20
0.0
 30
0.0
  3
*Model_Space
  1

  0
ENDBLK
  5
21
330
1F
100
AcDbEntity
  8
0
100
AcDbBlockEnd
  0
BLOCK
  5
1C
330
1B
100
AcDbEntity
 67
     1
  8
0
100
AcDbBlockBegin
  2
*Paper_Space
 70
     0
 10
0.0
 20
0.0
 30
0.0
  3
*Paper_Space
  1

  0
ENDBLK
  5
1D
330
1B
100
AcDbEntity
 67
     1
  8
0
100
AcDbBlockEnd
  0
BLOCK
  5
24
330
23
100
AcDbEntity
  8
0
100
AcDbBlockBegin
  2
*Paper_Space0
 70
     0
 10
0.0
 20
0.0
 30
0.0
  3
*Paper_Space0
  1

  0
ENDBLK
  5
25
330
23
100
AcDbEntity
  8
0
100
AcDbBlockEnd
  0
BLOCK
  5
43
330
41
100
AcDbEntity
  8
0
100
AcDbBlockBegin
  2
block 2
 70
     0
 10
0.0
 20
0.0
 30
0.0
  3
block 2
  1

  0
SPLINE
  5
45
330
41
100
AcDbEntity
  8
_U+30EC_U+30A4_U+30E4_U+30FC 1
370
     0
100
AcDbSpline
210
0.0
220
0.0
230
1.0
 70
    11
 71
     3
 72
    59
 73
    55
 74
     0
 42
0.0000000001
 43
0.0000000001
 12
1.0
 22
0.0
 32
0.0
 13
1.0
 23
0.0
 33
0.0
 40
0.0
 40
0.0
 40
0.0
 40
0.0
 40
1.0
 40
1.0
 40
1.0
 40
2.0
 40
2.0
 40
2.0
 40
3.0
 40
3.0
 40
3.0
 40
4.0
 40
4.0
 40
4.0
 40
5.0
 40
5.0
 40
5.0
 40
6.0
 40
6.0
 40
6.0
 40
7.0
 40
7.0
 40
7.0
 40
8.0
 40
8.0
 40
8.0
 40
9.0
 40
9.0
 40
9.0
 40
10.0
 40
10.0
 40
10.0
 40
11.0
 40
11.0
 40
11.0
 40
12.0
 40
12.0
 40
12.0
 40
13.0
 40
13.0
 40
13.0
 40
14.0
 40
14.0
 40
14.0
 40
15.0
 40
15.0
 40
15.0
 40
16.0
 40
16.0
 40
16.0
 40
17.0
 40
17.0
 40
17.0
 40
18.0
 40
18.0
 40
18.0
 40
18.0
 10
87.36951630845276
 20
-140.8492838189543
 30
0.0
 10
87.3638319009021
 20
-141.0663248345251
 30
0.0
 10
87.3812296331026
 20
-141.2523599907286
 30
0.0
 10
87.83081459392771
 20
-141.2523599907286
 30
0.0
 10
88.01684975013121
 20
-141.2523599907286
 30
0.0
 10
88.2822943572697
 20
-141.2485703856948
 30
0.0
 10
88.2822943572697
 20
-140.9326551296974
 30
0.0
 10
88.2822943572697
 20
-140.8668538059291
 30
0.0
 10
88.2745428924279
 20
-140.7176811714178
 30
0.0
 10
88.1427679901171
 20
-140.6632486627509
 30
0.0
 10
88.11951359559166
 20
-140.6536023953922
 30
0.0
 10
88.02460121497302
 20
-140.6150173259574
 30
0.0
 10
87.91211884737962
 20
-140.6150173259574
 30
0.0
 10
87.91211884737962
 20
-140.6150173259574
 30
0.0
 10
87.7009344941338
 20
-140.6150173259574
 30
0.0
 10
87.7009344941338
 20
-140.6150173259574
 30
0.0
 10
87.7009344941338
 20
-140.6150173259574
 30
0.0
 10
87.7009344941338
 20
-140.5006401558471
 30
0.0
 10
87.7009344941338
 20
-140.5006401558471
 30
0.0
 10
87.7009344941338
 20
-140.5006401558471
 30
0.0
 10
87.91608070718765
 20
-140.5006401558471
 30
0.0
 10
87.91608070718765
 20
-140.5006401558471
 30
0.0
 10
88.0264960174899
 20
-140.5006401558471
 30
0.0
 10
88.26679142758609
 20
-140.5006401558471
 30
0.0
 10
88.26679142758609
 20
-140.2195203642507
 30
0.0
 10
88.26679142758609
 20
-139.9811197566714
 30
0.0
 10
88.10211586339115
 20
-139.9228976429707
 30
0.0
 10
87.85010712864512
 20
-139.9228976429707
 30
0.0
 10
87.56726478930611
 20
-139.9228976429707
 30
0.0
 10
87.40637883014493
 20
-139.9790526993802
 30
0.0
 10
87.40052216782001
 20
-140.2660291533016
 30
0.0
 10
87.40052216782001
 20
-140.2660291533016
 30
0.0
 10
87.2687472655092
 20
-140.2660291533016
 30
0.0
 10
87.2687472655092
 20
-140.2660291533016
 30
0.0
 10
87.28821205500087
 20
-139.8822455162447
 30
0.0
 10
87.51886119773835
 20
-139.8088649824089
 30
0.0
 10
87.84631752361135
 20
-139.8088649824089
 30
0.0
 10
87.98394908824707
 20
-139.8088649824089
 30
0.0
 10
88.39460447008885
 20
-139.8088649824089
 30
0.0
 10
88.39460447008885
 20
-140.2136637019258
 30
0.0
 10
88.39460447008885
 20
-140.4965060412648
 30
0.0
 10
88.22028263853521
 20
-140.541292282573
 30
0.0
 10
88.15637611728383
 20
-140.5585177599993
 30
0.0
 10
88.22028263853521
 20
-140.5781548042652
 30
0.0
 10
88.41217445706363
 20
-140.6401665229997
 30
0.0
 10
88.41217445706363
 20
-140.9305880724062
 30
0.0
 10
88.41217445706363
 20
-141.3646701035477
 30
0.0
 10
88.00324162296447
 20
-141.3667371608389
 30
0.0
 10
87.85200193116201
 20
-141.3667371608389
 30
0.0
 10
87.4528876191958
 20
-141.3667371608389
 30
0.0
 10
87.23774140614196
 20
-141.2582166530535
 30
0.0
 10
87.23774140614196
 20
-140.8492838189543
 30
0.0
 10
87.23774140614196
 20
-140.8492838189543
 30
0.0
 10
87.36951630845276
 20
-140.8492838189543
 30
0.0
 10
87.36951630845276
 20
-140.8492838189543
 30
0.0
  0
HATCH
  5
46
330
41
100
AcDbEntity
  8
_U+30EC_U+30A4_U+30E4_U+30FC 1
 62
   179
420
  2234388
100
AcDbHatch
 10
0.0
 20
0.0
 30
0.0
210
0.0
220
0.0
230
1.0
  2
SOLID
 70
     1
 71
     0
 91
        1
 92
        1
 93
        1
 72
     4
 94
        3
 73
     0
 74
     1
 95
       59
 96
       55
 40
0.0
 40
0.0
 40
0.0
 40
0.0
 40
1.0
 40
1.0
 40
1.0
 40
2.0
 40
2.0
 40
2.0
 40
3.0
 40
3.0
 40
3.0
 40
4.0
 40
4.0
 40
4.0
 40
5.0
 40
5.0
 40
5.0
 40
6.0
 40
6.0
 40
6.0
 40
7.0
 40
7.0
 40
7.0
 40
8.0
 40
8.0
 40
8.0
 40
9.0
 40
9.0
 40
9.0
 40
10.0
 40
10.0
 40
10.0
 40
11.0
 40
11.0
 40
11.0
 40
12.0
 40
12.0
 40
12.0
 40
13.0
 40
13.0
 40
13.0
 40
14.0
 40
14.0
 40
14.0
 40
15.0
 40
15.0
 40
15.0
 40
16.0
 40
16.0
 40
16.0
 40
17.0
 40
17.0
 40
17.0
 40
18.0
 40
18.0
 40
18.0
 40
18.0
 10
87.36951630845276
 20
-140.8492838189543
 10
87.3638319009021
 20
-141.0663248345251
 10
87.3812296331026
 20
-141.2523599907286
 10
87.83081459392771
 20
-141.2523599907286
 10
88.01684975013121
 20
-141.2523599907286
 10
88.2822943572697
 20
-141.2485703856948
 10
88.2822943572697
 20
-140.9326551296974
 10
88.2822943572697
 20
-140.8668538059291
 10
88.2745428924279
 20
-140.7176811714178
 10
88.1427679901171
 20
-140.6632486627509
 10
88.11951359559166
 20
-140.6536023953922
 10
88.02460121497302
 20
-140.6150173259574
 10
87.91211884737962
 20
-140.6150173259574
 10
87.91211884737962
 20
-140.6150173259574
 10
87.7009344941338
 20
-140.6150173259574
 10
87.7009344941338
 20
-140.6150173259574
 10
87.7009344941338
 20
-140.6150173259574
 10
87.7009344941338
 20
-140.5006401558471
 10
87.7009344941338
 20
-140.5006401558471
 10
87.7009344941338
 20
-140.5006401558471
 10
87.91608070718765
 20
-140.5006401558471
 10
87.91608070718765
 20
-140.5006401558471
 10
88.0264960174899
 20
-140.5006401558471
 10
88.26679142758609
 20
-140.5006401558471
 10
88.26679142758609
 20
-140.2195203642507
 10
88.26679142758609
 20
-139.9811197566714
 10
88.10211586339115
 20
-139.9228976429707
 10
87.85010712864512
 20
-139.9228976429707
 10
87.56726478930611
 20
-139.9228976429707
 10
87.40637883014493
 20
-139.9790526993802
 10
87.40052216782001
 20
-140.2660291533016
 10
87.40052216782001
 20
-140.2660291533016
 10
87.2687472655092
 20
-140.2660291533016
 10
87.2687472655092
 20
-140.2660291533016
 10
87.28821205500087
 20
-139.8822455162447
 10
87.51886119773835
 20
-139.8088649824089
 10
87.84631752361135
 20
-139.8088649824089
 10
87.98394908824707
 20
-139.8088649824089
 10
88.39460447008885
 20
-139.8088649824089
 10
88.39460447008885
 20
-140.2136637019258
 10
88.39460447008885
 20
-140.4965060412648
 10
88.22028263853521
 20
-140.541292282573
 10
88.15637611728383
 20
-140.5585177599993
 10
88.22028263853521
 20
-140.5781548042652
 10
88.41217445706363
 20
-140.6401665229997
 10
88.41217445706363
 20
-140.9305880724062
 10
88.41217445706363
 20
-141.3646701035477
 10
88.00324162296447
 20
-141.3667371608389
 10
87.85200193116201
 20
-141.3667371608389
 10
87.4528876191958
 20
-141.3667371608389
 10
87.23774140614196
 20
-141.2582166530535
 10
87.23774140614196
 20
-140.8492838189543
 10
87.23774140614196
 20
-140.8492838189543
 10
87.36951630845276
 20
-140.8492838189543
 10
87.36951630845276
 20
-140.8492838189543
 97
        0
 97
        0
 75
     2
 76
     1
 98
        0
  0
POLYLINE
  5
47
330
41
100
AcDbEntity
  8
_U+30EC_U+30A4_U+30E4_U+30FC 1
370
     0
100
AcDb2dPolyline
 66
     1
 10
0.0
 20
0.0
 30
0.0
  0
VERTEX
  5
48
330
47
100
AcDbEntity
  8
_U+30EC_U+30A4_U+30E4_U+30FC 1
370
     0
100
AcDbVertex
100
AcDb2dVertex
 10
89.37128904015718
 20
-140.209874096892
 30
0.0
  0
VERTEX
  5
49
330
47
100
AcDbEntity
  8
_U+30EC_U+30A4_U+30E4_U+30FC 1
370
     0
100
AcDbVertex
100
AcDb2dVertex
 10
89.54750567422771
 20
-140.209874096892
 30
0.0
  0
VERTEX
  5
4A
330
47
100
AcDbEntity
  8
_U+30EC_U+30A4_U+30E4_U+30FC 1
370
     0
100
AcDbVertex
100
AcDb2dVertex
 10
88.97010767089984
 20
-140.740763311169
 30
0.0
  0
VERTEX
  5
4B
330
47
100
AcDbEntity
  8
_U+30EC_U+30A4_U+30E4_U+30FC 1
370
     0
100
AcDbVertex
100
AcDb2dVertex
 10
89.60762259044532
 20
-141.3512342311552
 30
0.0
  0
VERTEX
  5
4C
330
47
100
AcDbEntity
  8
_U+30EC_U+30A4_U+30E4_U+30FC 1
370
     0
100
AcDbVertex
100
AcDb2dVertex
 10
89.42933889908365
 20
-141.3512342311552
 30
0.0
  0
VERTEX
  5
4D
330
47
100
AcDbEntity
  8
_U+30EC_U+30A4_U+30E4_U+30FC 1
370
     0
100
AcDbVertex
100
AcDb2dVertex
 10
88.83247610626411
 20
-140.7562662408526
 30
0.0
  0
VERTEX
  5
4E
330
47
100
AcDbEntity
  8
_U+30EC_U+30A4_U+30E4_U+30FC 1
370
     0
100
AcDbVertex
100
AcDb2dVertex
 10
88.83247610626411
 20
-141.3512342311552
 30
0.0
  0
VERTEX
  5
4F
330
47
100
AcDbEntity
  8
_U+30EC_U+30A4_U+30E4_U+30FC 1
370
     0
100
AcDbVertex
100
AcDb2dVertex
 10
88.710347471312
 20
-141.3512342311552
 30
0.0
  0
VERTEX
  5
50
330
47
100
AcDbEntity
  8
_U+30EC_U+30A4_U+30E4_U+30FC 1
370
     0
100
AcDbVertex
100
AcDb2dVertex
 10
88.710347471312
 20
-139.824023402544
 30
0.0
  0
VERTEX
  5
51
330
47
100
AcDbEntity
  8
_U+30EC_U+30A4_U+30E4_U+30FC 1
370
     0
100
AcDbVertex
100
AcDb2dVertex
 10
88.83247610626411
 20
-139.824023402544
 30
0.0
  0
VERTEX
  5
52
330
47
100
AcDbEntity
  8
_U+30EC_U+30A4_U+30E4_U+30FC 1
370
     0
100
AcDbVertex
100
AcDb2dVertex
 10
88.83247610626411
 20
-140.7252603814854
 30
0.0
  0
VERTEX
  5
53
330
47
100
AcDbEntity
  8
_U+30EC_U+30A4_U+30E4_U+30FC 1
370
     0
100
AcDbVertex
100
AcDb2dVertex
 10
89.37128904015718
 20
-140.209874096892
 30
0.0
  0
SEQEND
  5
54
330
47
100
AcDbEntity
  8
_U+30EC_U+30A4_U+30E4_U+30FC 1
370
     0
  0
HATCH
  5
55
330
41
100
AcDbEntity
  8
_U+30EC_U+30A4_U+30E4_U+30FC 1
 62
   179
420
  2234388
100
AcDbHatch
 10
0.0
 20
0.0
 30
0.0
210
0.0
220
0.0
230
1.0
  2
SOLID
 70
     1
 71
     0
 91
        1
 92
        1
 93
       11
 72
     1
 10
89.37128904015718
 20
-140.209874096892
 11
89.54750567422771
 21
-140.209874096892
 72
     1
 10
89.54750567422771
 20
-140.209874096892
 11
88.97010767089984
 21
-140.740763311169
 72
     1
 10
88.97010767089984
 20
-140.740763311169
 11
89.60762259044532
 21
-141.3512342311552
 72
     1
 10
89.60762259044532
 20
-141.3512342311552
 11
89.42933889908365
 21
-141.3512342311552
 72
     1
 10
89.42933889908365
 20
-141.3512342311552
 11
88.83247610626411
 21
-140.7562662408526
 72
     1
 10
88.83247610626411
 20
-140.7562662408526
 11
88.83247610626411
 21
-141.3512342311552
 72
     1
 10
88.83247610626411
 20
-141.3512342311552
 11
88.710347471312
 21
-141.3512342311552
 72
     1
 10
88.710347471312
 20
-141.3512342311552
 11
88.710347471312
 21
-139.824023402544
 72
     1
 10
88.710347471312
 20
-139.824023402544
 11
88.83247610626411
 21
-139.824023402544
 72
     1
 10
88.83247610626411
 20
-139.824023402544
 11
88.83247610626411
 21
-140.7252603814854
 72
     1
 10
88.83247610626411
 20
-140.7252603814854
 11
89.37128904015718
 21
-140.209874096892
 97
        0
 75
     2
 76
     1
 98
        0
  0
SPLINE
  5
56
330
41
100
AcDbEntity
  8
_U+30EC_U+30A4_U+30E4_U+30FC 1
370
     0
100
AcDbSpline
210
0.0
220
0.0
230
1.0
 70
    11
 71
     3
 72
    59
 73
    55
 74
     0
 42
0.0000000001
 43
0.0000000001
 12
1.0
 22
0.0
 32
0.0
 13
1.0
 23
0.0
 33
0.0
 40
0.0
 40
0.0
 40
0.0
 40
0.0
 40
1.0
 40
1.0
 40
1.0
 40
2.0
 40
2.0
 40
2.0
 40
3.0
 40
3.0
 40
3.0
 40
4.0
 40
4.0
 40
4.0
 40
5.0
 40
5.0
 40
5.0
 40
6.0
 40
6.0
 40
6.0
 40
7.0
 40
7.0
 40
7.0
 40
8.0
 40
8.0
 40
8.0
 40
9.0
 40
9.0
 40
9.0
 40
10.0
 40
10.0
 40
10.0
 40
11.0
 40
11.0
 40
11.0
 40
12.0
 40
12.0
 40
12.0
 40
13.0
 40
13.0
 40
13.0
 40
14.0
 40
14.0
 40
14.0
 40
15.0
 40
15.0
 40
15.0
 40
16.0
 40
16.0
 40
16.0
 40
17.0
 40
17.0
 40
17.0
 40
18.0
 40
18.0
 40
18.0
 40
18.0
 10
90.89574379238023
 20
-140.2777424779514
 30
0.0
 10
90.78532848207797
 20
-140.2835991402763
 30
0.0
 10
90.7581122277445
 20
-140.2949679553776
 30
0.0
 10
90.72521156586036
 20
-140.3569796741122
 30
0.0
 10
90.7484659603858
 20
-140.3959092530955
 30
0.0
 10
90.76982555239435
 20
-140.4269151124627
 30
0.0
 10
90.76982555239435
 20
-140.5219997478556
 30
0.0
 10
90.76982555239435
 20
-140.8396375515956
 30
0.0
 10
90.52746308500703
 20
-140.8685763536718
 30
0.0
 10
90.31438392924433
 20
-140.8685763536718
 30
0.0
 10
90.14385170272446
 20
-140.8685763536718
 30
0.0
 10
90.0334363924222
 20
-140.8492838189543
 30
0.0
 10
89.96556801136278
 20
-140.7989854248697
 30
0.0
 10
89.90355629262828
 20
-140.8337808892707
 30
0.0
 10
89.88030189810284
 20
-140.8630642008953
 30
0.0
 10
89.88030189810284
 20
-140.9075059326551
 30
0.0
 10
89.88030189810284
 20
-140.9812309760394
 30
0.0
 10
89.94627547664538
 20
-141.0043131157906
 30
0.0
 10
90.00432533557183
 20
-141.0081027208244
 30
0.0
 10
90.00432533557183
 20
-141.0081027208244
 30
0.0
 10
90.51592201513144
 20
-141.0391085801916
 30
0.0
 10
90.51592201513144
 20
-141.0391085801916
 30
0.0
 10
90.75242782019384
 20
-141.0528889621326
 30
0.0
 10
90.84923500332937
 20
-141.1459065402344
 30
0.0
 10
90.84923500332937
 20
-141.3105821044293
 30
0.0
 10
90.84923500332937
 20
-141.5603515271099
 30
0.0
 10
90.63994545260043
 20
-141.6109944307431
 30
0.0
 10
90.31042206943629
 20
-141.6109944307431
 30
0.0
 10
89.95971134903786
 20
-141.6109944307431
 30
0.0
 10
89.75231660082581
 20
-141.5565619220762
 30
0.0
 10
89.75231660082581
 20
-141.3281520914041
 30
0.0
 10
89.75231660082581
 20
-141.1748453423104
 30
0.0
 10
89.85119084125249
 20
-141.120757343192
 30
0.0
 10
89.88805336294466
 20
-141.1011202989261
 30
0.0
 10
89.789179122518
 20
-141.07218149685
 30
0.0
 10
89.76592472799256
 20
-140.982953523782
 30
0.0
 10
89.76592472799256
 20
-140.9288655246636
 30
0.0
 10
89.76592472799256
 20
-140.8358479465619
 30
0.0
 10
89.81639537685146
 20
-140.7600558458864
 30
0.0
 10
89.91320255998698
 20
-140.748687030785
 30
0.0
 10
89.85325789854363
 20
-140.6787515924345
 30
0.0
 10
89.84343937641067
 20
-140.5936577339488
 30
0.0
 10
89.84343937641067
 20
-140.527511900632
 30
0.0
 10
89.84343937641067
 20
-140.2718858156265
 30
0.0
 10
90.01982826525547
 20
-140.1943711672083
 30
0.0
 10
90.2988809995607
 20
-140.1943711672083
 30
0.0
 10
90.413258169671
 20
-140.1943711672083
 30
0.0
 10
90.57793373386593
 20
-140.204017434567
 30
0.0
 10
90.65734318480095
 20
-140.2815320829852
 30
0.0
 10
90.6787027768095
 20
-140.2370903512254
 30
0.0
 10
90.71160343869363
 20
-140.1671549128749
 30
0.0
 10
90.89574379238023
 20
-140.1612982505499
 30
0.0
 10
90.89574379238023
 20
-140.1612982505499
 30
0.0
 10
90.89574379238023
 20
-140.2777424779514
 30
0.0
 10
90.89574379238023
 20
-140.2777424779514
 30
0.0
  0
SPLINE
  5
57
330
41
100
AcDbEntity
  8
_U+30EC_U+30A4_U+30E4_U+30FC 1
370
     0
100
AcDbSpline
210
0.0
220
0.0
230
1.0
 70
    11
 71
     3
 72
    20
 73
    16
 74
     0
 42
0.0000000001
 43
0.0000000001
 12
1.0
 22
0.0
 32
0.0
 13
1.0
 23
0.0
 33
0.0
 40
0.0
 40
0.0
 40
0.0
 40
0.0
 40
1.0
 40
1.0
 40
1.0
 40
2.0
 40
2.0
 40
2.0
 40
3.0
 40
3.0
 40
3.0
 40
4.0
 40
4.0
 40
4.0
 40
5.0
 40
5.0
 40
5.0
 40
5.0
 10
90.04893932210582
 20
-141.120757343192
 30
0.0
 10
90.0430826597809
 20
-141.120757343192
 30
0.0
 10
89.86669377093611
 20
-141.1379828206183
 30
0.0
 10
89.86669377093611
 20
-141.3067924993955
 30
0.0
 10
89.86669377093611
 20
-141.444251809257
 30
0.0
 10
89.93645695451242
 20
-141.4983398083754
 30
0.0
 10
90.31042206943629
 20
-141.4983398083754
 30
0.0
 10
90.64580211492536
 20
-141.4983398083754
 30
0.0
 10
90.72710636837725
 20
-141.4346055418983
 30
0.0
 10
90.72710636837725
 20
-141.3143717094631
 30
0.0
 10
90.72710636837725
 20
-141.1769123996016
 30
0.0
 10
90.61858586059189
 20
-141.1555528075931
 30
0.0
 10
90.41894257722166
 20
-141.1438394829432
 30
0.0
 10
90.41894257722166
 20
-141.1438394829432
 30
0.0
 10
90.04893932210582
 20
-141.120757343192
 30
0.0
 10
90.04893932210582
 20
-141.120757343192
 30
0.0
  0
SPLINE
  5
58
330
41
100
AcDbEntity
  8
_U+30EC_U+30A4_U+30E4_U+30FC 1
370
     0
100
AcDbSpline
210
0.0
220
0.0
230
1.0
 70
    11
 71
     3
 72
    17
 73
    13
 74
     0
 42
0.0000000001
 43
0.0000000001
 12
1.0
 22
0.0
 32
0.0
 13
1.0
 23
0.0
 33
0.0
 40
0.0
 40
0.0
 40
0.0
 40
0.0
 40
1.0
 40
1.0
 40
1.0
 40
2.0
 40
2.0
 40
2.0
 40
3.0
 40
3.0
 40
3.0
 40
4.0
 40
4.0
 40
4.0
 40
4.0
 10
89.96556801136278
 20
-140.5430148303157
 30
0.0
 10
89.96556801136278
 20
-140.7156141141267
 30
0.0
 10
90.07598332166503
 20
-140.7562662408526
 30
0.0
 10
90.31042206943629
 20
-140.7562662408526
 30
0.0
 10
90.55088973430672
 20
-140.7562662408526
 30
0.0
 10
90.64959171995913
 20
-140.7080349040591
 30
0.0
 10
90.64959171995913
 20
-140.5199326905645
 30
0.0
 10
90.64959171995913
 20
-140.4055555204542
 30
0.0
 10
90.60118812839137
 20
-140.3049587322849
 30
0.0
 10
90.30473766188562
 20
-140.3049587322849
 30
0.0
 10
90.07219371663126
 20
-140.3049587322849
 30
0.0
 10
89.96556801136278
 20
-140.3456108590108
 30
0.0
 10
89.96556801136278
 20
-140.5430148303157
 30
0.0
  0
HATCH
  5
59
330
41
100
AcDbEntity
  8
_U+30EC_U+30A4_U+30E4_U+30FC 1
 62
   179
420
  2234388
100
AcDbHatch
 10
0.0
 20
0.0
 30
0.0
210
0.0
220
0.0
230
1.0
  2
SOLID
 70
     1
 71
     0
 91
        3
 92
        1
 93
        1
 72
     4
 94
        3
 73
     0
 74
     1
 95
       59
 96
       55
 40
0.0
 40
0.0
 40
0.0
 40
0.0
 40
1.0
 40
1.0
 40
1.0
 40
2.0
 40
2.0
 40
2.0
 40
3.0
 40
3.0
 40
3.0
 40
4.0
 40
4.0
 40
4.0
 40
5.0
 40
5.0
 40
5.0
 40
6.0
 40
6.0
 40
6.0
 40
7.0
 40
7.0
 40
7.0
 40
8.0
 40
8.0
 40
8.0
 40
9.0
 40
9.0
 40
9.0
 40
10.0
 40
10.0
 40
10.0
 40
11.0
 40
11.0
 40
11.0
 40
12.0
 40
12.0
 40
12.0
 40
13.0
 40
13.0
 40
13.0
 40
14.0
 40
14.0
 40
14.0
 40
15.0
 40
15.0
 40
15.0
 40
16.0
 40
16.0
 40
16.0
 40
17.0
 40
17.0
 40
17.0
 40
18.0
 40
18.0
 40
18.0
 40
18.0
 10
90.89574379238023
 20
-140.2777424779514
 10
90.78532848207797
 20
-140.2835991402763
 10
90.7581122277445
 20
-140.2949679553776
 10
90.72521156586036
 20
-140.3569796741122
 10
90.7484659603858
 20
-140.3959092530955
 10
90.76982555239435
 20
-140.4269151124627
 10
90.76982555239435
 20
-140.5219997478556
 10
90.76982555239435
 20
-140.8396375515956
 10
90.52746308500703
 20
-140.8685763536718
 10
90.31438392924433
 20
-140.8685763536718
 10
90.14385170272446
 20
-140.8685763536718
 10
90.0334363924222
 20
-140.8492838189543
 10
89.96556801136278
 20
-140.7989854248697
 10
89.90355629262828
 20
-140.8337808892707
 10
89.88030189810284
 20
-140.8630642008953
 10
89.88030189810284
 20
-140.9075059326551
 10
89.88030189810284
 20
-140.9812309760394
 10
89.94627547664538
 20
-141.0043131157906
 10
90.00432533557183
 20
-141.0081027208244
 10
90.00432533557183
 20
-141.0081027208244
 10
90.51592201513144
 20
-141.0391085801916
 10
90.51592201513144
 20
-141.0391085801916
 10
90.75242782019384
 20
-141.0528889621326
 10
90.84923500332937
 20
-141.1459065402344
 10
90.84923500332937
 20
-141.3105821044293
 10
90.84923500332937
 20
-141.5603515271099
 10
90.63994545260043
 20
-141.6109944307431
 10
90.31042206943629
 20
-141.6109944307431
 10
89.95971134903786
 20
-141.6109944307431
 10
89.75231660082581
 20
-141.5565619220762
 10
89.75231660082581
 20
-141.3281520914041
 10
89.75231660082581
 20
-141.1748453423104
 10
89.85119084125249
 20
-141.120757343192
 10
89.88805336294466
 20
-141.1011202989261
 10
89.789179122518
 20
-141.07218149685
 10
89.76592472799256
 20
-140.982953523782
 10
89.76592472799256
 20
-140.9288655246636
 10
89.76592472799256
 20
-140.8358479465619
 10
89.81639537685146
 20
-140.7600558458864
 10
89.91320255998698
 20
-140.748687030785
 10
89.85325789854363
 20
-140.6787515924345
 10
89.84343937641067
 20
-140.5936577339488
 10
89.84343937641067
 20
-140.527511900632
 10
89.84343937641067
 20
-140.2718858156265
 10
90.01982826525547
 20
-140.1943711672083
 10
90.2988809995607
 20
-140.1943711672083
 10
90.413258169671
 20
-140.1943711672083
 10
90.57793373386593
 20
-140.204017434567
 10
90.65734318480095
 20
-140.2815320829852
 10
90.6787027768095
 20
-140.2370903512254
 10
90.71160343869363
 20
-140.1671549128749
 10
90.89574379238023
 20
-140.1612982505499
 10
90.89574379238023
 20
-140.1612982505499
 10
90.89574379238023
 20
-140.2777424779514
 10
90.89574379238023
 20
-140.2777424779514
 97
        0
 97
        0
 92
        1
 93
        1
 72
     4
 94
        3
 73
     0
 74
     1
 95
       20
 96
       16
 40
0.0
 40
0.0
 40
0.0
 40
0.0
 40
1.0
 40
1.0
 40
1.0
 40
2.0
 40
2.0
 40
2.0
 40
3.0
 40
3.0
 40
3.0
 40
4.0
 40
4.0
 40
4.0
 40
5.0
 40
5.0
 40
5.0
 40
5.0
 10
90.04893932210582
 20
-141.120757343192
 10
90.0430826597809
 20
-141.120757343192
 10
89.86669377093611
 20
-141.1379828206183
 10
89.86669377093611
 20
-141.3067924993955
 10
89.86669377093611
 20
-141.444251809257
 10
89.93645695451242
 20
-141.4983398083754
 10
90.31042206943629
 20
-141.4983398083754
 10
90.64580211492536
 20
-141.4983398083754
 10
90.72710636837725
 20
-141.4346055418983
 10
90.72710636837725
 20
-141.3143717094631
 10
90.72710636837725
 20
-141.1769123996016
 10
90.61858586059189
 20
-141.1555528075931
 10
90.41894257722166
 20
-141.1438394829432
 10
90.41894257722166
 20
-141.1438394829432
 10
90.04893932210582
 20
-141.120757343192
 10
90.04893932210582
 20
-141.120757343192
 97
        0
 97
        0
 92
        1
 93
        1
 72
     4
 94
        3
 73
     0
 74
     1
 95
       17
 96
       13
 40
0.0
 40
0.0
 40
0.0
 40
0.0
 40
1.0
 40
1.0
 40
1.0
 40
2.0
 40
2.0
 40
2.0
 40
3.0
 40
3.0
 40
3.0
 40
4.0
 40
4.0
 40
4.0
 40
4.0
 10
89.96556801136278
 20
-140.5430148303157
 10
89.96556801136278
 20
-140.7156141141267
 10
90.07598332166503
 20
-140.7562662408526
 10
90.31042206943629
 20
-140.7562662408526
 10
90.55088973430672
 20
-140.7562662408526
 10
90.64959171995913
 20
-140.7080349040591
 10
90.64959171995913
 20
-140.5199326905645
 10
90.64959171995913
 20
-140.4055555204542
 10
90.60118812839137
 20
-140.3049587322849
 10
90.30473766188562
 20
-140.3049587322849
 10
90.07219371663126
 20
-140.3049587322849
 10
89.96556801136278
 20
-140.3456108590108
 10
89.96556801136278
 20
-140.5430148303157
 97
        0
 97
        0
 75
     2
 76
     1
 98
        0
  0
POLYLINE
  5
5A
330
41
100
AcDbEntity
  8
_U+30EC_U+30A4_U+30E4_U+30FC 1
370
     0
100
AcDb2dPolyline
 66
     1
 10
0.0
 20
0.0
 30
0.0
  0
VERTEX
  5
5B
330
5A
100
AcDbEntity
  8
_U+30EC_U+30A4_U+30E4_U+30FC 1
370
     0
100
AcDbVertex
100
AcDb2dVertex
 10
86.33168129352126
 20
-142.4099120737725
 30
0.0
  0
VERTEX
  5
5C
330
5A
100
AcDbEntity
  8
_U+30EC_U+30A4_U+30E4_U+30FC 1
370
     0
100
AcDbVertex
100
AcDb2dVertex
 10
86.33168129352126
 20
-142.5222221865917
 30
0.0
  0
VERTEX
  5
5D
330
5A
100
AcDbEntity
  8
_U+30EC_U+30A4_U+30E4_U+30FC 1
370
     0
100
AcDbVertex
100
AcDb2dVertex
 10
85.67470158448411
 20
-142.5222221865917
 30
0.0
  0
VERTEX
  5
5E
330
5A
100
AcDbEntity
  8
_U+30EC_U+30A4_U+30E4_U+30FC 1
370
     0
100
AcDbVertex
100
AcDb2dVertex
 10
85.67470158448411
 20
-143.6442897861375
 30
0.0
  0
VERTEX
  5
5F
330
5A
100
AcDbEntity
  8
_U+30EC_U+30A4_U+30E4_U+30FC 1
370
     0
100
AcDbVertex
100
AcDb2dVertex
 10
86.44588620885729
 20
-143.6442897861375
 30
0.0
  0
VERTEX
  5
60
330
5A
100
AcDbEntity
  8
_U+30EC_U+30A4_U+30E4_U+30FC 1
370
     0
100
AcDbVertex
100
AcDb2dVertex
 10
86.44588620885729
 20
-143.760734013539
 30
0.0
  0
VERTEX
  5
61
330
5A
100
AcDbEntity
  8
_U+30EC_U+30A4_U+30E4_U+30FC 1
370
     0
100
AcDbVertex
100
AcDb2dVertex
 10
84.78328312767572
 20
-143.760734013539
 30
0.0
  0
VERTEX
  5
62
330
5A
100
AcDbEntity
  8
_U+30EC_U+30A4_U+30E4_U+30FC 1
370
     0
100
AcDbVertex
100
AcDb2dVertex
 10
84.78328312767572
 20
-143.6442897861375
 30
0.0
  0
VERTEX
  5
63
330
5A
100
AcDbEntity
  8
_U+30EC_U+30A4_U+30E4_U+30FC 1
370
     0
100
AcDbVertex
100
AcDb2dVertex
 10
85.5506781470151
 20
-143.6442897861375
 30
0.0
  0
VERTEX
  5
64
330
5A
100
AcDbEntity
  8
_U+30EC_U+30A4_U+30E4_U+30FC 1
370
     0
100
AcDbVertex
100
AcDb2dVertex
 10
85.5506781470151
 20
-142.5222221865917
 30
0.0
  0
VERTEX
  5
65
330
5A
100
AcDbEntity
  8
_U+30EC_U+30A4_U+30E4_U+30FC 1
370
     0
100
AcDbVertex
100
AcDb2dVertex
 10
84.89748804301175
 20
-142.5222221865917
 30
0.0
  0
VERTEX
  5
66
330
5A
100
AcDbEntity
  8
_U+30EC_U+30A4_U+30E4_U+30FC 1
370
     0
100
AcDbVertex
100
AcDb2dVertex
 10
84.89748804301175
 20
-142.4099120737725
 30
0.0
  0
VERTEX
  5
67
330
5A
100
AcDbEntity
  8
_U+30EC_U+30A4_U+30E4_U+30FC 1
370
     0
100
AcDbVertex
100
AcDb2dVertex
 10
86.33168129352126
 20
-142.4099120737725
 30
0.0
  0
SEQEND
  5
68
330
5A
100
AcDbEntity
  8
_U+30EC_U+30A4_U+30E4_U+30FC 1
370
     0
  0
HATCH
  5
69
330
41
100
AcDbEntity
  8
_U+30EC_U+30A4_U+30E4_U+30FC 1
 62
   179
420
  2234388
100
AcDbHatch
 10
0.0
 20
0.0
 30
0.0
210
0.0
220
0.0
230
1.0
  2
SOLID
 70
     1
 71
     0
 91
        1
 92
        1
 93
       12
 72
     1
 10
86.33168129352126
 20
-142.4099120737725
 11
86.33168129352126
 21
-142.5222221865917
 72
     1
 10
86.33168129352126
 20
-142.5222221865917
 11
85.67470158448411
 21
-142.5222221865917
 72
     1
 10
85.67470158448411
 20
-142.5222221865917
 11
85.67470158448411
 21
-143.6442897861375
 72
     1
 10
85.67470158448411
 20
-143.6442897861375
 11
86.44588620885729
 21
-143.6442897861375
 72
     1
 10
86.44588620885729
 20
-143.6442897861375
 11
86.44588620885729
 21
-143.760734013539
 72
     1
 10
86.44588620885729
 20
-143.760734013539
 11
84.78328312767572
 21
-143.760734013539
 72
     1
 10
84.78328312767572
 20
-143.760734013539
 11
84.78328312767572
 21
-143.6442897861375
 72
     1
 10
84.78328312767572
 20
-143.6442897861375
 11
85.5506781470151
 21
-143.6442897861375
 72
     1
 10
85.5506781470151
 20
-143.6442897861375
 11
85.5506781470151
 21
-142.5222221865917
 72
     1
 10
85.5506781470151
 20
-142.5222221865917
 11
84.89748804301175
 21
-142.5222221865917
 72
     1
 10
84.89748804301175
 20
-142.5222221865917
 11
84.89748804301175
 21
-142.4099120737725
 72
     1
 10
84.89748804301175
 20
-142.4099120737725
 11
86.33168129352126
 21
-142.4099120737725
 97
        0
 75
     2
 76
     1
 98
        0
  0
POLYLINE
  5
6A
330
41
100
AcDbEntity
  8
_U+30EC_U+30A4_U+30E4_U+30FC 1
370
     0
100
AcDb2dPolyline
 66
     1
 10
0.0
 20
0.0
 30
0.0
  0
VERTEX
  5
6B
330
6A
100
AcDbEntity
  8
_U+30EC_U+30A4_U+30E4_U+30FC 1
370
     0
100
AcDbVertex
100
AcDb2dVertex
 10
88.16912297057925
 20
-142.4040554114476
 30
0.0
  0
VERTEX
  5
6C
330
6A
100
AcDbEntity
  8
_U+30EC_U+30A4_U+30E4_U+30FC 1
370
     0
100
AcDbVertex
100
AcDb2dVertex
 10
88.16912297057925
 20
-143.7645236185728
 30
0.0
  0
VERTEX
  5
6D
330
6A
100
AcDbEntity
  8
_U+30EC_U+30A4_U+30E4_U+30FC 1
370
     0
100
AcDbVertex
100
AcDb2dVertex
 10
86.69823945315183
 20
-143.7645236185728
 30
0.0
  0
VERTEX
  5
6E
330
6A
100
AcDbEntity
  8
_U+30EC_U+30A4_U+30E4_U+30FC 1
370
     0
100
AcDbVertex
100
AcDb2dVertex
 10
86.69823945315183
 20
-143.6522135057536
 30
0.0
  0
VERTEX
  5
6F
330
6A
100
AcDbEntity
  8
_U+30EC_U+30A4_U+30E4_U+30FC 1
370
     0
100
AcDbVertex
100
AcDb2dVertex
 10
88.04699433562715
 20
-143.6522135057536
 30
0.0
  0
VERTEX
  5
70
330
6A
100
AcDbEntity
  8
_U+30EC_U+30A4_U+30E4_U+30FC 1
370
     0
100
AcDbVertex
100
AcDb2dVertex
 10
88.04699433562715
 20
-142.5146429765241
 30
0.0
  0
VERTEX
  5
71
330
6A
100
AcDbEntity
  8
_U+30EC_U+30A4_U+30E4_U+30FC 1
370
     0
100
AcDbVertex
100
AcDb2dVertex
 10
86.71374238283546
 20
-142.5146429765241
 30
0.0
  0
VERTEX
  5
72
330
6A
100
AcDbEntity
  8
_U+30EC_U+30A4_U+30E4_U+30FC 1
370
     0
100
AcDbVertex
100
AcDb2dVertex
 10
86.71374238283546
 20
-142.4040554114476
 30
0.0
  0
VERTEX
  5
73
330
6A
100
AcDbEntity
  8
_U+30EC_U+30A4_U+30E4_U+30FC 1
370
     0
100
AcDbVertex
100
AcDb2dVertex
 10
88.16912297057925
 20
-142.4040554114476
 30
0.0
  0
SEQEND
  5
74
330
6A
100
AcDbEntity
  8
_U+30EC_U+30A4_U+30E4_U+30FC 1
370
     0
  0
HATCH
  5
75
330
41
100
AcDbEntity
  8
_U+30EC_U+30A4_U+30E4_U+30FC 1
 62
   179
420
  2234388
100
AcDbHatch
 10
0.0
 20
0.0
 30
0.0
210
0.0
220
0.0
230
1.0
  2
SOLID
 70
     1
 71
     0
 91
        1
 92
        1
 93
        8
 72
     1
 10
88.16912297057925
 20
-142.4040554114476
 11
88.16912297057925
 21
-143.7645236185728
 72
     1
 10
88.16912297057925
 20
-143.7645236185728
 11
86.69823945315183
 21
-143.7645236185728
 72
     1
 10
86.69823945315183
 20
-143.7645236185728
 11
86.69823945315183
 21
-143.6522135057536
 72
     1
 10
86.69823945315183
 20
-143.6522135057536
 11
88.04699433562715
 21
-143.6522135057536
 72
     1
 10
88.04699433562715
 20
-143.6522135057536
 11
88.04699433562715
 21
-142.5146429765241
 72
     1
 10
88.04699433562715
 20
-142.5146429765241
 11
86.71374238283546
 21
-142.5146429765241
 72
     1
 10
86.71374238283546
 20
-142.5146429765241
 11
86.71374238283546
 21
-142.4040554114476
 72
     1
 10
86.71374238283546
 20
-142.4040554114476
 11
88.16912297057925
 21
-142.4040554114476
 97
        0
 75
     2
 76
     1
 98
        0
  0
SPLINE
  5
76
330
41
100
AcDbEntity
  8
_U+30EC_U+30A4_U+30E4_U+30FC 1
370
     0
100
AcDbSpline
210
0.0
220
0.0
230
1.0
 70
    11
 71
     3
 72
    17
 73
    13
 74
     0
 42
0.0000000001
 43
0.0000000001
 12
1.0
 22
0.0
 32
0.0
 13
1.0
 23
0.0
 33
0.0
 40
0.0
 40
0.0
 40
0.0
 40
0.0
 40
1.0
 40
1.0
 40
1.0
 40
2.0
 40
2.0
 40
2.0
 40
3.0
 40
3.0
 40
3.0
 40
4.0
 40
4.0
 40
4.0
 40
4.0
 10
88.39047035550655
 20
-143.7896728156151
 30
0.0
 10
88.60165470875236
 20
-143.5629855326856
 30
0.0
 10
88.82076278161426
 20
-143.2043510926711
 30
0.0
 10
88.84780678117347
 20
-142.3286078203206
 30
0.0
 10
88.84780678117347
 20
-142.3286078203206
 30
0.0
 10
88.97768688096738
 20
-142.3499674123292
 30
0.0
 10
88.97768688096738
 20
-142.3499674123292
 30
0.0
 10
88.92721623210848
 20
-143.1716226855613
 30
0.0
 10
88.76443547043043
 20
-143.5746988573355
 30
0.0
 10
88.48934459593322
 20
-143.8692545213244
 30
0.0
 10
88.48934459593322
 20
-143.8692545213244
 30
0.0
 10
88.39047035550655
 20
-143.7896728156151
 30
0.0
 10
88.39047035550655
 20
-143.7896728156151
 30
0.0
  0
SPLINE
  5
77
330
41
100
AcDbEntity
  8
_U+30EC_U+30A4_U+30E4_U+30FC 1
370
     0
100
AcDbSpline
210
0.0
220
0.0
230
1.0
 70
    11
 71
     3
 72
    17
 73
    13
 74
     0
 42
0.0000000001
 43
0.0000000001
 12
1.0
 22
0.0
 32
0.0
 13
1.0
 23
0.0
 33
0.0
 40
0.0
 40
0.0
 40
0.0
 40
0.0
 40
1.0
 40
1.0
 40
1.0
 40
2.0
 40
2.0
 40
2.0
 40
3.0
 40
3.0
 40
3.0
 40
4.0
 40
4.0
 40
4.0
 40
4.0
 10
89.64999726491389
 20
-142.3323974253544
 30
0.0
 10
89.70442977358084
 20
-143.1947048253124
 30
0.0
 10
89.93111705651027
 20
-143.5454155457109
 30
0.0
 10
90.16745060679843
 20
-143.7896728156151
 30
0.0
 10
90.16745060679843
 20
-143.7896728156151
 30
0.0
 10
90.06478676133797
 20
-143.8768337313919
 30
0.0
 10
90.06478676133797
 20
-143.8768337313919
 30
0.0
 10
89.79934215419948
 20
-143.5919243347618
 30
0.0
 10
89.59780406831236
 20
-143.1967718826036
 30
0.0
 10
89.52804088473604
 20
-142.3499674123292
 30
0.0
 10
89.52804088473604
 20
-142.3499674123292
 30
0.0
 10
89.64999726491389
 20
-142.3323974253544
 30
0.0
 10
89.64999726491389
 20
-142.3323974253544
 30
0.0
  0
SPLINE
  5
78
330
41
100
AcDbEntity
  8
_U+30EC_U+30A4_U+30E4_U+30FC 1
370
     0
100
AcDbSpline
210
0.0
220
0.0
230
1.0
 70
    11
 71
     3
 72
    17
 73
    13
 74
     0
 42
0.0000000001
 43
0.0000000001
 12
1.0
 22
0.0
 32
0.0
 13
1.0
 23
0.0
 33
0.0
 40
0.0
 40
0.0
 40
0.0
 40
0.0
 40
1.0
 40
1.0
 40
1.0
 40
2.0
 40
2.0
 40
2.0
 40
3.0
 40
3.0
 40
3.0
 40
4.0
 40
4.0
 40
4.0
 40
4.0
 10
90.17520207164023
 20
-142.3906195390551
 30
0.0
 10
90.17520207164023
 20
-142.5008625945831
 30
0.0
 10
90.08614635334652
 20
-142.5921576249422
 30
0.0
 10
89.97366398575312
 20
-142.5921576249422
 30
0.0
 10
89.86135387293398
 20
-142.5921576249422
 30
0.0
 10
89.772125899866
 20
-142.5008625945831
 30
0.0
 10
89.772125899866
 20
-142.3906195390551
 30
0.0
 10
89.772125899866
 20
-142.278309426236
 30
0.0
 10
89.86324867545086
 20
-142.189081453168
 30
0.0
 10
89.97366398575312
 20
-142.189081453168
 30
0.0
 10
90.08407929605538
 20
-142.189081453168
 30
0.0
 10
90.17520207164023
 20
-142.278309426236
 30
0.0
 10
90.17520207164023
 20
-142.3906195390551
 30
0.0
  0
SPLINE
  5
79
330
41
100
AcDbEntity
  8
_U+30EC_U+30A4_U+30E4_U+30FC 1
370
     0
100
AcDbSpline
210
0.0
220
0.0
230
1.0
 70
    11
 71
     3
 72
    17
 73
    13
 74
     0
 42
0.0000000001
 43
0.0000000001
 12
1.0
 22
0.0
 32
0.0
 13
1.0
 23
0.0
 33
0.0
 40
0.0
 40
0.0
 40
0.0
 40
0.0
 40
1.0
 40
1.0
 40
1.0
 40
2.0
 40
2.0
 40
2.0
 40
3.0
 40
3.0
 40
3.0
 40
4.0
 40
4.0
 40
4.0
 40
4.0
 10
89.85739201312593
 20
-142.3906195390551
 30
0.0
 10
89.85739201312593
 20
-142.4543538055323
 30
0.0
 10
89.90975746450174
 20
-142.506719256908
 30
0.0
 10
89.97366398575312
 20
-142.506719256908
 30
0.0
 10
90.03963756429565
 20
-142.506719256908
 30
0.0
 10
90.0899359583803
 20
-142.4526312577896
 30
0.0
 10
90.0899359583803
 20
-142.3906195390551
 30
0.0
 10
90.0899359583803
 20
-142.3244737057383
 30
0.0
 10
90.0375705070045
 20
-142.2741753116537
 30
0.0
 10
89.97366398575312
 20
-142.2741753116537
 30
0.0
 10
89.91165226701862
 20
-142.2741753116537
 30
0.0
 10
89.85739201312593
 20
-142.3244737057383
 30
0.0
 10
89.85739201312593
 20
-142.3906195390551
 30
0.0
  0
HATCH
  5
7A
330
41
100
AcDbEntity
  8
_U+30EC_U+30A4_U+30E4_U+30FC 1
 62
   179
420
  2234388
100
AcDbHatch
 10
0.0
 20
0.0
 30
0.0
210
0.0
220
0.0
230
1.0
  2
SOLID
 70
     1
 71
     0
 91
        4
 92
        1
 93
        1
 72
     4
 94
        3
 73
     0
 74
     1
 95
       17
 96
       13
 40
0.0
 40
0.0
 40
0.0
 40
0.0
 40
1.0
 40
1.0
 40
1.0
 40
2.0
 40
2.0
 40
2.0
 40
3.0
 40
3.0
 40
3.0
 40
4.0
 40
4.0
 40
4.0
 40
4.0
 10
88.39047035550655
 20
-143.7896728156151
 10
88.60165470875236
 20
-143.5629855326856
 10
88.82076278161426
 20
-143.2043510926711
 10
88.84780678117347
 20
-142.3286078203206
 10
88.84780678117347
 20
-142.3286078203206
 10
88.97768688096738
 20
-142.3499674123292
 10
88.97768688096738
 20
-142.3499674123292
 10
88.92721623210848
 20
-143.1716226855613
 10
88.76443547043043
 20
-143.5746988573355
 10
88.48934459593322
 20
-143.8692545213244
 10
88.48934459593322
 20
-143.8692545213244
 10
88.39047035550655
 20
-143.7896728156151
 10
88.39047035550655
 20
-143.7896728156151
 97
        0
 97
        0
 92
        1
 93
        1
 72
     4
 94
        3
 73
     0
 74
     1
 95
       17
 96
       13
 40
0.0
 40
0.0
 40
0.0
 40
0.0
 40
1.0
 40
1.0
 40
1.0
 40
2.0
 40
2.0
 40
2.0
 40
3.0
 40
3.0
 40
3.0
 40
4.0
 40
4.0
 40
4.0
 40
4.0
 10
89.64999726491389
 20
-142.3323974253544
 10
89.70442977358084
 20
-143.1947048253124
 10
89.93111705651027
 20
-143.5454155457109
 10
90.16745060679843
 20
-143.7896728156151
 10
90.16745060679843
 20
-143.7896728156151
 10
90.06478676133797
 20
-143.8768337313919
 10
90.06478676133797
 20
-143.8768337313919
 10
89.79934215419948
 20
-143.5919243347618
 10
89.59780406831236
 20
-143.1967718826036
 10
89.52804088473604
 20
-142.3499674123292
 10
89.52804088473604
 20
-142.3499674123292
 10
89.64999726491389
 20
-142.3323974253544
 10
89.64999726491389
 20
-142.3323974253544
 97
        0
 97
        0
 92
        1
 93
        1
 72
     4
 94
        3
 73
     0
 74
     1
 95
       17
 96
       13
 40
0.0
 40
0.0
 40
0.0
 40
0.0
 40
1.0
 40
1.0
 40
1.0
 40
2.0
 40
2.0
 40
2.0
 40
3.0
 40
3.0
 40
3.0
 40
4.0
 40
4.0
 40
4.0
 40
4.0
 10
90.17520207164023
 20
-142.3906195390551
 10
90.17520207164023
 20
-142.5008625945831
 10
90.08614635334652
 20
-142.5921576249422
 10
89.97366398575312
 20
-142.5921576249422
 10
89.86135387293398
 20
-142.5921576249422
 10
89.772125899866
 20
-142.5008625945831
 10
89.772125899866
 20
-142.3906195390551
 10
89.772125899866
 20
-142.278309426236
 10
89.86324867545086
 20
-142.189081453168
 10
89.97366398575312
 20
-142.189081453168
 10
90.08407929605538
 20
-142.189081453168
 10
90.17520207164023
 20
-142.278309426236
 10
90.17520207164023
 20
-142.3906195390551
 97
        0
 97
        0
 92
        1
 93
        1
 72
     4
 94
        3
 73
     0
 74
     1
 95
       17
 96
       13
 40
0.0
 40
0.0
 40
0.0
 40
0.0
 40
1.0
 40
1.0
 40
1.0
 40
2.0
 40
2.0
 40
2.0
 40
3.0
 40
3.0
 40
3.0
 40
4.0
 40
4.0
 40
4.0
 40
4.0
 10
89.85739201312593
 20
-142.3906195390551
 10
89.85739201312593
 20
-142.4543538055323
 10
89.90975746450174
 20
-142.506719256908
 10
89.97366398575312
 20
-142.506719256908
 10
90.03963756429565
 20
-142.506719256908
 10
90.0899359583803
 20
-142.4526312577896
 10
90.0899359583803
 20
-142.3906195390551
 10
90.0899359583803
 20
-142.3244737057383
 10
90.0375705070045
 20
-142.2741753116537
 10
89.97366398575312
 20
-142.2741753116537
 10
89.91165226701862
 20
-142.2741753116537
 10
89.85739201312593
 20
-142.3244737057383
 10
89.85739201312593
 20
-142.3906195390551
 97
        0
 97
        0
 75
     2
 76
     1
 98
        0
  0
SPLINE
  5
7B
330
41
100
AcDbEntity
  8
_U+30EC_U+30A4_U+30E4_U+30FC 1
370
     0
100
AcDbSpline
210
0.0
220
0.0
230
1.0
 70
    11
 71
     3
 72
    17
 73
    13
 74
     0
 42
0.0000000001
 43
0.0000000001
 12
1.0
 22
0.0
 32
0.0
 13
1.0
 23
0.0
 33
0.0
 40
0.0
 40
0.0
 40
0.0
 40
0.0
 40
1.0
 40
1.0
 40
1.0
 40
2.0
 40
2.0
 40
2.0
 40
3.0
 40
3.0
 40
3.0
 40
4.0
 40
4.0
 40
4.0
 40
4.0
 10
90.46614038536958
 20
-143.2587836013381
 30
0.0
 10
90.43513452600233
 20
-143.0631021777759
 30
0.0
 10
90.37501760978472
 20
-142.9177191482983
 30
0.0
 10
90.3071492287253
 20
-142.7819823861795
 30
0.0
 10
90.3071492287253
 20
-142.7819823861795
 30
0.0
 10
90.40981307418575
 20
-142.7509765268123
 30
0.0
 10
90.40981307418575
 20
-142.7509765268123
 30
0.0
 10
90.50868731461242
 20
-142.9428683453407
 30
0.0
 10
90.55709090618018
 20
-143.1347601638691
 30
0.0
 10
90.57845049818873
 20
-143.2295002897135
 30
0.0
 10
90.57845049818873
 20
-143.2295002897135
 30
0.0
 10
90.46614038536958
 20
-143.2587836013381
 30
0.0
 10
90.46614038536958
 20
-143.2587836013381
 30
0.0
  0
SPLINE
  5
7C
330
41
100
AcDbEntity
  8
_U+30EC_U+30A4_U+30E4_U+30FC 1
370
     0
100
AcDbSpline
210
0.0
220
0.0
230
1.0
 70
    11
 71
     3
 72
    17
 73
    13
 74
     0
 42
0.0000000001
 43
0.0000000001
 12
1.0
 22
0.0
 32
0.0
 13
1.0
 23
0.0
 33
0.0
 40
0.0
 40
0.0
 40
0.0
 40
0.0
 40
1.0
 40
1.0
 40
1.0
 40
2.0
 40
2.0
 40
2.0
 40
3.0
 40
3.0
 40
3.0
 40
4.0
 40
4.0
 40
4.0
 40
4.0
 10
90.47371959543713
 20
-143.830324942341
 30
0.0
 10
90.92537161355338
 20
-143.7431640265642
 30
0.0
 10
91.37495657437849
 20
-143.5281900682846
 30
0.0
 10
91.47762041983893
 20
-142.7082573427952
 30
0.0
 10
91.47762041983893
 20
-142.7082573427952
 30
0.0
 10
91.58993053265807
 20
-142.7296169348037
 30
0.0
 10
91.58993053265807
 20
-142.7296169348037
 30
0.0
 10
91.44868161776283
 20
-143.539558883386
 30
0.0
 10
91.07075464303092
 20
-143.8013861402649
 30
0.0
 10
90.51643877945423
 20
-143.9291991827677
 30
0.0
 10
90.51643877945423
 20
-143.9291991827677
 30
0.0
 10
90.47371959543713
 20
-143.830324942341
 30
0.0
 10
90.47371959543713
 20
-143.830324942341
 30
0.0
  0
SPLINE
  5
7D
330
41
100
AcDbEntity
  8
_U+30EC_U+30A4_U+30E4_U+30FC 1
370
     0
100
AcDbSpline
210
0.0
220
0.0
230
1.0
 70
    11
 71
     3
 72
    17
 73
    13
 74
     0
 42
0.0000000001
 43
0.0000000001
 12
1.0
 22
0.0
 32
0.0
 13
1.0
 23
0.0
 33
0.0
 40
0.0
 40
0.0
 40
0.0
 40
0.0
 40
1.0
 40
1.0
 40
1.0
 40
2.0
 40
2.0
 40
2.0
 40
3.0
 40
3.0
 40
3.0
 40
4.0
 40
4.0
 40
4.0
 40
4.0
 10
90.90211721902794
 20
-143.167488570979
 30
0.0
 10
90.8788628245025
 20
-143.0145263314339
 30
0.0
 10
90.83424883796853
 20
-142.8515733149816
 30
0.0
 10
90.77413192175092
 20
-142.7024006804702
 30
0.0
 10
90.77413192175092
 20
-142.7024006804702
 30
0.0
 10
90.87300616217759
 20
-142.6772514834279
 30
0.0
 10
90.87300616217759
 20
-142.6772514834279
 30
0.0
 10
90.91951495122846
 20
-142.7878390485044
 30
0.0
 10
90.98927813480476
 20
-143.0048800640752
 30
0.0
 10
91.01442733184709
 20
-143.1423393739366
 30
0.0
 10
91.01442733184709
 20
-143.1423393739366
 30
0.0
 10
90.90211721902794
 20
-143.167488570979
 30
0.0
 10
90.90211721902794
 20
-143.167488570979
 30
0.0
  0
HATCH
  5
7E
330
41
100
AcDbEntity
  8
_U+30EC_U+30A4_U+30E4_U+30FC 1
 62
   179
420
  2234388
100
AcDbHatch
 10
0.0
 20
0.0
 30
0.0
210
0.0
220
0.0
230
1.0
  2
SOLID
 70
     1
 71
     0
 91
        3
 92
        1
 93
        1
 72
     4
 94
        3
 73
     0
 74
     1
 95
       17
 96
       13
 40
0.0
 40
0.0
 40
0.0
 40
0.0
 40
1.0
 40
1.0
 40
1.0
 40
2.0
 40
2.0
 40
2.0
 40
3.0
 40
3.0
 40
3.0
 40
4.0
 40
4.0
 40
4.0
 40
4.0
 10
90.46614038536958
 20
-143.2587836013381
 10
90.43513452600233
 20
-143.0631021777759
 10
90.37501760978472
 20
-142.9177191482983
 10
90.3071492287253
 20
-142.7819823861795
 10
90.3071492287253
 20
-142.7819823861795
 10
90.40981307418575
 20
-142.7509765268123
 10
90.40981307418575
 20
-142.7509765268123
 10
90.50868731461242
 20
-142.9428683453407
 10
90.55709090618018
 20
-143.1347601638691
 10
90.57845049818873
 20
-143.2295002897135
 10
90.57845049818873
 20
-143.2295002897135
 10
90.46614038536958
 20
-143.2587836013381
 10
90.46614038536958
 20
-143.2587836013381
 97
        0
 97
        0
 92
        1
 93
        1
 72
     4
 94
        3
 73
     0
 74
     1
 95
       17
 96
       13
 40
0.0
 40
0.0
 40
0.0
 40
0.0
 40
1.0
 40
1.0
 40
1.0
 40
2.0
 40
2.0
 40
2.0
 40
3.0
 40
3.0
 40
3.0
 40
4.0
 40
4.0
 40
4.0
 40
4.0
 10
90.47371959543713
 20
-143.830324942341
 10
90.92537161355338
 20
-143.7431640265642
 10
91.37495657437849
 20
-143.5281900682846
 10
91.47762041983893
 20
-142.7082573427952
 10
91.47762041983893
 20
-142.7082573427952
 10
91.58993053265807
 20
-142.7296169348037
 10
91.58993053265807
 20
-142.7296169348037
 10
91.44868161776283
 20
-143.539558883386
 10
91.07075464303092
 20
-143.8013861402649
 10
90.51643877945423
 20
-143.9291991827677
 10
90.51643877945423
 20
-143.9291991827677
 10
90.47371959543713
 20
-143.830324942341
 10
90.47371959543713
 20
-143.830324942341
 97
        0
 97
        0
 92
        1
 93
        1
 72
     4
 94
        3
 73
     0
 74
     1
 95
       17
 96
       13
 40
0.0
 40
0.0
 40
0.0
 40
0.0
 40
1.0
 40
1.0
 40
1.0
 40
2.0
 40
2.0
 40
2.0
 40
3.0
 40
3.0
 40
3.0
 40
4.0
 40
4.0
 40
4.0
 40
4.0
 10
90.90211721902794
 20
-143.167488570979
 10
90.8788628245025
 20
-143.0145263314339
 10
90.83424883796853
 20
-142.8515733149816
 10
90.77413192175092
 20
-142.7024006804702
 10
90.77413192175092
 20
-142.7024006804702
 10
90.87300616217759
 20
-142.6772514834279
 10
90.87300616217759
 20
-142.6772514834279
 10
90.91951495122846
 20
-142.7878390485044
 10
90.98927813480476
 20
-143.0048800640752
 10
91.01442733184709
 20
-143.1423393739366
 10
91.01442733184709
 20
-143.1423393739366
 10
90.90211721902794
 20
-143.167488570979
 10
90.90211721902794
 20
-143.167488570979
 97
        0
 97
        0
 75
     2
 76
     1
 98
        0
  0
SPLINE
  5
7F
330
41
100
AcDbEntity
  8
_U+30EC_U+30A4_U+30E4_U+30FC 1
370
     0
100
AcDbSpline
210
0.0
220
0.0
230
1.0
 70
    11
 71
     3
 72
    41
 73
    37
 74
     0
 42
0.0000000001
 43
0.0000000001
 12
1.0
 22
0.0
 32
0.0
 13
1.0
 23
0.0
 33
0.0
 40
0.0
 40
0.0
 40
0.0
 40
0.0
 40
1.0
 40
1.0
 40
1.0
 40
2.0
 40
2.0
 40
2.0
 40
3.0
 40
3.0
 40
3.0
 40
4.0
 40
4.0
 40
4.0
 40
5.0
 40
5.0
 40
5.0
 40
6.0
 40
6.0
 40
6.0
 40
7.0
 40
7.0
 40
7.0
 40
8.0
 40
8.0
 40
8.0
 40
9.0
 40
9.0
 40
9.0
 40
10.0
 40
10.0
 40
10.0
 40
11.0
 40
11.0
 40
11.0
 40
12.0
 40
12.0
 40
12.0
 40
12.0
 10
93.26631399578065
 20
-142.506719256908
 30
0.0
 10
93.202235219755
 20
-142.8594970345976
 30
0.0
 10
93.05891924756861
 20
-143.1967718826036
 30
0.0
 10
92.8146619776644
 20
-143.4603216872252
 30
0.0
 10
92.55903589265886
 20
-143.7393744215304
 30
0.0
 10
92.22003849691028
 20
-143.8496174770584
 30
0.0
 10
91.91376950827156
 20
-143.9174858581179
 30
0.0
 10
91.91376950827156
 20
-143.9174858581179
 30
0.0
 10
91.86140405689576
 20
-143.8051757452987
 30
0.0
 10
91.86140405689576
 20
-143.8051757452987
 30
0.0
 10
92.19661184761057
 20
-143.7373073642393
 30
0.0
 10
92.48531084927451
 20
-143.6325764614877
 30
0.0
 10
92.72164439956265
 20
-143.3731607714484
 30
0.0
 10
92.91767033267337
 20
-143.1599093609114
 30
0.0
 10
93.05134003750106
 20
-142.898426613581
 30
0.0
 10
93.11714136126933
 20
-142.6152397646934
 30
0.0
 10
93.11714136126933
 20
-142.6152397646934
 30
0.0
 10
92.31684568004579
 20
-142.6152397646934
 30
0.0
 10
92.31684568004579
 20
-142.6152397646934
 30
0.0
 10
92.20453556722664
 20
-142.7644123992047
 30
0.0
 10
92.08051212975765
 20
-142.9235758106233
 30
0.0
 10
91.83625485985344
 20
-143.0941080371431
 30
0.0
 10
91.83625485985344
 20
-143.0941080371431
 30
0.0
 10
91.76631942150287
 20
-142.9990234017503
 30
0.0
 10
91.76631942150287
 20
-142.9990234017503
 30
0.0
 10
91.92720538066403
 20
-142.8825791743488
 30
0.0
 10
92.21797143961912
 20
-142.6521022863856
 30
0.0
 10
92.40400659582261
 20
-142.2162977075015
 30
0.0
 10
92.40400659582261
 20
-142.2162977075015
 30
0.0
 10
92.53388669561653
 20
-142.2355902422189
 30
0.0
 10
92.53388669561653
 20
-142.2355902422189
 30
0.0
 10
92.50288083624929
 20
-142.3034586232783
 30
0.0
 10
92.47359752462467
 20
-142.3730495520803
 30
0.0
 10
92.39057072343014
 20
-142.506719256908
 30
0.0
 10
92.39057072343014
 20
-142.506719256908
 30
0.0
 10
93.26631399578065
 20
-142.506719256908
 30
0.0
 10
93.26631399578065
 20
-142.506719256908
 30
0.0
  0
HATCH
  5
80
330
41
100
AcDbEntity
  8
_U+30EC_U+30A4_U+30E4_U+30FC 1
 62
   179
420
  2234388
100
AcDbHatch
 10
0.0
 20
0.0
 30
0.0
210
0.0
220
0.0
230
1.0
  2
SOLID
 70
     1
 71
     0
 91
        1
 92
        1
 93
        1
 72
     4
 94
        3
 73
     0
 74
     1
 95
       41
 96
       37
 40
0.0
 40
0.0
 40
0.0
 40
0.0
 40
1.0
 40
1.0
 40
1.0
 40
2.0
 40
2.0
 40
2.0
 40
3.0
 40
3.0
 40
3.0
 40
4.0
 40
4.0
 40
4.0
 40
5.0
 40
5.0
 40
5.0
 40
6.0
 40
6.0
 40
6.0
 40
7.0
 40
7.0
 40
7.0
 40
8.0
 40
8.0
 40
8.0
 40
9.0
 40
9.0
 40
9.0
 40
10.0
 40
10.0
 40
10.0
 40
11.0
 40
11.0
 40
11.0
 40
12.0
 40
12.0
 40
12.0
 40
12.0
 10
93.26631399578065
 20
-142.506719256908
 10
93.202235219755
 20
-142.8594970345976
 10
93.05891924756861
 20
-143.1967718826036
 10
92.8146619776644
 20
-143.4603216872252
 10
92.55903589265886
 20
-143.7393744215304
 10
92.22003849691028
 20
-143.8496174770584
 10
91.91376950827156
 20
-143.9174858581179
 10
91.91376950827156
 20
-143.9174858581179
 10
91.86140405689576
 20
-143.8051757452987
 10
91.86140405689576
 20
-143.8051757452987
 10
92.19661184761057
 20
-143.7373073642393
 10
92.48531084927451
 20
-143.6325764614877
 10
92.72164439956265
 20
-143.3731607714484
 10
92.91767033267337
 20
-143.1599093609114
 10
93.05134003750106
 20
-142.898426613581
 10
93.11714136126933
 20
-142.6152397646934
 10
93.11714136126933
 20
-142.6152397646934
 10
92.31684568004579
 20
-142.6152397646934
 10
92.31684568004579
 20
-142.6152397646934
 10
92.20453556722664
 20
-142.7644123992047
 10
92.08051212975765
 20
-142.9235758106233
 10
91.83625485985344
 20
-143.0941080371431
 10
91.83625485985344
 20
-143.0941080371431
 10
91.76631942150287
 20
-142.9990234017503
 10
91.76631942150287
 20
-142.9990234017503
 10
91.92720538066403
 20
-142.8825791743488
 10
92.21797143961912
 20
-142.6521022863856
 10
92.40400659582261
 20
-142.2162977075015
 10
92.40400659582261
 20
-142.2162977075015
 10
92.53388669561653
 20
-142.2355902422189
 10
92.53388669561653
 20
-142.2355902422189
 10
92.50288083624929
 20
-142.3034586232783
 10
92.47359752462467
 20
-142.3730495520803
 10
92.39057072343014
 20
-142.506719256908
 10
92.39057072343014
 20
-142.506719256908
 10
93.26631399578065
 20
-142.506719256908
 10
93.26631399578065
 20
-142.506719256908
 97
        0
 97
        0
 75
     2
 76
     1
 98
        0
  0
ENDBLK
  5
44
330
41
100
AcDbEntity
  8
0
100
AcDbBlockEnd
  0
BLOCK
  5
83
330
81
100
AcDbEntity
  8
0
100
AcDbBlockBegin
  2
block 3
 70
     0
 10
0.0
 20
0.0
 30
0.0
  3
block 3
  1

  0
POLYLINE
  5
85
330
81
100
AcDbEntity
  8
_U+30EC_U+30A4_U+30E4_U+30FC 1
370
     0
100
AcDb2dPolyline
 66
     1
 10
0.0
 20
0.0
 30
0.0
  0
VERTEX
  5
86
330
85
100
AcDbEntity
  8
_U+30EC_U+30A4_U+30E4_U+30FC 1
370
     0
100
AcDbVertex
100
AcDb2dVertex
 10
104.6227267533582
 20
-139.824712421641
 30
0.0
  0
VERTEX
  5
87
330
85
100
AcDbEntity
  8
_U+30EC_U+30A4_U+30E4_U+30FC 1
370
     0
100
AcDbVertex
100
AcDb2dVertex
 10
104.6227267533582
 20
-141.3519232502523
 30
0.0
  0
VERTEX
  5
88
330
85
100
AcDbEntity
  8
_U+30EC_U+30A4_U+30E4_U+30FC 1
370
     0
100
AcDbVertex
100
AcDb2dVertex
 10
104.4911241058217
 20
-141.3519232502523
 30
0.0
  0
VERTEX
  5
89
330
85
100
AcDbEntity
  8
_U+30EC_U+30A4_U+30E4_U+30FC 1
370
     0
100
AcDbVertex
100
AcDb2dVertex
 10
104.4911241058217
 20
-139.9390895917514
 30
0.0
  0
VERTEX
  5
8A
330
85
100
AcDbEntity
  8
_U+30EC_U+30A4_U+30E4_U+30FC 1
370
     0
100
AcDbVertex
100
AcDb2dVertex
 10
104.2079372569341
 20
-139.9390895917514
 30
0.0
  0
VERTEX
  5
8B
330
85
100
AcDbEntity
  8
_U+30EC_U+30A4_U+30E4_U+30FC 1
370
     0
100
AcDbVertex
100
AcDb2dVertex
 10
104.2079372569341
 20
-139.824712421641
 30
0.0
  0
VERTEX
  5
8C
330
85
100
AcDbEntity
  8
_U+30EC_U+30A4_U+30E4_U+30FC 1
370
     0
100
AcDbVertex
100
AcDb2dVertex
 10
104.6227267533582
 20
-139.824712421641
 30
0.0
  0
SEQEND
  5
8D
330
85
100
AcDbEntity
  8
_U+30EC_U+30A4_U+30E4_U+30FC 1
370
     0
  0
HATCH
  5
8E
330
81
100
AcDbEntity
  8
_U+30EC_U+30A4_U+30E4_U+30FC 1
 62
   179
420
  2234388
100
AcDbHatch
 10
0.0
 20
0.0
 30
0.0
210
0.0
220
0.0
230
1.0
  2
SOLID
 70
     1
 71
     0
 91
        1
 92
        1
 93
        6
 72
     1
 10
104.6227267533582
 20
-139.824712421641
 11
104.6227267533582
 21
-141.3519232502523
 72
     1
 10
104.6227267533582
 20
-141.3519232502523
 11
104.4911241058217
 21
-141.3519232502523
 72
     1
 10
104.4911241058217
 20
-141.3519232502523
 11
104.4911241058217
 21
-139.9390895917514
 72
     1
 10
104.4911241058217
 20
-139.9390895917514
 11
104.2079372569341
 21
-139.9390895917514
 72
     1
 10
104.2079372569341
 20
-139.9390895917514
 11
104.2079372569341
 21
-139.824712421641
 72
     1
 10
104.2079372569341
 20
-139.824712421641
 11
104.6227267533582
 21
-139.824712421641
 97
        0
 75
     2
 76
     1
 98
        0
  0
SPLINE
  5
8F
330
81
100
AcDbEntity
  8
_U+30EC_U+30A4_U+30E4_U+30FC 1
370
     0
100
AcDbSpline
210
0.0
220
0.0
230
1.0
 70
    11
 71
     3
 72
    29
 73
    25
 74
     0
 42
0.0000000001
 43
0.0000000001
 12
1.0
 22
0.0
 32
0.0
 13
1.0
 23
0.0
 33
0.0
 40
0.0
 40
0.0
 40
0.0
 40
0.0
 40
1.0
 40
1.0
 40
1.0
 40
2.0
 40
2.0
 40
2.0
 40
3.0
 40
3.0
 40
3.0
 40
4.0
 40
4.0
 40
4.0
 40
5.0
 40
5.0
 40
5.0
 40
6.0
 40
6.0
 40
6.0
 40
7.0
 40
7.0
 40
7.0
 40
8.0
 40
8.0
 40
8.0
 40
8.0
 10
106.5778184412375
 20
-140.9392008111194
 30
0.0
 10
106.5778184412375
 20
-141.2706189968004
 30
0.0
 10
106.3335611713333
 20
-141.3674261799359
 30
0.0
 10
105.9732041835761
 20
-141.3674261799359
 30
0.0
 10
105.5839083937429
 20
-141.3674261799359
 30
0.0
 10
105.3685899259148
 20
-141.2551160671168
 30
0.0
 10
105.3685899259148
 20
-140.9371337538282
 30
0.0
 10
105.3685899259148
 20
-140.8985486843934
 30
0.0
 10
105.3685899259148
 20
-140.623285555122
 30
0.0
 10
105.6417859978951
 20
-140.5495605117376
 30
0.0
 10
105.4130316576745
 20
-140.4779025256444
 30
0.0
 10
105.405452447607
 20
-140.2687852296897
 30
0.0
 10
105.405452447607
 20
-140.2026393963729
 30
0.0
 10
105.405452447607
 20
-139.8481390709408
 30
0.0
 10
105.7175780985706
 20
-139.8095540015059
 30
0.0
 10
105.9732041835761
 20
-139.8095540015059
 30
0.0
 10
106.2384765359404
 20
-139.8095540015059
 30
0.0
 10
106.5388888622542
 20
-139.8557182810083
 30
0.0
 10
106.5388888622542
 20
-140.2026393963729
 30
0.0
 10
106.5388888622542
 20
-140.2687852296897
 30
0.0
 10
106.5313096521866
 20
-140.4779025256444
 30
0.0
 10
106.302555311966
 20
-140.5495605117376
 30
0.0
 10
106.5778184412375
 20
-140.623285555122
 30
0.0
 10
106.5778184412375
 20
-140.8964816271023
 30
0.0
 10
106.5778184412375
 20
-140.9392008111194
 30
0.0
  0
SPLINE
  5
90
330
81
100
AcDbEntity
  8
_U+30EC_U+30A4_U+30E4_U+30FC 1
370
     0
100
AcDbSpline
210
0.0
220
0.0
230
1.0
 70
    11
 71
     3
 72
    17
 73
    13
 74
     0
 42
0.0000000001
 43
0.0000000001
 12
1.0
 22
0.0
 32
0.0
 13
1.0
 23
0.0
 33
0.0
 40
0.0
 40
0.0
 40
0.0
 40
0.0
 40
1.0
 40
1.0
 40
1.0
 40
2.0
 40
2.0
 40
2.0
 40
3.0
 40
3.0
 40
3.0
 40
4.0
 40
4.0
 40
4.0
 40
4.0
 10
105.4984700257087
 20
-140.9392008111194
 30
0.0
 10
105.4984700257087
 20
-141.1755343614075
 30
0.0
 10
105.6417859978951
 20
-141.2530490098256
 30
0.0
 10
105.9732041835761
 20
-141.2530490098256
 30
0.0
 10
106.3259819612657
 20
-141.2530490098256
 30
0.0
 10
106.4458712841524
 20
-141.1620984890151
 30
0.0
 10
106.4458712841524
 20
-140.9333441487944
 30
0.0
 10
106.4458712841524
 20
-140.6601480768141
 30
0.0
 10
106.2308973258728
 20
-140.6136392877633
 30
0.0
 10
105.9732041835761
 20
-140.6136392877633
 30
0.0
 10
105.6769259718447
 20
-140.6136392877633
 30
0.0
 10
105.4984700257087
 20
-140.6815076688227
 30
0.0
 10
105.4984700257087
 20
-140.9392008111194
 30
0.0
  0
SPLINE
  5
91
330
81
100
AcDbEntity
  8
_U+30EC_U+30A4_U+30E4_U+30FC 1
370
     0
100
AcDbSpline
210
0.0
220
0.0
230
1.0
 70
    11
 71
     3
 72
    17
 73
    13
 74
     0
 42
0.0000000001
 43
0.0000000001
 12
1.0
 22
0.0
 32
0.0
 13
1.0
 23
0.0
 33
0.0
 40
0.0
 40
0.0
 40
0.0
 40
0.0
 40
1.0
 40
1.0
 40
1.0
 40
2.0
 40
2.0
 40
2.0
 40
3.0
 40
3.0
 40
3.0
 40
4.0
 40
4.0
 40
4.0
 40
4.0
 10
105.5353325474009
 20
-140.2067735109553
 30
0.0
 10
105.5353325474009
 20
-140.5013291749441
 30
0.0
 10
105.8529703511409
 20
-140.5013291749441
 30
0.0
 10
105.9828504509348
 20
-140.5013291749441
 30
0.0
 10
106.1303005377035
 20
-140.5013291749441
 30
0.0
 10
106.4093532720088
 20
-140.4816921306782
 30
0.0
 10
106.4093532720088
 20
-140.2047064536641
 30
0.0
 10
106.4093532720088
 20
-140.0476100995367
 30
0.0
 10
106.3314941140421
 20
-139.9235866620677
 30
0.0
 10
105.9732041835761
 20
-139.9235866620677
 30
0.0
 10
105.5973442661354
 20
-139.9235866620677
 30
0.0
 10
105.5353325474009
 20
-140.0593234241866
 30
0.0
 10
105.5353325474009
 20
-140.2067735109553
 30
0.0
  0
HATCH
  5
92
330
81
100
AcDbEntity
  8
_U+30EC_U+30A4_U+30E4_U+30FC 1
 62
   179
420
  2234388
100
AcDbHatch
 10
0.0
 20
0.0
 30
0.0
210
0.0
220
0.0
230
1.0
  2
SOLID
 70
     1
 71
     0
 91
        3
 92
        1
 93
        1
 72
     4
 94
        3
 73
     0
 74
     1
 95
       29
 96
       25
 40
0.0
 40
0.0
 40
0.0
 40
0.0
 40
1.0
 40
1.0
 40
1.0
 40
2.0
 40
2.0
 40
2.0
 40
3.0
 40
3.0
 40
3.0
 40
4.0
 40
4.0
 40
4.0
 40
5.0
 40
5.0
 40
5.0
 40
6.0
 40
6.0
 40
6.0
 40
7.0
 40
7.0
 40
7.0
 40
8.0
 40
8.0
 40
8.0
 40
8.0
 10
106.5778184412375
 20
-140.9392008111194
 10
106.5778184412375
 20
-141.2706189968004
 10
106.3335611713333
 20
-141.3674261799359
 10
105.9732041835761
 20
-141.3674261799359
 10
105.5839083937429
 20
-141.3674261799359
 10
105.3685899259148
 20
-141.2551160671168
 10
105.3685899259148
 20
-140.9371337538282
 10
105.3685899259148
 20
-140.8985486843934
 10
105.3685899259148
 20
-140.623285555122
 10
105.6417859978951
 20
-140.5495605117376
 10
105.4130316576745
 20
-140.4779025256444
 10
105.405452447607
 20
-140.2687852296897
 10
105.405452447607
 20
-140.2026393963729
 10
105.405452447607
 20
-139.8481390709408
 10
105.7175780985706
 20
-139.8095540015059
 10
105.9732041835761
 20
-139.8095540015059
 10
106.2384765359404
 20
-139.8095540015059
 10
106.5388888622542
 20
-139.8557182810083
 10
106.5388888622542
 20
-140.2026393963729
 10
106.5388888622542
 20
-140.2687852296897
 10
106.5313096521866
 20
-140.4779025256444
 10
106.302555311966
 20
-140.5495605117376
 10
106.5778184412375
 20
-140.623285555122
 10
106.5778184412375
 20
-140.8964816271023
 10
106.5778184412375
 20
-140.9392008111194
 97
        0
 97
        0
 92
        1
 93
        1
 72
     4
 94
        3
 73
     0
 74
     1
 95
       17
 96
       13
 40
0.0
 40
0.0
 40
0.0
 40
0.0
 40
1.0
 40
1.0
 40
1.0
 40
2.0
 40
2.0
 40
2.0
 40
3.0
 40
3.0
 40
3.0
 40
4.0
 40
4.0
 40
4.0
 40
4.0
 10
105.4984700257087
 20
-140.9392008111194
 10
105.4984700257087
 20
-141.1755343614075
 10
105.6417859978951
 20
-141.2530490098256
 10
105.9732041835761
 20
-141.2530490098256
 10
106.3259819612657
 20
-141.2530490098256
 10
106.4458712841524
 20
-141.1620984890151
 10
106.4458712841524
 20
-140.9333441487944
 10
106.4458712841524
 20
-140.6601480768141
 10
106.2308973258728
 20
-140.6136392877633
 10
105.9732041835761
 20
-140.6136392877633
 10
105.6769259718447
 20
-140.6136392877633
 10
105.4984700257087
 20
-140.6815076688227
 10
105.4984700257087
 20
-140.9392008111194
 97
        0
 97
        0
 92
        1
 93
        1
 72
     4
 94
        3
 73
     0
 74
     1
 95
       17
 96
       13
 40
0.0
 40
0.0
 40
0.0
 40
0.0
 40
1.0
 40
1.0
 40
1.0
 40
2.0
 40
2.0
 40
2.0
 40
3.0
 40
3.0
 40
3.0
 40
4.0
 40
4.0
 40
4.0
 40
4.0
 10
105.5353325474009
 20
-140.2067735109553
 10
105.5353325474009
 20
-140.5013291749441
 10
105.8529703511409
 20
-140.5013291749441
 10
105.9828504509348
 20
-140.5013291749441
 10
106.1303005377035
 20
-140.5013291749441
 10
106.4093532720088
 20
-140.4816921306782
 10
106.4093532720088
 20
-140.2047064536641
 10
106.4093532720088
 20
-140.0476100995367
 10
106.3314941140421
 20
-139.9235866620677
 10
105.9732041835761
 20
-139.9235866620677
 10
105.5973442661354
 20
-139.9235866620677
 10
105.5353325474009
 20
-140.0593234241866
 10
105.5353325474009
 20
-140.2067735109553
 97
        0
 97
        0
 75
     2
 76
     1
 98
        0
  0
POLYLINE
  5
93
330
81
100
AcDbEntity
  8
_U+30EC_U+30A4_U+30E4_U+30FC 1
370
     0
100
AcDb2dPolyline
 66
     1
 10
0.0
 20
0.0
 30
0.0
  0
VERTEX
  5
94
330
93
100
AcDbEntity
  8
_U+30EC_U+30A4_U+30E4_U+30FC 1
370
     0
100
AcDbVertex
100
AcDb2dVertex
 10
107.5193630373563
 20
-140.210563115989
 30
0.0
  0
VERTEX
  5
95
330
93
100
AcDbEntity
  8
_U+30EC_U+30A4_U+30E4_U+30FC 1
370
     0
100
AcDbVertex
100
AcDb2dVertex
 10
107.6957519262011
 20
-140.210563115989
 30
0.0
  0
VERTEX
  5
96
330
93
100
AcDbEntity
  8
_U+30EC_U+30A4_U+30E4_U+30FC 1
370
     0
100
AcDbVertex
100
AcDb2dVertex
 10
107.1183539228732
 20
-140.741452330266
 30
0.0
  0
VERTEX
  5
97
330
93
100
AcDbEntity
  8
_U+30EC_U+30A4_U+30E4_U+30FC 1
370
     0
100
AcDbVertex
100
AcDb2dVertex
 10
107.7556965876444
 20
-141.3519232502523
 30
0.0
  0
VERTEX
  5
98
330
93
100
AcDbEntity
  8
_U+30EC_U+30A4_U+30E4_U+30FC 1
370
     0
100
AcDbVertex
100
AcDb2dVertex
 10
107.577585151057
 20
-141.3519232502523
 30
0.0
  0
VERTEX
  5
99
330
93
100
AcDbEntity
  8
_U+30EC_U+30A4_U+30E4_U+30FC 1
370
     0
100
AcDbVertex
100
AcDb2dVertex
 10
106.9805501034632
 20
-140.7569552599496
 30
0.0
  0
VERTEX
  5
9A
330
93
100
AcDbEntity
  8
_U+30EC_U+30A4_U+30E4_U+30FC 1
370
     0
100
AcDbVertex
100
AcDb2dVertex
 10
106.9805501034632
 20
-141.3519232502523
 30
0.0
  0
VERTEX
  5
9B
330
93
100
AcDbEntity
  8
_U+30EC_U+30A4_U+30E4_U+30FC 1
370
     0
100
AcDbVertex
100
AcDb2dVertex
 10
106.8585937232854
 20
-141.3519232502523
 30
0.0
  0
VERTEX
  5
9C
330
93
100
AcDbEntity
  8
_U+30EC_U+30A4_U+30E4_U+30FC 1
370
     0
100
AcDbVertex
100
AcDb2dVertex
 10
106.8585937232854
 20
-139.824712421641
 30
0.0
  0
VERTEX
  5
9D
330
93
100
AcDbEntity
  8
_U+30EC_U+30A4_U+30E4_U+30FC 1
370
     0
100
AcDbVertex
100
AcDb2dVertex
 10
106.9805501034632
 20
-139.824712421641
 30
0.0
  0
VERTEX
  5
9E
330
93
100
AcDbEntity
  8
_U+30EC_U+30A4_U+30E4_U+30FC 1
370
     0
100
AcDbVertex
100
AcDb2dVertex
 10
106.9805501034632
 20
-140.7259494005824
 30
0.0
  0
VERTEX
  5
9F
330
93
100
AcDbEntity
  8
_U+30EC_U+30A4_U+30E4_U+30FC 1
370
     0
100
AcDbVertex
100
AcDb2dVertex
 10
107.5193630373563
 20
-140.210563115989
 30
0.0
  0
SEQEND
  5
A0
330
93
100
AcDbEntity
  8
_U+30EC_U+30A4_U+30E4_U+30FC 1
370
     0
  0
HATCH
  5
A1
330
81
100
AcDbEntity
  8
_U+30EC_U+30A4_U+30E4_U+30FC 1
 62
   179
420
  2234388
100
AcDbHatch
 10
0.0
 20
0.0
 30
0.0
210
0.0
220
0.0
230
1.0
  2
SOLID
 70
     1
 71
     0
 91
        1
 92
        1
 93
       11
 72
     1
 10
107.5193630373563
 20
-140.210563115989
 11
107.6957519262011
 21
-140.210563115989
 72
     1
 10
107.6957519262011
 20
-140.210563115989
 11
107.1183539228732
 21
-140.741452330266
 72
     1
 10
107.1183539228732
 20
-140.741452330266
 11
107.7556965876444
 21
-141.3519232502523
 72
     1
 10
107.7556965876444
 20
-141.3519232502523
 11
107.577585151057
 21
-141.3519232502523
 72
     1
 10
107.577585151057
 20
-141.3519232502523
 11
106.9805501034632
 21
-140.7569552599496
 72
     1
 10
106.9805501034632
 20
-140.7569552599496
 11
106.9805501034632
 21
-141.3519232502523
 72
     1
 10
106.9805501034632
 20
-141.3519232502523
 11
106.8585937232854
 21
-141.3519232502523
 72
     1
 10
106.8585937232854
 20
-141.3519232502523
 11
106.8585937232854
 21
-139.824712421641
 72
     1
 10
106.8585937232854
 20
-139.824712421641
 11
106.9805501034632
 21
-139.824712421641
 72
     1
 10
106.9805501034632
 20
-139.824712421641
 11
106.9805501034632
 21
-140.7259494005824
 72
     1
 10
106.9805501034632
 20
-140.7259494005824
 11
107.5193630373563
 21
-140.210563115989
 97
        0
 75
     2
 76
     1
 98
        0
  0
SPLINE
  5
A2
330
81
100
AcDbEntity
  8
_U+30EC_U+30A4_U+30E4_U+30FC 1
370
     0
100
AcDbSpline
210
0.0
220
0.0
230
1.0
 70
    11
 71
     3
 72
    59
 73
    55
 74
     0
 42
0.0000000001
 43
0.0000000001
 12
1.0
 22
0.0
 32
0.0
 13
1.0
 23
0.0
 33
0.0
 40
0.0
 40
0.0
 40
0.0
 40
0.0
 40
1.0
 40
1.0
 40
1.0
 40
2.0
 40
2.0
 40
2.0
 40
3.0
 40
3.0
 40
3.0
 40
4.0
 40
4.0
 40
4.0
 40
5.0
 40
5.0
 40
5.0
 40
6.0
 40
6.0
 40
6.0
 40
7.0
 40
7.0
 40
7.0
 40
8.0
 40
8.0
 40
8.0
 40
9.0
 40
9.0
 40
9.0
 40
10.0
 40
10.0
 40
10.0
 40
11.0
 40
11.0
 40
11.0
 40
12.0
 40
12.0
 40
12.0
 40
13.0
 40
13.0
 40
13.0
 40
14.0
 40
14.0
 40
14.0
 40
15.0
 40
15.0
 40
15.0
 40
16.0
 40
16.0
 40
16.0
 40
17.0
 40
17.0
 40
17.0
 40
18.0
 40
18.0
 40
18.0
 40
18.0
 10
109.0441622991278
 20
-140.2784314970484
 30
0.0
 10
108.9335747340513
 20
-140.2842881593734
 30
0.0
 10
108.9063584797179
 20
-140.2956569744747
 30
0.0
 10
108.8732855630595
 20
-140.3576686932092
 30
0.0
 10
108.8967122123592
 20
-140.3965982721925
 30
0.0
 10
108.9180718043677
 20
-140.4276041315598
 30
0.0
 10
108.9180718043677
 20
-140.5226887669527
 30
0.0
 10
108.9180718043677
 20
-140.8403265706927
 30
0.0
 10
108.6758815917546
 20
-140.8692653727688
 30
0.0
 10
108.4626301812177
 20
-140.8692653727688
 30
0.0
 10
108.2920979546978
 20
-140.8692653727688
 30
0.0
 10
108.1815103896213
 20
-140.8499728380514
 30
0.0
 10
108.1139865181104
 20
-140.7996744439668
 30
0.0
 10
108.0519747993759
 20
-140.8344699083678
 30
0.0
 10
108.0285481500762
 20
-140.8637532199924
 30
0.0
 10
108.0285481500762
 20
-140.9081949517521
 30
0.0
 10
108.0285481500762
 20
-140.9819199951365
 30
0.0
 10
108.0943494738445
 20
-141.0050021348876
 30
0.0
 10
108.1525715875452
 20
-141.0087917399214
 30
0.0
 10
108.1525715875452
 20
-141.0087917399214
 30
0.0
 10
108.6641682671048
 20
-141.0397975992887
 30
0.0
 10
108.6641682671048
 20
-141.0397975992887
 30
0.0
 10
108.9005018173929
 20
-141.0535779812297
 30
0.0
 10
108.9973090005285
 20
-141.1465955593314
 30
0.0
 10
108.9973090005285
 20
-141.3112711235264
 30
0.0
 10
108.9973090005285
 20
-141.561040546207
 30
0.0
 10
108.7881917045738
 20
-141.6116834498401
 30
0.0
 10
108.4588405761839
 20
-141.6116834498401
 30
0.0
 10
108.107785346237
 20
-141.6116834498401
 30
0.0
 10
107.9007351075734
 20
-141.5572509411732
 30
0.0
 10
107.9007351075734
 20
-141.3288411105011
 30
0.0
 10
107.9007351075734
 20
-141.1755343614075
 30
0.0
 10
107.9996093480001
 20
-141.1214463622891
 30
0.0
 10
108.0361273601438
 20
-141.1018093180232
 30
0.0
 10
107.9375976292656
 20
-141.0728705159471
 30
0.0
 10
107.9141709799659
 20
-140.9836425428791
 30
0.0
 10
107.9141709799659
 20
-140.9295545437607
 30
0.0
 10
107.9141709799659
 20
-140.8365369656589
 30
0.0
 10
107.9644693740506
 20
-140.7607448649834
 30
0.0
 10
108.0616210667346
 20
-140.7493760498821
 30
0.0
 10
108.0013318957427
 20
-140.6794406115315
 30
0.0
 10
107.991685628384
 20
-140.5943467530459
 30
0.0
 10
107.991685628384
 20
-140.5282009197291
 30
0.0
 10
107.991685628384
 20
-140.2725748347235
 30
0.0
 10
108.1680745172288
 20
-140.1950601863054
 30
0.0
 10
108.4471272515341
 20
-140.1950601863054
 30
0.0
 10
108.5615044216444
 20
-140.1950601863054
 30
0.0
 10
108.7261799858393
 20
-140.2047064536641
 30
0.0
 10
108.8057616915486
 20
-140.2822211020822
 30
0.0
 10
108.8271212835571
 20
-140.2377793703225
 30
0.0
 10
108.859849690667
 20
-140.1678439319719
 30
0.0
 10
109.0441622991278
 20
-140.161987269647
 30
0.0
 10
109.0441622991278
 20
-140.161987269647
 30
0.0
 10
109.0441622991278
 20
-140.2784314970484
 30
0.0
 10
109.0441622991278
 20
-140.2784314970484
 30
0.0
  0
SPLINE
  5
A3
330
81
100
AcDbEntity
  8
_U+30EC_U+30A4_U+30E4_U+30FC 1
370
     0
100
AcDbSpline
210
0.0
220
0.0
230
1.0
 70
    11
 71
     3
 72
    20
 73
    16
 74
     0
 42
0.0000000001
 43
0.0000000001
 12
1.0
 22
0.0
 32
0.0
 13
1.0
 23
0.0
 33
0.0
 40
0.0
 40
0.0
 40
0.0
 40
0.0
 40
1.0
 40
1.0
 40
1.0
 40
2.0
 40
2.0
 40
2.0
 40
3.0
 40
3.0
 40
3.0
 40
4.0
 40
4.0
 40
4.0
 40
5.0
 40
5.0
 40
5.0
 40
5.0
 10
108.1973578288534
 20
-141.1214463622891
 30
0.0
 10
108.19115665698
 20
-141.1214463622891
 30
0.0
 10
108.0147677681352
 20
-141.1386718397153
 30
0.0
 10
108.0147677681352
 20
-141.3074815184926
 30
0.0
 10
108.0147677681352
 20
-141.444940828354
 30
0.0
 10
108.0847032064858
 20
-141.4990288274725
 30
0.0
 10
108.4588405761839
 20
-141.4990288274725
 30
0.0
 10
108.7940483668987
 20
-141.4990288274725
 30
0.0
 10
108.8753526203506
 20
-141.4352945609953
 30
0.0
 10
108.8753526203506
 20
-141.3150607285601
 30
0.0
 10
108.8753526203506
 20
-141.1776014186987
 30
0.0
 10
108.7668321125652
 20
-141.1562418266901
 30
0.0
 10
108.5673610839693
 20
-141.1445285020403
 30
0.0
 10
108.5673610839693
 20
-141.1445285020403
 30
0.0
 10
108.1973578288534
 20
-141.1214463622891
 30
0.0
 10
108.1973578288534
 20
-141.1214463622891
 30
0.0
  0
SPLINE
  5
A4
330
81
100
AcDbEntity
  8
_U+30EC_U+30A4_U+30E4_U+30FC 1
370
     0
100
AcDbSpline
210
0.0
220
0.0
230
1.0
 70
    11
 71
     3
 72
    17
 73
    13
 74
     0
 42
0.0000000001
 43
0.0000000001
 12
1.0
 22
0.0
 32
0.0
 13
1.0
 23
0.0
 33
0.0
 40
0.0
 40
0.0
 40
0.0
 40
0.0
 40
1.0
 40
1.0
 40
1.0
 40
2.0
 40
2.0
 40
2.0
 40
3.0
 40
3.0
 40
3.0
 40
4.0
 40
4.0
 40
4.0
 40
4.0
 10
108.1139865181104
 20
-140.5437038494127
 30
0.0
 10
108.1139865181104
 20
-140.7163031332237
 30
0.0
 10
108.2242295736384
 20
-140.7569552599496
 30
0.0
 10
108.4588405761839
 20
-140.7569552599496
 30
0.0
 10
108.6989637315058
 20
-140.7569552599496
 30
0.0
 10
108.7978379719325
 20
-140.7087239231562
 30
0.0
 10
108.7978379719325
 20
-140.5206217096615
 30
0.0
 10
108.7978379719325
 20
-140.4062445395512
 30
0.0
 10
108.7492621255905
 20
-140.3056477513819
 30
0.0
 10
108.452983913859
 20
-140.3056477513819
 30
0.0
 10
108.2204399686046
 20
-140.3056477513819
 30
0.0
 10
108.1139865181104
 20
-140.3462998781079
 30
0.0
 10
108.1139865181104
 20
-140.5437038494127
 30
0.0
  0
HATCH
  5
A5
330
81
100
AcDbEntity
  8
_U+30EC_U+30A4_U+30E4_U+30FC 1
 62
   179
420
  2234388
100
AcDbHatch
 10
0.0
 20
0.0
 30
0.0
210
0.0
220
0.0
230
1.0
  2
SOLID
 70
     1
 71
     0
 91
        3
 92
        1
 93
        1
 72
     4
 94
        3
 73
     0
 74
     1
 95
       59
 96
       55
 40
0.0
 40
0.0
 40
0.0
 40
0.0
 40
1.0
 40
1.0
 40
1.0
 40
2.0
 40
2.0
 40
2.0
 40
3.0
 40
3.0
 40
3.0
 40
4.0
 40
4.0
 40
4.0
 40
5.0
 40
5.0
 40
5.0
 40
6.0
 40
6.0
 40
6.0
 40
7.0
 40
7.0
 40
7.0
 40
8.0
 40
8.0
 40
8.0
 40
9.0
 40
9.0
 40
9.0
 40
10.0
 40
10.0
 40
10.0
 40
11.0
 40
11.0
 40
11.0
 40
12.0
 40
12.0
 40
12.0
 40
13.0
 40
13.0
 40
13.0
 40
14.0
 40
14.0
 40
14.0
 40
15.0
 40
15.0
 40
15.0
 40
16.0
 40
16.0
 40
16.0
 40
17.0
 40
17.0
 40
17.0
 40
18.0
 40
18.0
 40
18.0
 40
18.0
 10
109.0441622991278
 20
-140.2784314970484
 10
108.9335747340513
 20
-140.2842881593734
 10
108.9063584797179
 20
-140.2956569744747
 10
108.8732855630595
 20
-140.3576686932092
 10
108.8967122123592
 20
-140.3965982721925
 10
108.9180718043677
 20
-140.4276041315598
 10
108.9180718043677
 20
-140.5226887669527
 10
108.9180718043677
 20
-140.8403265706927
 10
108.6758815917546
 20
-140.8692653727688
 10
108.4626301812177
 20
-140.8692653727688
 10
108.2920979546978
 20
-140.8692653727688
 10
108.1815103896213
 20
-140.8499728380514
 10
108.1139865181104
 20
-140.7996744439668
 10
108.0519747993759
 20
-140.8344699083678
 10
108.0285481500762
 20
-140.8637532199924
 10
108.0285481500762
 20
-140.9081949517521
 10
108.0285481500762
 20
-140.9819199951365
 10
108.0943494738445
 20
-141.0050021348876
 10
108.1525715875452
 20
-141.0087917399214
 10
108.1525715875452
 20
-141.0087917399214
 10
108.6641682671048
 20
-141.0397975992887
 10
108.6641682671048
 20
-141.0397975992887
 10
108.9005018173929
 20
-141.0535779812297
 10
108.9973090005285
 20
-141.1465955593314
 10
108.9973090005285
 20
-141.3112711235264
 10
108.9973090005285
 20
-141.561040546207
 10
108.7881917045738
 20
-141.6116834498401
 10
108.4588405761839
 20
-141.6116834498401
 10
108.107785346237
 20
-141.6116834498401
 10
107.9007351075734
 20
-141.5572509411732
 10
107.9007351075734
 20
-141.3288411105011
 10
107.9007351075734
 20
-141.1755343614075
 10
107.9996093480001
 20
-141.1214463622891
 10
108.0361273601438
 20
-141.1018093180232
 10
107.9375976292656
 20
-141.0728705159471
 10
107.9141709799659
 20
-140.9836425428791
 10
107.9141709799659
 20
-140.9295545437607
 10
107.9141709799659
 20
-140.8365369656589
 10
107.9644693740506
 20
-140.7607448649834
 10
108.0616210667346
 20
-140.7493760498821
 10
108.0013318957427
 20
-140.6794406115315
 10
107.991685628384
 20
-140.5943467530459
 10
107.991685628384
 20
-140.5282009197291
 10
107.991685628384
 20
-140.2725748347235
 10
108.1680745172288
 20
-140.1950601863054
 10
108.4471272515341
 20
-140.1950601863054
 10
108.5615044216444
 20
-140.1950601863054
 10
108.7261799858393
 20
-140.2047064536641
 10
108.8057616915486
 20
-140.2822211020822
 10
108.8271212835571
 20
-140.2377793703225
 10
108.859849690667
 20
-140.1678439319719
 10
109.0441622991278
 20
-140.161987269647
 10
109.0441622991278
 20
-140.161987269647
 10
109.0441622991278
 20
-140.2784314970484
 10
109.0441622991278
 20
-140.2784314970484
 97
        0
 97
        0
 92
        1
 93
        1
 72
     4
 94
        3
 73
     0
 74
     1
 95
       20
 96
       16
 40
0.0
 40
0.0
 40
0.0
 40
0.0
 40
1.0
 40
1.0
 40
1.0
 40
2.0
 40
2.0
 40
2.0
 40
3.0
 40
3.0
 40
3.0
 40
4.0
 40
4.0
 40
4.0
 40
5.0
 40
5.0
 40
5.0
 40
5.0
 10
108.1973578288534
 20
-141.1214463622891
 10
108.19115665698
 20
-141.1214463622891
 10
108.0147677681352
 20
-141.1386718397153
 10
108.0147677681352
 20
-141.3074815184926
 10
108.0147677681352
 20
-141.444940828354
 10
108.0847032064858
 20
-141.4990288274725
 10
108.4588405761839
 20
-141.4990288274725
 10
108.7940483668987
 20
-141.4990288274725
 10
108.8753526203506
 20
-141.4352945609953
 10
108.8753526203506
 20
-141.3150607285601
 10
108.8753526203506
 20
-141.1776014186987
 10
108.7668321125652
 20
-141.1562418266901
 10
108.5673610839693
 20
-141.1445285020403
 10
108.5673610839693
 20
-141.1445285020403
 10
108.1973578288534
 20
-141.1214463622891
 10
108.1973578288534
 20
-141.1214463622891
 97
        0
 97
        0
 92
        1
 93
        1
 72
     4
 94
        3
 73
     0
 74
     1
 95
       17
 96
       13
 40
0.0
 40
0.0
 40
0.0
 40
0.0
 40
1.0
 40
1.0
 40
1.0
 40
2.0
 40
2.0
 40
2.0
 40
3.0
 40
3.0
 40
3.0
 40
4.0
 40
4.0
 40
4.0
 40
4.0
 10
108.1139865181104
 20
-140.5437038494127
 10
108.1139865181104
 20
-140.7163031332237
 10
108.2242295736384
 20
-140.7569552599496
 10
108.4588405761839
 20
-140.7569552599496
 10
108.6989637315058
 20
-140.7569552599496
 10
108.7978379719325
 20
-140.7087239231562
 10
108.7978379719325
 20
-140.5206217096615
 10
108.7978379719325
 20
-140.4062445395512
 10
108.7492621255905
 20
-140.3056477513819
 10
108.452983913859
 20
-140.3056477513819
 10
108.2204399686046
 20
-140.3056477513819
 10
108.1139865181104
 20
-140.3462998781079
 10
108.1139865181104
 20
-140.5437038494127
 97
        0
 97
        0
 75
     2
 76
     1
 98
        0
  0
ENDBLK
  5
84
330
81
100
AcDbEntity
  8
0
100
AcDbBlockEnd
  0
BLOCK
  5
A8
330
A6
100
AcDbEntity
  8
0
100
AcDbBlockBegin
  2
block 4
 70
     0
 10
0.0
 20
0.0
 30
0.0
  3
block 4
  1

  0
SPLINE
  5
AA
330
A6
100
AcDbEntity
  8
_U+30EC_U+30A4_U+30E4_U+30FC 1
370
     0
100
AcDbSpline
210
0.0
220
0.0
230
1.0
 70
    11
 71
     3
 72
    50
 73
    46
 74
     0
 42
0.0000000001
 43
0.0000000001
 12
1.0
 22
0.0
 32
0.0
 13
1.0
 23
0.0
 33
0.0
 40
0.0
 40
0.0
 40
0.0
 40
0.0
 40
1.0
 40
1.0
 40
1.0
 40
2.0
 40
2.0
 40
2.0
 40
3.0
 40
3.0
 40
3.0
 40
4.0
 40
4.0
 40
4.0
 40
5.0
 40
5.0
 40
5.0
 40
6.0
 40
6.0
 40
6.0
 40
7.0
 40
7.0
 40
7.0
 40
8.0
 40
8.0
 40
8.0
 40
9.0
 40
9.0
 40
9.0
 40
10.0
 40
10.0
 40
10.0
 40
11.0
 40
11.0
 40
11.0
 40
12.0
 40
12.0
 40
12.0
 40
13.0
 40
13.0
 40
13.0
 40
14.0
 40
14.0
 40
14.0
 40
15.0
 40
15.0
 40
15.0
 40
15.0
 10
71.50984698733087
 20
-139.824712421641
 30
0.0
 10
71.50984698733087
 20
-139.824712421641
 30
0.0
 10
71.50984698733087
 20
-139.9390895917514
 30
0.0
 10
71.50984698733087
 20
-139.9390895917514
 30
0.0
 10
71.50984698733087
 20
-139.9390895917514
 30
0.0
 10
70.57967120631342
 20
-139.9390895917514
 30
0.0
 10
70.57967120631342
 20
-139.9390895917514
 30
0.0
 10
70.57967120631342
 20
-139.9390895917514
 30
0.0
 10
70.56623533392094
 20
-140.4682562582857
 30
0.0
 10
70.56623533392094
 20
-140.4682562582857
 30
0.0
 10
70.62428519284741
 20
-140.4138237496188
 30
0.0
 10
70.71351316591537
 20
-140.3307969484243
 30
0.0
 10
71.0041069700962
 20
-140.3307969484243
 30
0.0
 10
71.18428546397476
 20
-140.3307969484243
 30
0.0
 10
71.56996390354848
 20
-140.3500894831417
 30
0.0
 10
71.56996390354848
 20
-140.8479057807602
 30
0.0
 10
71.56996390354848
 20
-141.2241102077495
 30
0.0
 10
71.3723876774694
 20
-141.3674261799359
 30
0.0
 10
70.97895777305388
 20
-141.3674261799359
 30
0.0
 10
70.44221189645195
 20
-141.3674261799359
 30
0.0
 10
70.40534937475978
 20
-141.0883734456307
 30
0.0
 10
70.39949271243485
 20
-140.900271232136
 30
0.0
 10
70.39949271243485
 20
-140.900271232136
 30
0.0
 10
70.52937281222877
 20
-140.900271232136
 30
0.0
 10
70.52937281222877
 20
-140.900271232136
 30
0.0
 10
70.53316241726255
 20
-141.0535779812297
 30
0.0
 10
70.53712427707059
 20
-141.2530490098256
 30
0.0
 10
70.98085257557076
 20
-141.2530490098256
 30
0.0
 10
71.29280597176013
 20
-141.2530490098256
 30
0.0
 10
71.44025605852883
 20
-141.1562418266901
 30
0.0
 10
71.44025605852883
 20
-140.8675428250262
 30
0.0
 10
71.44025605852883
 20
-140.6270751601557
 30
0.0
 10
71.37428247998629
 20
-140.444829608986
 30
0.0
 10
71.01771509726294
 20
-140.444829608986
 30
0.0
 10
70.70179984126553
 20
-140.444829608986
 30
0.0
 10
70.6261799953643
 20
-140.5323350343114
 30
0.0
 10
70.5641682766298
 20
-140.6425780898394
 30
0.0
 10
70.5641682766298
 20
-140.6425780898394
 30
0.0
 10
70.4401448391608
 20
-140.6425780898394
 30
0.0
 10
70.4401448391608
 20
-140.6425780898394
 30
0.0
 10
70.4401448391608
 20
-140.6425780898394
 30
0.0
 10
70.45375296632754
 20
-139.824712421641
 30
0.0
 10
70.45375296632754
 20
-139.824712421641
 30
0.0
 10
70.45375296632754
 20
-139.824712421641
 30
0.0
 10
71.50984698733087
 20
-139.824712421641
 30
0.0
 10
71.50984698733087
 20
-139.824712421641
 30
0.0
  0
HATCH
  5
AB
330
A6
100
AcDbEntity
  8
_U+30EC_U+30A4_U+30E4_U+30FC 1
 62
   179
420
  2234388
100
AcDbHatch
 10
0.0
 20
0.0
 30
0.0
210
0.0
220
0.0
230
1.0
  2
SOLID
 70
     1
 71
     0
 91
        1
 92
        1
 93
        1
 72
     4
 94
        3
 73
     0
 74
     1
 95
       50
 96
       46
 40
0.0
 40
0.0
 40
0.0
 40
0.0
 40
1.0
 40
1.0
 40
1.0
 40
2.0
 40
2.0
 40
2.0
 40
3.0
 40
3.0
 40
3.0
 40
4.0
 40
4.0
 40
4.0
 40
5.0
 40
5.0
 40
5.0
 40
6.0
 40
6.0
 40
6.0
 40
7.0
 40
7.0
 40
7.0
 40
8.0
 40
8.0
 40
8.0
 40
9.0
 40
9.0
 40
9.0
 40
10.0
 40
10.0
 40
10.0
 40
11.0
 40
11.0
 40
11.0
 40
12.0
 40
12.0
 40
12.0
 40
13.0
 40
13.0
 40
13.0
 40
14.0
 40
14.0
 40
14.0
 40
15.0
 40
15.0
 40
15.0
 40
15.0
 10
71.50984698733087
 20
-139.824712421641
 10
71.50984698733087
 20
-139.824712421641
 10
71.50984698733087
 20
-139.9390895917514
 10
71.50984698733087
 20
-139.9390895917514
 10
71.50984698733087
 20
-139.9390895917514
 10
70.57967120631342
 20
-139.9390895917514
 10
70.57967120631342
 20
-139.9390895917514
 10
70.57967120631342
 20
-139.9390895917514
 10
70.56623533392094
 20
-140.4682562582857
 10
70.56623533392094
 20
-140.4682562582857
 10
70.62428519284741
 20
-140.4138237496188
 10
70.71351316591537
 20
-140.3307969484243
 10
71.0041069700962
 20
-140.3307969484243
 10
71.18428546397476
 20
-140.3307969484243
 10
71.56996390354848
 20
-140.3500894831417
 10
71.56996390354848
 20
-140.8479057807602
 10
71.56996390354848
 20
-141.2241102077495
 10
71.3723876774694
 20
-141.3674261799359
 10
70.97895777305388
 20
-141.3674261799359
 10
70.44221189645195
 20
-141.3674261799359
 10
70.40534937475978
 20
-141.0883734456307
 10
70.39949271243485
 20
-140.900271232136
 10
70.39949271243485
 20
-140.900271232136
 10
70.52937281222877
 20
-140.900271232136
 10
70.52937281222877
 20
-140.900271232136
 10
70.53316241726255
 20
-141.0535779812297
 10
70.53712427707059
 20
-141.2530490098256
 10
70.98085257557076
 20
-141.2530490098256
 10
71.29280597176013
 20
-141.2530490098256
 10
71.44025605852883
 20
-141.1562418266901
 10
71.44025605852883
 20
-140.8675428250262
 10
71.44025605852883
 20
-140.6270751601557
 10
71.37428247998629
 20
-140.444829608986
 10
71.01771509726294
 20
-140.444829608986
 10
70.70179984126553
 20
-140.444829608986
 10
70.6261799953643
 20
-140.5323350343114
 10
70.5641682766298
 20
-140.6425780898394
 10
70.5641682766298
 20
-140.6425780898394
 10
70.4401448391608
 20
-140.6425780898394
 10
70.4401448391608
 20
-140.6425780898394
 10
70.4401448391608
 20
-140.6425780898394
 10
70.45375296632754
 20
-139.824712421641
 10
70.45375296632754
 20
-139.824712421641
 10
70.45375296632754
 20
-139.824712421641
 10
71.50984698733087
 20
-139.824712421641
 10
71.50984698733087
 20
-139.824712421641
 97
        0
 97
        0
 75
     2
 76
     1
 98
        0
  0
POLYLINE
  5
AC
330
A6
100
AcDbEntity
  8
_U+30EC_U+30A4_U+30E4_U+30FC 1
370
     0
100
AcDb2dPolyline
 66
     1
 10
0.0
 20
0.0
 30
0.0
  0
VERTEX
  5
AD
330
AC
100
AcDbEntity
  8
_U+30EC_U+30A4_U+30E4_U+30FC 1
370
     0
100
AcDbVertex
100
AcDb2dVertex
 10
72.53304034645008
 20
-140.210563115989
 30
0.0
  0
VERTEX
  5
AE
330
AC
100
AcDbEntity
  8
_U+30EC_U+30A4_U+30E4_U+30FC 1
370
     0
100
AcDbVertex
100
AcDb2dVertex
 10
72.7092569805206
 20
-140.210563115989
 30
0.0
  0
VERTEX
  5
AF
330
AC
100
AcDbEntity
  8
_U+30EC_U+30A4_U+30E4_U+30FC 1
370
     0
100
AcDbVertex
100
AcDb2dVertex
 10
72.13185897719273
 20
-140.741452330266
 30
0.0
  0
VERTEX
  5
B0
330
AC
100
AcDbEntity
  8
_U+30EC_U+30A4_U+30E4_U+30FC 1
370
     0
100
AcDbVertex
100
AcDb2dVertex
 10
72.76937389673822
 20
-141.3519232502523
 30
0.0
  0
VERTEX
  5
B1
330
AC
100
AcDbEntity
  8
_U+30EC_U+30A4_U+30E4_U+30FC 1
370
     0
100
AcDbVertex
100
AcDb2dVertex
 10
72.59109020537653
 20
-141.3519232502523
 30
0.0
  0
VERTEX
  5
B2
330
AC
100
AcDbEntity
  8
_U+30EC_U+30A4_U+30E4_U+30FC 1
370
     0
100
AcDbVertex
100
AcDb2dVertex
 10
71.994227412557
 20
-140.7569552599496
 30
0.0
  0
VERTEX
  5
B3
330
AC
100
AcDbEntity
  8
_U+30EC_U+30A4_U+30E4_U+30FC 1
370
     0
100
AcDbVertex
100
AcDb2dVertex
 10
71.994227412557
 20
-141.3519232502523
 30
0.0
  0
VERTEX
  5
B4
330
AC
100
AcDbEntity
  8
_U+30EC_U+30A4_U+30E4_U+30FC 1
370
     0
100
AcDbVertex
100
AcDb2dVertex
 10
71.87209877760489
 20
-141.3519232502523
 30
0.0
  0
VERTEX
  5
B5
330
AC
100
AcDbEntity
  8
_U+30EC_U+30A4_U+30E4_U+30FC 1
370
     0
100
AcDbVertex
100
AcDb2dVertex
 10
71.87209877760489
 20
-139.824712421641
 30
0.0
  0
VERTEX
  5
B6
330
AC
100
AcDbEntity
  8
_U+30EC_U+30A4_U+30E4_U+30FC 1
370
     0
100
AcDbVertex
100
AcDb2dVertex
 10
71.994227412557
 20
-139.824712421641
 30
0.0
  0
VERTEX
  5
B7
330
AC
100
AcDbEntity
  8
_U+30EC_U+30A4_U+30E4_U+30FC 1
370
     0
100
AcDbVertex
100
AcDb2dVertex
 10
71.994227412557
 20
-140.7259494005824
 30
0.0
  0
VERTEX
  5
B8
330
AC
100
AcDbEntity
  8
_U+30EC_U+30A4_U+30E4_U+30FC 1
370
     0
100
AcDbVertex
100
AcDb2dVertex
 10
72.53304034645008
 20
-140.210563115989
 30
0.0
  0
SEQEND
  5
B9
330
AC
100
AcDbEntity
  8
_U+30EC_U+30A4_U+30E4_U+30FC 1
370
     0
  0
HATCH
  5
BA
330
A6
100
AcDbEntity
  8
_U+30EC_U+30A4_U+30E4_U+30FC 1
 62
   179
420
  2234388
100
AcDbHatch
 10
0.0
 20
0.0
 30
0.0
210
0.0
220
0.0
230
1.0
  2
SOLID
 70
     1
 71
     0
 91
        1
 92
        1
 93
       11
 72
     1
 10
72.53304034645008
 20
-140.210563115989
 11
72.7092569805206
 21
-140.210563115989
 72
     1
 10
72.7092569805206
 20
-140.210563115989
 11
72.13185897719273
 21
-140.741452330266
 72
     1
 10
72.13185897719273
 20
-140.741452330266
 11
72.76937389673822
 21
-141.3519232502523
 72
     1
 10
72.76937389673822
 20
-141.3519232502523
 11
72.59109020537653
 21
-141.3519232502523
 72
     1
 10
72.59109020537653
 20
-141.3519232502523
 11
71.994227412557
 21
-140.7569552599496
 72
     1
 10
71.994227412557
 20
-140.7569552599496
 11
71.994227412557
 21
-141.3519232502523
 72
     1
 10
71.994227412557
 20
-141.3519232502523
 11
71.87209877760489
 21
-141.3519232502523
 72
     1
 10
71.87209877760489
 20
-141.3519232502523
 11
71.87209877760489
 21
-139.824712421641
 72
     1
 10
71.87209877760489
 20
-139.824712421641
 11
71.994227412557
 21
-139.824712421641
 72
     1
 10
71.994227412557
 20
-139.824712421641
 11
71.994227412557
 21
-140.7259494005824
 72
     1
 10
71.994227412557
 20
-140.7259494005824
 11
72.53304034645008
 21
-140.210563115989
 97
        0
 75
     2
 76
     1
 98
        0
  0
SPLINE
  5
BB
330
A6
100
AcDbEntity
  8
_U+30EC_U+30A4_U+30E4_U+30FC 1
370
     0
100
AcDbSpline
210
0.0
220
0.0
230
1.0
 70
    11
 71
     3
 72
    59
 73
    55
 74
     0
 42
0.0000000001
 43
0.0000000001
 12
1.0
 22
0.0
 32
0.0
 13
1.0
 23
0.0
 33
0.0
 40
0.0
 40
0.0
 40
0.0
 40
0.0
 40
1.0
 40
1.0
 40
1.0
 40
2.0
 40
2.0
 40
2.0
 40
3.0
 40
3.0
 40
3.0
 40
4.0
 40
4.0
 40
4.0
 40
5.0
 40
5.0
 40
5.0
 40
6.0
 40
6.0
 40
6.0
 40
7.0
 40
7.0
 40
7.0
 40
8.0
 40
8.0
 40
8.0
 40
9.0
 40
9.0
 40
9.0
 40
10.0
 40
10.0
 40
10.0
 40
11.0
 40
11.0
 40
11.0
 40
12.0
 40
12.0
 40
12.0
 40
13.0
 40
13.0
 40
13.0
 40
14.0
 40
14.0
 40
14.0
 40
15.0
 40
15.0
 40
15.0
 40
16.0
 40
16.0
 40
16.0
 40
17.0
 40
17.0
 40
17.0
 40
18.0
 40
18.0
 40
18.0
 40
18.0
 10
74.05749509867313
 20
-140.2784314970484
 30
0.0
 10
73.94707978837087
 20
-140.2842881593734
 30
0.0
 10
73.9198635340374
 20
-140.2956569744747
 30
0.0
 10
73.88696287215326
 20
-140.3576686932092
 30
0.0
 10
73.9102172666787
 20
-140.3965982721925
 30
0.0
 10
73.93157685868725
 20
-140.4276041315598
 30
0.0
 10
73.93157685868725
 20
-140.5226887669527
 30
0.0
 10
73.93157685868725
 20
-140.8403265706927
 30
0.0
 10
73.68921439129993
 20
-140.8692653727688
 30
0.0
 10
73.47613523553721
 20
-140.8692653727688
 30
0.0
 10
73.30560300901735
 20
-140.8692653727688
 30
0.0
 10
73.19518769871509
 20
-140.8499728380514
 30
0.0
 10
73.12731931765568
 20
-140.7996744439668
 30
0.0
 10
73.06530759892118
 20
-140.8344699083678
 30
0.0
 10
73.04205320439574
 20
-140.8637532199924
 30
0.0
 10
73.04205320439574
 20
-140.9081949517521
 30
0.0
 10
73.04205320439574
 20
-140.9819199951365
 30
0.0
 10
73.10802678293827
 20
-141.0050021348876
 30
0.0
 10
73.16607664186473
 20
-141.0087917399214
 30
0.0
 10
73.16607664186473
 20
-141.0087917399214
 30
0.0
 10
73.67767332142434
 20
-141.0397975992887
 30
0.0
 10
73.67767332142434
 20
-141.0397975992887
 30
0.0
 10
73.91417912648673
 20
-141.0535779812297
 30
0.0
 10
74.01098630962225
 20
-141.1465955593314
 30
0.0
 10
74.01098630962225
 20
-141.3112711235264
 30
0.0
 10
74.01098630962225
 20
-141.561040546207
 30
0.0
 10
73.80169675889333
 20
-141.6116834498401
 30
0.0
 10
73.47217337572918
 20
-141.6116834498401
 30
0.0
 10
73.12146265533075
 20
-141.6116834498401
 30
0.0
 10
72.9140679071187
 20
-141.5572509411732
 30
0.0
 10
72.9140679071187
 20
-141.3288411105011
 30
0.0
 10
72.9140679071187
 20
-141.1755343614075
 30
0.0
 10
73.01294214754537
 20
-141.1214463622891
 30
0.0
 10
73.04980466923755
 20
-141.1018093180232
 30
0.0
 10
72.95093042881088
 20
-141.0728705159471
 30
0.0
 10
72.92767603428544
 20
-140.9836425428791
 30
0.0
 10
72.92767603428544
 20
-140.9295545437607
 30
0.0
 10
72.92767603428544
 20
-140.8365369656589
 30
0.0
 10
72.97814668314436
 20
-140.7607448649834
 30
0.0
 10
73.07495386627987
 20
-140.7493760498821
 30
0.0
 10
73.01500920483653
 20
-140.6794406115315
 30
0.0
 10
73.00519068270357
 20
-140.5943467530459
 30
0.0
 10
73.00519068270357
 20
-140.5282009197291
 30
0.0
 10
73.00519068270357
 20
-140.2725748347235
 30
0.0
 10
73.18157957154835
 20
-140.1950601863054
 30
0.0
 10
73.4606323058536
 20
-140.1950601863054
 30
0.0
 10
73.5750094759639
 20
-140.1950601863054
 30
0.0
 10
73.73968504015883
 20
-140.2047064536641
 30
0.0
 10
73.81909449109384
 20
-140.2822211020822
 30
0.0
 10
73.84045408310239
 20
-140.2377793703225
 30
0.0
 10
73.87335474498653
 20
-140.1678439319719
 30
0.0
 10
74.05749509867313
 20
-140.161987269647
 30
0.0
 10
74.05749509867313
 20
-140.161987269647
 30
0.0
 10
74.05749509867313
 20
-140.2784314970484
 30
0.0
 10
74.05749509867313
 20
-140.2784314970484
 30
0.0
  0
SPLINE
  5
BC
330
A6
100
AcDbEntity
  8
_U+30EC_U+30A4_U+30E4_U+30FC 1
370
     0
100
AcDbSpline
210
0.0
220
0.0
230
1.0
 70
    11
 71
     3
 72
    20
 73
    16
 74
     0
 42
0.0000000001
 43
0.0000000001
 12
1.0
 22
0.0
 32
0.0
 13
1.0
 23
0.0
 33
0.0
 40
0.0
 40
0.0
 40
0.0
 40
0.0
 40
1.0
 40
1.0
 40
1.0
 40
2.0
 40
2.0
 40
2.0
 40
3.0
 40
3.0
 40
3.0
 40
4.0
 40
4.0
 40
4.0
 40
5.0
 40
5.0
 40
5.0
 40
5.0
 10
73.21069062839872
 20
-141.1214463622891
 30
0.0
 10
73.20483396607379
 20
-141.1214463622891
 30
0.0
 10
73.02844507722901
 20
-141.1386718397153
 30
0.0
 10
73.02844507722901
 20
-141.3074815184926
 30
0.0
 10
73.02844507722901
 20
-141.444940828354
 30
0.0
 10
73.09820826080531
 20
-141.4990288274725
 30
0.0
 10
73.47217337572918
 20
-141.4990288274725
 30
0.0
 10
73.80755342121826
 20
-141.4990288274725
 30
0.0
 10
73.88885767467015
 20
-141.4352945609953
 30
0.0
 10
73.88885767467015
 20
-141.3150607285601
 30
0.0
 10
73.88885767467015
 20
-141.1776014186987
 30
0.0
 10
73.78033716688478
 20
-141.1562418266901
 30
0.0
 10
73.58069388351456
 20
-141.1445285020403
 30
0.0
 10
73.58069388351456
 20
-141.1445285020403
 30
0.0
 10
73.21069062839872
 20
-141.1214463622891
 30
0.0
 10
73.21069062839872
 20
-141.1214463622891
 30
0.0
  0
SPLINE
  5
BD
330
A6
100
AcDbEntity
  8
_U+30EC_U+30A4_U+30E4_U+30FC 1
370
     0
100
AcDbSpline
210
0.0
220
0.0
230
1.0
 70
    11
 71
     3
 72
    17
 73
    13
 74
     0
 42
0.0000000001
 43
0.0000000001
 12
1.0
 22
0.0
 32
0.0
 13
1.0
 23
0.0
 33
0.0
 40
0.0
 40
0.0
 40
0.0
 40
0.0
 40
1.0
 40
1.0
 40
1.0
 40
2.0
 40
2.0
 40
2.0
 40
3.0
 40
3.0
 40
3.0
 40
4.0
 40
4.0
 40
4.0
 40
4.0
 10
73.12731931765568
 20
-140.5437038494127
 30
0.0
 10
73.12731931765568
 20
-140.7163031332237
 30
0.0
 10
73.23773462795793
 20
-140.7569552599496
 30
0.0
 10
73.47217337572918
 20
-140.7569552599496
 30
0.0
 10
73.71264104059962
 20
-140.7569552599496
 30
0.0
 10
73.81134302625203
 20
-140.7087239231562
 30
0.0
 10
73.81134302625203
 20
-140.5206217096615
 30
0.0
 10
73.81134302625203
 20
-140.4062445395512
 30
0.0
 10
73.76293943468427
 20
-140.3056477513819
 30
0.0
 10
73.46648896817852
 20
-140.3056477513819
 30
0.0
 10
73.23394502292416
 20
-140.3056477513819
 30
0.0
 10
73.12731931765568
 20
-140.3462998781079
 30
0.0
 10
73.12731931765568
 20
-140.5437038494127
 30
0.0
  0
HATCH
  5
BE
330
A6
100
AcDbEntity
  8
_U+30EC_U+30A4_U+30E4_U+30FC 1
 62
   179
420
  2234388
100
AcDbHatch
 10
0.0
 20
0.0
 30
0.0
210
0.0
220
0.0
230
1.0
  2
SOLID
 70
     1
 71
     0
 91
        3
 92
        1
 93
        1
 72
     4
 94
        3
 73
     0
 74
     1
 95
       59
 96
       55
 40
0.0
 40
0.0
 40
0.0
 40
0.0
 40
1.0
 40
1.0
 40
1.0
 40
2.0
 40
2.0
 40
2.0
 40
3.0
 40
3.0
 40
3.0
 40
4.0
 40
4.0
 40
4.0
 40
5.0
 40
5.0
 40
5.0
 40
6.0
 40
6.0
 40
6.0
 40
7.0
 40
7.0
 40
7.0
 40
8.0
 40
8.0
 40
8.0
 40
9.0
 40
9.0
 40
9.0
 40
10.0
 40
10.0
 40
10.0
 40
11.0
 40
11.0
 40
11.0
 40
12.0
 40
12.0
 40
12.0
 40
13.0
 40
13.0
 40
13.0
 40
14.0
 40
14.0
 40
14.0
 40
15.0
 40
15.0
 40
15.0
 40
16.0
 40
16.0
 40
16.0
 40
17.0
 40
17.0
 40
17.0
 40
18.0
 40
18.0
 40
18.0
 40
18.0
 10
74.05749509867313
 20
-140.2784314970484
 10
73.94707978837087
 20
-140.2842881593734
 10
73.9198635340374
 20
-140.2956569744747
 10
73.88696287215326
 20
-140.3576686932092
 10
73.9102172666787
 20
-140.3965982721925
 10
73.93157685868725
 20
-140.4276041315598
 10
73.93157685868725
 20
-140.5226887669527
 10
73.93157685868725
 20
-140.8403265706927
 10
73.68921439129993
 20
-140.8692653727688
 10
73.47613523553721
 20
-140.8692653727688
 10
73.30560300901735
 20
-140.8692653727688
 10
73.19518769871509
 20
-140.8499728380514
 10
73.12731931765568
 20
-140.7996744439668
 10
73.06530759892118
 20
-140.8344699083678
 10
73.04205320439574
 20
-140.8637532199924
 10
73.04205320439574
 20
-140.9081949517521
 10
73.04205320439574
 20
-140.9819199951365
 10
73.10802678293827
 20
-141.0050021348876
 10
73.16607664186473
 20
-141.0087917399214
 10
73.16607664186473
 20
-141.0087917399214
 10
73.67767332142434
 20
-141.0397975992887
 10
73.67767332142434
 20
-141.0397975992887
 10
73.91417912648673
 20
-141.0535779812297
 10
74.01098630962225
 20
-141.1465955593314
 10
74.01098630962225
 20
-141.3112711235264
 10
74.01098630962225
 20
-141.561040546207
 10
73.80169675889333
 20
-141.6116834498401
 10
73.47217337572918
 20
-141.6116834498401
 10
73.12146265533075
 20
-141.6116834498401
 10
72.9140679071187
 20
-141.5572509411732
 10
72.9140679071187
 20
-141.3288411105011
 10
72.9140679071187
 20
-141.1755343614075
 10
73.01294214754537
 20
-141.1214463622891
 10
73.04980466923755
 20
-141.1018093180232
 10
72.95093042881088
 20
-141.0728705159471
 10
72.92767603428544
 20
-140.9836425428791
 10
72.92767603428544
 20
-140.9295545437607
 10
72.92767603428544
 20
-140.8365369656589
 10
72.97814668314436
 20
-140.7607448649834
 10
73.07495386627987
 20
-140.7493760498821
 10
73.01500920483653
 20
-140.6794406115315
 10
73.00519068270357
 20
-140.5943467530459
 10
73.00519068270357
 20
-140.5282009197291
 10
73.00519068270357
 20
-140.2725748347235
 10
73.18157957154835
 20
-140.1950601863054
 10
73.4606323058536
 20
-140.1950601863054
 10
73.5750094759639
 20
-140.1950601863054
 10
73.73968504015883
 20
-140.2047064536641
 10
73.81909449109384
 20
-140.2822211020822
 10
73.84045408310239
 20
-140.2377793703225
 10
73.87335474498653
 20
-140.1678439319719
 10
74.05749509867313
 20
-140.161987269647
 10
74.05749509867313
 20
-140.161987269647
 10
74.05749509867313
 20
-140.2784314970484
 10
74.05749509867313
 20
-140.2784314970484
 97
        0
 97
        0
 92
        1
 93
        1
 72
     4
 94
        3
 73
     0
 74
     1
 95
       20
 96
       16
 40
0.0
 40
0.0
 40
0.0
 40
0.0
 40
1.0
 40
1.0
 40
1.0
 40
2.0
 40
2.0
 40
2.0
 40
3.0
 40
3.0
 40
3.0
 40
4.0
 40
4.0
 40
4.0
 40
5.0
 40
5.0
 40
5.0
 40
5.0
 10
73.21069062839872
 20
-141.1214463622891
 10
73.20483396607379
 20
-141.1214463622891
 10
73.02844507722901
 20
-141.1386718397153
 10
73.02844507722901
 20
-141.3074815184926
 10
73.02844507722901
 20
-141.444940828354
 10
73.09820826080531
 20
-141.4990288274725
 10
73.47217337572918
 20
-141.4990288274725
 10
73.80755342121826
 20
-141.4990288274725
 10
73.88885767467015
 20
-141.4352945609953
 10
73.88885767467015
 20
-141.3150607285601
 10
73.88885767467015
 20
-141.1776014186987
 10
73.78033716688478
 20
-141.1562418266901
 10
73.58069388351456
 20
-141.1445285020403
 10
73.58069388351456
 20
-141.1445285020403
 10
73.21069062839872
 20
-141.1214463622891
 10
73.21069062839872
 20
-141.1214463622891
 97
        0
 97
        0
 92
        1
 93
        1
 72
     4
 94
        3
 73
     0
 74
     1
 95
       17
 96
       13
 40
0.0
 40
0.0
 40
0.0
 40
0.0
 40
1.0
 40
1.0
 40
1.0
 40
2.0
 40
2.0
 40
2.0
 40
3.0
 40
3.0
 40
3.0
 40
4.0
 40
4.0
 40
4.0
 40
4.0
 10
73.12731931765568
 20
-140.5437038494127
 10
73.12731931765568
 20
-140.7163031332237
 10
73.23773462795793
 20
-140.7569552599496
 10
73.47217337572918
 20
-140.7569552599496
 10
73.71264104059962
 20
-140.7569552599496
 10
73.81134302625203
 20
-140.7087239231562
 10
73.81134302625203
 20
-140.5206217096615
 10
73.81134302625203
 20
-140.4062445395512
 10
73.76293943468427
 20
-140.3056477513819
 10
73.46648896817852
 20
-140.3056477513819
 10
73.23394502292416
 20
-140.3056477513819
 10
73.12731931765568
 20
-140.3462998781079
 10
73.12731931765568
 20
-140.5437038494127
 97
        0
 97
        0
 75
     2
 76
     1
 98
        0
  0
ENDBLK
  5
A9
330
A6
100
AcDbEntity
  8
0
100
AcDbBlockEnd
  0
BLOCK
  5
C1
330
BF
100
AcDbEntity
  8
0
100
AcDbBlockBegin
  2
block 5
 70
     0
 10
0.0
 20
0.0
 30
0.0
  3
block 5
  1

  0
INSERT
  5
C4
330
BF
100
AcDbEntity
  8
_U+30EC_U+30A4_U+30E4_U+30FC 1
100
AcDbBlockReference
  2
block 6
 10
0.0
 20
0.0
 30
0.0
  0
POLYLINE
  5
CC
330
BF
100
AcDbEntity
  8
_U+30EC_U+30A4_U+30E4_U+30FC 1
370
     0
100
AcDb2dPolyline
 66
     1
 10
0.0
 20
0.0
 30
0.0
  0
VERTEX
  5
CD
330
CC
100
AcDbEntity
  8
_U+30EC_U+30A4_U+30E4_U+30FC 1
370
     0
100
AcDbVertex
100
AcDb2dVertex
 10
63.44764615909347
 20
-112.372457471907
 30
0.0
  0
VERTEX
  5
CE
330
CC
100
AcDbEntity
  8
_U+30EC_U+30A4_U+30E4_U+30FC 1
370
     0
100
AcDbVertex
100
AcDb2dVertex
 10
118.7314150264648
 20
-112.372457471907
 30
0.0
  0
VERTEX
  5
CF
330
CC
100
AcDbEntity
  8
_U+30EC_U+30A4_U+30E4_U+30FC 1
370
     0
100
AcDbVertex
100
AcDb2dVertex
 10
118.7314150264648
 20
-138.9723957985902
 30
0.0
  0
VERTEX
  5
D0
330
CC
100
AcDbEntity
  8
_U+30EC_U+30A4_U+30E4_U+30FC 1
370
     0
100
AcDbVertex
100
AcDb2dVertex
 10
63.44764615909347
 20
-138.9723957985902
 30
0.0
  0
VERTEX
  5
D1
330
CC
100
AcDbEntity
  8
_U+30EC_U+30A4_U+30E4_U+30FC 1
370
     0
100
AcDbVertex
100
AcDb2dVertex
 10
63.44764615909347
 20
-112.372457471907
 30
0.0
  0
SEQEND
  5
D2
330
CC
100
AcDbEntity
  8
_U+30EC_U+30A4_U+30E4_U+30FC 1
370
     0
  0
ENDBLK
  5
C2
330
BF
100
AcDbEntity
  8
0
100
AcDbBlockEnd
  0
BLOCK
  5
C5
330
C3
100
AcDbEntity
  8
0
100
AcDbBlockBegin
  2
block 6
 70
     0
 10
0.0
 20
0.0
 30
0.0
  3
block 6
  1

  0
IMAGE
  5
CA
330
C3
100
AcDbEntity
  8
_U+30EC_U+30A4_U+30E4_U+30FC 1
160
                 8
310
0800000000000000
100
AcDbRasterImage
 90
        0
 10
63.44676421467152
 20
-144.4615679249957
 30
0.0
 11
0.02328721388306709
 21
0.0
 31
0.0
 12
0.0
 22
0.02328721388306709
 32
0.0
 13
2374.0
 23
1378.0
340
C8
 70
     3
280
     0
281
    50
282
    50
283
     0
360
CB
 71
     1
 91
        2
 14
-0.5
 24
-0.5
 14
2373.5
 24
1377.5
290
     0
  0
ENDBLK
  5
C6
330
C3
100
AcDbEntity
  8
0
100
AcDbBlockEnd
  0
ENDSEC
  0
SECTION
  2
ENTITIES
  0
INSERT
  5
42
330
1F
100
AcDbEntity
  8
_U+30EC_U+30A4_U+30E4_U+30FC 1
100
AcDbBlockReference
  2
block 2
 10
0.0
 20
0.0
 30
0.0
  0
INSERT
  5
82
330
1F
100
AcDbEntity
  8
_U+30EC_U+30A4_U+30E4_U+30FC 1
100
AcDbBlockReference
  2
block 3
 10
0.0
 20
0.0
 30
0.0
  0
INSERT
  5
A7
330
1F
100
AcDbEntity
  8
_U+30EC_U+30A4_U+30E4_U+30FC 1
100
AcDbBlockReference
  2
block 4
 10
0.0
 20
0.0
 30
0.0
  0
INSERT
  5
C0
330
1F
100
AcDbEntity
  8
_U+30EC_U+30A4_U+30E4_U+30FC 1
100
AcDbBlockReference
  2
block 5
 10
0.0
 20
0.0
 30
0.0
  0
ENDSEC
  0
SECTION
  2
OBJECTS
  0
DICTIONARY
  5
C
330
0
100
AcDbDictionary
281
     1
  3
ACAD_GROUP
350
D
  3
ACAD_IMAGE_DICT
350
C7
  3
ACAD_IMAGE_VARS
350
C9
  3
ACAD_LAYOUT
350
1A
  3
ACAD_MATERIAL
350
3B
  3
ACAD_MLEADERSTYLE
350
D4
  3
ACAD_MLINESTYLE
350
17
  3
ACAD_PLOTSETTINGS
350
19
  3
ACAD_PLOTSTYLENAME
350
E
  3
ACAD_TABLESTYLE
350
D3
  3
ACAD_VISUALSTYLE
350
2A
  0
SUN
  5
3F
330
29
100
AcDbSun
 90
        1
290
     0
 63
     7
421
 16777215
 40
1.0
291
     1
 91
  2455826
 92
 54000000
292
     0
 70
     2
 71
   256
280
     1
  0
IMAGEDEF_REACTOR
  5
CB
330
CA
100
AcDbRasterImageDefReactor
 90
        2
330
CA
  0
DICTIONARY
  5
D
102
{ACAD_REACTORS
330
C
102
}
330
C
100
AcDbDictionary
281
     1
  0
DICTIONARY
  5
C7
102
{ACAD_REACTORS
330
C
102
}
330
C
100
AcDbDictionary
281
     1
  3
/Users/logox/Desktop/dxf0611/60-03_1.png
350
C8
  0
RASTERVARIABLES
  5
C9
102
{ACAD_REACTORS
330
C
102
}
330
C
100
AcDbRasterVariables
 90
        0
 70
     0
 71
     1
 72
     0
  0
DICTIONARY
  5
1A
102
{ACAD_REACTORS
330
C
102
}
330
C
100
AcDbDictionary
281
     1
  3
Layout1
350
1E
  3
Layout2
350
26
  3
Model
350
22
  0
DICTIONARY
  5
3B
102
{ACAD_REACTORS
330
C
102
}
330
C
100
AcDbDictionary
281
     1
  3
ByBlock
350
3D
  3
ByLayer
350
3C
  3
Global
350
3E
  0
DICTIONARY
  5
D4
102
{ACAD_REACTORS
330
C
102
}
330
C
100
AcDbDictionary
281
     1
  0
DICTIONARY
  5
17
102
{ACAD_REACTORS
330
C
102
}
330
C
100
AcDbDictionary
281
     1
  3
Standard
350
18
  0
DICTIONARY
  5
19
102
{ACAD_REACTORS
330
C
102
}
330
C
100
AcDbDictionary
281
     1
  0
ACDBDICTIONARYWDFLT
  5
E
102
{ACAD_REACTORS
330
C
102
}
330
C
100
AcDbDictionary
281
     1
  3
Normal
350
F
100
AcDbDictionaryWithDefault
340
F
  0
DICTIONARY
  5
D3
102
{ACAD_REACTORS
330
C
102
}
330
C
100
AcDbDictionary
281
     1
  0
DICTIONARY
  5
2A
102
{ACAD_REACTORS
330
C
102
}
330
C
100
AcDbDictionary
281
     1
  3
2dWireframe
350
2F
  3
3D Hidden
350
31
  3
3dWireframe
350
30
  3
Basic
350
32
  3
Brighten
350
36
  3
ColorChange
350
3A
  3
Conceptual
350
34
  3
Dim
350
35
  3
Facepattern
350
39
  3
Flat
350
2B
  3
FlatWithEdges
350
2C
  3
Gouraud
350
2D
  3
GouraudWithEdges
350
2E
  3
Linepattern
350
38
  3
Realistic
350
33
  3
Thicken
350
37
  0
IMAGEDEF
  5
C8
102
{ACAD_REACTORS
330
C7
330
CB
102
}
330
C7
100
AcDbRasterImageDef
 90
        0
  1
/Users/logox/Desktop/dxf0611/60-03_1.png
 10
2374.0
 20
1378.0
 11
0.3527777777777777
 21
0.3527777777777777
280
     1
281
     5
  0
LAYOUT
  5
1E
102
{ACAD_REACTORS
330
1A
102
}
330
1A
100
AcDbPlotSettings
  1

  2
none_device
  4

  6

 40
0.0
 41
0.0
 42
0.0
 43
0.0
 44
0.0
 45
0.0
 46
0.0
 47
0.0
 48
0.0
 49
0.0
140
0.0
141
0.0
142
1.0
143
1.0
 70
   688
 72
     0
 73
     0
 74
     5
  7

 75
    16
 76
     0
 77
     2
 78
   300
147
1.0
148
0.0
149
0.0
100
AcDbLayout
  1
Layout1
 70
     1
 71
     1
 10
0.0
 20
0.0
 11
12.0
 21
9.0
 12
0.0
 22
0.0
 32
0.0
 14
1.000000000000000E+20
 24
1.000000000000000E+20
 34
1.000000000000000E+20
 15
-1.000000000000000E+20
 25
-1.000000000000000E+20
 35
-1.000000000000000E+20
146
0.0
 13
0.0
 23
0.0
 33
0.0
 16
1.0
 26
0.0
 36
0.0
 17
0.0
 27
1.0
 37
0.0
 76
     0
330
1B
  0
LAYOUT
  5
26
102
{ACAD_REACTORS
330
1A
102
}
330
1A
100
AcDbPlotSettings
  1

  2
none_device
  4

  6

 40
0.0
 41
0.0
 42
0.0
 43
0.0
 44
0.0
 45
0.0
 46
0.0
 47
0.0
 48
0.0
 49
0.0
140
0.0
141
0.0
142
1.0
143
1.0
 70
   688
 72
     0
 73
     0
 74
     5
  7

 75
    16
 76
     0
 77
     2
 78
   300
147
1.0
148
0.0
149
0.0
100
AcDbLayout
  1
Layout2
 70
     1
 71
     2
 10
0.0
 20
0.0
 11
0.0
 21
0.0
 12
0.0
 22
0.0
 32
0.0
 14
0.0
 24
0.0
 34
0.0
 15
0.0
 25
0.0
 35
0.0
146
0.0
 13
0.0
 23
0.0
 33
0.0
 16
1.0
 26
0.0
 36
0.0
 17
0.0
 27
1.0
 37
0.0
 76
     0
330
23
  0
LAYOUT
  5
22
102
{ACAD_REACTORS
330
1A
102
}
330
1A
100
AcDbPlotSettings
  1

  2
none_device
  4

  6

 40
0.0
 41
0.0
 42
0.0
 43
0.0
 44
0.0
 45
0.0
 46
0.0
 47
0.0
 48
0.0
 49
0.0
140
0.0
141
0.0
142
1.0
143
1.0
 70
  1712
 72
     0
 73
     0
 74
     0
  7

 75
     0
 76
     0
 77
     2
 78
   300
147
1.0
148
0.0
149
0.0
100
AcDbLayout
  1
Model
 70
     1
 71
     0
 10
0.0
 20
0.0
 11
12.0
 21
9.0
 12
0.0
 22
0.0
 32
0.0
 14
1.000000000000000E+20
 24
1.000000000000000E+20
 34
1.000000000000000E+20
 15
-1.000000000000000E+20
 25
-1.000000000000000E+20
 35
-1.000000000000000E+20
146
0.0
 13
0.0
 23
0.0
 33
0.0
 16
1.0
 26
0.0
 36
0.0
 17
0.0
 27
1.0
 37
0.0
 76
     0
330
1F
331
29
  0
MATERIAL
  5
3D
102
{ACAD_REACTORS
330
3B
102
}
330
3B
100
AcDbMaterial
  1
ByBlock
 72
     1
 94
      127
  0
MATERIAL
  5
3C
102
{ACAD_REACTORS
330
3B
102
}
330
3B
100
AcDbMaterial
  1
ByLayer
 72
     1
 94
      127
  0
MATERIAL
  5
3E
102
{ACAD_REACTORS
330
3B
102
}
330
3B
100
AcDbMaterial
  1
Global
 72
     1
 94
      127
  0
MLINESTYLE
  5
18
102
{ACAD_REACTORS
330
17
102
}
330
17
100
AcDbMlineStyle
  2
Standard
 70
     0
  3

 62
   256
 51
90.0
 52
90.0
 71
     2
 49
0.5
 62
   256
  6
BYLAYER
 49
-0.5
 62
   256
  6
BYLAYER
  0
ACDBPLACEHOLDER
  5
F
102
{ACAD_REACTORS
330
E
102
}
330
E
  0
VISUALSTYLE
  5
2F
102
{ACAD_REACTORS
330
2A
102
}
330
2A
100
AcDbVisualStyle
  2
2dWireframe
 70
     4
177
     2
291
     0
 71
     0
176
     1
 72
     2
176
     1
 73
     0
176
     1
 90
        0
176
     1
 40
-0.6
176
     1
 41
-30.0
176
     1
 62
     5
 63
     7
421
 16777215
176
     1
 74
     1
176
     1
 91
        4
176
     1
 64
     7
176
     1
 65
   257
176
     1
 75
     1
176
     1
175
     1
176
     1
 42
1.0
176
     1
 92
        0
176
     1
 66
   257
176
     1
 43
1.0
176
     1
 76
     1
176
     1
 77
     6
176
     1
 78
     2
176
     1
 67
     7
176
     1
 79
     5
176
     1
170
     0
176
     1
171
     0
176
     1
290
     0
176
     1
 93
        1
176
     1
 44
0.0
176
     1
173
     0
176
     1
  0
VISUALSTYLE
  5
31
102
{ACAD_REACTORS
330
2A
102
}
330
2A
100
AcDbVisualStyle
  2
3D Hidden
 70
     6
177
     2
291
     0
 71
     1
176
     1
 72
     2
176
     1
 73
     2
176
     1
 90
        0
176
     1
 40
-0.6
176
     1
 41
-30.0
176
     1
 62
     5
 63
     7
421
 16777215
176
     1
 74
     2
176
     1
 91
        2
176
     1
 64
     7
176
     1
 65
   257
176
     1
 75
     2
176
     1
175
     1
176
     1
 42
40.0
176
     1
 92
        0
176
     1
 66
   257
176
     1
 43
1.0
176
     1
 76
     1
176
     1
 77
     6
176
     1
 78
     2
176
     1
 67
     7
176
     1
 79
     3
176
     1
170
     0
176
     1
171
     0
176
     1
290
     0
176
     1
 93
        1
176
     1
 44
0.0
176
     1
173
     0
176
     1
  0
VISUALSTYLE
  5
30
102
{ACAD_REACTORS
330
2A
102
}
330
2A
100
AcDbVisualStyle
  2
3dWireframe
 70
     5
177
     2
291
     0
 71
     0
176
     1
 72
     2
176
     1
 73
     0
176
     1
 90
        0
176
     1
 40
-0.6
176
     1
 41
-30.0
176
     1
 62
     5
 63
     7
421
 16777215
176
     1
 74
     1
176
     1
 91
        4
176
     1
 64
     7
176
     1
 65
   257
176
     1
 75
     1
176
     1
175
     1
176
     1
 42
1.0
176
     1
 92
        0
176
     1
 66
   257
176
     1
 43
1.0
176
     1
 76
     1
176
     1
 77
     6
176
     1
 78
     2
176
     1
 67
     7
176
     1
 79
     5
176
     1
170
     0
176
     1
171
     0
176
     1
290
     0
176
     1
 93
        1
176
     1
 44
0.0
176
     1
173
     0
176
     1
  0
VISUALSTYLE
  5
32
102
{ACAD_REACTORS
330
2A
102
}
330
2A
100
AcDbVisualStyle
  2
Basic
 70
     7
177
     2
291
     1
 71
     1
176
     1
 72
     0
176
     1
 73
     1
176
     1
 90
        0
176
     1
 40
-0.6
176
     1
 41
-30.0
176
     1
 62
     5
 63
     7
421
 16777215
176
     1
 74
     0
176
     1
 91
        4
176
     1
 64
     7
176
     1
 65
   257
176
     1
 75
     1
176
     1
175
     1
176
     1
 42
1.0
176
     1
 92
        8
176
     1
 66
     7
176
     1
 43
1.0
176
     1
 76
     1
176
     1
 77
     6
176
     1
 78
     2
176
     1
 67
     7
176
     1
 79
     5
176
     1
170
     0
176
     1
171
     0
176
     1
290
     0
176
     1
 93
        1
176
     1
 44
0.0
176
     1
173
     0
176
     1
  0
VISUALSTYLE
  5
36
102
{ACAD_REACTORS
330
2A
102
}
330
2A
100
AcDbVisualStyle
  2
Brighten
 70
    12
177
     2
291
     1
 71
     2
176
     1
 72
     2
176
     1
 73
     0
176
     1
 90
        0
176
     1
 40
-0.6
176
     1
 41
-30.0
176
     1
 62
     5
 63
     7
421
 16777215
176
     1
 74
     1
176
     1
 91
        4
176
     1
 64
     7
176
     1
 65
   257
176
     1
 75
     1
176
     1
175
     1
176
     1
 42
1.0
176
     1
 92
        8
176
     1
 66
     7
176
     1
 43
1.0
176
     1
 76
     1
176
     1
 77
     6
176
     1
 78
     2
176
     1
 67
     7
176
     1
 79
     5
176
     1
170
     0
176
     1
171
     0
176
     1
290
     0
176
     1
 93
        1
176
     1
 44
50.0
176
     1
173
     0
176
     1
  0
VISUALSTYLE
  5
3A
102
{ACAD_REACTORS
330
2A
102
}
330
2A
100
AcDbVisualStyle
  2
ColorChange
 70
    16
177
     2
291
     1
 71
     2
176
     1
 72
     2
176
     1
 73
     3
176
     1
 90
        0
176
     1
 40
-0.6
176
     1
 41
-30.0
176
     1
 62
     5
 63
     8
421
  8421504
176
     1
 74
     1
176
     1
 91
        4
176
     1
 64
     7
176
     1
 65
   257
176
     1
 75
     1
176
     1
175
     1
176
     1
 42
1.0
176
     1
 92
        8
176
     1
 66
     8
424
  8421504
176
     1
 43
1.0
176
     1
 76
     1
176
     1
 77
     6
176
     1
 78
     2
176
     1
 67
     7
176
     1
 79
     5
176
     1
170
     0
176
     1
171
     0
176
     1
290
     0
176
     1
 93
        1
176
     1
 44
0.0
176
     1
173
     0
176
     1
  0
VISUALSTYLE
  5
34
102
{ACAD_REACTORS
330
2A
102
}
330
2A
100
AcDbVisualStyle
  2
Conceptual
 70
     9
177
     2
291
     0
 71
     3
176
     1
 72
     2
176
     1
 73
     0
176
     1
 90
        0
176
     1
 40
-0.6
176
     1
 41
-30.0
176
     1
 62
     5
 63
     7
421
 16777215
176
     1
 74
     2
176
     1
 91
        2
176
     1
 64
     7
176
     1
 65
   257
176
     1
 75
     1
176
     1
175
     1
176
     1
 42
40.0
176
     1
 92
        8
176
     1
 66
     7
176
     1
 43
1.0
176
     1
 76
     1
176
     1
 77
     6
176
     1
 78
     2
176
     1
 67
     7
176
     1
 79
     3
176
     1
170
     0
176
     1
171
     0
176
     1
290
     0
176
     1
 93
        1
176
     1
 44
0.0
176
     1
173
     0
176
     1
  0
VISUALSTYLE
  5
35
102
{ACAD_REACTORS
330
2A
102
}
330
2A
100
AcDbVisualStyle
  2
Dim
 70
    11
177
     2
291
     1
 71
     2
176
     1
 72
     2
176
     1
 73
     0
176
     1
 90
        0
176
     1
 40
-0.6
176
     1
 41
-30.0
176
     1
 62
     5
 63
     7
421
 16777215
176
     1
 74
     1
176
     1
 91
        4
176
     1
 64
     7
176
     1
 65
   257
176
     1
 75
     1
176
     1
175
     1
176
     1
 42
1.0
176
     1
 92
        8
176
     1
 66
     7
176
     1
 43
1.0
176
     1
 76
     1
176
     1
 77
     6
176
     1
 78
     2
176
     1
 67
     7
176
     1
 79
     5
176
     1
170
     0
176
     1
171
     0
176
     1
290
     0
176
     1
 93
        1
176
     1
 44
-50.0
176
     1
173
     0
176
     1
  0
VISUALSTYLE
  5
39
102
{ACAD_REACTORS
330
2A
102
}
330
2A
100
AcDbVisualStyle
  2
Facepattern
 70
    15
177
     2
291
     1
 71
     2
176
     1
 72
     2
176
     1
 73
     0
176
     1
 90
        0
176
     1
 40
-0.6
176
     1
 41
-30.0
176
     1
 62
     5
 63
     7
421
 16777215
176
     1
 74
     1
176
     1
 91
        4
176
     1
 64
     7
176
     1
 65
   257
176
     1
 75
     1
176
     1
175
     1
176
     1
 42
1.0
176
     1
 92
        8
176
     1
 66
     7
176
     1
 43
1.0
176
     1
 76
     1
176
     1
 77
     6
176
     1
 78
     2
176
     1
 67
     7
176
     1
 79
     5
176
     1
170
     0
176
     1
171
     0
176
     1
290
     0
176
     1
 93
        1
176
     1
 44
0.0
176
     1
173
     0
176
     1
  0
VISUALSTYLE
  5
2B
102
{ACAD_REACTORS
330
2A
102
}
330
2A
100
AcDbVisualStyle
  2
Flat
 70
     0
177
     2
291
     1
 71
     2
176
     1
 72
     1
176
     1
 73
     1
176
     1
 90
        2
176
     1
 40
-0.6
176
     1
 41
30.0
176
     1
 62
     5
 63
     7
421
 16777215
176
     1
 74
     0
176
     1
 91
        4
176
     1
 64
     7
176
     1
 65
   257
176
     1
 75
     1
176
     1
175
     1
176
     1
 42
1.0
176
     1
 92
        8
176
     1
 66
     7
176
     1
 43
1.0
176
     1
 76
     1
176
     1
 77
     6
176
     1
 78
     2
176
     1
 67
     7
176
     1
 79
     5
176
     1
170
     0
176
     1
171
     0
176
     1
290
     0
176
     1
 93
       13
176
     1
 44
0.0
176
     1
173
     0
176
     1
  0
VISUALSTYLE
  5
2C
102
{ACAD_REACTORS
330
2A
102
}
330
2A
100
AcDbVisualStyle
  2
FlatWithEdges
 70
     1
177
     2
291
     1
 71
     2
176
     1
 72
     1
176
     1
 73
     1
176
     1
 90
        2
176
     1
 40
-0.6
176
     1
 41
30.0
176
     1
 62
     5
 63
     7
421
 16777215
176
     1
 74
     1
176
     1
 91
        4
176
     1
 64
     7
176
     1
 65
   257
176
     1
 75
     1
176
     1
175
     1
176
     1
 42
1.0
176
     1
 92
        0
176
     1
 66
   257
176
     1
 43
1.0
176
     1
 76
     1
176
     1
 77
     6
176
     1
 78
     2
176
     1
 67
     7
176
     1
 79
     5
176
     1
170
     0
176
     1
171
     0
176
     1
290
     0
176
     1
 93
       13
176
     1
 44
0.0
176
     1
173
     0
176
     1
  0
VISUALSTYLE
  5
2D
102
{ACAD_REACTORS
330
2A
102
}
330
2A
100
AcDbVisualStyle
  2
Gouraud
 70
     2
177
     2
291
     1
 71
     2
176
     1
 72
     2
176
     1
 73
     1
176
     1
 90
        2
176
     1
 40
-0.6
176
     1
 41
30.0
176
     1
 62
     5
 63
     7
421
 16777215
176
     1
 74
     0
176
     1
 91
        4
176
     1
 64
     7
176
     1
 65
   257
176
     1
 75
     1
176
     1
175
     1
176
     1
 42
1.0
176
     1
 92
        0
176
     1
 66
     7
176
     1
 43
1.0
176
     1
 76
     1
176
     1
 77
     6
176
     1
 78
     2
176
     1
 67
     7
176
     1
 79
     5
176
     1
170
     0
176
     1
171
     0
176
     1
290
     0
176
     1
 93
       13
176
     1
 44
0.0
176
     1
173
     0
176
     1
  0
VISUALSTYLE
  5
2E
102
{ACAD_REACTORS
330
2A
102
}
330
2A
100
AcDbVisualStyle
  2
GouraudWithEdges
 70
     3
177
     2
291
     1
 71
     2
176
     1
 72
     2
176
     1
 73
     1
176
     1
 90
        2
176
     1
 40
-0.6
176
     1
 41
30.0
176
     1
 62
     5
 63
     7
421
 16777215
176
     1
 74
     1
176
     1
 91
        4
176
     1
 64
     7
176
     1
 65
   257
176
     1
 75
     1
176
     1
175
     1
176
     1
 42
1.0
176
     1
 92
        0
176
     1
 66
   257
176
     1
 43
1.0
176
     1
 76
     1
176
     1
 77
     6
176
     1
 78
     2
176
     1
 67
     7
176
     1
 79
     5
176
     1
170
     0
176
     1
171
     0
176
     1
290
     0
176
     1
 93
       13
176
     1
 44
0.0
176
     1
173
     0
176
     1
  0
VISUALSTYLE
  5
38
102
{ACAD_REACTORS
330
2A
102
}
330
2A
100
AcDbVisualStyle
  2
Linepattern
 70
    14
177
     2
291
     1
 71
     2
176
     1
 72
     2
176
     1
 73
     0
176
     1
 90
        0
176
     1
 40
-0.6
176
     1
 41
-30.0
176
     1
 62
     5
 63
     7
421
 16777215
176
     1
 74
     1
176
     1
 91
        4
176
     1
 64
     7
176
     1
 65
   257
176
     1
 75
     7
176
     1
175
     7
176
     1
 42
1.0
176
     1
 92
        8
176
     1
 66
     7
176
     1
 43
1.0
176
     1
 76
     1
176
     1
 77
     6
176
     1
 78
     2
176
     1
 67
     7
176
     1
 79
     5
176
     1
170
     0
176
     1
171
     0
176
     1
290
     0
176
     1
 93
        1
176
     1
 44
0.0
176
     1
173
     0
176
     1
  0
VISUALSTYLE
  5
33
102
{ACAD_REACTORS
330
2A
102
}
330
2A
100
AcDbVisualStyle
  2
Realistic
 70
     8
177
     2
291
     0
 71
     2
176
     1
 72
     2
176
     1
 73
     0
176
     1
 90
        0
176
     1
 40
-0.6
176
     1
 41
-30.0
176
     1
 62
     5
 63
     7
421
 16777215
176
     1
 74
     1
176
     1
 91
        0
176
     1
 64
     7
176
     1
 65
   257
176
     1
 75
     1
176
     1
175
     1
176
     1
 42
1.0
176
     1
 92
        8
176
     1
 66
     8
424
  7895160
176
     1
 43
1.0
176
     1
 76
     1
176
     1
 77
     6
176
     1
 78
     2
176
     1
 67
     7
176
     1
 79
     5
176
     1
170
     0
176
     1
171
     0
176
     1
290
     0
176
     1
 93
       13
176
     1
 44
0.0
176
     1
173
     0
176
     1
  0
VISUALSTYLE
  5
37
102
{ACAD_REACTORS
330
2A
102
}
330
2A
100
AcDbVisualStyle
  2
Thicken
 70
    13
177
     2
291
     1
 71
     2
176
     1
 72
     2
176
     1
 73
     0
176
     1
 90
        0
176
     1
 40
-0.6
176
     1
 41
-30.0
176
     1
 62
     5
 63
     7
421
 16777215
176
     1
 74
     1
176
     1
 91
        4
176
     1
 64
     7
176
     1
 65
   257
176
     1
 75
     1
176
     1
175
     1
176
     1
 42
1.0
176
     1
 92
       12
176
     1
 66
     7
176
     1
 43
1.0
176
     1
 76
     1
176
     1
 77
     6
176
     1
 78
     2
176
     1
 67
     7
176
     1
 79
     5
176
     1
170
     0
176
     1
171
     0
176
     1
290
     0
176
     1
 93
        1
176
     1
 44
0.0
176
     1
173
     0
176
     1
  0
ENDSEC
  0
EOF
