  0
SECTION
  2
HEADER
  9
$ACADVER
  1
AC1024
  9
$ACADMAINTVER
 70
   226
  9
$DWGCODEPAGE
  3
ANSI_932
  9
$INSBASE
 10
0.0
 20
0.0
 30
0.0
  9
$EXTMIN
 10
1.000000000000000E+20
 20
1.000000000000000E+20
 30
1.000000000000000E+20
  9
$EXTMAX
 10
-1.000000000000000E+20
 20
-1.000000000000000E+20
 30
-1.000000000000000E+20
  9
$LIMMIN
 10
0.0
 20
0.0
  9
$LIMMAX
 10
12.0
 20
9.0
  9
$ORTHOMODE
 70
     0
  9
$REGENMODE
 70
     1
  9
$FILLMODE
 70
     1
  9
$QTEXTMODE
 70
     0
  9
$MIRRTEXT
 70
     0
  9
$LTSCALE
 40
1.0
  9
$ATTMODE
 70
     1
  9
$TEXTSIZE
 40
0.2
  9
$TRACEWID
 40
0.05
  9
$TEXTSTYLE
  7
Standard
  9
$CLAYER
  8
0
  9
$CELTYPE
  6
ByLayer
  9
$CECOLOR
 62
   256
  9
$CELTSCALE
 40
1.0
  9
$DISPSILH
 70
     0
  9
$DIMSCALE
 40
1.0
  9
$DIMASZ
 40
0.18
  9
$DIMEXO
 40
0.0625
  9
$DIMDLI
 40
0.38
  9
$DIMRND
 40
0.0
  9
$DIMDLE
 40
0.0
  9
$DIMEXE
 40
0.18
  9
$DIMTP
 40
0.0
  9
$DIMTM
 40
0.0
  9
$DIMTXT
 40
0.18
  9
$DIMCEN
 40
0.09
  9
$DIMTSZ
 40
0.0
  9
$DIMTOL
 70
     0
  9
$DIMLIM
 70
     0
  9
$DIMTIH
 70
     1
  9
$DIMTOH
 70
     1
  9
$DIMSE1
 70
     0
  9
$DIMSE2
 70
     0
  9
$DIMTAD
 70
     0
  9
$DIMZIN
 70
     0
  9
$DIMBLK
  1

  9
$DIMASO
 70
     1
  9
$DIMSHO
 70
     1
  9
$DIMPOST
  1

  9
$DIMAPOST
  1

  9
$DIMALT
 70
     0
  9
$DIMALTD
 70
     2
  9
$DIMALTF
 40
25.4
  9
$DIMLFAC
 40
1.0
  9
$DIMTOFL
 70
     0
  9
$DIMTVP
 40
0.0
  9
$DIMTIX
 70
     0
  9
$DIMSOXD
 70
     0
  9
$DIMSAH
 70
     0
  9
$DIMBLK1
  1

  9
$DIMBLK2
  1

  9
$DIMSTYLE
  2
Standard
  9
$DIMCLRD
 70
     0
  9
$DIMCLRE
 70
     0
  9
$DIMCLRT
 70
     0
  9
$DIMTFAC
 40
1.0
  9
$DIMGAP
 40
0.09
  9
$DIMJUST
 70
     0
  9
$DIMSD1
 70
     0
  9
$DIMSD2
 70
     0
  9
$DIMTOLJ
 70
     1
  9
$DIMTZIN
 70
     0
  9
$DIMALTZ
 70
     0
  9
$DIMALTTZ
 70
     0
  9
$DIMUPT
 70
     0
  9
$DIMDEC
 70
     4
  9
$DIMTDEC
 70
     4
  9
$DIMALTU
 70
     2
  9
$DIMALTTD
 70
     2
  9
$DIMTXSTY
  7
Standard
  9
$DIMAUNIT
 70
     0
  9
$DIMADEC
 70
     0
  9
$DIMALTRND
 40
0.0
  9
$DIMAZIN
 70
     0
  9
$DIMDSEP
 70
    46
  9
$DIMATFIT
 70
     3
  9
$DIMFRAC
 70
     0
  9
$DIMLDRBLK
  1

  9
$DIMLUNIT
 70
     2
  9
$DIMLWD
 70
    -2
  9
$DIMLWE
 70
    -2
  9
$DIMTMOVE
 70
     0
  9
$DIMFXL
 40
1.0
  9
$DIMFXLON
 70
     0
  9
$DIMJOGANG
 40
0.7853981633974483
  9
$DIMTFILL
 70
     0
  9
$DIMTFILLCLR
 70
     0
  9
$DIMARCSYM
 70
     0
  9
$DIMLTYPE
  6

  9
$DIMLTEX1
  6

  9
$DIMLTEX2
  6

  9
$DIMTXTDIRECTION
 70
     0
  9
$LUNITS
 70
     2
  9
$LUPREC
 70
     4
  9
$SKETCHINC
 40
0.1
  9
$FILLETRAD
 40
0.0
  9
$AUNITS
 70
     0
  9
$AUPREC
 70
     0
  9
$MENU
  1
.
  9
$ELEVATION
 40
0.0
  9
$PELEVATION
 40
0.0
  9
$THICKNESS
 40
0.0
  9
$LIMCHECK
 70
     0
  9
$CHAMFERA
 40
0.0
  9
$CHAMFERB
 40
0.0
  9
$CHAMFERC
 40
0.0
  9
$CHAMFERD
 40
0.0
  9
$SKPOLY
 70
     0
  9
$TDCREATE
 40
2459569.488622685
  9
$TDUCREATE
 40
2459569.113622685
  9
$TDUPDATE
 40
2459569.488622685
  9
$TDUUPDATE
 40
2459569.113622685
  9
$TDINDWG
 40
0.0000000000
  9
$TDUSRTIMER
 40
0.0000000000
  9
$USRTIMER
 70
     1
  9
$ANGBASE
 50
0.0
  9
$ANGDIR
 70
     0
  9
$PDMODE
 70
     0
  9
$PDSIZE
 40
0.0
  9
$PLINEWID
 40
0.0
  9
$SPLFRAME
 70
     0
  9
$SPLINETYPE
 70
     6
  9
$SPLINESEGS
 70
     8
  9
$HANDSEED
  5
131
  9
$SURFTAB1
 70
     6
  9
$SURFTAB2
 70
     6
  9
$SURFTYPE
 70
     6
  9
$SURFU
 70
     6
  9
$SURFV
 70
     6
  9
$UCSBASE
  2

  9
$UCSNAME
  2

  9
$UCSORG
 10
0.0
 20
0.0
 30
0.0
  9
$UCSXDIR
 10
1.0
 20
0.0
 30
0.0
  9
$UCSYDIR
 10
0.0
 20
1.0
 30
0.0
  9
$UCSORTHOREF
  2

  9
$UCSORTHOVIEW
 70
     0
  9
$UCSORGTOP
 10
0.0
 20
0.0
 30
0.0
  9
$UCSORGBOTTOM
 10
0.0
 20
0.0
 30
0.0
  9
$UCSORGLEFT
 10
0.0
 20
0.0
 30
0.0
  9
$UCSORGRIGHT
 10
0.0
 20
0.0
 30
0.0
  9
$UCSORGFRONT
 10
0.0
 20
0.0
 30
0.0
  9
$UCSORGBACK
 10
0.0
 20
0.0
 30
0.0
  9
$PUCSBASE
  2

  9
$PUCSNAME
  2

  9
$PUCSORG
 10
0.0
 20
0.0
 30
0.0
  9
$PUCSXDIR
 10
1.0
 20
0.0
 30
0.0
  9
$PUCSYDIR
 10
0.0
 20
1.0
 30
0.0
  9
$PUCSORTHOREF
  2

  9
$PUCSORTHOVIEW
 70
     0
  9
$PUCSORGTOP
 10
0.0
 20
0.0
 30
0.0
  9
$PUCSORGBOTTOM
 10
0.0
 20
0.0
 30
0.0
  9
$PUCSORGLEFT
 10
0.0
 20
0.0
 30
0.0
  9
$PUCSORGRIGHT
 10
0.0
 20
0.0
 30
0.0
  9
$PUCSORGFRONT
 10
0.0
 20
0.0
 30
0.0
  9
$PUCSORGBACK
 10
0.0
 20
0.0
 30
0.0
  9
$USERI1
 70
     0
  9
$USERI2
 70
     0
  9
$USERI3
 70
     0
  9
$USERI4
 70
     0
  9
$USERI5
 70
     0
  9
$USERR1
 40
0.0
  9
$USERR2
 40
0.0
  9
$USERR3
 40
0.0
  9
$USERR4
 40
0.0
  9
$USERR5
 40
0.0
  9
$WORLDVIEW
 70
     1
  9
$SHADEDGE
 70
     3
  9
$SHADEDIF
 70
    70
  9
$TILEMODE
 70
     1
  9
$MAXACTVP
 70
    64
  9
$PINSBASE
 10
0.0
 20
0.0
 30
0.0
  9
$PLIMCHECK
 70
     0
  9
$PEXTMIN
 10
1.000000000000000E+20
 20
1.000000000000000E+20
 30
1.000000000000000E+20
  9
$PEXTMAX
 10
-1.000000000000000E+20
 20
-1.000000000000000E+20
 30
-1.000000000000000E+20
  9
$PLIMMIN
 10
0.0
 20
0.0
  9
$PLIMMAX
 10
12.0
 20
9.0
  9
$UNITMODE
 70
     0
  9
$VISRETAIN
 70
     1
  9
$PLINEGEN
 70
     0
  9
$PSLTSCALE
 70
     1
  9
$TREEDEPTH
 70
  3020
  9
$CMLSTYLE
  2
Standard
  9
$CMLJUST
 70
     0
  9
$CMLSCALE
 40
1.0
  9
$PROXYGRAPHICS
 70
     1
  9
$MEASUREMENT
 70
     0
  9
$CELWEIGHT
370
    -1
  9
$ENDCAPS
280
     0
  9
$JOINSTYLE
280
     0
  9
$LWDISPLAY
290
     1
  9
$INSUNITS
 70
     4
  9
$HYPERLINKBASE
  1

  9
$STYLESHEET
  1

  9
$XEDIT
290
     1
  9
$CEPSNTYPE
380
     0
  9
$PSTYLEMODE
290
     1
  9
$FINGERPRINTGUID
  2
{9D7FFA16-18E8-0743-B159-3AC69E3A483E}
  9
$VERSIONGUID
  2
{7C226CA7-AF32-FA41-AA27-9CD34F1FE688}
  9
$EXTNAMES
290
     1
  9
$PSVPSCALE
 40
0.0
  9
$OLESTARTUP
290
     0
  9
$SORTENTS
280
   127
  9
$INDEXCTL
280
     0
  9
$HIDETEXT
280
     1
  9
$XCLIPFRAME
280
     2
  9
$HALOGAP
280
     0
  9
$OBSCOLOR
 70
   257
  9
$OBSLTYPE
280
     0
  9
$INTERSECTIONDISPLAY
280
     0
  9
$INTERSECTIONCOLOR
 70
   257
  9
$DIMASSOC
280
     2
  9
$PROJECTNAME
  1

  9
$CAMERADISPLAY
290
     0
  9
$LENSLENGTH
 40
50.0
  9
$CAMERAHEIGHT
 40
0.0
  9
$STEPSPERSEC
 40
2.0
  9
$STEPSIZE
 40
6.0
  9
$3DDWFPREC
 40
2.0
  9
$PSOLWIDTH
 40
0.25
  9
$PSOLHEIGHT
 40
4.0
  9
$LOFTANG1
 40
1.570796326794896
  9
$LOFTANG2
 40
1.570796326794896
  9
$LOFTMAG1
 40
0.0
  9
$LOFTMAG2
 40
0.0
  9
$LOFTPARAM
 70
     7
  9
$LOFTNORMALS
280
     1
  9
$LATITUDE
 40
37.795
  9
$LONGITUDE
 40
-122.394
  9
$NORTHDIRECTION
 40
0.0
  9
$TIMEZONE
 70
 -8000
  9
$LIGHTGLYPHDISPLAY
280
     1
  9
$TILEMODELIGHTSYNCH
280
     1
  9
$CMATERIAL
347
11
  9
$SOLIDHIST
280
     0
  9
$SHOWHIST
280
     1
  9
$DWFFRAME
280
     2
  9
$DGNFRAME
280
     0
  9
$REALWORLDSCALE
290
     1
  9
$INTERFERECOLOR
 62
     1
  9
$INTERFEREOBJVS
345
33
  9
$INTERFEREVPVS
346
30
  9
$CSHADOW
280
     0
  9
$SHADOWPLANELOCATION
 40
0.0
  0
ENDSEC
  0
SECTION
  2
CLASSES
  0
CLASS
  1
ACDBDICTIONARYWDFLT
  2
AcDbDictionaryWithDefault
  3
ObjectDBX Classes
 90
        0
 91
        1
280
     0
281
     0
  0
CLASS
  1
MATERIAL
  2
AcDbMaterial
  3
ObjectDBX Classes
 90
     1153
 91
        3
280
     0
281
     0
  0
CLASS
  1
VISUALSTYLE
  2
AcDbVisualStyle
  3
ObjectDBX Classes
 90
     4095
 91
       24
280
     0
281
     0
  0
CLASS
  1
SCALE
  2
AcDbScale
  3
ObjectDBX Classes
 90
     1153
 91
       17
280
     0
281
     0
  0
CLASS
  1
TABLESTYLE
  2
AcDbTableStyle
  3
ObjectDBX Classes
 90
     4095
 91
        1
280
     0
281
     0
  0
CLASS
  1
MLEADERSTYLE
  2
AcDbMLeaderStyle
  3
ACDB_MLEADERSTYLE_CLASS
 90
     4095
 91
        1
280
     0
281
     0
  0
CLASS
  1
ACDBSECTIONVIEWSTYLE
  2
AcDbSectionViewStyle
  3
ObjectDBX Classes
 90
     1025
 91
        1
280
     0
281
     0
  0
CLASS
  1
ACDBDETAILVIEWSTYLE
  2
AcDbDetailViewStyle
  3
ObjectDBX Classes
 90
     1025
 91
        1
280
     0
281
     0
  0
CLASS
  1
DICTIONARYVAR
  2
AcDbDictionaryVar
  3
ObjectDBX Classes
 90
        0
 91
        5
280
     0
281
     0
  0
CLASS
  1
CELLSTYLEMAP
  2
AcDbCellStyleMap
  3
ObjectDBX Classes
 90
     1152
 91
        1
280
     0
281
     0
  0
ENDSEC
  0
SECTION
  2
TABLES
  0
TABLE
  2
VPORT
  5
8
330
0
100
AcDbSymbolTable
 70
     1
  0
VPORT
  5
57
330
8
100
AcDbSymbolTableRecord
100
AcDbViewportTableRecord
  2
*Active
 70
     0
 10
0.0
 20
0.0
 11
1.0
 21
1.0
 12
0.0
 22
0.0
 13
0.0
 23
0.0
 14
1.0
 24
1.0
 15
0.0
 25
0.0
 16
0.0
 26
0.0
 36
1.0
 17
104.9999999737534
 27
-148.4999999628701
 37
0.0
 40
302.939999924255
 41
0.7070707070707534
 42
50.0
 43
0.0
 44
0.0
 50
0.0
 51
0.0
 71
     0
 72
   100
 73
     1
 74
     0
 75
     1
 76
     0
 77
     0
 78
     0
281
     0
 65
     1
110
0.0
120
0.0
130
0.0
111
1.0
121
0.0
131
0.0
112
0.0
122
1.0
132
0.0
 79
     0
146
0.0
 60
     3
 61
     5
292
     1
282
     1
141
0.0
142
0.0
 63
   250
421
  3355443
  0
ENDTAB
  0
TABLE
  2
LTYPE
  5
5
330
0
100
AcDbSymbolTable
 70
     3
  0
LTYPE
  5
5B
330
5
100
AcDbSymbolTableRecord
100
AcDbLinetypeTableRecord
  2
ByBlock
 70
     0
  3

 72
    65
 73
     0
 40
0.0
  0
LTYPE
  5
5C
330
5
100
AcDbSymbolTableRecord
100
AcDbLinetypeTableRecord
  2
ByLayer
 70
     0
  3

 72
    65
 73
     0
 40
0.0
  0
LTYPE
  5
5D
330
5
100
AcDbSymbolTableRecord
100
AcDbLinetypeTableRecord
  2
Continuous
 70
     0
  3
Solid line
 72
    65
 73
     0
 40
0.0
  0
LTYPE
  5
CF
330
5
100
AcDbSymbolTableRecord
100
AcDbLinetypeTableRecord
  2
AI-Linetype-0
 70
     0
  3
Adobe Illustrator Linetype No. 0
 72
    65
 73
     2
 40
1.411111110758333
 49
0.7055555553791667
 74
     0
 49
-0.7055555553791667
 74
     0
  0
LTYPE
  5
EE
330
5
100
AcDbSymbolTableRecord
100
AcDbLinetypeTableRecord
  2
AI-Linetype-1
 70
     0
  3
Adobe Illustrator Linetype No. 1
 72
    65
 73
     2
 40
1.411111110758333
 49
0.7055555553791667
 74
     0
 49
-0.7055555553791667
 74
     0
  0
ENDTAB
  0
TABLE
  2
LAYER
  5
2
330
0
100
AcDbSymbolTable
 70
     2
  0
LAYER
  5
54
330
2
100
AcDbSymbolTableRecord
100
AcDbLayerTableRecord
  2
0
 70
     0
 62
     7
  6
Continuous
370
    -3
390
F
347
21
  0
LAYER
  5
78
330
2
100
AcDbSymbolTableRecord
100
AcDbLayerTableRecord
  2
レイヤー 1
 70
     0
 62
     7
  6
Continuous
370
     0
390
F
347
21
  0
ENDTAB
  0
TABLE
  2
STYLE
  5
3
330
0
100
AcDbSymbolTable
 70
     2
  0
STYLE
  5
55
330
3
100
AcDbSymbolTableRecord
100
AcDbTextStyleTableRecord
  2
Standard
 70
     0
 40
0.0
 41
1.0
 50
0.0
 71
     0
 42
0.2
  3
txt
  4

  0
STYLE
  5
5A
330
3
100
AcDbSymbolTableRecord
100
AcDbTextStyleTableRecord
  2
Annotative
 70
     0
 40
0.0
 41
1.0
 50
0.0
 71
     0
 42
0.2
  3
txt
  4

1001
AcadAnnotative
1000
AnnotativeData
1002
{
1070
     1
1070
     1
1002
}
  0
ENDTAB
  0
TABLE
  2
VIEW
  5
6
330
0
100
AcDbSymbolTable
 70
     0
  0
ENDTAB
  0
TABLE
  2
UCS
  5
7
330
0
100
AcDbSymbolTable
 70
     0
  0
ENDTAB
  0
TABLE
  2
APPID
  5
9
330
0
100
AcDbSymbolTable
 70
     2
  0
APPID
  5
56
330
9
100
AcDbSymbolTableRecord
100
AcDbRegAppTableRecord
  2
ACAD
 70
     0
  0
APPID
  5
5E
330
9
100
AcDbSymbolTableRecord
100
AcDbRegAppTableRecord
  2
AcadAnnotative
 70
     0
  0
ENDTAB
  0
TABLE
  2
DIMSTYLE
  5
A
330
0
100
AcDbSymbolTable
 70
     2
100
AcDbDimStyleTable
 71
     0
  0
DIMSTYLE
105
58
330
A
100
AcDbSymbolTableRecord
100
AcDbDimStyleTableRecord
  2
Standard
 70
     0
340
55
  0
DIMSTYLE
105
59
330
A
100
AcDbSymbolTableRecord
100
AcDbDimStyleTableRecord
  2
Annotative
 70
     0
340
55
1001
AcadAnnotative
1000
AnnotativeData
1002
{
1070
     1
1070
     1
1002
}
  0
ENDTAB
  0
TABLE
  2
BLOCK_RECORD
  5
1
330
0
100
AcDbSymbolTable
 70
    11
  0
BLOCK_RECORD
  5
70
330
1
100
AcDbSymbolTableRecord
100
AcDbBlockTableRecord
  2
*Model_Space
340
73
 70
     0
280
     1
281
     0
  0
BLOCK_RECORD
  5
6C
330
1
100
AcDbSymbolTableRecord
100
AcDbBlockTableRecord
  2
*Paper_Space
340
6F
 70
     0
280
     1
281
     0
  0
BLOCK_RECORD
  5
74
330
1
100
AcDbSymbolTableRecord
100
AcDbBlockTableRecord
  2
*Paper_Space0
340
77
 70
     0
280
     1
281
     0
  0
BLOCK_RECORD
  5
86
330
1
100
AcDbSymbolTableRecord
100
AcDbBlockTableRecord
  2
Block_0
340
0
102
{BLKREFS
331
87
102
}
 70
     0
280
     1
281
     0
  0
BLOCK_RECORD
  5
8A
330
1
100
AcDbSymbolTableRecord
100
AcDbBlockTableRecord
  2
Block_1
340
0
102
{BLKREFS
331
8B
102
}
 70
     0
280
     1
281
     0
  0
BLOCK_RECORD
  5
98
330
1
100
AcDbSymbolTableRecord
100
AcDbBlockTableRecord
  2
Block_2
340
0
102
{BLKREFS
331
99
102
}
 70
     0
280
     1
281
     0
  0
BLOCK_RECORD
  5
9C
330
1
100
AcDbSymbolTableRecord
100
AcDbBlockTableRecord
  2
Block_3
340
0
102
{BLKREFS
331
9D
102
}
 70
     0
280
     1
281
     0
  0
BLOCK_RECORD
  5
A8
330
1
100
AcDbSymbolTableRecord
100
AcDbBlockTableRecord
  2
Block_4
340
0
102
{BLKREFS
331
A9
102
}
 70
     0
280
     1
281
     0
  0
BLOCK_RECORD
  5
AC
330
1
100
AcDbSymbolTableRecord
100
AcDbBlockTableRecord
  2
Block_5
340
0
102
{BLKREFS
331
AD
102
}
 70
     0
280
     1
281
     0
  0
BLOCK_RECORD
  5
B8
330
1
100
AcDbSymbolTableRecord
100
AcDbBlockTableRecord
  2
Block_6
340
0
102
{BLKREFS
331
B9
102
}
 70
     0
280
     1
281
     0
  0
BLOCK_RECORD
  5
BC
330
1
100
AcDbSymbolTableRecord
100
AcDbBlockTableRecord
  2
Block_7
340
0
102
{BLKREFS
331
BD
102
}
 70
     0
280
     1
281
     0
  0
BLOCK_RECORD
  5
D3
330
1
100
AcDbSymbolTableRecord
100
AcDbBlockTableRecord
  2
Block_8
340
0
102
{BLKREFS
331
D4
102
}
 70
     0
280
     1
281
     0
  0
BLOCK_RECORD
  5
D7
330
1
100
AcDbSymbolTableRecord
100
AcDbBlockTableRecord
  2
Block_9
340
0
102
{BLKREFS
331
D8
102
}
 70
     0
280
     1
281
     0
  0
ENDTAB
  0
ENDSEC
  0
SECTION
  2
BLOCKS
  0
BLOCK
  5
71
330
70
100
AcDbEntity
  8
0
100
AcDbBlockBegin
  2
*Model_Space
 70
     0
 10
0.0
 20
0.0
 30
0.0
  3
*Model_Space
  1

  0
ENDBLK
  5
72
330
70
100
AcDbEntity
  8
0
100
AcDbBlockEnd
  0
BLOCK
  5
6D
330
6C
100
AcDbEntity
 67
     1
  8
0
100
AcDbBlockBegin
  2
*Paper_Space
 70
     0
 10
0.0
 20
0.0
 30
0.0
  3
*Paper_Space
  1

  0
ENDBLK
  5
6E
330
6C
100
AcDbEntity
 67
     1
  8
0
100
AcDbBlockEnd
  0
BLOCK
  5
75
330
74
100
AcDbEntity
 67
     1
  8
0
100
AcDbBlockBegin
  2
*Paper_Space0
 70
     0
 10
0.0
 20
0.0
 30
0.0
  3
*Paper_Space0
  1

  0
ENDBLK
  5
76
330
74
100
AcDbEntity
 67
     1
  8
0
100
AcDbBlockEnd
  0
BLOCK
  5
88
330
86
100
AcDbEntity
  8
0
100
AcDbBlockBegin
  2
Block_0
 70
     0
 10
0.0
 20
0.0
 30
0.0
  3
Block_0
  1

  0
INSERT
  5
8B
330
86
100
AcDbEntity
  8
レイヤー 1
100
AcDbBlockReference
  2
Block_1
 10
0.0
 20
0.0
 30
0.0
  0
ENDBLK
  5
89
330
86
100
AcDbEntity
  8
0
100
AcDbBlockEnd
  0
BLOCK
  5
8C
330
8A
100
AcDbEntity
  8
0
100
AcDbBlockBegin
  2
Block_1
 70
     0
 10
0.0
 20
0.0
 30
0.0
  3
Block_1
  1

  0
SPLINE
  5
8E
330
8A
100
AcDbEntity
  8
レイヤー 1
100
AcDbSpline
210
0.0
220
0.0
230
1.0
 70
     9
 71
     3
 72
    20
 73
    16
 74
     0
 42
0.0000000001
 43
0.0000000001
 40
0.0
 40
0.0
 40
0.0
 40
0.0
 40
1.0
 40
1.0
 40
1.0
 40
2.0
 40
2.0
 40
2.0
 40
3.0
 40
3.0
 40
3.0
 40
4.0
 40
4.0
 40
4.0
 40
5.0
 40
5.0
 40
5.0
 40
5.0
 10
84.35540226840769
 20
-169.5427950965032
 30
0.0
 10
84.35540226840769
 20
-169.5427950965032
 30
0.0
 10
83.91115720558472
 20
-169.5427950965032
 30
0.0
 10
83.91115720558472
 20
-169.5427950965032
 30
0.0
 10
83.91115720558472
 20
-169.5427950965032
 30
0.0
 10
83.91115720558472
 20
-170.023041407147
 30
0.0
 10
83.91115720558472
 20
-170.023041407147
 30
0.0
 10
83.91115720558472
 20
-170.023041407147
 30
0.0
 10
84.35333521111653
 20
-170.023041407147
 30
0.0
 10
84.35333521111653
 20
-170.023041407147
 30
0.0
 10
84.452726215866
 20
-170.023041407147
 30
0.0
 10
84.5881184684363
 20
-169.946904796923
 30
0.0
 10
84.5881184684363
 20
-169.7756835513061
 30
0.0
 10
84.5881184684363
 20
-169.6974798837909
 30
0.0
 10
84.55435653268086
 20
-169.5427950965032
 30
0.0
 10
84.35540226840769
 20
-169.5427950965032
 30
0.0
  0
SPLINE
  5
8F
330
8A
100
AcDbEntity
  8
レイヤー 1
100
AcDbSpline
210
0.0
220
0.0
230
1.0
 70
     9
 71
     3
 72
    44
 73
    40
 74
     0
 42
0.0000000001
 43
0.0000000001
 40
0.0
 40
0.0
 40
0.0
 40
0.0
 40
1.0
 40
1.0
 40
1.0
 40
2.0
 40
2.0
 40
2.0
 40
3.0
 40
3.0
 40
3.0
 40
4.0
 40
4.0
 40
4.0
 40
5.0
 40
5.0
 40
5.0
 40
6.0
 40
6.0
 40
6.0
 40
7.0
 40
7.0
 40
7.0
 40
8.0
 40
8.0
 40
8.0
 40
9.0
 40
9.0
 40
9.0
 40
10.0
 40
10.0
 40
10.0
 40
11.0
 40
11.0
 40
11.0
 40
12.0
 40
12.0
 40
12.0
 40
13.0
 40
13.0
 40
13.0
 40
13.0
 10
84.60723874837944
 20
-170.8757025397463
 30
0.0
 10
84.58381209907974
 20
-170.8312608079866
 30
0.0
 10
84.56279701661973
 20
-170.7785508470623
 30
0.0
 10
84.56055770455431
 20
-170.5477294495506
 30
0.0
 10
84.556423589972
 20
-170.3045057082919
 30
0.0
 10
84.4971679476257
 20
-170.2345702699413
 30
0.0
 10
84.31940102058682
 20
-170.2345702699413
 30
0.0
 10
84.31940102058682
 20
-170.2345702699413
 30
0.0
 10
83.91115720558472
 20
-170.2345702699413
 30
0.0
 10
83.91115720558472
 20
-170.2345702699413
 30
0.0
 10
83.91115720558472
 20
-170.2345702699413
 30
0.0
 10
83.91115720558472
 20
-170.8757025397463
 30
0.0
 10
83.91115720558472
 20
-170.8757025397463
 30
0.0
 10
83.91115720558472
 20
-170.8757025397463
 30
0.0
 10
83.67637394826493
 20
-170.8757025397463
 30
0.0
 10
83.67637394826493
 20
-170.8757025397463
 30
0.0
 10
83.67637394826493
 20
-170.8757025397463
 30
0.0
 10
83.67637394826493
 20
-169.3312662337088
 30
0.0
 10
83.67637394826493
 20
-169.3312662337088
 30
0.0
 10
83.67637394826493
 20
-169.3312662337088
 30
0.0
 10
84.35109589905112
 20
-169.3312662337088
 30
0.0
 10
84.35109589905112
 20
-169.3312662337088
 30
0.0
 10
84.65788165201262
 20
-169.3312662337088
 30
0.0
 10
84.82514103782149
 20
-169.5028319888743
 30
0.0
 10
84.82514103782149
 20
-169.7588025834283
 30
0.0
 10
84.82514103782149
 20
-169.8094454870615
 30
0.0
 10
84.81652829910837
 20
-169.8921277787075
 30
0.0
 10
84.77208656734864
 20
-169.9723985035138
 30
0.0
 10
84.71300317977663
 20
-170.0760958776198
 30
0.0
 10
84.6473741107826
 20
-170.0950439027887
 30
0.0
 10
84.58605141114516
 20
-170.1119248706665
 30
0.0
 10
84.72351072100662
 20
-170.154299545135
 30
0.0
 10
84.7912068472918
 20
-170.2028753914771
 30
0.0
 10
84.79551321664834
 20
-170.5181016283774
 30
0.0
 10
84.79964733123065
 20
-170.7888861335181
 30
0.0
 10
84.8356485790515
 20
-170.8205810119823
 30
0.0
 10
84.90334470533666
 20
-170.8757025397463
 30
0.0
 10
84.90334470533666
 20
-170.8757025397463
 30
0.0
 10
84.60723874837944
 20
-170.8757025397463
 30
0.0
 10
84.60723874837944
 20
-170.8757025397463
 30
0.0
  0
HATCH
  5
90
330
8A
100
AcDbEntity
  8
レイヤー 1
 62
   250
420
  2299925
440
 33554687
100
AcDbHatch
 10
0.0
 20
0.0
 30
0.0
210
0.0
220
0.0
230
1.0
  2
SOLID
 70
     1
 71
     1
 91
        2
 92
        1
 93
        1
 72
     4
 94
        3
 73
     0
 74
     0
 95
       20
 96
       16
 40
0.0
 40
0.0
 40
0.0
 40
0.0
 40
1.0
 40
1.0
 40
1.0
 40
2.0
 40
2.0
 40
2.0
 40
3.0
 40
3.0
 40
3.0
 40
4.0
 40
4.0
 40
4.0
 40
5.0
 40
5.0
 40
5.0
 40
5.0
 10
84.35540226840769
 20
-169.5427950965032
 10
84.35540226840769
 20
-169.5427950965032
 10
83.91115720558472
 20
-169.5427950965032
 10
83.91115720558472
 20
-169.5427950965032
 10
83.91115720558472
 20
-169.5427950965032
 10
83.91115720558472
 20
-170.023041407147
 10
83.91115720558472
 20
-170.023041407147
 10
83.91115720558472
 20
-170.023041407147
 10
84.35333521111653
 20
-170.023041407147
 10
84.35333521111653
 20
-170.023041407147
 10
84.452726215866
 20
-170.023041407147
 10
84.5881184684363
 20
-169.946904796923
 10
84.5881184684363
 20
-169.7756835513061
 10
84.5881184684363
 20
-169.6974798837909
 10
84.55435653268086
 20
-169.5427950965032
 10
84.35540226840769
 20
-169.5427950965032
 97
        0
 97
        1
330
8E
 92
        1
 93
        1
 72
     4
 94
        3
 73
     0
 74
     0
 95
       44
 96
       40
 40
0.0
 40
0.0
 40
0.0
 40
0.0
 40
1.0
 40
1.0
 40
1.0
 40
2.0
 40
2.0
 40
2.0
 40
3.0
 40
3.0
 40
3.0
 40
4.0
 40
4.0
 40
4.0
 40
5.0
 40
5.0
 40
5.0
 40
6.0
 40
6.0
 40
6.0
 40
7.0
 40
7.0
 40
7.0
 40
8.0
 40
8.0
 40
8.0
 40
9.0
 40
9.0
 40
9.0
 40
10.0
 40
10.0
 40
10.0
 40
11.0
 40
11.0
 40
11.0
 40
12.0
 40
12.0
 40
12.0
 40
13.0
 40
13.0
 40
13.0
 40
13.0
 10
84.60723874837944
 20
-170.8757025397463
 10
84.58381209907974
 20
-170.8312608079866
 10
84.56279701661973
 20
-170.7785508470623
 10
84.56055770455431
 20
-170.5477294495506
 10
84.556423589972
 20
-170.3045057082919
 10
84.4971679476257
 20
-170.2345702699413
 10
84.31940102058682
 20
-170.2345702699413
 10
84.31940102058682
 20
-170.2345702699413
 10
83.91115720558472
 20
-170.2345702699413
 10
83.91115720558472
 20
-170.2345702699413
 10
83.91115720558472
 20
-170.2345702699413
 10
83.91115720558472
 20
-170.8757025397463
 10
83.91115720558472
 20
-170.8757025397463
 10
83.91115720558472
 20
-170.8757025397463
 10
83.67637394826493
 20
-170.8757025397463
 10
83.67637394826493
 20
-170.8757025397463
 10
83.67637394826493
 20
-170.8757025397463
 10
83.67637394826493
 20
-169.3312662337088
 10
83.67637394826493
 20
-169.3312662337088
 10
83.67637394826493
 20
-169.3312662337088
 10
84.35109589905112
 20
-169.3312662337088
 10
84.35109589905112
 20
-169.3312662337088
 10
84.65788165201262
 20
-169.3312662337088
 10
84.82514103782149
 20
-169.5028319888743
 10
84.82514103782149
 20
-169.7588025834283
 10
84.82514103782149
 20
-169.8094454870615
 10
84.81652829910837
 20
-169.8921277787075
 10
84.77208656734864
 20
-169.9723985035138
 10
84.71300317977663
 20
-170.0760958776198
 10
84.6473741107826
 20
-170.0950439027887
 10
84.58605141114516
 20
-170.1119248706665
 10
84.72351072100662
 20
-170.154299545135
 10
84.7912068472918
 20
-170.2028753914771
 10
84.79551321664834
 20
-170.5181016283774
 10
84.79964733123065
 20
-170.7888861335181
 10
84.8356485790515
 20
-170.8205810119823
 10
84.90334470533666
 20
-170.8757025397463
 10
84.90334470533666
 20
-170.8757025397463
 10
84.60723874837944
 20
-170.8757025397463
 10
84.60723874837944
 20
-170.8757025397463
 97
        0
 97
        1
330
8F
 75
     2
 76
     1
 98
        1
 10
0.0
 20
0.0
450
        0
451
        0
460
0.0
461
0.0
452
        0
462
0.0
453
        0
470

  0
SPLINE
  5
91
330
8A
100
AcDbEntity
  8
レイヤー 1
100
AcDbSpline
210
0.0
220
0.0
230
1.0
 70
    11
 71
     3
 72
    26
 73
    22
 74
     0
 42
0.0000000001
 43
0.0000000001
 40
0.0
 40
0.0
 40
0.0
 40
0.0
 40
1.0
 40
1.0
 40
1.0
 40
2.0
 40
2.0
 40
2.0
 40
3.0
 40
3.0
 40
3.0
 40
4.0
 40
4.0
 40
4.0
 40
5.0
 40
5.0
 40
5.0
 40
6.0
 40
6.0
 40
6.0
 40
7.0
 40
7.0
 40
7.0
 40
7.0
 10
85.49435083583128
 20
-170.8757025397463
 30
0.0
 10
85.49435083583128
 20
-170.8757025397463
 30
0.0
 10
85.49435083583128
 20
-169.7715494367237
 30
0.0
 10
85.49435083583128
 20
-169.7715494367237
 30
0.0
 10
85.49435083583128
 20
-169.7715494367237
 30
0.0
 10
85.16431068834434
 20
-169.7715494367237
 30
0.0
 10
85.16431068834434
 20
-169.7715494367237
 30
0.0
 10
85.16431068834434
 20
-169.7715494367237
 30
0.0
 10
85.16431068834434
 20
-169.623410330858
 30
0.0
 10
85.16431068834434
 20
-169.623410330858
 30
0.0
 10
85.49641789312243
 20
-169.6085964202715
 30
0.0
 10
85.5429266821733
 20
-169.4456434038191
 30
0.0
 10
85.57255450334645
 20
-169.3312662337088
 30
0.0
 10
85.57255450334645
 20
-169.3312662337088
 30
0.0
 10
85.71862655192104
 20
-169.3312662337088
 30
0.0
 10
85.71862655192104
 20
-169.3312662337088
 30
0.0
 10
85.71862655192104
 20
-169.3312662337088
 30
0.0
 10
85.71862655192104
 20
-170.8757025397463
 30
0.0
 10
85.71862655192104
 20
-170.8757025397463
 30
0.0
 10
85.71862655192104
 20
-170.8757025397463
 30
0.0
 10
85.49435083583128
 20
-170.8757025397463
 30
0.0
 10
85.49435083583128
 20
-170.8757025397463
 30
0.0
  0
HATCH
  5
92
330
8A
100
AcDbEntity
  8
レイヤー 1
 62
   250
420
  2299925
440
 33554687
100
AcDbHatch
 10
0.0
 20
0.0
 30
0.0
210
0.0
220
0.0
230
1.0
  2
SOLID
 70
     1
 71
     1
 91
        1
 92
        1
 93
        1
 72
     4
 94
        3
 73
     0
 74
     0
 95
       26
 96
       22
 40
0.0
 40
0.0
 40
0.0
 40
0.0
 40
1.0
 40
1.0
 40
1.0
 40
2.0
 40
2.0
 40
2.0
 40
3.0
 40
3.0
 40
3.0
 40
4.0
 40
4.0
 40
4.0
 40
5.0
 40
5.0
 40
5.0
 40
6.0
 40
6.0
 40
6.0
 40
7.0
 40
7.0
 40
7.0
 40
7.0
 10
85.49435083583128
 20
-170.8757025397463
 10
85.49435083583128
 20
-170.8757025397463
 10
85.49435083583128
 20
-169.7715494367237
 10
85.49435083583128
 20
-169.7715494367237
 10
85.49435083583128
 20
-169.7715494367237
 10
85.16431068834434
 20
-169.7715494367237
 10
85.16431068834434
 20
-169.7715494367237
 10
85.16431068834434
 20
-169.7715494367237
 10
85.16431068834434
 20
-169.623410330858
 10
85.16431068834434
 20
-169.623410330858
 10
85.49641789312243
 20
-169.6085964202715
 10
85.5429266821733
 20
-169.4456434038191
 10
85.57255450334645
 20
-169.3312662337088
 10
85.57255450334645
 20
-169.3312662337088
 10
85.71862655192104
 20
-169.3312662337088
 10
85.71862655192104
 20
-169.3312662337088
 10
85.71862655192104
 20
-169.3312662337088
 10
85.71862655192104
 20
-170.8757025397463
 10
85.71862655192104
 20
-170.8757025397463
 10
85.71862655192104
 20
-170.8757025397463
 10
85.49435083583128
 20
-170.8757025397463
 10
85.49435083583128
 20
-170.8757025397463
 97
        0
 97
        1
330
91
 75
     2
 76
     1
 98
        1
 10
0.0
 20
0.0
450
        0
451
        0
460
0.0
461
0.0
452
        0
462
0.0
453
        0
470

  0
SPLINE
  5
93
330
8A
100
AcDbEntity
  8
レイヤー 1
100
AcDbSpline
210
0.0
220
0.0
230
1.0
 70
     9
 71
     3
 72
    53
 73
    49
 74
     0
 42
0.0000000001
 43
0.0000000001
 40
0.0
 40
0.0
 40
0.0
 40
0.0
 40
1.0
 40
1.0
 40
1.0
 40
2.0
 40
2.0
 40
2.0
 40
3.0
 40
3.0
 40
3.0
 40
4.0
 40
4.0
 40
4.0
 40
5.0
 40
5.0
 40
5.0
 40
6.0
 40
6.0
 40
6.0
 40
7.0
 40
7.0
 40
7.0
 40
8.0
 40
8.0
 40
8.0
 40
9.0
 40
9.0
 40
9.0
 40
10.0
 40
10.0
 40
10.0
 40
11.0
 40
11.0
 40
11.0
 40
12.0
 40
12.0
 40
12.0
 40
13.0
 40
13.0
 40
13.0
 40
14.0
 40
14.0
 40
14.0
 40
15.0
 40
15.0
 40
15.0
 40
16.0
 40
16.0
 40
16.0
 40
16.0
 10
86.70082327476576
 20
-170.9263454433795
 30
0.0
 10
86.62244735247634
 20
-170.9263454433795
 30
0.0
 10
86.52098929043573
 20
-170.9094644755018
 30
0.0
 10
86.41935897362087
 20
-170.8460747185732
 30
0.0
 10
86.24589841593852
 20
-170.7361761725937
 30
0.0
 10
86.22471107870424
 20
-170.6049180346057
 30
0.0
 10
86.20576305353536
 20
-170.4970865459174
 30
0.0
 10
86.20576305353536
 20
-170.4970865459174
 30
0.0
 10
86.42779945755972
 20
-170.4970865459174
 30
0.0
 10
86.42779945755972
 20
-170.4970865459174
 30
0.0
 10
86.48292098532371
 20
-170.6958685554163
 30
0.0
 10
86.60987275395518
 20
-170.7254963765894
 30
0.0
 10
86.70289033205692
 20
-170.7254963765894
 30
0.0
 10
86.84258895398381
 20
-170.7254963765894
 30
0.0
 10
86.99486217443185
 20
-170.6259331170657
 30
0.0
 10
86.99486217443185
 20
-170.3933891718113
 30
0.0
 10
86.99486217443185
 20
-170.1374185772573
 30
0.0
 10
86.8150281901018
 20
-170.0674831389067
 30
0.0
 10
86.69444984811805
 20
-170.0674831389067
 30
0.0
 10
86.66275496965376
 20
-170.0674831389067
 30
0.0
 10
86.52098929043573
 20
-170.0674831389067
 30
0.0
 10
86.43210582691628
 20
-170.1966742196036
 30
0.0
 10
86.43210582691628
 20
-170.1966742196036
 30
0.0
 10
86.2565782119428
 20
-170.1777261944347
 30
0.0
 10
86.2565782119428
 20
-170.1777261944347
 30
0.0
 10
86.2565782119428
 20
-170.1777261944347
 30
0.0
 10
86.37715655392655
 20
-169.3312662337088
 30
0.0
 10
86.37715655392655
 20
-169.3312662337088
 30
0.0
 10
86.37715655392655
 20
-169.3312662337088
 30
0.0
 10
87.15557587881875
 20
-169.3312662337088
 30
0.0
 10
87.15557587881875
 20
-169.3312662337088
 30
0.0
 10
87.15557587881875
 20
-169.3312662337088
 30
0.0
 10
87.15557587881875
 20
-169.5259141286255
 30
0.0
 10
87.15557587881875
 20
-169.5259141286255
 30
0.0
 10
87.15557587881875
 20
-169.5259141286255
 30
0.0
 10
86.5399373156046
 20
-169.5259141286255
 30
0.0
 10
86.5399373156046
 20
-169.5259141286255
 30
0.0
 10
86.5399373156046
 20
-169.5259141286255
 30
0.0
 10
86.47448050138486
 20
-169.9489718542141
 30
0.0
 10
86.47448050138486
 20
-169.9489718542141
 30
0.0
 10
86.5358032010223
 20
-169.9152099184587
 30
0.0
 10
86.61831323789405
 20
-169.8749023012813
 30
0.0
 10
86.73665226781237
 20
-169.8749023012813
 30
0.0
 10
86.99055580507529
 20
-169.8749023012813
 30
0.0
 10
87.22757837446046
 20
-170.0612819670333
 30
0.0
 10
87.22757837446046
 20
-170.3744411466425
 30
0.0
 10
87.22757837446046
 20
-170.691734440834
 30
0.0
 10
87.0033026583707
 20
-170.9263454433795
 30
0.0
 10
86.70082327476576
 20
-170.9263454433795
 30
0.0
  0
HATCH
  5
94
330
8A
100
AcDbEntity
  8
レイヤー 1
 62
   250
420
  2299925
440
 33554687
100
AcDbHatch
 10
0.0
 20
0.0
 30
0.0
210
0.0
220
0.0
230
1.0
  2
SOLID
 70
     1
 71
     1
 91
        1
 92
        1
 93
        1
 72
     4
 94
        3
 73
     0
 74
     0
 95
       53
 96
       49
 40
0.0
 40
0.0
 40
0.0
 40
0.0
 40
1.0
 40
1.0
 40
1.0
 40
2.0
 40
2.0
 40
2.0
 40
3.0
 40
3.0
 40
3.0
 40
4.0
 40
4.0
 40
4.0
 40
5.0
 40
5.0
 40
5.0
 40
6.0
 40
6.0
 40
6.0
 40
7.0
 40
7.0
 40
7.0
 40
8.0
 40
8.0
 40
8.0
 40
9.0
 40
9.0
 40
9.0
 40
10.0
 40
10.0
 40
10.0
 40
11.0
 40
11.0
 40
11.0
 40
12.0
 40
12.0
 40
12.0
 40
13.0
 40
13.0
 40
13.0
 40
14.0
 40
14.0
 40
14.0
 40
15.0
 40
15.0
 40
15.0
 40
16.0
 40
16.0
 40
16.0
 40
16.0
 10
86.70082327476576
 20
-170.9263454433795
 10
86.62244735247634
 20
-170.9263454433795
 10
86.52098929043573
 20
-170.9094644755018
 10
86.41935897362087
 20
-170.8460747185732
 10
86.24589841593852
 20
-170.7361761725937
 10
86.22471107870424
 20
-170.6049180346057
 10
86.20576305353536
 20
-170.4970865459174
 10
86.20576305353536
 20
-170.4970865459174
 10
86.42779945755972
 20
-170.4970865459174
 10
86.42779945755972
 20
-170.4970865459174
 10
86.48292098532371
 20
-170.6958685554163
 10
86.60987275395518
 20
-170.7254963765894
 10
86.70289033205692
 20
-170.7254963765894
 10
86.84258895398381
 20
-170.7254963765894
 10
86.99486217443185
 20
-170.6259331170657
 10
86.99486217443185
 20
-170.3933891718113
 10
86.99486217443185
 20
-170.1374185772573
 10
86.8150281901018
 20
-170.0674831389067
 10
86.69444984811805
 20
-170.0674831389067
 10
86.66275496965376
 20
-170.0674831389067
 10
86.52098929043573
 20
-170.0674831389067
 10
86.43210582691628
 20
-170.1966742196036
 10
86.43210582691628
 20
-170.1966742196036
 10
86.2565782119428
 20
-170.1777261944347
 10
86.2565782119428
 20
-170.1777261944347
 10
86.2565782119428
 20
-170.1777261944347
 10
86.37715655392655
 20
-169.3312662337088
 10
86.37715655392655
 20
-169.3312662337088
 10
86.37715655392655
 20
-169.3312662337088
 10
87.15557587881875
 20
-169.3312662337088
 10
87.15557587881875
 20
-169.3312662337088
 10
87.15557587881875
 20
-169.3312662337088
 10
87.15557587881875
 20
-169.5259141286255
 10
87.15557587881875
 20
-169.5259141286255
 10
87.15557587881875
 20
-169.5259141286255
 10
86.5399373156046
 20
-169.5259141286255
 10
86.5399373156046
 20
-169.5259141286255
 10
86.5399373156046
 20
-169.5259141286255
 10
86.47448050138486
 20
-169.9489718542141
 10
86.47448050138486
 20
-169.9489718542141
 10
86.5358032010223
 20
-169.9152099184587
 10
86.61831323789405
 20
-169.8749023012813
 10
86.73665226781237
 20
-169.8749023012813
 10
86.99055580507529
 20
-169.8749023012813
 10
87.22757837446046
 20
-170.0612819670333
 10
87.22757837446046
 20
-170.3744411466425
 10
87.22757837446046
 20
-170.691734440834
 10
87.0033026583707
 20
-170.9263454433795
 10
86.70082327476576
 20
-170.9263454433795
 97
        0
 97
        1
330
93
 75
     2
 76
     1
 98
        1
 10
0.0
 20
0.0
450
        0
451
        0
460
0.0
461
0.0
452
        0
462
0.0
453
        0
470

  0
ENDBLK
  5
8D
330
8A
100
AcDbEntity
  8
0
100
AcDbBlockEnd
  0
BLOCK
  5
9A
330
98
100
AcDbEntity
  8
0
100
AcDbBlockBegin
  2
Block_2
 70
     0
 10
0.0
 20
0.0
 30
0.0
  3
Block_2
  1

  0
INSERT
  5
9D
330
98
100
AcDbEntity
  8
レイヤー 1
100
AcDbBlockReference
  2
Block_3
 10
0.0
 20
0.0
 30
0.0
  0
ENDBLK
  5
9B
330
98
100
AcDbEntity
  8
0
100
AcDbBlockEnd
  0
BLOCK
  5
9E
330
9C
100
AcDbEntity
  8
0
100
AcDbBlockBegin
  2
Block_3
 70
     0
 10
0.0
 20
0.0
 30
0.0
  3
Block_3
  1

  0
SPLINE
  5
A0
330
9C
100
AcDbEntity
  8
レイヤー 1
100
AcDbSpline
210
0.0
220
0.0
230
1.0
 70
    11
 71
     3
 72
    14
 73
    10
 74
     0
 42
0.0000000001
 43
0.0000000001
 40
0.0
 40
0.0
 40
0.0
 40
0.0
 40
1.0
 40
1.0
 40
1.0
 40
2.0
 40
2.0
 40
2.0
 40
3.0
 40
3.0
 40
3.0
 40
3.0
 10
108.7850911186371
 20
-168.3139295369145
 30
0.0
 10
108.7850911186371
 20
-168.3139295369145
 30
0.0
 10
108.3279269477444
 20
-168.9698757173061
 30
0.0
 10
108.3279269477444
 20
-168.9698757173061
 30
0.0
 10
108.3279269477444
 20
-168.9698757173061
 30
0.0
 10
108.7850911186371
 20
-168.9698757173061
 30
0.0
 10
108.7850911186371
 20
-168.9698757173061
 30
0.0
 10
108.7850911186371
 20
-168.9698757173061
 30
0.0
 10
108.7850911186371
 20
-168.3139295369145
 30
0.0
 10
108.7850911186371
 20
-168.3139295369145
 30
0.0
  0
SPLINE
  5
A1
330
9C
100
AcDbEntity
  8
レイヤー 1
100
AcDbSpline
210
0.0
220
0.0
230
1.0
 70
    11
 71
     3
 72
    38
 73
    34
 74
     0
 42
0.0000000001
 43
0.0000000001
 40
0.0
 40
0.0
 40
0.0
 40
0.0
 40
1.0
 40
1.0
 40
1.0
 40
2.0
 40
2.0
 40
2.0
 40
3.0
 40
3.0
 40
3.0
 40
4.0
 40
4.0
 40
4.0
 40
5.0
 40
5.0
 40
5.0
 40
6.0
 40
6.0
 40
6.0
 40
7.0
 40
7.0
 40
7.0
 40
8.0
 40
8.0
 40
8.0
 40
9.0
 40
9.0
 40
9.0
 40
10.0
 40
10.0
 40
10.0
 40
11.0
 40
11.0
 40
11.0
 40
11.0
 10
109.0028211533048
 20
-169.168657726805
 30
0.0
 10
109.0028211533048
 20
-169.168657726805
 30
0.0
 10
109.0028211533048
 20
-169.5155788421697
 30
0.0
 10
109.0028211533048
 20
-169.5155788421697
 30
0.0
 10
109.0028211533048
 20
-169.5155788421697
 30
0.0
 10
108.7850911186371
 20
-169.5155788421697
 30
0.0
 10
108.7850911186371
 20
-169.5155788421697
 30
0.0
 10
108.7850911186371
 20
-169.5155788421697
 30
0.0
 10
108.7850911186371
 20
-169.168657726805
 30
0.0
 10
108.7850911186371
 20
-169.168657726805
 30
0.0
 10
108.7850911186371
 20
-169.168657726805
 30
0.0
 10
108.1291449382455
 20
-169.168657726805
 30
0.0
 10
108.1291449382455
 20
-169.168657726805
 30
0.0
 10
108.1291449382455
 20
-169.168657726805
 30
0.0
 10
108.1291449382455
 20
-168.9443820107153
 30
0.0
 10
108.1291449382455
 20
-168.9443820107153
 30
0.0
 10
108.1291449382455
 20
-168.9443820107153
 30
0.0
 10
108.8081732583882
 20
-167.9711425361322
 30
0.0
 10
108.8081732583882
 20
-167.9711425361322
 30
0.0
 10
108.8081732583882
 20
-167.9711425361322
 30
0.0
 10
109.0028211533048
 20
-167.9711425361322
 30
0.0
 10
109.0028211533048
 20
-167.9711425361322
 30
0.0
 10
109.0028211533048
 20
-167.9711425361322
 30
0.0
 10
109.0028211533048
 20
-168.9698757173061
 30
0.0
 10
109.0028211533048
 20
-168.9698757173061
 30
0.0
 10
109.0028211533048
 20
-168.9698757173061
 30
0.0
 10
109.2102159015169
 20
-168.9698757173061
 30
0.0
 10
109.2102159015169
 20
-168.9698757173061
 30
0.0
 10
109.2102159015169
 20
-168.9698757173061
 30
0.0
 10
109.2102159015169
 20
-169.168657726805
 30
0.0
 10
109.2102159015169
 20
-169.168657726805
 30
0.0
 10
109.2102159015169
 20
-169.168657726805
 30
0.0
 10
109.0028211533048
 20
-169.168657726805
 30
0.0
 10
109.0028211533048
 20
-169.168657726805
 30
0.0
  0
HATCH
  5
A2
330
9C
100
AcDbEntity
  8
レイヤー 1
 62
   250
420
  2299925
440
 33554687
100
AcDbHatch
 10
0.0
 20
0.0
 30
0.0
210
0.0
220
0.0
230
1.0
  2
SOLID
 70
     1
 71
     1
 91
        2
 92
        1
 93
        1
 72
     4
 94
        3
 73
     0
 74
     0
 95
       14
 96
       10
 40
0.0
 40
0.0
 40
0.0
 40
0.0
 40
1.0
 40
1.0
 40
1.0
 40
2.0
 40
2.0
 40
2.0
 40
3.0
 40
3.0
 40
3.0
 40
3.0
 10
108.7850911186371
 20
-168.3139295369145
 10
108.7850911186371
 20
-168.3139295369145
 10
108.3279269477444
 20
-168.9698757173061
 10
108.3279269477444
 20
-168.9698757173061
 10
108.3279269477444
 20
-168.9698757173061
 10
108.7850911186371
 20
-168.9698757173061
 10
108.7850911186371
 20
-168.9698757173061
 10
108.7850911186371
 20
-168.9698757173061
 10
108.7850911186371
 20
-168.3139295369145
 10
108.7850911186371
 20
-168.3139295369145
 97
        0
 97
        1
330
A0
 92
        1
 93
        1
 72
     4
 94
        3
 73
     0
 74
     0
 95
       38
 96
       34
 40
0.0
 40
0.0
 40
0.0
 40
0.0
 40
1.0
 40
1.0
 40
1.0
 40
2.0
 40
2.0
 40
2.0
 40
3.0
 40
3.0
 40
3.0
 40
4.0
 40
4.0
 40
4.0
 40
5.0
 40
5.0
 40
5.0
 40
6.0
 40
6.0
 40
6.0
 40
7.0
 40
7.0
 40
7.0
 40
8.0
 40
8.0
 40
8.0
 40
9.0
 40
9.0
 40
9.0
 40
10.0
 40
10.0
 40
10.0
 40
11.0
 40
11.0
 40
11.0
 40
11.0
 10
109.0028211533048
 20
-169.168657726805
 10
109.0028211533048
 20
-169.168657726805
 10
109.0028211533048
 20
-169.5155788421697
 10
109.0028211533048
 20
-169.5155788421697
 10
109.0028211533048
 20
-169.5155788421697
 10
108.7850911186371
 20
-169.5155788421697
 10
108.7850911186371
 20
-169.5155788421697
 10
108.7850911186371
 20
-169.5155788421697
 10
108.7850911186371
 20
-169.168657726805
 10
108.7850911186371
 20
-169.168657726805
 10
108.7850911186371
 20
-169.168657726805
 10
108.1291449382455
 20
-169.168657726805
 10
108.1291449382455
 20
-169.168657726805
 10
108.1291449382455
 20
-169.168657726805
 10
108.1291449382455
 20
-168.9443820107153
 10
108.1291449382455
 20
-168.9443820107153
 10
108.1291449382455
 20
-168.9443820107153
 10
108.8081732583882
 20
-167.9711425361322
 10
108.8081732583882
 20
-167.9711425361322
 10
108.8081732583882
 20
-167.9711425361322
 10
109.0028211533048
 20
-167.9711425361322
 10
109.0028211533048
 20
-167.9711425361322
 10
109.0028211533048
 20
-167.9711425361322
 10
109.0028211533048
 20
-168.9698757173061
 10
109.0028211533048
 20
-168.9698757173061
 10
109.0028211533048
 20
-168.9698757173061
 10
109.2102159015169
 20
-168.9698757173061
 10
109.2102159015169
 20
-168.9698757173061
 10
109.2102159015169
 20
-168.9698757173061
 10
109.2102159015169
 20
-169.168657726805
 10
109.2102159015169
 20
-169.168657726805
 10
109.2102159015169
 20
-169.168657726805
 10
109.0028211533048
 20
-169.168657726805
 10
109.0028211533048
 20
-169.168657726805
 97
        0
 97
        1
330
A1
 75
     2
 76
     1
 98
        1
 10
0.0
 20
0.0
450
        0
451
        0
460
0.0
461
0.0
452
        0
462
0.0
453
        0
470

  0
SPLINE
  5
A3
330
9C
100
AcDbEntity
  8
レイヤー 1
100
AcDbSpline
210
0.0
220
0.0
230
1.0
 70
    11
 71
     3
 72
    26
 73
    22
 74
     0
 42
0.0000000001
 43
0.0000000001
 40
0.0
 40
0.0
 40
0.0
 40
0.0
 40
1.0
 40
1.0
 40
1.0
 40
2.0
 40
2.0
 40
2.0
 40
3.0
 40
3.0
 40
3.0
 40
4.0
 40
4.0
 40
4.0
 40
5.0
 40
5.0
 40
5.0
 40
6.0
 40
6.0
 40
6.0
 40
7.0
 40
7.0
 40
7.0
 40
7.0
 10
109.7989827199461
 20
-169.5155788421697
 30
0.0
 10
109.7989827199461
 20
-169.5155788421697
 30
0.0
 10
109.7989827199461
 20
-168.4114257391471
 30
0.0
 10
109.7989827199461
 20
-168.4114257391471
 30
0.0
 10
109.7989827199461
 20
-168.4114257391471
 30
0.0
 10
109.4689425724591
 20
-168.4114257391471
 30
0.0
 10
109.4689425724591
 20
-168.4114257391471
 30
0.0
 10
109.4689425724591
 20
-168.4114257391471
 30
0.0
 10
109.4689425724591
 20
-168.2632866332814
 30
0.0
 10
109.4689425724591
 20
-168.2632866332814
 30
0.0
 10
109.8010497772372
 20
-168.2484727226948
 30
0.0
 10
109.8475585662881
 20
-168.0855197062425
 30
0.0
 10
109.8771863874612
 20
-167.9711425361322
 30
0.0
 10
109.8771863874612
 20
-167.9711425361322
 30
0.0
 10
110.0232584360358
 20
-167.9711425361322
 30
0.0
 10
110.0232584360358
 20
-167.9711425361322
 30
0.0
 10
110.0232584360358
 20
-167.9711425361322
 30
0.0
 10
110.0232584360358
 20
-169.5155788421697
 30
0.0
 10
110.0232584360358
 20
-169.5155788421697
 30
0.0
 10
110.0232584360358
 20
-169.5155788421697
 30
0.0
 10
109.7989827199461
 20
-169.5155788421697
 30
0.0
 10
109.7989827199461
 20
-169.5155788421697
 30
0.0
  0
HATCH
  5
A4
330
9C
100
AcDbEntity
  8
レイヤー 1
 62
   250
420
  2299925
440
 33554687
100
AcDbHatch
 10
0.0
 20
0.0
 30
0.0
210
0.0
220
0.0
230
1.0
  2
SOLID
 70
     1
 71
     1
 91
        1
 92
        1
 93
        1
 72
     4
 94
        3
 73
     0
 74
     0
 95
       26
 96
       22
 40
0.0
 40
0.0
 40
0.0
 40
0.0
 40
1.0
 40
1.0
 40
1.0
 40
2.0
 40
2.0
 40
2.0
 40
3.0
 40
3.0
 40
3.0
 40
4.0
 40
4.0
 40
4.0
 40
5.0
 40
5.0
 40
5.0
 40
6.0
 40
6.0
 40
6.0
 40
7.0
 40
7.0
 40
7.0
 40
7.0
 10
109.7989827199461
 20
-169.5155788421697
 10
109.7989827199461
 20
-169.5155788421697
 10
109.7989827199461
 20
-168.4114257391471
 10
109.7989827199461
 20
-168.4114257391471
 10
109.7989827199461
 20
-168.4114257391471
 10
109.4689425724591
 20
-168.4114257391471
 10
109.4689425724591
 20
-168.4114257391471
 10
109.4689425724591
 20
-168.4114257391471
 10
109.4689425724591
 20
-168.2632866332814
 10
109.4689425724591
 20
-168.2632866332814
 10
109.8010497772372
 20
-168.2484727226948
 10
109.8475585662881
 20
-168.0855197062425
 10
109.8771863874612
 20
-167.9711425361322
 10
109.8771863874612
 20
-167.9711425361322
 10
110.0232584360358
 20
-167.9711425361322
 10
110.0232584360358
 20
-167.9711425361322
 10
110.0232584360358
 20
-167.9711425361322
 10
110.0232584360358
 20
-169.5155788421697
 10
110.0232584360358
 20
-169.5155788421697
 10
110.0232584360358
 20
-169.5155788421697
 10
109.7989827199461
 20
-169.5155788421697
 10
109.7989827199461
 20
-169.5155788421697
 97
        0
 97
        1
330
A3
 75
     2
 76
     1
 98
        1
 10
0.0
 20
0.0
450
        0
451
        0
460
0.0
461
0.0
452
        0
462
0.0
453
        0
470

  0
ENDBLK
  5
9F
330
9C
100
AcDbEntity
  8
0
100
AcDbBlockEnd
  0
BLOCK
  5
AA
330
A8
100
AcDbEntity
  8
0
100
AcDbBlockBegin
  2
Block_4
 70
     0
 10
0.0
 20
0.0
 30
0.0
  3
Block_4
  1

  0
INSERT
  5
AD
330
A8
100
AcDbEntity
  8
レイヤー 1
100
AcDbBlockReference
  2
Block_5
 10
0.0
 20
0.0
 30
0.0
  0
ENDBLK
  5
AB
330
A8
100
AcDbEntity
  8
0
100
AcDbBlockEnd
  0
BLOCK
  5
AE
330
AC
100
AcDbEntity
  8
0
100
AcDbBlockBegin
  2
Block_5
 70
     0
 10
0.0
 20
0.0
 30
0.0
  3
Block_5
  1

  0
SPLINE
  5
B0
330
AC
100
AcDbEntity
  8
レイヤー 1
100
AcDbSpline
210
0.0
220
0.0
230
1.0
 70
    11
 71
     3
 72
    26
 73
    22
 74
     0
 42
0.0000000001
 43
0.0000000001
 40
0.0
 40
0.0
 40
0.0
 40
0.0
 40
1.0
 40
1.0
 40
1.0
 40
2.0
 40
2.0
 40
2.0
 40
3.0
 40
3.0
 40
3.0
 40
4.0
 40
4.0
 40
4.0
 40
5.0
 40
5.0
 40
5.0
 40
6.0
 40
6.0
 40
6.0
 40
7.0
 40
7.0
 40
7.0
 40
7.0
 10
84.32405189949191
 20
-159.3663275426237
 30
0.0
 10
84.32405189949191
 20
-159.3663275426237
 30
0.0
 10
83.21972654169506
 20
-159.3663275426237
 30
0.0
 10
83.21972654169506
 20
-159.3663275426237
 30
0.0
 10
83.21972654169506
 20
-159.3663275426237
 30
0.0
 10
83.21972654169506
 20
-159.6963676901106
 30
0.0
 10
83.21972654169506
 20
-159.6963676901106
 30
0.0
 10
83.21972654169506
 20
-159.6963676901106
 30
0.0
 10
83.07175969060358
 20
-159.6963676901106
 30
0.0
 10
83.07175969060358
 20
-159.6963676901106
 30
0.0
 10
83.05694578001702
 20
-159.3642604853325
 30
0.0
 10
82.89399276356469
 20
-159.3177516962817
 30
0.0
 10
82.77978784822867
 20
-159.2881238751085
 30
0.0
 10
82.77978784822867
 20
-159.2881238751085
 30
0.0
 10
82.77978784822867
 20
-159.1420518265339
 30
0.0
 10
82.77978784822867
 20
-159.1420518265339
 30
0.0
 10
82.77978784822867
 20
-159.1420518265339
 30
0.0
 10
84.32405189949191
 20
-159.1420518265339
 30
0.0
 10
84.32405189949191
 20
-159.1420518265339
 30
0.0
 10
84.32405189949191
 20
-159.1420518265339
 30
0.0
 10
84.32405189949191
 20
-159.3663275426237
 30
0.0
 10
84.32405189949191
 20
-159.3663275426237
 30
0.0
  0
HATCH
  5
B1
330
AC
100
AcDbEntity
  8
レイヤー 1
 62
   250
420
  2299925
440
 33554687
100
AcDbHatch
 10
0.0
 20
0.0
 30
0.0
210
0.0
220
0.0
230
1.0
  2
SOLID
 70
     1
 71
     1
 91
        1
 92
        1
 93
        1
 72
     4
 94
        3
 73
     0
 74
     0
 95
       26
 96
       22
 40
0.0
 40
0.0
 40
0.0
 40
0.0
 40
1.0
 40
1.0
 40
1.0
 40
2.0
 40
2.0
 40
2.0
 40
3.0
 40
3.0
 40
3.0
 40
4.0
 40
4.0
 40
4.0
 40
5.0
 40
5.0
 40
5.0
 40
6.0
 40
6.0
 40
6.0
 40
7.0
 40
7.0
 40
7.0
 40
7.0
 10
84.32405189949191
 20
-159.3663275426237
 10
84.32405189949191
 20
-159.3663275426237
 10
83.21972654169506
 20
-159.3663275426237
 10
83.21972654169506
 20
-159.3663275426237
 10
83.21972654169506
 20
-159.3663275426237
 10
83.21972654169506
 20
-159.6963676901106
 10
83.21972654169506
 20
-159.6963676901106
 10
83.21972654169506
 20
-159.6963676901106
 10
83.07175969060358
 20
-159.6963676901106
 10
83.07175969060358
 20
-159.6963676901106
 10
83.05694578001702
 20
-159.3642604853325
 10
82.89399276356469
 20
-159.3177516962817
 10
82.77978784822867
 20
-159.2881238751085
 10
82.77978784822867
 20
-159.2881238751085
 10
82.77978784822867
 20
-159.1420518265339
 10
82.77978784822867
 20
-159.1420518265339
 10
82.77978784822867
 20
-159.1420518265339
 10
84.32405189949191
 20
-159.1420518265339
 10
84.32405189949191
 20
-159.1420518265339
 10
84.32405189949191
 20
-159.1420518265339
 10
84.32405189949191
 20
-159.3663275426237
 10
84.32405189949191
 20
-159.3663275426237
 97
        0
 97
        1
330
B0
 75
     2
 76
     1
 98
        1
 10
0.0
 20
0.0
450
        0
451
        0
460
0.0
461
0.0
452
        0
462
0.0
453
        0
470

  0
SPLINE
  5
B2
330
AC
100
AcDbEntity
  8
レイヤー 1
100
AcDbSpline
210
0.0
220
0.0
230
1.0
 70
     9
 71
     3
 72
    53
 73
    49
 74
     0
 42
0.0000000001
 43
0.0000000001
 40
0.0
 40
0.0
 40
0.0
 40
0.0
 40
1.0
 40
1.0
 40
1.0
 40
2.0
 40
2.0
 40
2.0
 40
3.0
 40
3.0
 40
3.0
 40
4.0
 40
4.0
 40
4.0
 40
5.0
 40
5.0
 40
5.0
 40
6.0
 40
6.0
 40
6.0
 40
7.0
 40
7.0
 40
7.0
 40
8.0
 40
8.0
 40
8.0
 40
9.0
 40
9.0
 40
9.0
 40
10.0
 40
10.0
 40
10.0
 40
11.0
 40
11.0
 40
11.0
 40
12.0
 40
12.0
 40
12.0
 40
13.0
 40
13.0
 40
13.0
 40
14.0
 40
14.0
 40
14.0
 40
15.0
 40
15.0
 40
15.0
 40
16.0
 40
16.0
 40
16.0
 40
16.0
 10
84.37486705789934
 20
-158.1598551036892
 30
0.0
 10
84.37486705789934
 20
-158.2380587712044
 30
0.0
 10
84.35781383524735
 20
-158.3396890880192
 30
0.0
 10
84.29442407831876
 20
-158.4413194048341
 30
0.0
 10
84.18435327756503
 20
-158.6146077077422
 30
0.0
 10
84.05326739435126
 20
-158.6359672997507
 30
0.0
 10
83.94543590566295
 20
-158.6549153249196
 30
0.0
 10
83.94543590566295
 20
-158.6549153249196
 30
0.0
 10
83.94543590566295
 20
-158.432706666121
 30
0.0
 10
83.94543590566295
 20
-158.432706666121
 30
0.0
 10
84.14421791516186
 20
-158.3779296479055
 30
0.0
 10
84.17384573633501
 20
-158.2508056244998
 30
0.0
 10
84.17384573633501
 20
-158.157788046398
 30
0.0
 10
84.17384573633501
 20
-158.0182616792454
 30
0.0
 10
84.07445473158556
 20
-157.8659884587974
 30
0.0
 10
83.84173853155692
 20
-157.8659884587974
 30
0.0
 10
83.58576793700287
 20
-157.8659884587974
 30
0.0
 10
83.51600475342655
 20
-158.0458224431274
 30
0.0
 10
83.51600475342655
 20
-158.1664007851112
 30
0.0
 10
83.51600475342655
 20
-158.1980956635755
 30
0.0
 10
83.51600475342655
 20
-158.3396890880192
 30
0.0
 10
83.64502357934917
 20
-158.4285725515387
 30
0.0
 10
83.64502357934917
 20
-158.4285725515387
 30
0.0
 10
83.62590329940603
 20
-158.6042724212864
 30
0.0
 10
83.62590329940603
 20
-158.6042724212864
 30
0.0
 10
83.62590329940603
 20
-158.6042724212864
 30
0.0
 10
82.77978784822867
 20
-158.4836940793027
 30
0.0
 10
82.77978784822867
 20
-158.4836940793027
 30
0.0
 10
82.77978784822867
 20
-158.4836940793027
 30
0.0
 10
82.77978784822867
 20
-157.7051024996362
 30
0.0
 10
82.77978784822867
 20
-157.7051024996362
 30
0.0
 10
82.77978784822867
 20
-157.7051024996362
 30
0.0
 10
82.97443574314527
 20
-157.7051024996362
 30
0.0
 10
82.97443574314527
 20
-157.7051024996362
 30
0.0
 10
82.97443574314527
 20
-157.7051024996362
 30
0.0
 10
82.97443574314527
 20
-158.3207410628503
 30
0.0
 10
82.97443574314527
 20
-158.3207410628503
 30
0.0
 10
82.97443574314527
 20
-158.3207410628503
 30
0.0
 10
83.39749346873396
 20
-158.3861978770701
 30
0.0
 10
83.39749346873396
 20
-158.3861978770701
 30
0.0
 10
83.36355927820426
 20
-158.3248751774327
 30
0.0
 10
83.32342391580109
 20
-158.2425373953352
 30
0.0
 10
83.32342391580109
 20
-158.1240261106426
 30
0.0
 10
83.32342391580109
 20
-157.8701225733797
 30
0.0
 10
83.50963132677884
 20
-157.6331000039945
 30
0.0
 10
83.82261825161378
 20
-157.6331000039945
 30
0.0
 10
84.14008380057955
 20
-157.6331000039945
 30
0.0
 10
84.37486705789934
 20
-157.8573757200842
 30
0.0
 10
84.37486705789934
 20
-158.1598551036892
 30
0.0
  0
HATCH
  5
B3
330
AC
100
AcDbEntity
  8
レイヤー 1
 62
   250
420
  2299925
440
 33554687
100
AcDbHatch
 10
0.0
 20
0.0
 30
0.0
210
0.0
220
0.0
230
1.0
  2
SOLID
 70
     1
 71
     1
 91
        1
 92
        1
 93
        1
 72
     4
 94
        3
 73
     0
 74
     0
 95
       53
 96
       49
 40
0.0
 40
0.0
 40
0.0
 40
0.0
 40
1.0
 40
1.0
 40
1.0
 40
2.0
 40
2.0
 40
2.0
 40
3.0
 40
3.0
 40
3.0
 40
4.0
 40
4.0
 40
4.0
 40
5.0
 40
5.0
 40
5.0
 40
6.0
 40
6.0
 40
6.0
 40
7.0
 40
7.0
 40
7.0
 40
8.0
 40
8.0
 40
8.0
 40
9.0
 40
9.0
 40
9.0
 40
10.0
 40
10.0
 40
10.0
 40
11.0
 40
11.0
 40
11.0
 40
12.0
 40
12.0
 40
12.0
 40
13.0
 40
13.0
 40
13.0
 40
14.0
 40
14.0
 40
14.0
 40
15.0
 40
15.0
 40
15.0
 40
16.0
 40
16.0
 40
16.0
 40
16.0
 10
84.37486705789934
 20
-158.1598551036892
 10
84.37486705789934
 20
-158.2380587712044
 10
84.35781383524735
 20
-158.3396890880192
 10
84.29442407831876
 20
-158.4413194048341
 10
84.18435327756503
 20
-158.6146077077422
 10
84.05326739435126
 20
-158.6359672997507
 10
83.94543590566295
 20
-158.6549153249196
 10
83.94543590566295
 20
-158.6549153249196
 10
83.94543590566295
 20
-158.432706666121
 10
83.94543590566295
 20
-158.432706666121
 10
84.14421791516186
 20
-158.3779296479055
 10
84.17384573633501
 20
-158.2508056244998
 10
84.17384573633501
 20
-158.157788046398
 10
84.17384573633501
 20
-158.0182616792454
 10
84.07445473158556
 20
-157.8659884587974
 10
83.84173853155692
 20
-157.8659884587974
 10
83.58576793700287
 20
-157.8659884587974
 10
83.51600475342655
 20
-158.0458224431274
 10
83.51600475342655
 20
-158.1664007851112
 10
83.51600475342655
 20
-158.1980956635755
 10
83.51600475342655
 20
-158.3396890880192
 10
83.64502357934917
 20
-158.4285725515387
 10
83.64502357934917
 20
-158.4285725515387
 10
83.62590329940603
 20
-158.6042724212864
 10
83.62590329940603
 20
-158.6042724212864
 10
83.62590329940603
 20
-158.6042724212864
 10
82.77978784822867
 20
-158.4836940793027
 10
82.77978784822867
 20
-158.4836940793027
 10
82.77978784822867
 20
-158.4836940793027
 10
82.77978784822867
 20
-157.7051024996362
 10
82.77978784822867
 20
-157.7051024996362
 10
82.77978784822867
 20
-157.7051024996362
 10
82.97443574314527
 20
-157.7051024996362
 10
82.97443574314527
 20
-157.7051024996362
 10
82.97443574314527
 20
-157.7051024996362
 10
82.97443574314527
 20
-158.3207410628503
 10
82.97443574314527
 20
-158.3207410628503
 10
82.97443574314527
 20
-158.3207410628503
 10
83.39749346873396
 20
-158.3861978770701
 10
83.39749346873396
 20
-158.3861978770701
 10
83.36355927820426
 20
-158.3248751774327
 10
83.32342391580109
 20
-158.2425373953352
 10
83.32342391580109
 20
-158.1240261106426
 10
83.32342391580109
 20
-157.8701225733797
 10
83.50963132677884
 20
-157.6331000039945
 10
83.82261825161378
 20
-157.6331000039945
 10
84.14008380057955
 20
-157.6331000039945
 10
84.37486705789934
 20
-157.8573757200842
 10
84.37486705789934
 20
-158.1598551036892
 97
        0
 97
        1
330
B2
 75
     2
 76
     1
 98
        1
 10
0.0
 20
0.0
450
        0
451
        0
460
0.0
461
0.0
452
        0
462
0.0
453
        0
470

  0
ENDBLK
  5
AF
330
AC
100
AcDbEntity
  8
0
100
AcDbBlockEnd
  0
BLOCK
  5
BA
330
B8
100
AcDbEntity
  8
0
100
AcDbBlockBegin
  2
Block_6
 70
     0
 10
0.0
 20
0.0
 30
0.0
  3
Block_6
  1

  0
INSERT
  5
BD
330
B8
100
AcDbEntity
  8
レイヤー 1
100
AcDbBlockReference
  2
Block_7
 10
0.0
 20
0.0
 30
0.0
  0
ENDBLK
  5
BB
330
B8
100
AcDbEntity
  8
0
100
AcDbBlockEnd
  0
BLOCK
  5
BE
330
BC
100
AcDbEntity
  8
0
100
AcDbBlockBegin
  2
Block_7
 70
     0
 10
0.0
 20
0.0
 30
0.0
  3
Block_7
  1

  0
SPLINE
  5
C0
330
BC
100
AcDbEntity
  8
レイヤー 1
100
AcDbSpline
210
0.0
220
0.0
230
1.0
 70
     9
 71
     3
 72
    41
 73
    37
 74
     0
 42
0.0000000001
 43
0.0000000001
 40
0.0
 40
0.0
 40
0.0
 40
0.0
 40
1.0
 40
1.0
 40
1.0
 40
2.0
 40
2.0
 40
2.0
 40
3.0
 40
3.0
 40
3.0
 40
4.0
 40
4.0
 40
4.0
 40
5.0
 40
5.0
 40
5.0
 40
6.0
 40
6.0
 40
6.0
 40
7.0
 40
7.0
 40
7.0
 40
8.0
 40
8.0
 40
8.0
 40
9.0
 40
9.0
 40
9.0
 40
10.0
 40
10.0
 40
10.0
 40
11.0
 40
11.0
 40
11.0
 40
12.0
 40
12.0
 40
12.0
 40
12.0
 10
98.31389564599446
 20
-148.8804904141687
 30
0.0
 10
98.07273896202696
 20
-148.7450981615984
 30
0.0
 10
97.89497203498807
 20
-148.4491644594155
 30
0.0
 10
97.85483667258491
 20
-148.3199733787186
 30
0.0
 10
97.73425833060116
 20
-148.5845567119858
 30
0.0
 10
97.57130531414885
 20
-148.7623236390247
 30
0.0
 10
97.38940427252765
 20
-148.8763562995864
 30
0.0
 10
97.38940427252765
 20
-148.8763562995864
 30
0.0
 10
97.19268932031988
 20
-148.738896989725
 30
0.0
 10
97.19268932031988
 20
-148.738896989725
 30
0.0
 10
97.2624525038962
 20
-148.7134032831342
 30
0.0
 10
97.40852455247079
 20
-148.6520805834967
 30
0.0
 10
97.53116995174568
 20
-148.4977403057575
 30
0.0
 10
97.65588240831172
 20
-148.3413329707271
 30
0.0
 10
97.74476587183118
 20
-148.1084445159243
 30
0.0
 10
97.74476587183118
 20
-147.8483398067879
 30
0.0
 10
97.74476587183118
 20
-147.746709489973
 30
0.0
 10
97.73219127331001
 20
-147.6747069943313
 30
0.0
 10
97.72151147730575
 20
-147.6281982052804
 30
0.0
 10
97.72151147730575
 20
-147.6281982052804
 30
0.0
 10
97.92666691345237
 20
-147.649557797289
 30
0.0
 10
97.92666691345237
 20
-147.649557797289
 30
0.0
 10
97.94785425068665
 20
-147.6516248545801
 30
0.0
 10
97.96904158792095
 20
-147.6536919118713
 30
0.0
 10
97.96904158792095
 20
-147.6747069943313
 30
0.0
 10
97.96904158792095
 20
-147.6939995290487
 30
0.0
 10
97.95853404669093
 20
-147.7022677582133
 30
0.0
 10
97.92459985616122
 20
-147.7236273502219
 30
0.0
 10
97.91615937222235
 20
-147.9244764170119
 30
0.0
 10
97.97334795727749
 20
-148.1677001582706
 30
0.0
 10
98.03467065691496
 20
-148.2882785002543
 30
0.0
 10
98.12562117772555
 20
-148.4639783700021
 30
0.0
 10
98.32026907264216
 20
-148.6438123543321
 30
0.0
 10
98.45566132521248
 20
-148.7006564298387
 30
0.0
 10
98.45566132521248
 20
-148.7006564298387
 30
0.0
 10
98.31389564599446
 20
-148.8804904141687
 30
0.0
 10
98.31389564599446
 20
-148.8804904141687
 30
0.0
  0
SPLINE
  5
C1
330
BC
100
AcDbEntity
  8
レイヤー 1
100
AcDbSpline
210
0.0
220
0.0
230
1.0
 70
    11
 71
     3
 72
    17
 73
    13
 74
     0
 42
0.0000000001
 43
0.0000000001
 40
0.0
 40
0.0
 40
0.0
 40
0.0
 40
1.0
 40
1.0
 40
1.0
 40
2.0
 40
2.0
 40
2.0
 40
3.0
 40
3.0
 40
3.0
 40
4.0
 40
4.0
 40
4.0
 40
4.0
 10
97.2243841987842
 20
-147.9224093597208
 30
0.0
 10
97.2243841987842
 20
-147.9224093597208
 30
0.0
 10
97.06367049439728
 20
-147.9224093597208
 30
0.0
 10
97.06367049439728
 20
-147.9224093597208
 30
0.0
 10
97.06367049439728
 20
-147.9224093597208
 30
0.0
 10
97.06367049439728
 20
-148.0512559308691
 30
0.0
 10
97.06367049439728
 20
-148.0512559308691
 30
0.0
 10
97.06367049439728
 20
-148.0512559308691
 30
0.0
 10
97.2243841987842
 20
-148.0512559308691
 30
0.0
 10
97.2243841987842
 20
-148.0512559308691
 30
0.0
 10
97.2243841987842
 20
-148.0512559308691
 30
0.0
 10
97.2243841987842
 20
-147.9224093597208
 30
0.0
 10
97.2243841987842
 20
-147.9224093597208
 30
0.0
  0
SPLINE
  5
C2
330
BC
100
AcDbEntity
  8
レイヤー 1
100
AcDbSpline
210
0.0
220
0.0
230
1.0
 70
    11
 71
     3
 72
    17
 73
    13
 74
     0
 42
0.0000000001
 43
0.0000000001
 40
0.0
 40
0.0
 40
0.0
 40
0.0
 40
1.0
 40
1.0
 40
1.0
 40
2.0
 40
2.0
 40
2.0
 40
3.0
 40
3.0
 40
3.0
 40
4.0
 40
4.0
 40
4.0
 40
4.0
 10
97.2243841987842
 20
-147.649557797289
 30
0.0
 10
97.2243841987842
 20
-147.649557797289
 30
0.0
 10
97.06367049439728
 20
-147.649557797289
 30
0.0
 10
97.06367049439728
 20
-147.649557797289
 30
0.0
 10
97.06367049439728
 20
-147.649557797289
 30
0.0
 10
97.06367049439728
 20
-147.7784043684373
 30
0.0
 10
97.06367049439728
 20
-147.7784043684373
 30
0.0
 10
97.06367049439728
 20
-147.7784043684373
 30
0.0
 10
97.2243841987842
 20
-147.7784043684373
 30
0.0
 10
97.2243841987842
 20
-147.7784043684373
 30
0.0
 10
97.2243841987842
 20
-147.7784043684373
 30
0.0
 10
97.2243841987842
 20
-147.649557797289
 30
0.0
 10
97.2243841987842
 20
-147.649557797289
 30
0.0
  0
SPLINE
  5
C3
330
BC
100
AcDbEntity
  8
レイヤー 1
100
AcDbSpline
210
0.0
220
0.0
230
1.0
 70
    11
 71
     3
 72
    17
 73
    13
 74
     0
 42
0.0000000001
 43
0.0000000001
 40
0.0
 40
0.0
 40
0.0
 40
0.0
 40
1.0
 40
1.0
 40
1.0
 40
2.0
 40
2.0
 40
2.0
 40
3.0
 40
3.0
 40
3.0
 40
4.0
 40
4.0
 40
4.0
 40
4.0
 10
96.89227699400611
 20
-147.9224093597208
 30
0.0
 10
96.89227699400611
 20
-147.9224093597208
 30
0.0
 10
96.73363034691035
 20
-147.9224093597208
 30
0.0
 10
96.73363034691035
 20
-147.9224093597208
 30
0.0
 10
96.73363034691035
 20
-147.9224093597208
 30
0.0
 10
96.73363034691035
 20
-148.0512559308691
 30
0.0
 10
96.73363034691035
 20
-148.0512559308691
 30
0.0
 10
96.73363034691035
 20
-148.0512559308691
 30
0.0
 10
96.89227699400611
 20
-148.0512559308691
 30
0.0
 10
96.89227699400611
 20
-148.0512559308691
 30
0.0
 10
96.89227699400611
 20
-148.0512559308691
 30
0.0
 10
96.89227699400611
 20
-147.9224093597208
 30
0.0
 10
96.89227699400611
 20
-147.9224093597208
 30
0.0
  0
SPLINE
  5
C4
330
BC
100
AcDbEntity
  8
レイヤー 1
100
AcDbSpline
210
0.0
220
0.0
230
1.0
 70
    11
 71
     3
 72
    17
 73
    13
 74
     0
 42
0.0000000001
 43
0.0000000001
 40
0.0
 40
0.0
 40
0.0
 40
0.0
 40
1.0
 40
1.0
 40
1.0
 40
2.0
 40
2.0
 40
2.0
 40
3.0
 40
3.0
 40
3.0
 40
4.0
 40
4.0
 40
4.0
 40
4.0
 10
96.89227699400611
 20
-147.649557797289
 30
0.0
 10
96.89227699400611
 20
-147.649557797289
 30
0.0
 10
96.73363034691035
 20
-147.649557797289
 30
0.0
 10
96.73363034691035
 20
-147.649557797289
 30
0.0
 10
96.73363034691035
 20
-147.649557797289
 30
0.0
 10
96.73363034691035
 20
-147.7784043684373
 30
0.0
 10
96.73363034691035
 20
-147.7784043684373
 30
0.0
 10
96.73363034691035
 20
-147.7784043684373
 30
0.0
 10
96.89227699400611
 20
-147.7784043684373
 30
0.0
 10
96.89227699400611
 20
-147.7784043684373
 30
0.0
 10
96.89227699400611
 20
-147.7784043684373
 30
0.0
 10
96.89227699400611
 20
-147.649557797289
 30
0.0
 10
96.89227699400611
 20
-147.649557797289
 30
0.0
  0
SPLINE
  5
C5
330
BC
100
AcDbEntity
  8
レイヤー 1
100
AcDbSpline
210
0.0
220
0.0
230
1.0
 70
     9
 71
     3
 72
   197
 73
   193
 74
     0
 42
0.0000000001
 43
0.0000000001
 40
0.0
 40
0.0
 40
0.0
 40
0.0
 40
1.0
 40
1.0
 40
1.0
 40
2.0
 40
2.0
 40
2.0
 40
3.0
 40
3.0
 40
3.0
 40
4.0
 40
4.0
 40
4.0
 40
5.0
 40
5.0
 40
5.0
 40
6.0
 40
6.0
 40
6.0
 40
7.0
 40
7.0
 40
7.0
 40
8.0
 40
8.0
 40
8.0
 40
9.0
 40
9.0
 40
9.0
 40
10.0
 40
10.0
 40
10.0
 40
11.0
 40
11.0
 40
11.0
 40
12.0
 40
12.0
 40
12.0
 40
13.0
 40
13.0
 40
13.0
 40
14.0
 40
14.0
 40
14.0
 40
15.0
 40
15.0
 40
15.0
 40
16.0
 40
16.0
 40
16.0
 40
17.0
 40
17.0
 40
17.0
 40
18.0
 40
18.0
 40
18.0
 40
19.0
 40
19.0
 40
19.0
 40
20.0
 40
20.0
 40
20.0
 40
21.0
 40
21.0
 40
21.0
 40
22.0
 40
22.0
 40
22.0
 40
23.0
 40
23.0
 40
23.0
 40
24.0
 40
24.0
 40
24.0
 40
25.0
 40
25.0
 40
25.0
 40
26.0
 40
26.0
 40
26.0
 40
27.0
 40
27.0
 40
27.0
 40
28.0
 40
28.0
 40
28.0
 40
29.0
 40
29.0
 40
29.0
 40
30.0
 40
30.0
 40
30.0
 40
31.0
 40
31.0
 40
31.0
 40
32.0
 40
32.0
 40
32.0
 40
33.0
 40
33.0
 40
33.0
 40
34.0
 40
34.0
 40
34.0
 40
35.0
 40
35.0
 40
35.0
 40
36.0
 40
36.0
 40
36.0
 40
37.0
 40
37.0
 40
37.0
 40
38.0
 40
38.0
 40
38.0
 40
39.0
 40
39.0
 40
39.0
 40
40.0
 40
40.0
 40
40.0
 40
41.0
 40
41.0
 40
41.0
 40
42.0
 40
42.0
 40
42.0
 40
43.0
 40
43.0
 40
43.0
 40
44.0
 40
44.0
 40
44.0
 40
45.0
 40
45.0
 40
45.0
 40
46.0
 40
46.0
 40
46.0
 40
47.0
 40
47.0
 40
47.0
 40
48.0
 40
48.0
 40
48.0
 40
49.0
 40
49.0
 40
49.0
 40
50.0
 40
50.0
 40
50.0
 40
51.0
 40
51.0
 40
51.0
 40
52.0
 40
52.0
 40
52.0
 40
53.0
 40
53.0
 40
53.0
 40
54.0
 40
54.0
 40
54.0
 40
55.0
 40
55.0
 40
55.0
 40
56.0
 40
56.0
 40
56.0
 40
57.0
 40
57.0
 40
57.0
 40
58.0
 40
58.0
 40
58.0
 40
59.0
 40
59.0
 40
59.0
 40
60.0
 40
60.0
 40
60.0
 40
61.0
 40
61.0
 40
61.0
 40
62.0
 40
62.0
 40
62.0
 40
63.0
 40
63.0
 40
63.0
 40
64.0
 40
64.0
 40
64.0
 40
64.0
 10
98.39847274015733
 20
-147.5245008311744
 30
0.0
 10
98.38796519892731
 20
-147.5541286523476
 30
0.0
 10
98.36471080440189
 20
-147.6006374413984
 30
0.0
 10
98.35403100839762
 20
-147.6281982052804
 30
0.0
 10
98.35403100839762
 20
-147.6281982052804
 30
0.0
 10
98.29270830876016
 20
-147.7804714257285
 30
0.0
 10
98.29270830876016
 20
-147.7804714257285
 30
0.0
 10
98.28220076753014
 20
-147.8059651323193
 30
0.0
 10
98.23345266641387
 20
-147.91793073559
 30
0.0
 10
98.22087806789269
 20
-147.9413573848896
 30
0.0
 10
98.21863875582728
 20
-147.9475585567631
 30
0.0
 10
98.21450464124499
 20
-147.9561712954762
 30
0.0
 10
98.21226532917957
 20
-147.9623724673497
 30
0.0
 10
98.21226532917957
 20
-147.9623724673497
 30
0.0
 10
98.00297577845064
 20
-147.9096625064254
 30
0.0
 10
98.00297577845064
 20
-147.9096625064254
 30
0.0
 10
98.08117944596581
 20
-147.7997639604459
 30
0.0
 10
98.14250214560328
 20
-147.6643717078756
 30
0.0
 10
98.17419702406757
 20
-147.5541286523476
 30
0.0
 10
98.17419702406757
 20
-147.5541286523476
 30
0.0
 10
97.70893687878457
 20
-147.5541286523476
 30
0.0
 10
97.70893687878457
 20
-147.5541286523476
 30
0.0
 10
97.62849389920399
 20
-147.719148726091
 30
0.0
 10
97.56079777291883
 20
-147.7973523936062
 30
0.0
 10
97.52686358238912
 20
-147.8376600107836
 30
0.0
 10
97.52686358238912
 20
-147.8376600107836
 30
0.0
 10
97.40421818311423
 20
-147.7722031965639
 30
0.0
 10
97.40421818311423
 20
-147.7722031965639
 30
0.0
 10
97.40421818311423
 20
-147.7722031965639
 30
0.0
 10
97.40421818311423
 20
-147.9434244421808
 30
0.0
 10
97.40421818311423
 20
-147.9434244421808
 30
0.0
 10
97.40421818311423
 20
-148.0512559308691
 30
0.0
 10
97.40628524040538
 20
-148.1001762867597
 30
0.0
 10
97.41696503640966
 20
-148.2059407181568
 30
0.0
 10
97.34496254076793
 20
-148.2035291513172
 30
0.0
 10
97.32377520353365
 20
-148.2035291513172
 30
0.0
 10
97.11861976738703
 20
-148.2035291513172
 30
0.0
 10
97.11861976738703
 20
-148.2035291513172
 30
0.0
 10
97.06367049439728
 20
-148.2035291513172
 30
0.0
 10
97.06367049439728
 20
-148.2035291513172
 30
0.0
 10
97.06367049439728
 20
-148.2035291513172
 30
0.0
 10
97.06367049439728
 20
-148.3389214038875
 30
0.0
 10
97.06367049439728
 20
-148.3389214038875
 30
0.0
 10
97.06367049439728
 20
-148.3389214038875
 30
0.0
 10
97.13550073526475
 20
-148.3389214038875
 30
0.0
 10
97.13550073526475
 20
-148.3389214038875
 30
0.0
 10
97.20112980425875
 20
-148.3389214038875
 30
0.0
 10
97.34702959805908
 20
-148.3347872893052
 30
0.0
 10
97.45296628423051
 20
-148.3265190601406
 30
0.0
 10
97.45296628423051
 20
-148.3265190601406
 30
0.0
 10
97.45296628423051
 20
-148.5039414776309
 30
0.0
 10
97.45296628423051
 20
-148.5039414776309
 30
0.0
 10
97.35564233677221
 20
-148.4977403057575
 30
0.0
 10
97.19682343490219
 20
-148.4936061911752
 30
0.0
 10
97.13550073526475
 20
-148.4936061911752
 30
0.0
 10
97.13550073526475
 20
-148.4936061911752
 30
0.0
 10
97.06367049439728
 20
-148.4936061911752
 30
0.0
 10
97.06367049439728
 20
-148.4936061911752
 30
0.0
 10
97.06573755168843
 20
-148.5824896546946
 30
0.0
 10
97.07004392104501
 20
-148.8212347718224
 30
0.0
 10
97.07211097833614
 20
-148.8953043247553
 30
0.0
 10
97.07211097833614
 20
-148.8953043247553
 30
0.0
 10
96.87108965677182
 20
-148.8953043247553
 30
0.0
 10
96.87108965677182
 20
-148.8953043247553
 30
0.0
 10
96.88383651006724
 20
-148.6817084046698
 30
0.0
 10
96.88383651006724
 20
-148.6520805834967
 30
0.0
 10
96.88797062464955
 20
-148.4936061911752
 30
0.0
 10
96.88797062464955
 20
-148.4936061911752
 30
0.0
 10
96.81820744107323
 20
-148.4936061911752
 30
0.0
 10
96.81820744107323
 20
-148.4936061911752
 30
0.0
 10
96.76119111079234
 20
-148.4936061911752
 30
0.0
 10
96.60874563557005
 20
-148.4977403057575
 30
0.0
 10
96.49884708959056
 20
-148.5039414776309
 30
0.0
 10
96.49884708959056
 20
-148.5039414776309
 30
0.0
 10
96.49884708959056
 20
-148.3265190601406
 30
0.0
 10
96.49884708959056
 20
-148.3265190601406
 30
0.0
 10
96.60461152098775
 20
-148.3347872893052
 30
0.0
 10
96.74844425749693
 20
-148.3389214038875
 30
0.0
 10
96.81820744107323
 20
-148.3389214038875
 30
0.0
 10
96.81820744107323
 20
-148.3389214038875
 30
0.0
 10
96.89227699400611
 20
-148.3389214038875
 30
0.0
 10
96.89227699400611
 20
-148.3389214038875
 30
0.0
 10
96.89227699400611
 20
-148.3389214038875
 30
0.0
 10
96.89227699400611
 20
-148.2035291513172
 30
0.0
 10
96.89227699400611
 20
-148.2035291513172
 30
0.0
 10
96.89227699400611
 20
-148.2035291513172
 30
0.0
 10
96.84783526224638
 20
-148.2035291513172
 30
0.0
 10
96.84783526224638
 20
-148.2035291513172
 30
0.0
 10
96.77169865202236
 20
-148.2035291513172
 30
0.0
 10
96.5791178143969
 20
-148.2059407181568
 30
0.0
 10
96.54535587864145
 20
-148.2059407181568
 30
0.0
 10
96.55172930528916
 20
-148.1339382225151
 30
0.0
 10
96.56016978922801
 20
-148.0533229881603
 30
0.0
 10
96.56016978922801
 20
-147.9327446461765
 30
0.0
 10
96.56016978922801
 20
-147.9327446461765
 30
0.0
 10
96.56016978922801
 20
-147.7594563432685
 30
0.0
 10
96.56016978922801
 20
-147.7594563432685
 30
0.0
 10
96.56016978922801
 20
-147.6874538476267
 30
0.0
 10
96.55172930528916
 20
-147.566875505643
 30
0.0
 10
96.54535587864145
 20
-147.4866047808367
 30
0.0
 10
96.62355954615662
 20
-147.490738895419
 30
0.0
 10
96.66162785126862
 20
-147.4928059527101
 30
0.0
 10
96.78857961990008
 20
-147.4928059527101
 30
0.0
 10
96.78857961990008
 20
-147.4928059527101
 30
0.0
 10
96.89227699400611
 20
-147.4928059527101
 30
0.0
 10
96.89227699400611
 20
-147.4928059527101
 30
0.0
 10
96.89227699400611
 20
-147.4928059527101
 30
0.0
 10
96.89227699400611
 20
-147.3467339041355
 30
0.0
 10
96.89227699400611
 20
-147.3467339041355
 30
0.0
 10
96.89227699400611
 20
-147.3467339041355
 30
0.0
 10
96.81407332649094
 20
-147.3467339041355
 30
0.0
 10
96.81407332649094
 20
-147.3467339041355
 30
0.0
 10
96.75895179872693
 20
-147.3467339041355
 30
0.0
 10
96.58755829833575
 20
-147.3512125282663
 30
0.0
 10
96.50298120417287
 20
-147.3574137001398
 30
0.0
 10
96.50298120417287
 20
-147.3574137001398
 30
0.0
 10
96.50298120417287
 20
-147.1796467731009
 30
0.0
 10
96.50298120417287
 20
-147.1796467731009
 30
0.0
 10
96.5854912410446
 20
-147.1861924545229
 30
0.0
 10
96.74844425749693
 20
-147.1903265691052
 30
0.0
 10
96.81407332649094
 20
-147.1903265691052
 30
0.0
 10
96.81407332649094
 20
-147.1903265691052
 30
0.0
 10
96.89227699400611
 20
-147.1903265691052
 30
0.0
 10
96.89227699400611
 20
-147.1903265691052
 30
0.0
 10
96.89227699400611
 20
-147.1565646333497
 30
0.0
 10
96.88797062464955
 20
-147.0022243556105
 30
0.0
 10
96.88797062464955
 20
-146.9701849675977
 30
0.0
 10
96.88797062464955
 20
-146.9701849675977
 30
0.0
 10
97.08485783163157
 20
-146.987410445024
 30
0.0
 10
97.08485783163157
 20
-146.987410445024
 30
0.0
 10
97.10173879950929
 20
-146.9894775023151
 30
0.0
 10
97.12292613674357
 20
-146.9915445596063
 30
0.0
 10
97.12292613674357
 20
-147.0125596420663
 30
0.0
 10
97.12292613674357
 20
-147.035986291366
 30
0.0
 10
97.10173879950929
 20
-147.0442545205306
 30
0.0
 10
97.0741780356273
 20
-147.057001373826
 30
0.0
 10
97.0741780356273
 20
-147.0783609658345
 30
0.0
 10
97.07211097833614
 20
-147.1734456012275
 30
0.0
 10
97.07211097833614
 20
-147.1903265691052
 30
0.0
 10
97.07211097833614
 20
-147.1903265691052
 30
0.0
 10
97.13136662068244
 20
-147.1903265691052
 30
0.0
 10
97.13136662068244
 20
-147.1903265691052
 30
0.0
 10
97.19906274696761
 20
-147.1903265691052
 30
0.0
 10
97.34289548347678
 20
-147.1861924545229
 30
0.0
 10
97.44865991487396
 20
-147.1796467731009
 30
0.0
 10
97.44865991487396
 20
-147.1796467731009
 30
0.0
 10
97.44865991487396
 20
-147.3574137001398
 30
0.0
 10
97.44865991487396
 20
-147.3574137001398
 30
0.0
 10
97.35133596741563
 20
-147.3512125282663
 30
0.0
 10
97.19475637761105
 20
-147.3467339041355
 30
0.0
 10
97.13136662068244
 20
-147.3467339041355
 30
0.0
 10
97.13136662068244
 20
-147.3467339041355
 30
0.0
 10
97.06367049439728
 20
-147.3467339041355
 30
0.0
 10
97.06367049439728
 20
-147.3467339041355
 30
0.0
 10
97.06367049439728
 20
-147.3467339041355
 30
0.0
 10
97.06367049439728
 20
-147.4928059527101
 30
0.0
 10
97.06367049439728
 20
-147.4928059527101
 30
0.0
 10
97.06367049439728
 20
-147.4928059527101
 30
0.0
 10
97.13343367797358
 20
-147.4928059527101
 30
0.0
 10
97.13343367797358
 20
-147.4928059527101
 30
0.0
 10
97.28363984113048
 20
-147.4928059527101
 30
0.0
 10
97.35564233677221
 20
-147.4886718381278
 30
0.0
 10
97.41696503640966
 20
-147.4866047808367
 30
0.0
 10
97.40852455247079
 20
-147.5816894162296
 30
0.0
 10
97.40628524040538
 20
-147.6598930837447
 30
0.0
 10
97.40421818311423
 20
-147.698133643631
 30
0.0
 10
97.55873071562769
 20
-147.4866047808367
 30
0.0
 10
97.66449514702486
 20
-147.2389024154472
 30
0.0
 10
97.68137611490258
 20
-146.9767306490197
 30
0.0
 10
97.68137611490258
 20
-146.9767306490197
 30
0.0
 10
97.89721134705349
 20
-147.0273735526529
 30
0.0
 10
97.89721134705349
 20
-147.0273735526529
 30
0.0
 10
97.91202525764006
 20
-147.0318521767837
 30
0.0
 10
97.92666691345237
 20
-147.0380533486572
 30
0.0
 10
97.92666691345237
 20
-147.0549343165349
 30
0.0
 10
97.92666691345237
 20
-147.0718152844126
 30
0.0
 10
97.92253279887006
 20
-147.0738823417037
 30
0.0
 10
97.87171764046263
 20
-147.0952419337123
 30
0.0
 10
97.85483667258491
 20
-147.1713785439363
 30
0.0
 10
97.82951522076832
 20
-147.2623290647469
 30
0.0
 10
97.78076711965205
 20
-147.3891085786041
 30
0.0
 10
97.78076711965205
 20
-147.3891085786041
 30
0.0
 10
98.11924775107783
 20
-147.3891085786041
 30
0.0
 10
98.11924775107783
 20
-147.3891085786041
 30
0.0
 10
98.15731605618985
 20
-147.3891085786041
 30
0.0
 10
98.28633488211245
 20
-147.3849744640218
 30
0.0
 10
98.33508298322874
 20
-147.3787732921483
 30
0.0
 10
98.33508298322874
 20
-147.3787732921483
 30
0.0
 10
98.42810056133048
 20
-147.4483642209504
 30
0.0
 10
98.42810056133048
 20
-147.4483642209504
 30
0.0
 10
98.41966007739161
 20
-147.4697238129589
 30
0.0
 10
98.4132866507439
 20
-147.4886718381278
 30
0.0
 10
98.39847274015733
 20
-147.5245008311744
 30
0.0
  0
HATCH
  5
C6
330
BC
100
AcDbEntity
  8
レイヤー 1
 62
   250
420
  2299925
440
 33554687
100
AcDbHatch
 10
0.0
 20
0.0
 30
0.0
210
0.0
220
0.0
230
1.0
  2
SOLID
 70
     1
 71
     1
 91
        6
 92
        1
 93
        1
 72
     4
 94
        3
 73
     0
 74
     0
 95
       41
 96
       37
 40
0.0
 40
0.0
 40
0.0
 40
0.0
 40
1.0
 40
1.0
 40
1.0
 40
2.0
 40
2.0
 40
2.0
 40
3.0
 40
3.0
 40
3.0
 40
4.0
 40
4.0
 40
4.0
 40
5.0
 40
5.0
 40
5.0
 40
6.0
 40
6.0
 40
6.0
 40
7.0
 40
7.0
 40
7.0
 40
8.0
 40
8.0
 40
8.0
 40
9.0
 40
9.0
 40
9.0
 40
10.0
 40
10.0
 40
10.0
 40
11.0
 40
11.0
 40
11.0
 40
12.0
 40
12.0
 40
12.0
 40
12.0
 10
98.31389564599446
 20
-148.8804904141687
 10
98.07273896202696
 20
-148.7450981615984
 10
97.89497203498807
 20
-148.4491644594155
 10
97.85483667258491
 20
-148.3199733787186
 10
97.73425833060116
 20
-148.5845567119858
 10
97.57130531414885
 20
-148.7623236390247
 10
97.38940427252765
 20
-148.8763562995864
 10
97.38940427252765
 20
-148.8763562995864
 10
97.19268932031988
 20
-148.738896989725
 10
97.19268932031988
 20
-148.738896989725
 10
97.2624525038962
 20
-148.7134032831342
 10
97.40852455247079
 20
-148.6520805834967
 10
97.53116995174568
 20
-148.4977403057575
 10
97.65588240831172
 20
-148.3413329707271
 10
97.74476587183118
 20
-148.1084445159243
 10
97.74476587183118
 20
-147.8483398067879
 10
97.74476587183118
 20
-147.746709489973
 10
97.73219127331001
 20
-147.6747069943313
 10
97.72151147730575
 20
-147.6281982052804
 10
97.72151147730575
 20
-147.6281982052804
 10
97.92666691345237
 20
-147.649557797289
 10
97.92666691345237
 20
-147.649557797289
 10
97.94785425068665
 20
-147.6516248545801
 10
97.96904158792095
 20
-147.6536919118713
 10
97.96904158792095
 20
-147.6747069943313
 10
97.96904158792095
 20
-147.6939995290487
 10
97.95853404669093
 20
-147.7022677582133
 10
97.92459985616122
 20
-147.7236273502219
 10
97.91615937222235
 20
-147.9244764170119
 10
97.97334795727749
 20
-148.1677001582706
 10
98.03467065691496
 20
-148.2882785002543
 10
98.12562117772555
 20
-148.4639783700021
 10
98.32026907264216
 20
-148.6438123543321
 10
98.45566132521248
 20
-148.7006564298387
 10
98.45566132521248
 20
-148.7006564298387
 10
98.31389564599446
 20
-148.8804904141687
 10
98.31389564599446
 20
-148.8804904141687
 97
        0
 97
        1
330
C0
 92
        1
 93
        1
 72
     4
 94
        3
 73
     0
 74
     0
 95
       17
 96
       13
 40
0.0
 40
0.0
 40
0.0
 40
0.0
 40
1.0
 40
1.0
 40
1.0
 40
2.0
 40
2.0
 40
2.0
 40
3.0
 40
3.0
 40
3.0
 40
4.0
 40
4.0
 40
4.0
 40
4.0
 10
97.2243841987842
 20
-147.9224093597208
 10
97.2243841987842
 20
-147.9224093597208
 10
97.06367049439728
 20
-147.9224093597208
 10
97.06367049439728
 20
-147.9224093597208
 10
97.06367049439728
 20
-147.9224093597208
 10
97.06367049439728
 20
-148.0512559308691
 10
97.06367049439728
 20
-148.0512559308691
 10
97.06367049439728
 20
-148.0512559308691
 10
97.2243841987842
 20
-148.0512559308691
 10
97.2243841987842
 20
-148.0512559308691
 10
97.2243841987842
 20
-148.0512559308691
 10
97.2243841987842
 20
-147.9224093597208
 10
97.2243841987842
 20
-147.9224093597208
 97
        0
 97
        1
330
C1
 92
        1
 93
        1
 72
     4
 94
        3
 73
     0
 74
     0
 95
       17
 96
       13
 40
0.0
 40
0.0
 40
0.0
 40
0.0
 40
1.0
 40
1.0
 40
1.0
 40
2.0
 40
2.0
 40
2.0
 40
3.0
 40
3.0
 40
3.0
 40
4.0
 40
4.0
 40
4.0
 40
4.0
 10
97.2243841987842
 20
-147.649557797289
 10
97.2243841987842
 20
-147.649557797289
 10
97.06367049439728
 20
-147.649557797289
 10
97.06367049439728
 20
-147.649557797289
 10
97.06367049439728
 20
-147.649557797289
 10
97.06367049439728
 20
-147.7784043684373
 10
97.06367049439728
 20
-147.7784043684373
 10
97.06367049439728
 20
-147.7784043684373
 10
97.2243841987842
 20
-147.7784043684373
 10
97.2243841987842
 20
-147.7784043684373
 10
97.2243841987842
 20
-147.7784043684373
 10
97.2243841987842
 20
-147.649557797289
 10
97.2243841987842
 20
-147.649557797289
 97
        0
 97
        1
330
C2
 92
        1
 93
        1
 72
     4
 94
        3
 73
     0
 74
     0
 95
       17
 96
       13
 40
0.0
 40
0.0
 40
0.0
 40
0.0
 40
1.0
 40
1.0
 40
1.0
 40
2.0
 40
2.0
 40
2.0
 40
3.0
 40
3.0
 40
3.0
 40
4.0
 40
4.0
 40
4.0
 40
4.0
 10
96.89227699400611
 20
-147.9224093597208
 10
96.89227699400611
 20
-147.9224093597208
 10
96.73363034691035
 20
-147.9224093597208
 10
96.73363034691035
 20
-147.9224093597208
 10
96.73363034691035
 20
-147.9224093597208
 10
96.73363034691035
 20
-148.0512559308691
 10
96.73363034691035
 20
-148.0512559308691
 10
96.73363034691035
 20
-148.0512559308691
 10
96.89227699400611
 20
-148.0512559308691
 10
96.89227699400611
 20
-148.0512559308691
 10
96.89227699400611
 20
-148.0512559308691
 10
96.89227699400611
 20
-147.9224093597208
 10
96.89227699400611
 20
-147.9224093597208
 97
        0
 97
        1
330
C3
 92
        1
 93
        1
 72
     4
 94
        3
 73
     0
 74
     0
 95
       17
 96
       13
 40
0.0
 40
0.0
 40
0.0
 40
0.0
 40
1.0
 40
1.0
 40
1.0
 40
2.0
 40
2.0
 40
2.0
 40
3.0
 40
3.0
 40
3.0
 40
4.0
 40
4.0
 40
4.0
 40
4.0
 10
96.89227699400611
 20
-147.649557797289
 10
96.89227699400611
 20
-147.649557797289
 10
96.73363034691035
 20
-147.649557797289
 10
96.73363034691035
 20
-147.649557797289
 10
96.73363034691035
 20
-147.649557797289
 10
96.73363034691035
 20
-147.7784043684373
 10
96.73363034691035
 20
-147.7784043684373
 10
96.73363034691035
 20
-147.7784043684373
 10
96.89227699400611
 20
-147.7784043684373
 10
96.89227699400611
 20
-147.7784043684373
 10
96.89227699400611
 20
-147.7784043684373
 10
96.89227699400611
 20
-147.649557797289
 10
96.89227699400611
 20
-147.649557797289
 97
        0
 97
        1
330
C4
 92
        1
 93
        1
 72
     4
 94
        3
 73
     0
 74
     0
 95
      197
 96
      193
 40
0.0
 40
0.0
 40
0.0
 40
0.0
 40
1.0
 40
1.0
 40
1.0
 40
2.0
 40
2.0
 40
2.0
 40
3.0
 40
3.0
 40
3.0
 40
4.0
 40
4.0
 40
4.0
 40
5.0
 40
5.0
 40
5.0
 40
6.0
 40
6.0
 40
6.0
 40
7.0
 40
7.0
 40
7.0
 40
8.0
 40
8.0
 40
8.0
 40
9.0
 40
9.0
 40
9.0
 40
10.0
 40
10.0
 40
10.0
 40
11.0
 40
11.0
 40
11.0
 40
12.0
 40
12.0
 40
12.0
 40
13.0
 40
13.0
 40
13.0
 40
14.0
 40
14.0
 40
14.0
 40
15.0
 40
15.0
 40
15.0
 40
16.0
 40
16.0
 40
16.0
 40
17.0
 40
17.0
 40
17.0
 40
18.0
 40
18.0
 40
18.0
 40
19.0
 40
19.0
 40
19.0
 40
20.0
 40
20.0
 40
20.0
 40
21.0
 40
21.0
 40
21.0
 40
22.0
 40
22.0
 40
22.0
 40
23.0
 40
23.0
 40
23.0
 40
24.0
 40
24.0
 40
24.0
 40
25.0
 40
25.0
 40
25.0
 40
26.0
 40
26.0
 40
26.0
 40
27.0
 40
27.0
 40
27.0
 40
28.0
 40
28.0
 40
28.0
 40
29.0
 40
29.0
 40
29.0
 40
30.0
 40
30.0
 40
30.0
 40
31.0
 40
31.0
 40
31.0
 40
32.0
 40
32.0
 40
32.0
 40
33.0
 40
33.0
 40
33.0
 40
34.0
 40
34.0
 40
34.0
 40
35.0
 40
35.0
 40
35.0
 40
36.0
 40
36.0
 40
36.0
 40
37.0
 40
37.0
 40
37.0
 40
38.0
 40
38.0
 40
38.0
 40
39.0
 40
39.0
 40
39.0
 40
40.0
 40
40.0
 40
40.0
 40
41.0
 40
41.0
 40
41.0
 40
42.0
 40
42.0
 40
42.0
 40
43.0
 40
43.0
 40
43.0
 40
44.0
 40
44.0
 40
44.0
 40
45.0
 40
45.0
 40
45.0
 40
46.0
 40
46.0
 40
46.0
 40
47.0
 40
47.0
 40
47.0
 40
48.0
 40
48.0
 40
48.0
 40
49.0
 40
49.0
 40
49.0
 40
50.0
 40
50.0
 40
50.0
 40
51.0
 40
51.0
 40
51.0
 40
52.0
 40
52.0
 40
52.0
 40
53.0
 40
53.0
 40
53.0
 40
54.0
 40
54.0
 40
54.0
 40
55.0
 40
55.0
 40
55.0
 40
56.0
 40
56.0
 40
56.0
 40
57.0
 40
57.0
 40
57.0
 40
58.0
 40
58.0
 40
58.0
 40
59.0
 40
59.0
 40
59.0
 40
60.0
 40
60.0
 40
60.0
 40
61.0
 40
61.0
 40
61.0
 40
62.0
 40
62.0
 40
62.0
 40
63.0
 40
63.0
 40
63.0
 40
64.0
 40
64.0
 40
64.0
 40
64.0
 10
98.39847274015733
 20
-147.5245008311744
 10
98.38796519892731
 20
-147.5541286523476
 10
98.36471080440189
 20
-147.6006374413984
 10
98.35403100839762
 20
-147.6281982052804
 10
98.35403100839762
 20
-147.6281982052804
 10
98.29270830876016
 20
-147.7804714257285
 10
98.29270830876016
 20
-147.7804714257285
 10
98.28220076753014
 20
-147.8059651323193
 10
98.23345266641387
 20
-147.91793073559
 10
98.22087806789269
 20
-147.9413573848896
 10
98.21863875582728
 20
-147.9475585567631
 10
98.21450464124499
 20
-147.9561712954762
 10
98.21226532917957
 20
-147.9623724673497
 10
98.21226532917957
 20
-147.9623724673497
 10
98.00297577845064
 20
-147.9096625064254
 10
98.00297577845064
 20
-147.9096625064254
 10
98.08117944596581
 20
-147.7997639604459
 10
98.14250214560328
 20
-147.6643717078756
 10
98.17419702406757
 20
-147.5541286523476
 10
98.17419702406757
 20
-147.5541286523476
 10
97.70893687878457
 20
-147.5541286523476
 10
97.70893687878457
 20
-147.5541286523476
 10
97.62849389920399
 20
-147.719148726091
 10
97.56079777291883
 20
-147.7973523936062
 10
97.52686358238912
 20
-147.8376600107836
 10
97.52686358238912
 20
-147.8376600107836
 10
97.40421818311423
 20
-147.7722031965639
 10
97.40421818311423
 20
-147.7722031965639
 10
97.40421818311423
 20
-147.7722031965639
 10
97.40421818311423
 20
-147.9434244421808
 10
97.40421818311423
 20
-147.9434244421808
 10
97.40421818311423
 20
-148.0512559308691
 10
97.40628524040538
 20
-148.1001762867597
 10
97.41696503640966
 20
-148.2059407181568
 10
97.34496254076793
 20
-148.2035291513172
 10
97.32377520353365
 20
-148.2035291513172
 10
97.11861976738703
 20
-148.2035291513172
 10
97.11861976738703
 20
-148.2035291513172
 10
97.06367049439728
 20
-148.2035291513172
 10
97.06367049439728
 20
-148.2035291513172
 10
97.06367049439728
 20
-148.2035291513172
 10
97.06367049439728
 20
-148.3389214038875
 10
97.06367049439728
 20
-148.3389214038875
 10
97.06367049439728
 20
-148.3389214038875
 10
97.13550073526475
 20
-148.3389214038875
 10
97.13550073526475
 20
-148.3389214038875
 10
97.20112980425875
 20
-148.3389214038875
 10
97.34702959805908
 20
-148.3347872893052
 10
97.45296628423051
 20
-148.3265190601406
 10
97.45296628423051
 20
-148.3265190601406
 10
97.45296628423051
 20
-148.5039414776309
 10
97.45296628423051
 20
-148.5039414776309
 10
97.35564233677221
 20
-148.4977403057575
 10
97.19682343490219
 20
-148.4936061911752
 10
97.13550073526475
 20
-148.4936061911752
 10
97.13550073526475
 20
-148.4936061911752
 10
97.06367049439728
 20
-148.4936061911752
 10
97.06367049439728
 20
-148.4936061911752
 10
97.06573755168843
 20
-148.5824896546946
 10
97.07004392104501
 20
-148.8212347718224
 10
97.07211097833614
 20
-148.8953043247553
 10
97.07211097833614
 20
-148.8953043247553
 10
96.87108965677182
 20
-148.8953043247553
 10
96.87108965677182
 20
-148.8953043247553
 10
96.88383651006724
 20
-148.6817084046698
 10
96.88383651006724
 20
-148.6520805834967
 10
96.88797062464955
 20
-148.4936061911752
 10
96.88797062464955
 20
-148.4936061911752
 10
96.81820744107323
 20
-148.4936061911752
 10
96.81820744107323
 20
-148.4936061911752
 10
96.76119111079234
 20
-148.4936061911752
 10
96.60874563557005
 20
-148.4977403057575
 10
96.49884708959056
 20
-148.5039414776309
 10
96.49884708959056
 20
-148.5039414776309
 10
96.49884708959056
 20
-148.3265190601406
 10
96.49884708959056
 20
-148.3265190601406
 10
96.60461152098775
 20
-148.3347872893052
 10
96.74844425749693
 20
-148.3389214038875
 10
96.81820744107323
 20
-148.3389214038875
 10
96.81820744107323
 20
-148.3389214038875
 10
96.89227699400611
 20
-148.3389214038875
 10
96.89227699400611
 20
-148.3389214038875
 10
96.89227699400611
 20
-148.3389214038875
 10
96.89227699400611
 20
-148.2035291513172
 10
96.89227699400611
 20
-148.2035291513172
 10
96.89227699400611
 20
-148.2035291513172
 10
96.84783526224638
 20
-148.2035291513172
 10
96.84783526224638
 20
-148.2035291513172
 10
96.77169865202236
 20
-148.2035291513172
 10
96.5791178143969
 20
-148.2059407181568
 10
96.54535587864145
 20
-148.2059407181568
 10
96.55172930528916
 20
-148.1339382225151
 10
96.56016978922801
 20
-148.0533229881603
 10
96.56016978922801
 20
-147.9327446461765
 10
96.56016978922801
 20
-147.9327446461765
 10
96.56016978922801
 20
-147.7594563432685
 10
96.56016978922801
 20
-147.7594563432685
 10
96.56016978922801
 20
-147.6874538476267
 10
96.55172930528916
 20
-147.566875505643
 10
96.54535587864145
 20
-147.4866047808367
 10
96.62355954615662
 20
-147.490738895419
 10
96.66162785126862
 20
-147.4928059527101
 10
96.78857961990008
 20
-147.4928059527101
 10
96.78857961990008
 20
-147.4928059527101
 10
96.89227699400611
 20
-147.4928059527101
 10
96.89227699400611
 20
-147.4928059527101
 10
96.89227699400611
 20
-147.4928059527101
 10
96.89227699400611
 20
-147.3467339041355
 10
96.89227699400611
 20
-147.3467339041355
 10
96.89227699400611
 20
-147.3467339041355
 10
96.81407332649094
 20
-147.3467339041355
 10
96.81407332649094
 20
-147.3467339041355
 10
96.75895179872693
 20
-147.3467339041355
 10
96.58755829833575
 20
-147.3512125282663
 10
96.50298120417287
 20
-147.3574137001398
 10
96.50298120417287
 20
-147.3574137001398
 10
96.50298120417287
 20
-147.1796467731009
 10
96.50298120417287
 20
-147.1796467731009
 10
96.5854912410446
 20
-147.1861924545229
 10
96.74844425749693
 20
-147.1903265691052
 10
96.81407332649094
 20
-147.1903265691052
 10
96.81407332649094
 20
-147.1903265691052
 10
96.89227699400611
 20
-147.1903265691052
 10
96.89227699400611
 20
-147.1903265691052
 10
96.89227699400611
 20
-147.1565646333497
 10
96.88797062464955
 20
-147.0022243556105
 10
96.88797062464955
 20
-146.9701849675977
 10
96.88797062464955
 20
-146.9701849675977
 10
97.08485783163157
 20
-146.987410445024
 10
97.08485783163157
 20
-146.987410445024
 10
97.10173879950929
 20
-146.9894775023151
 10
97.12292613674357
 20
-146.9915445596063
 10
97.12292613674357
 20
-147.0125596420663
 10
97.12292613674357
 20
-147.035986291366
 10
97.10173879950929
 20
-147.0442545205306
 10
97.0741780356273
 20
-147.057001373826
 10
97.0741780356273
 20
-147.0783609658345
 10
97.07211097833614
 20
-147.1734456012275
 10
97.07211097833614
 20
-147.1903265691052
 10
97.07211097833614
 20
-147.1903265691052
 10
97.13136662068244
 20
-147.1903265691052
 10
97.13136662068244
 20
-147.1903265691052
 10
97.19906274696761
 20
-147.1903265691052
 10
97.34289548347678
 20
-147.1861924545229
 10
97.44865991487396
 20
-147.1796467731009
 10
97.44865991487396
 20
-147.1796467731009
 10
97.44865991487396
 20
-147.3574137001398
 10
97.44865991487396
 20
-147.3574137001398
 10
97.35133596741563
 20
-147.3512125282663
 10
97.19475637761105
 20
-147.3467339041355
 10
97.13136662068244
 20
-147.3467339041355
 10
97.13136662068244
 20
-147.3467339041355
 10
97.06367049439728
 20
-147.3467339041355
 10
97.06367049439728
 20
-147.3467339041355
 10
97.06367049439728
 20
-147.3467339041355
 10
97.06367049439728
 20
-147.4928059527101
 10
97.06367049439728
 20
-147.4928059527101
 10
97.06367049439728
 20
-147.4928059527101
 10
97.13343367797358
 20
-147.4928059527101
 10
97.13343367797358
 20
-147.4928059527101
 10
97.28363984113048
 20
-147.4928059527101
 10
97.35564233677221
 20
-147.4886718381278
 10
97.41696503640966
 20
-147.4866047808367
 10
97.40852455247079
 20
-147.5816894162296
 10
97.40628524040538
 20
-147.6598930837447
 10
97.40421818311423
 20
-147.698133643631
 10
97.55873071562769
 20
-147.4866047808367
 10
97.66449514702486
 20
-147.2389024154472
 10
97.68137611490258
 20
-146.9767306490197
 10
97.68137611490258
 20
-146.9767306490197
 10
97.89721134705349
 20
-147.0273735526529
 10
97.89721134705349
 20
-147.0273735526529
 10
97.91202525764006
 20
-147.0318521767837
 10
97.92666691345237
 20
-147.0380533486572
 10
97.92666691345237
 20
-147.0549343165349
 10
97.92666691345237
 20
-147.0718152844126
 10
97.92253279887006
 20
-147.0738823417037
 10
97.87171764046263
 20
-147.0952419337123
 10
97.85483667258491
 20
-147.1713785439363
 10
97.82951522076832
 20
-147.2623290647469
 10
97.78076711965205
 20
-147.3891085786041
 10
97.78076711965205
 20
-147.3891085786041
 10
98.11924775107783
 20
-147.3891085786041
 10
98.11924775107783
 20
-147.3891085786041
 10
98.15731605618985
 20
-147.3891085786041
 10
98.28633488211245
 20
-147.3849744640218
 10
98.33508298322874
 20
-147.3787732921483
 10
98.33508298322874
 20
-147.3787732921483
 10
98.42810056133048
 20
-147.4483642209504
 10
98.42810056133048
 20
-147.4483642209504
 10
98.41966007739161
 20
-147.4697238129589
 10
98.4132866507439
 20
-147.4886718381278
 10
98.39847274015733
 20
-147.5245008311744
 97
        0
 97
        1
330
C5
 75
     2
 76
     1
 98
        1
 10
0.0
 20
0.0
450
        0
451
        0
460
0.0
461
0.0
452
        0
462
0.0
453
        0
470

  0
SPLINE
  5
C7
330
BC
100
AcDbEntity
  8
レイヤー 1
100
AcDbSpline
210
0.0
220
0.0
230
1.0
 70
     9
 71
     3
 72
    74
 73
    70
 74
     0
 42
0.0000000001
 43
0.0000000001
 40
0.0
 40
0.0
 40
0.0
 40
0.0
 40
1.0
 40
1.0
 40
1.0
 40
2.0
 40
2.0
 40
2.0
 40
3.0
 40
3.0
 40
3.0
 40
4.0
 40
4.0
 40
4.0
 40
5.0
 40
5.0
 40
5.0
 40
6.0
 40
6.0
 40
6.0
 40
7.0
 40
7.0
 40
7.0
 40
8.0
 40
8.0
 40
8.0
 40
9.0
 40
9.0
 40
9.0
 40
10.0
 40
10.0
 40
10.0
 40
11.0
 40
11.0
 40
11.0
 40
12.0
 40
12.0
 40
12.0
 40
13.0
 40
13.0
 40
13.0
 40
14.0
 40
14.0
 40
14.0
 40
15.0
 40
15.0
 40
15.0
 40
16.0
 40
16.0
 40
16.0
 40
17.0
 40
17.0
 40
17.0
 40
18.0
 40
18.0
 40
18.0
 40
19.0
 40
19.0
 40
19.0
 40
20.0
 40
20.0
 40
20.0
 40
21.0
 40
21.0
 40
21.0
 40
22.0
 40
22.0
 40
22.0
 40
23.0
 40
23.0
 40
23.0
 40
23.0
 10
100.3585598164902
 20
-147.4273491384904
 30
0.0
 10
100.3585598164902
 20
-147.4273491384904
 30
0.0
 10
100.1978461121033
 20
-147.4273491384904
 30
0.0
 10
100.1978461121033
 20
-147.4273491384904
 30
0.0
 10
100.1978461121033
 20
-147.4273491384904
 30
0.0
 10
100.1978461121033
 20
-147.5413817990522
 30
0.0
 10
100.1978461121033
 20
-147.5413817990522
 30
0.0
 10
100.1978461121033
 20
-147.5816894162296
 30
0.0
 10
100.204219538751
 20
-147.6557589691624
 30
0.0
 10
100.2083536533333
 20
-147.6812526757533
 30
0.0
 10
100.2083536533333
 20
-147.6812526757533
 30
0.0
 10
99.996824790539
 20
-147.6812526757533
 30
0.0
 10
99.996824790539
 20
-147.6812526757533
 30
0.0
 10
100.0075045865432
 20
-147.615451351985
 30
0.0
 10
100.0095716438344
 20
-147.5561957096387
 30
0.0
 10
100.0095716438344
 20
-147.5541286523476
 30
0.0
 10
100.0095716438344
 20
-147.5541286523476
 30
0.0
 10
100.0095716438344
 20
-147.4314832530727
 30
0.0
 10
100.0095716438344
 20
-147.4314832530727
 30
0.0
 10
100.0095716438344
 20
-147.4314832530727
 30
0.0
 10
99.82973765950438
 20
-147.4314832530727
 30
0.0
 10
99.82973765950438
 20
-147.4314832530727
 30
0.0
 10
99.81078963433551
 20
-147.490738895419
 30
0.0
 10
99.76410859051036
 20
-147.6368109439936
 30
0.0
 10
99.64990367517433
 20
-147.719148726091
 30
0.0
 10
99.64990367517433
 20
-147.719148726091
 30
0.0
 10
99.49332408536974
 20
-147.6133842946939
 30
0.0
 10
99.49332408536974
 20
-147.6133842946939
 30
0.0
 10
99.5673936383026
 20
-147.566875505643
 30
0.0
 10
99.68383786570406
 20
-147.4928059527101
 30
0.0
 10
99.68383786570406
 20
-147.1713785439363
 30
0.0
 10
99.68383786570406
 20
-147.1162570161723
 30
0.0
 10
99.67953149634748
 20
-147.0718152844126
 30
0.0
 10
99.67746443905634
 20
-147.0339192340748
 30
0.0
 10
99.75360104928036
 20
-147.0421874632394
 30
0.0
 10
99.82767060221323
 20
-147.0487331446614
 30
0.0
 10
99.89106035914183
 20
-147.0487331446614
 30
0.0
 10
100.0688272861807
 20
-147.0487331446614
 30
0.0
 10
100.2676092956796
 20
-146.9894775023151
 30
0.0
 10
100.328931995317
 20
-146.9598496811419
 30
0.0
 10
100.328931995317
 20
-146.9598496811419
 30
0.0
 10
100.4558837639485
 20
-147.0952419337123
 30
0.0
 10
100.4558837639485
 20
-147.0952419337123
 30
0.0
 10
100.4601901333051
 20
-147.0993760482946
 30
0.0
 10
100.4622571905962
 20
-147.1079887870077
 30
0.0
 10
100.4622571905962
 20
-147.1141899588812
 30
0.0
 10
100.4622571905962
 20
-147.1352050413412
 30
0.0
 10
100.4474432800096
 20
-147.1417507227632
 30
0.0
 10
100.4305623121319
 20
-147.1417507227632
 30
0.0
 10
100.4093749748976
 20
-147.1417507227632
 30
0.0
 10
100.3945610643111
 20
-147.13313798405
 30
0.0
 10
100.3756130391422
 20
-147.1228026975943
 30
0.0
 10
100.2021524814598
 20
-147.1796467731009
 30
0.0
 10
99.98425019201782
 20
-147.2051404796918
 30
0.0
 10
99.85092499673866
 20
-147.2072075369829
 30
0.0
 10
99.85092499673866
 20
-147.2072075369829
 30
0.0
 10
99.8466186273821
 20
-147.2898898286289
 30
0.0
 10
99.8466186273821
 20
-147.2898898286289
 30
0.0
 10
99.8466186273821
 20
-147.2898898286289
 30
0.0
 10
100.1196424445881
 20
-147.2898898286289
 30
0.0
 10
100.1196424445881
 20
-147.2898898286289
 30
0.0
 10
100.176658774869
 20
-147.2898898286289
 30
0.0
 10
100.4390027960708
 20
-147.2705972939115
 30
0.0
 10
100.4834445278305
 20
-147.2643961220381
 30
0.0
 10
100.4834445278305
 20
-147.2643961220381
 30
0.0
 10
100.4834445278305
 20
-147.4335503103638
 30
0.0
 10
100.4834445278305
 20
-147.4335503103638
 30
0.0
 10
100.4495103373008
 20
-147.4294161957815
 30
0.0
 10
100.4369357387796
 20
-147.4273491384904
 30
0.0
 10
100.3585598164902
 20
-147.4273491384904
 30
0.0
  0
SPLINE
  5
C8
330
BC
100
AcDbEntity
  8
レイヤー 1
100
AcDbSpline
210
0.0
220
0.0
230
1.0
 70
    11
 71
     3
 72
    17
 73
    13
 74
     0
 42
0.0000000001
 43
0.0000000001
 40
0.0
 40
0.0
 40
0.0
 40
0.0
 40
1.0
 40
1.0
 40
1.0
 40
2.0
 40
2.0
 40
2.0
 40
3.0
 40
3.0
 40
3.0
 40
4.0
 40
4.0
 40
4.0
 40
4.0
 10
100.0412665222987
 20
-148.3709607919003
 30
0.0
 10
100.0412665222987
 20
-148.3709607919003
 30
0.0
 10
99.12952200212735
 20
-148.3709607919003
 30
0.0
 10
99.12952200212735
 20
-148.3709607919003
 30
0.0
 10
99.12952200212735
 20
-148.3709607919003
 30
0.0
 10
99.12952200212735
 20
-148.4787922805886
 30
0.0
 10
99.12952200212735
 20
-148.4787922805886
 30
0.0
 10
99.12952200212735
 20
-148.4787922805886
 30
0.0
 10
100.0412665222987
 20
-148.4787922805886
 30
0.0
 10
100.0412665222987
 20
-148.4787922805886
 30
0.0
 10
100.0412665222987
 20
-148.4787922805886
 30
0.0
 10
100.0412665222987
 20
-148.3709607919003
 30
0.0
 10
100.0412665222987
 20
-148.3709607919003
 30
0.0
  0
SPLINE
  5
C9
330
BC
100
AcDbEntity
  8
レイヤー 1
100
AcDbSpline
210
0.0
220
0.0
230
1.0
 70
    11
 71
     3
 72
    17
 73
    13
 74
     0
 42
0.0000000001
 43
0.0000000001
 40
0.0
 40
0.0
 40
0.0
 40
0.0
 40
1.0
 40
1.0
 40
1.0
 40
2.0
 40
2.0
 40
2.0
 40
3.0
 40
3.0
 40
3.0
 40
4.0
 40
4.0
 40
4.0
 40
4.0
 10
100.0412665222987
 20
-148.125325483802
 30
0.0
 10
100.0412665222987
 20
-148.125325483802
 30
0.0
 10
99.12952200212735
 20
-148.125325483802
 30
0.0
 10
99.12952200212735
 20
-148.125325483802
 30
0.0
 10
99.12952200212735
 20
-148.125325483802
 30
0.0
 10
99.12952200212735
 20
-148.23556853933
 30
0.0
 10
99.12952200212735
 20
-148.23556853933
 30
0.0
 10
99.12952200212735
 20
-148.23556853933
 30
0.0
 10
100.0412665222987
 20
-148.23556853933
 30
0.0
 10
100.0412665222987
 20
-148.23556853933
 30
0.0
 10
100.0412665222987
 20
-148.23556853933
 30
0.0
 10
100.0412665222987
 20
-148.125325483802
 30
0.0
 10
100.0412665222987
 20
-148.125325483802
 30
0.0
  0
SPLINE
  5
CA
330
BC
100
AcDbEntity
  8
レイヤー 1
100
AcDbSpline
210
0.0
220
0.0
230
1.0
 70
    11
 71
     3
 72
    17
 73
    13
 74
     0
 42
0.0000000001
 43
0.0000000001
 40
0.0
 40
0.0
 40
0.0
 40
0.0
 40
1.0
 40
1.0
 40
1.0
 40
2.0
 40
2.0
 40
2.0
 40
3.0
 40
3.0
 40
3.0
 40
4.0
 40
4.0
 40
4.0
 40
4.0
 10
100.0412665222987
 20
-147.8800346852522
 30
0.0
 10
100.0412665222987
 20
-147.8800346852522
 30
0.0
 10
99.12952200212735
 20
-147.8800346852522
 30
0.0
 10
99.12952200212735
 20
-147.8800346852522
 30
0.0
 10
99.12952200212735
 20
-147.8800346852522
 30
0.0
 10
99.12952200212735
 20
-147.9920002885228
 30
0.0
 10
99.12952200212735
 20
-147.9920002885228
 30
0.0
 10
99.12952200212735
 20
-147.9920002885228
 30
0.0
 10
100.0412665222987
 20
-147.9920002885228
 30
0.0
 10
100.0412665222987
 20
-147.9920002885228
 30
0.0
 10
100.0412665222987
 20
-147.9920002885228
 30
0.0
 10
100.0412665222987
 20
-147.8800346852522
 30
0.0
 10
100.0412665222987
 20
-147.8800346852522
 30
0.0
  0
SPLINE
  5
CB
330
BC
100
AcDbEntity
  8
レイヤー 1
100
AcDbSpline
210
0.0
220
0.0
230
1.0
 70
     9
 71
     3
 72
    74
 73
    70
 74
     0
 42
0.0000000001
 43
0.0000000001
 40
0.0
 40
0.0
 40
0.0
 40
0.0
 40
1.0
 40
1.0
 40
1.0
 40
2.0
 40
2.0
 40
2.0
 40
3.0
 40
3.0
 40
3.0
 40
4.0
 40
4.0
 40
4.0
 40
5.0
 40
5.0
 40
5.0
 40
6.0
 40
6.0
 40
6.0
 40
7.0
 40
7.0
 40
7.0
 40
8.0
 40
8.0
 40
8.0
 40
9.0
 40
9.0
 40
9.0
 40
10.0
 40
10.0
 40
10.0
 40
11.0
 40
11.0
 40
11.0
 40
12.0
 40
12.0
 40
12.0
 40
13.0
 40
13.0
 40
13.0
 40
14.0
 40
14.0
 40
14.0
 40
15.0
 40
15.0
 40
15.0
 40
16.0
 40
16.0
 40
16.0
 40
17.0
 40
17.0
 40
17.0
 40
18.0
 40
18.0
 40
18.0
 40
19.0
 40
19.0
 40
19.0
 40
20.0
 40
20.0
 40
20.0
 40
21.0
 40
21.0
 40
21.0
 40
22.0
 40
22.0
 40
22.0
 40
23.0
 40
23.0
 40
23.0
 40
23.0
 10
100.345985217969
 20
-148.9145968594727
 30
0.0
 10
100.1322170431093
 20
-148.9039170634685
 30
0.0
 10
99.93136797631926
 20
-148.8171006572402
 30
0.0
 10
99.7556681065715
 20
-148.6965223152564
 30
0.0
 10
99.7556681065715
 20
-148.6965223152564
 30
0.0
 10
99.85299205402981
 20
-148.6097059090281
 30
0.0
 10
99.85299205402981
 20
-148.6097059090281
 30
0.0
 10
99.85299205402981
 20
-148.6097059090281
 30
0.0
 10
99.30091550251852
 20
-148.6097059090281
 30
0.0
 10
99.30091550251852
 20
-148.6097059090281
 30
0.0
 10
99.30091550251852
 20
-148.6097059090281
 30
0.0
 10
99.38118622732485
 20
-148.6734401755052
 30
0.0
 10
99.38118622732485
 20
-148.6734401755052
 30
0.0
 10
99.38755965397255
 20
-148.6775742900875
 30
0.0
 10
99.39823944997684
 20
-148.6882540860918
 30
0.0
 10
99.39823944997684
 20
-148.7030679966784
 30
0.0
 10
99.39823944997684
 20
-148.7430311043073
 30
0.0
 10
99.32416989704396
 20
-148.7368299324338
 30
0.0
 10
99.30935598645739
 20
-148.7347628751427
 30
0.0
 10
99.07870684371992
 20
-148.8742892422953
 30
0.0
 10
98.93487410721073
 20
-148.9059841207596
 30
0.0
 10
98.83117673310472
 20
-148.9228650886373
 30
0.0
 10
98.83117673310472
 20
-148.9228650886373
 30
0.0
 10
98.7021579071821
 20
-148.7450981615984
 30
0.0
 10
98.7021579071821
 20
-148.7450981615984
 30
0.0
 10
98.94968801779731
 20
-148.7134032831342
 30
0.0
 10
99.05131833461219
 20
-148.6668944940833
 30
0.0
 10
99.14002954335735
 20
-148.6141845331589
 30
0.0
 10
99.06613224519874
 20
-148.6162515904501
 30
0.0
 10
98.95175507508845
 20
-148.6183186477412
 30
0.0
 10
98.92006019662415
 20
-148.6203857050324
 30
0.0
 10
98.93487410721073
 20
-148.5315022415129
 30
0.0
 10
98.93694116450188
 20
-148.4026556703646
 30
0.0
 10
98.93694116450188
 20
-148.3285861174317
 30
0.0
 10
98.93694116450188
 20
-148.3285861174317
 30
0.0
 10
98.93694116450188
 20
-148.0281737911179
 30
0.0
 10
98.93694116450188
 20
-148.0281737911179
 30
0.0
 10
98.93694116450188
 20
-147.9286105315942
 30
0.0
 10
98.93073999262844
 20
-147.829391781619
 30
0.0
 10
98.92006019662415
 20
-147.7318955793865
 30
0.0
 10
99.02169051343904
 20
-147.7380967512599
 30
0.0
 10
99.25216740140225
 20
-147.7446424326819
 30
0.0
 10
99.36017114486482
 20
-147.7446424326819
 30
0.0
 10
99.36017114486482
 20
-147.7446424326819
 30
0.0
 10
99.78322887045351
 20
-147.7446424326819
 30
0.0
 10
99.78322887045351
 20
-147.7446424326819
 30
0.0
 10
99.90174015514611
 20
-147.7446424326819
 30
0.0
 10
99.9439425748404
 20
-147.7446424326819
 30
0.0
 10
100.0264526117121
 20
-147.7405083180996
 30
0.0
 10
100.1745917175778
 20
-147.7339626366776
 30
0.0
 10
100.1914726854556
 20
-147.7339626366776
 30
0.0
 10
100.2379814745065
 20
-147.7318955793865
 30
0.0
 10
100.2295409905676
 20
-147.8121663041928
 30
0.0
 10
100.2254068759853
 20
-147.9709852060628
 30
0.0
 10
100.2254068759853
 20
-148.0533229881603
 30
0.0
 10
100.2254068759853
 20
-148.0533229881603
 30
0.0
 10
100.2254068759853
 20
-148.3389214038875
 30
0.0
 10
100.2254068759853
 20
-148.3389214038875
 30
0.0
 10
100.2254068759853
 20
-148.4109238995292
 30
0.0
 10
100.2274739332764
 20
-148.5421820375172
 30
0.0
 10
100.2379814745065
 20
-148.6203857050324
 30
0.0
 10
100.166151233639
 20
-148.6162515904501
 30
0.0
 10
100.0433335795898
 20
-148.6141845331589
 30
0.0
 10
99.9651299120747
 20
-148.6121174758678
 30
0.0
 10
100.0752007128284
 20
-148.6796413473787
 30
0.0
 10
100.2274739332764
 20
-148.7302842510119
 30
0.0
 10
100.4390027960708
 20
-148.7347628751427
 30
0.0
 10
100.4390027960708
 20
-148.7347628751427
 30
0.0
 10
100.345985217969
 20
-148.9145968594727
 30
0.0
 10
100.345985217969
 20
-148.9145968594727
 30
0.0
  0
SPLINE
  5
CC
330
BC
100
AcDbEntity
  8
レイヤー 1
100
AcDbSpline
210
0.0
220
0.0
230
1.0
 70
    11
 71
     3
 72
    71
 73
    67
 74
     0
 42
0.0000000001
 43
0.0000000001
 40
0.0
 40
0.0
 40
0.0
 40
0.0
 40
1.0
 40
1.0
 40
1.0
 40
2.0
 40
2.0
 40
2.0
 40
3.0
 40
3.0
 40
3.0
 40
4.0
 40
4.0
 40
4.0
 40
5.0
 40
5.0
 40
5.0
 40
6.0
 40
6.0
 40
6.0
 40
7.0
 40
7.0
 40
7.0
 40
8.0
 40
8.0
 40
8.0
 40
9.0
 40
9.0
 40
9.0
 40
10.0
 40
10.0
 40
10.0
 40
11.0
 40
11.0
 40
11.0
 40
12.0
 40
12.0
 40
12.0
 40
13.0
 40
13.0
 40
13.0
 40
14.0
 40
14.0
 40
14.0
 40
15.0
 40
15.0
 40
15.0
 40
16.0
 40
16.0
 40
16.0
 40
17.0
 40
17.0
 40
17.0
 40
18.0
 40
18.0
 40
18.0
 40
19.0
 40
19.0
 40
19.0
 40
20.0
 40
20.0
 40
20.0
 40
21.0
 40
21.0
 40
21.0
 40
22.0
 40
22.0
 40
22.0
 40
22.0
 10
99.5081379959563
 20
-147.1479518946366
 30
0.0
 10
99.49332408536974
 20
-147.1479518946366
 30
0.0
 10
99.48074948684856
 20
-147.1438177800543
 30
0.0
 10
99.45525578025772
 20
-147.1352050413412
 30
0.0
 10
99.3134901010397
 20
-147.1820583399406
 30
0.0
 10
99.14002954335735
 20
-147.1989393078183
 30
0.0
 10
99.00050317620475
 20
-147.2030734224006
 30
0.0
 10
99.00050317620475
 20
-147.2030734224006
 30
0.0
 10
98.99843611891359
 20
-147.2919568859201
 30
0.0
 10
98.99843611891359
 20
-147.2919568859201
 30
0.0
 10
98.99843611891359
 20
-147.2919568859201
 30
0.0
 10
99.25854082804995
 20
-147.2919568859201
 30
0.0
 10
99.25854082804995
 20
-147.2919568859201
 30
0.0
 10
99.31142304374853
 20
-147.2919568859201
 30
0.0
 10
99.49332408536974
 20
-147.2833441472069
 30
0.0
 10
99.53776581712945
 20
-147.2771429753335
 30
0.0
 10
99.53776581712945
 20
-147.2771429753335
 30
0.0
 10
99.53776581712945
 20
-147.4380289344946
 30
0.0
 10
99.53776581712945
 20
-147.4380289344946
 30
0.0
 10
99.48281654413973
 20
-147.4314832530727
 30
0.0
 10
99.3579318327994
 20
-147.4294161957815
 30
0.0
 10
99.3198635276874
 20
-147.4314832530727
 30
0.0
 10
99.3198635276874
 20
-147.4314832530727
 30
0.0
 10
99.3198635276874
 20
-147.5413817990522
 30
0.0
 10
99.3198635276874
 20
-147.5413817990522
 30
0.0
 10
99.3198635276874
 20
-147.587890588103
 30
0.0
 10
99.32210283975281
 20
-147.6516248545801
 30
0.0
 10
99.32830401162625
 20
-147.6895209049179
 30
0.0
 10
99.32830401162625
 20
-147.6895209049179
 30
0.0
 10
99.13589542877506
 20
-147.6895209049179
 30
0.0
 10
99.13589542877506
 20
-147.6895209049179
 30
0.0
 10
99.14226885542277
 20
-147.649557797289
 30
0.0
 10
99.14864228207049
 20
-147.566875505643
 30
0.0
 10
99.14864228207049
 20
-147.5520615950564
 30
0.0
 10
99.14864228207049
 20
-147.5520615950564
 30
0.0
 10
99.14864228207049
 20
-147.4314832530727
 30
0.0
 10
99.14864228207049
 20
-147.4314832530727
 30
0.0
 10
99.14864228207049
 20
-147.4314832530727
 30
0.0
 10
98.98362220832702
 20
-147.4314832530727
 30
0.0
 10
98.98362220832702
 20
-147.4314832530727
 30
0.0
 10
98.94124753385845
 20
-147.6516248545801
 30
0.0
 10
98.88629826086871
 20
-147.7318955793865
 30
0.0
 10
98.78053382947154
 20
-147.8314588389102
 30
0.0
 10
98.78053382947154
 20
-147.8314588389102
 30
0.0
 10
98.61327444366267
 20
-147.7170816687999
 30
0.0
 10
98.61327444366267
 20
-147.7170816687999
 30
0.0
 10
98.67683645536551
 20
-147.6685058224579
 30
0.0
 10
98.82704261852241
 20
-147.5561957096387
 30
0.0
 10
98.82704261852241
 20
-147.2072075369829
 30
0.0
 10
98.82704261852241
 20
-147.1248697548854
 30
0.0
 10
98.81860213458354
 20
-147.0783609658345
 30
0.0
 10
98.81016165064469
 20
-147.029440609944
 30
0.0
 10
98.95606144444501
 20
-147.0442545205306
 30
0.0
 10
98.9708753550316
 20
-147.0442545205306
 30
0.0
 10
99.00687660285246
 20
-147.0442545205306
 30
0.0
 10
99.11470809154078
 20
-147.0442545205306
 30
0.0
 10
99.25647377075881
 20
-147.0273735526529
 30
0.0
 10
99.4171874751457
 20
-146.9660508530154
 30
0.0
 10
99.4171874751457
 20
-146.9660508530154
 30
0.0
 10
99.53139239048175
 20
-147.0973089910034
 30
0.0
 10
99.53139239048175
 20
-147.0973089910034
 30
0.0
 10
99.53776581712945
 20
-147.1035101628769
 30
0.0
 10
99.54207218648601
 20
-147.11212290159
 30
0.0
 10
99.54207218648601
 20
-147.1203911307546
 30
0.0
 10
99.54207218648601
 20
-147.1438177800543
 30
0.0
 10
99.52295190654288
 20
-147.1479518946366
 30
0.0
 10
99.5081379959563
 20
-147.1479518946366
 30
0.0
  0
HATCH
  5
CD
330
BC
100
AcDbEntity
  8
レイヤー 1
 62
   250
420
  2299925
440
 33554687
100
AcDbHatch
 10
0.0
 20
0.0
 30
0.0
210
0.0
220
0.0
230
1.0
  2
SOLID
 70
     1
 71
     1
 91
        6
 92
        1
 93
        1
 72
     4
 94
        3
 73
     0
 74
     0
 95
       74
 96
       70
 40
0.0
 40
0.0
 40
0.0
 40
0.0
 40
1.0
 40
1.0
 40
1.0
 40
2.0
 40
2.0
 40
2.0
 40
3.0
 40
3.0
 40
3.0
 40
4.0
 40
4.0
 40
4.0
 40
5.0
 40
5.0
 40
5.0
 40
6.0
 40
6.0
 40
6.0
 40
7.0
 40
7.0
 40
7.0
 40
8.0
 40
8.0
 40
8.0
 40
9.0
 40
9.0
 40
9.0
 40
10.0
 40
10.0
 40
10.0
 40
11.0
 40
11.0
 40
11.0
 40
12.0
 40
12.0
 40
12.0
 40
13.0
 40
13.0
 40
13.0
 40
14.0
 40
14.0
 40
14.0
 40
15.0
 40
15.0
 40
15.0
 40
16.0
 40
16.0
 40
16.0
 40
17.0
 40
17.0
 40
17.0
 40
18.0
 40
18.0
 40
18.0
 40
19.0
 40
19.0
 40
19.0
 40
20.0
 40
20.0
 40
20.0
 40
21.0
 40
21.0
 40
21.0
 40
22.0
 40
22.0
 40
22.0
 40
23.0
 40
23.0
 40
23.0
 40
23.0
 10
100.3585598164902
 20
-147.4273491384904
 10
100.3585598164902
 20
-147.4273491384904
 10
100.1978461121033
 20
-147.4273491384904
 10
100.1978461121033
 20
-147.4273491384904
 10
100.1978461121033
 20
-147.4273491384904
 10
100.1978461121033
 20
-147.5413817990522
 10
100.1978461121033
 20
-147.5413817990522
 10
100.1978461121033
 20
-147.5816894162296
 10
100.204219538751
 20
-147.6557589691624
 10
100.2083536533333
 20
-147.6812526757533
 10
100.2083536533333
 20
-147.6812526757533
 10
99.996824790539
 20
-147.6812526757533
 10
99.996824790539
 20
-147.6812526757533
 10
100.0075045865432
 20
-147.615451351985
 10
100.0095716438344
 20
-147.5561957096387
 10
100.0095716438344
 20
-147.5541286523476
 10
100.0095716438344
 20
-147.5541286523476
 10
100.0095716438344
 20
-147.4314832530727
 10
100.0095716438344
 20
-147.4314832530727
 10
100.0095716438344
 20
-147.4314832530727
 10
99.82973765950438
 20
-147.4314832530727
 10
99.82973765950438
 20
-147.4314832530727
 10
99.81078963433551
 20
-147.490738895419
 10
99.76410859051036
 20
-147.6368109439936
 10
99.64990367517433
 20
-147.719148726091
 10
99.64990367517433
 20
-147.719148726091
 10
99.49332408536974
 20
-147.6133842946939
 10
99.49332408536974
 20
-147.6133842946939
 10
99.5673936383026
 20
-147.566875505643
 10
99.68383786570406
 20
-147.4928059527101
 10
99.68383786570406
 20
-147.1713785439363
 10
99.68383786570406
 20
-147.1162570161723
 10
99.67953149634748
 20
-147.0718152844126
 10
99.67746443905634
 20
-147.0339192340748
 10
99.75360104928036
 20
-147.0421874632394
 10
99.82767060221323
 20
-147.0487331446614
 10
99.89106035914183
 20
-147.0487331446614
 10
100.0688272861807
 20
-147.0487331446614
 10
100.2676092956796
 20
-146.9894775023151
 10
100.328931995317
 20
-146.9598496811419
 10
100.328931995317
 20
-146.9598496811419
 10
100.4558837639485
 20
-147.0952419337123
 10
100.4558837639485
 20
-147.0952419337123
 10
100.4601901333051
 20
-147.0993760482946
 10
100.4622571905962
 20
-147.1079887870077
 10
100.4622571905962
 20
-147.1141899588812
 10
100.4622571905962
 20
-147.1352050413412
 10
100.4474432800096
 20
-147.1417507227632
 10
100.4305623121319
 20
-147.1417507227632
 10
100.4093749748976
 20
-147.1417507227632
 10
100.3945610643111
 20
-147.13313798405
 10
100.3756130391422
 20
-147.1228026975943
 10
100.2021524814598
 20
-147.1796467731009
 10
99.98425019201782
 20
-147.2051404796918
 10
99.85092499673866
 20
-147.2072075369829
 10
99.85092499673866
 20
-147.2072075369829
 10
99.8466186273821
 20
-147.2898898286289
 10
99.8466186273821
 20
-147.2898898286289
 10
99.8466186273821
 20
-147.2898898286289
 10
100.1196424445881
 20
-147.2898898286289
 10
100.1196424445881
 20
-147.2898898286289
 10
100.176658774869
 20
-147.2898898286289
 10
100.4390027960708
 20
-147.2705972939115
 10
100.4834445278305
 20
-147.2643961220381
 10
100.4834445278305
 20
-147.2643961220381
 10
100.4834445278305
 20
-147.4335503103638
 10
100.4834445278305
 20
-147.4335503103638
 10
100.4495103373008
 20
-147.4294161957815
 10
100.4369357387796
 20
-147.4273491384904
 10
100.3585598164902
 20
-147.4273491384904
 97
        0
 97
        1
330
C7
 92
        1
 93
        1
 72
     4
 94
        3
 73
     0
 74
     0
 95
       17
 96
       13
 40
0.0
 40
0.0
 40
0.0
 40
0.0
 40
1.0
 40
1.0
 40
1.0
 40
2.0
 40
2.0
 40
2.0
 40
3.0
 40
3.0
 40
3.0
 40
4.0
 40
4.0
 40
4.0
 40
4.0
 10
100.0412665222987
 20
-148.3709607919003
 10
100.0412665222987
 20
-148.3709607919003
 10
99.12952200212735
 20
-148.3709607919003
 10
99.12952200212735
 20
-148.3709607919003
 10
99.12952200212735
 20
-148.3709607919003
 10
99.12952200212735
 20
-148.4787922805886
 10
99.12952200212735
 20
-148.4787922805886
 10
99.12952200212735
 20
-148.4787922805886
 10
100.0412665222987
 20
-148.4787922805886
 10
100.0412665222987
 20
-148.4787922805886
 10
100.0412665222987
 20
-148.4787922805886
 10
100.0412665222987
 20
-148.3709607919003
 10
100.0412665222987
 20
-148.3709607919003
 97
        0
 97
        1
330
C8
 92
        1
 93
        1
 72
     4
 94
        3
 73
     0
 74
     0
 95
       17
 96
       13
 40
0.0
 40
0.0
 40
0.0
 40
0.0
 40
1.0
 40
1.0
 40
1.0
 40
2.0
 40
2.0
 40
2.0
 40
3.0
 40
3.0
 40
3.0
 40
4.0
 40
4.0
 40
4.0
 40
4.0
 10
100.0412665222987
 20
-148.125325483802
 10
100.0412665222987
 20
-148.125325483802
 10
99.12952200212735
 20
-148.125325483802
 10
99.12952200212735
 20
-148.125325483802
 10
99.12952200212735
 20
-148.125325483802
 10
99.12952200212735
 20
-148.23556853933
 10
99.12952200212735
 20
-148.23556853933
 10
99.12952200212735
 20
-148.23556853933
 10
100.0412665222987
 20
-148.23556853933
 10
100.0412665222987
 20
-148.23556853933
 10
100.0412665222987
 20
-148.23556853933
 10
100.0412665222987
 20
-148.125325483802
 10
100.0412665222987
 20
-148.125325483802
 97
        0
 97
        1
330
C9
 92
        1
 93
        1
 72
     4
 94
        3
 73
     0
 74
     0
 95
       17
 96
       13
 40
0.0
 40
0.0
 40
0.0
 40
0.0
 40
1.0
 40
1.0
 40
1.0
 40
2.0
 40
2.0
 40
2.0
 40
3.0
 40
3.0
 40
3.0
 40
4.0
 40
4.0
 40
4.0
 40
4.0
 10
100.0412665222987
 20
-147.8800346852522
 10
100.0412665222987
 20
-147.8800346852522
 10
99.12952200212735
 20
-147.8800346852522
 10
99.12952200212735
 20
-147.8800346852522
 10
99.12952200212735
 20
-147.8800346852522
 10
99.12952200212735
 20
-147.9920002885228
 10
99.12952200212735
 20
-147.9920002885228
 10
99.12952200212735
 20
-147.9920002885228
 10
100.0412665222987
 20
-147.9920002885228
 10
100.0412665222987
 20
-147.9920002885228
 10
100.0412665222987
 20
-147.9920002885228
 10
100.0412665222987
 20
-147.8800346852522
 10
100.0412665222987
 20
-147.8800346852522
 97
        0
 97
        1
330
CA
 92
        1
 93
        1
 72
     4
 94
        3
 73
     0
 74
     0
 95
       74
 96
       70
 40
0.0
 40
0.0
 40
0.0
 40
0.0
 40
1.0
 40
1.0
 40
1.0
 40
2.0
 40
2.0
 40
2.0
 40
3.0
 40
3.0
 40
3.0
 40
4.0
 40
4.0
 40
4.0
 40
5.0
 40
5.0
 40
5.0
 40
6.0
 40
6.0
 40
6.0
 40
7.0
 40
7.0
 40
7.0
 40
8.0
 40
8.0
 40
8.0
 40
9.0
 40
9.0
 40
9.0
 40
10.0
 40
10.0
 40
10.0
 40
11.0
 40
11.0
 40
11.0
 40
12.0
 40
12.0
 40
12.0
 40
13.0
 40
13.0
 40
13.0
 40
14.0
 40
14.0
 40
14.0
 40
15.0
 40
15.0
 40
15.0
 40
16.0
 40
16.0
 40
16.0
 40
17.0
 40
17.0
 40
17.0
 40
18.0
 40
18.0
 40
18.0
 40
19.0
 40
19.0
 40
19.0
 40
20.0
 40
20.0
 40
20.0
 40
21.0
 40
21.0
 40
21.0
 40
22.0
 40
22.0
 40
22.0
 40
23.0
 40
23.0
 40
23.0
 40
23.0
 10
100.345985217969
 20
-148.9145968594727
 10
100.1322170431093
 20
-148.9039170634685
 10
99.93136797631926
 20
-148.8171006572402
 10
99.7556681065715
 20
-148.6965223152564
 10
99.7556681065715
 20
-148.6965223152564
 10
99.85299205402981
 20
-148.6097059090281
 10
99.85299205402981
 20
-148.6097059090281
 10
99.85299205402981
 20
-148.6097059090281
 10
99.30091550251852
 20
-148.6097059090281
 10
99.30091550251852
 20
-148.6097059090281
 10
99.30091550251852
 20
-148.6097059090281
 10
99.38118622732485
 20
-148.6734401755052
 10
99.38118622732485
 20
-148.6734401755052
 10
99.38755965397255
 20
-148.6775742900875
 10
99.39823944997684
 20
-148.6882540860918
 10
99.39823944997684
 20
-148.7030679966784
 10
99.39823944997684
 20
-148.7430311043073
 10
99.32416989704396
 20
-148.7368299324338
 10
99.30935598645739
 20
-148.7347628751427
 10
99.07870684371992
 20
-148.8742892422953
 10
98.93487410721073
 20
-148.9059841207596
 10
98.83117673310472
 20
-148.9228650886373
 10
98.83117673310472
 20
-148.9228650886373
 10
98.7021579071821
 20
-148.7450981615984
 10
98.7021579071821
 20
-148.7450981615984
 10
98.94968801779731
 20
-148.7134032831342
 10
99.05131833461219
 20
-148.6668944940833
 10
99.14002954335735
 20
-148.6141845331589
 10
99.06613224519874
 20
-148.6162515904501
 10
98.95175507508845
 20
-148.6183186477412
 10
98.92006019662415
 20
-148.6203857050324
 10
98.93487410721073
 20
-148.5315022415129
 10
98.93694116450188
 20
-148.4026556703646
 10
98.93694116450188
 20
-148.3285861174317
 10
98.93694116450188
 20
-148.3285861174317
 10
98.93694116450188
 20
-148.0281737911179
 10
98.93694116450188
 20
-148.0281737911179
 10
98.93694116450188
 20
-147.9286105315942
 10
98.93073999262844
 20
-147.829391781619
 10
98.92006019662415
 20
-147.7318955793865
 10
99.02169051343904
 20
-147.7380967512599
 10
99.25216740140225
 20
-147.7446424326819
 10
99.36017114486482
 20
-147.7446424326819
 10
99.36017114486482
 20
-147.7446424326819
 10
99.78322887045351
 20
-147.7446424326819
 10
99.78322887045351
 20
-147.7446424326819
 10
99.90174015514611
 20
-147.7446424326819
 10
99.9439425748404
 20
-147.7446424326819
 10
100.0264526117121
 20
-147.7405083180996
 10
100.1745917175778
 20
-147.7339626366776
 10
100.1914726854556
 20
-147.7339626366776
 10
100.2379814745065
 20
-147.7318955793865
 10
100.2295409905676
 20
-147.8121663041928
 10
100.2254068759853
 20
-147.9709852060628
 10
100.2254068759853
 20
-148.0533229881603
 10
100.2254068759853
 20
-148.0533229881603
 10
100.2254068759853
 20
-148.3389214038875
 10
100.2254068759853
 20
-148.3389214038875
 10
100.2254068759853
 20
-148.4109238995292
 10
100.2274739332764
 20
-148.5421820375172
 10
100.2379814745065
 20
-148.6203857050324
 10
100.166151233639
 20
-148.6162515904501
 10
100.0433335795898
 20
-148.6141845331589
 10
99.9651299120747
 20
-148.6121174758678
 10
100.0752007128284
 20
-148.6796413473787
 10
100.2274739332764
 20
-148.7302842510119
 10
100.4390027960708
 20
-148.7347628751427
 10
100.4390027960708
 20
-148.7347628751427
 10
100.345985217969
 20
-148.9145968594727
 10
100.345985217969
 20
-148.9145968594727
 97
        0
 97
        1
330
CB
 92
        1
 93
        1
 72
     4
 94
        3
 73
     0
 74
     0
 95
       71
 96
       67
 40
0.0
 40
0.0
 40
0.0
 40
0.0
 40
1.0
 40
1.0
 40
1.0
 40
2.0
 40
2.0
 40
2.0
 40
3.0
 40
3.0
 40
3.0
 40
4.0
 40
4.0
 40
4.0
 40
5.0
 40
5.0
 40
5.0
 40
6.0
 40
6.0
 40
6.0
 40
7.0
 40
7.0
 40
7.0
 40
8.0
 40
8.0
 40
8.0
 40
9.0
 40
9.0
 40
9.0
 40
10.0
 40
10.0
 40
10.0
 40
11.0
 40
11.0
 40
11.0
 40
12.0
 40
12.0
 40
12.0
 40
13.0
 40
13.0
 40
13.0
 40
14.0
 40
14.0
 40
14.0
 40
15.0
 40
15.0
 40
15.0
 40
16.0
 40
16.0
 40
16.0
 40
17.0
 40
17.0
 40
17.0
 40
18.0
 40
18.0
 40
18.0
 40
19.0
 40
19.0
 40
19.0
 40
20.0
 40
20.0
 40
20.0
 40
21.0
 40
21.0
 40
21.0
 40
22.0
 40
22.0
 40
22.0
 40
22.0
 10
99.5081379959563
 20
-147.1479518946366
 10
99.49332408536974
 20
-147.1479518946366
 10
99.48074948684856
 20
-147.1438177800543
 10
99.45525578025772
 20
-147.1352050413412
 10
99.3134901010397
 20
-147.1820583399406
 10
99.14002954335735
 20
-147.1989393078183
 10
99.00050317620475
 20
-147.2030734224006
 10
99.00050317620475
 20
-147.2030734224006
 10
98.99843611891359
 20
-147.2919568859201
 10
98.99843611891359
 20
-147.2919568859201
 10
98.99843611891359
 20
-147.2919568859201
 10
99.25854082804995
 20
-147.2919568859201
 10
99.25854082804995
 20
-147.2919568859201
 10
99.31142304374853
 20
-147.2919568859201
 10
99.49332408536974
 20
-147.2833441472069
 10
99.53776581712945
 20
-147.2771429753335
 10
99.53776581712945
 20
-147.2771429753335
 10
99.53776581712945
 20
-147.4380289344946
 10
99.53776581712945
 20
-147.4380289344946
 10
99.48281654413973
 20
-147.4314832530727
 10
99.3579318327994
 20
-147.4294161957815
 10
99.3198635276874
 20
-147.4314832530727
 10
99.3198635276874
 20
-147.4314832530727
 10
99.3198635276874
 20
-147.5413817990522
 10
99.3198635276874
 20
-147.5413817990522
 10
99.3198635276874
 20
-147.587890588103
 10
99.32210283975281
 20
-147.6516248545801
 10
99.32830401162625
 20
-147.6895209049179
 10
99.32830401162625
 20
-147.6895209049179
 10
99.13589542877506
 20
-147.6895209049179
 10
99.13589542877506
 20
-147.6895209049179
 10
99.14226885542277
 20
-147.649557797289
 10
99.14864228207049
 20
-147.566875505643
 10
99.14864228207049
 20
-147.5520615950564
 10
99.14864228207049
 20
-147.5520615950564
 10
99.14864228207049
 20
-147.4314832530727
 10
99.14864228207049
 20
-147.4314832530727
 10
99.14864228207049
 20
-147.4314832530727
 10
98.98362220832702
 20
-147.4314832530727
 10
98.98362220832702
 20
-147.4314832530727
 10
98.94124753385845
 20
-147.6516248545801
 10
98.88629826086871
 20
-147.7318955793865
 10
98.78053382947154
 20
-147.8314588389102
 10
98.78053382947154
 20
-147.8314588389102
 10
98.61327444366267
 20
-147.7170816687999
 10
98.61327444366267
 20
-147.7170816687999
 10
98.67683645536551
 20
-147.6685058224579
 10
98.82704261852241
 20
-147.5561957096387
 10
98.82704261852241
 20
-147.2072075369829
 10
98.82704261852241
 20
-147.1248697548854
 10
98.81860213458354
 20
-147.0783609658345
 10
98.81016165064469
 20
-147.029440609944
 10
98.95606144444501
 20
-147.0442545205306
 10
98.9708753550316
 20
-147.0442545205306
 10
99.00687660285246
 20
-147.0442545205306
 10
99.11470809154078
 20
-147.0442545205306
 10
99.25647377075881
 20
-147.0273735526529
 10
99.4171874751457
 20
-146.9660508530154
 10
99.4171874751457
 20
-146.9660508530154
 10
99.53139239048175
 20
-147.0973089910034
 10
99.53139239048175
 20
-147.0973089910034
 10
99.53776581712945
 20
-147.1035101628769
 10
99.54207218648601
 20
-147.11212290159
 10
99.54207218648601
 20
-147.1203911307546
 10
99.54207218648601
 20
-147.1438177800543
 10
99.52295190654288
 20
-147.1479518946366
 10
99.5081379959563
 20
-147.1479518946366
 97
        0
 97
        1
330
CC
 75
     2
 76
     1
 98
        1
 10
0.0
 20
0.0
450
        0
451
        0
460
0.0
461
0.0
452
        0
462
0.0
453
        0
470

  0
ENDBLK
  5
BF
330
BC
100
AcDbEntity
  8
0
100
AcDbBlockEnd
  0
BLOCK
  5
D5
330
D3
100
AcDbEntity
  8
0
100
AcDbBlockBegin
  2
Block_8
 70
     0
 10
0.0
 20
0.0
 30
0.0
  3
Block_8
  1

  0
INSERT
  5
D8
330
D3
100
AcDbEntity
  8
レイヤー 1
100
AcDbBlockReference
  2
Block_9
 10
0.0
 20
0.0
 30
0.0
  0
ENDBLK
  5
D6
330
D3
100
AcDbEntity
  8
0
100
AcDbBlockEnd
  0
BLOCK
  5
D9
330
D7
100
AcDbEntity
  8
0
100
AcDbBlockBegin
  2
Block_9
 70
     0
 10
0.0
 20
0.0
 30
0.0
  3
Block_9
  1

  0
SPLINE
  5
DB
330
D7
100
AcDbEntity
  8
レイヤー 1
100
AcDbSpline
210
0.0
220
0.0
230
1.0
 70
     9
 71
     3
 72
    17
 73
    13
 74
     0
 42
0.0000000001
 43
0.0000000001
 40
0.0
 40
0.0
 40
0.0
 40
0.0
 40
1.0
 40
1.0
 40
1.0
 40
2.0
 40
2.0
 40
2.0
 40
3.0
 40
3.0
 40
3.0
 40
4.0
 40
4.0
 40
4.0
 40
4.0
 10
118.595000512886
 20
-133.4190741311418
 30
0.0
 10
118.5801866022994
 20
-133.4485296975406
 30
0.0
 10
118.5357448705397
 20
-133.5417195304166
 30
0.0
 10
118.5264431127295
 20
-133.5606675555855
 30
0.0
 10
118.6931857342156
 20
-133.6199231979318
 30
0.0
 10
118.7117892498359
 20
-133.6262966245795
 30
0.0
 10
118.774834497216
 20
-133.6538573884615
 30
0.0
 10
118.822721324461
 20
-133.5670409822332
 30
0.0
 10
118.8433918973725
 20
-133.4929714293004
 30
0.0
 10
118.8561387506679
 20
-133.4190741311418
 30
0.0
 10
118.8561387506679
 20
-133.4190741311418
 30
0.0
 10
118.595000512886
 20
-133.4190741311418
 30
0.0
 10
118.595000512886
 20
-133.4190741311418
 30
0.0
  0
SPLINE
  5
DC
330
D7
100
AcDbEntity
  8
レイヤー 1
100
AcDbSpline
210
0.0
220
0.0
230
1.0
 70
    11
 71
     3
 72
    20
 73
    16
 74
     0
 42
0.0000000001
 43
0.0000000001
 40
0.0
 40
0.0
 40
0.0
 40
0.0
 40
1.0
 40
1.0
 40
1.0
 40
2.0
 40
2.0
 40
2.0
 40
3.0
 40
3.0
 40
3.0
 40
4.0
 40
4.0
 40
4.0
 40
5.0
 40
5.0
 40
5.0
 40
5.0
 10
118.5395344755734
 20
-132.5686523106078
 30
0.0
 10
118.5395344755734
 20
-132.5686523106078
 30
0.0
 10
118.5119737116914
 20
-132.5686523106078
 30
0.0
 10
118.5119737116914
 20
-132.5686523106078
 30
0.0
 10
118.5526258384174
 20
-132.6680433153573
 30
0.0
 10
118.5801866022994
 20
-132.7483140401636
 30
0.0
 10
118.6098144234725
 20
-132.8752658087951
 30
0.0
 10
118.6098144234725
 20
-132.8752658087951
 30
0.0
 10
118.7913709555452
 20
-132.8752658087951
 30
0.0
 10
118.7913709555452
 20
-132.8752658087951
 30
0.0
 10
118.8192762289757
 20
-132.7822482306933
 30
0.0
 10
118.8396022923387
 20
-132.6976711365304
 30
0.0
 10
118.8599283557017
 20
-132.5686523106078
 30
0.0
 10
118.8599283557017
 20
-132.5686523106078
 30
0.0
 10
118.5395344755734
 20
-132.5686523106078
 30
0.0
 10
118.5395344755734
 20
-132.5686523106078
 30
0.0
  0
SPLINE
  5
DD
330
D7
100
AcDbEntity
  8
レイヤー 1
100
AcDbSpline
210
0.0
220
0.0
230
1.0
 70
     9
 71
     3
 72
   242
 73
   238
 74
     0
 42
0.0000000001
 43
0.0000000001
 40
0.0
 40
0.0
 40
0.0
 40
0.0
 40
1.0
 40
1.0
 40
1.0
 40
2.0
 40
2.0
 40
2.0
 40
3.0
 40
3.0
 40
3.0
 40
4.0
 40
4.0
 40
4.0
 40
5.0
 40
5.0
 40
5.0
 40
6.0
 40
6.0
 40
6.0
 40
7.0
 40
7.0
 40
7.0
 40
8.0
 40
8.0
 40
8.0
 40
9.0
 40
9.0
 40
9.0
 40
10.0
 40
10.0
 40
10.0
 40
11.0
 40
11.0
 40
11.0
 40
12.0
 40
12.0
 40
12.0
 40
13.0
 40
13.0
 40
13.0
 40
14.0
 40
14.0
 40
14.0
 40
15.0
 40
15.0
 40
15.0
 40
16.0
 40
16.0
 40
16.0
 40
17.0
 40
17.0
 40
17.0
 40
18.0
 40
18.0
 40
18.0
 40
19.0
 40
19.0
 40
19.0
 40
20.0
 40
20.0
 40
20.0
 40
21.0
 40
21.0
 40
21.0
 40
22.0
 40
22.0
 40
22.0
 40
23.0
 40
23.0
 40
23.0
 40
24.0
 40
24.0
 40
24.0
 40
25.0
 40
25.0
 40
25.0
 40
26.0
 40
26.0
 40
26.0
 40
27.0
 40
27.0
 40
27.0
 40
28.0
 40
28.0
 40
28.0
 40
29.0
 40
29.0
 40
29.0
 40
30.0
 40
30.0
 40
30.0
 40
31.0
 40
31.0
 40
31.0
 40
32.0
 40
32.0
 40
32.0
 40
33.0
 40
33.0
 40
33.0
 40
34.0
 40
34.0
 40
34.0
 40
35.0
 40
35.0
 40
35.0
 40
36.0
 40
36.0
 40
36.0
 40
37.0
 40
37.0
 40
37.0
 40
38.0
 40
38.0
 40
38.0
 40
39.0
 40
39.0
 40
39.0
 40
40.0
 40
40.0
 40
40.0
 40
41.0
 40
41.0
 40
41.0
 40
42.0
 40
42.0
 40
42.0
 40
43.0
 40
43.0
 40
43.0
 40
44.0
 40
44.0
 40
44.0
 40
45.0
 40
45.0
 40
45.0
 40
46.0
 40
46.0
 40
46.0
 40
47.0
 40
47.0
 40
47.0
 40
48.0
 40
48.0
 40
48.0
 40
49.0
 40
49.0
 40
49.0
 40
50.0
 40
50.0
 40
50.0
 40
51.0
 40
51.0
 40
51.0
 40
52.0
 40
52.0
 40
52.0
 40
53.0
 40
53.0
 40
53.0
 40
54.0
 40
54.0
 40
54.0
 40
55.0
 40
55.0
 40
55.0
 40
56.0
 40
56.0
 40
56.0
 40
57.0
 40
57.0
 40
57.0
 40
58.0
 40
58.0
 40
58.0
 40
59.0
 40
59.0
 40
59.0
 40
60.0
 40
60.0
 40
60.0
 40
61.0
 40
61.0
 40
61.0
 40
62.0
 40
62.0
 40
62.0
 40
63.0
 40
63.0
 40
63.0
 40
64.0
 40
64.0
 40
64.0
 40
65.0
 40
65.0
 40
65.0
 40
66.0
 40
66.0
 40
66.0
 40
67.0
 40
67.0
 40
67.0
 40
68.0
 40
68.0
 40
68.0
 40
69.0
 40
69.0
 40
69.0
 40
70.0
 40
70.0
 40
70.0
 40
71.0
 40
71.0
 40
71.0
 40
72.0
 40
72.0
 40
72.0
 40
73.0
 40
73.0
 40
73.0
 40
74.0
 40
74.0
 40
74.0
 40
75.0
 40
75.0
 40
75.0
 40
76.0
 40
76.0
 40
76.0
 40
77.0
 40
77.0
 40
77.0
 40
78.0
 40
78.0
 40
78.0
 40
79.0
 40
79.0
 40
79.0
 40
79.0
 10
119.0893717150193
 20
-133.0339124558908
 30
0.0
 10
119.0893717150193
 20
-133.0339124558908
 30
0.0
 10
118.8675075657692
 20
-133.0339124558908
 30
0.0
 10
118.8675075657692
 20
-133.0339124558908
 30
0.0
 10
118.8675075657692
 20
-133.0339124558908
 30
0.0
 10
118.6246283340591
 20
-133.0339124558908
 30
0.0
 10
118.6246283340591
 20
-133.0339124558908
 30
0.0
 10
118.6246283340591
 20
-133.0339124558908
 30
0.0
 10
118.7359049182327
 20
-133.0762871303594
 30
0.0
 10
118.7359049182327
 20
-133.0762871303594
 30
0.0
 10
118.7452066760428
 20
-133.0805934997159
 30
0.0
 10
118.7562309815956
 20
-133.0867946715894
 30
0.0
 10
118.7562309815956
 20
-133.0995415248848
 30
0.0
 10
118.7562309815956
 20
-133.1207288621191
 30
0.0
 10
118.7283257081651
 20
-133.1271022887668
 30
0.0
 10
118.7100667020933
 20
-133.1312364033491
 30
0.0
 10
118.7007649442831
 20
-133.1544907978746
 30
0.0
 10
118.6745822185952
 20
-133.2201198668686
 30
0.0
 10
118.658045760266
 20
-133.2645615986283
 30
0.0
 10
118.658045760266
 20
-133.2645615986283
 30
0.0
 10
118.8950683296512
 20
-133.2645615986283
 30
0.0
 10
118.8950683296512
 20
-133.2645615986283
 30
0.0
 10
118.9746500353605
 20
-133.2645615986283
 30
0.0
 10
119.146904809623
 20
-133.2602552292717
 30
0.0
 10
119.270928247092
 20
-133.2518147453329
 30
0.0
 10
119.270928247092
 20
-133.2518147453329
 30
0.0
 10
119.270928247092
 20
-133.4295816723717
 30
0.0
 10
119.270928247092
 20
-133.4295816723717
 30
0.0
 10
119.1989257514503
 20
-133.4252753030152
 30
0.0
 10
119.1803222358299
 20
-133.4252753030152
 30
0.0
 10
119.022881372154
 20
-133.4211411884329
 30
0.0
 10
118.9949760987235
 20
-133.5754814661721
 30
0.0
 10
118.9563910292886
 20
-133.6559244457527
 30
0.0
 10
118.9174614503053
 20
-133.725687629329
 30
0.0
 10
119.022881372154
 20
-133.7849432716753
 30
0.0
 10
119.1155544407072
 20
-133.8526393979604
 30
0.0
 10
119.2061604519693
 20
-133.9351494348322
 30
0.0
 10
119.2061604519693
 20
-133.9351494348322
 30
0.0
 10
119.1024630778632
 20
-134.1022365658668
 30
0.0
 10
119.1024630778632
 20
-134.1022365658668
 30
0.0
 10
119.0821370145003
 20
-134.0832885406979
 30
0.0
 10
119.0711127089475
 20
-134.074848056759
 30
0.0
 10
118.9729274876178
 20
-133.9900987078219
 30
0.0
 10
118.9302083036008
 20
-133.9520304027099
 30
0.0
 10
118.878531871322
 20
-133.9162014096633
 30
0.0
 10
118.8082519234229
 20
-133.8717596779036
 30
0.0
 10
118.6229057863165
 20
-134.0579670888813
 30
0.0
 10
118.443416311535
 20
-134.0812214834067
 30
0.0
 10
118.189512774272
 20
-134.1108493045799
 30
0.0
 10
118.189512774272
 20
-134.1108493045799
 30
0.0
 10
118.09890676301
 20
-133.9310153202499
 30
0.0
 10
118.09890676301
 20
-133.9310153202499
 30
0.0
 10
118.3765814591211
 20
-133.9267089508933
 30
0.0
 10
118.5302327177633
 20
-133.9013874990767
 30
0.0
 10
118.6635579130424
 20
-133.791316698323
 30
0.0
 10
118.5598605389364
 20
-133.7405015399156
 30
0.0
 10
118.4823458905183
 20
-133.7131130308078
 30
0.0
 10
118.450651012054
 20
-133.7003661775124
 30
0.0
 10
118.4341145537248
 20
-133.7279269413944
 30
0.0
 10
118.4210231908808
 20
-133.7468749665633
 30
0.0
 10
118.3969075224841
 20
-133.780809157093
 30
0.0
 10
118.3969075224841
 20
-133.780809157093
 30
0.0
 10
118.2246527482216
 20
-133.6982991202212
 30
0.0
 10
118.2246527482216
 20
-133.6982991202212
 30
0.0
 10
118.2969997534119
 20
-133.6178561406407
 30
0.0
 10
118.3507432429817
 20
-133.5225992504735
 30
0.0
 10
118.4006971275179
 20
-133.4211411884329
 30
0.0
 10
118.2339545060318
 20
-133.4252753030152
 30
0.0
 10
118.2156954999599
 20
-133.4252753030152
 30
0.0
 10
118.1433484947697
 20
-133.4295816723717
 30
0.0
 10
118.1433484947697
 20
-133.4295816723717
 30
0.0
 10
118.1433484947697
 20
-133.2518147453329
 30
0.0
 10
118.1433484947697
 20
-133.2518147453329
 30
0.0
 10
118.2656493844961
 20
-133.2581881719806
 30
0.0
 10
118.4489284643114
 20
-133.2624945413371
 30
0.0
 10
118.470977075417
 20
-133.2624945413371
 30
0.0
 10
118.4857909860035
 20
-133.2285603508074
 30
0.0
 10
118.534022322797
 20
-133.1079820088237
 30
0.0
 10
118.5505587811262
 20
-133.0339124558908
 30
0.0
 10
118.534022322797
 20
-133.0339124558908
 30
0.0
 10
118.3783040068637
 20
-133.0402858825385
 30
0.0
 10
118.2081162898924
 20
-133.0530327358339
 30
0.0
 10
118.2081162898924
 20
-133.0530327358339
 30
0.0
 10
118.2081162898924
 20
-133.1863579311131
 30
0.0
 10
118.2081162898924
 20
-133.1863579311131
 30
0.0
 10
118.1653971058753
 20
-133.2116793829297
 30
0.0
 10
118.1137206735965
 20
-133.243374261394
 30
0.0
 10
117.9969319366466
 20
-133.309003330388
 30
0.0
 10
117.9969319366466
 20
-133.309003330388
 30
0.0
 10
117.9969319366466
 20
-133.4549031241883
 30
0.0
 10
117.9969319366466
 20
-133.4549031241883
 30
0.0
 10
117.9969319366466
 20
-133.4549031241883
 30
0.0
 10
117.9969319366466
 20
-133.922574836311
 30
0.0
 10
117.9969319366466
 20
-133.922574836311
 30
0.0
 10
117.9969319366466
 20
-134.0493543501682
 30
0.0
 10
117.9655815677308
 20
-134.1086099925145
 30
0.0
 10
117.7175346927928
 20
-134.1001695085756
 30
0.0
 10
117.7175346927928
 20
-134.1001695085756
 30
0.0
 10
117.6265841719822
 20
-133.8929470151378
 30
0.0
 10
117.6265841719822
 20
-133.8929470151378
 30
0.0
 10
117.6823947188433
 20
-133.905521613659
 30
0.0
 10
117.7247693933118
 20
-133.9098279830156
 30
0.0
 10
117.7599093672614
 20
-133.9098279830156
 30
0.0
 10
117.8267442196752
 20
-133.9098279830156
 30
0.0
 10
117.8360459774854
 20
-133.8865735884901
 30
0.0
 10
117.8360459774854
 20
-133.8209445194961
 30
0.0
 10
117.8360459774854
 20
-133.8209445194961
 30
0.0
 10
117.8360459774854
 20
-133.3915133672597
 30
0.0
 10
117.8360459774854
 20
-133.3915133672597
 30
0.0
 10
117.7506076094512
 20
-133.4316487296629
 30
0.0
 10
117.7357936988646
 20
-133.4380221563106
 30
0.0
 10
117.6951415721387
 20
-133.4571424362537
 30
0.0
 10
117.6913519671049
 20
-133.4781575187138
 30
0.0
 10
117.6879068716197
 20
-133.5077853398869
 30
0.0
 10
117.671025903742
 20
-133.5077853398869
 30
0.0
 10
117.6637912032229
 20
-133.5077853398869
 30
0.0
 10
117.6544894454128
 20
-133.5036512253046
 30
0.0
 10
117.6489772926363
 20
-133.4803968307792
 30
0.0
 10
117.6489772926363
 20
-133.4803968307792
 30
0.0
 10
117.6024685035855
 20
-133.2878159931537
 30
0.0
 10
117.6024685035855
 20
-133.2878159931537
 30
0.0
 10
117.7302815460882
 20
-133.2413072041028
 30
0.0
 10
117.7878146406919
 20
-133.2180528095774
 30
0.0
 10
117.8360459774854
 20
-133.1968654723431
 30
0.0
 10
117.8360459774854
 20
-133.1968654723431
 30
0.0
 10
117.8360459774854
 20
-132.7843152879844
 30
0.0
 10
117.8360459774854
 20
-132.7843152879844
 30
0.0
 10
117.8360459774854
 20
-132.7843152879844
 30
0.0
 10
117.7895371884345
 20
-132.7843152879844
 30
0.0
 10
117.7895371884345
 20
-132.7843152879844
 30
0.0
 10
117.7895371884345
 20
-132.7843152879844
 30
0.0
 10
117.7209797882781
 20
-132.7843152879844
 30
0.0
 10
117.7209797882781
 20
-132.7843152879844
 30
0.0
 10
117.6617241459318
 20
-132.7843152879844
 30
0.0
 10
117.6544894454128
 20
-132.7843152879844
 30
0.0
 10
117.623139076497
 20
-132.7906887146321
 30
0.0
 10
117.623139076497
 20
-132.7906887146321
 30
0.0
 10
117.623139076497
 20
-132.5960408197155
 30
0.0
 10
117.623139076497
 20
-132.5960408197155
 30
0.0
 10
117.6469102353452
 20
-132.6024142463632
 30
0.0
 10
117.6544894454128
 20
-132.6024142463632
 30
0.0
 10
117.7154676355017
 20
-132.6024142463632
 30
0.0
 10
117.7154676355017
 20
-132.6024142463632
 30
0.0
 10
117.8322563724516
 20
-132.6024142463632
 30
0.0
 10
117.8322563724516
 20
-132.6024142463632
 30
0.0
 10
117.8322563724516
 20
-132.5326510627869
 30
0.0
 10
117.8322563724516
 20
-132.4501410259152
 30
0.0
 10
117.830533824709
 20
-132.4458346565587
 30
0.0
 10
117.8229546146415
 20
-132.2660006722286
 30
0.0
 10
117.8229546146415
 20
-132.2470526470598
 30
0.0
 10
117.8212320668988
 20
-132.2005438580089
 30
0.0
 10
117.8212320668988
 20
-132.2005438580089
 30
0.0
 10
118.0100232994905
 20
-132.2089843419477
 30
0.0
 10
118.0100232994905
 20
-132.2089843419477
 30
0.0
 10
118.0193250573007
 20
-132.2089843419477
 30
0.0
 10
118.0379285729211
 20
-132.2110513992389
 30
0.0
 10
118.0379285729211
 20
-132.2279323671166
 30
0.0
 10
118.0379285729211
 20
-132.2470526470598
 30
0.0
 10
118.0248372100771
 20
-132.2575601882898
 30
0.0
 10
118.002444089423
 20
-132.2766804682329
 30
0.0
 10
118.002444089423
 20
-132.3273233718661
 30
0.0
 10
117.9969319366466
 20
-132.5559054573124
 30
0.0
 10
117.9989989939377
 20
-132.6024142463632
 30
0.0
 10
118.1116536163054
 20
-132.6024142463632
 30
0.0
 10
118.1230224314067
 20
-132.6024142463632
 30
0.0
 10
118.2081162898924
 20
-132.5939737624244
 30
0.0
 10
118.2081162898924
 20
-132.5939737624244
 30
0.0
 10
118.2081162898924
 20
-132.788621657341
 30
0.0
 10
118.2081162898924
 20
-132.788621657341
 30
0.0
 10
118.1746988636855
 20
-132.7863823452756
 30
0.0
 10
118.1154432213392
 20
-132.7822482306933
 30
0.0
 10
117.9969319366466
 20
-132.7843152879844
 30
0.0
 10
117.9969319366466
 20
-132.7843152879844
 30
0.0
 10
117.9969319366466
 20
-133.1227959194102
 30
0.0
 10
117.9969319366466
 20
-133.1227959194102
 30
0.0
 10
118.0451632734401
 20
-133.0995415248848
 30
0.0
 10
118.1026963680438
 20
-133.0719807610028
 30
0.0
 10
118.1450710425123
 20
-133.0487263664774
 30
0.0
 10
118.1450710425123
 20
-133.0487263664774
 30
0.0
 10
118.1450710425123
 20
-132.8711316942128
 30
0.0
 10
118.1450710425123
 20
-132.8711316942128
 30
0.0
 10
118.2453233211331
 20
-132.8837062927339
 30
0.0
 10
118.3486761856906
 20
-132.8837062927339
 30
0.0
 10
118.450651012054
 20
-132.8837062927339
 30
0.0
 10
118.430324948691
 20
-132.788621657341
 30
0.0
 10
118.4062092802943
 20
-132.7061116204693
 30
0.0
 10
118.3507432429817
 20
-132.5727864251901
 30
0.0
 10
118.3118136639984
 20
-132.5748534824813
 30
0.0
 10
118.2394666588082
 20
-132.5791598518378
 30
0.0
 10
118.2063937421498
 20
-132.581226909129
 30
0.0
 10
118.2063937421498
 20
-132.581226909129
 30
0.0
 10
118.2063937421498
 20
-132.4013929247989
 30
0.0
 10
118.2063937421498
 20
-132.4013929247989
 30
0.0
 10
118.3156032690322
 20
-132.4098334087378
 30
0.0
 10
118.4671874703832
 20
-132.4141397780943
 30
0.0
 10
118.5395344755734
 20
-132.4141397780943
 30
0.0
 10
118.5395344755734
 20
-132.4141397780943
 30
0.0
 10
118.6118814807637
 20
-132.4141397780943
 30
0.0
 10
118.6118814807637
 20
-132.4141397780943
 30
0.0
 10
118.6118814807637
 20
-132.251186761642
 30
0.0
 10
118.6118814807637
 20
-132.240679220412
 30
0.0
 10
118.6098144234725
 20
-132.1857299474223
 30
0.0
 10
118.6098144234725
 20
-132.1857299474223
 30
0.0
 10
118.8061848661318
 20
-132.2110513992389
 30
0.0
 10
118.8061848661318
 20
-132.2110513992389
 30
0.0
 10
118.8099744711655
 20
-132.2110513992389
 30
0.0
 10
118.8285779867859
 20
-132.21311845653
 30
0.0
 10
118.8285779867859
 20
-132.2299994244078
 30
0.0
 10
118.8285779867859
 20
-132.2448133349943
 30
0.0
 10
118.8192762289757
 20
-132.2534260737075
 30
0.0
 10
118.795160560579
 20
-132.268239984294
 30
0.0
 10
118.7896484078026
 20
-132.3336967985138
 30
0.0
 10
118.7875813505114
 20
-132.354884135748
 30
0.0
 10
118.7875813505114
 20
-132.4141397780943
 30
0.0
 10
118.7875813505114
 20
-132.4141397780943
 30
0.0
 10
118.8709526612545
 20
-132.4141397780943
 30
0.0
 10
118.8709526612545
 20
-132.4141397780943
 30
0.0
 10
118.9432996664447
 20
-132.4141397780943
 30
0.0
 10
119.0952283773442
 20
-132.4098334087378
 30
0.0
 10
119.2044379042267
 20
-132.4013929247989
 30
0.0
 10
119.2044379042267
 20
-132.4013929247989
 30
0.0
 10
119.2044379042267
 20
-132.581226909129
 30
0.0
 10
119.2044379042267
 20
-132.581226909129
 30
0.0
 10
119.1782551785387
 20
-132.5791598518378
 30
0.0
 10
119.0749023139813
 20
-132.5748534824813
 30
0.0
 10
119.0394178304832
 20
-132.5727864251901
 30
0.0
 10
119.0266709771877
 20
-132.6236015835976
 30
0.0
 10
118.9970431560146
 20
-132.7357394416424
 30
0.0
 10
118.9395100614109
 20
-132.8752658087951
 30
0.0
 10
118.9767170926516
 20
-132.8752658087951
 30
0.0
 10
119.2192518148132
 20
-132.8563177836262
 30
0.0
 10
119.2729953043831
 20
-132.8540784715608
 30
0.0
 10
119.2729953043831
 20
-132.8540784715608
 30
0.0
 10
119.2729953043831
 20
-133.0382188252474
 30
0.0
 10
119.2729953043831
 20
-133.0382188252474
 30
0.0
 10
119.2468125786952
 20
-133.0382188252474
 30
0.0
 10
119.2319986681086
 20
-133.0339124558908
 30
0.0
 10
119.0893717150193
 20
-133.0339124558908
 30
0.0
  0
HATCH
  5
DE
330
D7
100
AcDbEntity
  8
レイヤー 1
 62
   250
420
  2299925
440
 33554687
100
AcDbHatch
 10
0.0
 20
0.0
 30
0.0
210
0.0
220
0.0
230
1.0
  2
SOLID
 70
     1
 71
     1
 91
        3
 92
        1
 93
        1
 72
     4
 94
        3
 73
     0
 74
     0
 95
       17
 96
       13
 40
0.0
 40
0.0
 40
0.0
 40
0.0
 40
1.0
 40
1.0
 40
1.0
 40
2.0
 40
2.0
 40
2.0
 40
3.0
 40
3.0
 40
3.0
 40
4.0
 40
4.0
 40
4.0
 40
4.0
 10
118.595000512886
 20
-133.4190741311418
 10
118.5801866022994
 20
-133.4485296975406
 10
118.5357448705397
 20
-133.5417195304166
 10
118.5264431127295
 20
-133.5606675555855
 10
118.6931857342156
 20
-133.6199231979318
 10
118.7117892498359
 20
-133.6262966245795
 10
118.774834497216
 20
-133.6538573884615
 10
118.822721324461
 20
-133.5670409822332
 10
118.8433918973725
 20
-133.4929714293004
 10
118.8561387506679
 20
-133.4190741311418
 10
118.8561387506679
 20
-133.4190741311418
 10
118.595000512886
 20
-133.4190741311418
 10
118.595000512886
 20
-133.4190741311418
 97
        0
 97
        1
330
DB
 92
        1
 93
        1
 72
     4
 94
        3
 73
     0
 74
     0
 95
       20
 96
       16
 40
0.0
 40
0.0
 40
0.0
 40
0.0
 40
1.0
 40
1.0
 40
1.0
 40
2.0
 40
2.0
 40
2.0
 40
3.0
 40
3.0
 40
3.0
 40
4.0
 40
4.0
 40
4.0
 40
5.0
 40
5.0
 40
5.0
 40
5.0
 10
118.5395344755734
 20
-132.5686523106078
 10
118.5395344755734
 20
-132.5686523106078
 10
118.5119737116914
 20
-132.5686523106078
 10
118.5119737116914
 20
-132.5686523106078
 10
118.5526258384174
 20
-132.6680433153573
 10
118.5801866022994
 20
-132.7483140401636
 10
118.6098144234725
 20
-132.8752658087951
 10
118.6098144234725
 20
-132.8752658087951
 10
118.7913709555452
 20
-132.8752658087951
 10
118.7913709555452
 20
-132.8752658087951
 10
118.8192762289757
 20
-132.7822482306933
 10
118.8396022923387
 20
-132.6976711365304
 10
118.8599283557017
 20
-132.5686523106078
 10
118.8599283557017
 20
-132.5686523106078
 10
118.5395344755734
 20
-132.5686523106078
 10
118.5395344755734
 20
-132.5686523106078
 97
        0
 97
        1
330
DC
 92
        1
 93
        1
 72
     4
 94
        3
 73
     0
 74
     0
 95
      242
 96
      238
 40
0.0
 40
0.0
 40
0.0
 40
0.0
 40
1.0
 40
1.0
 40
1.0
 40
2.0
 40
2.0
 40
2.0
 40
3.0
 40
3.0
 40
3.0
 40
4.0
 40
4.0
 40
4.0
 40
5.0
 40
5.0
 40
5.0
 40
6.0
 40
6.0
 40
6.0
 40
7.0
 40
7.0
 40
7.0
 40
8.0
 40
8.0
 40
8.0
 40
9.0
 40
9.0
 40
9.0
 40
10.0
 40
10.0
 40
10.0
 40
11.0
 40
11.0
 40
11.0
 40
12.0
 40
12.0
 40
12.0
 40
13.0
 40
13.0
 40
13.0
 40
14.0
 40
14.0
 40
14.0
 40
15.0
 40
15.0
 40
15.0
 40
16.0
 40
16.0
 40
16.0
 40
17.0
 40
17.0
 40
17.0
 40
18.0
 40
18.0
 40
18.0
 40
19.0
 40
19.0
 40
19.0
 40
20.0
 40
20.0
 40
20.0
 40
21.0
 40
21.0
 40
21.0
 40
22.0
 40
22.0
 40
22.0
 40
23.0
 40
23.0
 40
23.0
 40
24.0
 40
24.0
 40
24.0
 40
25.0
 40
25.0
 40
25.0
 40
26.0
 40
26.0
 40
26.0
 40
27.0
 40
27.0
 40
27.0
 40
28.0
 40
28.0
 40
28.0
 40
29.0
 40
29.0
 40
29.0
 40
30.0
 40
30.0
 40
30.0
 40
31.0
 40
31.0
 40
31.0
 40
32.0
 40
32.0
 40
32.0
 40
33.0
 40
33.0
 40
33.0
 40
34.0
 40
34.0
 40
34.0
 40
35.0
 40
35.0
 40
35.0
 40
36.0
 40
36.0
 40
36.0
 40
37.0
 40
37.0
 40
37.0
 40
38.0
 40
38.0
 40
38.0
 40
39.0
 40
39.0
 40
39.0
 40
40.0
 40
40.0
 40
40.0
 40
41.0
 40
41.0
 40
41.0
 40
42.0
 40
42.0
 40
42.0
 40
43.0
 40
43.0
 40
43.0
 40
44.0
 40
44.0
 40
44.0
 40
45.0
 40
45.0
 40
45.0
 40
46.0
 40
46.0
 40
46.0
 40
47.0
 40
47.0
 40
47.0
 40
48.0
 40
48.0
 40
48.0
 40
49.0
 40
49.0
 40
49.0
 40
50.0
 40
50.0
 40
50.0
 40
51.0
 40
51.0
 40
51.0
 40
52.0
 40
52.0
 40
52.0
 40
53.0
 40
53.0
 40
53.0
 40
54.0
 40
54.0
 40
54.0
 40
55.0
 40
55.0
 40
55.0
 40
56.0
 40
56.0
 40
56.0
 40
57.0
 40
57.0
 40
57.0
 40
58.0
 40
58.0
 40
58.0
 40
59.0
 40
59.0
 40
59.0
 40
60.0
 40
60.0
 40
60.0
 40
61.0
 40
61.0
 40
61.0
 40
62.0
 40
62.0
 40
62.0
 40
63.0
 40
63.0
 40
63.0
 40
64.0
 40
64.0
 40
64.0
 40
65.0
 40
65.0
 40
65.0
 40
66.0
 40
66.0
 40
66.0
 40
67.0
 40
67.0
 40
67.0
 40
68.0
 40
68.0
 40
68.0
 40
69.0
 40
69.0
 40
69.0
 40
70.0
 40
70.0
 40
70.0
 40
71.0
 40
71.0
 40
71.0
 40
72.0
 40
72.0
 40
72.0
 40
73.0
 40
73.0
 40
73.0
 40
74.0
 40
74.0
 40
74.0
 40
75.0
 40
75.0
 40
75.0
 40
76.0
 40
76.0
 40
76.0
 40
77.0
 40
77.0
 40
77.0
 40
78.0
 40
78.0
 40
78.0
 40
79.0
 40
79.0
 40
79.0
 40
79.0
 10
119.0893717150193
 20
-133.0339124558908
 10
119.0893717150193
 20
-133.0339124558908
 10
118.8675075657692
 20
-133.0339124558908
 10
118.8675075657692
 20
-133.0339124558908
 10
118.8675075657692
 20
-133.0339124558908
 10
118.6246283340591
 20
-133.0339124558908
 10
118.6246283340591
 20
-133.0339124558908
 10
118.6246283340591
 20
-133.0339124558908
 10
118.7359049182327
 20
-133.0762871303594
 10
118.7359049182327
 20
-133.0762871303594
 10
118.7452066760428
 20
-133.0805934997159
 10
118.7562309815956
 20
-133.0867946715894
 10
118.7562309815956
 20
-133.0995415248848
 10
118.7562309815956
 20
-133.1207288621191
 10
118.7283257081651
 20
-133.1271022887668
 10
118.7100667020933
 20
-133.1312364033491
 10
118.7007649442831
 20
-133.1544907978746
 10
118.6745822185952
 20
-133.2201198668686
 10
118.658045760266
 20
-133.2645615986283
 10
118.658045760266
 20
-133.2645615986283
 10
118.8950683296512
 20
-133.2645615986283
 10
118.8950683296512
 20
-133.2645615986283
 10
118.9746500353605
 20
-133.2645615986283
 10
119.146904809623
 20
-133.2602552292717
 10
119.270928247092
 20
-133.2518147453329
 10
119.270928247092
 20
-133.2518147453329
 10
119.270928247092
 20
-133.4295816723717
 10
119.270928247092
 20
-133.4295816723717
 10
119.1989257514503
 20
-133.4252753030152
 10
119.1803222358299
 20
-133.4252753030152
 10
119.022881372154
 20
-133.4211411884329
 10
118.9949760987235
 20
-133.5754814661721
 10
118.9563910292886
 20
-133.6559244457527
 10
118.9174614503053
 20
-133.725687629329
 10
119.022881372154
 20
-133.7849432716753
 10
119.1155544407072
 20
-133.8526393979604
 10
119.2061604519693
 20
-133.9351494348322
 10
119.2061604519693
 20
-133.9351494348322
 10
119.1024630778632
 20
-134.1022365658668
 10
119.1024630778632
 20
-134.1022365658668
 10
119.0821370145003
 20
-134.0832885406979
 10
119.0711127089475
 20
-134.074848056759
 10
118.9729274876178
 20
-133.9900987078219
 10
118.9302083036008
 20
-133.9520304027099
 10
118.878531871322
 20
-133.9162014096633
 10
118.8082519234229
 20
-133.8717596779036
 10
118.6229057863165
 20
-134.0579670888813
 10
118.443416311535
 20
-134.0812214834067
 10
118.189512774272
 20
-134.1108493045799
 10
118.189512774272
 20
-134.1108493045799
 10
118.09890676301
 20
-133.9310153202499
 10
118.09890676301
 20
-133.9310153202499
 10
118.3765814591211
 20
-133.9267089508933
 10
118.5302327177633
 20
-133.9013874990767
 10
118.6635579130424
 20
-133.791316698323
 10
118.5598605389364
 20
-133.7405015399156
 10
118.4823458905183
 20
-133.7131130308078
 10
118.450651012054
 20
-133.7003661775124
 10
118.4341145537248
 20
-133.7279269413944
 10
118.4210231908808
 20
-133.7468749665633
 10
118.3969075224841
 20
-133.780809157093
 10
118.3969075224841
 20
-133.780809157093
 10
118.2246527482216
 20
-133.6982991202212
 10
118.2246527482216
 20
-133.6982991202212
 10
118.2969997534119
 20
-133.6178561406407
 10
118.3507432429817
 20
-133.5225992504735
 10
118.4006971275179
 20
-133.4211411884329
 10
118.2339545060318
 20
-133.4252753030152
 10
118.2156954999599
 20
-133.4252753030152
 10
118.1433484947697
 20
-133.4295816723717
 10
118.1433484947697
 20
-133.4295816723717
 10
118.1433484947697
 20
-133.2518147453329
 10
118.1433484947697
 20
-133.2518147453329
 10
118.2656493844961
 20
-133.2581881719806
 10
118.4489284643114
 20
-133.2624945413371
 10
118.470977075417
 20
-133.2624945413371
 10
118.4857909860035
 20
-133.2285603508074
 10
118.534022322797
 20
-133.1079820088237
 10
118.5505587811262
 20
-133.0339124558908
 10
118.534022322797
 20
-133.0339124558908
 10
118.3783040068637
 20
-133.0402858825385
 10
118.2081162898924
 20
-133.0530327358339
 10
118.2081162898924
 20
-133.0530327358339
 10
118.2081162898924
 20
-133.1863579311131
 10
118.2081162898924
 20
-133.1863579311131
 10
118.1653971058753
 20
-133.2116793829297
 10
118.1137206735965
 20
-133.243374261394
 10
117.9969319366466
 20
-133.309003330388
 10
117.9969319366466
 20
-133.309003330388
 10
117.9969319366466
 20
-133.4549031241883
 10
117.9969319366466
 20
-133.4549031241883
 10
117.9969319366466
 20
-133.4549031241883
 10
117.9969319366466
 20
-133.922574836311
 10
117.9969319366466
 20
-133.922574836311
 10
117.9969319366466
 20
-134.0493543501682
 10
117.9655815677308
 20
-134.1086099925145
 10
117.7175346927928
 20
-134.1001695085756
 10
117.7175346927928
 20
-134.1001695085756
 10
117.6265841719822
 20
-133.8929470151378
 10
117.6265841719822
 20
-133.8929470151378
 10
117.6823947188433
 20
-133.905521613659
 10
117.7247693933118
 20
-133.9098279830156
 10
117.7599093672614
 20
-133.9098279830156
 10
117.8267442196752
 20
-133.9098279830156
 10
117.8360459774854
 20
-133.8865735884901
 10
117.8360459774854
 20
-133.8209445194961
 10
117.8360459774854
 20
-133.8209445194961
 10
117.8360459774854
 20
-133.3915133672597
 10
117.8360459774854
 20
-133.3915133672597
 10
117.7506076094512
 20
-133.4316487296629
 10
117.7357936988646
 20
-133.4380221563106
 10
117.6951415721387
 20
-133.4571424362537
 10
117.6913519671049
 20
-133.4781575187138
 10
117.6879068716197
 20
-133.5077853398869
 10
117.671025903742
 20
-133.5077853398869
 10
117.6637912032229
 20
-133.5077853398869
 10
117.6544894454128
 20
-133.5036512253046
 10
117.6489772926363
 20
-133.4803968307792
 10
117.6489772926363
 20
-133.4803968307792
 10
117.6024685035855
 20
-133.2878159931537
 10
117.6024685035855
 20
-133.2878159931537
 10
117.7302815460882
 20
-133.2413072041028
 10
117.7878146406919
 20
-133.2180528095774
 10
117.8360459774854
 20
-133.1968654723431
 10
117.8360459774854
 20
-133.1968654723431
 10
117.8360459774854
 20
-132.7843152879844
 10
117.8360459774854
 20
-132.7843152879844
 10
117.8360459774854
 20
-132.7843152879844
 10
117.7895371884345
 20
-132.7843152879844
 10
117.7895371884345
 20
-132.7843152879844
 10
117.7895371884345
 20
-132.7843152879844
 10
117.7209797882781
 20
-132.7843152879844
 10
117.7209797882781
 20
-132.7843152879844
 10
117.6617241459318
 20
-132.7843152879844
 10
117.6544894454128
 20
-132.7843152879844
 10
117.623139076497
 20
-132.7906887146321
 10
117.623139076497
 20
-132.7906887146321
 10
117.623139076497
 20
-132.5960408197155
 10
117.623139076497
 20
-132.5960408197155
 10
117.6469102353452
 20
-132.6024142463632
 10
117.6544894454128
 20
-132.6024142463632
 10
117.7154676355017
 20
-132.6024142463632
 10
117.7154676355017
 20
-132.6024142463632
 10
117.8322563724516
 20
-132.6024142463632
 10
117.8322563724516
 20
-132.6024142463632
 10
117.8322563724516
 20
-132.5326510627869
 10
117.8322563724516
 20
-132.4501410259152
 10
117.830533824709
 20
-132.4458346565587
 10
117.8229546146415
 20
-132.2660006722286
 10
117.8229546146415
 20
-132.2470526470598
 10
117.8212320668988
 20
-132.2005438580089
 10
117.8212320668988
 20
-132.2005438580089
 10
118.0100232994905
 20
-132.2089843419477
 10
118.0100232994905
 20
-132.2089843419477
 10
118.0193250573007
 20
-132.2089843419477
 10
118.0379285729211
 20
-132.2110513992389
 10
118.0379285729211
 20
-132.2279323671166
 10
118.0379285729211
 20
-132.2470526470598
 10
118.0248372100771
 20
-132.2575601882898
 10
118.002444089423
 20
-132.2766804682329
 10
118.002444089423
 20
-132.3273233718661
 10
117.9969319366466
 20
-132.5559054573124
 10
117.9989989939377
 20
-132.6024142463632
 10
118.1116536163054
 20
-132.6024142463632
 10
118.1230224314067
 20
-132.6024142463632
 10
118.2081162898924
 20
-132.5939737624244
 10
118.2081162898924
 20
-132.5939737624244
 10
118.2081162898924
 20
-132.788621657341
 10
118.2081162898924
 20
-132.788621657341
 10
118.1746988636855
 20
-132.7863823452756
 10
118.1154432213392
 20
-132.7822482306933
 10
117.9969319366466
 20
-132.7843152879844
 10
117.9969319366466
 20
-132.7843152879844
 10
117.9969319366466
 20
-133.1227959194102
 10
117.9969319366466
 20
-133.1227959194102
 10
118.0451632734401
 20
-133.0995415248848
 10
118.1026963680438
 20
-133.0719807610028
 10
118.1450710425123
 20
-133.0487263664774
 10
118.1450710425123
 20
-133.0487263664774
 10
118.1450710425123
 20
-132.8711316942128
 10
118.1450710425123
 20
-132.8711316942128
 10
118.2453233211331
 20
-132.8837062927339
 10
118.3486761856906
 20
-132.8837062927339
 10
118.450651012054
 20
-132.8837062927339
 10
118.430324948691
 20
-132.788621657341
 10
118.4062092802943
 20
-132.7061116204693
 10
118.3507432429817
 20
-132.5727864251901
 10
118.3118136639984
 20
-132.5748534824813
 10
118.2394666588082
 20
-132.5791598518378
 10
118.2063937421498
 20
-132.581226909129
 10
118.2063937421498
 20
-132.581226909129
 10
118.2063937421498
 20
-132.4013929247989
 10
118.2063937421498
 20
-132.4013929247989
 10
118.3156032690322
 20
-132.4098334087378
 10
118.4671874703832
 20
-132.4141397780943
 10
118.5395344755734
 20
-132.4141397780943
 10
118.5395344755734
 20
-132.4141397780943
 10
118.6118814807637
 20
-132.4141397780943
 10
118.6118814807637
 20
-132.4141397780943
 10
118.6118814807637
 20
-132.251186761642
 10
118.6118814807637
 20
-132.240679220412
 10
118.6098144234725
 20
-132.1857299474223
 10
118.6098144234725
 20
-132.1857299474223
 10
118.8061848661318
 20
-132.2110513992389
 10
118.8061848661318
 20
-132.2110513992389
 10
118.8099744711655
 20
-132.2110513992389
 10
118.8285779867859
 20
-132.21311845653
 10
118.8285779867859
 20
-132.2299994244078
 10
118.8285779867859
 20
-132.2448133349943
 10
118.8192762289757
 20
-132.2534260737075
 10
118.795160560579
 20
-132.268239984294
 10
118.7896484078026
 20
-132.3336967985138
 10
118.7875813505114
 20
-132.354884135748
 10
118.7875813505114
 20
-132.4141397780943
 10
118.7875813505114
 20
-132.4141397780943
 10
118.8709526612545
 20
-132.4141397780943
 10
118.8709526612545
 20
-132.4141397780943
 10
118.9432996664447
 20
-132.4141397780943
 10
119.0952283773442
 20
-132.4098334087378
 10
119.2044379042267
 20
-132.4013929247989
 10
119.2044379042267
 20
-132.4013929247989
 10
119.2044379042267
 20
-132.581226909129
 10
119.2044379042267
 20
-132.581226909129
 10
119.1782551785387
 20
-132.5791598518378
 10
119.0749023139813
 20
-132.5748534824813
 10
119.0394178304832
 20
-132.5727864251901
 10
119.0266709771877
 20
-132.6236015835976
 10
118.9970431560146
 20
-132.7357394416424
 10
118.9395100614109
 20
-132.8752658087951
 10
118.9767170926516
 20
-132.8752658087951
 10
119.2192518148132
 20
-132.8563177836262
 10
119.2729953043831
 20
-132.8540784715608
 10
119.2729953043831
 20
-132.8540784715608
 10
119.2729953043831
 20
-133.0382188252474
 10
119.2729953043831
 20
-133.0382188252474
 10
119.2468125786952
 20
-133.0382188252474
 10
119.2319986681086
 20
-133.0339124558908
 10
119.0893717150193
 20
-133.0339124558908
 97
        0
 97
        1
330
DD
 75
     2
 76
     1
 98
        1
 10
0.0
 20
0.0
450
        0
451
        0
460
0.0
461
0.0
452
        0
462
0.0
453
        0
470

  0
SPLINE
  5
DF
330
D7
100
AcDbEntity
  8
レイヤー 1
100
AcDbSpline
210
0.0
220
0.0
230
1.0
 70
    11
 71
     3
 72
    17
 73
    13
 74
     0
 42
0.0000000001
 43
0.0000000001
 40
0.0
 40
0.0
 40
0.0
 40
0.0
 40
1.0
 40
1.0
 40
1.0
 40
2.0
 40
2.0
 40
2.0
 40
3.0
 40
3.0
 40
3.0
 40
4.0
 40
4.0
 40
4.0
 40
4.0
 10
120.7158012936057
 20
-133.8336913727915
 30
0.0
 10
120.7158012936057
 20
-133.8336913727915
 30
0.0
 10
120.0974066540034
 20
-133.8336913727915
 30
0.0
 10
120.0974066540034
 20
-133.8336913727915
 30
0.0
 10
120.0974066540034
 20
-133.8336913727915
 30
0.0
 10
120.0974066540034
 20
-133.9478962881276
 30
0.0
 10
120.0974066540034
 20
-133.9478962881276
 30
0.0
 10
120.0974066540034
 20
-133.9478962881276
 30
0.0
 10
120.7158012936057
 20
-133.9478962881276
 30
0.0
 10
120.7158012936057
 20
-133.9478962881276
 30
0.0
 10
120.7158012936057
 20
-133.9478962881276
 30
0.0
 10
120.7158012936057
 20
-133.8336913727915
 30
0.0
 10
120.7158012936057
 20
-133.8336913727915
 30
0.0
  0
SPLINE
  5
E0
330
D7
100
AcDbEntity
  8
レイヤー 1
100
AcDbSpline
210
0.0
220
0.0
230
1.0
 70
    11
 71
     3
 72
    17
 73
    13
 74
     0
 42
0.0000000001
 43
0.0000000001
 40
0.0
 40
0.0
 40
0.0
 40
0.0
 40
1.0
 40
1.0
 40
1.0
 40
2.0
 40
2.0
 40
2.0
 40
3.0
 40
3.0
 40
3.0
 40
4.0
 40
4.0
 40
4.0
 40
4.0
 10
120.7158012936057
 20
-133.5902953767587
 30
0.0
 10
120.7158012936057
 20
-133.5902953767587
 30
0.0
 10
120.0974066540034
 20
-133.5902953767587
 30
0.0
 10
120.0974066540034
 20
-133.5902953767587
 30
0.0
 10
120.0974066540034
 20
-133.5902953767587
 30
0.0
 10
120.0974066540034
 20
-133.7046725468689
 30
0.0
 10
120.0974066540034
 20
-133.7046725468689
 30
0.0
 10
120.0974066540034
 20
-133.7046725468689
 30
0.0
 10
120.7158012936057
 20
-133.7046725468689
 30
0.0
 10
120.7158012936057
 20
-133.7046725468689
 30
0.0
 10
120.7158012936057
 20
-133.7046725468689
 30
0.0
 10
120.7158012936057
 20
-133.5902953767587
 30
0.0
 10
120.7158012936057
 20
-133.5902953767587
 30
0.0
  0
SPLINE
  5
E1
330
D7
100
AcDbEntity
  8
レイヤー 1
100
AcDbSpline
210
0.0
220
0.0
230
1.0
 70
    11
 71
     3
 72
    17
 73
    13
 74
     0
 42
0.0000000001
 43
0.0000000001
 40
0.0
 40
0.0
 40
0.0
 40
0.0
 40
1.0
 40
1.0
 40
1.0
 40
2.0
 40
2.0
 40
2.0
 40
3.0
 40
3.0
 40
3.0
 40
4.0
 40
4.0
 40
4.0
 40
4.0
 10
120.7158012936057
 20
-133.35757917673
 30
0.0
 10
120.7158012936057
 20
-133.35757917673
 30
0.0
 10
120.0974066540034
 20
-133.35757917673
 30
0.0
 10
120.0974066540034
 20
-133.35757917673
 30
0.0
 10
120.0974066540034
 20
-133.35757917673
 30
0.0
 10
120.0974066540034
 20
-133.4655829201926
 30
0.0
 10
120.0974066540034
 20
-133.4655829201926
 30
0.0
 10
120.0974066540034
 20
-133.4655829201926
 30
0.0
 10
120.7158012936057
 20
-133.4655829201926
 30
0.0
 10
120.7158012936057
 20
-133.4655829201926
 30
0.0
 10
120.7158012936057
 20
-133.4655829201926
 30
0.0
 10
120.7158012936057
 20
-133.35757917673
 30
0.0
 10
120.7158012936057
 20
-133.35757917673
 30
0.0
  0
SPLINE
  5
E2
330
D7
100
AcDbEntity
  8
レイヤー 1
100
AcDbSpline
210
0.0
220
0.0
230
1.0
 70
     9
 71
     3
 72
   203
 73
   199
 74
     0
 42
0.0000000001
 43
0.0000000001
 40
0.0
 40
0.0
 40
0.0
 40
0.0
 40
1.0
 40
1.0
 40
1.0
 40
2.0
 40
2.0
 40
2.0
 40
3.0
 40
3.0
 40
3.0
 40
4.0
 40
4.0
 40
4.0
 40
5.0
 40
5.0
 40
5.0
 40
6.0
 40
6.0
 40
6.0
 40
7.0
 40
7.0
 40
7.0
 40
8.0
 40
8.0
 40
8.0
 40
9.0
 40
9.0
 40
9.0
 40
10.0
 40
10.0
 40
10.0
 40
11.0
 40
11.0
 40
11.0
 40
12.0
 40
12.0
 40
12.0
 40
13.0
 40
13.0
 40
13.0
 40
14.0
 40
14.0
 40
14.0
 40
15.0
 40
15.0
 40
15.0
 40
16.0
 40
16.0
 40
16.0
 40
17.0
 40
17.0
 40
17.0
 40
18.0
 40
18.0
 40
18.0
 40
19.0
 40
19.0
 40
19.0
 40
20.0
 40
20.0
 40
20.0
 40
21.0
 40
21.0
 40
21.0
 40
22.0
 40
22.0
 40
22.0
 40
23.0
 40
23.0
 40
23.0
 40
24.0
 40
24.0
 40
24.0
 40
25.0
 40
25.0
 40
25.0
 40
26.0
 40
26.0
 40
26.0
 40
27.0
 40
27.0
 40
27.0
 40
28.0
 40
28.0
 40
28.0
 40
29.0
 40
29.0
 40
29.0
 40
30.0
 40
30.0
 40
30.0
 40
31.0
 40
31.0
 40
31.0
 40
32.0
 40
32.0
 40
32.0
 40
33.0
 40
33.0
 40
33.0
 40
34.0
 40
34.0
 40
34.0
 40
35.0
 40
35.0
 40
35.0
 40
36.0
 40
36.0
 40
36.0
 40
37.0
 40
37.0
 40
37.0
 40
38.0
 40
38.0
 40
38.0
 40
39.0
 40
39.0
 40
39.0
 40
40.0
 40
40.0
 40
40.0
 40
41.0
 40
41.0
 40
41.0
 40
42.0
 40
42.0
 40
42.0
 40
43.0
 40
43.0
 40
43.0
 40
44.0
 40
44.0
 40
44.0
 40
45.0
 40
45.0
 40
45.0
 40
46.0
 40
46.0
 40
46.0
 40
47.0
 40
47.0
 40
47.0
 40
48.0
 40
48.0
 40
48.0
 40
49.0
 40
49.0
 40
49.0
 40
50.0
 40
50.0
 40
50.0
 40
51.0
 40
51.0
 40
51.0
 40
52.0
 40
52.0
 40
52.0
 40
53.0
 40
53.0
 40
53.0
 40
54.0
 40
54.0
 40
54.0
 40
55.0
 40
55.0
 40
55.0
 40
56.0
 40
56.0
 40
56.0
 40
57.0
 40
57.0
 40
57.0
 40
58.0
 40
58.0
 40
58.0
 40
59.0
 40
59.0
 40
59.0
 40
60.0
 40
60.0
 40
60.0
 40
61.0
 40
61.0
 40
61.0
 40
62.0
 40
62.0
 40
62.0
 40
63.0
 40
63.0
 40
63.0
 40
64.0
 40
64.0
 40
64.0
 40
65.0
 40
65.0
 40
65.0
 40
66.0
 40
66.0
 40
66.0
 40
66.0
 10
120.5714517927738
 20
-133.101608582176
 30
0.0
 10
120.5714517927738
 20
-133.101608582176
 30
0.0
 10
120.0825927434168
 20
-133.101608582176
 30
0.0
 10
120.0825927434168
 20
-133.101608582176
 30
0.0
 10
120.0732909856067
 20
-133.1460503139357
 30
0.0
 10
120.0660562850876
 20
-133.1777451924
 30
0.0
 10
120.0546874699863
 20
-133.2159857522863
 30
0.0
 10
120.0770805906404
 20
-133.2159857522863
 30
0.0
 10
120.0901719534844
 20
-133.2180528095774
 30
0.0
 10
120.0956841062608
 20
-133.2180528095774
 30
0.0
 10
120.0956841062608
 20
-133.2180528095774
 30
0.0
 10
120.2603596704557
 20
-133.2180528095774
 30
0.0
 10
120.2603596704557
 20
-133.2180528095774
 30
0.0
 10
120.2603596704557
 20
-133.2180528095774
 30
0.0
 10
120.587988251103
 20
-133.2180528095774
 30
0.0
 10
120.587988251103
 20
-133.2180528095774
 30
0.0
 10
120.6327744924112
 20
-133.2180528095774
 30
0.0
 10
120.8808213673492
 20
-133.205305956282
 30
0.0
 10
120.9083821312312
 20
-133.205305956282
 30
0.0
 10
120.9066595834886
 20
-133.232866720164
 30
0.0
 10
120.904937035746
 20
-133.2518147453329
 30
0.0
 10
120.904937035746
 20
-133.281442566506
 30
0.0
 10
120.9028699784548
 20
-133.3131374449703
 30
0.0
 10
120.9028699784548
 20
-133.4485296975406
 30
0.0
 10
120.9028699784548
 20
-133.4760904614226
 30
0.0
 10
120.9028699784548
 20
-133.4760904614226
 30
0.0
 10
120.9028699784548
 20
-133.7215535147467
 30
0.0
 10
120.9028699784548
 20
-133.7215535147467
 30
0.0
 10
120.9028699784548
 20
-133.7659952465064
 30
0.0
 10
120.9066595834886
 20
-133.9627101987141
 30
0.0
 10
120.9104491885224
 20
-134.1149834191622
 30
0.0
 10
120.9104491885224
 20
-134.1149834191622
 30
0.0
 10
120.7123561981205
 20
-134.1149834191622
 30
0.0
 10
120.7123561981205
 20
-134.1149834191622
 30
0.0
 10
120.7123561981205
 20
-134.1149834191622
 30
0.0
 10
120.7140787458631
 20
-134.0812214834067
 30
0.0
 10
120.7140787458631
 20
-134.0812214834067
 30
0.0
 10
120.7140787458631
 20
-134.0812214834067
 30
0.0
 10
120.0994737112946
 20
-134.0812214834067
 30
0.0
 10
120.0994737112946
 20
-134.0812214834067
 30
0.0
 10
120.0994737112946
 20
-134.0812214834067
 30
0.0
 10
120.1011962590372
 20
-134.1149834191622
 30
0.0
 10
120.1011962590372
 20
-134.1149834191622
 30
0.0
 10
120.1011962590372
 20
-134.1149834191622
 30
0.0
 10
119.9103379691544
 20
-134.1149834191622
 30
0.0
 10
119.9103379691544
 20
-134.1149834191622
 30
0.0
 10
119.9141275741881
 20
-134.0600341461725
 30
0.0
 10
119.9141275741881
 20
-134.0472872928771
 30
0.0
 10
119.9196397269645
 20
-133.933082377541
 30
0.0
 10
119.9217067842557
 20
-133.905521613659
 30
0.0
 10
119.9234293319983
 20
-133.7723686731541
 30
0.0
 10
119.9234293319983
 20
-133.753248393211
 30
0.0
 10
119.9234293319983
 20
-133.753248393211
 30
0.0
 10
119.9234293319983
 20
-133.5501600143555
 30
0.0
 10
119.9234293319983
 20
-133.5501600143555
 30
0.0
 10
119.8011284422719
 20
-133.7997571822619
 30
0.0
 10
119.6529893364062
 20
-133.9310153202499
 30
0.0
 10
119.560316267853
 20
-133.9964721344696
 30
0.0
 10
119.560316267853
 20
-133.9964721344696
 30
0.0
 10
119.4087320665019
 20
-133.856945767317
 30
0.0
 10
119.4087320665019
 20
-133.856945767317
 30
0.0
 10
119.4862467149201
 20
-133.8061306089096
 30
0.0
 10
119.6123372096802
 20
-133.7193142026813
 30
0.0
 10
119.7325710421154
 20
-133.5248385625389
 30
0.0
 10
119.8121527478247
 20
-133.3978867939074
 30
0.0
 10
119.8696858424284
 20
-133.2540540573983
 30
0.0
 10
119.8993136636015
 20
-133.101608582176
 30
0.0
 10
119.6991536159085
 20
-133.1038478942414
 30
0.0
 10
119.5420572617811
 20
-133.1102213208891
 30
0.0
 10
119.4586859510381
 20
-133.1122883781802
 30
0.0
 10
119.4586859510381
 20
-133.1122883781802
 30
0.0
 10
119.4586859510381
 20
-132.9345214511413
 30
0.0
 10
119.4586859510381
 20
-132.9345214511413
 30
0.0
 10
119.6309407253006
 20
-132.9408948777891
 30
0.0
 10
119.8789876002386
 20
-132.9452012471456
 30
0.0
 10
120.0105902477751
 20
-132.9452012471456
 30
0.0
 10
120.0105902477751
 20
-132.9452012471456
 30
0.0
 10
120.1973144230757
 20
-132.9452012471456
 30
0.0
 10
120.1973144230757
 20
-132.9452012471456
 30
0.0
 10
120.1973144230757
 20
-132.9452012471456
 30
0.0
 10
120.1973144230757
 20
-132.837197503683
 30
0.0
 10
120.1973144230757
 20
-132.837197503683
 30
0.0
 10
120.1973144230757
 20
-132.837197503683
 30
0.0
 10
120.0698458901214
 20
-132.837197503683
 30
0.0
 10
120.0698458901214
 20
-132.837197503683
 30
0.0
 10
119.9217067842557
 20
-132.837197503683
 30
0.0
 10
119.7735676783899
 20
-132.8415038730396
 30
0.0
 10
119.6271511202668
 20
-132.8478772996873
 30
0.0
 10
119.6271511202668
 20
-132.8478772996873
 30
0.0
 10
119.6271511202668
 20
-132.6764837992961
 30
0.0
 10
119.6271511202668
 20
-132.6764837992961
 30
0.0
 10
119.7621988632886
 20
-132.6869913405261
 30
0.0
 10
119.9251518797409
 20
-132.6869913405261
 30
0.0
 10
120.0698458901214
 20
-132.6869913405261
 30
0.0
 10
120.0698458901214
 20
-132.6869913405261
 30
0.0
 10
120.1973144230757
 20
-132.6869913405261
 30
0.0
 10
120.1973144230757
 20
-132.6869913405261
 30
0.0
 10
120.1973144230757
 20
-132.6869913405261
 30
0.0
 10
120.1973144230757
 20
-132.5686523106078
 30
0.0
 10
120.1973144230757
 20
-132.5686523106078
 30
0.0
 10
120.1973144230757
 20
-132.5686523106078
 30
0.0
 10
120.0825927434168
 20
-132.5686523106078
 30
0.0
 10
120.0825927434168
 20
-132.5686523106078
 30
0.0
 10
120.0419406166909
 20
-132.5686523106078
 30
0.0
 10
119.864173689652
 20
-132.5770927945467
 30
0.0
 10
119.8269666584113
 20
-132.5770927945467
 30
0.0
 10
119.6491997313724
 20
-132.581226909129
 30
0.0
 10
119.5827093885071
 20
-132.5832939664201
 30
0.0
 10
119.5141519883506
 20
-132.5855332784855
 30
0.0
 10
119.5141519883506
 20
-132.5855332784855
 30
0.0
 10
119.5141519883506
 20
-132.4013929247989
 30
0.0
 10
119.5141519883506
 20
-132.4013929247989
 30
0.0
 10
119.6140597574228
 20
-132.4098334087378
 30
0.0
 10
119.6529893364062
 20
-132.4098334087378
 30
0.0
 10
119.988197127121
 20
-132.4184461474509
 30
0.0
 10
119.9327310898085
 20
-132.3231892572838
 30
0.0
 10
119.9086154214117
 20
-132.2956284934018
 30
0.0
 10
119.8769205429474
 20
-132.2596272455809
 30
0.0
 10
119.8769205429474
 20
-132.2596272455809
 30
0.0
 10
120.0309163111381
 20
-132.1771172087092
 30
0.0
 10
120.0309163111381
 20
-132.1771172087092
 30
0.0
 10
120.0660562850876
 20
-132.21311845653
 30
0.0
 10
120.104985864071
 20
-132.2554931309986
 30
0.0
 10
120.1697536591936
 20
-132.3653916769781
 30
0.0
 10
120.1697536591936
 20
-132.3653916769781
 30
0.0
 10
120.0698458901214
 20
-132.4205132047421
 30
0.0
 10
120.0698458901214
 20
-132.4205132047421
 30
0.0
 10
120.0698458901214
 20
-132.4205132047421
 30
0.0
 10
120.0788031383831
 20
-132.4205132047421
 30
0.0
 10
120.0788031383831
 20
-132.4205132047421
 30
0.0
 10
120.0788031383831
 20
-132.4205132047421
 30
0.0
 10
120.5363118188242
 20
-132.4205132047421
 30
0.0
 10
120.5363118188242
 20
-132.4205132047421
 30
0.0
 10
120.5363118188242
 20
-132.4205132047421
 30
0.0
 10
120.4529405080812
 20
-132.3760714729824
 30
0.0
 10
120.4529405080812
 20
-132.3760714729824
 30
0.0
 10
120.4770561764779
 20
-132.3380031678703
 30
0.0
 10
120.5270100610141
 20
-132.2575601882898
 30
0.0
 10
120.540101423858
 20
-132.1834906353569
 30
0.0
 10
120.540101423858
 20
-132.1834906353569
 30
0.0
 10
120.7271701087071
 20
-132.2470526470598
 30
0.0
 10
120.7271701087071
 20
-132.2470526470598
 30
0.0
 10
120.7344048092261
 20
-132.2491197043509
 30
0.0
 10
120.7530083248465
 20
-132.2596272455809
 30
0.0
 10
120.7530083248465
 20
-132.2808145828152
 30
0.0
 10
120.7530083248465
 20
-132.3188828879272
 30
0.0
 10
120.6954752302428
 20
-132.3188828879272
 30
0.0
 10
120.6789387719136
 20
-132.3188828879272
 30
0.0
 10
120.6696370141034
 20
-132.3380031678703
 30
0.0
 10
120.6493109507404
 20
-132.3781385302735
 30
0.0
 10
120.6234727346011
 20
-132.4184461474509
 30
0.0
 10
120.9731499263539
 20
-132.4120727208032
 30
0.0
 10
120.9993326520418
 20
-132.4098334087378
 30
0.0
 10
121.0658229949071
 20
-132.4036322368643
 30
0.0
 10
121.0658229949071
 20
-132.4036322368643
 30
0.0
 10
121.0658229949071
 20
-132.5855332784855
 30
0.0
 10
121.0658229949071
 20
-132.5855332784855
 30
0.0
 10
121.0492865365779
 20
-132.5855332784855
 30
0.0
 10
121.0268934159238
 20
-132.5832939664201
 30
0.0
 10
120.8343125782983
 20
-132.5748534824813
 30
0.0
 10
120.7898708465386
 20
-132.5727864251901
 30
0.0
 10
120.5972900089131
 20
-132.5686523106078
 30
0.0
 10
120.5583604299298
 20
-132.5686523106078
 30
0.0
 10
120.5583604299298
 20
-132.5686523106078
 30
0.0
 10
120.3695691973381
 20
-132.5686523106078
 30
0.0
 10
120.3695691973381
 20
-132.5686523106078
 30
0.0
 10
120.3695691973381
 20
-132.5686523106078
 30
0.0
 10
120.3695691973381
 20
-132.6869913405261
 30
0.0
 10
120.3695691973381
 20
-132.6869913405261
 30
0.0
 10
120.3695691973381
 20
-132.6869913405261
 30
0.0
 10
120.5214979082377
 20
-132.6869913405261
 30
0.0
 10
120.5214979082377
 20
-132.6869913405261
 30
0.0
 10
120.664124861327
 20
-132.6869913405261
 30
0.0
 10
120.8308674828131
 20
-132.6869913405261
 30
0.0
 10
120.9676377735775
 20
-132.6764837992961
 30
0.0
 10
120.9676377735775
 20
-132.6764837992961
 30
0.0
 10
120.9676377735775
 20
-132.8478772996873
 30
0.0
 10
120.9676377735775
 20
-132.8478772996873
 30
0.0
 10
120.7843586937622
 20
-132.8394368157485
 30
0.0
 10
120.6121039194997
 20
-132.837197503683
 30
0.0
 10
120.5214979082377
 20
-132.837197503683
 30
0.0
 10
120.5214979082377
 20
-132.837197503683
 30
0.0
 10
120.3695691973381
 20
-132.837197503683
 30
0.0
 10
120.3695691973381
 20
-132.837197503683
 30
0.0
 10
120.3695691973381
 20
-132.837197503683
 30
0.0
 10
120.3695691973381
 20
-132.9452012471456
 30
0.0
 10
120.3695691973381
 20
-132.9452012471456
 30
0.0
 10
120.3695691973381
 20
-132.9452012471456
 30
0.0
 10
120.5714517927738
 20
-132.9452012471456
 30
0.0
 10
120.5714517927738
 20
-132.9452012471456
 30
0.0
 10
120.6882405297238
 20
-132.9452012471456
 30
0.0
 10
120.9400770096955
 20
-132.9408948777891
 30
0.0
 10
121.1233560895108
 20
-132.9345214511413
 30
0.0
 10
121.1233560895108
 20
-132.9345214511413
 30
0.0
 10
121.1233560895108
 20
-133.1122883781802
 30
0.0
 10
121.1233560895108
 20
-133.1122883781802
 30
0.0
 10
120.9548909202821
 20
-133.1059149515325
 30
0.0
 10
120.6806613196562
 20
-133.101608582176
 30
0.0
 10
120.5714517927738
 20
-133.101608582176
 30
0.0
  0
HATCH
  5
E3
330
D7
100
AcDbEntity
  8
レイヤー 1
 62
   250
420
  2299925
440
 33554687
100
AcDbHatch
 10
0.0
 20
0.0
 30
0.0
210
0.0
220
0.0
230
1.0
  2
SOLID
 70
     1
 71
     1
 91
        4
 92
        1
 93
        1
 72
     4
 94
        3
 73
     0
 74
     0
 95
       17
 96
       13
 40
0.0
 40
0.0
 40
0.0
 40
0.0
 40
1.0
 40
1.0
 40
1.0
 40
2.0
 40
2.0
 40
2.0
 40
3.0
 40
3.0
 40
3.0
 40
4.0
 40
4.0
 40
4.0
 40
4.0
 10
120.7158012936057
 20
-133.8336913727915
 10
120.7158012936057
 20
-133.8336913727915
 10
120.0974066540034
 20
-133.8336913727915
 10
120.0974066540034
 20
-133.8336913727915
 10
120.0974066540034
 20
-133.8336913727915
 10
120.0974066540034
 20
-133.9478962881276
 10
120.0974066540034
 20
-133.9478962881276
 10
120.0974066540034
 20
-133.9478962881276
 10
120.7158012936057
 20
-133.9478962881276
 10
120.7158012936057
 20
-133.9478962881276
 10
120.7158012936057
 20
-133.9478962881276
 10
120.7158012936057
 20
-133.8336913727915
 10
120.7158012936057
 20
-133.8336913727915
 97
        0
 97
        1
330
DF
 92
        1
 93
        1
 72
     4
 94
        3
 73
     0
 74
     0
 95
       17
 96
       13
 40
0.0
 40
0.0
 40
0.0
 40
0.0
 40
1.0
 40
1.0
 40
1.0
 40
2.0
 40
2.0
 40
2.0
 40
3.0
 40
3.0
 40
3.0
 40
4.0
 40
4.0
 40
4.0
 40
4.0
 10
120.7158012936057
 20
-133.5902953767587
 10
120.7158012936057
 20
-133.5902953767587
 10
120.0974066540034
 20
-133.5902953767587
 10
120.0974066540034
 20
-133.5902953767587
 10
120.0974066540034
 20
-133.5902953767587
 10
120.0974066540034
 20
-133.7046725468689
 10
120.0974066540034
 20
-133.7046725468689
 10
120.0974066540034
 20
-133.7046725468689
 10
120.7158012936057
 20
-133.7046725468689
 10
120.7158012936057
 20
-133.7046725468689
 10
120.7158012936057
 20
-133.7046725468689
 10
120.7158012936057
 20
-133.5902953767587
 10
120.7158012936057
 20
-133.5902953767587
 97
        0
 97
        1
330
E0
 92
        1
 93
        1
 72
     4
 94
        3
 73
     0
 74
     0
 95
       17
 96
       13
 40
0.0
 40
0.0
 40
0.0
 40
0.0
 40
1.0
 40
1.0
 40
1.0
 40
2.0
 40
2.0
 40
2.0
 40
3.0
 40
3.0
 40
3.0
 40
4.0
 40
4.0
 40
4.0
 40
4.0
 10
120.7158012936057
 20
-133.35757917673
 10
120.7158012936057
 20
-133.35757917673
 10
120.0974066540034
 20
-133.35757917673
 10
120.0974066540034
 20
-133.35757917673
 10
120.0974066540034
 20
-133.35757917673
 10
120.0974066540034
 20
-133.4655829201926
 10
120.0974066540034
 20
-133.4655829201926
 10
120.0974066540034
 20
-133.4655829201926
 10
120.7158012936057
 20
-133.4655829201926
 10
120.7158012936057
 20
-133.4655829201926
 10
120.7158012936057
 20
-133.4655829201926
 10
120.7158012936057
 20
-133.35757917673
 10
120.7158012936057
 20
-133.35757917673
 97
        0
 97
        1
330
E1
 92
        1
 93
        1
 72
     4
 94
        3
 73
     0
 74
     0
 95
      203
 96
      199
 40
0.0
 40
0.0
 40
0.0
 40
0.0
 40
1.0
 40
1.0
 40
1.0
 40
2.0
 40
2.0
 40
2.0
 40
3.0
 40
3.0
 40
3.0
 40
4.0
 40
4.0
 40
4.0
 40
5.0
 40
5.0
 40
5.0
 40
6.0
 40
6.0
 40
6.0
 40
7.0
 40
7.0
 40
7.0
 40
8.0
 40
8.0
 40
8.0
 40
9.0
 40
9.0
 40
9.0
 40
10.0
 40
10.0
 40
10.0
 40
11.0
 40
11.0
 40
11.0
 40
12.0
 40
12.0
 40
12.0
 40
13.0
 40
13.0
 40
13.0
 40
14.0
 40
14.0
 40
14.0
 40
15.0
 40
15.0
 40
15.0
 40
16.0
 40
16.0
 40
16.0
 40
17.0
 40
17.0
 40
17.0
 40
18.0
 40
18.0
 40
18.0
 40
19.0
 40
19.0
 40
19.0
 40
20.0
 40
20.0
 40
20.0
 40
21.0
 40
21.0
 40
21.0
 40
22.0
 40
22.0
 40
22.0
 40
23.0
 40
23.0
 40
23.0
 40
24.0
 40
24.0
 40
24.0
 40
25.0
 40
25.0
 40
25.0
 40
26.0
 40
26.0
 40
26.0
 40
27.0
 40
27.0
 40
27.0
 40
28.0
 40
28.0
 40
28.0
 40
29.0
 40
29.0
 40
29.0
 40
30.0
 40
30.0
 40
30.0
 40
31.0
 40
31.0
 40
31.0
 40
32.0
 40
32.0
 40
32.0
 40
33.0
 40
33.0
 40
33.0
 40
34.0
 40
34.0
 40
34.0
 40
35.0
 40
35.0
 40
35.0
 40
36.0
 40
36.0
 40
36.0
 40
37.0
 40
37.0
 40
37.0
 40
38.0
 40
38.0
 40
38.0
 40
39.0
 40
39.0
 40
39.0
 40
40.0
 40
40.0
 40
40.0
 40
41.0
 40
41.0
 40
41.0
 40
42.0
 40
42.0
 40
42.0
 40
43.0
 40
43.0
 40
43.0
 40
44.0
 40
44.0
 40
44.0
 40
45.0
 40
45.0
 40
45.0
 40
46.0
 40
46.0
 40
46.0
 40
47.0
 40
47.0
 40
47.0
 40
48.0
 40
48.0
 40
48.0
 40
49.0
 40
49.0
 40
49.0
 40
50.0
 40
50.0
 40
50.0
 40
51.0
 40
51.0
 40
51.0
 40
52.0
 40
52.0
 40
52.0
 40
53.0
 40
53.0
 40
53.0
 40
54.0
 40
54.0
 40
54.0
 40
55.0
 40
55.0
 40
55.0
 40
56.0
 40
56.0
 40
56.0
 40
57.0
 40
57.0
 40
57.0
 40
58.0
 40
58.0
 40
58.0
 40
59.0
 40
59.0
 40
59.0
 40
60.0
 40
60.0
 40
60.0
 40
61.0
 40
61.0
 40
61.0
 40
62.0
 40
62.0
 40
62.0
 40
63.0
 40
63.0
 40
63.0
 40
64.0
 40
64.0
 40
64.0
 40
65.0
 40
65.0
 40
65.0
 40
66.0
 40
66.0
 40
66.0
 40
66.0
 10
120.5714517927738
 20
-133.101608582176
 10
120.5714517927738
 20
-133.101608582176
 10
120.0825927434168
 20
-133.101608582176
 10
120.0825927434168
 20
-133.101608582176
 10
120.0732909856067
 20
-133.1460503139357
 10
120.0660562850876
 20
-133.1777451924
 10
120.0546874699863
 20
-133.2159857522863
 10
120.0770805906404
 20
-133.2159857522863
 10
120.0901719534844
 20
-133.2180528095774
 10
120.0956841062608
 20
-133.2180528095774
 10
120.0956841062608
 20
-133.2180528095774
 10
120.2603596704557
 20
-133.2180528095774
 10
120.2603596704557
 20
-133.2180528095774
 10
120.2603596704557
 20
-133.2180528095774
 10
120.587988251103
 20
-133.2180528095774
 10
120.587988251103
 20
-133.2180528095774
 10
120.6327744924112
 20
-133.2180528095774
 10
120.8808213673492
 20
-133.205305956282
 10
120.9083821312312
 20
-133.205305956282
 10
120.9066595834886
 20
-133.232866720164
 10
120.904937035746
 20
-133.2518147453329
 10
120.904937035746
 20
-133.281442566506
 10
120.9028699784548
 20
-133.3131374449703
 10
120.9028699784548
 20
-133.4485296975406
 10
120.9028699784548
 20
-133.4760904614226
 10
120.9028699784548
 20
-133.4760904614226
 10
120.9028699784548
 20
-133.7215535147467
 10
120.9028699784548
 20
-133.7215535147467
 10
120.9028699784548
 20
-133.7659952465064
 10
120.9066595834886
 20
-133.9627101987141
 10
120.9104491885224
 20
-134.1149834191622
 10
120.9104491885224
 20
-134.1149834191622
 10
120.7123561981205
 20
-134.1149834191622
 10
120.7123561981205
 20
-134.1149834191622
 10
120.7123561981205
 20
-134.1149834191622
 10
120.7140787458631
 20
-134.0812214834067
 10
120.7140787458631
 20
-134.0812214834067
 10
120.7140787458631
 20
-134.0812214834067
 10
120.0994737112946
 20
-134.0812214834067
 10
120.0994737112946
 20
-134.0812214834067
 10
120.0994737112946
 20
-134.0812214834067
 10
120.1011962590372
 20
-134.1149834191622
 10
120.1011962590372
 20
-134.1149834191622
 10
120.1011962590372
 20
-134.1149834191622
 10
119.9103379691544
 20
-134.1149834191622
 10
119.9103379691544
 20
-134.1149834191622
 10
119.9141275741881
 20
-134.0600341461725
 10
119.9141275741881
 20
-134.0472872928771
 10
119.9196397269645
 20
-133.933082377541
 10
119.9217067842557
 20
-133.905521613659
 10
119.9234293319983
 20
-133.7723686731541
 10
119.9234293319983
 20
-133.753248393211
 10
119.9234293319983
 20
-133.753248393211
 10
119.9234293319983
 20
-133.5501600143555
 10
119.9234293319983
 20
-133.5501600143555
 10
119.8011284422719
 20
-133.7997571822619
 10
119.6529893364062
 20
-133.9310153202499
 10
119.560316267853
 20
-133.9964721344696
 10
119.560316267853
 20
-133.9964721344696
 10
119.4087320665019
 20
-133.856945767317
 10
119.4087320665019
 20
-133.856945767317
 10
119.4862467149201
 20
-133.8061306089096
 10
119.6123372096802
 20
-133.7193142026813
 10
119.7325710421154
 20
-133.5248385625389
 10
119.8121527478247
 20
-133.3978867939074
 10
119.8696858424284
 20
-133.2540540573983
 10
119.8993136636015
 20
-133.101608582176
 10
119.6991536159085
 20
-133.1038478942414
 10
119.5420572617811
 20
-133.1102213208891
 10
119.4586859510381
 20
-133.1122883781802
 10
119.4586859510381
 20
-133.1122883781802
 10
119.4586859510381
 20
-132.9345214511413
 10
119.4586859510381
 20
-132.9345214511413
 10
119.6309407253006
 20
-132.9408948777891
 10
119.8789876002386
 20
-132.9452012471456
 10
120.0105902477751
 20
-132.9452012471456
 10
120.0105902477751
 20
-132.9452012471456
 10
120.1973144230757
 20
-132.9452012471456
 10
120.1973144230757
 20
-132.9452012471456
 10
120.1973144230757
 20
-132.9452012471456
 10
120.1973144230757
 20
-132.837197503683
 10
120.1973144230757
 20
-132.837197503683
 10
120.1973144230757
 20
-132.837197503683
 10
120.0698458901214
 20
-132.837197503683
 10
120.0698458901214
 20
-132.837197503683
 10
119.9217067842557
 20
-132.837197503683
 10
119.7735676783899
 20
-132.8415038730396
 10
119.6271511202668
 20
-132.8478772996873
 10
119.6271511202668
 20
-132.8478772996873
 10
119.6271511202668
 20
-132.6764837992961
 10
119.6271511202668
 20
-132.6764837992961
 10
119.7621988632886
 20
-132.6869913405261
 10
119.9251518797409
 20
-132.6869913405261
 10
120.0698458901214
 20
-132.6869913405261
 10
120.0698458901214
 20
-132.6869913405261
 10
120.1973144230757
 20
-132.6869913405261
 10
120.1973144230757
 20
-132.6869913405261
 10
120.1973144230757
 20
-132.6869913405261
 10
120.1973144230757
 20
-132.5686523106078
 10
120.1973144230757
 20
-132.5686523106078
 10
120.1973144230757
 20
-132.5686523106078
 10
120.0825927434168
 20
-132.5686523106078
 10
120.0825927434168
 20
-132.5686523106078
 10
120.0419406166909
 20
-132.5686523106078
 10
119.864173689652
 20
-132.5770927945467
 10
119.8269666584113
 20
-132.5770927945467
 10
119.6491997313724
 20
-132.581226909129
 10
119.5827093885071
 20
-132.5832939664201
 10
119.5141519883506
 20
-132.5855332784855
 10
119.5141519883506
 20
-132.5855332784855
 10
119.5141519883506
 20
-132.4013929247989
 10
119.5141519883506
 20
-132.4013929247989
 10
119.6140597574228
 20
-132.4098334087378
 10
119.6529893364062
 20
-132.4098334087378
 10
119.988197127121
 20
-132.4184461474509
 10
119.9327310898085
 20
-132.3231892572838
 10
119.9086154214117
 20
-132.2956284934018
 10
119.8769205429474
 20
-132.2596272455809
 10
119.8769205429474
 20
-132.2596272455809
 10
120.0309163111381
 20
-132.1771172087092
 10
120.0309163111381
 20
-132.1771172087092
 10
120.0660562850876
 20
-132.21311845653
 10
120.104985864071
 20
-132.2554931309986
 10
120.1697536591936
 20
-132.3653916769781
 10
120.1697536591936
 20
-132.3653916769781
 10
120.0698458901214
 20
-132.4205132047421
 10
120.0698458901214
 20
-132.4205132047421
 10
120.0698458901214
 20
-132.4205132047421
 10
120.0788031383831
 20
-132.4205132047421
 10
120.0788031383831
 20
-132.4205132047421
 10
120.0788031383831
 20
-132.4205132047421
 10
120.5363118188242
 20
-132.4205132047421
 10
120.5363118188242
 20
-132.4205132047421
 10
120.5363118188242
 20
-132.4205132047421
 10
120.4529405080812
 20
-132.3760714729824
 10
120.4529405080812
 20
-132.3760714729824
 10
120.4770561764779
 20
-132.3380031678703
 10
120.5270100610141
 20
-132.2575601882898
 10
120.540101423858
 20
-132.1834906353569
 10
120.540101423858
 20
-132.1834906353569
 10
120.7271701087071
 20
-132.2470526470598
 10
120.7271701087071
 20
-132.2470526470598
 10
120.7344048092261
 20
-132.2491197043509
 10
120.7530083248465
 20
-132.2596272455809
 10
120.7530083248465
 20
-132.2808145828152
 10
120.7530083248465
 20
-132.3188828879272
 10
120.6954752302428
 20
-132.3188828879272
 10
120.6789387719136
 20
-132.3188828879272
 10
120.6696370141034
 20
-132.3380031678703
 10
120.6493109507404
 20
-132.3781385302735
 10
120.6234727346011
 20
-132.4184461474509
 10
120.9731499263539
 20
-132.4120727208032
 10
120.9993326520418
 20
-132.4098334087378
 10
121.0658229949071
 20
-132.4036322368643
 10
121.0658229949071
 20
-132.4036322368643
 10
121.0658229949071
 20
-132.5855332784855
 10
121.0658229949071
 20
-132.5855332784855
 10
121.0492865365779
 20
-132.5855332784855
 10
121.0268934159238
 20
-132.5832939664201
 10
120.8343125782983
 20
-132.5748534824813
 10
120.7898708465386
 20
-132.5727864251901
 10
120.5972900089131
 20
-132.5686523106078
 10
120.5583604299298
 20
-132.5686523106078
 10
120.5583604299298
 20
-132.5686523106078
 10
120.3695691973381
 20
-132.5686523106078
 10
120.3695691973381
 20
-132.5686523106078
 10
120.3695691973381
 20
-132.5686523106078
 10
120.3695691973381
 20
-132.6869913405261
 10
120.3695691973381
 20
-132.6869913405261
 10
120.3695691973381
 20
-132.6869913405261
 10
120.5214979082377
 20
-132.6869913405261
 10
120.5214979082377
 20
-132.6869913405261
 10
120.664124861327
 20
-132.6869913405261
 10
120.8308674828131
 20
-132.6869913405261
 10
120.9676377735775
 20
-132.6764837992961
 10
120.9676377735775
 20
-132.6764837992961
 10
120.9676377735775
 20
-132.8478772996873
 10
120.9676377735775
 20
-132.8478772996873
 10
120.7843586937622
 20
-132.8394368157485
 10
120.6121039194997
 20
-132.837197503683
 10
120.5214979082377
 20
-132.837197503683
 10
120.5214979082377
 20
-132.837197503683
 10
120.3695691973381
 20
-132.837197503683
 10
120.3695691973381
 20
-132.837197503683
 10
120.3695691973381
 20
-132.837197503683
 10
120.3695691973381
 20
-132.9452012471456
 10
120.3695691973381
 20
-132.9452012471456
 10
120.3695691973381
 20
-132.9452012471456
 10
120.5714517927738
 20
-132.9452012471456
 10
120.5714517927738
 20
-132.9452012471456
 10
120.6882405297238
 20
-132.9452012471456
 10
120.9400770096955
 20
-132.9408948777891
 10
121.1233560895108
 20
-132.9345214511413
 10
121.1233560895108
 20
-132.9345214511413
 10
121.1233560895108
 20
-133.1122883781802
 10
121.1233560895108
 20
-133.1122883781802
 10
120.9548909202821
 20
-133.1059149515325
 10
120.6806613196562
 20
-133.101608582176
 10
120.5714517927738
 20
-133.101608582176
 97
        0
 97
        1
330
E2
 75
     2
 76
     1
 98
        1
 10
0.0
 20
0.0
450
        0
451
        0
460
0.0
461
0.0
452
        0
462
0.0
453
        0
470

  0
SPLINE
  5
E4
330
D7
100
AcDbEntity
  8
レイヤー 1
100
AcDbSpline
210
0.0
220
0.0
230
1.0
 70
     9
 71
     3
 72
    29
 73
    25
 74
     0
 42
0.0000000001
 43
0.0000000001
 40
0.0
 40
0.0
 40
0.0
 40
0.0
 40
1.0
 40
1.0
 40
1.0
 40
2.0
 40
2.0
 40
2.0
 40
3.0
 40
3.0
 40
3.0
 40
4.0
 40
4.0
 40
4.0
 40
5.0
 40
5.0
 40
5.0
 40
6.0
 40
6.0
 40
6.0
 40
7.0
 40
7.0
 40
7.0
 40
8.0
 40
8.0
 40
8.0
 40
8.0
 10
122.2144178296894
 20
-132.5495320306647
 30
0.0
 10
122.2144178296894
 20
-132.5495320306647
 30
0.0
 10
121.905048255114
 20
-132.5495320306647
 30
0.0
 10
121.905048255114
 20
-132.5495320306647
 30
0.0
 10
121.8068630337844
 20
-132.5495320306647
 30
0.0
 10
121.684562144058
 20
-132.5559054573124
 30
0.0
 10
121.5901665277622
 20
-132.5686523106078
 30
0.0
 10
121.5901665277622
 20
-132.5686523106078
 30
0.0
 10
121.5901665277622
 20
-132.3336967985138
 30
0.0
 10
121.5901665277622
 20
-132.3336967985138
 30
0.0
 10
121.6938639018682
 20
-132.3485107091003
 30
0.0
 10
121.8550943705779
 20
-132.3528170784569
 30
0.0
 10
121.905048255114
 20
-132.3528170784569
 30
0.0
 10
121.905048255114
 20
-132.3528170784569
 30
0.0
 10
122.2144178296894
 20
-132.3528170784569
 30
0.0
 10
122.2144178296894
 20
-132.3528170784569
 30
0.0
 10
122.2309542880186
 20
-132.3528170784569
 30
0.0
 10
122.4087212150575
 20
-132.3528170784569
 30
0.0
 10
122.5327446525265
 20
-132.3336967985138
 30
0.0
 10
122.5327446525265
 20
-132.3336967985138
 30
0.0
 10
122.5327446525265
 20
-132.5686523106078
 30
0.0
 10
122.5327446525265
 20
-132.5686523106078
 30
0.0
 10
122.3956298522136
 20
-132.5495320306647
 30
0.0
 10
122.229231740276
 20
-132.5495320306647
 30
0.0
 10
122.2144178296894
 20
-132.5495320306647
 30
0.0
  0
SPLINE
  5
E5
330
D7
100
AcDbEntity
  8
レイヤー 1
100
AcDbSpline
210
0.0
220
0.0
230
1.0
 70
     9
 71
     3
 72
    47
 73
    43
 74
     0
 42
0.0000000001
 43
0.0000000001
 40
0.0
 40
0.0
 40
0.0
 40
0.0
 40
1.0
 40
1.0
 40
1.0
 40
2.0
 40
2.0
 40
2.0
 40
3.0
 40
3.0
 40
3.0
 40
4.0
 40
4.0
 40
4.0
 40
5.0
 40
5.0
 40
5.0
 40
6.0
 40
6.0
 40
6.0
 40
7.0
 40
7.0
 40
7.0
 40
8.0
 40
8.0
 40
8.0
 40
9.0
 40
9.0
 40
9.0
 40
10.0
 40
10.0
 40
10.0
 40
11.0
 40
11.0
 40
11.0
 40
12.0
 40
12.0
 40
12.0
 40
13.0
 40
13.0
 40
13.0
 40
14.0
 40
14.0
 40
14.0
 40
14.0
 10
122.3033012932089
 20
-133.0783541876505
 30
0.0
 10
122.3033012932089
 20
-133.0783541876505
 30
0.0
 10
122.2144178296894
 20
-133.0783541876505
 30
0.0
 10
122.2144178296894
 20
-133.0783541876505
 30
0.0
 10
122.2144178296894
 20
-133.1651705938788
 30
0.0
 10
122.1958143140691
 20
-133.5544663837121
 30
0.0
 10
122.0235595398066
 20
-133.7744357304452
 30
0.0
 10
121.8902343445274
 20
-133.943589918771
 30
0.0
 10
121.7086778124548
 20
-134.0135253571216
 30
0.0
 10
121.6346082595219
 20
-134.0409138662294
 30
0.0
 10
121.6346082595219
 20
-134.0409138662294
 30
0.0
 10
121.4644205425505
 20
-133.8738267351947
 30
0.0
 10
121.4644205425505
 20
-133.8738267351947
 30
0.0
 10
121.5495144010362
 20
-133.8610798818993
 30
0.0
 10
121.7031656596784
 20
-133.8378254873739
 30
0.0
 10
121.8681857334218
 20
-133.649551019105
 30
0.0
 10
121.9329535285445
 20
-133.5777207782375
 30
0.0
 10
122.0235595398066
 20
-133.4380221563106
 30
0.0
 10
122.0235595398066
 20
-133.0783541876505
 30
0.0
 10
122.0235595398066
 20
-133.0783541876505
 30
0.0
 10
121.821676944371
 20
-133.0783541876505
 30
0.0
 10
121.821676944371
 20
-133.0783541876505
 30
0.0
 10
121.6587239279186
 20
-133.0783541876505
 30
0.0
 10
121.4957709114663
 20
-133.0826605570071
 30
0.0
 10
121.332817895014
 20
-133.0974744675937
 30
0.0
 10
121.332817895014
 20
-133.0974744675937
 30
0.0
 10
121.332817895014
 20
-132.8775051208605
 30
0.0
 10
121.332817895014
 20
-132.8775051208605
 30
0.0
 10
121.4974934592089
 20
-132.892319031447
 30
0.0
 10
121.7476073914381
 20
-132.8964531460293
 30
0.0
 10
121.821676944371
 20
-132.8964531460293
 30
0.0
 10
121.821676944371
 20
-132.8964531460293
 30
0.0
 10
122.3033012932089
 20
-132.8964531460293
 30
0.0
 10
122.3033012932089
 20
-132.8964531460293
 30
0.0
 10
122.3198377515381
 20
-132.8964531460293
 30
0.0
 10
122.5975124476492
 20
-132.8964531460293
 30
0.0
 10
122.7976724953422
 20
-132.8775051208605
 30
0.0
 10
122.7976724953422
 20
-132.8775051208605
 30
0.0
 10
122.7976724953422
 20
-133.0974744675937
 30
0.0
 10
122.7976724953422
 20
-133.0974744675937
 30
0.0
 10
122.6326524215988
 20
-133.0826605570071
 30
0.0
 10
122.4679768574038
 20
-133.0783541876505
 30
0.0
 10
122.3033012932089
 20
-133.0783541876505
 30
0.0
  0
HATCH
  5
E6
330
D7
100
AcDbEntity
  8
レイヤー 1
 62
   250
420
  2299925
440
 33554687
100
AcDbHatch
 10
0.0
 20
0.0
 30
0.0
210
0.0
220
0.0
230
1.0
  2
SOLID
 70
     1
 71
     1
 91
        2
 92
        1
 93
        1
 72
     4
 94
        3
 73
     0
 74
     0
 95
       29
 96
       25
 40
0.0
 40
0.0
 40
0.0
 40
0.0
 40
1.0
 40
1.0
 40
1.0
 40
2.0
 40
2.0
 40
2.0
 40
3.0
 40
3.0
 40
3.0
 40
4.0
 40
4.0
 40
4.0
 40
5.0
 40
5.0
 40
5.0
 40
6.0
 40
6.0
 40
6.0
 40
7.0
 40
7.0
 40
7.0
 40
8.0
 40
8.0
 40
8.0
 40
8.0
 10
122.2144178296894
 20
-132.5495320306647
 10
122.2144178296894
 20
-132.5495320306647
 10
121.905048255114
 20
-132.5495320306647
 10
121.905048255114
 20
-132.5495320306647
 10
121.8068630337844
 20
-132.5495320306647
 10
121.684562144058
 20
-132.5559054573124
 10
121.5901665277622
 20
-132.5686523106078
 10
121.5901665277622
 20
-132.5686523106078
 10
121.5901665277622
 20
-132.3336967985138
 10
121.5901665277622
 20
-132.3336967985138
 10
121.6938639018682
 20
-132.3485107091003
 10
121.8550943705779
 20
-132.3528170784569
 10
121.905048255114
 20
-132.3528170784569
 10
121.905048255114
 20
-132.3528170784569
 10
122.2144178296894
 20
-132.3528170784569
 10
122.2144178296894
 20
-132.3528170784569
 10
122.2309542880186
 20
-132.3528170784569
 10
122.4087212150575
 20
-132.3528170784569
 10
122.5327446525265
 20
-132.3336967985138
 10
122.5327446525265
 20
-132.3336967985138
 10
122.5327446525265
 20
-132.5686523106078
 10
122.5327446525265
 20
-132.5686523106078
 10
122.3956298522136
 20
-132.5495320306647
 10
122.229231740276
 20
-132.5495320306647
 10
122.2144178296894
 20
-132.5495320306647
 97
        0
 97
        1
330
E4
 92
        1
 93
        1
 72
     4
 94
        3
 73
     0
 74
     0
 95
       47
 96
       43
 40
0.0
 40
0.0
 40
0.0
 40
0.0
 40
1.0
 40
1.0
 40
1.0
 40
2.0
 40
2.0
 40
2.0
 40
3.0
 40
3.0
 40
3.0
 40
4.0
 40
4.0
 40
4.0
 40
5.0
 40
5.0
 40
5.0
 40
6.0
 40
6.0
 40
6.0
 40
7.0
 40
7.0
 40
7.0
 40
8.0
 40
8.0
 40
8.0
 40
9.0
 40
9.0
 40
9.0
 40
10.0
 40
10.0
 40
10.0
 40
11.0
 40
11.0
 40
11.0
 40
12.0
 40
12.0
 40
12.0
 40
13.0
 40
13.0
 40
13.0
 40
14.0
 40
14.0
 40
14.0
 40
14.0
 10
122.3033012932089
 20
-133.0783541876505
 10
122.3033012932089
 20
-133.0783541876505
 10
122.2144178296894
 20
-133.0783541876505
 10
122.2144178296894
 20
-133.0783541876505
 10
122.2144178296894
 20
-133.1651705938788
 10
122.1958143140691
 20
-133.5544663837121
 10
122.0235595398066
 20
-133.7744357304452
 10
121.8902343445274
 20
-133.943589918771
 10
121.7086778124548
 20
-134.0135253571216
 10
121.6346082595219
 20
-134.0409138662294
 10
121.6346082595219
 20
-134.0409138662294
 10
121.4644205425505
 20
-133.8738267351947
 10
121.4644205425505
 20
-133.8738267351947
 10
121.5495144010362
 20
-133.8610798818993
 10
121.7031656596784
 20
-133.8378254873739
 10
121.8681857334218
 20
-133.649551019105
 10
121.9329535285445
 20
-133.5777207782375
 10
122.0235595398066
 20
-133.4380221563106
 10
122.0235595398066
 20
-133.0783541876505
 10
122.0235595398066
 20
-133.0783541876505
 10
121.821676944371
 20
-133.0783541876505
 10
121.821676944371
 20
-133.0783541876505
 10
121.6587239279186
 20
-133.0783541876505
 10
121.4957709114663
 20
-133.0826605570071
 10
121.332817895014
 20
-133.0974744675937
 10
121.332817895014
 20
-133.0974744675937
 10
121.332817895014
 20
-132.8775051208605
 10
121.332817895014
 20
-132.8775051208605
 10
121.4974934592089
 20
-132.892319031447
 10
121.7476073914381
 20
-132.8964531460293
 10
121.821676944371
 20
-132.8964531460293
 10
121.821676944371
 20
-132.8964531460293
 10
122.3033012932089
 20
-132.8964531460293
 10
122.3033012932089
 20
-132.8964531460293
 10
122.3198377515381
 20
-132.8964531460293
 10
122.5975124476492
 20
-132.8964531460293
 10
122.7976724953422
 20
-132.8775051208605
 10
122.7976724953422
 20
-132.8775051208605
 10
122.7976724953422
 20
-133.0974744675937
 10
122.7976724953422
 20
-133.0974744675937
 10
122.6326524215988
 20
-133.0826605570071
 10
122.4679768574038
 20
-133.0783541876505
 10
122.3033012932089
 20
-133.0783541876505
 97
        0
 97
        1
330
E5
 75
     2
 76
     1
 98
        1
 10
0.0
 20
0.0
450
        0
451
        0
460
0.0
461
0.0
452
        0
462
0.0
453
        0
470

  0
SPLINE
  5
E7
330
D7
100
AcDbEntity
  8
レイヤー 1
100
AcDbSpline
210
0.0
220
0.0
230
1.0
 70
     9
 71
     3
 72
    29
 73
    25
 74
     0
 42
0.0000000001
 43
0.0000000001
 40
0.0
 40
0.0
 40
0.0
 40
0.0
 40
1.0
 40
1.0
 40
1.0
 40
2.0
 40
2.0
 40
2.0
 40
3.0
 40
3.0
 40
3.0
 40
4.0
 40
4.0
 40
4.0
 40
5.0
 40
5.0
 40
5.0
 40
6.0
 40
6.0
 40
6.0
 40
7.0
 40
7.0
 40
7.0
 40
8.0
 40
8.0
 40
8.0
 40
8.0
 10
123.9200846044366
 20
-133.2413072041028
 30
0.0
 10
123.9200846044366
 20
-133.2413072041028
 30
0.0
 10
123.4959933502024
 20
-133.2413072041028
 30
0.0
 10
123.4959933502024
 20
-133.2413072041028
 30
0.0
 10
123.4718776818056
 20
-133.2413072041028
 30
0.0
 10
123.193858476146
 20
-133.2413072041028
 30
0.0
 10
123.008856848588
 20
-133.2666286559194
 30
0.0
 10
123.008856848588
 20
-133.2666286559194
 30
0.0
 10
123.008856848588
 20
-133.0361517679562
 30
0.0
 10
123.008856848588
 20
-133.0361517679562
 30
0.0
 10
123.1476941966436
 20
-133.0594061624817
 30
0.0
 10
123.3144368181297
 20
-133.0614732197728
 30
0.0
 10
123.4959933502024
 20
-133.0614732197728
 30
0.0
 10
123.4959933502024
 20
-133.0614732197728
 30
0.0
 10
123.9200846044366
 20
-133.0614732197728
 30
0.0
 10
123.9200846044366
 20
-133.0614732197728
 30
0.0
 10
124.0826931113404
 20
-133.0614732197728
 30
0.0
 10
124.2459906373412
 20
-133.0594061624817
 30
0.0
 10
124.4068765965024
 20
-133.0361517679562
 30
0.0
 10
124.4068765965024
 20
-133.0361517679562
 30
0.0
 10
124.4068765965024
 20
-133.2666286559194
 30
0.0
 10
124.4068765965024
 20
-133.2666286559194
 30
0.0
 10
124.2459906373412
 20
-133.243374261394
 30
0.0
 10
124.0292941313191
 20
-133.2413072041028
 30
0.0
 10
123.9200846044366
 20
-133.2413072041028
 30
0.0
  0
HATCH
  5
E8
330
D7
100
AcDbEntity
  8
レイヤー 1
 62
   250
420
  2299925
440
 33554687
100
AcDbHatch
 10
0.0
 20
0.0
 30
0.0
210
0.0
220
0.0
230
1.0
  2
SOLID
 70
     1
 71
     1
 91
        1
 92
        1
 93
        1
 72
     4
 94
        3
 73
     0
 74
     0
 95
       29
 96
       25
 40
0.0
 40
0.0
 40
0.0
 40
0.0
 40
1.0
 40
1.0
 40
1.0
 40
2.0
 40
2.0
 40
2.0
 40
3.0
 40
3.0
 40
3.0
 40
4.0
 40
4.0
 40
4.0
 40
5.0
 40
5.0
 40
5.0
 40
6.0
 40
6.0
 40
6.0
 40
7.0
 40
7.0
 40
7.0
 40
8.0
 40
8.0
 40
8.0
 40
8.0
 10
123.9200846044366
 20
-133.2413072041028
 10
123.9200846044366
 20
-133.2413072041028
 10
123.4959933502024
 20
-133.2413072041028
 10
123.4959933502024
 20
-133.2413072041028
 10
123.4718776818056
 20
-133.2413072041028
 10
123.193858476146
 20
-133.2413072041028
 10
123.008856848588
 20
-133.2666286559194
 10
123.008856848588
 20
-133.2666286559194
 10
123.008856848588
 20
-133.0361517679562
 10
123.008856848588
 20
-133.0361517679562
 10
123.1476941966436
 20
-133.0594061624817
 10
123.3144368181297
 20
-133.0614732197728
 10
123.4959933502024
 20
-133.0614732197728
 10
123.4959933502024
 20
-133.0614732197728
 10
123.9200846044366
 20
-133.0614732197728
 10
123.9200846044366
 20
-133.0614732197728
 10
124.0826931113404
 20
-133.0614732197728
 10
124.2459906373412
 20
-133.0594061624817
 10
124.4068765965024
 20
-133.0361517679562
 10
124.4068765965024
 20
-133.0361517679562
 10
124.4068765965024
 20
-133.2666286559194
 10
124.4068765965024
 20
-133.2666286559194
 10
124.2459906373412
 20
-133.243374261394
 10
124.0292941313191
 20
-133.2413072041028
 10
123.9200846044366
 20
-133.2413072041028
 97
        0
 97
        1
330
E7
 75
     2
 76
     1
 98
        1
 10
0.0
 20
0.0
450
        0
451
        0
460
0.0
461
0.0
452
        0
462
0.0
453
        0
470

  0
SPLINE
  5
E9
330
D7
100
AcDbEntity
  8
レイヤー 1
100
AcDbSpline
210
0.0
220
0.0
230
1.0
 70
     9
 71
     3
 72
    17
 73
    13
 74
     0
 42
0.0000000001
 43
0.0000000001
 40
0.0
 40
0.0
 40
0.0
 40
0.0
 40
1.0
 40
1.0
 40
1.0
 40
2.0
 40
2.0
 40
2.0
 40
3.0
 40
3.0
 40
3.0
 40
4.0
 40
4.0
 40
4.0
 40
4.0
 10
126.0384738183168
 20
-132.2744411561675
 30
0.0
 10
125.9902424815233
 20
-132.2744411561675
 30
0.0
 10
125.9513129025399
 20
-132.3188828879272
 30
0.0
 10
125.9513129025399
 20
-132.3740044156912
 30
0.0
 10
125.9513129025399
 20
-132.4310207459721
 30
0.0
 10
125.9902424815233
 20
-132.4797688470884
 30
0.0
 10
126.0422634233505
 20
-132.4797688470884
 30
0.0
 10
126.0939398556293
 20
-132.4797688470884
 30
0.0
 10
126.1290798295788
 20
-132.4289536886809
 30
0.0
 10
126.1290798295788
 20
-132.3760714729824
 30
0.0
 10
126.1290798295788
 20
-132.3188828879272
 30
0.0
 10
126.0884277028529
 20
-132.2744411561675
 30
0.0
 10
126.0384738183168
 20
-132.2744411561675
 30
0.0
  0
SPLINE
  5
EA
330
D7
100
AcDbEntity
  8
レイヤー 1
100
AcDbSpline
210
0.0
220
0.0
230
1.0
 70
     9
 71
     3
 72
    17
 73
    13
 74
     0
 42
0.0000000001
 43
0.0000000001
 40
0.0
 40
0.0
 40
0.0
 40
0.0
 40
1.0
 40
1.0
 40
1.0
 40
2.0
 40
2.0
 40
2.0
 40
3.0
 40
3.0
 40
3.0
 40
4.0
 40
4.0
 40
4.0
 40
4.0
 10
126.0401963660594
 20
-132.6044813036544
 30
0.0
 10
125.9292642914343
 20
-132.6044813036544
 30
0.0
 10
125.8403808279149
 20
-132.5030232416138
 30
0.0
 10
125.8403808279149
 20
-132.3760714729824
 30
0.0
 10
125.8403808279149
 20
-132.2491197043509
 30
0.0
 10
125.9292642914343
 20
-132.1454223302449
 30
0.0
 10
126.0401963660594
 20
-132.1454223302449
 30
0.0
 10
126.1514729502329
 20
-132.1454223302449
 30
0.0
 10
126.242078961495
 20
-132.2491197043509
 30
0.0
 10
126.242078961495
 20
-132.3760714729824
 30
0.0
 10
126.242078961495
 20
-132.5030232416138
 30
0.0
 10
126.1514729502329
 20
-132.6044813036544
 30
0.0
 10
126.0401963660594
 20
-132.6044813036544
 30
0.0
  0
SPLINE
  5
EB
330
D7
100
AcDbEntity
  8
レイヤー 1
100
AcDbSpline
210
0.0
220
0.0
230
1.0
 70
     9
 71
     3
 72
    44
 73
    40
 74
     0
 42
0.0000000001
 43
0.0000000001
 40
0.0
 40
0.0
 40
0.0
 40
0.0
 40
1.0
 40
1.0
 40
1.0
 40
2.0
 40
2.0
 40
2.0
 40
3.0
 40
3.0
 40
3.0
 40
4.0
 40
4.0
 40
4.0
 40
5.0
 40
5.0
 40
5.0
 40
6.0
 40
6.0
 40
6.0
 40
7.0
 40
7.0
 40
7.0
 40
8.0
 40
8.0
 40
8.0
 40
9.0
 40
9.0
 40
9.0
 40
10.0
 40
10.0
 40
10.0
 40
11.0
 40
11.0
 40
11.0
 40
12.0
 40
12.0
 40
12.0
 40
13.0
 40
13.0
 40
13.0
 40
13.0
 10
125.8569172862441
 20
-132.8034355679276
 30
0.0
 10
125.7587320649145
 20
-133.1715440205265
 30
0.0
 10
125.7142903331547
 20
-133.3301906676223
 30
0.0
 10
125.5420355588922
 20
-133.5797878355286
 30
0.0
 10
125.3811495997311
 20
-133.8104369782661
 30
0.0
 10
125.173754851519
 20
-133.9964721344696
 30
0.0
 10
124.9291530720663
 20
-134.0896619673456
 30
0.0
 10
124.9291530720663
 20
-134.0896619673456
 30
0.0
 10
124.7606879028376
 20
-133.9098279830156
 30
0.0
 10
124.7606879028376
 20
-133.9098279830156
 30
0.0
 10
125.3218939573848
 20
-133.7575547625675
 30
0.0
 10
125.6105929590487
 20
-133.2011718416997
 30
0.0
 10
125.6660589963612
 20
-132.761060893459
 30
0.0
 10
125.6660589963612
 20
-132.761060893459
 30
0.0
 10
124.9959879244801
 20
-132.761060893459
 30
0.0
 10
124.9959879244801
 20
-132.761060893459
 30
0.0
 10
124.9143391614797
 20
-132.761060893459
 30
0.0
 10
124.7534532023186
 20
-132.7653672628156
 30
0.0
 10
124.6163384020056
 20
-132.7843152879844
 30
0.0
 10
124.6163384020056
 20
-132.7843152879844
 30
0.0
 10
124.6163384020056
 20
-132.5643459412513
 30
0.0
 10
124.6163384020056
 20
-132.5643459412513
 30
0.0
 10
124.6921305026811
 20
-132.5855332784855
 30
0.0
 10
124.9126166137371
 20
-132.5855332784855
 30
0.0
 10
124.9997775295139
 20
-132.5855332784855
 30
0.0
 10
124.9997775295139
 20
-132.5855332784855
 30
0.0
 10
125.3773599946973
 20
-132.5855332784855
 30
0.0
 10
125.3773599946973
 20
-132.5855332784855
 30
0.0
 10
125.414567025938
 20
-132.5855332784855
 30
0.0
 10
125.6198947168589
 20
-132.5832939664201
 30
0.0
 10
125.6533121430658
 20
-132.5770927945467
 30
0.0
 10
125.690174664758
 20
-132.570719367899
 30
0.0
 10
125.6922417220491
 20
-132.5686523106078
 30
0.0
 10
125.7459852116191
 20
-132.5283446934304
 30
0.0
 10
125.7459852116191
 20
-132.5283446934304
 30
0.0
 10
125.910660775814
 20
-132.6828572259439
 30
0.0
 10
125.910660775814
 20
-132.6828572259439
 30
0.0
 10
125.8848225596746
 20
-132.712485047117
 30
0.0
 10
125.8717311968307
 20
-132.7441799255813
 30
0.0
 10
125.8569172862441
 20
-132.8034355679276
 30
0.0
  0
HATCH
  5
EC
330
D7
100
AcDbEntity
  8
レイヤー 1
 62
   250
420
  2299925
440
 33554687
100
AcDbHatch
 10
0.0
 20
0.0
 30
0.0
210
0.0
220
0.0
230
1.0
  2
SOLID
 70
     1
 71
     1
 91
        3
 92
        1
 93
        1
 72
     4
 94
        3
 73
     0
 74
     0
 95
       17
 96
       13
 40
0.0
 40
0.0
 40
0.0
 40
0.0
 40
1.0
 40
1.0
 40
1.0
 40
2.0
 40
2.0
 40
2.0
 40
3.0
 40
3.0
 40
3.0
 40
4.0
 40
4.0
 40
4.0
 40
4.0
 10
126.0384738183168
 20
-132.2744411561675
 10
125.9902424815233
 20
-132.2744411561675
 10
125.9513129025399
 20
-132.3188828879272
 10
125.9513129025399
 20
-132.3740044156912
 10
125.9513129025399
 20
-132.4310207459721
 10
125.9902424815233
 20
-132.4797688470884
 10
126.0422634233505
 20
-132.4797688470884
 10
126.0939398556293
 20
-132.4797688470884
 10
126.1290798295788
 20
-132.4289536886809
 10
126.1290798295788
 20
-132.3760714729824
 10
126.1290798295788
 20
-132.3188828879272
 10
126.0884277028529
 20
-132.2744411561675
 10
126.0384738183168
 20
-132.2744411561675
 97
        0
 97
        1
330
E9
 92
        1
 93
        1
 72
     4
 94
        3
 73
     0
 74
     0
 95
       17
 96
       13
 40
0.0
 40
0.0
 40
0.0
 40
0.0
 40
1.0
 40
1.0
 40
1.0
 40
2.0
 40
2.0
 40
2.0
 40
3.0
 40
3.0
 40
3.0
 40
4.0
 40
4.0
 40
4.0
 40
4.0
 10
126.0401963660594
 20
-132.6044813036544
 10
125.9292642914343
 20
-132.6044813036544
 10
125.8403808279149
 20
-132.5030232416138
 10
125.8403808279149
 20
-132.3760714729824
 10
125.8403808279149
 20
-132.2491197043509
 10
125.9292642914343
 20
-132.1454223302449
 10
126.0401963660594
 20
-132.1454223302449
 10
126.1514729502329
 20
-132.1454223302449
 10
126.242078961495
 20
-132.2491197043509
 10
126.242078961495
 20
-132.3760714729824
 10
126.242078961495
 20
-132.5030232416138
 10
126.1514729502329
 20
-132.6044813036544
 10
126.0401963660594
 20
-132.6044813036544
 97
        0
 97
        1
330
EA
 92
        1
 93
        1
 72
     4
 94
        3
 73
     0
 74
     0
 95
       44
 96
       40
 40
0.0
 40
0.0
 40
0.0
 40
0.0
 40
1.0
 40
1.0
 40
1.0
 40
2.0
 40
2.0
 40
2.0
 40
3.0
 40
3.0
 40
3.0
 40
4.0
 40
4.0
 40
4.0
 40
5.0
 40
5.0
 40
5.0
 40
6.0
 40
6.0
 40
6.0
 40
7.0
 40
7.0
 40
7.0
 40
8.0
 40
8.0
 40
8.0
 40
9.0
 40
9.0
 40
9.0
 40
10.0
 40
10.0
 40
10.0
 40
11.0
 40
11.0
 40
11.0
 40
12.0
 40
12.0
 40
12.0
 40
13.0
 40
13.0
 40
13.0
 40
13.0
 10
125.8569172862441
 20
-132.8034355679276
 10
125.7587320649145
 20
-133.1715440205265
 10
125.7142903331547
 20
-133.3301906676223
 10
125.5420355588922
 20
-133.5797878355286
 10
125.3811495997311
 20
-133.8104369782661
 10
125.173754851519
 20
-133.9964721344696
 10
124.9291530720663
 20
-134.0896619673456
 10
124.9291530720663
 20
-134.0896619673456
 10
124.7606879028376
 20
-133.9098279830156
 10
124.7606879028376
 20
-133.9098279830156
 10
125.3218939573848
 20
-133.7575547625675
 10
125.6105929590487
 20
-133.2011718416997
 10
125.6660589963612
 20
-132.761060893459
 10
125.6660589963612
 20
-132.761060893459
 10
124.9959879244801
 20
-132.761060893459
 10
124.9959879244801
 20
-132.761060893459
 10
124.9143391614797
 20
-132.761060893459
 10
124.7534532023186
 20
-132.7653672628156
 10
124.6163384020056
 20
-132.7843152879844
 10
124.6163384020056
 20
-132.7843152879844
 10
124.6163384020056
 20
-132.5643459412513
 10
124.6163384020056
 20
-132.5643459412513
 10
124.6921305026811
 20
-132.5855332784855
 10
124.9126166137371
 20
-132.5855332784855
 10
124.9997775295139
 20
-132.5855332784855
 10
124.9997775295139
 20
-132.5855332784855
 10
125.3773599946973
 20
-132.5855332784855
 10
125.3773599946973
 20
-132.5855332784855
 10
125.414567025938
 20
-132.5855332784855
 10
125.6198947168589
 20
-132.5832939664201
 10
125.6533121430658
 20
-132.5770927945467
 10
125.690174664758
 20
-132.570719367899
 10
125.6922417220491
 20
-132.5686523106078
 10
125.7459852116191
 20
-132.5283446934304
 10
125.7459852116191
 20
-132.5283446934304
 10
125.910660775814
 20
-132.6828572259439
 10
125.910660775814
 20
-132.6828572259439
 10
125.8848225596746
 20
-132.712485047117
 10
125.8717311968307
 20
-132.7441799255813
 10
125.8569172862441
 20
-132.8034355679276
 97
        0
 97
        1
330
EB
 75
     2
 76
     1
 98
        1
 10
0.0
 20
0.0
450
        0
451
        0
460
0.0
461
0.0
452
        0
462
0.0
453
        0
470

  0
ENDBLK
  5
DA
330
D7
100
AcDbEntity
  8
0
100
AcDbBlockEnd
  0
ENDSEC
  0
SECTION
  2
ENTITIES
  0
LINE
  5
79
330
70
100
AcDbEntity
  8
レイヤー 1
 62
   250
420
  2299925
370
     9
100
AcDbLine
 10
92.92957696435507
 20
-162.7012646508943
 30
0.0
 11
93.4298158531188
 21
-161.8358654844444
 31
0.0
  0
LINE
  5
7A
330
70
100
AcDbEntity
  8
レイヤー 1
 62
   250
420
  2299925
370
     9
100
AcDbLine
 10
92.56371113111336
 20
-162.3353988176526
 30
0.0
 11
93.4298158531188
 21
-161.8358654844444
 31
0.0
  0
LINE
  5
7B
330
70
100
AcDbEntity
  8
レイヤー 1
 62
   250
420
  2299925
370
     9
100
AcDbLine
 10
86.50212460306763
 20
-168.7634111766011
 30
0.0
 11
93.4298158531188
 21
-161.8358655182786
 31
0.0
  0
LWPOLYLINE
  5
7C
330
70
100
AcDbEntity
  8
レイヤー 1
 62
   250
420
  2299925
370
     9
100
AcDbPolyline
 90
        1
 70
     0
 43
0.0
 10
85.0367033552173
 20
-170.228801593457
  0
LWPOLYLINE
  5
7D
330
70
100
AcDbEntity
  8
レイヤー 1
 62
   250
420
  2299925
370
     9
100
AcDbPolyline
 90
        1
 70
     0
 43
0.0
 10
79.87147224539751
 20
-170.228801593457
  0
SPLINE
  5
7E
330
70
100
AcDbEntity
  8
レイヤー 1
 62
   250
420
  2299925
370
     9
100
AcDbSpline
210
0.0
220
0.0
230
1.0
 70
     9
 71
     3
 72
    17
 73
    13
 74
     0
 42
0.0000000001
 43
0.0000000001
 40
0.0
 40
0.0
 40
0.0
 40
0.0
 40
1.0
 40
1.0
 40
1.0
 40
2.0
 40
2.0
 40
2.0
 40
3.0
 40
3.0
 40
3.0
 40
4.0
 40
4.0
 40
4.0
 40
4.0
 10
130.0366211255201
 20
-170.228801593457
 30
0.0
 10
130.0366211255201
 20
-170.1736977045821
 30
0.0
 10
129.9918536266621
 20
-170.1288949268154
 30
0.0
 10
129.9360441836415
 20
-170.1288949268154
 30
0.0
 10
129.8809050183816
 20
-170.1288949268154
 30
0.0
 10
129.8361375195237
 20
-170.1736977045821
 30
0.0
 10
129.8361375195237
 20
-170.228801593457
 30
0.0
 10
129.8361375195237
 20
-170.2839407601101
 30
0.0
 10
129.8809050183816
 20
-170.3287082600986
 30
0.0
 10
129.9360441836415
 20
-170.3287082600986
 30
0.0
 10
129.9918536266621
 20
-170.3287082600986
 30
0.0
 10
130.0366211255201
 20
-170.2839407601101
 30
0.0
 10
130.0366211255201
 20
-170.228801593457
 30
0.0
  0
SPLINE
  5
7F
330
70
100
AcDbEntity
  8
レイヤー 1
 62
   250
420
  2299925
370
     9
100
AcDbSpline
210
0.0
220
0.0
230
1.0
 70
     9
 71
     3
 72
    17
 73
    13
 74
     0
 42
0.0000000001
 43
0.0000000001
 40
0.0
 40
0.0
 40
0.0
 40
0.0
 40
1.0
 40
1.0
 40
1.0
 40
2.0
 40
2.0
 40
2.0
 40
3.0
 40
3.0
 40
3.0
 40
4.0
 40
4.0
 40
4.0
 40
4.0
 10
89.13689835419182
 20
-170.228801593457
 30
0.0
 10
89.13689835419182
 20
-170.1736977045821
 30
0.0
 10
89.09209557642574
 20
-170.1288949268154
 30
0.0
 10
89.03628613199563
 20
-170.1288949268154
 30
0.0
 10
88.98118224312005
 20
-170.1288949268154
 30
0.0
 10
88.93637946535333
 20
-170.1736977045821
 30
0.0
 10
88.93637946535333
 20
-170.228801593457
 30
0.0
 10
88.93637946535333
 20
-170.2839407601101
 30
0.0
 10
88.98118224312005
 20
-170.3287082600986
 30
0.0
 10
89.03628613199563
 20
-170.3287082600986
 30
0.0
 10
89.09209557642574
 20
-170.3287082600986
 30
0.0
 10
89.13689835419182
 20
-170.2839407601101
 30
0.0
 10
89.13689835419182
 20
-170.228801593457
 30
0.0
  0
SPLINE
  5
80
330
70
100
AcDbEntity
  8
レイヤー 1
 62
   250
420
  2299925
370
     9
100
AcDbSpline
210
0.0
220
0.0
230
1.0
 70
     9
 71
     3
 72
    17
 73
    13
 74
     0
 42
0.0000000001
 43
0.0000000001
 40
0.0
 40
0.0
 40
0.0
 40
0.0
 40
1.0
 40
1.0
 40
1.0
 40
2.0
 40
2.0
 40
2.0
 40
3.0
 40
3.0
 40
3.0
 40
4.0
 40
4.0
 40
4.0
 40
4.0
 10
85.13661002185893
 20
-151.2289498356639
 30
0.0
 10
85.13661002185893
 20
-151.1738106690115
 30
0.0
 10
85.09184252187004
 20
-151.1290431690229
 30
0.0
 10
85.0367033552173
 20
-151.1290431690229
 30
0.0
 10
84.98159946634206
 20
-151.1290431690229
 30
0.0
 10
84.93679668857565
 20
-151.1738106690115
 30
0.0
 10
84.93679668857565
 20
-151.2289498356639
 30
0.0
 10
84.93679668857565
 20
-151.2844065023172
 30
0.0
 10
84.98159946634206
 20
-151.3291740023058
 30
0.0
 10
85.0367033552173
 20
-151.3291740023058
 30
0.0
 10
85.09184252187004
 20
-151.3291740023058
 30
0.0
 10
85.13661002185893
 20
-151.2844065023172
 30
0.0
 10
85.13661002185893
 20
-151.2289498356639
 30
0.0
  0
CIRCLE
  5
81
330
70
100
AcDbEntity
  8
レイヤー 1
 62
   250
420
  2299925
370
     9
100
AcDbCircle
 10
85.0367033552173
 20
-166.2290424277903
 30
0.0
 40
0.0999066666417179
  0
SPLINE
  5
82
330
70
100
AcDbEntity
  8
レイヤー 1
 62
   250
420
  2299925
370
    25
100
AcDbSpline
210
0.0
220
0.0
230
1.0
 70
     8
 71
     3
 72
    20
 73
    16
 74
     0
 42
0.0000000001
 43
0.0000000001
 40
0.0
 40
0.0
 40
0.0
 40
0.0
 40
1.0
 40
1.0
 40
1.0
 40
2.0
 40
2.0
 40
2.0
 40
3.0
 40
3.0
 40
3.0
 40
4.0
 40
4.0
 40
4.0
 40
5.0
 40
5.0
 40
5.0
 40
5.0
 10
89.03652639805528
 20
-151.228908840767
 30
0.0
 10
89.0317829322152
 20
-159.2832996018538
 30
0.0
 10
95.41870568728391
 20
-165.9460922300479
 30
0.0
 10
103.5287842642107
 20
-166.2200818722373
 30
0.0
 10
103.8663925889309
 20
-166.2317940944559
 30
0.0
 10
104.2047064691887
 20
-166.2317940944559
 30
0.0
 10
104.5423147939089
 20
-166.2200818722373
 30
0.0
 10
104.5423147939089
 20
-166.2200818722373
 30
0.0
 10
129.9744138710873
 20
-165.6288968723848
 30
0.0
 10
129.9744138710873
 20
-165.6288968723848
 30
0.0
 10
129.9744138710873
 20
-165.6288968723848
 30
0.0
 10
129.9744138715269
 20
-164.9998646921555
 30
0.0
 10
129.9744138715269
 20
-164.9998646921555
 30
0.0
 10
129.9744138715269
 20
-164.9998646921555
 30
0.0
 10
104.0351977949119
 20
-165.2292702058183
 30
0.0
 10
104.0351977949119
 20
-165.2292702058183
 30
0.0
  0
LWPOLYLINE
  5
83
330
70
100
AcDbEntity
  8
レイヤー 1
 62
   250
420
  2299925
370
    25
100
AcDbPolyline
 90
        1
 70
     0
 43
0.0
 10
90.0367286317452
 20
-151.2291077093184
  0
SPLINE
  5
84
330
70
100
AcDbEntity
  8
レイヤー 1
 62
   250
420
  2299925
370
    25
100
AcDbSpline
210
0.0
220
0.0
230
1.0
 70
     8
 71
     3
 72
     8
 73
     4
 74
     0
 42
0.0000000001
 43
0.0000000001
 40
0.0
 40
0.0
 40
0.0
 40
0.0
 40
1.0
 40
1.0
 40
1.0
 40
1.0
 10
103.0124794480265
 20
-165.192476148434
 30
0.0
 10
96.1171090741319
 20
-164.6945388444551
 30
0.0
 10
90.60572677351073
 20
-159.2015722713881
 30
0.0
 10
90.07810348140429
 20
-152.3135852976882
 30
0.0
  0
LWPOLYLINE
  5
85
330
70
100
AcDbEntity
  8
レイヤー 1
 62
   250
420
  2299925
370
     9
100
AcDbPolyline
 90
        1
 70
     0
 43
0.0
 10
104.0351977949119
 20
-165.2292702058183
  0
INSERT
  5
87
330
70
100
AcDbEntity
  8
レイヤー 1
100
AcDbBlockReference
  2
Block_0
 10
0.0
 20
0.0
 30
0.0
  0
LINE
  5
95
330
70
100
AcDbEntity
  8
レイヤー 1
 62
   250
420
  2299925
370
     9
100
AcDbLine
 10
129.9363794857104
 20
-170.228801593457
 30
0.0
 11
88.93637949596014
 21
-170.228801593457
 31
0.0
  0
LINE
  5
96
330
70
100
AcDbEntity
  8
レイヤー 1
 62
   250
420
  2299925
370
     9
100
AcDbLine
 10
129.9360441836415
 20
-168.1686499273055
 30
0.0
 11
129.9360441836415
 21
-171.2285738154289
 31
0.0
  0
LINE
  5
97
330
70
100
AcDbEntity
  8
レイヤー 1
 62
   250
420
  2299925
370
     9
100
AcDbLine
 10
89.03628613199563
 20
-166.7560825327601
 30
0.0
 11
89.03628613199563
 21
-171.2285739595757
 31
0.0
  0
INSERT
  5
99
330
70
100
AcDbEntity
  8
レイヤー 1
100
AcDbBlockReference
  2
Block_2
 10
0.0
 20
0.0
 30
0.0
  0
LINE
  5
A5
330
70
100
AcDbEntity
  8
レイヤー 1
 62
   250
420
  2299925
370
     9
100
AcDbLine
 10
85.0367033552173
 20
-151.2291078368368
 30
0.0
 11
85.0367033552173
 21
-166.2291078330873
 31
0.0
  0
LINE
  5
A6
330
70
100
AcDbEntity
  8
レイヤー 1
 62
   250
420
  2299925
370
     9
100
AcDbLine
 10
87.09685502136883
 20
-151.2289498356639
 30
0.0
 11
84.03710752213395
 21
-151.2289498356639
 31
0.0
  0
LINE
  5
A7
330
70
100
AcDbEntity
  8
レイヤー 1
 62
   250
420
  2299925
370
     9
100
AcDbLine
 10
88.48946581008107
 20
-166.2290424277901
 30
0.0
 11
84.03710752213395
 21
-166.2290424277901
 31
0.0
  0
INSERT
  5
A9
330
70
100
AcDbEntity
  8
レイヤー 1
100
AcDbBlockReference
  2
Block_4
 10
0.0
 20
0.0
 30
0.0
  0
LWPOLYLINE
  5
B4
330
70
100
AcDbEntity
  8
レイヤー 1
 62
   250
420
  2299925
370
    25
100
AcDbPolyline
 90
        6
 70
     0
 43
0.0
 10
104.0351977949119
 20
-166.2200818722373
 10
89.03652375760524
 20
-151.2291079031051
 10
89.63643168097595
 20
-125.3881286700654
 10
90.23643168082582
 20
-125.3881286700654
 10
90.0367286317452
 20
-151.2291077093184
 10
104.0351977949119
 20
-165.2292702058183
  0
LINE
  5
B5
330
70
100
AcDbEntity
  8
レイヤー 1
 62
   250
420
  2299925
370
     9
100
AcDbLine
 10
92.0502800920606
 20
-155.3022421429316
 30
0.0
 11
91.5500412032186
 21
-156.1676413093366
 31
0.0
  0
LINE
  5
B6
330
70
100
AcDbEntity
  8
レイヤー 1
 62
   250
420
  2299925
370
     9
100
AcDbLine
 10
92.41614592526927
 20
-155.6681079762061
 30
0.0
 11
91.5500412032186
 21
-156.1676413093366
 31
0.0
  0
LINE
  5
B7
330
70
100
AcDbEntity
  8
レイヤー 1
 62
   250
420
  2299925
370
     9
100
AcDbLine
 10
98.47773245389223
 20
-149.2400956178017
 30
0.0
 11
91.5500412032186
 21
-156.1676412755011
 31
0.0
  0
INSERT
  5
B9
330
70
100
AcDbEntity
  8
レイヤー 1
100
AcDbBlockReference
  2
Block_6
 10
0.0
 20
0.0
 30
0.0
  0
LINE
  5
CE
330
70
100
AcDbEntity
  8
レイヤー 1
  6
AI-Linetype-0
 62
   154
420
    23468
370
    25
100
AcDbLine
 10
114.8367586890279
 20
-164.5916634103756
 30
0.0
 11
129.8361387104504
 21
-164.5916634103756
 31
0.0
  0
LINE
  5
D0
330
70
100
AcDbEntity
  8
レイヤー 1
 62
   250
420
  2299925
370
     9
100
AcDbLine
 10
121.880717802299
 20
-163.2629711468151
 30
0.0
 11
122.1390922401517
 21
-162.2969597825712
 31
0.0
  0
LINE
  5
D1
330
70
100
AcDbEntity
  8
レイヤー 1
 62
   250
420
  2299925
370
     9
100
AcDbLine
 10
121.880717802299
 20
-163.0474166063423
 30
0.0
 11
121.880717802299
 21
-134.6842841538287
 31
0.0
  0
LINE
  5
D2
330
70
100
AcDbEntity
  8
レイヤー 1
 62
   250
420
  2299925
370
     9
100
AcDbLine
 10
121.880717802299
 20
-163.2629711468151
 30
0.0
 11
121.6216378089086
 21
-162.2969597825712
 31
0.0
  0
INSERT
  5
D4
330
70
100
AcDbEntity
  8
レイヤー 1
100
AcDbBlockReference
  2
Block_8
 10
0.0
 20
0.0
 30
0.0
  0
LINE
  5
ED
330
70
100
AcDbEntity
  8
レイヤー 1
  6
AI-Linetype-1
 62
   154
420
    23468
370
    25
100
AcDbLine
 10
90.6157520880566
 20
-140.3875085417638
 30
0.0
 11
90.61575208850578
 21
-125.3881285203413
 31
0.0
  0
LINE
  5
EF
330
70
100
AcDbEntity
  8
レイヤー 1
 62
   250
420
  2299925
370
     9
100
AcDbLine
 10
91.8001617833112
 20
-133.2859228290909
 30
0.0
 11
92.70361838478303
 21
-133.5442972669006
 31
0.0
  0
LINE
  5
F0
330
70
100
AcDbEntity
  8
レイヤー 1
 62
   250
420
  2299925
370
     9
100
AcDbLine
 10
91.80017747214844
 20
-133.2859262646958
 30
0.0
 11
116.0563112878808
 21
-133.2859262636194
 31
0.0
  0
LINE
  5
F1
330
70
100
AcDbEntity
  8
レイヤー 1
 62
   250
420
  2299925
370
     9
100
AcDbLine
 10
91.8001617833112
 20
-133.2859228290909
 30
0.0
 11
92.70361838476089
 21
-133.0268428356575
 31
0.0
  0
ENDSEC
  0
SECTION
  2
OBJECTS
  0
DICTIONARY
  5
C
330
0
100
AcDbDictionary
281
     1
  3
ACAD_COLOR
350
63
  3
ACAD_DETAILVIEWSTYLE
350
6A
  3
ACAD_GROUP
350
D
  3
ACAD_LAYOUT
350
62
  3
ACAD_MATERIAL
350
10
  3
ACAD_MLEADERSTYLE
350
66
  3
ACAD_MLINESTYLE
350
5F
  3
ACAD_PLOTSETTINGS
350
61
  3
ACAD_PLOTSTYLENAME
350
E
  3
ACAD_SCALELIST
350
42
  3
ACAD_SECTIONVIEWSTYLE
350
68
  3
ACAD_TABLESTYLE
350
64
  3
ACAD_VISUALSTYLE
350
29
  3
ACDB_RECOMPOSE_DATA
350
FA
  3
AcDbVariableDictionary
350
F2
  0
DICTIONARY
  5
63
102
{ACAD_REACTORS
330
C
102
}
330
C
100
AcDbDictionary
281
     1
  0
DICTIONARY
  5
6A
102
{ACAD_REACTORS
330
C
102
}
330
C
100
AcDbDictionary
281
     1
  3
Imperial24
350
6B
  0
DICTIONARY
  5
D
102
{ACAD_REACTORS
330
C
102
}
330
C
100
AcDbDictionary
281
     1
  0
DICTIONARY
  5
62
102
{ACAD_REACTORS
330
C
102
}
330
C
100
AcDbDictionary
281
     1
  3
Layout1
350
6F
  3
Layout2
350
77
  3
Model
350
73
  0
DICTIONARY
  5
10
102
{ACAD_REACTORS
330
C
102
}
330
C
100
AcDbDictionary
281
     1
  3
ByBlock
350
19
  3
ByLayer
350
11
  3
Global
350
21
  0
DICTIONARY
  5
66
102
{ACAD_REACTORS
330
C
102
}
330
C
100
AcDbDictionary
281
     1
  3
Standard
350
67
  0
DICTIONARY
  5
5F
102
{ACAD_REACTORS
330
C
102
}
330
C
100
AcDbDictionary
281
     1
  3
Standard
350
60
  0
DICTIONARY
  5
61
102
{ACAD_REACTORS
330
C
102
}
330
C
100
AcDbDictionary
281
     1
  0
ACDBDICTIONARYWDFLT
  5
E
102
{ACAD_REACTORS
330
C
102
}
330
C
100
AcDbDictionary
281
     1
  3
Normal
350
F
100
AcDbDictionaryWithDefault
340
F
  0
DICTIONARY
  5
42
102
{ACAD_REACTORS
330
C
102
}
330
C
100
AcDbDictionary
281
     1
  3
A0
350
43
  3
A1
350
44
  3
A2
350
45
  3
A3
350
46
  3
A4
350
47
  3
A5
350
48
  3
A6
350
49
  3
A7
350
4A
  3
A8
350
4B
  3
A9
350
4C
  3
B0
350
4D
  3
B1
350
4E
  3
B2
350
4F
  3
B3
350
50
  3
B4
350
51
  3
B5
350
52
  3
B6
350
53
  0
DICTIONARY
  5
68
102
{ACAD_REACTORS
330
C
102
}
330
C
100
AcDbDictionary
281
     1
  3
Imperial24
350
69
  0
DICTIONARY
  5
64
102
{ACAD_REACTORS
330
C
102
}
330
C
100
AcDbDictionary
281
     1
  3
Standard
350
65
  0
DICTIONARY
  5
29
102
{ACAD_REACTORS
330
C
102
}
330
C
100
AcDbDictionary
281
     1
  3
2dWireframe
350
2F
  3
Basic
350
2E
  3
Brighten
350
35
  3
ColorChange
350
39
  3
Conceptual
350
32
  3
Dim
350
34
  3
EdgeColorOff
350
41
  3
Facepattern
350
38
  3
Flat
350
2A
  3
FlatWithEdges
350
2B
  3
Gouraud
350
2C
  3
GouraudWithEdges
350
2D
  3
Hidden
350
31
  3
JitterOff
350
3F
  3
Linepattern
350
37
  3
OverhangOff
350
40
  3
Realistic
350
33
  3
Shaded
350
3E
  3
Shaded with edges
350
3D
  3
Shades of Gray
350
3A
  3
Sketchy
350
3B
  3
Thicken
350
36
  3
Wireframe
350
30
  3
X-Ray
350
3C
  0
XRECORD
  5
FA
102
{ACAD_REACTORS
330
C
102
}
330
C
100
AcDbXrecord
280
     1
 90
        1
330
65
  0
DICTIONARY
  5
F2
102
{ACAD_REACTORS
330
C
102
}
330
C
100
AcDbDictionary
281
     1
  3
CANNOSCALE
350
F7
  3
CMLEADERSTYLE
350
F4
  3
CTABLESTYLE
350
F3
  3
CVIEWDETAILSTYLE
350
F5
  3
CVIEWSECTIONSTYLE
350
F6
  0
ACDBDETAILVIEWSTYLE
  5
6B
102
{ACAD_XDICTIONARY
360
12F
102
}
102
{ACAD_REACTORS
330
6A
102
}
330
6A
100
AcDbModelDocViewStyle
 70
     0
  3
Imperial24
290
     0
100
AcDbDetailViewStyle
 70
     0
 71
     0
 90
        3
 71
     1
340
55
 62
   256
 40
0.24
340
0
 62
   256
 40
0.24
300

 40
0.36
280
     3
 71
     2
340
5D
 90
       25
 62
   256
 71
     3
340
55
 62
   256
 40
0.24
 90
        1
 40
0.75
 90
        1
300
%<\AcVar ViewType \f "%tc1">% %<\AcVar ViewDetailId>%\PSCALE %<\AcVar ViewScale \f "%sn">%
 71
     4
340
5D
 90
       25
 62
   256
340
5D
 90
       25
 62
   256
280
     0
  0
LAYOUT
  5
6F
102
{ACAD_REACTORS
330
62
102
}
330
62
100
AcDbPlotSettings
  1

  2

  4

  6

 40
0.0
 41
0.0
 42
0.0
 43
0.0
 44
0.0
 45
0.0
 46
0.0
 47
0.0
 48
0.0
 49
0.0
140
0.0
141
0.0
142
1.0
143
1.0
 70
   688
 72
     0
 73
     0
 74
     5
  7

 75
    16
147
1.0
 76
     0
 77
     2
 78
   300
148
0.0
149
0.0
100
AcDbLayout
  1
Layout1
 70
     1
 71
     1
 10
0.0
 20
0.0
 11
12.0
 21
9.0
 12
0.0
 22
0.0
 32
0.0
 14
0.0
 24
0.0
 34
0.0
 15
0.0
 25
0.0
 35
0.0
146
0.0
 13
0.0
 23
0.0
 33
0.0
 16
1.0
 26
0.0
 36
0.0
 17
0.0
 27
1.0
 37
0.0
 76
     0
330
6C
  0
LAYOUT
  5
77
102
{ACAD_REACTORS
330
62
102
}
330
62
100
AcDbPlotSettings
  1

  2

  4

  6

 40
0.0
 41
0.0
 42
0.0
 43
0.0
 44
0.0
 45
0.0
 46
0.0
 47
0.0
 48
0.0
 49
0.0
140
0.0
141
0.0
142
1.0
143
1.0
 70
   688
 72
     0
 73
     0
 74
     5
  7

 75
    16
147
1.0
 76
     0
 77
     2
 78
   300
148
0.0
149
0.0
100
AcDbLayout
  1
Layout2
 70
     1
 71
     2
 10
0.0
 20
0.0
 11
12.0
 21
9.0
 12
0.0
 22
0.0
 32
0.0
 14
0.0
 24
0.0
 34
0.0
 15
0.0
 25
0.0
 35
0.0
146
0.0
 13
0.0
 23
0.0
 33
0.0
 16
1.0
 26
0.0
 36
0.0
 17
0.0
 27
1.0
 37
0.0
 76
     0
330
74
  0
LAYOUT
  5
73
102
{ACAD_REACTORS
330
62
102
}
330
62
100
AcDbPlotSettings
  1

  2

  4

  6

 40
0.0
 41
0.0
 42
0.0
 43
0.0
 44
0.0
 45
0.0
 46
0.0
 47
0.0
 48
0.0
 49
0.0
140
0.0
141
0.0
142
1.0
143
1.0
 70
  1712
 72
     0
 73
     0
 74
     0
  7

 75
     0
147
1.0
 76
     0
 77
     2
 78
   300
148
0.0
149
0.0
100
AcDbLayout
  1
Model
 70
     1
 71
     0
 10
0.0
 20
0.0
 11
12.0
 21
9.0
 12
0.0
 22
0.0
 32
0.0
 14
0.0
 24
0.0
 34
0.0
 15
0.0
 25
0.0
 35
0.0
146
0.0
 13
0.0
 23
0.0
 33
0.0
 16
1.0
 26
0.0
 36
0.0
 17
0.0
 27
1.0
 37
0.0
 76
     0
330
70
  0
MATERIAL
  5
19
102
{ACAD_XDICTIONARY
360
1A
102
}
102
{ACAD_REACTORS
330
10
102
}
330
10
100
AcDbMaterial
  1
ByBlock
 72
     0
 43
0.0208333333333333
 43
0.0
 43
0.0
 43
0.0
 43
0.0
 43
0.0208333333333333
 43
0.0
 43
0.0
 43
0.0
 43
0.0
 43
1.0
 43
0.0
 43
0.0
 43
0.0
 43
0.0
 43
1.0
 77
     0
 47
0.0208333333333333
 47
0.0
 47
0.0
 47
0.0
 47
0.0
 47
0.0208333333333333
 47
0.0
 47
0.0
 47
0.0
 47
0.0
 47
1.0
 47
0.0
 47
0.0
 47
0.0
 47
0.0
 47
1.0
171
     0
 49
0.0208333333333333
 49
0.0
 49
0.0
 49
0.0
 49
0.0
 49
0.0208333333333333
 49
0.0
 49
0.0
 49
0.0
 49
0.0
 49
1.0
 49
0.0
 49
0.0
 49
0.0
 49
0.0
 49
1.0
175
     0
142
0.0208333333333333
142
0.0
142
0.0
142
0.0
142
0.0
142
0.0208333333333333
142
0.0
142
0.0
142
0.0
142
0.0
142
1.0
142
0.0
142
0.0
142
0.0
142
0.0
142
1.0
179
     0
144
0.0208333333333333
144
0.0
144
0.0
144
0.0
144
0.0
144
0.0208333333333333
144
0.0
144
0.0
144
0.0
144
0.0
144
1.0
144
0.0
144
0.0
144
0.0
144
0.0
144
1.0
147
0.0208333333333333
147
0.0
147
0.0
147
0.0
147
0.0
147
0.0208333333333333
147
0.0
147
0.0
147
0.0
147
0.0
147
1.0
147
0.0
147
0.0
147
0.0
147
0.0
147
1.0
  0
MATERIAL
  5
11
102
{ACAD_XDICTIONARY
360
12
102
}
102
{ACAD_REACTORS
330
10
102
}
330
10
100
AcDbMaterial
  1
ByLayer
 72
     0
 43
0.0208333333333333
 43
0.0
 43
0.0
 43
0.0
 43
0.0
 43
0.0208333333333333
 43
0.0
 43
0.0
 43
0.0
 43
0.0
 43
1.0
 43
0.0
 43
0.0
 43
0.0
 43
0.0
 43
1.0
 77
     0
 47
0.0208333333333333
 47
0.0
 47
0.0
 47
0.0
 47
0.0
 47
0.0208333333333333
 47
0.0
 47
0.0
 47
0.0
 47
0.0
 47
1.0
 47
0.0
 47
0.0
 47
0.0
 47
0.0
 47
1.0
171
     0
 49
0.0208333333333333
 49
0.0
 49
0.0
 49
0.0
 49
0.0
 49
0.0208333333333333
 49
0.0
 49
0.0
 49
0.0
 49
0.0
 49
1.0
 49
0.0
 49
0.0
 49
0.0
 49
0.0
 49
1.0
175
     0
142
0.0208333333333333
142
0.0
142
0.0
142
0.0
142
0.0
142
0.0208333333333333
142
0.0
142
0.0
142
0.0
142
0.0
142
1.0
142
0.0
142
0.0
142
0.0
142
0.0
142
1.0
179
     0
144
0.0208333333333333
144
0.0
144
0.0
144
0.0
144
0.0
144
0.0208333333333333
144
0.0
144
0.0
144
0.0
144
0.0
144
1.0
144
0.0
144
0.0
144
0.0
144
0.0
144
1.0
147
0.0208333333333333
147
0.0
147
0.0
147
0.0
147
0.0
147
0.0208333333333333
147
0.0
147
0.0
147
0.0
147
0.0
147
1.0
147
0.0
147
0.0
147
0.0
147
0.0
147
1.0
  0
MATERIAL
  5
21
102
{ACAD_XDICTIONARY
360
22
102
}
102
{ACAD_REACTORS
330
10
102
}
330
10
100
AcDbMaterial
  1
Global
 72
     0
 43
0.0208333333333333
 43
0.0
 43
0.0
 43
0.0
 43
0.0
 43
0.0208333333333333
 43
0.0
 43
0.0
 43
0.0
 43
0.0
 43
1.0
 43
0.0
 43
0.0
 43
0.0
 43
0.0
 43
1.0
 77
     0
 47
0.0208333333333333
 47
0.0
 47
0.0
 47
0.0
 47
0.0
 47
0.0208333333333333
 47
0.0
 47
0.0
 47
0.0
 47
0.0
 47
1.0
 47
0.0
 47
0.0
 47
0.0
 47
0.0
 47
1.0
171
     0
 49
0.0208333333333333
 49
0.0
 49
0.0
 49
0.0
 49
0.0
 49
0.0208333333333333
 49
0.0
 49
0.0
 49
0.0
 49
0.0
 49
1.0
 49
0.0
 49
0.0
 49
0.0
 49
0.0
 49
1.0
175
     0
142
0.0208333333333333
142
0.0
142
0.0
142
0.0
142
0.0
142
0.0208333333333333
142
0.0
142
0.0
142
0.0
142
0.0
142
1.0
142
0.0
142
0.0
142
0.0
142
0.0
142
1.0
179
     0
144
0.0208333333333333
144
0.0
144
0.0
144
0.0
144
0.0
144
0.0208333333333333
144
0.0
144
0.0
144
0.0
144
0.0
144
1.0
144
0.0
144
0.0
144
0.0
144
0.0
144
1.0
147
0.0208333333333333
147
0.0
147
0.0
147
0.0
147
0.0
147
0.0208333333333333
147
0.0
147
0.0
147
0.0
147
0.0
147
1.0
147
0.0
147
0.0
147
0.0
147
0.0
147
1.0
  0
MLEADERSTYLE
  5
67
102
{ACAD_XDICTIONARY
360
12B
102
}
102
{ACAD_REACTORS
330
66
102
}
330
66
100
AcDbMLeaderStyle
179
     2
170
     2
171
     1
172
     0
 90
        2
 40
0.0
 41
0.0
173
     1
 91
-1056964608
340
5B
 92
       -2
290
     1
 42
0.09
291
     1
 43
0.36
  3
Standard
 44
0.18
300

342
55
174
     1
178
     6
175
     1
176
     0
 93
-1056964608
 45
0.18
292
     0
297
     0
 46
0.18
 94
-1056964608
 47
1.0
 49
1.0
140
1.0
293
     1
141
0.0
294
     1
177
     0
142
1.0
295
     0
296
     0
143
0.125
271
     0
272
     9
273
     9
  0
MLINESTYLE
  5
60
102
{ACAD_REACTORS
330
5F
102
}
330
5F
100
AcDbMlineStyle
  2
STANDARD
 70
     0
  3

 62
   256
 51
90.0
 52
90.0
 71
     2
 49
0.5
 62
   256
  6
BYLAYER
 49
-0.5
 62
   256
  6
BYLAYER
  0
ACDBPLACEHOLDER
  5
F
102
{ACAD_REACTORS
330
E
102
}
330
E
  0
SCALE
  5
43
102
{ACAD_REACTORS
330
42
102
}
330
42
100
AcDbScale
 70
     0
300
1:1
140
1.0
141
1.0
290
     1
  0
SCALE
  5
44
102
{ACAD_REACTORS
330
42
102
}
330
42
100
AcDbScale
 70
     0
300
1/128" = 1'-0"
140
0.0078125
141
12.0
290
     0
  0
SCALE
  5
45
102
{ACAD_REACTORS
330
42
102
}
330
42
100
AcDbScale
 70
     0
300
1/64" = 1'-0"
140
0.015625
141
12.0
290
     0
  0
SCALE
  5
46
102
{ACAD_REACTORS
330
42
102
}
330
42
100
AcDbScale
 70
     0
300
1/32" = 1'-0"
140
0.03125
141
12.0
290
     0
  0
SCALE
  5
47
102
{ACAD_REACTORS
330
42
102
}
330
42
100
AcDbScale
 70
     0
300
1/16" = 1'-0"
140
0.0625
141
12.0
290
     0
  0
SCALE
  5
48
102
{ACAD_REACTORS
330
42
102
}
330
42
100
AcDbScale
 70
     0
300
3/32" = 1'-0"
140
0.09375
141
12.0
290
     0
  0
SCALE
  5
49
102
{ACAD_REACTORS
330
42
102
}
330
42
100
AcDbScale
 70
     0
300
1/8" = 1'-0"
140
0.125
141
12.0
290
     0
  0
SCALE
  5
4A
102
{ACAD_REACTORS
330
42
102
}
330
42
100
AcDbScale
 70
     0
300
3/16" = 1'-0"
140
0.1875
141
12.0
290
     0
  0
SCALE
  5
4B
102
{ACAD_REACTORS
330
42
102
}
330
42
100
AcDbScale
 70
     0
300
1/4" = 1'-0"
140
0.25
141
12.0
290
     0
  0
SCALE
  5
4C
102
{ACAD_REACTORS
330
42
102
}
330
42
100
AcDbScale
 70
     0
300
3/8" = 1'-0"
140
0.375
141
12.0
290
     0
  0
SCALE
  5
4D
102
{ACAD_REACTORS
330
42
102
}
330
42
100
AcDbScale
 70
     0
300
1/2" = 1'-0"
140
0.5
141
12.0
290
     0
  0
SCALE
  5
4E
102
{ACAD_REACTORS
330
42
102
}
330
42
100
AcDbScale
 70
     0
300
3/4" = 1'-0"
140
0.75
141
12.0
290
     0
  0
SCALE
  5
4F
102
{ACAD_REACTORS
330
42
102
}
330
42
100
AcDbScale
 70
     0
300
1" = 1'-0"
140
1.0
141
12.0
290
     0
  0
SCALE
  5
50
102
{ACAD_REACTORS
330
42
102
}
330
42
100
AcDbScale
 70
     0
300
1-1/2" = 1'-0"
140
1.5
141
12.0
290
     0
  0
SCALE
  5
51
102
{ACAD_REACTORS
330
42
102
}
330
42
100
AcDbScale
 70
     0
300
3" = 1'-0"
140
3.0
141
12.0
290
     0
  0
SCALE
  5
52
102
{ACAD_REACTORS
330
42
102
}
330
42
100
AcDbScale
 70
     0
300
6" = 1'-0"
140
6.0
141
12.0
290
     0
  0
SCALE
  5
53
102
{ACAD_REACTORS
330
42
102
}
330
42
100
AcDbScale
 70
     0
300
1'-0" = 1'-0"
140
12.0
141
12.0
290
     0
  0
ACDBSECTIONVIEWSTYLE
  5
69
102
{ACAD_XDICTIONARY
360
12D
102
}
102
{ACAD_REACTORS
330
68
102
}
330
68
100
AcDbModelDocViewStyle
 70
     0
  3
Imperial24
290
     0
100
AcDbSectionViewStyle
 70
     0
 71
     0
 90
       78
 71
     1
340
55
 62
   256
 40
0.24
340
0
340
0
 62
   256
 40
0.24
300
I, O, Q, S, X, Z
 40
0.48
 90
        3
 40
0.18
 90
        1
 71
     2
340
5D
 90
       25
 62
   256
340
5D
 90
       50
 62
   256
 40
0.24
 40
0.0
 40
0.24
 71
     3
340
55
 62
   256
 40
0.24
 90
        1
 40
0.75
 90
        1
300
%<\AcVar ViewType \f "%tc1">% %<\AcVar ViewSectionStartId>%-%<\AcVar ViewSectionEndId>%\PSCALE %<\AcVar ViewScale \f "%sn">%
 71
     4
 62
   256
 62
   257
300
ANSI31
 40
1.0
 90
        0
290
     0
290
     0
 90
        6
 40
0.0
 40
1.570796326794896
 40
0.2617993877991494
 40
1.308996938995747
 40
-0.2617993877991494
 40
1.832595714594046
  0
TABLESTYLE
  5
65
102
{ACAD_XDICTIONARY
360
F8
102
}
102
{ACAD_REACTORS
330
64
102
}
330
64
100
AcDbTableStyle
280
     0
  3
Standard
 70
     0
 71
     0
 40
0.06
 41
0.06
280
     0
281
     0
  7
Standard
140
0.18
170
     2
 62
     0
 63
     7
283
     0
 90
      512
 91
        0
  1

274
    -2
284
     1
 64
     0
275
    -2
285
     1
 65
     0
276
    -2
286
     1
 66
     0
277
    -2
287
     1
 67
     0
278
    -2
288
     1
 68
     0
279
    -2
289
     1
 69
     0
  7
Standard
140
0.25
170
     5
 62
     0
 63
     7
283
     0
 90
      512
 91
        0
  1

274
    -2
284
     1
 64
     0
275
    -2
285
     1
 65
     0
276
    -2
286
     1
 66
     0
277
    -2
287
     1
 67
     0
278
    -2
288
     1
 68
     0
279
    -2
289
     1
 69
     0
  7
Standard
140
0.18
170
     5
 62
     0
 63
     7
283
     0
 90
      512
 91
        0
  1

274
    -2
284
     1
 64
     0
275
    -2
285
     1
 65
     0
276
    -2
286
     1
 66
     0
277
    -2
287
     1
 67
     0
278
    -2
288
     1
 68
     0
279
    -2
289
     1
 69
     0
  0
VISUALSTYLE
  5
2F
102
{ACAD_XDICTIONARY
360
105
102
}
102
{ACAD_REACTORS
330
29
102
}
330
29
100
AcDbVisualStyle
  2
2dWireframe
 70
     4
177
     2
291
     0
 71
     0
176
     1
 72
     2
176
     1
 73
     0
176
     1
 90
        0
176
     1
 40
0.6
176
     1
 41
30.0
176
     1
 63
     7
421
 16777215
176
     1
 74
     1
176
     1
 91
        4
176
     1
 64
     7
176
     1
 65
   257
176
     1
 75
     1
176
     1
175
     1
176
     1
 42
1.0
176
     1
 92
        0
176
     1
 66
   257
176
     1
 43
1.0
176
     1
 76
     1
176
     1
 77
     6
176
     1
 78
     2
176
     1
 67
     7
176
     1
 79
     5
176
     1
170
     0
176
     1
171
     0
176
     1
290
     0
176
     1
 93
        1
176
     1
 44
0.0
176
     1
173
     0
176
     1
1001
ACAD
1000
AcDbSavedByObjectVersion
1070
     0
  0
VISUALSTYLE
  5
2E
102
{ACAD_XDICTIONARY
360
103
102
}
102
{ACAD_REACTORS
330
29
102
}
330
29
100
AcDbVisualStyle
  2
Basic
 70
     7
177
     2
291
     1
 71
     1
176
     1
 72
     0
176
     1
 73
     1
176
     1
 90
        0
176
     1
 40
0.6
176
     1
 41
30.0
176
     1
 63
     7
421
 16777215
176
     1
 74
     0
176
     1
 91
        4
176
     1
 64
     7
176
     1
 65
   257
176
     1
 75
     1
176
     1
175
     1
176
     1
 42
1.0
176
     1
 92
        8
176
     1
 66
     7
176
     1
 43
1.0
176
     1
 76
     1
176
     1
 77
     6
176
     1
 78
     2
176
     1
 67
     7
176
     1
 79
     5
176
     1
170
     0
176
     1
171
     0
176
     1
290
     0
176
     1
 93
        1
176
     1
 44
0.0
176
     1
173
     0
176
     1
1001
ACAD
1000
AcDbSavedByObjectVersion
1070
     0
  0
VISUALSTYLE
  5
35
102
{ACAD_XDICTIONARY
360
111
102
}
102
{ACAD_REACTORS
330
29
102
}
330
29
100
AcDbVisualStyle
  2
Brighten
 70
    12
177
     2
291
     1
 71
     2
176
     1
 72
     2
176
     1
 73
     0
176
     1
 90
        0
176
     1
 40
0.6
176
     1
 41
30.0
176
     1
 63
     7
421
 16777215
176
     1
 74
     1
176
     1
 91
        4
176
     1
 64
     7
176
     1
 65
   257
176
     1
 75
     1
176
     1
175
     1
176
     1
 42
1.0
176
     1
 92
        8
176
     1
 66
     7
176
     1
 43
1.0
176
     1
 76
     1
176
     1
 77
     6
176
     1
 78
     2
176
     1
 67
     7
176
     1
 79
     5
176
     1
170
     0
176
     1
171
     0
176
     1
290
     0
176
     1
 93
        1
176
     1
 44
50.0
176
     1
173
     0
176
     1
1001
ACAD
1000
AcDbSavedByObjectVersion
1070
     0
  0
VISUALSTYLE
  5
39
102
{ACAD_XDICTIONARY
360
119
102
}
102
{ACAD_REACTORS
330
29
102
}
330
29
100
AcDbVisualStyle
  2
ColorChange
 70
    16
177
     2
291
     1
 71
     2
176
     1
 72
     2
176
     1
 73
     3
176
     1
 90
        0
176
     1
 40
0.6
176
     1
 41
30.0
176
     1
 63
     8
421
  8421504
176
     1
 74
     1
176
     1
 91
        4
176
     1
 64
     7
176
     1
 65
   257
176
     1
 75
     1
176
     1
175
     1
176
     1
 42
1.0
176
     1
 92
        8
176
     1
 66
     8
424
  8421504
176
     1
 43
1.0
176
     1
 76
     1
176
     1
 77
     6
176
     1
 78
     2
176
     1
 67
     7
176
     1
 79
     5
176
     1
170
     0
176
     1
171
     0
176
     1
290
     0
176
     1
 93
        1
176
     1
 44
0.0
176
     1
173
     0
176
     1
1001
ACAD
1000
AcDbSavedByObjectVersion
1070
     0
  0
VISUALSTYLE
  5
32
102
{ACAD_XDICTIONARY
360
10B
102
}
102
{ACAD_REACTORS
330
29
102
}
330
29
100
AcDbVisualStyle
  2
Conceptual
 70
     9
177
     2
291
     0
 71
     3
176
     1
 72
     2
176
     1
 73
     0
176
     1
 90
        0
176
     1
 40
0.6
176
     1
 41
30.0
176
     1
 63
     7
421
 16777215
176
     1
 74
     2
176
     1
 91
        2
176
     1
 64
     7
176
     1
 65
   257
176
     1
 75
     1
176
     1
175
     1
176
     1
 42
179.0
176
     1
 92
        8
176
     1
 66
     7
176
     1
 43
1.0
176
     1
 76
     1
176
     1
 77
     6
176
     1
 78
     2
176
     1
 67
     7
176
     1
 79
     3
176
     1
170
     0
176
     1
171
     0
176
     1
290
     0
176
     1
 93
        1
176
     1
 44
0.0
176
     1
173
     0
176
     1
1001
ACAD
1000
AcDbSavedByObjectVersion
1070
     0
  0
VISUALSTYLE
  5
34
102
{ACAD_XDICTIONARY
360
10F
102
}
102
{ACAD_REACTORS
330
29
102
}
330
29
100
AcDbVisualStyle
  2
Dim
 70
    11
177
     2
291
     1
 71
     2
176
     1
 72
     2
176
     1
 73
     0
176
     1
 90
        0
176
     1
 40
0.6
176
     1
 41
30.0
176
     1
 63
     7
421
 16777215
176
     1
 74
     1
176
     1
 91
        4
176
     1
 64
     7
176
     1
 65
   257
176
     1
 75
     1
176
     1
175
     1
176
     1
 42
1.0
176
     1
 92
        8
176
     1
 66
     7
176
     1
 43
1.0
176
     1
 76
     1
176
     1
 77
     6
176
     1
 78
     2
176
     1
 67
     7
176
     1
 79
     5
176
     1
170
     0
176
     1
171
     0
176
     1
290
     0
176
     1
 93
        1
176
     1
 44
-50.0
176
     1
173
     0
176
     1
1001
ACAD
1000
AcDbSavedByObjectVersion
1070
     0
  0
VISUALSTYLE
  5
41
102
{ACAD_XDICTIONARY
360
129
102
}
102
{ACAD_REACTORS
330
29
102
}
330
29
100
AcDbVisualStyle
  2
EdgeColorOff
 70
    22
177
     2
291
     1
 71
     2
176
     0
 72
     2
176
     0
 73
     0
176
     0
 90
        0
176
     0
 40
0.6
176
     0
 41
30.0
176
     0
 63
     7
421
 16777215
176
     0
 74
     1
176
     0
 91
        4
176
     0
 64
     7
176
     0
 65
   257
176
     0
 75
     1
176
     0
175
     1
176
     0
 42
1.0
176
     0
 92
        8
176
     2
 66
     7
176
     0
 43
1.0
176
     0
 76
     1
176
     0
 77
     6
176
     0
 78
     2
176
     0
 67
     7
176
     0
 79
     5
176
     0
170
     0
176
     0
171
     0
176
     0
290
     0
176
     0
 93
        1
176
     0
 44
0.0
176
     0
173
     0
176
     0
1001
ACAD
1000
AcDbSavedByObjectVersion
1070
     0
  0
VISUALSTYLE
  5
38
102
{ACAD_XDICTIONARY
360
117
102
}
102
{ACAD_REACTORS
330
29
102
}
330
29
100
AcDbVisualStyle
  2
Facepattern
 70
    15
177
     2
291
     1
 71
     2
176
     1
 72
     2
176
     1
 73
     0
176
     1
 90
        0
176
     1
 40
0.6
176
     1
 41
30.0
176
     1
 63
     7
421
 16777215
176
     1
 74
     1
176
     1
 91
        4
176
     1
 64
     7
176
     1
 65
   257
176
     1
 75
     1
176
     1
175
     1
176
     1
 42
1.0
176
     1
 92
        8
176
     1
 66
     7
176
     1
 43
1.0
176
     1
 76
     1
176
     1
 77
     6
176
     1
 78
     2
176
     1
 67
     7
176
     1
 79
     5
176
     1
170
     0
176
     1
171
     0
176
     1
290
     0
176
     1
 93
        1
176
     1
 44
0.0
176
     1
173
     0
176
     1
1001
ACAD
1000
AcDbSavedByObjectVersion
1070
     0
  0
VISUALSTYLE
  5
2A
102
{ACAD_XDICTIONARY
360
FB
102
}
102
{ACAD_REACTORS
330
29
102
}
330
29
100
AcDbVisualStyle
  2
Flat
 70
     0
177
     2
291
     1
 71
     2
176
     1
 72
     1
176
     1
 73
     1
176
     1
 90
        2
176
     1
 40
0.6
176
     1
 41
30.0
176
     1
 63
     7
421
 16777215
176
     1
 74
     0
176
     1
 91
        0
176
     1
 64
     7
176
     1
 65
   257
176
     1
 75
     1
176
     1
175
     1
176
     1
 42
1.0
176
     1
 92
        8
176
     1
 66
     7
176
     1
 43
1.0
176
     1
 76
     1
176
     1
 77
     6
176
     1
 78
     2
176
     1
 67
     7
176
     1
 79
     5
176
     1
170
     0
176
     1
171
     0
176
     1
290
     0
176
     1
 93
       13
176
     1
 44
0.0
176
     1
173
     0
176
     1
1001
ACAD
1000
AcDbSavedByObjectVersion
1070
     0
  0
VISUALSTYLE
  5
2B
102
{ACAD_XDICTIONARY
360
FD
102
}
102
{ACAD_REACTORS
330
29
102
}
330
29
100
AcDbVisualStyle
  2
FlatWithEdges
 70
     1
177
     2
291
     1
 71
     2
176
     1
 72
     1
176
     1
 73
     1
176
     1
 90
        2
176
     1
 40
0.6
176
     1
 41
30.0
176
     1
 63
     7
421
 16777215
176
     1
 74
     1
176
     1
 91
        0
176
     1
 64
     7
176
     1
 65
   257
176
     1
 75
     1
176
     1
175
     1
176
     1
 42
1.0
176
     1
 92
        0
176
     1
 66
   257
176
     1
 43
1.0
176
     1
 76
     1
176
     1
 77
     6
176
     1
 78
     2
176
     1
 67
     7
176
     1
 79
     5
176
     1
170
     0
176
     1
171
     0
176
     1
290
     0
176
     1
 93
       13
176
     1
 44
0.0
176
     1
173
     0
176
     1
1001
ACAD
1000
AcDbSavedByObjectVersion
1070
     0
  0
VISUALSTYLE
  5
2C
102
{ACAD_XDICTIONARY
360
FF
102
}
102
{ACAD_REACTORS
330
29
102
}
330
29
100
AcDbVisualStyle
  2
Gouraud
 70
     2
177
     2
291
     1
 71
     2
176
     1
 72
     2
176
     1
 73
     1
176
     1
 90
        2
176
     1
 40
0.6
176
     1
 41
30.0
176
     1
 63
     7
421
 16777215
176
     1
 74
     0
176
     1
 91
        0
176
     1
 64
     7
176
     1
 65
   257
176
     1
 75
     1
176
     1
175
     1
176
     1
 42
1.0
176
     1
 92
        0
176
     1
 66
     7
176
     1
 43
1.0
176
     1
 76
     1
176
     1
 77
     6
176
     1
 78
     2
176
     1
 67
     7
176
     1
 79
     5
176
     1
170
     0
176
     1
171
     0
176
     1
290
     0
176
     1
 93
       13
176
     1
 44
0.0
176
     1
173
     0
176
     1
1001
ACAD
1000
AcDbSavedByObjectVersion
1070
     0
  0
VISUALSTYLE
  5
2D
102
{ACAD_XDICTIONARY
360
101
102
}
102
{ACAD_REACTORS
330
29
102
}
330
29
100
AcDbVisualStyle
  2
GouraudWithEdges
 70
     3
177
     2
291
     1
 71
     2
176
     1
 72
     2
176
     1
 73
     1
176
     1
 90
        2
176
     1
 40
0.6
176
     1
 41
30.0
176
     1
 63
     7
421
 16777215
176
     1
 74
     1
176
     1
 91
        0
176
     1
 64
     7
176
     1
 65
   257
176
     1
 75
     1
176
     1
175
     1
176
     1
 42
1.0
176
     1
 92
        0
176
     1
 66
   257
176
     1
 43
1.0
176
     1
 76
     1
176
     1
 77
     6
176
     1
 78
     2
176
     1
 67
     7
176
     1
 79
     5
176
     1
170
     0
176
     1
171
     0
176
     1
290
     0
176
     1
 93
       13
176
     1
 44
0.0
176
     1
173
     0
176
     1
1001
ACAD
1000
AcDbSavedByObjectVersion
1070
     0
  0
VISUALSTYLE
  5
31
102
{ACAD_XDICTIONARY
360
109
102
}
102
{ACAD_REACTORS
330
29
102
}
330
29
100
AcDbVisualStyle
  2
Hidden
 70
     6
177
     2
291
     0
 71
     1
176
     1
 72
     2
176
     1
 73
     2
176
     1
 90
        0
176
     1
 40
0.6
176
     1
 41
30.0
176
     1
 63
     7
421
 16777215
176
     1
 74
     2
176
     1
 91
        2
176
     1
 64
     7
176
     1
 65
   257
176
     1
 75
     2
176
     1
175
     1
176
     1
 42
40.0
176
     1
 92
        0
176
     1
 66
   257
176
     1
 43
1.0
176
     1
 76
     1
176
     1
 77
     6
176
     1
 78
     2
176
     1
 67
     7
176
     1
 79
     3
176
     1
170
     0
176
     1
171
     0
176
     1
290
     0
176
     1
 93
        1
176
     1
 44
0.0
176
     1
173
     0
176
     1
1001
ACAD
1000
AcDbSavedByObjectVersion
1070
     0
  0
VISUALSTYLE
  5
3F
102
{ACAD_XDICTIONARY
360
125
102
}
102
{ACAD_REACTORS
330
29
102
}
330
29
100
AcDbVisualStyle
  2
JitterOff
 70
    20
177
     2
291
     1
 71
     2
176
     0
 72
     2
176
     0
 73
     0
176
     0
 90
        0
176
     0
 40
0.6
176
     0
 41
30.0
176
     0
 63
     7
421
 16777215
176
     0
 74
     1
176
     0
 91
        4
176
     0
 64
     7
176
     0
 65
   257
176
     0
 75
     1
176
     0
175
     1
176
     0
 42
1.0
176
     0
 92
       10
176
     2
 66
     7
176
     0
 43
1.0
176
     0
 76
     1
176
     0
 77
     6
176
     0
 78
     2
176
     0
 67
     7
176
     0
 79
     5
176
     0
170
     0
176
     0
171
     0
176
     0
290
     0
176
     0
 93
        1
176
     0
 44
0.0
176
     0
173
     0
176
     0
1001
ACAD
1000
AcDbSavedByObjectVersion
1070
     0
  0
VISUALSTYLE
  5
37
102
{ACAD_XDICTIONARY
360
115
102
}
102
{ACAD_REACTORS
330
29
102
}
330
29
100
AcDbVisualStyle
  2
Linepattern
 70
    14
177
     2
291
     1
 71
     2
176
     1
 72
     2
176
     1
 73
     0
176
     1
 90
        0
176
     1
 40
0.6
176
     1
 41
30.0
176
     1
 63
     7
421
 16777215
176
     1
 74
     1
176
     1
 91
        4
176
     1
 64
     7
176
     1
 65
   257
176
     1
 75
     7
176
     1
175
     7
176
     1
 42
1.0
176
     1
 92
        8
176
     1
 66
     7
176
     1
 43
1.0
176
     1
 76
     1
176
     1
 77
     6
176
     1
 78
     2
176
     1
 67
     7
176
     1
 79
     5
176
     1
170
     0
176
     1
171
     0
176
     1
290
     0
176
     1
 93
        1
176
     1
 44
0.0
176
     1
173
     0
176
     1
1001
ACAD
1000
AcDbSavedByObjectVersion
1070
     0
  0
VISUALSTYLE
  5
40
102
{ACAD_XDICTIONARY
360
127
102
}
102
{ACAD_REACTORS
330
29
102
}
330
29
100
AcDbVisualStyle
  2
OverhangOff
 70
    21
177
     2
291
     1
 71
     2
176
     0
 72
     2
176
     0
 73
     0
176
     0
 90
        0
176
     0
 40
0.6
176
     0
 41
30.0
176
     0
 63
     7
421
 16777215
176
     0
 74
     1
176
     0
 91
        4
176
     0
 64
     7
176
     0
 65
   257
176
     0
 75
     1
176
     0
175
     1
176
     0
 42
1.0
176
     0
 92
        9
176
     2
 66
     7
176
     0
 43
1.0
176
     0
 76
     1
176
     0
 77
     6
176
     0
 78
     2
176
     0
 67
     7
176
     0
 79
     5
176
     0
170
     0
176
     0
171
     0
176
     0
290
     0
176
     0
 93
        1
176
     0
 44
0.0
176
     0
173
     0
176
     0
1001
ACAD
1000
AcDbSavedByObjectVersion
1070
     0
  0
VISUALSTYLE
  5
33
102
{ACAD_XDICTIONARY
360
10D
102
}
102
{ACAD_REACTORS
330
29
102
}
330
29
100
AcDbVisualStyle
  2
Realistic
 70
     8
177
     2
291
     0
 71
     2
176
     1
 72
     3
176
     1
 73
     0
176
     1
 90
        2
176
     1
 40
0.6
176
     1
 41
30.0
176
     1
 63
     7
421
 16777215
176
     1
 74
     0
176
     1
 91
        0
176
     1
 64
     7
176
     1
 65
   257
176
     1
 75
     1
176
     1
175
     1
176
     1
 42
1.0
176
     1
 92
        8
176
     1
 66
   257
176
     1
 43
1.0
176
     1
 76
     1
176
     1
 77
     6
176
     1
 78
     2
176
     1
 67
     7
176
     1
 79
     3
176
     1
170
     0
176
     1
171
     0
176
     1
290
     0
176
     1
 93
       13
176
     1
 44
0.0
176
     1
173
     0
176
     1
1001
ACAD
1000
AcDbSavedByObjectVersion
1070
     0
  0
VISUALSTYLE
  5
3E
102
{ACAD_XDICTIONARY
360
123
102
}
102
{ACAD_REACTORS
330
29
102
}
330
29
100
AcDbVisualStyle
  2
Shaded
 70
    27
177
     2
291
     0
 71
     2
176
     1
 72
     2
176
     1
 73
     1
176
     1
 90
        2
176
     1
 40
0.6
176
     1
 41
30.0
176
     1
 63
     7
421
 16777215
176
     1
 74
     0
176
     1
 91
        4
176
     1
 64
     7
176
     1
 65
   257
176
     1
 75
     1
176
     1
175
     1
176
     1
 42
1.0
176
     1
 92
        8
176
     1
 66
   257
176
     1
 43
1.0
176
     1
 76
     1
176
     1
 77
     6
176
     1
 78
     2
176
     1
 67
     8
425
  7895160
176
     1
 79
     3
176
     1
170
     0
176
     1
171
     0
176
     1
290
     0
176
     1
 93
        5
176
     1
 44
0.0
176
     1
173
     0
176
     1
1001
ACAD
1000
AcDbSavedByObjectVersion
1070
     0
  0
VISUALSTYLE
  5
3D
102
{ACAD_XDICTIONARY
360
121
102
}
102
{ACAD_REACTORS
330
29
102
}
330
29
100
AcDbVisualStyle
  2
Shaded with edges
 70
    26
177
     2
291
     0
 71
     2
176
     1
 72
     2
176
     1
 73
     1
176
     1
 90
        2
176
     1
 40
0.6
176
     1
 41
30.0
176
     1
 63
     7
421
 16777215
176
     1
 74
     1
176
     1
 91
        2
176
     1
 64
     7
176
     1
 65
   257
176
     1
 75
     2
176
     1
175
     1
176
     1
 42
1.0
176
     1
 92
        8
176
     1
 66
   257
176
     1
 43
1.0
176
     1
 76
     1
176
     1
 77
     6
176
     1
 78
     2
176
     1
 67
     7
176
     1
 79
     3
176
     1
170
     0
176
     1
171
     0
176
     1
290
     0
176
     1
 93
        5
176
     1
 44
0.0
176
     1
173
     0
176
     1
1001
ACAD
1000
AcDbSavedByObjectVersion
1070
     0
  0
VISUALSTYLE
  5
3A
102
{ACAD_XDICTIONARY
360
11B
102
}
102
{ACAD_REACTORS
330
29
102
}
330
29
100
AcDbVisualStyle
  2
Shades of Gray
 70
    23
177
     2
291
     0
 71
     2
176
     1
 72
     2
176
     1
 73
     3
176
     1
 90
        0
176
     1
 40
0.6
176
     1
 41
30.0
176
     1
 63
     7
421
 16777215
176
     1
 74
     2
176
     1
 91
        2
176
     1
 64
     7
176
     1
 65
     7
176
     1
 75
     1
176
     1
175
     1
176
     1
 42
40.0
176
     1
 92
        8
176
     1
 66
     7
176
     1
 43
1.0
176
     1
 76
     1
176
     1
 77
     6
176
     1
 78
     2
176
     1
 67
     7
176
     1
 79
     3
176
     1
170
     0
176
     1
171
     0
176
     1
290
     0
176
     1
 93
        1
176
     1
 44
0.0
176
     1
173
     0
176
     1
1001
ACAD
1000
AcDbSavedByObjectVersion
1070
     0
  0
VISUALSTYLE
  5
3B
102
{ACAD_XDICTIONARY
360
11D
102
}
102
{ACAD_REACTORS
330
29
102
}
330
29
100
AcDbVisualStyle
  2
Sketchy
 70
    24
177
     2
291
     0
 71
     1
176
     1
 72
     2
176
     1
 73
     2
176
     1
 90
        0
176
     1
 40
0.6
176
     1
 41
30.0
176
     1
 63
     7
421
 16777215
176
     1
 74
     2
176
     1
 91
        2
176
     1
 64
     7
176
     1
 65
     7
176
     1
 75
     1
176
     1
175
     1
176
     1
 42
40.0
176
     1
 92
       11
176
     1
 66
     7
176
     1
 43
1.0
176
     1
 76
     1
176
     1
 77
     6
176
     1
 78
     2
176
     1
 67
     7
176
     1
 79
     6
176
     1
170
     0
176
     1
171
     0
176
     1
290
     0
176
     1
 93
        1
176
     1
 44
0.0
176
     1
173
     0
176
     1
1001
ACAD
1000
AcDbSavedByObjectVersion
1070
     0
  0
VISUALSTYLE
  5
36
102
{ACAD_XDICTIONARY
360
113
102
}
102
{ACAD_REACTORS
330
29
102
}
330
29
100
AcDbVisualStyle
  2
Thicken
 70
    13
177
     2
291
     1
 71
     2
176
     1
 72
     2
176
     1
 73
     0
176
     1
 90
        0
176
     1
 40
0.6
176
     1
 41
30.0
176
     1
 63
     7
421
 16777215
176
     1
 74
     1
176
     1
 91
        4
176
     1
 64
     7
176
     1
 65
   257
176
     1
 75
     1
176
     1
175
     1
176
     1
 42
1.0
176
     1
 92
       12
176
     1
 66
     7
176
     1
 43
1.0
176
     1
 76
     1
176
     1
 77
     6
176
     1
 78
     2
176
     1
 67
     7
176
     1
 79
     5
176
     1
170
     0
176
     1
171
     0
176
     1
290
     0
176
     1
 93
        1
176
     1
 44
0.0
176
     1
173
     0
176
     1
1001
ACAD
1000
AcDbSavedByObjectVersion
1070
     0
  0
VISUALSTYLE
  5
30
102
{ACAD_XDICTIONARY
360
107
102
}
102
{ACAD_REACTORS
330
29
102
}
330
29
100
AcDbVisualStyle
  2
Wireframe
 70
     5
177
     2
291
     0
 71
     0
176
     1
 72
     2
176
     1
 73
     0
176
     1
 90
        0
176
     1
 40
0.6
176
     1
 41
30.0
176
     1
 63
     7
421
 16777215
176
     1
 74
     1
176
     1
 91
        4
176
     1
 64
     7
176
     1
 65
   257
176
     1
 75
     1
176
     1
175
     1
176
     1
 42
1.0
176
     1
 92
        0
176
     1
 66
   257
176
     1
 43
1.0
176
     1
 76
     1
176
     1
 77
     6
176
     1
 78
     2
176
     1
 67
     7
176
     1
 79
     3
176
     1
170
     0
176
     1
171
     0
176
     1
290
     0
176
     1
 93
        1
176
     1
 44
0.0
176
     1
173
     0
176
     1
1001
ACAD
1000
AcDbSavedByObjectVersion
1070
     0
  0
VISUALSTYLE
  5
3C
102
{ACAD_XDICTIONARY
360
11F
102
}
102
{ACAD_REACTORS
330
29
102
}
330
29
100
AcDbVisualStyle
  2
X-Ray
 70
    25
177
     2
291
     0
 71
     2
176
     1
 72
     2
176
     1
 73
     1
176
     1
 90
        1
176
     1
 40
0.5
176
     1
 41
30.0
176
     1
 63
     7
421
 16777215
176
     1
 74
     1
176
     1
 91
        0
176
     1
 64
     7
176
     1
 65
   257
176
     1
 75
     1
176
     1
175
     1
176
     1
 42
1.0
176
     1
 92
        8
176
     1
 66
     7
176
     1
 43
1.0
176
     1
 76
     1
176
     1
 77
     6
176
     1
 78
     2
176
     1
 67
     7
176
     1
 79
     3
176
     1
170
     0
176
     1
171
     0
176
     1
290
     0
176
     1
 93
       13
176
     1
 44
0.0
176
     1
173
     0
176
     1
1001
ACAD
1000
AcDbSavedByObjectVersion
1070
     0
  0
DICTIONARYVAR
  5
F7
102
{ACAD_REACTORS
330
F2
102
}
330
F2
100
DictionaryVariables
280
     0
  1
1:1
  0
DICTIONARYVAR
  5
F4
102
{ACAD_REACTORS
330
F2
102
}
330
F2
100
DictionaryVariables
280
     0
  1
STANDARD
  0
DICTIONARYVAR
  5
F3
102
{ACAD_REACTORS
330
F2
102
}
330
F2
100
DictionaryVariables
280
     0
  1
STANDARD
  0
DICTIONARYVAR
  5
F5
102
{ACAD_REACTORS
330
F2
102
}
330
F2
100
DictionaryVariables
280
     0
  1
Imperial24
  0
DICTIONARYVAR
  5
F6
102
{ACAD_REACTORS
330
F2
102
}
330
F2
100
DictionaryVariables
280
     0
  1
Imperial24
  0
DICTIONARY
  5
12F
330
6B
100
AcDbDictionary
280
     1
281
     1
  3
ACAD_XREC_ROUNDTRIP
360
130
  0
DICTIONARY
  5
1A
330
19
100
AcDbDictionary
280
     1
281
     1
  3
BUMPTILE
360
1C
  3
DIFFUSETILE
360
1B
  3
OPACITYTILE
360
1F
  3
REFLECTIONTILE
360
1E
  3
REFRACTIONTILE
360
20
  3
SPECULARTILE
360
1D
  0
DICTIONARY
  5
12
330
11
100
AcDbDictionary
280
     1
281
     1
  3
BUMPTILE
360
14
  3
DIFFUSETILE
360
13
  3
OPACITYTILE
360
17
  3
REFLECTIONTILE
360
16
  3
REFRACTIONTILE
360
18
  3
SPECULARTILE
360
15
  0
DICTIONARY
  5
22
330
21
100
AcDbDictionary
280
     1
281
     1
  3
BUMPTILE
360
24
  3
DIFFUSETILE
360
23
  3
OPACITYTILE
360
27
  3
REFLECTIONTILE
360
26
  3
REFRACTIONTILE
360
28
  3
SPECULARTILE
360
25
  0
DICTIONARY
  5
12B
330
67
100
AcDbDictionary
280
     1
281
     1
  3
ACAD_XREC_ROUNDTRIP
360
12C
  0
DICTIONARY
  5
12D
330
69
100
AcDbDictionary
280
     1
281
     1
  3
ACAD_XREC_ROUNDTRIP
360
12E
  0
DICTIONARY
  5
F8
330
65
100
AcDbDictionary
280
     1
281
     1
  3
ACAD_ROUNDTRIP_2008_TABLESTYLE_CELLSTYLEMAP
360
F9
  0
DICTIONARY
  5
105
330
2F
100
AcDbDictionary
280
     1
281
     1
  3
ACAD_XREC_ROUNDTRIP
360
106
  0
DICTIONARY
  5
103
330
2E
100
AcDbDictionary
280
     1
281
     1
  3
ACAD_XREC_ROUNDTRIP
360
104
  0
DICTIONARY
  5
111
330
35
100
AcDbDictionary
280
     1
281
     1
  3
ACAD_XREC_ROUNDTRIP
360
112
  0
DICTIONARY
  5
119
330
39
100
AcDbDictionary
280
     1
281
     1
  3
ACAD_XREC_ROUNDTRIP
360
11A
  0
DICTIONARY
  5
10B
330
32
100
AcDbDictionary
280
     1
281
     1
  3
ACAD_XREC_ROUNDTRIP
360
10C
  0
DICTIONARY
  5
10F
330
34
100
AcDbDictionary
280
     1
281
     1
  3
ACAD_XREC_ROUNDTRIP
360
110
  0
DICTIONARY
  5
129
330
41
100
AcDbDictionary
280
     1
281
     1
  3
ACAD_XREC_ROUNDTRIP
360
12A
  0
DICTIONARY
  5
117
330
38
100
AcDbDictionary
280
     1
281
     1
  3
ACAD_XREC_ROUNDTRIP
360
118
  0
DICTIONARY
  5
FB
330
2A
100
AcDbDictionary
280
     1
281
     1
  3
ACAD_XREC_ROUNDTRIP
360
FC
  0
DICTIONARY
  5
FD
330
2B
100
AcDbDictionary
280
     1
281
     1
  3
ACAD_XREC_ROUNDTRIP
360
FE
  0
DICTIONARY
  5
FF
330
2C
100
AcDbDictionary
280
     1
281
     1
  3
ACAD_XREC_ROUNDTRIP
360
100
  0
DICTIONARY
  5
101
330
2D
100
AcDbDictionary
280
     1
281
     1
  3
ACAD_XREC_ROUNDTRIP
360
102
  0
DICTIONARY
  5
109
330
31
100
AcDbDictionary
280
     1
281
     1
  3
ACAD_XREC_ROUNDTRIP
360
10A
  0
DICTIONARY
  5
125
330
3F
100
AcDbDictionary
280
     1
281
     1
  3
ACAD_XREC_ROUNDTRIP
360
126
  0
DICTIONARY
  5
115
330
37
100
AcDbDictionary
280
     1
281
     1
  3
ACAD_XREC_ROUNDTRIP
360
116
  0
DICTIONARY
  5
127
330
40
100
AcDbDictionary
280
     1
281
     1
  3
ACAD_XREC_ROUNDTRIP
360
128
  0
DICTIONARY
  5
10D
330
33
100
AcDbDictionary
280
     1
281
     1
  3
ACAD_XREC_ROUNDTRIP
360
10E
  0
DICTIONARY
  5
123
330
3E
100
AcDbDictionary
280
     1
281
     1
  3
ACAD_XREC_ROUNDTRIP
360
124
  0
DICTIONARY
  5
121
330
3D
100
AcDbDictionary
280
     1
281
     1
  3
ACAD_XREC_ROUNDTRIP
360
122
  0
DICTIONARY
  5
11B
330
3A
100
AcDbDictionary
280
     1
281
     1
  3
ACAD_XREC_ROUNDTRIP
360
11C
  0
DICTIONARY
  5
11D
330
3B
100
AcDbDictionary
280
     1
281
     1
  3
ACAD_XREC_ROUNDTRIP
360
11E
  0
DICTIONARY
  5
113
330
36
100
AcDbDictionary
280
     1
281
     1
  3
ACAD_XREC_ROUNDTRIP
360
114
  0
DICTIONARY
  5
107
330
30
100
AcDbDictionary
280
     1
281
     1
  3
ACAD_XREC_ROUNDTRIP
360
108
  0
DICTIONARY
  5
11F
330
3C
100
AcDbDictionary
280
     1
281
     1
  3
ACAD_XREC_ROUNDTRIP
360
120
  0
XRECORD
  5
130
102
{ACAD_REACTORS
330
12F
102
}
330
12F
100
AcDbXrecord
280
     1
102
DISPLAYNAME
  1
Imperial24
102
FLAGS
 90
        0
  0
XRECORD
  5
1C
102
{ACAD_REACTORS
330
1A
102
}
330
1A
100
AcDbXrecord
280
     1
270
     1
271
     1
  0
XRECORD
  5
1B
102
{ACAD_REACTORS
330
1A
102
}
330
1A
100
AcDbXrecord
280
     1
270
     1
271
     1
  0
XRECORD
  5
1F
102
{ACAD_REACTORS
330
1A
102
}
330
1A
100
AcDbXrecord
280
     1
270
     1
271
     1
  0
XRECORD
  5
1E
102
{ACAD_REACTORS
330
1A
102
}
330
1A
100
AcDbXrecord
280
     1
270
     1
271
     1
  0
XRECORD
  5
20
102
{ACAD_REACTORS
330
1A
102
}
330
1A
100
AcDbXrecord
280
     1
270
     1
271
     1
  0
XRECORD
  5
1D
102
{ACAD_REACTORS
330
1A
102
}
330
1A
100
AcDbXrecord
280
     1
270
     1
271
     1
  0
XRECORD
  5
14
102
{ACAD_REACTORS
330
12
102
}
330
12
100
AcDbXrecord
280
     1
270
     1
271
     1
  0
XRECORD
  5
13
102
{ACAD_REACTORS
330
12
102
}
330
12
100
AcDbXrecord
280
     1
270
     1
271
     1
  0
XRECORD
  5
17
102
{ACAD_REACTORS
330
12
102
}
330
12
100
AcDbXrecord
280
     1
270
     1
271
     1
  0
XRECORD
  5
16
102
{ACAD_REACTORS
330
12
102
}
330
12
100
AcDbXrecord
280
     1
270
     1
271
     1
  0
XRECORD
  5
18
102
{ACAD_REACTORS
330
12
102
}
330
12
100
AcDbXrecord
280
     1
270
     1
271
     1
  0
XRECORD
  5
15
102
{ACAD_REACTORS
330
12
102
}
330
12
100
AcDbXrecord
280
     1
270
     1
271
     1
  0
XRECORD
  5
24
102
{ACAD_REACTORS
330
22
102
}
330
22
100
AcDbXrecord
280
     1
270
     1
271
     1
  0
XRECORD
  5
23
102
{ACAD_REACTORS
330
22
102
}
330
22
100
AcDbXrecord
280
     1
270
     1
271
     1
  0
XRECORD
  5
27
102
{ACAD_REACTORS
330
22
102
}
330
22
100
AcDbXrecord
280
     1
270
     1
271
     1
  0
XRECORD
  5
26
102
{ACAD_REACTORS
330
22
102
}
330
22
100
AcDbXrecord
280
     1
270
     1
271
     1
  0
XRECORD
  5
28
102
{ACAD_REACTORS
330
22
102
}
330
22
100
AcDbXrecord
280
     1
270
     1
271
     1
  0
XRECORD
  5
25
102
{ACAD_REACTORS
330
22
102
}
330
22
100
AcDbXrecord
280
     1
270
     1
271
     1
  0
XRECORD
  5
12C
102
{ACAD_REACTORS
330
12B
102
}
330
12B
100
AcDbXrecord
280
     1
102
ACAD_ROUNDTRIP_2012_MLEADER_STYLE
298
     1
  0
XRECORD
  5
12E
102
{ACAD_REACTORS
330
12D
102
}
330
12D
100
AcDbXrecord
280
     1
102
DISPLAYNAME
  1
Imperial24
102
FLAGS
 90
        0
  0
CELLSTYLEMAP
  5
F9
102
{ACAD_REACTORS
330
F8
102
}
330
F8
100
AcDbCellStyleMap
 90
        3
300
CELLSTYLE
  1
TABLEFORMAT_BEGIN
 90
        5
170
     1
 91
        0
 92
    32768
 62
   257
 93
        1
300
CONTENTFORMAT
  1
CONTENTFORMAT_BEGIN
 90
        0
 91
        0
 92
      512
 93
        0
300

 40
0.0
140
1.0
 94
        5
 62
     0
340
55
144
0.25
309
CONTENTFORMAT_END
171
     0
 94
        0
309
TABLEFORMAT_END
  1
CELLSTYLE_BEGIN
 90
        1
 91
        1
300
_TITLE
309
CELLSTYLE_END
300
CELLSTYLE
  1
TABLEFORMAT_BEGIN
 90
        5
170
     1
 91
        0
 92
        0
 62
   257
 93
        1
300
CONTENTFORMAT
  1
CONTENTFORMAT_BEGIN
 90
        0
 91
        0
 92
      512
 93
        0
300

 40
0.0
140
1.0
 94
        5
 62
     0
340
55
144
0.18
309
CONTENTFORMAT_END
171
     0
 94
        0
309
TABLEFORMAT_END
  1
CELLSTYLE_BEGIN
 90
        2
 91
        1
300
_HEADER
309
CELLSTYLE_END
300
CELLSTYLE
  1
TABLEFORMAT_BEGIN
 90
        5
170
     1
 91
        0
 92
        0
 62
   257
 93
        1
300
CONTENTFORMAT
  1
CONTENTFORMAT_BEGIN
 90
        0
 91
        0
 92
      512
 93
        0
300

 40
0.0
140
1.0
 94
        2
 62
     0
340
55
144
0.18
309
CONTENTFORMAT_END
171
     0
 94
        0
309
TABLEFORMAT_END
  1
CELLSTYLE_BEGIN
 90
        3
 91
        2
300
_DATA
309
CELLSTYLE_END
  0
XRECORD
  5
106
102
{ACAD_REACTORS
330
105
102
}
330
105
100
AcDbXrecord
280
     1
102
RTVSPost2010Prop28
280
     1
102
RTVSPost2010PropOp28
 70
     1
102
RTVSPost2010Prop29
280
     1
102
RTVSPost2010PropOp29
 70
     1
102
RTVSPost2010Prop30
280
     0
102
RTVSPost2010PropOp30
 70
     1
102
RTVSPost2010Prop31
280
     0
102
RTVSPost2010PropOp31
 70
     1
102
RTVSPost2010Prop32
280
     0
102
RTVSPost2010PropOp32
 70
     1
102
RTVSPost2010Prop33
280
     0
102
RTVSPost2010PropOp33
 70
     1
102
RTVSPost2010Prop34
280
     0
102
RTVSPost2010PropOp34
 70
     1
102
RTVSPost2010Prop35
280
     0
102
RTVSPost2010PropOp35
 70
     1
102
RTVSPost2010Prop36
280
     0
102
RTVSPost2010PropOp36
 70
     1
102
RTVSPost2010Prop37
 90
       50
102
RTVSPost2010PropOp37
 70
     1
102
RTVSPost2010Prop38
140
0.0
102
RTVSPost2010PropOp38
 70
     1
102
RTVSPost2010Prop39
140
1.0
102
RTVSPost2010PropOp39
 70
     1
102
RTVSPost2010Prop40
 90
        0
102
RTVSPost2010PropOp40
 70
     1
102
RTVSPost2010Prop41ColorIndex
 90
       18
102
RTVSPost2010Prop41ColorRGB
 90
        0
102
RTVSPost2010PropOp41
 70
     1
102
RTVSPost2010Prop42
 90
       50
102
RTVSPost2010PropOp42
 70
     1
102
RTVSPost2010Prop43
 90
        3
102
RTVSPost2010PropOp43
 70
     1
102
RTVSPost2010Prop44ColorIndex
 90
        5
102
RTVSPost2010Prop44ColorRGB
 90
      255
102
RTVSPost2010PropOp44
 70
     1
102
RTVSPost2010Prop45
280
     0
102
RTVSPost2010PropOp45
 70
     1
102
RTVSPost2010Prop46
 90
       50
102
RTVSPost2010PropOp46
 70
     1
102
RTVSPost2010Prop47
 90
       50
102
RTVSPost2010PropOp47
 70
     1
102
RTVSPost2010Prop48
 90
       50
102
RTVSPost2010PropOp48
 70
     1
102
RTVSPost2010Prop49
280
     0
102
RTVSPost2010PropOp49
 70
     1
102
RTVSPost2010Prop50
 90
       50
102
RTVSPost2010PropOp50
 70
     1
102
RTVSPost2010Prop51ColorIndex
 90
      256
102
RTVSPost2010Prop51ColorRGB
 90
-16777216
102
RTVSPost2010PropOp51
 70
     0
102
RTVSPost2010Prop52
140
1.0
102
RTVSPost2010PropOp52
 70
     0
102
RTVSPost2010Prop53
 90
        2
102
RTVSPost2010PropOp53
 70
     1
102
RTVSPost2010Prop54
  1
strokes_ogs.tif
102
RTVSPost2010PropOp54
 70
     1
102
RTVSPost2010Prop55
280
     0
102
RTVSPost2010PropOp55
 70
     1
102
RTVSPost2010Prop56
140
1.0
102
RTVSPost2010PropOp56
 70
     1
102
RTVSPost2010Prop57
140
1.0
102
RTVSPost2010PropOp57
 70
     1
  0
XRECORD
  5
104
102
{ACAD_REACTORS
330
103
102
}
330
103
100
AcDbXrecord
280
     1
102
RTVSPost2010Prop28
280
     0
102
RTVSPost2010PropOp28
 70
     1
102
RTVSPost2010Prop29
280
     1
102
RTVSPost2010PropOp29
 70
     1
102
RTVSPost2010Prop30
280
     1
102
RTVSPost2010PropOp30
 70
     1
102
RTVSPost2010Prop31
280
     0
102
RTVSPost2010PropOp31
 70
     1
102
RTVSPost2010Prop32
280
     0
102
RTVSPost2010PropOp32
 70
     1
102
RTVSPost2010Prop33
280
     0
102
RTVSPost2010PropOp33
 70
     1
102
RTVSPost2010Prop34
280
     0
102
RTVSPost2010PropOp34
 70
     1
102
RTVSPost2010Prop35
280
     0
102
RTVSPost2010PropOp35
 70
     1
102
RTVSPost2010Prop36
280
     0
102
RTVSPost2010PropOp36
 70
     1
102
RTVSPost2010Prop37
 90
       50
102
RTVSPost2010PropOp37
 70
     1
102
RTVSPost2010Prop38
140
0.0
102
RTVSPost2010PropOp38
 70
     1
102
RTVSPost2010Prop39
140
1.0
102
RTVSPost2010PropOp39
 70
     1
102
RTVSPost2010Prop40
 90
        0
102
RTVSPost2010PropOp40
 70
     1
102
RTVSPost2010Prop41ColorIndex
 90
       18
102
RTVSPost2010Prop41ColorRGB
 90
        0
102
RTVSPost2010PropOp41
 70
     1
102
RTVSPost2010Prop42
 90
       50
102
RTVSPost2010PropOp42
 70
     1
102
RTVSPost2010Prop43
 90
        3
102
RTVSPost2010PropOp43
 70
     1
102
RTVSPost2010Prop44ColorIndex
 90
        5
102
RTVSPost2010Prop44ColorRGB
 90
      255
102
RTVSPost2010PropOp44
 70
     1
102
RTVSPost2010Prop45
280
     0
102
RTVSPost2010PropOp45
 70
     1
102
RTVSPost2010Prop46
 90
       50
102
RTVSPost2010PropOp46
 70
     1
102
RTVSPost2010Prop47
 90
       50
102
RTVSPost2010PropOp47
 70
     1
102
RTVSPost2010Prop48
 90
       50
102
RTVSPost2010PropOp48
 70
     1
102
RTVSPost2010Prop49
280
     0
102
RTVSPost2010PropOp49
 70
     1
102
RTVSPost2010Prop50
 90
       50
102
RTVSPost2010PropOp50
 70
     1
102
RTVSPost2010Prop51ColorIndex
 90
      256
102
RTVSPost2010Prop51ColorRGB
 90
-16777216
102
RTVSPost2010PropOp51
 70
     0
102
RTVSPost2010Prop52
140
1.0
102
RTVSPost2010PropOp52
 70
     0
102
RTVSPost2010Prop53
 90
        2
102
RTVSPost2010PropOp53
 70
     1
102
RTVSPost2010Prop54
  1
strokes_ogs.tif
102
RTVSPost2010PropOp54
 70
     1
102
RTVSPost2010Prop55
280
     0
102
RTVSPost2010PropOp55
 70
     1
102
RTVSPost2010Prop56
140
1.0
102
RTVSPost2010PropOp56
 70
     1
102
RTVSPost2010Prop57
140
1.0
102
RTVSPost2010PropOp57
 70
     1
  0
XRECORD
  5
112
102
{ACAD_REACTORS
330
111
102
}
330
111
100
AcDbXrecord
280
     1
102
RTVSPost2010Prop28
280
     0
102
RTVSPost2010PropOp28
 70
     1
102
RTVSPost2010Prop29
280
     1
102
RTVSPost2010PropOp29
 70
     1
102
RTVSPost2010Prop30
280
     1
102
RTVSPost2010PropOp30
 70
     1
102
RTVSPost2010Prop31
280
     0
102
RTVSPost2010PropOp31
 70
     1
102
RTVSPost2010Prop32
280
     0
102
RTVSPost2010PropOp32
 70
     1
102
RTVSPost2010Prop33
280
     0
102
RTVSPost2010PropOp33
 70
     1
102
RTVSPost2010Prop34
280
     0
102
RTVSPost2010PropOp34
 70
     1
102
RTVSPost2010Prop35
280
     0
102
RTVSPost2010PropOp35
 70
     1
102
RTVSPost2010Prop36
280
     0
102
RTVSPost2010PropOp36
 70
     1
102
RTVSPost2010Prop37
 90
       50
102
RTVSPost2010PropOp37
 70
     1
102
RTVSPost2010Prop38
140
0.0
102
RTVSPost2010PropOp38
 70
     1
102
RTVSPost2010Prop39
140
1.0
102
RTVSPost2010PropOp39
 70
     1
102
RTVSPost2010Prop40
 90
        0
102
RTVSPost2010PropOp40
 70
     1
102
RTVSPost2010Prop41ColorIndex
 90
       18
102
RTVSPost2010Prop41ColorRGB
 90
        0
102
RTVSPost2010PropOp41
 70
     1
102
RTVSPost2010Prop42
 90
       50
102
RTVSPost2010PropOp42
 70
     1
102
RTVSPost2010Prop43
 90
        3
102
RTVSPost2010PropOp43
 70
     1
102
RTVSPost2010Prop44ColorIndex
 90
        5
102
RTVSPost2010Prop44ColorRGB
 90
      255
102
RTVSPost2010PropOp44
 70
     1
102
RTVSPost2010Prop45
280
     0
102
RTVSPost2010PropOp45
 70
     1
102
RTVSPost2010Prop46
 90
       50
102
RTVSPost2010PropOp46
 70
     1
102
RTVSPost2010Prop47
 90
       50
102
RTVSPost2010PropOp47
 70
     1
102
RTVSPost2010Prop48
 90
       50
102
RTVSPost2010PropOp48
 70
     1
102
RTVSPost2010Prop49
280
     0
102
RTVSPost2010PropOp49
 70
     1
102
RTVSPost2010Prop50
 90
       50
102
RTVSPost2010PropOp50
 70
     1
102
RTVSPost2010Prop51ColorIndex
 90
      256
102
RTVSPost2010Prop51ColorRGB
 90
-16777216
102
RTVSPost2010PropOp51
 70
     0
102
RTVSPost2010Prop52
140
1.0
102
RTVSPost2010PropOp52
 70
     0
102
RTVSPost2010Prop53
 90
        2
102
RTVSPost2010PropOp53
 70
     1
102
RTVSPost2010Prop54
  1
strokes_ogs.tif
102
RTVSPost2010PropOp54
 70
     1
102
RTVSPost2010Prop55
280
     0
102
RTVSPost2010PropOp55
 70
     1
102
RTVSPost2010Prop56
140
1.0
102
RTVSPost2010PropOp56
 70
     1
102
RTVSPost2010Prop57
140
1.0
102
RTVSPost2010PropOp57
 70
     1
  0
XRECORD
  5
11A
102
{ACAD_REACTORS
330
119
102
}
330
119
100
AcDbXrecord
280
     1
102
RTVSPost2010Prop28
280
     0
102
RTVSPost2010PropOp28
 70
     1
102
RTVSPost2010Prop29
280
     1
102
RTVSPost2010PropOp29
 70
     1
102
RTVSPost2010Prop30
280
     1
102
RTVSPost2010PropOp30
 70
     1
102
RTVSPost2010Prop31
280
     0
102
RTVSPost2010PropOp31
 70
     1
102
RTVSPost2010Prop32
280
     0
102
RTVSPost2010PropOp32
 70
     1
102
RTVSPost2010Prop33
280
     0
102
RTVSPost2010PropOp33
 70
     1
102
RTVSPost2010Prop34
280
     0
102
RTVSPost2010PropOp34
 70
     1
102
RTVSPost2010Prop35
280
     0
102
RTVSPost2010PropOp35
 70
     1
102
RTVSPost2010Prop36
280
     0
102
RTVSPost2010PropOp36
 70
     1
102
RTVSPost2010Prop37
 90
       50
102
RTVSPost2010PropOp37
 70
     1
102
RTVSPost2010Prop38
140
0.0
102
RTVSPost2010PropOp38
 70
     1
102
RTVSPost2010Prop39
140
1.0
102
RTVSPost2010PropOp39
 70
     1
102
RTVSPost2010Prop40
 90
        0
102
RTVSPost2010PropOp40
 70
     1
102
RTVSPost2010Prop41ColorIndex
 90
       18
102
RTVSPost2010Prop41ColorRGB
 90
        0
102
RTVSPost2010PropOp41
 70
     1
102
RTVSPost2010Prop42
 90
       50
102
RTVSPost2010PropOp42
 70
     1
102
RTVSPost2010Prop43
 90
        3
102
RTVSPost2010PropOp43
 70
     1
102
RTVSPost2010Prop44ColorIndex
 90
        5
102
RTVSPost2010Prop44ColorRGB
 90
      255
102
RTVSPost2010PropOp44
 70
     1
102
RTVSPost2010Prop45
280
     0
102
RTVSPost2010PropOp45
 70
     1
102
RTVSPost2010Prop46
 90
       50
102
RTVSPost2010PropOp46
 70
     1
102
RTVSPost2010Prop47
 90
       50
102
RTVSPost2010PropOp47
 70
     1
102
RTVSPost2010Prop48
 90
       50
102
RTVSPost2010PropOp48
 70
     1
102
RTVSPost2010Prop49
280
     0
102
RTVSPost2010PropOp49
 70
     1
102
RTVSPost2010Prop50
 90
       50
102
RTVSPost2010PropOp50
 70
     1
102
RTVSPost2010Prop51ColorIndex
 90
      256
102
RTVSPost2010Prop51ColorRGB
 90
-16777216
102
RTVSPost2010PropOp51
 70
     0
102
RTVSPost2010Prop52
140
1.0
102
RTVSPost2010PropOp52
 70
     0
102
RTVSPost2010Prop53
 90
        2
102
RTVSPost2010PropOp53
 70
     1
102
RTVSPost2010Prop54
  1
strokes_ogs.tif
102
RTVSPost2010PropOp54
 70
     1
102
RTVSPost2010Prop55
280
     0
102
RTVSPost2010PropOp55
 70
     1
102
RTVSPost2010Prop56
140
1.0
102
RTVSPost2010PropOp56
 70
     1
102
RTVSPost2010Prop57
140
1.0
102
RTVSPost2010PropOp57
 70
     1
  0
XRECORD
  5
10C
102
{ACAD_REACTORS
330
10B
102
}
330
10B
100
AcDbXrecord
280
     1
102
RTVSPost2010Prop28
280
     0
102
RTVSPost2010PropOp28
 70
     1
102
RTVSPost2010Prop29
280
     1
102
RTVSPost2010PropOp29
 70
     1
102
RTVSPost2010Prop30
280
     1
102
RTVSPost2010PropOp30
 70
     1
102
RTVSPost2010Prop31
280
     0
102
RTVSPost2010PropOp31
 70
     1
102
RTVSPost2010Prop32
280
     0
102
RTVSPost2010PropOp32
 70
     1
102
RTVSPost2010Prop33
280
     0
102
RTVSPost2010PropOp33
 70
     1
102
RTVSPost2010Prop34
280
     0
102
RTVSPost2010PropOp34
 70
     1
102
RTVSPost2010Prop35
280
     0
102
RTVSPost2010PropOp35
 70
     1
102
RTVSPost2010Prop36
280
     0
102
RTVSPost2010PropOp36
 70
     1
102
RTVSPost2010Prop37
 90
       50
102
RTVSPost2010PropOp37
 70
     1
102
RTVSPost2010Prop38
140
0.0
102
RTVSPost2010PropOp38
 70
     1
102
RTVSPost2010Prop39
140
1.0
102
RTVSPost2010PropOp39
 70
     1
102
RTVSPost2010Prop40
 90
        0
102
RTVSPost2010PropOp40
 70
     1
102
RTVSPost2010Prop41ColorIndex
 90
       18
102
RTVSPost2010Prop41ColorRGB
 90
        0
102
RTVSPost2010PropOp41
 70
     1
102
RTVSPost2010Prop42
 90
       50
102
RTVSPost2010PropOp42
 70
     1
102
RTVSPost2010Prop43
 90
        3
102
RTVSPost2010PropOp43
 70
     1
102
RTVSPost2010Prop44ColorIndex
 90
        5
102
RTVSPost2010Prop44ColorRGB
 90
      255
102
RTVSPost2010PropOp44
 70
     1
102
RTVSPost2010Prop45
280
     0
102
RTVSPost2010PropOp45
 70
     1
102
RTVSPost2010Prop46
 90
       50
102
RTVSPost2010PropOp46
 70
     1
102
RTVSPost2010Prop47
 90
       50
102
RTVSPost2010PropOp47
 70
     1
102
RTVSPost2010Prop48
 90
       50
102
RTVSPost2010PropOp48
 70
     1
102
RTVSPost2010Prop49
280
     0
102
RTVSPost2010PropOp49
 70
     1
102
RTVSPost2010Prop50
 90
       50
102
RTVSPost2010PropOp50
 70
     1
102
RTVSPost2010Prop51ColorIndex
 90
      256
102
RTVSPost2010Prop51ColorRGB
 90
-16777216
102
RTVSPost2010PropOp51
 70
     0
102
RTVSPost2010Prop52
140
1.0
102
RTVSPost2010PropOp52
 70
     0
102
RTVSPost2010Prop53
 90
        2
102
RTVSPost2010PropOp53
 70
     1
102
RTVSPost2010Prop54
  1
strokes_ogs.tif
102
RTVSPost2010PropOp54
 70
     1
102
RTVSPost2010Prop55
280
     0
102
RTVSPost2010PropOp55
 70
     1
102
RTVSPost2010Prop56
140
1.0
102
RTVSPost2010PropOp56
 70
     1
102
RTVSPost2010Prop57
140
1.0
102
RTVSPost2010PropOp57
 70
     1
  0
XRECORD
  5
110
102
{ACAD_REACTORS
330
10F
102
}
330
10F
100
AcDbXrecord
280
     1
102
RTVSPost2010Prop28
280
     0
102
RTVSPost2010PropOp28
 70
     1
102
RTVSPost2010Prop29
280
     1
102
RTVSPost2010PropOp29
 70
     1
102
RTVSPost2010Prop30
280
     1
102
RTVSPost2010PropOp30
 70
     1
102
RTVSPost2010Prop31
280
     0
102
RTVSPost2010PropOp31
 70
     1
102
RTVSPost2010Prop32
280
     0
102
RTVSPost2010PropOp32
 70
     1
102
RTVSPost2010Prop33
280
     0
102
RTVSPost2010PropOp33
 70
     1
102
RTVSPost2010Prop34
280
     0
102
RTVSPost2010PropOp34
 70
     1
102
RTVSPost2010Prop35
280
     0
102
RTVSPost2010PropOp35
 70
     1
102
RTVSPost2010Prop36
280
     0
102
RTVSPost2010PropOp36
 70
     1
102
RTVSPost2010Prop37
 90
       50
102
RTVSPost2010PropOp37
 70
     1
102
RTVSPost2010Prop38
140
0.0
102
RTVSPost2010PropOp38
 70
     1
102
RTVSPost2010Prop39
140
1.0
102
RTVSPost2010PropOp39
 70
     1
102
RTVSPost2010Prop40
 90
        0
102
RTVSPost2010PropOp40
 70
     1
102
RTVSPost2010Prop41ColorIndex
 90
       18
102
RTVSPost2010Prop41ColorRGB
 90
        0
102
RTVSPost2010PropOp41
 70
     1
102
RTVSPost2010Prop42
 90
       50
102
RTVSPost2010PropOp42
 70
     1
102
RTVSPost2010Prop43
 90
        3
102
RTVSPost2010PropOp43
 70
     1
102
RTVSPost2010Prop44ColorIndex
 90
        5
102
RTVSPost2010Prop44ColorRGB
 90
      255
102
RTVSPost2010PropOp44
 70
     1
102
RTVSPost2010Prop45
280
     0
102
RTVSPost2010PropOp45
 70
     1
102
RTVSPost2010Prop46
 90
       50
102
RTVSPost2010PropOp46
 70
     1
102
RTVSPost2010Prop47
 90
       50
102
RTVSPost2010PropOp47
 70
     1
102
RTVSPost2010Prop48
 90
       50
102
RTVSPost2010PropOp48
 70
     1
102
RTVSPost2010Prop49
280
     0
102
RTVSPost2010PropOp49
 70
     1
102
RTVSPost2010Prop50
 90
       50
102
RTVSPost2010PropOp50
 70
     1
102
RTVSPost2010Prop51ColorIndex
 90
      256
102
RTVSPost2010Prop51ColorRGB
 90
-16777216
102
RTVSPost2010PropOp51
 70
     0
102
RTVSPost2010Prop52
140
1.0
102
RTVSPost2010PropOp52
 70
     0
102
RTVSPost2010Prop53
 90
        2
102
RTVSPost2010PropOp53
 70
     1
102
RTVSPost2010Prop54
  1
strokes_ogs.tif
102
RTVSPost2010PropOp54
 70
     1
102
RTVSPost2010Prop55
280
     0
102
RTVSPost2010PropOp55
 70
     1
102
RTVSPost2010Prop56
140
1.0
102
RTVSPost2010PropOp56
 70
     1
102
RTVSPost2010Prop57
140
1.0
102
RTVSPost2010PropOp57
 70
     1
  0
XRECORD
  5
12A
102
{ACAD_REACTORS
330
129
102
}
330
129
100
AcDbXrecord
280
     1
102
RTVSPost2010Prop28
280
     0
102
RTVSPost2010PropOp28
 70
     0
102
RTVSPost2010Prop29
280
     1
102
RTVSPost2010PropOp29
 70
     0
102
RTVSPost2010Prop30
280
     1
102
RTVSPost2010PropOp30
 70
     0
102
RTVSPost2010Prop31
280
     0
102
RTVSPost2010PropOp31
 70
     0
102
RTVSPost2010Prop32
280
     0
102
RTVSPost2010PropOp32
 70
     0
102
RTVSPost2010Prop33
280
     0
102
RTVSPost2010PropOp33
 70
     0
102
RTVSPost2010Prop34
280
     0
102
RTVSPost2010PropOp34
 70
     0
102
RTVSPost2010Prop35
280
     0
102
RTVSPost2010PropOp35
 70
     0
102
RTVSPost2010Prop36
280
     0
102
RTVSPost2010PropOp36
 70
     0
102
RTVSPost2010Prop37
 90
       50
102
RTVSPost2010PropOp37
 70
     0
102
RTVSPost2010Prop38
140
0.0
102
RTVSPost2010PropOp38
 70
     0
102
RTVSPost2010Prop39
140
1.0
102
RTVSPost2010PropOp39
 70
     0
102
RTVSPost2010Prop40
 90
        0
102
RTVSPost2010PropOp40
 70
     0
102
RTVSPost2010Prop41ColorIndex
 90
       18
102
RTVSPost2010Prop41ColorRGB
 90
        0
102
RTVSPost2010PropOp41
 70
     0
102
RTVSPost2010Prop42
 90
       50
102
RTVSPost2010PropOp42
 70
     0
102
RTVSPost2010Prop43
 90
        3
102
RTVSPost2010PropOp43
 70
     0
102
RTVSPost2010Prop44ColorIndex
 90
        5
102
RTVSPost2010Prop44ColorRGB
 90
      255
102
RTVSPost2010PropOp44
 70
     0
102
RTVSPost2010Prop45
280
     0
102
RTVSPost2010PropOp45
 70
     0
102
RTVSPost2010Prop46
 90
       50
102
RTVSPost2010PropOp46
 70
     0
102
RTVSPost2010Prop47
 90
       50
102
RTVSPost2010PropOp47
 70
     0
102
RTVSPost2010Prop48
 90
       50
102
RTVSPost2010PropOp48
 70
     0
102
RTVSPost2010Prop49
280
     0
102
RTVSPost2010PropOp49
 70
     0
102
RTVSPost2010Prop50
 90
       50
102
RTVSPost2010PropOp50
 70
     0
102
RTVSPost2010Prop51ColorIndex
 90
      256
102
RTVSPost2010Prop51ColorRGB
 90
-16777216
102
RTVSPost2010PropOp51
 70
     0
102
RTVSPost2010Prop52
140
1.0
102
RTVSPost2010PropOp52
 70
     0
102
RTVSPost2010Prop53
 90
        2
102
RTVSPost2010PropOp53
 70
     0
102
RTVSPost2010Prop54
  1
strokes_ogs.tif
102
RTVSPost2010PropOp54
 70
     0
102
RTVSPost2010Prop55
280
     0
102
RTVSPost2010PropOp55
 70
     0
102
RTVSPost2010Prop56
140
1.0
102
RTVSPost2010PropOp56
 70
     0
102
RTVSPost2010Prop57
140
1.0
102
RTVSPost2010PropOp57
 70
     0
  0
XRECORD
  5
118
102
{ACAD_REACTORS
330
117
102
}
330
117
100
AcDbXrecord
280
     1
102
RTVSPost2010Prop28
280
     0
102
RTVSPost2010PropOp28
 70
     1
102
RTVSPost2010Prop29
280
     1
102
RTVSPost2010PropOp29
 70
     1
102
RTVSPost2010Prop30
280
     1
102
RTVSPost2010PropOp30
 70
     1
102
RTVSPost2010Prop31
280
     0
102
RTVSPost2010PropOp31
 70
     1
102
RTVSPost2010Prop32
280
     0
102
RTVSPost2010PropOp32
 70
     1
102
RTVSPost2010Prop33
280
     0
102
RTVSPost2010PropOp33
 70
     1
102
RTVSPost2010Prop34
280
     0
102
RTVSPost2010PropOp34
 70
     1
102
RTVSPost2010Prop35
280
     0
102
RTVSPost2010PropOp35
 70
     1
102
RTVSPost2010Prop36
280
     0
102
RTVSPost2010PropOp36
 70
     1
102
RTVSPost2010Prop37
 90
       50
102
RTVSPost2010PropOp37
 70
     1
102
RTVSPost2010Prop38
140
0.0
102
RTVSPost2010PropOp38
 70
     1
102
RTVSPost2010Prop39
140
1.0
102
RTVSPost2010PropOp39
 70
     1
102
RTVSPost2010Prop40
 90
        0
102
RTVSPost2010PropOp40
 70
     1
102
RTVSPost2010Prop41ColorIndex
 90
       18
102
RTVSPost2010Prop41ColorRGB
 90
        0
102
RTVSPost2010PropOp41
 70
     1
102
RTVSPost2010Prop42
 90
       50
102
RTVSPost2010PropOp42
 70
     1
102
RTVSPost2010Prop43
 90
        3
102
RTVSPost2010PropOp43
 70
     1
102
RTVSPost2010Prop44ColorIndex
 90
        5
102
RTVSPost2010Prop44ColorRGB
 90
      255
102
RTVSPost2010PropOp44
 70
     1
102
RTVSPost2010Prop45
280
     0
102
RTVSPost2010PropOp45
 70
     1
102
RTVSPost2010Prop46
 90
       50
102
RTVSPost2010PropOp46
 70
     1
102
RTVSPost2010Prop47
 90
       50
102
RTVSPost2010PropOp47
 70
     1
102
RTVSPost2010Prop48
 90
       50
102
RTVSPost2010PropOp48
 70
     1
102
RTVSPost2010Prop49
280
     0
102
RTVSPost2010PropOp49
 70
     1
102
RTVSPost2010Prop50
 90
       50
102
RTVSPost2010PropOp50
 70
     1
102
RTVSPost2010Prop51ColorIndex
 90
      256
102
RTVSPost2010Prop51ColorRGB
 90
-16777216
102
RTVSPost2010PropOp51
 70
     0
102
RTVSPost2010Prop52
140
1.0
102
RTVSPost2010PropOp52
 70
     0
102
RTVSPost2010Prop53
 90
        2
102
RTVSPost2010PropOp53
 70
     1
102
RTVSPost2010Prop54
  1
strokes_ogs.tif
102
RTVSPost2010PropOp54
 70
     1
102
RTVSPost2010Prop55
280
     0
102
RTVSPost2010PropOp55
 70
     1
102
RTVSPost2010Prop56
140
1.0
102
RTVSPost2010PropOp56
 70
     1
102
RTVSPost2010Prop57
140
1.0
102
RTVSPost2010PropOp57
 70
     1
  0
XRECORD
  5
FC
102
{ACAD_REACTORS
330
FB
102
}
330
FB
100
AcDbXrecord
280
     1
102
RTVSPost2010Prop28
280
     0
102
RTVSPost2010PropOp28
 70
     1
102
RTVSPost2010Prop29
280
     1
102
RTVSPost2010PropOp29
 70
     1
102
RTVSPost2010Prop30
280
     1
102
RTVSPost2010PropOp30
 70
     1
102
RTVSPost2010Prop31
280
     0
102
RTVSPost2010PropOp31
 70
     1
102
RTVSPost2010Prop32
280
     0
102
RTVSPost2010PropOp32
 70
     1
102
RTVSPost2010Prop33
280
     0
102
RTVSPost2010PropOp33
 70
     1
102
RTVSPost2010Prop34
280
     0
102
RTVSPost2010PropOp34
 70
     1
102
RTVSPost2010Prop35
280
     0
102
RTVSPost2010PropOp35
 70
     1
102
RTVSPost2010Prop36
280
     0
102
RTVSPost2010PropOp36
 70
     1
102
RTVSPost2010Prop37
 90
       50
102
RTVSPost2010PropOp37
 70
     1
102
RTVSPost2010Prop38
140
0.0
102
RTVSPost2010PropOp38
 70
     1
102
RTVSPost2010Prop39
140
1.0
102
RTVSPost2010PropOp39
 70
     1
102
RTVSPost2010Prop40
 90
        0
102
RTVSPost2010PropOp40
 70
     1
102
RTVSPost2010Prop41ColorIndex
 90
       18
102
RTVSPost2010Prop41ColorRGB
 90
        0
102
RTVSPost2010PropOp41
 70
     1
102
RTVSPost2010Prop42
 90
       50
102
RTVSPost2010PropOp42
 70
     1
102
RTVSPost2010Prop43
 90
        3
102
RTVSPost2010PropOp43
 70
     1
102
RTVSPost2010Prop44ColorIndex
 90
        5
102
RTVSPost2010Prop44ColorRGB
 90
      255
102
RTVSPost2010PropOp44
 70
     1
102
RTVSPost2010Prop45
280
     0
102
RTVSPost2010PropOp45
 70
     1
102
RTVSPost2010Prop46
 90
       50
102
RTVSPost2010PropOp46
 70
     1
102
RTVSPost2010Prop47
 90
       50
102
RTVSPost2010PropOp47
 70
     1
102
RTVSPost2010Prop48
 90
       50
102
RTVSPost2010PropOp48
 70
     1
102
RTVSPost2010Prop49
280
     0
102
RTVSPost2010PropOp49
 70
     1
102
RTVSPost2010Prop50
 90
       50
102
RTVSPost2010PropOp50
 70
     1
102
RTVSPost2010Prop51ColorIndex
 90
      256
102
RTVSPost2010Prop51ColorRGB
 90
-16777216
102
RTVSPost2010PropOp51
 70
     0
102
RTVSPost2010Prop52
140
1.0
102
RTVSPost2010PropOp52
 70
     0
102
RTVSPost2010Prop53
 90
        2
102
RTVSPost2010PropOp53
 70
     1
102
RTVSPost2010Prop54
  1
strokes_ogs.tif
102
RTVSPost2010PropOp54
 70
     1
102
RTVSPost2010Prop55
280
     0
102
RTVSPost2010PropOp55
 70
     1
102
RTVSPost2010Prop56
140
1.0
102
RTVSPost2010PropOp56
 70
     1
102
RTVSPost2010Prop57
140
1.0
102
RTVSPost2010PropOp57
 70
     1
  0
XRECORD
  5
FE
102
{ACAD_REACTORS
330
FD
102
}
330
FD
100
AcDbXrecord
280
     1
102
RTVSPost2010Prop28
280
     0
102
RTVSPost2010PropOp28
 70
     1
102
RTVSPost2010Prop29
280
     1
102
RTVSPost2010PropOp29
 70
     1
102
RTVSPost2010Prop30
280
     1
102
RTVSPost2010PropOp30
 70
     1
102
RTVSPost2010Prop31
280
     0
102
RTVSPost2010PropOp31
 70
     1
102
RTVSPost2010Prop32
280
     0
102
RTVSPost2010PropOp32
 70
     1
102
RTVSPost2010Prop33
280
     0
102
RTVSPost2010PropOp33
 70
     1
102
RTVSPost2010Prop34
280
     0
102
RTVSPost2010PropOp34
 70
     1
102
RTVSPost2010Prop35
280
     0
102
RTVSPost2010PropOp35
 70
     1
102
RTVSPost2010Prop36
280
     0
102
RTVSPost2010PropOp36
 70
     1
102
RTVSPost2010Prop37
 90
       50
102
RTVSPost2010PropOp37
 70
     1
102
RTVSPost2010Prop38
140
0.0
102
RTVSPost2010PropOp38
 70
     1
102
RTVSPost2010Prop39
140
1.0
102
RTVSPost2010PropOp39
 70
     1
102
RTVSPost2010Prop40
 90
        0
102
RTVSPost2010PropOp40
 70
     1
102
RTVSPost2010Prop41ColorIndex
 90
       18
102
RTVSPost2010Prop41ColorRGB
 90
        0
102
RTVSPost2010PropOp41
 70
     1
102
RTVSPost2010Prop42
 90
       50
102
RTVSPost2010PropOp42
 70
     1
102
RTVSPost2010Prop43
 90
        3
102
RTVSPost2010PropOp43
 70
     1
102
RTVSPost2010Prop44ColorIndex
 90
        5
102
RTVSPost2010Prop44ColorRGB
 90
      255
102
RTVSPost2010PropOp44
 70
     1
102
RTVSPost2010Prop45
280
     0
102
RTVSPost2010PropOp45
 70
     1
102
RTVSPost2010Prop46
 90
       50
102
RTVSPost2010PropOp46
 70
     1
102
RTVSPost2010Prop47
 90
       50
102
RTVSPost2010PropOp47
 70
     1
102
RTVSPost2010Prop48
 90
       50
102
RTVSPost2010PropOp48
 70
     1
102
RTVSPost2010Prop49
280
     0
102
RTVSPost2010PropOp49
 70
     1
102
RTVSPost2010Prop50
 90
       50
102
RTVSPost2010PropOp50
 70
     1
102
RTVSPost2010Prop51ColorIndex
 90
      256
102
RTVSPost2010Prop51ColorRGB
 90
-16777216
102
RTVSPost2010PropOp51
 70
     0
102
RTVSPost2010Prop52
140
1.0
102
RTVSPost2010PropOp52
 70
     0
102
RTVSPost2010Prop53
 90
        2
102
RTVSPost2010PropOp53
 70
     1
102
RTVSPost2010Prop54
  1
strokes_ogs.tif
102
RTVSPost2010PropOp54
 70
     1
102
RTVSPost2010Prop55
280
     0
102
RTVSPost2010PropOp55
 70
     1
102
RTVSPost2010Prop56
140
1.0
102
RTVSPost2010PropOp56
 70
     1
102
RTVSPost2010Prop57
140
1.0
102
RTVSPost2010PropOp57
 70
     1
  0
XRECORD
  5
100
102
{ACAD_REACTORS
330
FF
102
}
330
FF
100
AcDbXrecord
280
     1
102
RTVSPost2010Prop28
280
     0
102
RTVSPost2010PropOp28
 70
     1
102
RTVSPost2010Prop29
280
     1
102
RTVSPost2010PropOp29
 70
     1
102
RTVSPost2010Prop30
280
     1
102
RTVSPost2010PropOp30
 70
     1
102
RTVSPost2010Prop31
280
     0
102
RTVSPost2010PropOp31
 70
     1
102
RTVSPost2010Prop32
280
     0
102
RTVSPost2010PropOp32
 70
     1
102
RTVSPost2010Prop33
280
     0
102
RTVSPost2010PropOp33
 70
     1
102
RTVSPost2010Prop34
280
     0
102
RTVSPost2010PropOp34
 70
     1
102
RTVSPost2010Prop35
280
     0
102
RTVSPost2010PropOp35
 70
     1
102
RTVSPost2010Prop36
280
     0
102
RTVSPost2010PropOp36
 70
     1
102
RTVSPost2010Prop37
 90
       50
102
RTVSPost2010PropOp37
 70
     1
102
RTVSPost2010Prop38
140
0.0
102
RTVSPost2010PropOp38
 70
     1
102
RTVSPost2010Prop39
140
1.0
102
RTVSPost2010PropOp39
 70
     1
102
RTVSPost2010Prop40
 90
        0
102
RTVSPost2010PropOp40
 70
     1
102
RTVSPost2010Prop41ColorIndex
 90
       18
102
RTVSPost2010Prop41ColorRGB
 90
        0
102
RTVSPost2010PropOp41
 70
     1
102
RTVSPost2010Prop42
 90
       50
102
RTVSPost2010PropOp42
 70
     1
102
RTVSPost2010Prop43
 90
        3
102
RTVSPost2010PropOp43
 70
     1
102
RTVSPost2010Prop44ColorIndex
 90
        5
102
RTVSPost2010Prop44ColorRGB
 90
      255
102
RTVSPost2010PropOp44
 70
     1
102
RTVSPost2010Prop45
280
     0
102
RTVSPost2010PropOp45
 70
     1
102
RTVSPost2010Prop46
 90
       50
102
RTVSPost2010PropOp46
 70
     1
102
RTVSPost2010Prop47
 90
       50
102
RTVSPost2010PropOp47
 70
     1
102
RTVSPost2010Prop48
 90
       50
102
RTVSPost2010PropOp48
 70
     1
102
RTVSPost2010Prop49
280
     0
102
RTVSPost2010PropOp49
 70
     1
102
RTVSPost2010Prop50
 90
       50
102
RTVSPost2010PropOp50
 70
     1
102
RTVSPost2010Prop51ColorIndex
 90
      256
102
RTVSPost2010Prop51ColorRGB
 90
-16777216
102
RTVSPost2010PropOp51
 70
     0
102
RTVSPost2010Prop52
140
1.0
102
RTVSPost2010PropOp52
 70
     0
102
RTVSPost2010Prop53
 90
        2
102
RTVSPost2010PropOp53
 70
     1
102
RTVSPost2010Prop54
  1
strokes_ogs.tif
102
RTVSPost2010PropOp54
 70
     1
102
RTVSPost2010Prop55
280
     0
102
RTVSPost2010PropOp55
 70
     1
102
RTVSPost2010Prop56
140
1.0
102
RTVSPost2010PropOp56
 70
     1
102
RTVSPost2010Prop57
140
1.0
102
RTVSPost2010PropOp57
 70
     1
  0
XRECORD
  5
102
102
{ACAD_REACTORS
330
101
102
}
330
101
100
AcDbXrecord
280
     1
102
RTVSPost2010Prop28
280
     0
102
RTVSPost2010PropOp28
 70
     1
102
RTVSPost2010Prop29
280
     1
102
RTVSPost2010PropOp29
 70
     1
102
RTVSPost2010Prop30
280
     1
102
RTVSPost2010PropOp30
 70
     1
102
RTVSPost2010Prop31
280
     0
102
RTVSPost2010PropOp31
 70
     1
102
RTVSPost2010Prop32
280
     0
102
RTVSPost2010PropOp32
 70
     1
102
RTVSPost2010Prop33
280
     0
102
RTVSPost2010PropOp33
 70
     1
102
RTVSPost2010Prop34
280
     0
102
RTVSPost2010PropOp34
 70
     1
102
RTVSPost2010Prop35
280
     0
102
RTVSPost2010PropOp35
 70
     1
102
RTVSPost2010Prop36
280
     0
102
RTVSPost2010PropOp36
 70
     1
102
RTVSPost2010Prop37
 90
       50
102
RTVSPost2010PropOp37
 70
     1
102
RTVSPost2010Prop38
140
0.0
102
RTVSPost2010PropOp38
 70
     1
102
RTVSPost2010Prop39
140
1.0
102
RTVSPost2010PropOp39
 70
     1
102
RTVSPost2010Prop40
 90
        0
102
RTVSPost2010PropOp40
 70
     1
102
RTVSPost2010Prop41ColorIndex
 90
       18
102
RTVSPost2010Prop41ColorRGB
 90
        0
102
RTVSPost2010PropOp41
 70
     1
102
RTVSPost2010Prop42
 90
       50
102
RTVSPost2010PropOp42
 70
     1
102
RTVSPost2010Prop43
 90
        3
102
RTVSPost2010PropOp43
 70
     1
102
RTVSPost2010Prop44ColorIndex
 90
        5
102
RTVSPost2010Prop44ColorRGB
 90
      255
102
RTVSPost2010PropOp44
 70
     1
102
RTVSPost2010Prop45
280
     0
102
RTVSPost2010PropOp45
 70
     1
102
RTVSPost2010Prop46
 90
       50
102
RTVSPost2010PropOp46
 70
     1
102
RTVSPost2010Prop47
 90
       50
102
RTVSPost2010PropOp47
 70
     1
102
RTVSPost2010Prop48
 90
       50
102
RTVSPost2010PropOp48
 70
     1
102
RTVSPost2010Prop49
280
     0
102
RTVSPost2010PropOp49
 70
     1
102
RTVSPost2010Prop50
 90
       50
102
RTVSPost2010PropOp50
 70
     1
102
RTVSPost2010Prop51ColorIndex
 90
      256
102
RTVSPost2010Prop51ColorRGB
 90
-16777216
102
RTVSPost2010PropOp51
 70
     0
102
RTVSPost2010Prop52
140
1.0
102
RTVSPost2010PropOp52
 70
     0
102
RTVSPost2010Prop53
 90
        2
102
RTVSPost2010PropOp53
 70
     1
102
RTVSPost2010Prop54
  1
strokes_ogs.tif
102
RTVSPost2010PropOp54
 70
     1
102
RTVSPost2010Prop55
280
     0
102
RTVSPost2010PropOp55
 70
     1
102
RTVSPost2010Prop56
140
1.0
102
RTVSPost2010PropOp56
 70
     1
102
RTVSPost2010Prop57
140
1.0
102
RTVSPost2010PropOp57
 70
     1
  0
XRECORD
  5
10A
102
{ACAD_REACTORS
330
109
102
}
330
109
100
AcDbXrecord
280
     1
102
RTVSPost2010Prop28
280
     0
102
RTVSPost2010PropOp28
 70
     1
102
RTVSPost2010Prop29
280
     1
102
RTVSPost2010PropOp29
 70
     1
102
RTVSPost2010Prop30
280
     1
102
RTVSPost2010PropOp30
 70
     1
102
RTVSPost2010Prop31
280
     0
102
RTVSPost2010PropOp31
 70
     1
102
RTVSPost2010Prop32
280
     0
102
RTVSPost2010PropOp32
 70
     1
102
RTVSPost2010Prop33
280
     0
102
RTVSPost2010PropOp33
 70
     1
102
RTVSPost2010Prop34
280
     0
102
RTVSPost2010PropOp34
 70
     1
102
RTVSPost2010Prop35
280
     0
102
RTVSPost2010PropOp35
 70
     1
102
RTVSPost2010Prop36
280
     0
102
RTVSPost2010PropOp36
 70
     1
102
RTVSPost2010Prop37
 90
       50
102
RTVSPost2010PropOp37
 70
     1
102
RTVSPost2010Prop38
140
0.0
102
RTVSPost2010PropOp38
 70
     1
102
RTVSPost2010Prop39
140
1.0
102
RTVSPost2010PropOp39
 70
     1
102
RTVSPost2010Prop40
 90
        0
102
RTVSPost2010PropOp40
 70
     1
102
RTVSPost2010Prop41ColorIndex
 90
       18
102
RTVSPost2010Prop41ColorRGB
 90
        0
102
RTVSPost2010PropOp41
 70
     1
102
RTVSPost2010Prop42
 90
       50
102
RTVSPost2010PropOp42
 70
     1
102
RTVSPost2010Prop43
 90
        3
102
RTVSPost2010PropOp43
 70
     1
102
RTVSPost2010Prop44ColorIndex
 90
        5
102
RTVSPost2010Prop44ColorRGB
 90
      255
102
RTVSPost2010PropOp44
 70
     1
102
RTVSPost2010Prop45
280
     0
102
RTVSPost2010PropOp45
 70
     1
102
RTVSPost2010Prop46
 90
       50
102
RTVSPost2010PropOp46
 70
     1
102
RTVSPost2010Prop47
 90
       50
102
RTVSPost2010PropOp47
 70
     1
102
RTVSPost2010Prop48
 90
       50
102
RTVSPost2010PropOp48
 70
     1
102
RTVSPost2010Prop49
280
     0
102
RTVSPost2010PropOp49
 70
     1
102
RTVSPost2010Prop50
 90
       50
102
RTVSPost2010PropOp50
 70
     1
102
RTVSPost2010Prop51ColorIndex
 90
      256
102
RTVSPost2010Prop51ColorRGB
 90
-16777216
102
RTVSPost2010PropOp51
 70
     0
102
RTVSPost2010Prop52
140
1.0
102
RTVSPost2010PropOp52
 70
     0
102
RTVSPost2010Prop53
 90
        2
102
RTVSPost2010PropOp53
 70
     1
102
RTVSPost2010Prop54
  1
strokes_ogs.tif
102
RTVSPost2010PropOp54
 70
     1
102
RTVSPost2010Prop55
280
     0
102
RTVSPost2010PropOp55
 70
     1
102
RTVSPost2010Prop56
140
1.0
102
RTVSPost2010PropOp56
 70
     1
102
RTVSPost2010Prop57
140
1.0
102
RTVSPost2010PropOp57
 70
     1
  0
XRECORD
  5
126
102
{ACAD_REACTORS
330
125
102
}
330
125
100
AcDbXrecord
280
     1
102
RTVSPost2010Prop28
280
     0
102
RTVSPost2010PropOp28
 70
     0
102
RTVSPost2010Prop29
280
     1
102
RTVSPost2010PropOp29
 70
     0
102
RTVSPost2010Prop30
280
     1
102
RTVSPost2010PropOp30
 70
     0
102
RTVSPost2010Prop31
280
     0
102
RTVSPost2010PropOp31
 70
     0
102
RTVSPost2010Prop32
280
     0
102
RTVSPost2010PropOp32
 70
     0
102
RTVSPost2010Prop33
280
     0
102
RTVSPost2010PropOp33
 70
     0
102
RTVSPost2010Prop34
280
     0
102
RTVSPost2010PropOp34
 70
     0
102
RTVSPost2010Prop35
280
     0
102
RTVSPost2010PropOp35
 70
     0
102
RTVSPost2010Prop36
280
     0
102
RTVSPost2010PropOp36
 70
     0
102
RTVSPost2010Prop37
 90
       50
102
RTVSPost2010PropOp37
 70
     0
102
RTVSPost2010Prop38
140
0.0
102
RTVSPost2010PropOp38
 70
     0
102
RTVSPost2010Prop39
140
1.0
102
RTVSPost2010PropOp39
 70
     0
102
RTVSPost2010Prop40
 90
        0
102
RTVSPost2010PropOp40
 70
     0
102
RTVSPost2010Prop41ColorIndex
 90
       18
102
RTVSPost2010Prop41ColorRGB
 90
        0
102
RTVSPost2010PropOp41
 70
     0
102
RTVSPost2010Prop42
 90
       50
102
RTVSPost2010PropOp42
 70
     0
102
RTVSPost2010Prop43
 90
        3
102
RTVSPost2010PropOp43
 70
     0
102
RTVSPost2010Prop44ColorIndex
 90
        5
102
RTVSPost2010Prop44ColorRGB
 90
      255
102
RTVSPost2010PropOp44
 70
     0
102
RTVSPost2010Prop45
280
     0
102
RTVSPost2010PropOp45
 70
     0
102
RTVSPost2010Prop46
 90
       50
102
RTVSPost2010PropOp46
 70
     0
102
RTVSPost2010Prop47
 90
       50
102
RTVSPost2010PropOp47
 70
     0
102
RTVSPost2010Prop48
 90
       50
102
RTVSPost2010PropOp48
 70
     0
102
RTVSPost2010Prop49
280
     0
102
RTVSPost2010PropOp49
 70
     0
102
RTVSPost2010Prop50
 90
       50
102
RTVSPost2010PropOp50
 70
     0
102
RTVSPost2010Prop51ColorIndex
 90
      256
102
RTVSPost2010Prop51ColorRGB
 90
-16777216
102
RTVSPost2010PropOp51
 70
     0
102
RTVSPost2010Prop52
140
1.0
102
RTVSPost2010PropOp52
 70
     0
102
RTVSPost2010Prop53
 90
        2
102
RTVSPost2010PropOp53
 70
     0
102
RTVSPost2010Prop54
  1
strokes_ogs.tif
102
RTVSPost2010PropOp54
 70
     0
102
RTVSPost2010Prop55
280
     0
102
RTVSPost2010PropOp55
 70
     0
102
RTVSPost2010Prop56
140
1.0
102
RTVSPost2010PropOp56
 70
     0
102
RTVSPost2010Prop57
140
1.0
102
RTVSPost2010PropOp57
 70
     0
  0
XRECORD
  5
116
102
{ACAD_REACTORS
330
115
102
}
330
115
100
AcDbXrecord
280
     1
102
RTVSPost2010Prop28
280
     0
102
RTVSPost2010PropOp28
 70
     1
102
RTVSPost2010Prop29
280
     1
102
RTVSPost2010PropOp29
 70
     1
102
RTVSPost2010Prop30
280
     1
102
RTVSPost2010PropOp30
 70
     1
102
RTVSPost2010Prop31
280
     0
102
RTVSPost2010PropOp31
 70
     1
102
RTVSPost2010Prop32
280
     0
102
RTVSPost2010PropOp32
 70
     1
102
RTVSPost2010Prop33
280
     0
102
RTVSPost2010PropOp33
 70
     1
102
RTVSPost2010Prop34
280
     0
102
RTVSPost2010PropOp34
 70
     1
102
RTVSPost2010Prop35
280
     0
102
RTVSPost2010PropOp35
 70
     1
102
RTVSPost2010Prop36
280
     0
102
RTVSPost2010PropOp36
 70
     1
102
RTVSPost2010Prop37
 90
       50
102
RTVSPost2010PropOp37
 70
     1
102
RTVSPost2010Prop38
140
0.0
102
RTVSPost2010PropOp38
 70
     1
102
RTVSPost2010Prop39
140
1.0
102
RTVSPost2010PropOp39
 70
     1
102
RTVSPost2010Prop40
 90
        0
102
RTVSPost2010PropOp40
 70
     1
102
RTVSPost2010Prop41ColorIndex
 90
       18
102
RTVSPost2010Prop41ColorRGB
 90
        0
102
RTVSPost2010PropOp41
 70
     1
102
RTVSPost2010Prop42
 90
       50
102
RTVSPost2010PropOp42
 70
     1
102
RTVSPost2010Prop43
 90
        3
102
RTVSPost2010PropOp43
 70
     1
102
RTVSPost2010Prop44ColorIndex
 90
        5
102
RTVSPost2010Prop44ColorRGB
 90
      255
102
RTVSPost2010PropOp44
 70
     1
102
RTVSPost2010Prop45
280
     0
102
RTVSPost2010PropOp45
 70
     1
102
RTVSPost2010Prop46
 90
       50
102
RTVSPost2010PropOp46
 70
     1
102
RTVSPost2010Prop47
 90
       50
102
RTVSPost2010PropOp47
 70
     1
102
RTVSPost2010Prop48
 90
       50
102
RTVSPost2010PropOp48
 70
     1
102
RTVSPost2010Prop49
280
     0
102
RTVSPost2010PropOp49
 70
     1
102
RTVSPost2010Prop50
 90
       50
102
RTVSPost2010PropOp50
 70
     1
102
RTVSPost2010Prop51ColorIndex
 90
      256
102
RTVSPost2010Prop51ColorRGB
 90
-16777216
102
RTVSPost2010PropOp51
 70
     0
102
RTVSPost2010Prop52
140
1.0
102
RTVSPost2010PropOp52
 70
     0
102
RTVSPost2010Prop53
 90
        2
102
RTVSPost2010PropOp53
 70
     1
102
RTVSPost2010Prop54
  1
strokes_ogs.tif
102
RTVSPost2010PropOp54
 70
     1
102
RTVSPost2010Prop55
280
     0
102
RTVSPost2010PropOp55
 70
     1
102
RTVSPost2010Prop56
140
1.0
102
RTVSPost2010PropOp56
 70
     1
102
RTVSPost2010Prop57
140
1.0
102
RTVSPost2010PropOp57
 70
     1
  0
XRECORD
  5
128
102
{ACAD_REACTORS
330
127
102
}
330
127
100
AcDbXrecord
280
     1
102
RTVSPost2010Prop28
280
     0
102
RTVSPost2010PropOp28
 70
     0
102
RTVSPost2010Prop29
280
     1
102
RTVSPost2010PropOp29
 70
     0
102
RTVSPost2010Prop30
280
     1
102
RTVSPost2010PropOp30
 70
     0
102
RTVSPost2010Prop31
280
     0
102
RTVSPost2010PropOp31
 70
     0
102
RTVSPost2010Prop32
280
     0
102
RTVSPost2010PropOp32
 70
     0
102
RTVSPost2010Prop33
280
     0
102
RTVSPost2010PropOp33
 70
     0
102
RTVSPost2010Prop34
280
     0
102
RTVSPost2010PropOp34
 70
     0
102
RTVSPost2010Prop35
280
     0
102
RTVSPost2010PropOp35
 70
     0
102
RTVSPost2010Prop36
280
     0
102
RTVSPost2010PropOp36
 70
     0
102
RTVSPost2010Prop37
 90
       50
102
RTVSPost2010PropOp37
 70
     0
102
RTVSPost2010Prop38
140
0.0
102
RTVSPost2010PropOp38
 70
     0
102
RTVSPost2010Prop39
140
1.0
102
RTVSPost2010PropOp39
 70
     0
102
RTVSPost2010Prop40
 90
        0
102
RTVSPost2010PropOp40
 70
     0
102
RTVSPost2010Prop41ColorIndex
 90
       18
102
RTVSPost2010Prop41ColorRGB
 90
        0
102
RTVSPost2010PropOp41
 70
     0
102
RTVSPost2010Prop42
 90
       50
102
RTVSPost2010PropOp42
 70
     0
102
RTVSPost2010Prop43
 90
        3
102
RTVSPost2010PropOp43
 70
     0
102
RTVSPost2010Prop44ColorIndex
 90
        5
102
RTVSPost2010Prop44ColorRGB
 90
      255
102
RTVSPost2010PropOp44
 70
     0
102
RTVSPost2010Prop45
280
     0
102
RTVSPost2010PropOp45
 70
     0
102
RTVSPost2010Prop46
 90
       50
102
RTVSPost2010PropOp46
 70
     0
102
RTVSPost2010Prop47
 90
       50
102
RTVSPost2010PropOp47
 70
     0
102
RTVSPost2010Prop48
 90
       50
102
RTVSPost2010PropOp48
 70
     0
102
RTVSPost2010Prop49
280
     0
102
RTVSPost2010PropOp49
 70
     0
102
RTVSPost2010Prop50
 90
       50
102
RTVSPost2010PropOp50
 70
     0
102
RTVSPost2010Prop51ColorIndex
 90
      256
102
RTVSPost2010Prop51ColorRGB
 90
-16777216
102
RTVSPost2010PropOp51
 70
     0
102
RTVSPost2010Prop52
140
1.0
102
RTVSPost2010PropOp52
 70
     0
102
RTVSPost2010Prop53
 90
        2
102
RTVSPost2010PropOp53
 70
     0
102
RTVSPost2010Prop54
  1
strokes_ogs.tif
102
RTVSPost2010PropOp54
 70
     0
102
RTVSPost2010Prop55
280
     0
102
RTVSPost2010PropOp55
 70
     0
102
RTVSPost2010Prop56
140
1.0
102
RTVSPost2010PropOp56
 70
     0
102
RTVSPost2010Prop57
140
1.0
102
RTVSPost2010PropOp57
 70
     0
  0
XRECORD
  5
10E
102
{ACAD_REACTORS
330
10D
102
}
330
10D
100
AcDbXrecord
280
     1
102
RTVSPost2010Prop28
280
     0
102
RTVSPost2010PropOp28
 70
     1
102
RTVSPost2010Prop29
280
     1
102
RTVSPost2010PropOp29
 70
     1
102
RTVSPost2010Prop30
280
     1
102
RTVSPost2010PropOp30
 70
     1
102
RTVSPost2010Prop31
280
     0
102
RTVSPost2010PropOp31
 70
     1
102
RTVSPost2010Prop32
280
     0
102
RTVSPost2010PropOp32
 70
     1
102
RTVSPost2010Prop33
280
     0
102
RTVSPost2010PropOp33
 70
     1
102
RTVSPost2010Prop34
280
     0
102
RTVSPost2010PropOp34
 70
     1
102
RTVSPost2010Prop35
280
     0
102
RTVSPost2010PropOp35
 70
     1
102
RTVSPost2010Prop36
280
     0
102
RTVSPost2010PropOp36
 70
     1
102
RTVSPost2010Prop37
 90
       50
102
RTVSPost2010PropOp37
 70
     1
102
RTVSPost2010Prop38
140
0.0
102
RTVSPost2010PropOp38
 70
     1
102
RTVSPost2010Prop39
140
1.0
102
RTVSPost2010PropOp39
 70
     1
102
RTVSPost2010Prop40
 90
        0
102
RTVSPost2010PropOp40
 70
     1
102
RTVSPost2010Prop41ColorIndex
 90
       18
102
RTVSPost2010Prop41ColorRGB
 90
        0
102
RTVSPost2010PropOp41
 70
     1
102
RTVSPost2010Prop42
 90
       50
102
RTVSPost2010PropOp42
 70
     1
102
RTVSPost2010Prop43
 90
        3
102
RTVSPost2010PropOp43
 70
     1
102
RTVSPost2010Prop44ColorIndex
 90
        5
102
RTVSPost2010Prop44ColorRGB
 90
      255
102
RTVSPost2010PropOp44
 70
     1
102
RTVSPost2010Prop45
280
     0
102
RTVSPost2010PropOp45
 70
     1
102
RTVSPost2010Prop46
 90
       50
102
RTVSPost2010PropOp46
 70
     1
102
RTVSPost2010Prop47
 90
       50
102
RTVSPost2010PropOp47
 70
     1
102
RTVSPost2010Prop48
 90
       50
102
RTVSPost2010PropOp48
 70
     1
102
RTVSPost2010Prop49
280
     0
102
RTVSPost2010PropOp49
 70
     1
102
RTVSPost2010Prop50
 90
       50
102
RTVSPost2010PropOp50
 70
     1
102
RTVSPost2010Prop51ColorIndex
 90
      256
102
RTVSPost2010Prop51ColorRGB
 90
-16777216
102
RTVSPost2010PropOp51
 70
     0
102
RTVSPost2010Prop52
140
1.0
102
RTVSPost2010PropOp52
 70
     0
102
RTVSPost2010Prop53
 90
        2
102
RTVSPost2010PropOp53
 70
     1
102
RTVSPost2010Prop54
  1
strokes_ogs.tif
102
RTVSPost2010PropOp54
 70
     1
102
RTVSPost2010Prop55
280
     0
102
RTVSPost2010PropOp55
 70
     1
102
RTVSPost2010Prop56
140
1.0
102
RTVSPost2010PropOp56
 70
     1
102
RTVSPost2010Prop57
140
1.0
102
RTVSPost2010PropOp57
 70
     1
  0
XRECORD
  5
124
102
{ACAD_REACTORS
330
123
102
}
330
123
100
AcDbXrecord
280
     1
102
RTVSPost2010Prop28
280
     0
102
RTVSPost2010PropOp28
 70
     1
102
RTVSPost2010Prop29
280
     1
102
RTVSPost2010PropOp29
 70
     1
102
RTVSPost2010Prop30
280
     1
102
RTVSPost2010PropOp30
 70
     1
102
RTVSPost2010Prop31
280
     0
102
RTVSPost2010PropOp31
 70
     1
102
RTVSPost2010Prop32
280
     0
102
RTVSPost2010PropOp32
 70
     1
102
RTVSPost2010Prop33
280
     0
102
RTVSPost2010PropOp33
 70
     1
102
RTVSPost2010Prop34
280
     0
102
RTVSPost2010PropOp34
 70
     1
102
RTVSPost2010Prop35
280
     0
102
RTVSPost2010PropOp35
 70
     1
102
RTVSPost2010Prop36
280
     0
102
RTVSPost2010PropOp36
 70
     1
102
RTVSPost2010Prop37
 90
       50
102
RTVSPost2010PropOp37
 70
     1
102
RTVSPost2010Prop38
140
0.0
102
RTVSPost2010PropOp38
 70
     1
102
RTVSPost2010Prop39
140
1.0
102
RTVSPost2010PropOp39
 70
     1
102
RTVSPost2010Prop40
 90
        0
102
RTVSPost2010PropOp40
 70
     1
102
RTVSPost2010Prop41ColorIndex
 90
       18
102
RTVSPost2010Prop41ColorRGB
 90
        0
102
RTVSPost2010PropOp41
 70
     1
102
RTVSPost2010Prop42
 90
       50
102
RTVSPost2010PropOp42
 70
     1
102
RTVSPost2010Prop43
 90
        3
102
RTVSPost2010PropOp43
 70
     1
102
RTVSPost2010Prop44ColorIndex
 90
        5
102
RTVSPost2010Prop44ColorRGB
 90
      255
102
RTVSPost2010PropOp44
 70
     1
102
RTVSPost2010Prop45
280
     0
102
RTVSPost2010PropOp45
 70
     1
102
RTVSPost2010Prop46
 90
       50
102
RTVSPost2010PropOp46
 70
     1
102
RTVSPost2010Prop47
 90
       50
102
RTVSPost2010PropOp47
 70
     1
102
RTVSPost2010Prop48
 90
       50
102
RTVSPost2010PropOp48
 70
     1
102
RTVSPost2010Prop49
280
     0
102
RTVSPost2010PropOp49
 70
     1
102
RTVSPost2010Prop50
 90
       50
102
RTVSPost2010PropOp50
 70
     1
102
RTVSPost2010Prop51ColorIndex
 90
      256
102
RTVSPost2010Prop51ColorRGB
 90
-16777216
102
RTVSPost2010PropOp51
 70
     0
102
RTVSPost2010Prop52
140
1.0
102
RTVSPost2010PropOp52
 70
     0
102
RTVSPost2010Prop53
 90
        2
102
RTVSPost2010PropOp53
 70
     1
102
RTVSPost2010Prop54
  1
strokes_ogs.tif
102
RTVSPost2010PropOp54
 70
     1
102
RTVSPost2010Prop55
280
     0
102
RTVSPost2010PropOp55
 70
     1
102
RTVSPost2010Prop56
140
1.0
102
RTVSPost2010PropOp56
 70
     1
102
RTVSPost2010Prop57
140
1.0
102
RTVSPost2010PropOp57
 70
     1
  0
XRECORD
  5
122
102
{ACAD_REACTORS
330
121
102
}
330
121
100
AcDbXrecord
280
     1
102
RTVSPost2010Prop28
280
     0
102
RTVSPost2010PropOp28
 70
     1
102
RTVSPost2010Prop29
280
     1
102
RTVSPost2010PropOp29
 70
     1
102
RTVSPost2010Prop30
280
     1
102
RTVSPost2010PropOp30
 70
     1
102
RTVSPost2010Prop31
280
     0
102
RTVSPost2010PropOp31
 70
     1
102
RTVSPost2010Prop32
280
     0
102
RTVSPost2010PropOp32
 70
     1
102
RTVSPost2010Prop33
280
     0
102
RTVSPost2010PropOp33
 70
     1
102
RTVSPost2010Prop34
280
     0
102
RTVSPost2010PropOp34
 70
     1
102
RTVSPost2010Prop35
280
     0
102
RTVSPost2010PropOp35
 70
     1
102
RTVSPost2010Prop36
280
     0
102
RTVSPost2010PropOp36
 70
     1
102
RTVSPost2010Prop37
 90
       50
102
RTVSPost2010PropOp37
 70
     1
102
RTVSPost2010Prop38
140
0.0
102
RTVSPost2010PropOp38
 70
     1
102
RTVSPost2010Prop39
140
1.0
102
RTVSPost2010PropOp39
 70
     1
102
RTVSPost2010Prop40
 90
        0
102
RTVSPost2010PropOp40
 70
     1
102
RTVSPost2010Prop41ColorIndex
 90
       18
102
RTVSPost2010Prop41ColorRGB
 90
        0
102
RTVSPost2010PropOp41
 70
     1
102
RTVSPost2010Prop42
 90
       50
102
RTVSPost2010PropOp42
 70
     1
102
RTVSPost2010Prop43
 90
        3
102
RTVSPost2010PropOp43
 70
     1
102
RTVSPost2010Prop44ColorIndex
 90
        5
102
RTVSPost2010Prop44ColorRGB
 90
      255
102
RTVSPost2010PropOp44
 70
     1
102
RTVSPost2010Prop45
280
     0
102
RTVSPost2010PropOp45
 70
     1
102
RTVSPost2010Prop46
 90
       50
102
RTVSPost2010PropOp46
 70
     1
102
RTVSPost2010Prop47
 90
       50
102
RTVSPost2010PropOp47
 70
     1
102
RTVSPost2010Prop48
 90
       50
102
RTVSPost2010PropOp48
 70
     1
102
RTVSPost2010Prop49
280
     0
102
RTVSPost2010PropOp49
 70
     1
102
RTVSPost2010Prop50
 90
       50
102
RTVSPost2010PropOp50
 70
     1
102
RTVSPost2010Prop51ColorIndex
 90
      256
102
RTVSPost2010Prop51ColorRGB
 90
-16777216
102
RTVSPost2010PropOp51
 70
     0
102
RTVSPost2010Prop52
140
1.0
102
RTVSPost2010PropOp52
 70
     0
102
RTVSPost2010Prop53
 90
        2
102
RTVSPost2010PropOp53
 70
     1
102
RTVSPost2010Prop54
  1
strokes_ogs.tif
102
RTVSPost2010PropOp54
 70
     1
102
RTVSPost2010Prop55
280
     0
102
RTVSPost2010PropOp55
 70
     1
102
RTVSPost2010Prop56
140
1.0
102
RTVSPost2010PropOp56
 70
     1
102
RTVSPost2010Prop57
140
1.0
102
RTVSPost2010PropOp57
 70
     1
  0
XRECORD
  5
11C
102
{ACAD_REACTORS
330
11B
102
}
330
11B
100
AcDbXrecord
280
     1
102
RTVSPost2010Prop28
280
     0
102
RTVSPost2010PropOp28
 70
     1
102
RTVSPost2010Prop29
280
     1
102
RTVSPost2010PropOp29
 70
     1
102
RTVSPost2010Prop30
280
     1
102
RTVSPost2010PropOp30
 70
     1
102
RTVSPost2010Prop31
280
     0
102
RTVSPost2010PropOp31
 70
     1
102
RTVSPost2010Prop32
280
     0
102
RTVSPost2010PropOp32
 70
     1
102
RTVSPost2010Prop33
280
     0
102
RTVSPost2010PropOp33
 70
     1
102
RTVSPost2010Prop34
280
     0
102
RTVSPost2010PropOp34
 70
     1
102
RTVSPost2010Prop35
280
     0
102
RTVSPost2010PropOp35
 70
     1
102
RTVSPost2010Prop36
280
     0
102
RTVSPost2010PropOp36
 70
     1
102
RTVSPost2010Prop37
 90
       50
102
RTVSPost2010PropOp37
 70
     1
102
RTVSPost2010Prop38
140
0.0
102
RTVSPost2010PropOp38
 70
     1
102
RTVSPost2010Prop39
140
1.0
102
RTVSPost2010PropOp39
 70
     1
102
RTVSPost2010Prop40
 90
        0
102
RTVSPost2010PropOp40
 70
     1
102
RTVSPost2010Prop41ColorIndex
 90
       18
102
RTVSPost2010Prop41ColorRGB
 90
        0
102
RTVSPost2010PropOp41
 70
     1
102
RTVSPost2010Prop42
 90
       50
102
RTVSPost2010PropOp42
 70
     1
102
RTVSPost2010Prop43
 90
        3
102
RTVSPost2010PropOp43
 70
     1
102
RTVSPost2010Prop44ColorIndex
 90
        5
102
RTVSPost2010Prop44ColorRGB
 90
      255
102
RTVSPost2010PropOp44
 70
     1
102
RTVSPost2010Prop45
280
     0
102
RTVSPost2010PropOp45
 70
     1
102
RTVSPost2010Prop46
 90
       50
102
RTVSPost2010PropOp46
 70
     1
102
RTVSPost2010Prop47
 90
       50
102
RTVSPost2010PropOp47
 70
     1
102
RTVSPost2010Prop48
 90
       50
102
RTVSPost2010PropOp48
 70
     1
102
RTVSPost2010Prop49
280
     0
102
RTVSPost2010PropOp49
 70
     1
102
RTVSPost2010Prop50
 90
       50
102
RTVSPost2010PropOp50
 70
     1
102
RTVSPost2010Prop51ColorIndex
 90
      256
102
RTVSPost2010Prop51ColorRGB
 90
-16777216
102
RTVSPost2010PropOp51
 70
     0
102
RTVSPost2010Prop52
140
1.0
102
RTVSPost2010PropOp52
 70
     0
102
RTVSPost2010Prop53
 90
        2
102
RTVSPost2010PropOp53
 70
     1
102
RTVSPost2010Prop54
  1
strokes_ogs.tif
102
RTVSPost2010PropOp54
 70
     1
102
RTVSPost2010Prop55
280
     0
102
RTVSPost2010PropOp55
 70
     1
102
RTVSPost2010Prop56
140
1.0
102
RTVSPost2010PropOp56
 70
     1
102
RTVSPost2010Prop57
140
1.0
102
RTVSPost2010PropOp57
 70
     1
  0
XRECORD
  5
11E
102
{ACAD_REACTORS
330
11D
102
}
330
11D
100
AcDbXrecord
280
     1
102
RTVSPost2010Prop28
280
     0
102
RTVSPost2010PropOp28
 70
     1
102
RTVSPost2010Prop29
280
     1
102
RTVSPost2010PropOp29
 70
     1
102
RTVSPost2010Prop30
280
     1
102
RTVSPost2010PropOp30
 70
     1
102
RTVSPost2010Prop31
280
     0
102
RTVSPost2010PropOp31
 70
     1
102
RTVSPost2010Prop32
280
     0
102
RTVSPost2010PropOp32
 70
     1
102
RTVSPost2010Prop33
280
     0
102
RTVSPost2010PropOp33
 70
     1
102
RTVSPost2010Prop34
280
     0
102
RTVSPost2010PropOp34
 70
     1
102
RTVSPost2010Prop35
280
     0
102
RTVSPost2010PropOp35
 70
     1
102
RTVSPost2010Prop36
280
     0
102
RTVSPost2010PropOp36
 70
     1
102
RTVSPost2010Prop37
 90
       50
102
RTVSPost2010PropOp37
 70
     1
102
RTVSPost2010Prop38
140
0.0
102
RTVSPost2010PropOp38
 70
     1
102
RTVSPost2010Prop39
140
1.0
102
RTVSPost2010PropOp39
 70
     1
102
RTVSPost2010Prop40
 90
        0
102
RTVSPost2010PropOp40
 70
     1
102
RTVSPost2010Prop41ColorIndex
 90
       18
102
RTVSPost2010Prop41ColorRGB
 90
        0
102
RTVSPost2010PropOp41
 70
     1
102
RTVSPost2010Prop42
 90
       50
102
RTVSPost2010PropOp42
 70
     1
102
RTVSPost2010Prop43
 90
        3
102
RTVSPost2010PropOp43
 70
     1
102
RTVSPost2010Prop44ColorIndex
 90
        5
102
RTVSPost2010Prop44ColorRGB
 90
      255
102
RTVSPost2010PropOp44
 70
     1
102
RTVSPost2010Prop45
280
     0
102
RTVSPost2010PropOp45
 70
     1
102
RTVSPost2010Prop46
 90
       50
102
RTVSPost2010PropOp46
 70
     1
102
RTVSPost2010Prop47
 90
       50
102
RTVSPost2010PropOp47
 70
     1
102
RTVSPost2010Prop48
 90
       50
102
RTVSPost2010PropOp48
 70
     1
102
RTVSPost2010Prop49
280
     0
102
RTVSPost2010PropOp49
 70
     1
102
RTVSPost2010Prop50
 90
       50
102
RTVSPost2010PropOp50
 70
     1
102
RTVSPost2010Prop51ColorIndex
 90
      256
102
RTVSPost2010Prop51ColorRGB
 90
-16777216
102
RTVSPost2010PropOp51
 70
     0
102
RTVSPost2010Prop52
140
1.0
102
RTVSPost2010PropOp52
 70
     0
102
RTVSPost2010Prop53
 90
        2
102
RTVSPost2010PropOp53
 70
     1
102
RTVSPost2010Prop54
  1
strokes_ogs.tif
102
RTVSPost2010PropOp54
 70
     1
102
RTVSPost2010Prop55
280
     0
102
RTVSPost2010PropOp55
 70
     1
102
RTVSPost2010Prop56
140
1.0
102
RTVSPost2010PropOp56
 70
     1
102
RTVSPost2010Prop57
140
1.0
102
RTVSPost2010PropOp57
 70
     1
  0
XRECORD
  5
114
102
{ACAD_REACTORS
330
113
102
}
330
113
100
AcDbXrecord
280
     1
102
RTVSPost2010Prop28
280
     0
102
RTVSPost2010PropOp28
 70
     1
102
RTVSPost2010Prop29
280
     1
102
RTVSPost2010PropOp29
 70
     1
102
RTVSPost2010Prop30
280
     1
102
RTVSPost2010PropOp30
 70
     1
102
RTVSPost2010Prop31
280
     0
102
RTVSPost2010PropOp31
 70
     1
102
RTVSPost2010Prop32
280
     0
102
RTVSPost2010PropOp32
 70
     1
102
RTVSPost2010Prop33
280
     0
102
RTVSPost2010PropOp33
 70
     1
102
RTVSPost2010Prop34
280
     0
102
RTVSPost2010PropOp34
 70
     1
102
RTVSPost2010Prop35
280
     0
102
RTVSPost2010PropOp35
 70
     1
102
RTVSPost2010Prop36
280
     0
102
RTVSPost2010PropOp36
 70
     1
102
RTVSPost2010Prop37
 90
       50
102
RTVSPost2010PropOp37
 70
     1
102
RTVSPost2010Prop38
140
0.0
102
RTVSPost2010PropOp38
 70
     1
102
RTVSPost2010Prop39
140
1.0
102
RTVSPost2010PropOp39
 70
     1
102
RTVSPost2010Prop40
 90
        0
102
RTVSPost2010PropOp40
 70
     1
102
RTVSPost2010Prop41ColorIndex
 90
       18
102
RTVSPost2010Prop41ColorRGB
 90
        0
102
RTVSPost2010PropOp41
 70
     1
102
RTVSPost2010Prop42
 90
       50
102
RTVSPost2010PropOp42
 70
     1
102
RTVSPost2010Prop43
 90
        3
102
RTVSPost2010PropOp43
 70
     1
102
RTVSPost2010Prop44ColorIndex
 90
        5
102
RTVSPost2010Prop44ColorRGB
 90
      255
102
RTVSPost2010PropOp44
 70
     1
102
RTVSPost2010Prop45
280
     0
102
RTVSPost2010PropOp45
 70
     1
102
RTVSPost2010Prop46
 90
       50
102
RTVSPost2010PropOp46
 70
     1
102
RTVSPost2010Prop47
 90
       50
102
RTVSPost2010PropOp47
 70
     1
102
RTVSPost2010Prop48
 90
       50
102
RTVSPost2010PropOp48
 70
     1
102
RTVSPost2010Prop49
280
     0
102
RTVSPost2010PropOp49
 70
     1
102
RTVSPost2010Prop50
 90
       50
102
RTVSPost2010PropOp50
 70
     1
102
RTVSPost2010Prop51ColorIndex
 90
      256
102
RTVSPost2010Prop51ColorRGB
 90
-16777216
102
RTVSPost2010PropOp51
 70
     0
102
RTVSPost2010Prop52
140
1.0
102
RTVSPost2010PropOp52
 70
     0
102
RTVSPost2010Prop53
 90
        2
102
RTVSPost2010PropOp53
 70
     1
102
RTVSPost2010Prop54
  1
strokes_ogs.tif
102
RTVSPost2010PropOp54
 70
     1
102
RTVSPost2010Prop55
280
     0
102
RTVSPost2010PropOp55
 70
     1
102
RTVSPost2010Prop56
140
1.0
102
RTVSPost2010PropOp56
 70
     1
102
RTVSPost2010Prop57
140
1.0
102
RTVSPost2010PropOp57
 70
     1
  0
XRECORD
  5
108
102
{ACAD_REACTORS
330
107
102
}
330
107
100
AcDbXrecord
280
     1
102
RTVSPost2010Prop28
280
     0
102
RTVSPost2010PropOp28
 70
     1
102
RTVSPost2010Prop29
280
     1
102
RTVSPost2010PropOp29
 70
     1
102
RTVSPost2010Prop30
280
     1
102
RTVSPost2010PropOp30
 70
     1
102
RTVSPost2010Prop31
280
     0
102
RTVSPost2010PropOp31
 70
     1
102
RTVSPost2010Prop32
280
     0
102
RTVSPost2010PropOp32
 70
     1
102
RTVSPost2010Prop33
280
     0
102
RTVSPost2010PropOp33
 70
     1
102
RTVSPost2010Prop34
280
     0
102
RTVSPost2010PropOp34
 70
     1
102
RTVSPost2010Prop35
280
     0
102
RTVSPost2010PropOp35
 70
     1
102
RTVSPost2010Prop36
280
     0
102
RTVSPost2010PropOp36
 70
     1
102
RTVSPost2010Prop37
 90
       50
102
RTVSPost2010PropOp37
 70
     1
102
RTVSPost2010Prop38
140
0.0
102
RTVSPost2010PropOp38
 70
     1
102
RTVSPost2010Prop39
140
1.0
102
RTVSPost2010PropOp39
 70
     1
102
RTVSPost2010Prop40
 90
        0
102
RTVSPost2010PropOp40
 70
     1
102
RTVSPost2010Prop41ColorIndex
 90
       18
102
RTVSPost2010Prop41ColorRGB
 90
        0
102
RTVSPost2010PropOp41
 70
     1
102
RTVSPost2010Prop42
 90
       50
102
RTVSPost2010PropOp42
 70
     1
102
RTVSPost2010Prop43
 90
        3
102
RTVSPost2010PropOp43
 70
     1
102
RTVSPost2010Prop44ColorIndex
 90
        5
102
RTVSPost2010Prop44ColorRGB
 90
      255
102
RTVSPost2010PropOp44
 70
     1
102
RTVSPost2010Prop45
280
     0
102
RTVSPost2010PropOp45
 70
     1
102
RTVSPost2010Prop46
 90
       50
102
RTVSPost2010PropOp46
 70
     1
102
RTVSPost2010Prop47
 90
       50
102
RTVSPost2010PropOp47
 70
     1
102
RTVSPost2010Prop48
 90
       50
102
RTVSPost2010PropOp48
 70
     1
102
RTVSPost2010Prop49
280
     0
102
RTVSPost2010PropOp49
 70
     1
102
RTVSPost2010Prop50
 90
       50
102
RTVSPost2010PropOp50
 70
     1
102
RTVSPost2010Prop51ColorIndex
 90
      256
102
RTVSPost2010Prop51ColorRGB
 90
-16777216
102
RTVSPost2010PropOp51
 70
     0
102
RTVSPost2010Prop52
140
1.0
102
RTVSPost2010PropOp52
 70
     0
102
RTVSPost2010Prop53
 90
        2
102
RTVSPost2010PropOp53
 70
     1
102
RTVSPost2010Prop54
  1
strokes_ogs.tif
102
RTVSPost2010PropOp54
 70
     1
102
RTVSPost2010Prop55
280
     0
102
RTVSPost2010PropOp55
 70
     1
102
RTVSPost2010Prop56
140
1.0
102
RTVSPost2010PropOp56
 70
     1
102
RTVSPost2010Prop57
140
1.0
102
RTVSPost2010PropOp57
 70
     1
  0
XRECORD
  5
120
102
{ACAD_REACTORS
330
11F
102
}
330
11F
100
AcDbXrecord
280
     1
102
RTVSPost2010Prop28
280
     0
102
RTVSPost2010PropOp28
 70
     1
102
RTVSPost2010Prop29
280
     1
102
RTVSPost2010PropOp29
 70
     1
102
RTVSPost2010Prop30
280
     1
102
RTVSPost2010PropOp30
 70
     1
102
RTVSPost2010Prop31
280
     0
102
RTVSPost2010PropOp31
 70
     1
102
RTVSPost2010Prop32
280
     0
102
RTVSPost2010PropOp32
 70
     1
102
RTVSPost2010Prop33
280
     0
102
RTVSPost2010PropOp33
 70
     1
102
RTVSPost2010Prop34
280
     0
102
RTVSPost2010PropOp34
 70
     1
102
RTVSPost2010Prop35
280
     0
102
RTVSPost2010PropOp35
 70
     1
102
RTVSPost2010Prop36
280
     0
102
RTVSPost2010PropOp36
 70
     1
102
RTVSPost2010Prop37
 90
       50
102
RTVSPost2010PropOp37
 70
     1
102
RTVSPost2010Prop38
140
0.0
102
RTVSPost2010PropOp38
 70
     1
102
RTVSPost2010Prop39
140
1.0
102
RTVSPost2010PropOp39
 70
     1
102
RTVSPost2010Prop40
 90
        0
102
RTVSPost2010PropOp40
 70
     1
102
RTVSPost2010Prop41ColorIndex
 90
       18
102
RTVSPost2010Prop41ColorRGB
 90
        0
102
RTVSPost2010PropOp41
 70
     1
102
RTVSPost2010Prop42
 90
       50
102
RTVSPost2010PropOp42
 70
     1
102
RTVSPost2010Prop43
 90
        3
102
RTVSPost2010PropOp43
 70
     1
102
RTVSPost2010Prop44ColorIndex
 90
        5
102
RTVSPost2010Prop44ColorRGB
 90
      255
102
RTVSPost2010PropOp44
 70
     1
102
RTVSPost2010Prop45
280
     0
102
RTVSPost2010PropOp45
 70
     1
102
RTVSPost2010Prop46
 90
       50
102
RTVSPost2010PropOp46
 70
     1
102
RTVSPost2010Prop47
 90
       50
102
RTVSPost2010PropOp47
 70
     1
102
RTVSPost2010Prop48
 90
       50
102
RTVSPost2010PropOp48
 70
     1
102
RTVSPost2010Prop49
280
     0
102
RTVSPost2010PropOp49
 70
     1
102
RTVSPost2010Prop50
 90
       50
102
RTVSPost2010PropOp50
 70
     1
102
RTVSPost2010Prop51ColorIndex
 90
      256
102
RTVSPost2010Prop51ColorRGB
 90
-16777216
102
RTVSPost2010PropOp51
 70
     0
102
RTVSPost2010Prop52
140
1.0
102
RTVSPost2010PropOp52
 70
     0
102
RTVSPost2010Prop53
 90
        2
102
RTVSPost2010PropOp53
 70
     1
102
RTVSPost2010Prop54
  1
strokes_ogs.tif
102
RTVSPost2010PropOp54
 70
     1
102
RTVSPost2010Prop55
280
     0
102
RTVSPost2010PropOp55
 70
     1
102
RTVSPost2010Prop56
140
1.0
102
RTVSPost2010PropOp56
 70
     1
102
RTVSPost2010Prop57
140
1.0
102
RTVSPost2010PropOp57
 70
     1
  0
ENDSEC
  0
EOF
