  0
SECTION
  2
HEADER
  9
$ACADVER
  1
AC1024
  9
$ACADMAINTVER
 70
   226
  9
$DWGCODEPAGE
  3
ANSI_932
  9
$INSBASE
 10
0.0
 20
0.0
 30
0.0
  9
$EXTMIN
 10
1.000000000000000E+20
 20
1.000000000000000E+20
 30
1.000000000000000E+20
  9
$EXTMAX
 10
-1.000000000000000E+20
 20
-1.000000000000000E+20
 30
-1.000000000000000E+20
  9
$LIMMIN
 10
0.0
 20
0.0
  9
$LIMMAX
 10
12.0
 20
9.0
  9
$ORTHOMODE
 70
     0
  9
$REGENMODE
 70
     1
  9
$FILLMODE
 70
     1
  9
$QTEXTMODE
 70
     0
  9
$MIRRTEXT
 70
     0
  9
$LTSCALE
 40
1.0
  9
$ATTMODE
 70
     1
  9
$TEXTSIZE
 40
0.2
  9
$TRACEWID
 40
0.05
  9
$TEXTSTYLE
  7
Standard
  9
$CLAYER
  8
0
  9
$CELTYPE
  6
ByLayer
  9
$CECOLOR
 62
   256
  9
$CELTSCALE
 40
1.0
  9
$DISPSILH
 70
     0
  9
$DIMSCALE
 40
1.0
  9
$DIMASZ
 40
0.18
  9
$DIMEXO
 40
0.0625
  9
$DIMDLI
 40
0.38
  9
$DIMRND
 40
0.0
  9
$DIMDLE
 40
0.0
  9
$DIMEXE
 40
0.18
  9
$DIMTP
 40
0.0
  9
$DIMTM
 40
0.0
  9
$DIMTXT
 40
0.18
  9
$DIMCEN
 40
0.09
  9
$DIMTSZ
 40
0.0
  9
$DIMTOL
 70
     0
  9
$DIMLIM
 70
     0
  9
$DIMTIH
 70
     1
  9
$DIMTOH
 70
     1
  9
$DIMSE1
 70
     0
  9
$DIMSE2
 70
     0
  9
$DIMTAD
 70
     0
  9
$DIMZIN
 70
     0
  9
$DIMBLK
  1

  9
$DIMASO
 70
     1
  9
$DIMSHO
 70
     1
  9
$DIMPOST
  1

  9
$DIMAPOST
  1

  9
$DIMALT
 70
     0
  9
$DIMALTD
 70
     2
  9
$DIMALTF
 40
25.4
  9
$DIMLFAC
 40
1.0
  9
$DIMTOFL
 70
     0
  9
$DIMTVP
 40
0.0
  9
$DIMTIX
 70
     0
  9
$DIMSOXD
 70
     0
  9
$DIMSAH
 70
     0
  9
$DIMBLK1
  1

  9
$DIMBLK2
  1

  9
$DIMSTYLE
  2
Standard
  9
$DIMCLRD
 70
     0
  9
$DIMCLRE
 70
     0
  9
$DIMCLRT
 70
     0
  9
$DIMTFAC
 40
1.0
  9
$DIMGAP
 40
0.09
  9
$DIMJUST
 70
     0
  9
$DIMSD1
 70
     0
  9
$DIMSD2
 70
     0
  9
$DIMTOLJ
 70
     1
  9
$DIMTZIN
 70
     0
  9
$DIMALTZ
 70
     0
  9
$DIMALTTZ
 70
     0
  9
$DIMUPT
 70
     0
  9
$DIMDEC
 70
     4
  9
$DIMTDEC
 70
     4
  9
$DIMALTU
 70
     2
  9
$DIMALTTD
 70
     2
  9
$DIMTXSTY
  7
Standard
  9
$DIMAUNIT
 70
     0
  9
$DIMADEC
 70
     0
  9
$DIMALTRND
 40
0.0
  9
$DIMAZIN
 70
     0
  9
$DIMDSEP
 70
    46
  9
$DIMATFIT
 70
     3
  9
$DIMFRAC
 70
     0
  9
$DIMLDRBLK
  1

  9
$DIMLUNIT
 70
     2
  9
$DIMLWD
 70
    -2
  9
$DIMLWE
 70
    -2
  9
$DIMTMOVE
 70
     0
  9
$DIMFXL
 40
1.0
  9
$DIMFXLON
 70
     0
  9
$DIMJOGANG
 40
0.7853981633974483
  9
$DIMTFILL
 70
     0
  9
$DIMTFILLCLR
 70
     0
  9
$DIMARCSYM
 70
     0
  9
$DIMLTYPE
  6

  9
$DIMLTEX1
  6

  9
$DIMLTEX2
  6

  9
$DIMTXTDIRECTION
 70
     0
  9
$LUNITS
 70
     2
  9
$LUPREC
 70
     4
  9
$SKETCHINC
 40
0.1
  9
$FILLETRAD
 40
0.0
  9
$AUNITS
 70
     0
  9
$AUPREC
 70
     0
  9
$MENU
  1
.
  9
$ELEVATION
 40
0.0
  9
$PELEVATION
 40
0.0
  9
$THICKNESS
 40
0.0
  9
$LIMCHECK
 70
     0
  9
$CHAMFERA
 40
0.0
  9
$CHAMFERB
 40
0.0
  9
$CHAMFERC
 40
0.0
  9
$CHAMFERD
 40
0.0
  9
$SKPOLY
 70
     0
  9
$TDCREATE
 40
2459569.488576389
  9
$TDUCREATE
 40
2459569.113576389
  9
$TDUPDATE
 40
2459569.488576389
  9
$TDUUPDATE
 40
2459569.113576389
  9
$TDINDWG
 40
0.0000000000
  9
$TDUSRTIMER
 40
0.0000000000
  9
$USRTIMER
 70
     1
  9
$ANGBASE
 50
0.0
  9
$ANGDIR
 70
     0
  9
$PDMODE
 70
     0
  9
$PDSIZE
 40
0.0
  9
$PLINEWID
 40
0.0
  9
$SPLFRAME
 70
     0
  9
$SPLINETYPE
 70
     6
  9
$SPLINESEGS
 70
     8
  9
$HANDSEED
  5
10E
  9
$SURFTAB1
 70
     6
  9
$SURFTAB2
 70
     6
  9
$SURFTYPE
 70
     6
  9
$SURFU
 70
     6
  9
$SURFV
 70
     6
  9
$UCSBASE
  2

  9
$UCSNAME
  2

  9
$UCSORG
 10
0.0
 20
0.0
 30
0.0
  9
$UCSXDIR
 10
1.0
 20
0.0
 30
0.0
  9
$UCSYDIR
 10
0.0
 20
1.0
 30
0.0
  9
$UCSORTHOREF
  2

  9
$UCSORTHOVIEW
 70
     0
  9
$UCSORGTOP
 10
0.0
 20
0.0
 30
0.0
  9
$UCSORGBOTTOM
 10
0.0
 20
0.0
 30
0.0
  9
$UCSORGLEFT
 10
0.0
 20
0.0
 30
0.0
  9
$UCSORGRIGHT
 10
0.0
 20
0.0
 30
0.0
  9
$UCSORGFRONT
 10
0.0
 20
0.0
 30
0.0
  9
$UCSORGBACK
 10
0.0
 20
0.0
 30
0.0
  9
$PUCSBASE
  2

  9
$PUCSNAME
  2

  9
$PUCSORG
 10
0.0
 20
0.0
 30
0.0
  9
$PUCSXDIR
 10
1.0
 20
0.0
 30
0.0
  9
$PUCSYDIR
 10
0.0
 20
1.0
 30
0.0
  9
$PUCSORTHOREF
  2

  9
$PUCSORTHOVIEW
 70
     0
  9
$PUCSORGTOP
 10
0.0
 20
0.0
 30
0.0
  9
$PUCSORGBOTTOM
 10
0.0
 20
0.0
 30
0.0
  9
$PUCSORGLEFT
 10
0.0
 20
0.0
 30
0.0
  9
$PUCSORGRIGHT
 10
0.0
 20
0.0
 30
0.0
  9
$PUCSORGFRONT
 10
0.0
 20
0.0
 30
0.0
  9
$PUCSORGBACK
 10
0.0
 20
0.0
 30
0.0
  9
$USERI1
 70
     0
  9
$USERI2
 70
     0
  9
$USERI3
 70
     0
  9
$USERI4
 70
     0
  9
$USERI5
 70
     0
  9
$USERR1
 40
0.0
  9
$USERR2
 40
0.0
  9
$USERR3
 40
0.0
  9
$USERR4
 40
0.0
  9
$USERR5
 40
0.0
  9
$WORLDVIEW
 70
     1
  9
$SHADEDGE
 70
     3
  9
$SHADEDIF
 70
    70
  9
$TILEMODE
 70
     1
  9
$MAXACTVP
 70
    64
  9
$PINSBASE
 10
0.0
 20
0.0
 30
0.0
  9
$PLIMCHECK
 70
     0
  9
$PEXTMIN
 10
1.000000000000000E+20
 20
1.000000000000000E+20
 30
1.000000000000000E+20
  9
$PEXTMAX
 10
-1.000000000000000E+20
 20
-1.000000000000000E+20
 30
-1.000000000000000E+20
  9
$PLIMMIN
 10
0.0
 20
0.0
  9
$PLIMMAX
 10
12.0
 20
9.0
  9
$UNITMODE
 70
     0
  9
$VISRETAIN
 70
     1
  9
$PLINEGEN
 70
     0
  9
$PSLTSCALE
 70
     1
  9
$TREEDEPTH
 70
  3020
  9
$CMLSTYLE
  2
Standard
  9
$CMLJUST
 70
     0
  9
$CMLSCALE
 40
1.0
  9
$PROXYGRAPHICS
 70
     1
  9
$MEASUREMENT
 70
     0
  9
$CELWEIGHT
370
    -1
  9
$ENDCAPS
280
     0
  9
$JOINSTYLE
280
     0
  9
$LWDISPLAY
290
     1
  9
$INSUNITS
 70
     4
  9
$HYPERLINKBASE
  1

  9
$STYLESHEET
  1

  9
$XEDIT
290
     1
  9
$CEPSNTYPE
380
     0
  9
$PSTYLEMODE
290
     1
  9
$FINGERPRINTGUID
  2
{E26B692C-82FC-1940-B57D-5AE5A7D2586C}
  9
$VERSIONGUID
  2
{38D92270-7CD8-334E-88FB-0C0AA7114D57}
  9
$EXTNAMES
290
     1
  9
$PSVPSCALE
 40
0.0
  9
$OLESTARTUP
290
     0
  9
$SORTENTS
280
   127
  9
$INDEXCTL
280
     0
  9
$HIDETEXT
280
     1
  9
$XCLIPFRAME
280
     2
  9
$HALOGAP
280
     0
  9
$OBSCOLOR
 70
   257
  9
$OBSLTYPE
280
     0
  9
$INTERSECTIONDISPLAY
280
     0
  9
$INTERSECTIONCOLOR
 70
   257
  9
$DIMASSOC
280
     2
  9
$PROJECTNAME
  1

  9
$CAMERADISPLAY
290
     0
  9
$LENSLENGTH
 40
50.0
  9
$CAMERAHEIGHT
 40
0.0
  9
$STEPSPERSEC
 40
2.0
  9
$STEPSIZE
 40
6.0
  9
$3DDWFPREC
 40
2.0
  9
$PSOLWIDTH
 40
0.25
  9
$PSOLHEIGHT
 40
4.0
  9
$LOFTANG1
 40
1.570796326794896
  9
$LOFTANG2
 40
1.570796326794896
  9
$LOFTMAG1
 40
0.0
  9
$LOFTMAG2
 40
0.0
  9
$LOFTPARAM
 70
     7
  9
$LOFTNORMALS
280
     1
  9
$LATITUDE
 40
37.795
  9
$LONGITUDE
 40
-122.394
  9
$NORTHDIRECTION
 40
0.0
  9
$TIMEZONE
 70
 -8000
  9
$LIGHTGLYPHDISPLAY
280
     1
  9
$TILEMODELIGHTSYNCH
280
     1
  9
$CMATERIAL
347
11
  9
$SOLIDHIST
280
     0
  9
$SHOWHIST
280
     1
  9
$DWFFRAME
280
     2
  9
$DGNFRAME
280
     0
  9
$REALWORLDSCALE
290
     1
  9
$INTERFERECOLOR
 62
     1
  9
$INTERFEREOBJVS
345
33
  9
$INTERFEREVPVS
346
30
  9
$CSHADOW
280
     0
  9
$SHADOWPLANELOCATION
 40
0.0
  0
ENDSEC
  0
SECTION
  2
CLASSES
  0
CLASS
  1
ACDBDICTIONARYWDFLT
  2
AcDbDictionaryWithDefault
  3
ObjectDBX Classes
 90
        0
 91
        1
280
     0
281
     0
  0
CLASS
  1
MATERIAL
  2
AcDbMaterial
  3
ObjectDBX Classes
 90
     1153
 91
        3
280
     0
281
     0
  0
CLASS
  1
VISUALSTYLE
  2
AcDbVisualStyle
  3
ObjectDBX Classes
 90
     4095
 91
       24
280
     0
281
     0
  0
CLASS
  1
SCALE
  2
AcDbScale
  3
ObjectDBX Classes
 90
     1153
 91
       17
280
     0
281
     0
  0
CLASS
  1
TABLESTYLE
  2
AcDbTableStyle
  3
ObjectDBX Classes
 90
     4095
 91
        1
280
     0
281
     0
  0
CLASS
  1
MLEADERSTYLE
  2
AcDbMLeaderStyle
  3
ACDB_MLEADERSTYLE_CLASS
 90
     4095
 91
        1
280
     0
281
     0
  0
CLASS
  1
ACDBSECTIONVIEWSTYLE
  2
AcDbSectionViewStyle
  3
ObjectDBX Classes
 90
     1025
 91
        1
280
     0
281
     0
  0
CLASS
  1
ACDBDETAILVIEWSTYLE
  2
AcDbDetailViewStyle
  3
ObjectDBX Classes
 90
     1025
 91
        1
280
     0
281
     0
  0
CLASS
  1
DICTIONARYVAR
  2
AcDbDictionaryVar
  3
ObjectDBX Classes
 90
        0
 91
        5
280
     0
281
     0
  0
CLASS
  1
CELLSTYLEMAP
  2
AcDbCellStyleMap
  3
ObjectDBX Classes
 90
     1152
 91
        1
280
     0
281
     0
  0
ENDSEC
  0
SECTION
  2
TABLES
  0
TABLE
  2
VPORT
  5
8
330
0
100
AcDbSymbolTable
 70
     1
  0
VPORT
  5
57
330
8
100
AcDbSymbolTableRecord
100
AcDbViewportTableRecord
  2
*Active
 70
     0
 10
0.0
 20
0.0
 11
1.0
 21
1.0
 12
0.0
 22
0.0
 13
0.0
 23
0.0
 14
1.0
 24
1.0
 15
0.0
 25
0.0
 16
0.0
 26
0.0
 36
1.0
 17
104.9999999737534
 27
-148.4999999628701
 37
0.0
 40
302.939999924255
 41
0.7070707070707534
 42
50.0
 43
0.0
 44
0.0
 50
0.0
 51
0.0
 71
     0
 72
   100
 73
     1
 74
     0
 75
     1
 76
     0
 77
     0
 78
     0
281
     0
 65
     1
110
0.0
120
0.0
130
0.0
111
1.0
121
0.0
131
0.0
112
0.0
122
1.0
132
0.0
 79
     0
146
0.0
 60
     3
 61
     5
292
     1
282
     1
141
0.0
142
0.0
 63
   250
421
  3355443
  0
ENDTAB
  0
TABLE
  2
LTYPE
  5
5
330
0
100
AcDbSymbolTable
 70
     1
  0
LTYPE
  5
5B
330
5
100
AcDbSymbolTableRecord
100
AcDbLinetypeTableRecord
  2
ByBlock
 70
     0
  3

 72
    65
 73
     0
 40
0.0
  0
LTYPE
  5
5C
330
5
100
AcDbSymbolTableRecord
100
AcDbLinetypeTableRecord
  2
ByLayer
 70
     0
  3

 72
    65
 73
     0
 40
0.0
  0
LTYPE
  5
5D
330
5
100
AcDbSymbolTableRecord
100
AcDbLinetypeTableRecord
  2
Continuous
 70
     0
  3
Solid line
 72
    65
 73
     0
 40
0.0
  0
ENDTAB
  0
TABLE
  2
LAYER
  5
2
330
0
100
AcDbSymbolTable
 70
     2
  0
LAYER
  5
54
330
2
100
AcDbSymbolTableRecord
100
AcDbLayerTableRecord
  2
0
 70
     0
 62
     7
  6
Continuous
370
    -3
390
F
347
21
  0
LAYER
  5
78
330
2
100
AcDbSymbolTableRecord
100
AcDbLayerTableRecord
  2
レイヤー 1
 70
     0
 62
     7
  6
Continuous
370
     0
390
F
347
21
  0
ENDTAB
  0
TABLE
  2
STYLE
  5
3
330
0
100
AcDbSymbolTable
 70
     2
  0
STYLE
  5
55
330
3
100
AcDbSymbolTableRecord
100
AcDbTextStyleTableRecord
  2
Standard
 70
     0
 40
0.0
 41
1.0
 50
0.0
 71
     0
 42
0.2
  3
txt
  4

  0
STYLE
  5
5A
330
3
100
AcDbSymbolTableRecord
100
AcDbTextStyleTableRecord
  2
Annotative
 70
     0
 40
0.0
 41
1.0
 50
0.0
 71
     0
 42
0.2
  3
txt
  4

1001
AcadAnnotative
1000
AnnotativeData
1002
{
1070
     1
1070
     1
1002
}
  0
ENDTAB
  0
TABLE
  2
VIEW
  5
6
330
0
100
AcDbSymbolTable
 70
     0
  0
ENDTAB
  0
TABLE
  2
UCS
  5
7
330
0
100
AcDbSymbolTable
 70
     0
  0
ENDTAB
  0
TABLE
  2
APPID
  5
9
330
0
100
AcDbSymbolTable
 70
     2
  0
APPID
  5
56
330
9
100
AcDbSymbolTableRecord
100
AcDbRegAppTableRecord
  2
ACAD
 70
     0
  0
APPID
  5
5E
330
9
100
AcDbSymbolTableRecord
100
AcDbRegAppTableRecord
  2
AcadAnnotative
 70
     0
  0
ENDTAB
  0
TABLE
  2
DIMSTYLE
  5
A
330
0
100
AcDbSymbolTable
 70
     2
100
AcDbDimStyleTable
 71
     0
  0
DIMSTYLE
105
58
330
A
100
AcDbSymbolTableRecord
100
AcDbDimStyleTableRecord
  2
Standard
 70
     0
340
55
  0
DIMSTYLE
105
59
330
A
100
AcDbSymbolTableRecord
100
AcDbDimStyleTableRecord
  2
Annotative
 70
     0
340
55
1001
AcadAnnotative
1000
AnnotativeData
1002
{
1070
     1
1070
     1
1002
}
  0
ENDTAB
  0
TABLE
  2
BLOCK_RECORD
  5
1
330
0
100
AcDbSymbolTable
 70
    10
  0
BLOCK_RECORD
  5
70
330
1
100
AcDbSymbolTableRecord
100
AcDbBlockTableRecord
  2
*Model_Space
340
73
 70
     0
280
     1
281
     0
  0
BLOCK_RECORD
  5
6C
330
1
100
AcDbSymbolTableRecord
100
AcDbBlockTableRecord
  2
*Paper_Space
340
6F
 70
     0
280
     1
281
     0
  0
BLOCK_RECORD
  5
74
330
1
100
AcDbSymbolTableRecord
100
AcDbBlockTableRecord
  2
*Paper_Space0
340
77
 70
     0
280
     1
281
     0
  0
BLOCK_RECORD
  5
79
330
1
100
AcDbSymbolTableRecord
100
AcDbBlockTableRecord
  2
Block_0
340
0
102
{BLKREFS
331
7A
102
}
 70
     0
280
     1
281
     0
  0
BLOCK_RECORD
  5
89
330
1
100
AcDbSymbolTableRecord
100
AcDbBlockTableRecord
  2
Block_1
340
0
102
{BLKREFS
331
8A
102
}
 70
     0
280
     1
281
     0
  0
BLOCK_RECORD
  5
8D
330
1
100
AcDbSymbolTableRecord
100
AcDbBlockTableRecord
  2
Block_2
340
0
102
{BLKREFS
331
8E
102
}
 70
     0
280
     1
281
     0
  0
BLOCK_RECORD
  5
99
330
1
100
AcDbSymbolTableRecord
100
AcDbBlockTableRecord
  2
Block_3
340
0
102
{BLKREFS
331
9A
102
}
 70
     0
280
     1
281
     0
  0
BLOCK_RECORD
  5
9D
330
1
100
AcDbSymbolTableRecord
100
AcDbBlockTableRecord
  2
Block_4
340
0
102
{BLKREFS
331
9E
102
}
 70
     0
280
     1
281
     0
  0
BLOCK_RECORD
  5
A6
330
1
100
AcDbSymbolTableRecord
100
AcDbBlockTableRecord
  2
Block_5
340
0
102
{BLKREFS
331
A7
102
}
 70
     0
280
     1
281
     0
  0
BLOCK_RECORD
  5
AA
330
1
100
AcDbSymbolTableRecord
100
AcDbBlockTableRecord
  2
Block_6
340
0
102
{BLKREFS
331
AB
102
}
 70
     0
280
     1
281
     0
  0
BLOCK_RECORD
  5
B6
330
1
100
AcDbSymbolTableRecord
100
AcDbBlockTableRecord
  2
Block_7
340
0
102
{BLKREFS
331
B7
102
}
 70
     0
280
     1
281
     0
  0
BLOCK_RECORD
  5
BA
330
1
100
AcDbSymbolTableRecord
100
AcDbBlockTableRecord
  2
Block_8
340
0
102
{BLKREFS
331
BB
102
}
 70
     0
280
     1
281
     0
  0
ENDTAB
  0
ENDSEC
  0
SECTION
  2
BLOCKS
  0
BLOCK
  5
71
330
70
100
AcDbEntity
  8
0
100
AcDbBlockBegin
  2
*Model_Space
 70
     0
 10
0.0
 20
0.0
 30
0.0
  3
*Model_Space
  1

  0
ENDBLK
  5
72
330
70
100
AcDbEntity
  8
0
100
AcDbBlockEnd
  0
BLOCK
  5
6D
330
6C
100
AcDbEntity
 67
     1
  8
0
100
AcDbBlockBegin
  2
*Paper_Space
 70
     0
 10
0.0
 20
0.0
 30
0.0
  3
*Paper_Space
  1

  0
ENDBLK
  5
6E
330
6C
100
AcDbEntity
 67
     1
  8
0
100
AcDbBlockEnd
  0
BLOCK
  5
75
330
74
100
AcDbEntity
 67
     1
  8
0
100
AcDbBlockBegin
  2
*Paper_Space0
 70
     0
 10
0.0
 20
0.0
 30
0.0
  3
*Paper_Space0
  1

  0
ENDBLK
  5
76
330
74
100
AcDbEntity
 67
     1
  8
0
100
AcDbBlockEnd
  0
BLOCK
  5
7B
330
79
100
AcDbEntity
  8
0
100
AcDbBlockBegin
  2
Block_0
 70
     0
 10
0.0
 20
0.0
 30
0.0
  3
Block_0
  1

  0
SPLINE
  5
7D
330
79
100
AcDbEntity
  8
レイヤー 1
 62
   250
420
  2299925
370
    25
100
AcDbSpline
210
0.0
220
0.0
230
1.0
 70
     8
 71
     3
 72
    11
 73
     7
 74
     0
 42
0.0000000001
 43
0.0000000001
 40
0.0
 40
0.0
 40
0.0
 40
0.0
 40
1.0
 40
1.0
 40
1.0
 40
2.0
 40
2.0
 40
2.0
 40
2.0
 10
99.52516470499038
 20
-162.9729964883839
 30
0.0
 10
99.52516470499038
 20
-162.9729964883839
 30
0.0
 10
91.52541613792562
 20
-162.9729964883839
 30
0.0
 10
91.52541613792562
 20
-162.9729964883839
 30
0.0
 10
91.52541613792562
 20
-162.9729964883839
 30
0.0
 10
91.52541613792562
 20
-154.9732694531659
 30
0.0
 10
91.52541613792562
 20
-154.9732694531659
 30
0.0
  0
SPLINE
  5
7E
330
79
100
AcDbEntity
  8
レイヤー 1
 62
   250
420
  2299925
370
    25
100
AcDbSpline
210
0.0
220
0.0
230
1.0
 70
     8
 71
     3
 72
    14
 73
    10
 74
     0
 42
0.0000000001
 43
0.0000000001
 40
0.0
 40
0.0
 40
0.0
 40
0.0
 40
1.0
 40
1.0
 40
1.0
 40
2.0
 40
2.0
 40
2.0
 40
3.0
 40
3.0
 40
3.0
 40
3.0
 10
90.52528338671082
 20
-153.9731367019511
 30
0.0
 10
90.52528338671082
 20
-153.9731367019511
 30
0.0
 10
90.52528338671082
 20
-162.9731256794646
 30
0.0
 10
90.52528338671082
 20
-162.9731256794646
 30
0.0
 10
90.52528338671082
 20
-163.5254175494437
 30
0.0
 10
90.97299507686583
 20
-163.9731292395987
 30
0.0
 10
91.52528694684525
 20
-163.9731292395987
 30
0.0
 10
91.52528694684525
 20
-163.9731292395987
 30
0.0
 10
100.5252759243584
 20
-163.9731292395987
 30
0.0
 10
100.5252759243584
 20
-163.9731292395987
 30
0.0
  0
LWPOLYLINE
  5
7F
330
79
100
AcDbEntity
  8
レイヤー 1
 62
   250
420
  2299925
370
    25
100
AcDbPolyline
 90
       10
 70
     1
 43
0.0
 10
126.5252662115728
 20
-162.9731024654422
 10
100.5252755496196
 20
-162.9731024654422
 10
91.52529232980663
 20
-153.9001536617987
 10
91.52529232980663
 20
-127.9731501155225
 10
90.92528876957244
 20
-127.9731501155225
 10
90.52528876967253
 20
-154.3146632442146
 10
90.52526723782575
 20
-154.3146847760614
 10
100.1107444353569
 20
-163.9731275574232
 10
100.1107659672037
 20
-163.9731060255764
 10
126.5252662115728
 20
-163.5731060256765
  0
ENDBLK
  5
7C
330
79
100
AcDbEntity
  8
0
100
AcDbBlockEnd
  0
BLOCK
  5
8B
330
89
100
AcDbEntity
  8
0
100
AcDbBlockBegin
  2
Block_1
 70
     0
 10
0.0
 20
0.0
 30
0.0
  3
Block_1
  1

  0
INSERT
  5
8E
330
89
100
AcDbEntity
  8
レイヤー 1
100
AcDbBlockReference
  2
Block_2
 10
0.0
 20
0.0
 30
0.0
  0
ENDBLK
  5
8C
330
89
100
AcDbEntity
  8
0
100
AcDbBlockEnd
  0
BLOCK
  5
8F
330
8D
100
AcDbEntity
  8
0
100
AcDbBlockBegin
  2
Block_2
 70
     0
 10
0.0
 20
0.0
 30
0.0
  3
Block_2
  1

  0
SPLINE
  5
91
330
8D
100
AcDbEntity
  8
レイヤー 1
100
AcDbSpline
210
0.0
220
0.0
230
1.0
 70
     9
 71
     3
 72
    62
 73
    58
 74
     0
 42
0.0000000001
 43
0.0000000001
 40
0.0
 40
0.0
 40
0.0
 40
0.0
 40
1.0
 40
1.0
 40
1.0
 40
2.0
 40
2.0
 40
2.0
 40
3.0
 40
3.0
 40
3.0
 40
4.0
 40
4.0
 40
4.0
 40
5.0
 40
5.0
 40
5.0
 40
6.0
 40
6.0
 40
6.0
 40
7.0
 40
7.0
 40
7.0
 40
8.0
 40
8.0
 40
8.0
 40
9.0
 40
9.0
 40
9.0
 40
10.0
 40
10.0
 40
10.0
 40
11.0
 40
11.0
 40
11.0
 40
12.0
 40
12.0
 40
12.0
 40
13.0
 40
13.0
 40
13.0
 40
14.0
 40
14.0
 40
14.0
 40
15.0
 40
15.0
 40
15.0
 40
16.0
 40
16.0
 40
16.0
 40
17.0
 40
17.0
 40
17.0
 40
18.0
 40
18.0
 40
18.0
 40
19.0
 40
19.0
 40
19.0
 40
19.0
 10
108.3375732151031
 20
-167.3107177316098
 30
0.0
 10
108.2359428982882
 20
-167.3107177316098
 30
0.0
 10
108.0030544434853
 20
-167.2897026491498
 30
0.0
 10
107.8697292482062
 20
-167.1036674929463
 30
0.0
 10
107.7904920520454
 20
-166.9913573801272
 30
0.0
 10
107.7860134279146
 20
-166.8921386301519
 30
0.0
 10
107.7815348037838
 20
-166.8073892812148
 30
0.0
 10
107.7815348037838
 20
-166.8073892812148
 30
0.0
 10
108.0164903158778
 20
-166.8073892812148
 30
0.0
 10
108.0164903158778
 20
-166.8073892812148
 30
0.0
 10
108.0189018827175
 20
-166.8814588341477
 30
0.0
 10
108.0302706978188
 20
-167.1160698366932
 30
0.0
 10
108.3330945909723
 20
-167.1160698366932
 30
0.0
 10
108.4802001681924
 20
-167.1160698366932
 30
0.0
 10
108.6428086750962
 20
-167.0464789078911
 30
0.0
 10
108.6428086750962
 20
-166.8180690772191
 30
0.0
 10
108.6428086750962
 20
-166.7016248498176
 30
0.0
 10
108.6021565483703
 20
-166.6530490034756
 30
0.0
 10
108.5683946126148
 20
-166.6213541250113
 30
0.0
 10
108.4891574164541
 20
-166.5472845720785
 30
0.0
 10
108.3647894694366
 20
-166.534537718783
 30
0.0
 10
108.3058783366388
 20
-166.534537718783
 30
0.0
 10
108.2855522732758
 20
-166.534537718783
 30
0.0
 10
108.2473117133895
 20
-166.5366047760742
 30
0.0
 10
108.2176838922164
 20
-166.5407388906564
 30
0.0
 10
108.2176838922164
 20
-166.5407388906564
 30
0.0
 10
108.2176838922164
 20
-166.3460909957398
 30
0.0
 10
108.2176838922164
 20
-166.3460909957398
 30
0.0
 10
108.2583360189423
 20
-166.3526366771618
 30
0.0
 10
108.3038112793476
 20
-166.354703734453
 30
0.0
 10
108.3103569607696
 20
-166.354703734453
 30
0.0
 10
108.3806369086687
 20
-166.354703734453
 30
0.0
 10
108.5931993001086
 20
-166.3333441424444
 30
0.0
 10
108.5931993001086
 20
-166.0966660826078
 30
0.0
 10
108.5931993001086
 20
-165.9188991555688
 30
0.0
 10
108.452983913859
 20
-165.8637776278049
 30
0.0
 10
108.3355061578119
 20
-165.8637776278049
 30
0.0
 10
108.0526638184729
 20
-165.8637776278049
 30
0.0
 10
108.0437065702113
 20
-166.0966660826078
 30
0.0
 10
108.0392279460804
 20
-166.1683240687009
 30
0.0
 10
108.0392279460804
 20
-166.1683240687009
 30
0.0
 10
107.8221869305097
 20
-166.1683240687009
 30
0.0
 10
107.8221869305097
 20
-166.1683240687009
 30
0.0
 10
107.8311441787713
 20
-166.0436116121349
 30
0.0
 10
107.860427490396
 20
-165.6670626755971
 30
0.0
 10
108.3489420302044
 20
-165.6670626755971
 30
0.0
 10
108.5887206759778
 20
-165.6670626755971
 30
0.0
 10
108.8464138182745
 20
-165.7941866990028
 30
0.0
 10
108.8464138182745
 20
-166.0901204011858
 30
0.0
 10
108.8464138182745
 20
-166.2765000669378
 30
0.0
 10
108.7444389919111
 20
-166.3588378490353
 30
0.0
 10
108.6383300509654
 20
-166.4201605486727
 30
0.0
 10
108.7037868651851
 20
-166.4477213125547
 30
0.0
 10
108.8984347601018
 20
-166.527992037361
 30
0.0
 10
108.8984347601018
 20
-166.8053222239237
 30
0.0
 10
108.8984347601018
 20
-167.1436306005752
 30
0.0
 10
108.6338514268346
 20
-167.3107177316098
 30
0.0
 10
108.3375732151031
 20
-167.3107177316098
 30
0.0
  0
HATCH
  5
92
330
8D
100
AcDbEntity
  8
レイヤー 1
 62
   250
420
  2299925
440
 33554687
100
AcDbHatch
 10
0.0
 20
0.0
 30
0.0
210
0.0
220
0.0
230
1.0
  2
SOLID
 70
     1
 71
     1
 91
        1
 92
        1
 93
        1
 72
     4
 94
        3
 73
     0
 74
     0
 95
       62
 96
       58
 40
0.0
 40
0.0
 40
0.0
 40
0.0
 40
1.0
 40
1.0
 40
1.0
 40
2.0
 40
2.0
 40
2.0
 40
3.0
 40
3.0
 40
3.0
 40
4.0
 40
4.0
 40
4.0
 40
5.0
 40
5.0
 40
5.0
 40
6.0
 40
6.0
 40
6.0
 40
7.0
 40
7.0
 40
7.0
 40
8.0
 40
8.0
 40
8.0
 40
9.0
 40
9.0
 40
9.0
 40
10.0
 40
10.0
 40
10.0
 40
11.0
 40
11.0
 40
11.0
 40
12.0
 40
12.0
 40
12.0
 40
13.0
 40
13.0
 40
13.0
 40
14.0
 40
14.0
 40
14.0
 40
15.0
 40
15.0
 40
15.0
 40
16.0
 40
16.0
 40
16.0
 40
17.0
 40
17.0
 40
17.0
 40
18.0
 40
18.0
 40
18.0
 40
19.0
 40
19.0
 40
19.0
 40
19.0
 10
108.3375732151031
 20
-167.3107177316098
 10
108.2359428982882
 20
-167.3107177316098
 10
108.0030544434853
 20
-167.2897026491498
 10
107.8697292482062
 20
-167.1036674929463
 10
107.7904920520454
 20
-166.9913573801272
 10
107.7860134279146
 20
-166.8921386301519
 10
107.7815348037838
 20
-166.8073892812148
 10
107.7815348037838
 20
-166.8073892812148
 10
108.0164903158778
 20
-166.8073892812148
 10
108.0164903158778
 20
-166.8073892812148
 10
108.0189018827175
 20
-166.8814588341477
 10
108.0302706978188
 20
-167.1160698366932
 10
108.3330945909723
 20
-167.1160698366932
 10
108.4802001681924
 20
-167.1160698366932
 10
108.6428086750962
 20
-167.0464789078911
 10
108.6428086750962
 20
-166.8180690772191
 10
108.6428086750962
 20
-166.7016248498176
 10
108.6021565483703
 20
-166.6530490034756
 10
108.5683946126148
 20
-166.6213541250113
 10
108.4891574164541
 20
-166.5472845720785
 10
108.3647894694366
 20
-166.534537718783
 10
108.3058783366388
 20
-166.534537718783
 10
108.2855522732758
 20
-166.534537718783
 10
108.2473117133895
 20
-166.5366047760742
 10
108.2176838922164
 20
-166.5407388906564
 10
108.2176838922164
 20
-166.5407388906564
 10
108.2176838922164
 20
-166.3460909957398
 10
108.2176838922164
 20
-166.3460909957398
 10
108.2583360189423
 20
-166.3526366771618
 10
108.3038112793476
 20
-166.354703734453
 10
108.3103569607696
 20
-166.354703734453
 10
108.3806369086687
 20
-166.354703734453
 10
108.5931993001086
 20
-166.3333441424444
 10
108.5931993001086
 20
-166.0966660826078
 10
108.5931993001086
 20
-165.9188991555688
 10
108.452983913859
 20
-165.8637776278049
 10
108.3355061578119
 20
-165.8637776278049
 10
108.0526638184729
 20
-165.8637776278049
 10
108.0437065702113
 20
-166.0966660826078
 10
108.0392279460804
 20
-166.1683240687009
 10
108.0392279460804
 20
-166.1683240687009
 10
107.8221869305097
 20
-166.1683240687009
 10
107.8221869305097
 20
-166.1683240687009
 10
107.8311441787713
 20
-166.0436116121349
 10
107.860427490396
 20
-165.6670626755971
 10
108.3489420302044
 20
-165.6670626755971
 10
108.5887206759778
 20
-165.6670626755971
 10
108.8464138182745
 20
-165.7941866990028
 10
108.8464138182745
 20
-166.0901204011858
 10
108.8464138182745
 20
-166.2765000669378
 10
108.7444389919111
 20
-166.3588378490353
 10
108.6383300509654
 20
-166.4201605486727
 10
108.7037868651851
 20
-166.4477213125547
 10
108.8984347601018
 20
-166.527992037361
 10
108.8984347601018
 20
-166.8053222239237
 10
108.8984347601018
 20
-167.1436306005752
 10
108.6338514268346
 20
-167.3107177316098
 10
108.3375732151031
 20
-167.3107177316098
 97
        0
 97
        1
330
91
 75
     2
 76
     1
 98
        1
 10
0.0
 20
0.0
450
        0
451
        0
460
0.0
461
0.0
452
        0
462
0.0
453
        0
470

  0
SPLINE
  5
93
330
8D
100
AcDbEntity
  8
レイヤー 1
100
AcDbSpline
210
0.0
220
0.0
230
1.0
 70
     9
 71
     3
 72
    17
 73
    13
 74
     0
 42
0.0000000001
 43
0.0000000001
 40
0.0
 40
0.0
 40
0.0
 40
0.0
 40
1.0
 40
1.0
 40
1.0
 40
2.0
 40
2.0
 40
2.0
 40
3.0
 40
3.0
 40
3.0
 40
4.0
 40
4.0
 40
4.0
 40
4.0
 10
109.6270724552321
 20
-166.451855427137
 30
0.0
 10
109.3466416827328
 20
-166.451855427137
 30
0.0
 10
109.3059895560068
 20
-166.6633842899313
 30
0.0
 10
109.3059895560068
 20
-166.7798285173328
 30
0.0
 10
109.3059895560068
 20
-166.9555283870805
 30
0.0
 10
109.4076198728217
 20
-167.1184814035329
 30
0.0
 10
109.6043348250295
 20
-167.1184814035329
 30
0.0
 10
109.7331813961778
 20
-167.1184814035329
 30
0.0
 10
109.9209391001239
 20
-167.0592257611866
 30
0.0
 10
109.9209391001239
 20
-166.7736273454593
 30
0.0
 10
109.9209391001239
 20
-166.5493516293696
 30
0.0
 10
109.7717664656126
 20
-166.451855427137
 30
0.0
 10
109.6270724552321
 20
-166.451855427137
 30
0.0
  0
SPLINE
  5
94
330
8D
100
AcDbEntity
  8
レイヤー 1
100
AcDbSpline
210
0.0
220
0.0
230
1.0
 70
     9
 71
     3
 72
    32
 73
    28
 74
     0
 42
0.0000000001
 43
0.0000000001
 40
0.0
 40
0.0
 40
0.0
 40
0.0
 40
1.0
 40
1.0
 40
1.0
 40
2.0
 40
2.0
 40
2.0
 40
3.0
 40
3.0
 40
3.0
 40
4.0
 40
4.0
 40
4.0
 40
5.0
 40
5.0
 40
5.0
 40
6.0
 40
6.0
 40
6.0
 40
7.0
 40
7.0
 40
7.0
 40
8.0
 40
8.0
 40
8.0
 40
9.0
 40
9.0
 40
9.0
 40
9.0
 10
109.6088134491603
 20
-167.3107177316098
 30
0.0
 10
109.0572536619718
 20
-167.3107177316098
 30
0.0
 10
109.0482964137101
 20
-166.7567463775816
 30
0.0
 10
109.0482964137101
 20
-166.5428059479476
 30
0.0
 10
109.0482964137101
 20
-166.3123290599844
 30
0.0
 10
109.0686224770731
 20
-165.664995618306
 30
0.0
 10
109.6498100854347
 20
-165.664995618306
 30
0.0
 10
109.8351562225412
 20
-165.664995618306
 30
0.0
 10
110.0973279889687
 20
-165.7349310566566
 30
0.0
 10
110.1379801156946
 20
-166.0670382614346
 30
0.0
 10
110.1379801156946
 20
-166.0670382614346
 30
0.0
 10
109.9095702850226
 20
-166.0670382614346
 30
0.0
 10
109.9095702850226
 20
-166.0670382614346
 30
0.0
 10
109.8982014699213
 20
-166.0098496763795
 30
0.0
 10
109.8644395341658
 20
-165.8617105705137
 30
0.0
 10
109.6473985185951
 20
-165.8617105705137
 30
0.0
 10
109.3352728676314
 20
-165.8617105705137
 30
0.0
 10
109.2925536836143
 20
-166.1896836607095
 30
0.0
 10
109.2787733016733
 20
-166.3946668420819
 30
0.0
 10
109.3783365611971
 20
-166.3164631745667
 30
0.0
 10
109.4506835663873
 20
-166.2572075322204
 30
0.0
 10
109.6453314613039
 20
-166.2572075322204
 30
0.0
 10
109.8372232798324
 20
-166.2572075322204
 30
0.0
 10
110.1607177458973
 20
-166.3653835304573
 30
0.0
 10
110.1607177458973
 20
-166.7715602881682
 30
0.0
 10
110.1607177458973
 20
-167.0909206396508
 30
0.0
 10
109.9481553544574
 20
-167.3107177316098
 30
0.0
 10
109.6088134491603
 20
-167.3107177316098
 30
0.0
  0
HATCH
  5
95
330
8D
100
AcDbEntity
  8
レイヤー 1
 62
   250
420
  2299925
440
 33554687
100
AcDbHatch
 10
0.0
 20
0.0
 30
0.0
210
0.0
220
0.0
230
1.0
  2
SOLID
 70
     1
 71
     1
 91
        2
 92
        1
 93
        1
 72
     4
 94
        3
 73
     0
 74
     0
 95
       17
 96
       13
 40
0.0
 40
0.0
 40
0.0
 40
0.0
 40
1.0
 40
1.0
 40
1.0
 40
2.0
 40
2.0
 40
2.0
 40
3.0
 40
3.0
 40
3.0
 40
4.0
 40
4.0
 40
4.0
 40
4.0
 10
109.6270724552321
 20
-166.451855427137
 10
109.3466416827328
 20
-166.451855427137
 10
109.3059895560068
 20
-166.6633842899313
 10
109.3059895560068
 20
-166.7798285173328
 10
109.3059895560068
 20
-166.9555283870805
 10
109.4076198728217
 20
-167.1184814035329
 10
109.6043348250295
 20
-167.1184814035329
 10
109.7331813961778
 20
-167.1184814035329
 10
109.9209391001239
 20
-167.0592257611866
 10
109.9209391001239
 20
-166.7736273454593
 10
109.9209391001239
 20
-166.5493516293696
 10
109.7717664656126
 20
-166.451855427137
 10
109.6270724552321
 20
-166.451855427137
 97
        0
 97
        1
330
93
 92
        1
 93
        1
 72
     4
 94
        3
 73
     0
 74
     0
 95
       32
 96
       28
 40
0.0
 40
0.0
 40
0.0
 40
0.0
 40
1.0
 40
1.0
 40
1.0
 40
2.0
 40
2.0
 40
2.0
 40
3.0
 40
3.0
 40
3.0
 40
4.0
 40
4.0
 40
4.0
 40
5.0
 40
5.0
 40
5.0
 40
6.0
 40
6.0
 40
6.0
 40
7.0
 40
7.0
 40
7.0
 40
8.0
 40
8.0
 40
8.0
 40
9.0
 40
9.0
 40
9.0
 40
9.0
 10
109.6088134491603
 20
-167.3107177316098
 10
109.0572536619718
 20
-167.3107177316098
 10
109.0482964137101
 20
-166.7567463775816
 10
109.0482964137101
 20
-166.5428059479476
 10
109.0482964137101
 20
-166.3123290599844
 10
109.0686224770731
 20
-165.664995618306
 10
109.6498100854347
 20
-165.664995618306
 10
109.8351562225412
 20
-165.664995618306
 10
110.0973279889687
 20
-165.7349310566566
 10
110.1379801156946
 20
-166.0670382614346
 10
110.1379801156946
 20
-166.0670382614346
 10
109.9095702850226
 20
-166.0670382614346
 10
109.9095702850226
 20
-166.0670382614346
 10
109.8982014699213
 20
-166.0098496763795
 10
109.8644395341658
 20
-165.8617105705137
 10
109.6473985185951
 20
-165.8617105705137
 10
109.3352728676314
 20
-165.8617105705137
 10
109.2925536836143
 20
-166.1896836607095
 10
109.2787733016733
 20
-166.3946668420819
 10
109.3783365611971
 20
-166.3164631745667
 10
109.4506835663873
 20
-166.2572075322204
 10
109.6453314613039
 20
-166.2572075322204
 10
109.8372232798324
 20
-166.2572075322204
 10
110.1607177458973
 20
-166.3653835304573
 10
110.1607177458973
 20
-166.7715602881682
 10
110.1607177458973
 20
-167.0909206396508
 10
109.9481553544574
 20
-167.3107177316098
 10
109.6088134491603
 20
-167.3107177316098
 97
        0
 97
        1
330
94
 75
     2
 76
     1
 98
        1
 10
0.0
 20
0.0
450
        0
451
        0
460
0.0
461
0.0
452
        0
462
0.0
453
        0
470

  0
ENDBLK
  5
90
330
8D
100
AcDbEntity
  8
0
100
AcDbBlockEnd
  0
BLOCK
  5
9B
330
99
100
AcDbEntity
  8
0
100
AcDbBlockBegin
  2
Block_3
 70
     0
 10
0.0
 20
0.0
 30
0.0
  3
Block_3
  1

  0
INSERT
  5
9E
330
99
100
AcDbEntity
  8
レイヤー 1
100
AcDbBlockReference
  2
Block_4
 10
0.0
 20
0.0
 30
0.0
  0
ENDBLK
  5
9C
330
99
100
AcDbEntity
  8
0
100
AcDbBlockEnd
  0
BLOCK
  5
9F
330
9D
100
AcDbEntity
  8
0
100
AcDbBlockBegin
  2
Block_4
 70
     0
 10
0.0
 20
0.0
 30
0.0
  3
Block_4
  1

  0
SPLINE
  5
A1
330
9D
100
AcDbEntity
  8
レイヤー 1
100
AcDbSpline
210
0.0
220
0.0
230
1.0
 70
    11
 71
     3
 72
    26
 73
    22
 74
     0
 42
0.0000000001
 43
0.0000000001
 40
0.0
 40
0.0
 40
0.0
 40
0.0
 40
1.0
 40
1.0
 40
1.0
 40
2.0
 40
2.0
 40
2.0
 40
3.0
 40
3.0
 40
3.0
 40
4.0
 40
4.0
 40
4.0
 40
5.0
 40
5.0
 40
5.0
 40
6.0
 40
6.0
 40
6.0
 40
7.0
 40
7.0
 40
7.0
 40
7.0
 10
85.81267765866837
 20
-159.6546820347391
 30
0.0
 10
85.81267765866837
 20
-159.6546820347391
 30
0.0
 10
84.70835230087152
 20
-159.6546820347391
 30
0.0
 10
84.70835230087152
 20
-159.6546820347391
 30
0.0
 10
84.70835230087152
 20
-159.6546820347391
 30
0.0
 10
84.70835230087152
 20
-160.0071153028802
 30
0.0
 10
84.70835230087152
 20
-160.0071153028802
 30
0.0
 10
84.70835230087152
 20
-160.0071153028802
 30
0.0
 10
84.56038544978005
 20
-160.0071153028802
 30
0.0
 10
84.56038544978005
 20
-160.0071153028802
 30
0.0
 10
84.54557153919347
 20
-159.6522704678994
 30
0.0
 10
84.38261852274115
 20
-159.6026610929118
 30
0.0
 10
84.26841360740512
 20
-159.5709662144475
 30
0.0
 10
84.26841360740512
 20
-159.5709662144475
 30
0.0
 10
84.26841360740512
 20
-159.4149033889657
 30
0.0
 10
84.26841360740512
 20
-159.4149033889657
 30
0.0
 10
84.26841360740512
 20
-159.4149033889657
 30
0.0
 10
85.81267765866837
 20
-159.4149033889657
 30
0.0
 10
85.81267765866837
 20
-159.4149033889657
 30
0.0
 10
85.81267765866837
 20
-159.4149033889657
 30
0.0
 10
85.81267765866837
 20
-159.6546820347391
 30
0.0
 10
85.81267765866837
 20
-159.6546820347391
 30
0.0
  0
HATCH
  5
A2
330
9D
100
AcDbEntity
  8
レイヤー 1
 62
   250
420
  2299925
440
 33554687
100
AcDbHatch
 10
0.0
 20
0.0
 30
0.0
210
0.0
220
0.0
230
1.0
  2
SOLID
 70
     1
 71
     1
 91
        1
 92
        1
 93
        1
 72
     4
 94
        3
 73
     0
 74
     0
 95
       26
 96
       22
 40
0.0
 40
0.0
 40
0.0
 40
0.0
 40
1.0
 40
1.0
 40
1.0
 40
2.0
 40
2.0
 40
2.0
 40
3.0
 40
3.0
 40
3.0
 40
4.0
 40
4.0
 40
4.0
 40
5.0
 40
5.0
 40
5.0
 40
6.0
 40
6.0
 40
6.0
 40
7.0
 40
7.0
 40
7.0
 40
7.0
 10
85.81267765866837
 20
-159.6546820347391
 10
85.81267765866837
 20
-159.6546820347391
 10
84.70835230087152
 20
-159.6546820347391
 10
84.70835230087152
 20
-159.6546820347391
 10
84.70835230087152
 20
-159.6546820347391
 10
84.70835230087152
 20
-160.0071153028802
 10
84.70835230087152
 20
-160.0071153028802
 10
84.70835230087152
 20
-160.0071153028802
 10
84.56038544978005
 20
-160.0071153028802
 10
84.56038544978005
 20
-160.0071153028802
 10
84.54557153919347
 20
-159.6522704678994
 10
84.38261852274115
 20
-159.6026610929118
 10
84.26841360740512
 20
-159.5709662144475
 10
84.26841360740512
 20
-159.5709662144475
 10
84.26841360740512
 20
-159.4149033889657
 10
84.26841360740512
 20
-159.4149033889657
 10
84.26841360740512
 20
-159.4149033889657
 10
85.81267765866837
 20
-159.4149033889657
 10
85.81267765866837
 20
-159.4149033889657
 10
85.81267765866837
 20
-159.4149033889657
 10
85.81267765866837
 20
-159.6546820347391
 10
85.81267765866837
 20
-159.6546820347391
 97
        0
 97
        1
330
A1
 75
     2
 76
     1
 98
        1
 10
0.0
 20
0.0
450
        0
451
        0
460
0.0
461
0.0
452
        0
462
0.0
453
        0
470

  0
SPLINE
  5
A3
330
9D
100
AcDbEntity
  8
レイヤー 1
100
AcDbSpline
210
0.0
220
0.0
230
1.0
 70
     9
 71
     3
 72
    17
 73
    13
 74
     0
 42
0.0000000001
 43
0.0000000001
 40
0.0
 40
0.0
 40
0.0
 40
0.0
 40
1.0
 40
1.0
 40
1.0
 40
2.0
 40
2.0
 40
2.0
 40
3.0
 40
3.0
 40
3.0
 40
4.0
 40
4.0
 40
4.0
 40
4.0
 10
84.4122463439143
 20
-158.3448567312471
 30
0.0
 10
84.4122463439143
 20
-158.6115071218054
 30
0.0
 10
84.69577770235037
 20
-158.661116496793
 30
0.0
 10
85.04045950564961
 20
-158.661116496793
 30
0.0
 10
85.35999211190654
 20
-158.661116496793
 30
0.0
 10
85.66884492215917
 20
-158.6228759369068
 30
0.0
 10
85.66884492215917
 20
-158.3448567312471
 30
0.0
 10
85.66884492215917
 20
-158.0802733979799
 30
0.0
 10
85.38738062101428
 20
-158.0282524561527
 30
0.0
 10
85.04045950564961
 20
-158.0282524561527
 30
0.0
 10
84.72109915416695
 20
-158.0282524561527
 30
0.0
 10
84.4122463439143
 20
-158.0689045828786
 30
0.0
 10
84.4122463439143
 20
-158.3448567312471
 30
0.0
  0
SPLINE
  5
A4
330
9D
100
AcDbEntity
  8
レイヤー 1
100
AcDbSpline
210
0.0
220
0.0
230
1.0
 70
     9
 71
     3
 72
    29
 73
    25
 74
     0
 42
0.0000000001
 43
0.0000000001
 40
0.0
 40
0.0
 40
0.0
 40
0.0
 40
1.0
 40
1.0
 40
1.0
 40
2.0
 40
2.0
 40
2.0
 40
3.0
 40
3.0
 40
3.0
 40
4.0
 40
4.0
 40
4.0
 40
5.0
 40
5.0
 40
5.0
 40
6.0
 40
6.0
 40
6.0
 40
7.0
 40
7.0
 40
7.0
 40
8.0
 40
8.0
 40
8.0
 40
8.0
 10
85.63491073162948
 20
-157.9197319483673
 30
0.0
 10
85.84437253713266
 20
-158.0351426471231
 30
0.0
 10
85.8634928170758
 20
-158.2204887842296
 30
0.0
 10
85.8634928170758
 20
-158.3448567312471
 30
0.0
 10
85.8634928170758
 20
-158.5164224864126
 30
0.0
 10
85.81698402802492
 20
-158.6680066877635
 30
0.0
 10
85.63491073162948
 20
-158.7696370045784
 30
0.0
 10
85.44026283671286
 20
-158.8805690792034
 30
0.0
 10
85.20341252210192
 20
-158.9008951425664
 30
0.0
 10
85.04045950564961
 20
-158.9008951425664
 30
0.0
 10
84.89662676914042
 20
-158.9008951425664
 30
0.0
 10
84.64496254394292
 20
-158.8826361364946
 30
0.0
 10
84.44600827966976
 20
-158.7696370045784
 30
0.0
 10
84.24291990081426
 20
-158.6545708153711
 30
0.0
 10
84.21966550628884
 20
-158.4826605506571
 30
0.0
 10
84.21966550628884
 20
-158.3448567312471
 30
0.0
 10
84.21966550628884
 20
-158.1750135238243
 30
0.0
 10
84.26410723804856
 20
-158.0213622651822
 30
0.0
 10
84.44600827966976
 20
-157.9197319483673
 30
0.0
 10
84.63858911729522
 20
-157.8132784978731
 30
0.0
 10
84.86699894796727
 20
-157.7884738103793
 30
0.0
 10
85.04045950564961
 20
-157.7884738103793
 30
0.0
 10
85.21185300604079
 20
-157.7884738103793
 30
0.0
 10
85.44250214877827
 20
-157.8112114405819
 30
0.0
 10
85.63491073162948
 20
-157.9197319483673
 30
0.0
  0
HATCH
  5
A5
330
9D
100
AcDbEntity
  8
レイヤー 1
 62
   250
420
  2299925
440
 33554687
100
AcDbHatch
 10
0.0
 20
0.0
 30
0.0
210
0.0
220
0.0
230
1.0
  2
SOLID
 70
     1
 71
     1
 91
        2
 92
        1
 93
        1
 72
     4
 94
        3
 73
     0
 74
     0
 95
       17
 96
       13
 40
0.0
 40
0.0
 40
0.0
 40
0.0
 40
1.0
 40
1.0
 40
1.0
 40
2.0
 40
2.0
 40
2.0
 40
3.0
 40
3.0
 40
3.0
 40
4.0
 40
4.0
 40
4.0
 40
4.0
 10
84.4122463439143
 20
-158.3448567312471
 10
84.4122463439143
 20
-158.6115071218054
 10
84.69577770235037
 20
-158.661116496793
 10
85.04045950564961
 20
-158.661116496793
 10
85.35999211190654
 20
-158.661116496793
 10
85.66884492215917
 20
-158.6228759369068
 10
85.66884492215917
 20
-158.3448567312471
 10
85.66884492215917
 20
-158.0802733979799
 10
85.38738062101428
 20
-158.0282524561527
 10
85.04045950564961
 20
-158.0282524561527
 10
84.72109915416695
 20
-158.0282524561527
 10
84.4122463439143
 20
-158.0689045828786
 10
84.4122463439143
 20
-158.3448567312471
 97
        0
 97
        1
330
A3
 92
        1
 93
        1
 72
     4
 94
        3
 73
     0
 74
     0
 95
       29
 96
       25
 40
0.0
 40
0.0
 40
0.0
 40
0.0
 40
1.0
 40
1.0
 40
1.0
 40
2.0
 40
2.0
 40
2.0
 40
3.0
 40
3.0
 40
3.0
 40
4.0
 40
4.0
 40
4.0
 40
5.0
 40
5.0
 40
5.0
 40
6.0
 40
6.0
 40
6.0
 40
7.0
 40
7.0
 40
7.0
 40
8.0
 40
8.0
 40
8.0
 40
8.0
 10
85.63491073162948
 20
-157.9197319483673
 10
85.84437253713266
 20
-158.0351426471231
 10
85.8634928170758
 20
-158.2204887842296
 10
85.8634928170758
 20
-158.3448567312471
 10
85.8634928170758
 20
-158.5164224864126
 10
85.81698402802492
 20
-158.6680066877635
 10
85.63491073162948
 20
-158.7696370045784
 10
85.44026283671286
 20
-158.8805690792034
 10
85.20341252210192
 20
-158.9008951425664
 10
85.04045950564961
 20
-158.9008951425664
 10
84.89662676914042
 20
-158.9008951425664
 10
84.64496254394292
 20
-158.8826361364946
 10
84.44600827966976
 20
-158.7696370045784
 10
84.24291990081426
 20
-158.6545708153711
 10
84.21966550628884
 20
-158.4826605506571
 10
84.21966550628884
 20
-158.3448567312471
 10
84.21966550628884
 20
-158.1750135238243
 10
84.26410723804856
 20
-158.0213622651822
 10
84.44600827966976
 20
-157.9197319483673
 10
84.63858911729522
 20
-157.8132784978731
 10
84.86699894796727
 20
-157.7884738103793
 10
85.04045950564961
 20
-157.7884738103793
 10
85.21185300604079
 20
-157.7884738103793
 10
85.44250214877827
 20
-157.8112114405819
 10
85.63491073162948
 20
-157.9197319483673
 97
        0
 97
        1
330
A4
 75
     2
 76
     1
 98
        1
 10
0.0
 20
0.0
450
        0
451
        0
460
0.0
461
0.0
452
        0
462
0.0
453
        0
470

  0
ENDBLK
  5
A0
330
9D
100
AcDbEntity
  8
0
100
AcDbBlockEnd
  0
BLOCK
  5
A8
330
A6
100
AcDbEntity
  8
0
100
AcDbBlockBegin
  2
Block_5
 70
     0
 10
0.0
 20
0.0
 30
0.0
  3
Block_5
  1

  0
INSERT
  5
AB
330
A6
100
AcDbEntity
  8
レイヤー 1
100
AcDbBlockReference
  2
Block_6
 10
0.0
 20
0.0
 30
0.0
  0
ENDBLK
  5
A9
330
A6
100
AcDbEntity
  8
0
100
AcDbBlockEnd
  0
BLOCK
  5
AC
330
AA
100
AcDbEntity
  8
0
100
AcDbBlockBegin
  2
Block_6
 70
     0
 10
0.0
 20
0.0
 30
0.0
  3
Block_6
  1

  0
SPLINE
  5
AE
330
AA
100
AcDbEntity
  8
レイヤー 1
100
AcDbSpline
210
0.0
220
0.0
230
1.0
 70
     9
 71
     3
 72
    20
 73
    16
 74
     0
 42
0.0000000001
 43
0.0000000001
 40
0.0
 40
0.0
 40
0.0
 40
0.0
 40
1.0
 40
1.0
 40
1.0
 40
2.0
 40
2.0
 40
2.0
 40
3.0
 40
3.0
 40
3.0
 40
4.0
 40
4.0
 40
4.0
 40
5.0
 40
5.0
 40
5.0
 40
5.0
 10
86.43951278220958
 20
-167.8257595066547
 30
0.0
 10
86.43951278220958
 20
-167.8257595066547
 30
0.0
 10
85.96477862434214
 20
-167.8257595066547
 30
0.0
 10
85.96477862434214
 20
-167.8257595066547
 30
0.0
 10
85.96477862434214
 20
-167.8257595066547
 30
0.0
 10
85.96477862434214
 20
-168.3060058172985
 30
0.0
 10
85.96477862434214
 20
-168.3060058172985
 30
0.0
 10
85.96477862434214
 20
-168.3060058172985
 30
0.0
 10
86.43744572491842
 20
-168.3060058172985
 30
0.0
 10
86.43744572491842
 20
-168.3060058172985
 30
0.0
 10
86.54355466586412
 20
-168.3060058172985
 30
0.0
 10
86.68824867624461
 20
-168.2298692070745
 30
0.0
 10
86.68824867624461
 20
-168.058303451909
 30
0.0
 10
86.68824867624461
 20
-167.9800997843939
 30
0.0
 10
86.65207517364947
 20
-167.8257595066547
 30
0.0
 10
86.43951278220958
 20
-167.8257595066547
 30
0.0
  0
SPLINE
  5
AF
330
AA
100
AcDbEntity
  8
レイヤー 1
100
AcDbSpline
210
0.0
220
0.0
230
1.0
 70
     9
 71
     3
 72
    44
 73
    40
 74
     0
 42
0.0000000001
 43
0.0000000001
 40
0.0
 40
0.0
 40
0.0
 40
0.0
 40
1.0
 40
1.0
 40
1.0
 40
2.0
 40
2.0
 40
2.0
 40
3.0
 40
3.0
 40
3.0
 40
4.0
 40
4.0
 40
4.0
 40
5.0
 40
5.0
 40
5.0
 40
6.0
 40
6.0
 40
6.0
 40
7.0
 40
7.0
 40
7.0
 40
8.0
 40
8.0
 40
8.0
 40
9.0
 40
9.0
 40
9.0
 40
10.0
 40
10.0
 40
10.0
 40
11.0
 40
11.0
 40
11.0
 40
12.0
 40
12.0
 40
12.0
 40
13.0
 40
13.0
 40
13.0
 40
13.0
 10
86.70857473960758
 20
-169.1583224403493
 30
0.0
 10
86.68377005211379
 20
-169.1138807085896
 30
0.0
 10
86.66103242191113
 20
-169.0611707476652
 30
0.0
 10
86.65896536461998
 20
-168.8303493501535
 30
0.0
 10
86.65448674048915
 20
-168.5871256088949
 30
0.0
 10
86.59109698356056
 20
-168.5175346800928
 30
0.0
 10
86.40127222232329
 20
-168.5175346800928
 30
0.0
 10
86.40127222232329
 20
-168.5175346800928
 30
0.0
 10
85.96477862434214
 20
-168.5175346800928
 30
0.0
 10
85.96477862434214
 20
-168.5175346800928
 30
0.0
 10
85.96477862434214
 20
-168.5175346800928
 30
0.0
 10
85.96477862434214
 20
-169.1583224403493
 30
0.0
 10
85.96477862434214
 20
-169.1583224403493
 30
0.0
 10
85.96477862434214
 20
-169.1583224403493
 30
0.0
 10
85.71397567301595
 20
-169.1583224403493
 30
0.0
 10
85.71397567301595
 20
-169.1583224403493
 30
0.0
 10
85.71397567301595
 20
-169.1583224403493
 30
0.0
 10
85.71397567301595
 20
-167.6142306438603
 30
0.0
 10
85.71397567301595
 20
-167.6142306438603
 30
0.0
 10
85.71397567301595
 20
-167.6142306438603
 30
0.0
 10
86.43503415807876
 20
-167.6142306438603
 30
0.0
 10
86.43503415807876
 20
-167.6142306438603
 30
0.0
 10
86.76300724827454
 20
-167.6142306438603
 30
0.0
 10
86.94146319441047
 20
-167.7854518894772
 30
0.0
 10
86.94146319441047
 20
-168.0414224840313
 30
0.0
 10
86.94146319441047
 20
-168.0920653876645
 30
0.0
 10
86.93250594614882
 20
-168.1747476793105
 30
0.0
 10
86.88496362845237
 20
-168.2550184041168
 30
0.0
 10
86.82157387152377
 20
-168.3587157782228
 30
0.0
 10
86.75163843317319
 20
-168.3776638033917
 30
0.0
 10
86.68583710940493
 20
-168.3945447712694
 30
0.0
 10
86.8329426866251
 20
-168.436919445738
 30
0.0
 10
86.90528969181535
 20
-168.4858398016285
 30
0.0
 10
86.90976831594616
 20
-168.8007215289804
 30
0.0
 10
86.91424694007698
 20
-169.071506034121
 30
0.0
 10
86.95283200951179
 20
-169.1035454221338
 30
0.0
 10
87.02517901470205
 20
-169.1583224403493
 30
0.0
 10
87.02517901470205
 20
-169.1583224403493
 30
0.0
 10
86.70857473960758
 20
-169.1583224403493
 30
0.0
 10
86.70857473960758
 20
-169.1583224403493
 30
0.0
  0
HATCH
  5
B0
330
AA
100
AcDbEntity
  8
レイヤー 1
 62
   250
420
  2299925
440
 33554687
100
AcDbHatch
 10
0.0
 20
0.0
 30
0.0
210
0.0
220
0.0
230
1.0
  2
SOLID
 70
     1
 71
     1
 91
        2
 92
        1
 93
        1
 72
     4
 94
        3
 73
     0
 74
     0
 95
       20
 96
       16
 40
0.0
 40
0.0
 40
0.0
 40
0.0
 40
1.0
 40
1.0
 40
1.0
 40
2.0
 40
2.0
 40
2.0
 40
3.0
 40
3.0
 40
3.0
 40
4.0
 40
4.0
 40
4.0
 40
5.0
 40
5.0
 40
5.0
 40
5.0
 10
86.43951278220958
 20
-167.8257595066547
 10
86.43951278220958
 20
-167.8257595066547
 10
85.96477862434214
 20
-167.8257595066547
 10
85.96477862434214
 20
-167.8257595066547
 10
85.96477862434214
 20
-167.8257595066547
 10
85.96477862434214
 20
-168.3060058172985
 10
85.96477862434214
 20
-168.3060058172985
 10
85.96477862434214
 20
-168.3060058172985
 10
86.43744572491842
 20
-168.3060058172985
 10
86.43744572491842
 20
-168.3060058172985
 10
86.54355466586412
 20
-168.3060058172985
 10
86.68824867624461
 20
-168.2298692070745
 10
86.68824867624461
 20
-168.058303451909
 10
86.68824867624461
 20
-167.9800997843939
 10
86.65207517364947
 20
-167.8257595066547
 10
86.43951278220958
 20
-167.8257595066547
 97
        0
 97
        1
330
AE
 92
        1
 93
        1
 72
     4
 94
        3
 73
     0
 74
     0
 95
       44
 96
       40
 40
0.0
 40
0.0
 40
0.0
 40
0.0
 40
1.0
 40
1.0
 40
1.0
 40
2.0
 40
2.0
 40
2.0
 40
3.0
 40
3.0
 40
3.0
 40
4.0
 40
4.0
 40
4.0
 40
5.0
 40
5.0
 40
5.0
 40
6.0
 40
6.0
 40
6.0
 40
7.0
 40
7.0
 40
7.0
 40
8.0
 40
8.0
 40
8.0
 40
9.0
 40
9.0
 40
9.0
 40
10.0
 40
10.0
 40
10.0
 40
11.0
 40
11.0
 40
11.0
 40
12.0
 40
12.0
 40
12.0
 40
13.0
 40
13.0
 40
13.0
 40
13.0
 10
86.70857473960758
 20
-169.1583224403493
 10
86.68377005211379
 20
-169.1138807085896
 10
86.66103242191113
 20
-169.0611707476652
 10
86.65896536461998
 20
-168.8303493501535
 10
86.65448674048915
 20
-168.5871256088949
 10
86.59109698356056
 20
-168.5175346800928
 10
86.40127222232329
 20
-168.5175346800928
 10
86.40127222232329
 20
-168.5175346800928
 10
85.96477862434214
 20
-168.5175346800928
 10
85.96477862434214
 20
-168.5175346800928
 10
85.96477862434214
 20
-168.5175346800928
 10
85.96477862434214
 20
-169.1583224403493
 10
85.96477862434214
 20
-169.1583224403493
 10
85.96477862434214
 20
-169.1583224403493
 10
85.71397567301595
 20
-169.1583224403493
 10
85.71397567301595
 20
-169.1583224403493
 10
85.71397567301595
 20
-169.1583224403493
 10
85.71397567301595
 20
-167.6142306438603
 10
85.71397567301595
 20
-167.6142306438603
 10
85.71397567301595
 20
-167.6142306438603
 10
86.43503415807876
 20
-167.6142306438603
 10
86.43503415807876
 20
-167.6142306438603
 10
86.76300724827454
 20
-167.6142306438603
 10
86.94146319441047
 20
-167.7854518894772
 10
86.94146319441047
 20
-168.0414224840313
 10
86.94146319441047
 20
-168.0920653876645
 10
86.93250594614882
 20
-168.1747476793105
 10
86.88496362845237
 20
-168.2550184041168
 10
86.82157387152377
 20
-168.3587157782228
 10
86.75163843317319
 20
-168.3776638033917
 10
86.68583710940493
 20
-168.3945447712694
 10
86.8329426866251
 20
-168.436919445738
 10
86.90528969181535
 20
-168.4858398016285
 10
86.90976831594616
 20
-168.8007215289804
 10
86.91424694007698
 20
-169.071506034121
 10
86.95283200951179
 20
-169.1035454221338
 10
87.02517901470205
 20
-169.1583224403493
 10
87.02517901470205
 20
-169.1583224403493
 10
86.70857473960758
 20
-169.1583224403493
 10
86.70857473960758
 20
-169.1583224403493
 97
        0
 97
        1
330
AF
 75
     2
 76
     1
 98
        1
 10
0.0
 20
0.0
450
        0
451
        0
460
0.0
461
0.0
452
        0
462
0.0
453
        0
470

  0
SPLINE
  5
B1
330
AA
100
AcDbEntity
  8
レイヤー 1
100
AcDbSpline
210
0.0
220
0.0
230
1.0
 70
    11
 71
     3
 72
    26
 73
    22
 74
     0
 42
0.0000000001
 43
0.0000000001
 40
0.0
 40
0.0
 40
0.0
 40
0.0
 40
1.0
 40
1.0
 40
1.0
 40
2.0
 40
2.0
 40
2.0
 40
3.0
 40
3.0
 40
3.0
 40
4.0
 40
4.0
 40
4.0
 40
5.0
 40
5.0
 40
5.0
 40
6.0
 40
6.0
 40
6.0
 40
7.0
 40
7.0
 40
7.0
 40
7.0
 10
87.65666501714834
 20
-169.1583224403493
 30
0.0
 10
87.65666501714834
 20
-169.1583224403493
 30
0.0
 10
87.65666501714834
 20
-168.0541693373267
 30
0.0
 10
87.65666501714834
 20
-168.0541693373267
 30
0.0
 10
87.65666501714834
 20
-168.0541693373267
 30
0.0
 10
87.30423174900728
 20
-168.0541693373267
 30
0.0
 10
87.30423174900728
 20
-168.0541693373267
 30
0.0
 10
87.30423174900728
 20
-168.0541693373267
 30
0.0
 10
87.30423174900728
 20
-167.906030231461
 30
0.0
 10
87.30423174900728
 20
-167.906030231461
 30
0.0
 10
87.659076583988
 20
-167.8912163208744
 30
0.0
 10
87.7086859589756
 20
-167.7282633044221
 30
0.0
 10
87.74038083743992
 20
-167.6142306438603
 30
0.0
 10
87.74038083743992
 20
-167.6142306438603
 30
0.0
 10
87.89644366292172
 20
-167.6142306438603
 30
0.0
 10
87.89644366292172
 20
-167.6142306438603
 30
0.0
 10
87.89644366292172
 20
-167.6142306438603
 30
0.0
 10
87.89644366292172
 20
-169.1583224403493
 30
0.0
 10
87.89644366292172
 20
-169.1583224403493
 30
0.0
 10
87.89644366292172
 20
-169.1583224403493
 30
0.0
 10
87.65666501714834
 20
-169.1583224403493
 30
0.0
 10
87.65666501714834
 20
-169.1583224403493
 30
0.0
  0
HATCH
  5
B2
330
AA
100
AcDbEntity
  8
レイヤー 1
 62
   250
420
  2299925
440
 33554687
100
AcDbHatch
 10
0.0
 20
0.0
 30
0.0
210
0.0
220
0.0
230
1.0
  2
SOLID
 70
     1
 71
     1
 91
        1
 92
        1
 93
        1
 72
     4
 94
        3
 73
     0
 74
     0
 95
       26
 96
       22
 40
0.0
 40
0.0
 40
0.0
 40
0.0
 40
1.0
 40
1.0
 40
1.0
 40
2.0
 40
2.0
 40
2.0
 40
3.0
 40
3.0
 40
3.0
 40
4.0
 40
4.0
 40
4.0
 40
5.0
 40
5.0
 40
5.0
 40
6.0
 40
6.0
 40
6.0
 40
7.0
 40
7.0
 40
7.0
 40
7.0
 10
87.65666501714834
 20
-169.1583224403493
 10
87.65666501714834
 20
-169.1583224403493
 10
87.65666501714834
 20
-168.0541693373267
 10
87.65666501714834
 20
-168.0541693373267
 10
87.65666501714834
 20
-168.0541693373267
 10
87.30423174900728
 20
-168.0541693373267
 10
87.30423174900728
 20
-168.0541693373267
 10
87.30423174900728
 20
-168.0541693373267
 10
87.30423174900728
 20
-167.906030231461
 10
87.30423174900728
 20
-167.906030231461
 10
87.659076583988
 20
-167.8912163208744
 10
87.7086859589756
 20
-167.7282633044221
 10
87.74038083743992
 20
-167.6142306438603
 10
87.74038083743992
 20
-167.6142306438603
 10
87.89644366292172
 20
-167.6142306438603
 10
87.89644366292172
 20
-167.6142306438603
 10
87.89644366292172
 20
-167.6142306438603
 10
87.89644366292172
 20
-169.1583224403493
 10
87.89644366292172
 20
-169.1583224403493
 10
87.89644366292172
 20
-169.1583224403493
 10
87.65666501714834
 20
-169.1583224403493
 10
87.65666501714834
 20
-169.1583224403493
 97
        0
 97
        1
330
B1
 75
     2
 76
     1
 98
        1
 10
0.0
 20
0.0
450
        0
451
        0
460
0.0
461
0.0
452
        0
462
0.0
453
        0
470

  0
ENDBLK
  5
AD
330
AA
100
AcDbEntity
  8
0
100
AcDbBlockEnd
  0
BLOCK
  5
B8
330
B6
100
AcDbEntity
  8
0
100
AcDbBlockBegin
  2
Block_7
 70
     0
 10
0.0
 20
0.0
 30
0.0
  3
Block_7
  1

  0
INSERT
  5
BB
330
B6
100
AcDbEntity
  8
レイヤー 1
100
AcDbBlockReference
  2
Block_8
 10
0.0
 20
0.0
 30
0.0
  0
ENDBLK
  5
B9
330
B6
100
AcDbEntity
  8
0
100
AcDbBlockEnd
  0
BLOCK
  5
BC
330
BA
100
AcDbEntity
  8
0
100
AcDbBlockBegin
  2
Block_8
 70
     0
 10
0.0
 20
0.0
 30
0.0
  3
Block_8
  1

  0
SPLINE
  5
BE
330
BA
100
AcDbEntity
  8
レイヤー 1
100
AcDbSpline
210
0.0
220
0.0
230
1.0
 70
     9
 71
     3
 72
    41
 73
    37
 74
     0
 42
0.0000000001
 43
0.0000000001
 40
0.0
 40
0.0
 40
0.0
 40
0.0
 40
1.0
 40
1.0
 40
1.0
 40
2.0
 40
2.0
 40
2.0
 40
3.0
 40
3.0
 40
3.0
 40
4.0
 40
4.0
 40
4.0
 40
5.0
 40
5.0
 40
5.0
 40
6.0
 40
6.0
 40
6.0
 40
7.0
 40
7.0
 40
7.0
 40
8.0
 40
8.0
 40
8.0
 40
9.0
 40
9.0
 40
9.0
 40
10.0
 40
10.0
 40
10.0
 40
11.0
 40
11.0
 40
11.0
 40
12.0
 40
12.0
 40
12.0
 40
12.0
 10
96.05064016695957
 20
-153.6367892411047
 30
0.0
 10
95.79294702466288
 20
-153.5013969885343
 30
0.0
 10
95.60312226342562
 20
-153.2051187768029
 30
0.0
 10
95.56005856985999
 20
-153.075927696106
 30
0.0
 10
95.43121199871164
 20
-153.3405110293732
 30
0.0
 10
95.256890167158
 20
-153.5182779564121
 30
0.0
 10
95.06258678178992
 20
-153.6323106169739
 30
0.0
 10
95.06258678178992
 20
-153.6323106169739
 30
0.0
 10
94.85243595718968
 20
-153.4948513071124
 30
0.0
 10
94.85243595718968
 20
-153.4948513071124
 30
0.0
 10
94.92685001967107
 20
-153.46970211007
 30
0.0
 10
95.08291284515289
 20
-153.4080349008841
 30
0.0
 10
95.2141709831409
 20
-153.2536946231449
 30
0.0
 10
95.34749617842008
 20
-153.0972872881146
 30
0.0
 10
95.44258081381297
 20
-152.8643988333117
 30
0.0
 10
95.44258081381297
 20
-152.6042941241753
 30
0.0
 10
95.44258081381297
 20
-152.5026638073604
 30
0.0
 10
95.42880043187198
 20
-152.4310058212672
 30
0.0
 10
95.41743161677064
 20
-152.3841525226678
 30
0.0
 10
95.41743161677064
 20
-152.3841525226678
 30
0.0
 10
95.63688419918106
 20
-152.4055121146764
 30
0.0
 10
95.63688419918106
 20
-152.4055121146764
 30
0.0
 10
95.6596218293837
 20
-152.4075791719675
 30
0.0
 10
95.68201495003783
 20
-152.4096462292587
 30
0.0
 10
95.68201495003783
 20
-152.4310058212672
 30
0.0
 10
95.68201495003783
 20
-152.4499538464361
 30
0.0
 10
95.6706461349365
 20
-152.4582220756007
 30
0.0
 10
95.63447263234138
 20
-152.4795816676092
 30
0.0
 10
95.62551538407973
 20
-152.6804307343993
 30
0.0
 10
95.68649357416866
 20
-152.9236544756579
 30
0.0
 10
95.75229489793693
 20
-153.0442328176417
 30
0.0
 10
95.84944659062097
 20
-153.2199326873894
 30
0.0
 10
96.05753035793007
 20
-153.3997666717195
 30
0.0
 10
96.20222436831056
 20
-153.4569552567746
 30
0.0
 10
96.20222436831056
 20
-153.4569552567746
 30
0.0
 10
96.05064016695957
 20
-153.6367892411047
 30
0.0
 10
96.05064016695957
 20
-153.6367892411047
 30
0.0
  0
SPLINE
  5
BF
330
BA
100
AcDbEntity
  8
レイヤー 1
100
AcDbSpline
210
0.0
220
0.0
230
1.0
 70
    11
 71
     3
 72
    17
 73
    13
 74
     0
 42
0.0000000001
 43
0.0000000001
 40
0.0
 40
0.0
 40
0.0
 40
0.0
 40
1.0
 40
1.0
 40
1.0
 40
2.0
 40
2.0
 40
2.0
 40
3.0
 40
3.0
 40
3.0
 40
4.0
 40
4.0
 40
4.0
 40
4.0
 10
94.88619789294512
 20
-152.6783636771082
 30
0.0
 10
94.88619789294512
 20
-152.6783636771082
 30
0.0
 10
94.71463213777967
 20
-152.6783636771082
 30
0.0
 10
94.71463213777967
 20
-152.6783636771082
 30
0.0
 10
94.71463213777967
 20
-152.6783636771082
 30
0.0
 10
94.71463213777967
 20
-152.807554757805
 30
0.0
 10
94.71463213777967
 20
-152.807554757805
 30
0.0
 10
94.71463213777967
 20
-152.807554757805
 30
0.0
 10
94.88619789294512
 20
-152.807554757805
 30
0.0
 10
94.88619789294512
 20
-152.807554757805
 30
0.0
 10
94.88619789294512
 20
-152.807554757805
 30
0.0
 10
94.88619789294512
 20
-152.6783636771082
 30
0.0
 10
94.88619789294512
 20
-152.6783636771082
 30
0.0
  0
SPLINE
  5
C0
330
BA
100
AcDbEntity
  8
レイヤー 1
100
AcDbSpline
210
0.0
220
0.0
230
1.0
 70
    11
 71
     3
 72
    17
 73
    13
 74
     0
 42
0.0000000001
 43
0.0000000001
 40
0.0
 40
0.0
 40
0.0
 40
0.0
 40
1.0
 40
1.0
 40
1.0
 40
2.0
 40
2.0
 40
2.0
 40
3.0
 40
3.0
 40
3.0
 40
4.0
 40
4.0
 40
4.0
 40
4.0
 10
94.88619789294512
 20
-152.4055121146764
 30
0.0
 10
94.88619789294512
 20
-152.4055121146764
 30
0.0
 10
94.71463213777967
 20
-152.4055121146764
 30
0.0
 10
94.71463213777967
 20
-152.4055121146764
 30
0.0
 10
94.71463213777967
 20
-152.4055121146764
 30
0.0
 10
94.71463213777967
 20
-152.5343586858247
 30
0.0
 10
94.71463213777967
 20
-152.5343586858247
 30
0.0
 10
94.71463213777967
 20
-152.5343586858247
 30
0.0
 10
94.88619789294512
 20
-152.5343586858247
 30
0.0
 10
94.88619789294512
 20
-152.5343586858247
 30
0.0
 10
94.88619789294512
 20
-152.5343586858247
 30
0.0
 10
94.88619789294512
 20
-152.4055121146764
 30
0.0
 10
94.88619789294512
 20
-152.4055121146764
 30
0.0
  0
SPLINE
  5
C1
330
BA
100
AcDbEntity
  8
レイヤー 1
100
AcDbSpline
210
0.0
220
0.0
230
1.0
 70
    11
 71
     3
 72
    17
 73
    13
 74
     0
 42
0.0000000001
 43
0.0000000001
 40
0.0
 40
0.0
 40
0.0
 40
0.0
 40
1.0
 40
1.0
 40
1.0
 40
2.0
 40
2.0
 40
2.0
 40
3.0
 40
3.0
 40
3.0
 40
4.0
 40
4.0
 40
4.0
 40
4.0
 10
94.5313530579644
 20
-152.6783636771082
 30
0.0
 10
94.5313530579644
 20
-152.6783636771082
 30
0.0
 10
94.3618543600901
 20
-152.6783636771082
 30
0.0
 10
94.3618543600901
 20
-152.6783636771082
 30
0.0
 10
94.3618543600901
 20
-152.6783636771082
 30
0.0
 10
94.3618543600901
 20
-152.807554757805
 30
0.0
 10
94.3618543600901
 20
-152.807554757805
 30
0.0
 10
94.3618543600901
 20
-152.807554757805
 30
0.0
 10
94.5313530579644
 20
-152.807554757805
 30
0.0
 10
94.5313530579644
 20
-152.807554757805
 30
0.0
 10
94.5313530579644
 20
-152.807554757805
 30
0.0
 10
94.5313530579644
 20
-152.6783636771082
 30
0.0
 10
94.5313530579644
 20
-152.6783636771082
 30
0.0
  0
SPLINE
  5
C2
330
BA
100
AcDbEntity
  8
レイヤー 1
100
AcDbSpline
210
0.0
220
0.0
230
1.0
 70
    11
 71
     3
 72
    17
 73
    13
 74
     0
 42
0.0000000001
 43
0.0000000001
 40
0.0
 40
0.0
 40
0.0
 40
0.0
 40
1.0
 40
1.0
 40
1.0
 40
2.0
 40
2.0
 40
2.0
 40
3.0
 40
3.0
 40
3.0
 40
4.0
 40
4.0
 40
4.0
 40
4.0
 10
94.5313530579644
 20
-152.4055121146764
 30
0.0
 10
94.5313530579644
 20
-152.4055121146764
 30
0.0
 10
94.3618543600901
 20
-152.4055121146764
 30
0.0
 10
94.3618543600901
 20
-152.4055121146764
 30
0.0
 10
94.3618543600901
 20
-152.4055121146764
 30
0.0
 10
94.3618543600901
 20
-152.5343586858247
 30
0.0
 10
94.3618543600901
 20
-152.5343586858247
 30
0.0
 10
94.3618543600901
 20
-152.5343586858247
 30
0.0
 10
94.5313530579644
 20
-152.5343586858247
 30
0.0
 10
94.5313530579644
 20
-152.5343586858247
 30
0.0
 10
94.5313530579644
 20
-152.5343586858247
 30
0.0
 10
94.5313530579644
 20
-152.4055121146764
 30
0.0
 10
94.5313530579644
 20
-152.4055121146764
 30
0.0
  0
SPLINE
  5
C3
330
BA
100
AcDbEntity
  8
レイヤー 1
100
AcDbSpline
210
0.0
220
0.0
230
1.0
 70
     9
 71
     3
 72
   197
 73
   193
 74
     0
 42
0.0000000001
 43
0.0000000001
 40
0.0
 40
0.0
 40
0.0
 40
0.0
 40
1.0
 40
1.0
 40
1.0
 40
2.0
 40
2.0
 40
2.0
 40
3.0
 40
3.0
 40
3.0
 40
4.0
 40
4.0
 40
4.0
 40
5.0
 40
5.0
 40
5.0
 40
6.0
 40
6.0
 40
6.0
 40
7.0
 40
7.0
 40
7.0
 40
8.0
 40
8.0
 40
8.0
 40
9.0
 40
9.0
 40
9.0
 40
10.0
 40
10.0
 40
10.0
 40
11.0
 40
11.0
 40
11.0
 40
12.0
 40
12.0
 40
12.0
 40
13.0
 40
13.0
 40
13.0
 40
14.0
 40
14.0
 40
14.0
 40
15.0
 40
15.0
 40
15.0
 40
16.0
 40
16.0
 40
16.0
 40
17.0
 40
17.0
 40
17.0
 40
18.0
 40
18.0
 40
18.0
 40
19.0
 40
19.0
 40
19.0
 40
20.0
 40
20.0
 40
20.0
 40
21.0
 40
21.0
 40
21.0
 40
22.0
 40
22.0
 40
22.0
 40
23.0
 40
23.0
 40
23.0
 40
24.0
 40
24.0
 40
24.0
 40
25.0
 40
25.0
 40
25.0
 40
26.0
 40
26.0
 40
26.0
 40
27.0
 40
27.0
 40
27.0
 40
28.0
 40
28.0
 40
28.0
 40
29.0
 40
29.0
 40
29.0
 40
30.0
 40
30.0
 40
30.0
 40
31.0
 40
31.0
 40
31.0
 40
32.0
 40
32.0
 40
32.0
 40
33.0
 40
33.0
 40
33.0
 40
34.0
 40
34.0
 40
34.0
 40
35.0
 40
35.0
 40
35.0
 40
36.0
 40
36.0
 40
36.0
 40
37.0
 40
37.0
 40
37.0
 40
38.0
 40
38.0
 40
38.0
 40
39.0
 40
39.0
 40
39.0
 40
40.0
 40
40.0
 40
40.0
 40
41.0
 40
41.0
 40
41.0
 40
42.0
 40
42.0
 40
42.0
 40
43.0
 40
43.0
 40
43.0
 40
44.0
 40
44.0
 40
44.0
 40
45.0
 40
45.0
 40
45.0
 40
46.0
 40
46.0
 40
46.0
 40
47.0
 40
47.0
 40
47.0
 40
48.0
 40
48.0
 40
48.0
 40
49.0
 40
49.0
 40
49.0
 40
50.0
 40
50.0
 40
50.0
 40
51.0
 40
51.0
 40
51.0
 40
52.0
 40
52.0
 40
52.0
 40
53.0
 40
53.0
 40
53.0
 40
54.0
 40
54.0
 40
54.0
 40
55.0
 40
55.0
 40
55.0
 40
56.0
 40
56.0
 40
56.0
 40
57.0
 40
57.0
 40
57.0
 40
58.0
 40
58.0
 40
58.0
 40
59.0
 40
59.0
 40
59.0
 40
60.0
 40
60.0
 40
60.0
 40
61.0
 40
61.0
 40
61.0
 40
62.0
 40
62.0
 40
62.0
 40
63.0
 40
63.0
 40
63.0
 40
64.0
 40
64.0
 40
64.0
 40
64.0
 10
96.14090166867311
 20
-152.2807996581103
 30
0.0
 10
96.12987736312032
 20
-152.310082969735
 30
0.0
 10
96.10472816607799
 20
-152.3569362683343
 30
0.0
 10
96.09370386052519
 20
-152.3841525226678
 30
0.0
 10
96.09370386052519
 20
-152.3841525226678
 30
0.0
 10
96.02790253675692
 20
-152.5367702526644
 30
0.0
 10
96.02790253675692
 20
-152.5367702526644
 30
0.0
 10
96.01687823120412
 20
-152.5619194497067
 30
0.0
 10
95.96485728937684
 20
-152.6742295625258
 30
0.0
 10
95.95107690743585
 20
-152.697311702277
 30
0.0
 10
95.94900985014469
 20
-152.703857383699
 30
0.0
 10
95.94453122601386
 20
-152.7121256128636
 30
0.0
 10
95.9421196591742
 20
-152.7186712942856
 30
0.0
 10
95.9421196591742
 20
-152.7186712942856
 30
0.0
 10
95.71818845263296
 20
-152.6656168238127
 30
0.0
 10
95.71818845263296
 20
-152.6656168238127
 30
0.0
 10
95.80190427292453
 20
-152.5557182778333
 30
0.0
 10
95.86736108714427
 20
-152.420326025263
 30
0.0
 10
95.90146753244825
 20
-152.310082969735
 30
0.0
 10
95.90146753244825
 20
-152.310082969735
 30
0.0
 10
95.40399574437818
 20
-152.310082969735
 30
0.0
 10
95.40399574437818
 20
-152.310082969735
 30
0.0
 10
95.31821286679544
 20
-152.4751030434784
 30
0.0
 10
95.24586586160522
 20
-152.5536512205421
 30
0.0
 10
95.20969235901008
 20
-152.593614328171
 30
0.0
 10
95.20969235901008
 20
-152.593614328171
 30
0.0
 10
95.07843422102206
 20
-152.5281575139513
 30
0.0
 10
95.07843422102206
 20
-152.5281575139513
 30
0.0
 10
95.07843422102206
 20
-152.5281575139513
 30
0.0
 10
95.07843422102206
 20
-152.6993787595682
 30
0.0
 10
95.07843422102206
 20
-152.6993787595682
 30
0.0
 10
95.07843422102206
 20
-152.807554757805
 30
0.0
 10
95.08084578786172
 20
-152.8561306041471
 30
0.0
 10
95.09187009341454
 20
-152.9618950355442
 30
0.0
 10
95.01504446409347
 20
-152.9598279782531
 30
0.0
 10
94.99265134343934
 20
-152.9598279782531
 30
0.0
 10
94.77319876102892
 20
-152.9598279782531
 30
0.0
 10
94.77319876102892
 20
-152.9598279782531
 30
0.0
 10
94.71463213777967
 20
-152.9598279782531
 30
0.0
 10
94.71463213777967
 20
-152.9598279782531
 30
0.0
 10
94.71463213777967
 20
-152.9598279782531
 30
0.0
 10
94.71463213777967
 20
-153.0952202308234
 30
0.0
 10
94.71463213777967
 20
-153.0952202308234
 30
0.0
 10
94.71463213777967
 20
-153.0952202308234
 30
0.0
 10
94.79145776710074
 20
-153.0952202308234
 30
0.0
 10
94.79145776710074
 20
-153.0952202308234
 30
0.0
 10
94.86139320545133
 20
-153.0952202308234
 30
0.0
 10
95.01745603093315
 20
-153.0907416066926
 30
0.0
 10
95.13045516284933
 20
-153.082473377528
 30
0.0
 10
95.13045516284933
 20
-153.082473377528
 30
0.0
 10
95.13045516284933
 20
-153.2602403045669
 30
0.0
 10
95.13045516284933
 20
-153.2602403045669
 30
0.0
 10
95.02641327919478
 20
-153.2536946231449
 30
0.0
 10
94.8569145813205
 20
-153.2495605085626
 30
0.0
 10
94.79145776710074
 20
-153.2495605085626
 30
0.0
 10
94.79145776710074
 20
-153.2495605085626
 30
0.0
 10
94.71463213777967
 20
-153.2495605085626
 30
0.0
 10
94.71463213777967
 20
-153.2495605085626
 30
0.0
 10
94.71669919507084
 20
-153.338443972082
 30
0.0
 10
94.72117781920166
 20
-153.5775335987584
 30
0.0
 10
94.72358938604132
 20
-153.6516031516912
 30
0.0
 10
94.72358938604132
 20
-153.6516031516912
 30
0.0
 10
94.50861542776173
 20
-153.6516031516912
 30
0.0
 10
94.50861542776173
 20
-153.6516031516912
 30
0.0
 10
94.52239580970275
 20
-153.4376627220573
 30
0.0
 10
94.52239580970275
 20
-153.4080349008841
 30
0.0
 10
94.52687443383357
 20
-153.2495605085626
 30
0.0
 10
94.52687443383357
 20
-153.2495605085626
 30
0.0
 10
94.45211586180365
 20
-153.2495605085626
 30
0.0
 10
94.45211586180365
 20
-153.2495605085626
 30
0.0
 10
94.39113767171471
 20
-153.2495605085626
 30
0.0
 10
94.22852916481092
 20
-153.2536946231449
 30
0.0
 10
94.11070689921539
 20
-153.2602403045669
 30
0.0
 10
94.11070689921539
 20
-153.2602403045669
 30
0.0
 10
94.11070689921539
 20
-153.082473377528
 30
0.0
 10
94.11070689921539
 20
-153.082473377528
 30
0.0
 10
94.22370603113158
 20
-153.0907416066926
 30
0.0
 10
94.37770179932224
 20
-153.0952202308234
 30
0.0
 10
94.45211586180365
 20
-153.0952202308234
 30
0.0
 10
94.45211586180365
 20
-153.0952202308234
 30
0.0
 10
94.5313530579644
 20
-153.0952202308234
 30
0.0
 10
94.5313530579644
 20
-153.0952202308234
 30
0.0
 10
94.5313530579644
 20
-153.0952202308234
 30
0.0
 10
94.5313530579644
 20
-152.9598279782531
 30
0.0
 10
94.5313530579644
 20
-152.9598279782531
 30
0.0
 10
94.5313530579644
 20
-152.9598279782531
 30
0.0
 10
94.48381074026794
 20
-152.9598279782531
 30
0.0
 10
94.48381074026794
 20
-152.9598279782531
 30
0.0
 10
94.40250648681605
 20
-152.9598279782531
 30
0.0
 10
94.19683428634662
 20
-152.9618950355442
 30
0.0
 10
94.1606607837515
 20
-152.9618950355442
 30
0.0
 10
94.16720646517347
 20
-152.8898925399025
 30
0.0
 10
94.17650822298366
 20
-152.8096218150962
 30
0.0
 10
94.17650822298366
 20
-152.6890434731124
 30
0.0
 10
94.17650822298366
 20
-152.6890434731124
 30
0.0
 10
94.17650822298366
 20
-152.5154106606558
 30
0.0
 10
94.17650822298366
 20
-152.5154106606558
 30
0.0
 10
94.17650822298366
 20
-152.4434081650141
 30
0.0
 10
94.16720646517347
 20
-152.3228298230304
 30
0.0
 10
94.1606607837515
 20
-152.2425590982241
 30
0.0
 10
94.24403209449456
 20
-152.2466932128063
 30
0.0
 10
94.28502873076903
 20
-152.2487602700975
 30
0.0
 10
94.42042098333933
 20
-152.2487602700975
 30
0.0
 10
94.42042098333933
 20
-152.2487602700975
 30
0.0
 10
94.5313530579644
 20
-152.2487602700975
 30
0.0
 10
94.5313530579644
 20
-152.2487602700975
 30
0.0
 10
94.5313530579644
 20
-152.2487602700975
 30
0.0
 10
94.5313530579644
 20
-152.1030327310714
 30
0.0
 10
94.5313530579644
 20
-152.1030327310714
 30
0.0
 10
94.5313530579644
 20
-152.1030327310714
 30
0.0
 10
94.44763723767282
 20
-152.1030327310714
 30
0.0
 10
94.44763723767282
 20
-152.1030327310714
 30
0.0
 10
94.38872610487505
 20
-152.1030327310714
 30
0.0
 10
94.20579153460828
 20
-152.1071668456538
 30
0.0
 10
94.11518552334621
 20
-152.1133680175272
 30
0.0
 10
94.11518552334621
 20
-152.1133680175272
 30
0.0
 10
94.11518552334621
 20
-151.9359456000368
 30
0.0
 10
94.11518552334621
 20
-151.9359456000368
 30
0.0
 10
94.2033799677686
 20
-151.9421467719103
 30
0.0
 10
94.37770179932224
 20
-151.9462808864926
 30
0.0
 10
94.44763723767282
 20
-151.9462808864926
 30
0.0
 10
94.44763723767282
 20
-151.9462808864926
 30
0.0
 10
94.5313530579644
 20
-151.9462808864926
 30
0.0
 10
94.5313530579644
 20
-151.9462808864926
 30
0.0
 10
94.5313530579644
 20
-151.9125189507371
 30
0.0
 10
94.52687443383357
 20
-151.7581786729979
 30
0.0
 10
94.52687443383357
 20
-151.7264837945336
 30
0.0
 10
94.52687443383357
 20
-151.7264837945336
 30
0.0
 10
94.7370252584338
 20
-151.7433647624113
 30
0.0
 10
94.7370252584338
 20
-151.7433647624113
 30
0.0
 10
94.75528426450564
 20
-151.7454318197025
 30
0.0
 10
94.77767738515975
 20
-151.7474988769937
 30
0.0
 10
94.77767738515975
 20
-151.7685139594537
 30
0.0
 10
94.77767738515975
 20
-151.7919406087534
 30
0.0
 10
94.75528426450564
 20
-151.8005533474665
 30
0.0
 10
94.72565644333249
 20
-151.8129556912134
 30
0.0
 10
94.72565644333249
 20
-151.834315283222
 30
0.0
 10
94.72358938604132
 20
-151.9293999186148
 30
0.0
 10
94.72358938604132
 20
-151.9462808864926
 30
0.0
 10
94.72358938604132
 20
-151.9462808864926
 30
0.0
 10
94.78697914296992
 20
-151.9462808864926
 30
0.0
 10
94.78697914296992
 20
-151.9462808864926
 30
0.0
 10
94.85932614816018
 20
-151.9462808864926
 30
0.0
 10
95.01297740680232
 20
-151.9421467719103
 30
0.0
 10
95.1259765387185
 20
-151.9359456000368
 30
0.0
 10
95.1259765387185
 20
-151.9359456000368
 30
0.0
 10
95.1259765387185
 20
-152.1133680175272
 30
0.0
 10
95.1259765387185
 20
-152.1133680175272
 30
0.0
 10
95.02193465506396
 20
-152.1071668456538
 30
0.0
 10
94.85450301448082
 20
-152.1030327310714
 30
0.0
 10
94.78697914296992
 20
-152.1030327310714
 30
0.0
 10
94.78697914296992
 20
-152.1030327310714
 30
0.0
 10
94.71463213777967
 20
-152.1030327310714
 30
0.0
 10
94.71463213777967
 20
-152.1030327310714
 30
0.0
 10
94.71463213777967
 20
-152.1030327310714
 30
0.0
 10
94.71463213777967
 20
-152.2487602700975
 30
0.0
 10
94.71463213777967
 20
-152.2487602700975
 30
0.0
 10
94.71463213777967
 20
-152.2487602700975
 30
0.0
 10
94.78904620026108
 20
-152.2487602700975
 30
0.0
 10
94.78904620026108
 20
-152.2487602700975
 30
0.0
 10
94.94958764987371
 20
-152.2487602700975
 30
0.0
 10
95.02641327919478
 20
-152.2446261555152
 30
0.0
 10
95.09187009341454
 20
-152.2425590982241
 30
0.0
 10
95.08291284515289
 20
-152.3376437336169
 30
0.0
 10
95.08084578786172
 20
-152.4161919106806
 30
0.0
 10
95.07843422102206
 20
-152.4540879610184
 30
0.0
 10
95.24345429476552
 20
-152.2425590982241
 30
0.0
 10
95.35645342668173
 20
-151.9952012423831
 30
0.0
 10
95.37471243275355
 20
-151.7326849664071
 30
0.0
 10
95.37471243275355
 20
-151.7326849664071
 30
0.0
 10
95.60518932071676
 20
-151.7833278700403
 30
0.0
 10
95.60518932071676
 20
-151.7833278700403
 30
0.0
 10
95.6210367599489
 20
-151.7878064941711
 30
0.0
 10
95.63688419918106
 20
-151.7940076660445
 30
0.0
 10
95.63688419918106
 20
-151.8108886339222
 30
0.0
 10
95.63688419918106
 20
-151.8277696018
 30
0.0
 10
95.63240557505023
 20
-151.8301811686397
 30
0.0
 10
95.57797306638329
 20
-151.8511962510997
 30
0.0
 10
95.56005856985999
 20
-151.9273328613237
 30
0.0
 10
95.53284231552652
 20
-152.0182833821343
 30
0.0
 10
95.48082137369924
 20
-152.14540740554
 30
0.0
 10
95.48082137369924
 20
-152.14540740554
 30
0.0
 10
95.84255639965048
 20
-152.14540740554
 30
0.0
 10
95.84255639965048
 20
-152.14540740554
 30
0.0
 10
95.88320852637641
 20
-152.14540740554
 30
0.0
 10
96.02135685533495
 20
-152.1409287814092
 30
0.0
 10
96.07337779716221
 20
-152.1347276095357
 30
0.0
 10
96.07337779716221
 20
-152.1347276095357
 30
0.0
 10
96.17259654713741
 20
-152.2043185383378
 30
0.0
 10
96.17259654713741
 20
-152.2043185383378
 30
0.0
 10
96.16363929887576
 20
-152.2256781303463
 30
0.0
 10
96.15674910790525
 20
-152.2446261555152
 30
0.0
 10
96.14090166867311
 20
-152.2807996581103
 30
0.0
  0
HATCH
  5
C4
330
BA
100
AcDbEntity
  8
レイヤー 1
 62
   250
420
  2299925
440
 33554687
100
AcDbHatch
 10
0.0
 20
0.0
 30
0.0
210
0.0
220
0.0
230
1.0
  2
SOLID
 70
     1
 71
     1
 91
        6
 92
        1
 93
        1
 72
     4
 94
        3
 73
     0
 74
     0
 95
       41
 96
       37
 40
0.0
 40
0.0
 40
0.0
 40
0.0
 40
1.0
 40
1.0
 40
1.0
 40
2.0
 40
2.0
 40
2.0
 40
3.0
 40
3.0
 40
3.0
 40
4.0
 40
4.0
 40
4.0
 40
5.0
 40
5.0
 40
5.0
 40
6.0
 40
6.0
 40
6.0
 40
7.0
 40
7.0
 40
7.0
 40
8.0
 40
8.0
 40
8.0
 40
9.0
 40
9.0
 40
9.0
 40
10.0
 40
10.0
 40
10.0
 40
11.0
 40
11.0
 40
11.0
 40
12.0
 40
12.0
 40
12.0
 40
12.0
 10
96.05064016695957
 20
-153.6367892411047
 10
95.79294702466288
 20
-153.5013969885343
 10
95.60312226342562
 20
-153.2051187768029
 10
95.56005856985999
 20
-153.075927696106
 10
95.43121199871164
 20
-153.3405110293732
 10
95.256890167158
 20
-153.5182779564121
 10
95.06258678178992
 20
-153.6323106169739
 10
95.06258678178992
 20
-153.6323106169739
 10
94.85243595718968
 20
-153.4948513071124
 10
94.85243595718968
 20
-153.4948513071124
 10
94.92685001967107
 20
-153.46970211007
 10
95.08291284515289
 20
-153.4080349008841
 10
95.2141709831409
 20
-153.2536946231449
 10
95.34749617842008
 20
-153.0972872881146
 10
95.44258081381297
 20
-152.8643988333117
 10
95.44258081381297
 20
-152.6042941241753
 10
95.44258081381297
 20
-152.5026638073604
 10
95.42880043187198
 20
-152.4310058212672
 10
95.41743161677064
 20
-152.3841525226678
 10
95.41743161677064
 20
-152.3841525226678
 10
95.63688419918106
 20
-152.4055121146764
 10
95.63688419918106
 20
-152.4055121146764
 10
95.6596218293837
 20
-152.4075791719675
 10
95.68201495003783
 20
-152.4096462292587
 10
95.68201495003783
 20
-152.4310058212672
 10
95.68201495003783
 20
-152.4499538464361
 10
95.6706461349365
 20
-152.4582220756007
 10
95.63447263234138
 20
-152.4795816676092
 10
95.62551538407973
 20
-152.6804307343993
 10
95.68649357416866
 20
-152.9236544756579
 10
95.75229489793693
 20
-153.0442328176417
 10
95.84944659062097
 20
-153.2199326873894
 10
96.05753035793007
 20
-153.3997666717195
 10
96.20222436831056
 20
-153.4569552567746
 10
96.20222436831056
 20
-153.4569552567746
 10
96.05064016695957
 20
-153.6367892411047
 10
96.05064016695957
 20
-153.6367892411047
 97
        0
 97
        1
330
BE
 92
        1
 93
        1
 72
     4
 94
        3
 73
     0
 74
     0
 95
       17
 96
       13
 40
0.0
 40
0.0
 40
0.0
 40
0.0
 40
1.0
 40
1.0
 40
1.0
 40
2.0
 40
2.0
 40
2.0
 40
3.0
 40
3.0
 40
3.0
 40
4.0
 40
4.0
 40
4.0
 40
4.0
 10
94.88619789294512
 20
-152.6783636771082
 10
94.88619789294512
 20
-152.6783636771082
 10
94.71463213777967
 20
-152.6783636771082
 10
94.71463213777967
 20
-152.6783636771082
 10
94.71463213777967
 20
-152.6783636771082
 10
94.71463213777967
 20
-152.807554757805
 10
94.71463213777967
 20
-152.807554757805
 10
94.71463213777967
 20
-152.807554757805
 10
94.88619789294512
 20
-152.807554757805
 10
94.88619789294512
 20
-152.807554757805
 10
94.88619789294512
 20
-152.807554757805
 10
94.88619789294512
 20
-152.6783636771082
 10
94.88619789294512
 20
-152.6783636771082
 97
        0
 97
        1
330
BF
 92
        1
 93
        1
 72
     4
 94
        3
 73
     0
 74
     0
 95
       17
 96
       13
 40
0.0
 40
0.0
 40
0.0
 40
0.0
 40
1.0
 40
1.0
 40
1.0
 40
2.0
 40
2.0
 40
2.0
 40
3.0
 40
3.0
 40
3.0
 40
4.0
 40
4.0
 40
4.0
 40
4.0
 10
94.88619789294512
 20
-152.4055121146764
 10
94.88619789294512
 20
-152.4055121146764
 10
94.71463213777967
 20
-152.4055121146764
 10
94.71463213777967
 20
-152.4055121146764
 10
94.71463213777967
 20
-152.4055121146764
 10
94.71463213777967
 20
-152.5343586858247
 10
94.71463213777967
 20
-152.5343586858247
 10
94.71463213777967
 20
-152.5343586858247
 10
94.88619789294512
 20
-152.5343586858247
 10
94.88619789294512
 20
-152.5343586858247
 10
94.88619789294512
 20
-152.5343586858247
 10
94.88619789294512
 20
-152.4055121146764
 10
94.88619789294512
 20
-152.4055121146764
 97
        0
 97
        1
330
C0
 92
        1
 93
        1
 72
     4
 94
        3
 73
     0
 74
     0
 95
       17
 96
       13
 40
0.0
 40
0.0
 40
0.0
 40
0.0
 40
1.0
 40
1.0
 40
1.0
 40
2.0
 40
2.0
 40
2.0
 40
3.0
 40
3.0
 40
3.0
 40
4.0
 40
4.0
 40
4.0
 40
4.0
 10
94.5313530579644
 20
-152.6783636771082
 10
94.5313530579644
 20
-152.6783636771082
 10
94.3618543600901
 20
-152.6783636771082
 10
94.3618543600901
 20
-152.6783636771082
 10
94.3618543600901
 20
-152.6783636771082
 10
94.3618543600901
 20
-152.807554757805
 10
94.3618543600901
 20
-152.807554757805
 10
94.3618543600901
 20
-152.807554757805
 10
94.5313530579644
 20
-152.807554757805
 10
94.5313530579644
 20
-152.807554757805
 10
94.5313530579644
 20
-152.807554757805
 10
94.5313530579644
 20
-152.6783636771082
 10
94.5313530579644
 20
-152.6783636771082
 97
        0
 97
        1
330
C1
 92
        1
 93
        1
 72
     4
 94
        3
 73
     0
 74
     0
 95
       17
 96
       13
 40
0.0
 40
0.0
 40
0.0
 40
0.0
 40
1.0
 40
1.0
 40
1.0
 40
2.0
 40
2.0
 40
2.0
 40
3.0
 40
3.0
 40
3.0
 40
4.0
 40
4.0
 40
4.0
 40
4.0
 10
94.5313530579644
 20
-152.4055121146764
 10
94.5313530579644
 20
-152.4055121146764
 10
94.3618543600901
 20
-152.4055121146764
 10
94.3618543600901
 20
-152.4055121146764
 10
94.3618543600901
 20
-152.4055121146764
 10
94.3618543600901
 20
-152.5343586858247
 10
94.3618543600901
 20
-152.5343586858247
 10
94.3618543600901
 20
-152.5343586858247
 10
94.5313530579644
 20
-152.5343586858247
 10
94.5313530579644
 20
-152.5343586858247
 10
94.5313530579644
 20
-152.5343586858247
 10
94.5313530579644
 20
-152.4055121146764
 10
94.5313530579644
 20
-152.4055121146764
 97
        0
 97
        1
330
C2
 92
        1
 93
        1
 72
     4
 94
        3
 73
     0
 74
     0
 95
      197
 96
      193
 40
0.0
 40
0.0
 40
0.0
 40
0.0
 40
1.0
 40
1.0
 40
1.0
 40
2.0
 40
2.0
 40
2.0
 40
3.0
 40
3.0
 40
3.0
 40
4.0
 40
4.0
 40
4.0
 40
5.0
 40
5.0
 40
5.0
 40
6.0
 40
6.0
 40
6.0
 40
7.0
 40
7.0
 40
7.0
 40
8.0
 40
8.0
 40
8.0
 40
9.0
 40
9.0
 40
9.0
 40
10.0
 40
10.0
 40
10.0
 40
11.0
 40
11.0
 40
11.0
 40
12.0
 40
12.0
 40
12.0
 40
13.0
 40
13.0
 40
13.0
 40
14.0
 40
14.0
 40
14.0
 40
15.0
 40
15.0
 40
15.0
 40
16.0
 40
16.0
 40
16.0
 40
17.0
 40
17.0
 40
17.0
 40
18.0
 40
18.0
 40
18.0
 40
19.0
 40
19.0
 40
19.0
 40
20.0
 40
20.0
 40
20.0
 40
21.0
 40
21.0
 40
21.0
 40
22.0
 40
22.0
 40
22.0
 40
23.0
 40
23.0
 40
23.0
 40
24.0
 40
24.0
 40
24.0
 40
25.0
 40
25.0
 40
25.0
 40
26.0
 40
26.0
 40
26.0
 40
27.0
 40
27.0
 40
27.0
 40
28.0
 40
28.0
 40
28.0
 40
29.0
 40
29.0
 40
29.0
 40
30.0
 40
30.0
 40
30.0
 40
31.0
 40
31.0
 40
31.0
 40
32.0
 40
32.0
 40
32.0
 40
33.0
 40
33.0
 40
33.0
 40
34.0
 40
34.0
 40
34.0
 40
35.0
 40
35.0
 40
35.0
 40
36.0
 40
36.0
 40
36.0
 40
37.0
 40
37.0
 40
37.0
 40
38.0
 40
38.0
 40
38.0
 40
39.0
 40
39.0
 40
39.0
 40
40.0
 40
40.0
 40
40.0
 40
41.0
 40
41.0
 40
41.0
 40
42.0
 40
42.0
 40
42.0
 40
43.0
 40
43.0
 40
43.0
 40
44.0
 40
44.0
 40
44.0
 40
45.0
 40
45.0
 40
45.0
 40
46.0
 40
46.0
 40
46.0
 40
47.0
 40
47.0
 40
47.0
 40
48.0
 40
48.0
 40
48.0
 40
49.0
 40
49.0
 40
49.0
 40
50.0
 40
50.0
 40
50.0
 40
51.0
 40
51.0
 40
51.0
 40
52.0
 40
52.0
 40
52.0
 40
53.0
 40
53.0
 40
53.0
 40
54.0
 40
54.0
 40
54.0
 40
55.0
 40
55.0
 40
55.0
 40
56.0
 40
56.0
 40
56.0
 40
57.0
 40
57.0
 40
57.0
 40
58.0
 40
58.0
 40
58.0
 40
59.0
 40
59.0
 40
59.0
 40
60.0
 40
60.0
 40
60.0
 40
61.0
 40
61.0
 40
61.0
 40
62.0
 40
62.0
 40
62.0
 40
63.0
 40
63.0
 40
63.0
 40
64.0
 40
64.0
 40
64.0
 40
64.0
 10
96.14090166867311
 20
-152.2807996581103
 10
96.12987736312032
 20
-152.310082969735
 10
96.10472816607799
 20
-152.3569362683343
 10
96.09370386052519
 20
-152.3841525226678
 10
96.09370386052519
 20
-152.3841525226678
 10
96.02790253675692
 20
-152.5367702526644
 10
96.02790253675692
 20
-152.5367702526644
 10
96.01687823120412
 20
-152.5619194497067
 10
95.96485728937684
 20
-152.6742295625258
 10
95.95107690743585
 20
-152.697311702277
 10
95.94900985014469
 20
-152.703857383699
 10
95.94453122601386
 20
-152.7121256128636
 10
95.9421196591742
 20
-152.7186712942856
 10
95.9421196591742
 20
-152.7186712942856
 10
95.71818845263296
 20
-152.6656168238127
 10
95.71818845263296
 20
-152.6656168238127
 10
95.80190427292453
 20
-152.5557182778333
 10
95.86736108714427
 20
-152.420326025263
 10
95.90146753244825
 20
-152.310082969735
 10
95.90146753244825
 20
-152.310082969735
 10
95.40399574437818
 20
-152.310082969735
 10
95.40399574437818
 20
-152.310082969735
 10
95.31821286679544
 20
-152.4751030434784
 10
95.24586586160522
 20
-152.5536512205421
 10
95.20969235901008
 20
-152.593614328171
 10
95.20969235901008
 20
-152.593614328171
 10
95.07843422102206
 20
-152.5281575139513
 10
95.07843422102206
 20
-152.5281575139513
 10
95.07843422102206
 20
-152.5281575139513
 10
95.07843422102206
 20
-152.6993787595682
 10
95.07843422102206
 20
-152.6993787595682
 10
95.07843422102206
 20
-152.807554757805
 10
95.08084578786172
 20
-152.8561306041471
 10
95.09187009341454
 20
-152.9618950355442
 10
95.01504446409347
 20
-152.9598279782531
 10
94.99265134343934
 20
-152.9598279782531
 10
94.77319876102892
 20
-152.9598279782531
 10
94.77319876102892
 20
-152.9598279782531
 10
94.71463213777967
 20
-152.9598279782531
 10
94.71463213777967
 20
-152.9598279782531
 10
94.71463213777967
 20
-152.9598279782531
 10
94.71463213777967
 20
-153.0952202308234
 10
94.71463213777967
 20
-153.0952202308234
 10
94.71463213777967
 20
-153.0952202308234
 10
94.79145776710074
 20
-153.0952202308234
 10
94.79145776710074
 20
-153.0952202308234
 10
94.86139320545133
 20
-153.0952202308234
 10
95.01745603093315
 20
-153.0907416066926
 10
95.13045516284933
 20
-153.082473377528
 10
95.13045516284933
 20
-153.082473377528
 10
95.13045516284933
 20
-153.2602403045669
 10
95.13045516284933
 20
-153.2602403045669
 10
95.02641327919478
 20
-153.2536946231449
 10
94.8569145813205
 20
-153.2495605085626
 10
94.79145776710074
 20
-153.2495605085626
 10
94.79145776710074
 20
-153.2495605085626
 10
94.71463213777967
 20
-153.2495605085626
 10
94.71463213777967
 20
-153.2495605085626
 10
94.71669919507084
 20
-153.338443972082
 10
94.72117781920166
 20
-153.5775335987584
 10
94.72358938604132
 20
-153.6516031516912
 10
94.72358938604132
 20
-153.6516031516912
 10
94.50861542776173
 20
-153.6516031516912
 10
94.50861542776173
 20
-153.6516031516912
 10
94.52239580970275
 20
-153.4376627220573
 10
94.52239580970275
 20
-153.4080349008841
 10
94.52687443383357
 20
-153.2495605085626
 10
94.52687443383357
 20
-153.2495605085626
 10
94.45211586180365
 20
-153.2495605085626
 10
94.45211586180365
 20
-153.2495605085626
 10
94.39113767171471
 20
-153.2495605085626
 10
94.22852916481092
 20
-153.2536946231449
 10
94.11070689921539
 20
-153.2602403045669
 10
94.11070689921539
 20
-153.2602403045669
 10
94.11070689921539
 20
-153.082473377528
 10
94.11070689921539
 20
-153.082473377528
 10
94.22370603113158
 20
-153.0907416066926
 10
94.37770179932224
 20
-153.0952202308234
 10
94.45211586180365
 20
-153.0952202308234
 10
94.45211586180365
 20
-153.0952202308234
 10
94.5313530579644
 20
-153.0952202308234
 10
94.5313530579644
 20
-153.0952202308234
 10
94.5313530579644
 20
-153.0952202308234
 10
94.5313530579644
 20
-152.9598279782531
 10
94.5313530579644
 20
-152.9598279782531
 10
94.5313530579644
 20
-152.9598279782531
 10
94.48381074026794
 20
-152.9598279782531
 10
94.48381074026794
 20
-152.9598279782531
 10
94.40250648681605
 20
-152.9598279782531
 10
94.19683428634662
 20
-152.9618950355442
 10
94.1606607837515
 20
-152.9618950355442
 10
94.16720646517347
 20
-152.8898925399025
 10
94.17650822298366
 20
-152.8096218150962
 10
94.17650822298366
 20
-152.6890434731124
 10
94.17650822298366
 20
-152.6890434731124
 10
94.17650822298366
 20
-152.5154106606558
 10
94.17650822298366
 20
-152.5154106606558
 10
94.17650822298366
 20
-152.4434081650141
 10
94.16720646517347
 20
-152.3228298230304
 10
94.1606607837515
 20
-152.2425590982241
 10
94.24403209449456
 20
-152.2466932128063
 10
94.28502873076903
 20
-152.2487602700975
 10
94.42042098333933
 20
-152.2487602700975
 10
94.42042098333933
 20
-152.2487602700975
 10
94.5313530579644
 20
-152.2487602700975
 10
94.5313530579644
 20
-152.2487602700975
 10
94.5313530579644
 20
-152.2487602700975
 10
94.5313530579644
 20
-152.1030327310714
 10
94.5313530579644
 20
-152.1030327310714
 10
94.5313530579644
 20
-152.1030327310714
 10
94.44763723767282
 20
-152.1030327310714
 10
94.44763723767282
 20
-152.1030327310714
 10
94.38872610487505
 20
-152.1030327310714
 10
94.20579153460828
 20
-152.1071668456538
 10
94.11518552334621
 20
-152.1133680175272
 10
94.11518552334621
 20
-152.1133680175272
 10
94.11518552334621
 20
-151.9359456000368
 10
94.11518552334621
 20
-151.9359456000368
 10
94.2033799677686
 20
-151.9421467719103
 10
94.37770179932224
 20
-151.9462808864926
 10
94.44763723767282
 20
-151.9462808864926
 10
94.44763723767282
 20
-151.9462808864926
 10
94.5313530579644
 20
-151.9462808864926
 10
94.5313530579644
 20
-151.9462808864926
 10
94.5313530579644
 20
-151.9125189507371
 10
94.52687443383357
 20
-151.7581786729979
 10
94.52687443383357
 20
-151.7264837945336
 10
94.52687443383357
 20
-151.7264837945336
 10
94.7370252584338
 20
-151.7433647624113
 10
94.7370252584338
 20
-151.7433647624113
 10
94.75528426450564
 20
-151.7454318197025
 10
94.77767738515975
 20
-151.7474988769937
 10
94.77767738515975
 20
-151.7685139594537
 10
94.77767738515975
 20
-151.7919406087534
 10
94.75528426450564
 20
-151.8005533474665
 10
94.72565644333249
 20
-151.8129556912134
 10
94.72565644333249
 20
-151.834315283222
 10
94.72358938604132
 20
-151.9293999186148
 10
94.72358938604132
 20
-151.9462808864926
 10
94.72358938604132
 20
-151.9462808864926
 10
94.78697914296992
 20
-151.9462808864926
 10
94.78697914296992
 20
-151.9462808864926
 10
94.85932614816018
 20
-151.9462808864926
 10
95.01297740680232
 20
-151.9421467719103
 10
95.1259765387185
 20
-151.9359456000368
 10
95.1259765387185
 20
-151.9359456000368
 10
95.1259765387185
 20
-152.1133680175272
 10
95.1259765387185
 20
-152.1133680175272
 10
95.02193465506396
 20
-152.1071668456538
 10
94.85450301448082
 20
-152.1030327310714
 10
94.78697914296992
 20
-152.1030327310714
 10
94.78697914296992
 20
-152.1030327310714
 10
94.71463213777967
 20
-152.1030327310714
 10
94.71463213777967
 20
-152.1030327310714
 10
94.71463213777967
 20
-152.1030327310714
 10
94.71463213777967
 20
-152.2487602700975
 10
94.71463213777967
 20
-152.2487602700975
 10
94.71463213777967
 20
-152.2487602700975
 10
94.78904620026108
 20
-152.2487602700975
 10
94.78904620026108
 20
-152.2487602700975
 10
94.94958764987371
 20
-152.2487602700975
 10
95.02641327919478
 20
-152.2446261555152
 10
95.09187009341454
 20
-152.2425590982241
 10
95.08291284515289
 20
-152.3376437336169
 10
95.08084578786172
 20
-152.4161919106806
 10
95.07843422102206
 20
-152.4540879610184
 10
95.24345429476552
 20
-152.2425590982241
 10
95.35645342668173
 20
-151.9952012423831
 10
95.37471243275355
 20
-151.7326849664071
 10
95.37471243275355
 20
-151.7326849664071
 10
95.60518932071676
 20
-151.7833278700403
 10
95.60518932071676
 20
-151.7833278700403
 10
95.6210367599489
 20
-151.7878064941711
 10
95.63688419918106
 20
-151.7940076660445
 10
95.63688419918106
 20
-151.8108886339222
 10
95.63688419918106
 20
-151.8277696018
 10
95.63240557505023
 20
-151.8301811686397
 10
95.57797306638329
 20
-151.8511962510997
 10
95.56005856985999
 20
-151.9273328613237
 10
95.53284231552652
 20
-152.0182833821343
 10
95.48082137369924
 20
-152.14540740554
 10
95.48082137369924
 20
-152.14540740554
 10
95.84255639965048
 20
-152.14540740554
 10
95.84255639965048
 20
-152.14540740554
 10
95.88320852637641
 20
-152.14540740554
 10
96.02135685533495
 20
-152.1409287814092
 10
96.07337779716221
 20
-152.1347276095357
 10
96.07337779716221
 20
-152.1347276095357
 10
96.17259654713741
 20
-152.2043185383378
 10
96.17259654713741
 20
-152.2043185383378
 10
96.16363929887576
 20
-152.2256781303463
 10
96.15674910790525
 20
-152.2446261555152
 10
96.14090166867311
 20
-152.2807996581103
 97
        0
 97
        1
330
C3
 75
     2
 76
     1
 98
        1
 10
0.0
 20
0.0
450
        0
451
        0
460
0.0
461
0.0
452
        0
462
0.0
453
        0
470

  0
SPLINE
  5
C5
330
BA
100
AcDbEntity
  8
レイヤー 1
100
AcDbSpline
210
0.0
220
0.0
230
1.0
 70
     9
 71
     3
 72
    74
 73
    70
 74
     0
 42
0.0000000001
 43
0.0000000001
 40
0.0
 40
0.0
 40
0.0
 40
0.0
 40
1.0
 40
1.0
 40
1.0
 40
2.0
 40
2.0
 40
2.0
 40
3.0
 40
3.0
 40
3.0
 40
4.0
 40
4.0
 40
4.0
 40
5.0
 40
5.0
 40
5.0
 40
6.0
 40
6.0
 40
6.0
 40
7.0
 40
7.0
 40
7.0
 40
8.0
 40
8.0
 40
8.0
 40
9.0
 40
9.0
 40
9.0
 40
10.0
 40
10.0
 40
10.0
 40
11.0
 40
11.0
 40
11.0
 40
12.0
 40
12.0
 40
12.0
 40
13.0
 40
13.0
 40
13.0
 40
14.0
 40
14.0
 40
14.0
 40
15.0
 40
15.0
 40
15.0
 40
16.0
 40
16.0
 40
16.0
 40
17.0
 40
17.0
 40
17.0
 40
18.0
 40
18.0
 40
18.0
 40
19.0
 40
19.0
 40
19.0
 40
20.0
 40
20.0
 40
20.0
 40
21.0
 40
21.0
 40
21.0
 40
22.0
 40
22.0
 40
22.0
 40
23.0
 40
23.0
 40
23.0
 40
23.0
 10
98.23620874280207
 20
-152.1833034558778
 30
0.0
 10
98.23620874280207
 20
-152.1833034558778
 30
0.0
 10
98.06429847808809
 20
-152.1833034558778
 30
0.0
 10
98.06429847808809
 20
-152.1833034558778
 30
0.0
 10
98.06429847808809
 20
-152.1833034558778
 30
0.0
 10
98.06429847808809
 20
-152.297680625988
 30
0.0
 10
98.06429847808809
 20
-152.297680625988
 30
0.0
 10
98.06429847808809
 20
-152.3376437336169
 30
0.0
 10
98.07118866905859
 20
-152.4117132865498
 30
0.0
 10
98.07566729318942
 20
-152.4372069931407
 30
0.0
 10
98.07566729318942
 20
-152.4372069931407
 30
0.0
 10
97.84949677458278
 20
-152.4372069931407
 30
0.0
 10
97.84949677458278
 20
-152.4372069931407
 30
0.0
 10
97.8608655896841
 20
-152.3717501789209
 30
0.0
 10
97.86310490174951
 20
-152.3124945365746
 30
0.0
 10
97.86310490174951
 20
-152.310082969735
 30
0.0
 10
97.86310490174951
 20
-152.310082969735
 30
0.0
 10
97.86310490174951
 20
-152.1874375704601
 30
0.0
 10
97.86310490174951
 20
-152.1874375704601
 30
0.0
 10
97.86310490174951
 20
-152.1874375704601
 30
0.0
 10
97.67086857367257
 20
-152.1874375704601
 30
0.0
 10
97.67086857367257
 20
-152.1874375704601
 30
0.0
 10
97.6505425103096
 20
-152.2466932128063
 30
0.0
 10
97.600933135322
 20
-152.392765261381
 30
0.0
 10
97.47880450036989
 20
-152.4751030434784
 30
0.0
 10
97.47880450036989
 20
-152.4751030434784
 30
0.0
 10
97.31154511456102
 20
-152.3693386120813
 30
0.0
 10
97.31154511456102
 20
-152.3693386120813
 30
0.0
 10
97.39061005594749
 20
-152.3228298230304
 30
0.0
 10
97.51497800296501
 20
-152.2487602700975
 30
0.0
 10
97.51497800296501
 20
-151.9273328613237
 30
0.0
 10
97.51497800296501
 20
-151.8722113335597
 30
0.0
 10
97.51032712405994
 20
-151.8277696018
 30
0.0
 10
97.50808781199452
 20
-151.7898735514622
 30
0.0
 10
97.58956432022067
 20
-151.7981417806268
 30
0.0
 10
97.66862926160715
 20
-151.8046874620488
 30
0.0
 10
97.73649764266657
 20
-151.8046874620488
 30
0.0
 10
97.9264946586781
 20
-151.8046874620488
 30
0.0
 10
98.13888479534377
 20
-151.7454318197025
 30
0.0
 10
98.20451386433777
 20
-151.7158039985294
 30
0.0
 10
98.20451386433777
 20
-151.7158039985294
 30
0.0
 10
98.34007837168236
 20
-151.8511962510997
 30
0.0
 10
98.34007837168236
 20
-151.8511962510997
 30
0.0
 10
98.34472925058744
 20
-151.855330365682
 30
0.0
 10
98.34696856265285
 20
-151.8639431043951
 30
0.0
 10
98.34696856265285
 20
-151.8701442762685
 30
0.0
 10
98.34696856265285
 20
-151.8915038682771
 30
0.0
 10
98.33112112342071
 20
-151.8977050401506
 30
0.0
 10
98.31303437212314
 20
-151.8977050401506
 30
0.0
 10
98.29046899669474
 20
-151.8977050401506
 30
0.0
 10
98.2746215574626
 20
-151.889436810986
 30
0.0
 10
98.25429549409962
 20
-151.8787570149817
 30
0.0
 10
98.06877710221892
 20
-151.9359456000368
 30
0.0
 10
97.83588864741602
 20
-151.9610947970791
 30
0.0
 10
97.69360620387523
 20
-151.9631618543703
 30
0.0
 10
97.69360620387523
 20
-151.9631618543703
 30
0.0
 10
97.68895532497012
 20
-152.0458441460163
 30
0.0
 10
97.68895532497012
 20
-152.0458441460163
 30
0.0
 10
97.68895532497012
 20
-152.0458441460163
 30
0.0
 10
97.98058265779653
 20
-152.0458441460163
 30
0.0
 10
97.98058265779653
 20
-152.0458441460163
 30
0.0
 10
98.04173310265971
 20
-152.0458441460163
 30
0.0
 10
98.32199162038477
 20
-152.0268961208474
 30
0.0
 10
98.36953393808123
 20
-152.0203504394254
 30
0.0
 10
98.36953393808123
 20
-152.0203504394254
 30
0.0
 10
98.36953393808123
 20
-152.1895046277512
 30
0.0
 10
98.36953393808123
 20
-152.1895046277512
 30
0.0
 10
98.33336043548612
 20
-152.1853705131689
 30
0.0
 10
98.31975230831936
 20
-152.1833034558778
 30
0.0
 10
98.23620874280207
 20
-152.1833034558778
 30
0.0
  0
SPLINE
  5
C6
330
BA
100
AcDbEntity
  8
レイヤー 1
100
AcDbSpline
210
0.0
220
0.0
230
1.0
 70
    11
 71
     3
 72
    17
 73
    13
 74
     0
 42
0.0000000001
 43
0.0000000001
 40
0.0
 40
0.0
 40
0.0
 40
0.0
 40
1.0
 40
1.0
 40
1.0
 40
2.0
 40
2.0
 40
2.0
 40
3.0
 40
3.0
 40
3.0
 40
4.0
 40
4.0
 40
4.0
 40
4.0
 10
97.89703909227922
 20
-153.1269151092877
 30
0.0
 10
97.89703909227922
 20
-153.1269151092877
 30
0.0
 10
96.9225938342763
 20
-153.1269151092877
 30
0.0
 10
96.9225938342763
 20
-153.1269151092877
 30
0.0
 10
96.9225938342763
 20
-153.1269151092877
 30
0.0
 10
96.9225938342763
 20
-153.234746597976
 30
0.0
 10
96.9225938342763
 20
-153.234746597976
 30
0.0
 10
96.9225938342763
 20
-153.234746597976
 30
0.0
 10
97.89703909227922
 20
-153.234746597976
 30
0.0
 10
97.89703909227922
 20
-153.234746597976
 30
0.0
 10
97.89703909227922
 20
-153.234746597976
 30
0.0
 10
97.89703909227922
 20
-153.1269151092877
 30
0.0
 10
97.89703909227922
 20
-153.1269151092877
 30
0.0
  0
SPLINE
  5
C7
330
BA
100
AcDbEntity
  8
レイヤー 1
100
AcDbSpline
210
0.0
220
0.0
230
1.0
 70
    11
 71
     3
 72
    17
 73
    13
 74
     0
 42
0.0000000001
 43
0.0000000001
 40
0.0
 40
0.0
 40
0.0
 40
0.0
 40
1.0
 40
1.0
 40
1.0
 40
2.0
 40
2.0
 40
2.0
 40
3.0
 40
3.0
 40
3.0
 40
4.0
 40
4.0
 40
4.0
 40
4.0
 10
97.89703909227922
 20
-152.8812798011894
 30
0.0
 10
97.89703909227922
 20
-152.8812798011894
 30
0.0
 10
96.9225938342763
 20
-152.8812798011894
 30
0.0
 10
96.9225938342763
 20
-152.8812798011894
 30
0.0
 10
96.9225938342763
 20
-152.8812798011894
 30
0.0
 10
96.9225938342763
 20
-152.9915228567174
 30
0.0
 10
96.9225938342763
 20
-152.9915228567174
 30
0.0
 10
96.9225938342763
 20
-152.9915228567174
 30
0.0
 10
97.89703909227922
 20
-152.9915228567174
 30
0.0
 10
97.89703909227922
 20
-152.9915228567174
 30
0.0
 10
97.89703909227922
 20
-152.9915228567174
 30
0.0
 10
97.89703909227922
 20
-152.8812798011894
 30
0.0
 10
97.89703909227922
 20
-152.8812798011894
 30
0.0
  0
SPLINE
  5
C8
330
BA
100
AcDbEntity
  8
レイヤー 1
100
AcDbSpline
210
0.0
220
0.0
230
1.0
 70
    11
 71
     3
 72
    17
 73
    13
 74
     0
 42
0.0000000001
 43
0.0000000001
 40
0.0
 40
0.0
 40
0.0
 40
0.0
 40
1.0
 40
1.0
 40
1.0
 40
2.0
 40
2.0
 40
2.0
 40
3.0
 40
3.0
 40
3.0
 40
4.0
 40
4.0
 40
4.0
 40
4.0
 10
97.89703909227922
 20
-152.6359890026396
 30
0.0
 10
97.89703909227922
 20
-152.6359890026396
 30
0.0
 10
96.9225938342763
 20
-152.6359890026396
 30
0.0
 10
96.9225938342763
 20
-152.6359890026396
 30
0.0
 10
96.9225938342763
 20
-152.6359890026396
 30
0.0
 10
96.9225938342763
 20
-152.7482991154587
 30
0.0
 10
96.9225938342763
 20
-152.7482991154587
 30
0.0
 10
96.9225938342763
 20
-152.7482991154587
 30
0.0
 10
97.89703909227922
 20
-152.7482991154587
 30
0.0
 10
97.89703909227922
 20
-152.7482991154587
 30
0.0
 10
97.89703909227922
 20
-152.7482991154587
 30
0.0
 10
97.89703909227922
 20
-152.6359890026396
 30
0.0
 10
97.89703909227922
 20
-152.6359890026396
 30
0.0
  0
SPLINE
  5
C9
330
BA
100
AcDbEntity
  8
レイヤー 1
100
AcDbSpline
210
0.0
220
0.0
230
1.0
 70
     9
 71
     3
 72
    74
 73
    70
 74
     0
 42
0.0000000001
 43
0.0000000001
 40
0.0
 40
0.0
 40
0.0
 40
0.0
 40
1.0
 40
1.0
 40
1.0
 40
2.0
 40
2.0
 40
2.0
 40
3.0
 40
3.0
 40
3.0
 40
4.0
 40
4.0
 40
4.0
 40
5.0
 40
5.0
 40
5.0
 40
6.0
 40
6.0
 40
6.0
 40
7.0
 40
7.0
 40
7.0
 40
8.0
 40
8.0
 40
8.0
 40
9.0
 40
9.0
 40
9.0
 40
10.0
 40
10.0
 40
10.0
 40
11.0
 40
11.0
 40
11.0
 40
12.0
 40
12.0
 40
12.0
 40
13.0
 40
13.0
 40
13.0
 40
14.0
 40
14.0
 40
14.0
 40
15.0
 40
15.0
 40
15.0
 40
16.0
 40
16.0
 40
16.0
 40
17.0
 40
17.0
 40
17.0
 40
18.0
 40
18.0
 40
18.0
 40
19.0
 40
19.0
 40
19.0
 40
20.0
 40
20.0
 40
20.0
 40
21.0
 40
21.0
 40
21.0
 40
22.0
 40
22.0
 40
22.0
 40
23.0
 40
23.0
 40
23.0
 40
23.0
 10
98.22260061563532
 20
-153.6705511768601
 30
0.0
 10
97.99419078496327
 20
-153.6598713808558
 30
0.0
 10
97.77938908145793
 20
-153.5730549746276
 30
0.0
 10
97.59180363228608
 20
-153.4524766326438
 30
0.0
 10
97.59180363228608
 20
-153.4524766326438
 30
0.0
 10
97.69584551594064
 20
-153.366004735964
 30
0.0
 10
97.69584551594064
 20
-153.366004735964
 30
0.0
 10
97.69584551594064
 20
-153.366004735964
 30
0.0
 10
97.1058729140916
 20
-153.366004735964
 30
0.0
 10
97.1058729140916
 20
-153.366004735964
 30
0.0
 10
97.1058729140916
 20
-153.366004735964
 30
0.0
 10
97.1916557916743
 20
-153.4293944928927
 30
0.0
 10
97.1916557916743
 20
-153.4293944928927
 30
0.0
 10
97.19854598264483
 20
-153.4335286074749
 30
0.0
 10
97.20957028819761
 20
-153.4442084034792
 30
0.0
 10
97.20957028819761
 20
-153.4590223140658
 30
0.0
 10
97.20957028819761
 20
-153.4993299312432
 30
0.0
 10
97.13067760158539
 20
-153.4927842498212
 30
0.0
 10
97.11483016235325
 20
-153.4907171925301
 30
0.0
 10
96.86850583515788
 20
-153.6302435596827
 30
0.0
 10
96.7145100669672
 20
-153.661938438147
 30
0.0
 10
96.60392250189069
 20
-153.6788194060247
 30
0.0
 10
96.60392250189069
 20
-153.6788194060247
 30
0.0
 10
96.46577417293217
 20
-153.5013969885343
 30
0.0
 10
96.46577417293217
 20
-153.5013969885343
 30
0.0
 10
96.73035750619936
 20
-153.46970211007
 30
0.0
 10
96.83887801398473
 20
-153.4228488114707
 30
0.0
 10
96.93396264937762
 20
-153.3701388505464
 30
0.0
 10
96.85472545321687
 20
-153.3722059078375
 30
0.0
 10
96.73276907303904
 20
-153.3742729651286
 30
0.0
 10
96.69866262773506
 20
-153.3763400224198
 30
0.0
 10
96.7145100669672
 20
-153.2874565589003
 30
0.0
 10
96.7169216338069
 20
-153.158609987752
 30
0.0
 10
96.7169216338069
 20
-153.0845404348191
 30
0.0
 10
96.7169216338069
 20
-153.0845404348191
 30
0.0
 10
96.7169216338069
 20
-152.7841281085053
 30
0.0
 10
96.7169216338069
 20
-152.7841281085053
 30
0.0
 10
96.7169216338069
 20
-152.6845648489816
 30
0.0
 10
96.71003144283638
 20
-152.5853460990064
 30
0.0
 10
96.69866262773506
 20
-152.4878498967738
 30
0.0
 10
96.80718313552043
 20
-152.4943955781958
 30
0.0
 10
97.05385197226434
 20
-152.5005967500693
 30
0.0
 10
97.16891816147168
 20
-152.5005967500693
 30
0.0
 10
97.16891816147168
 20
-152.5005967500693
 30
0.0
 10
97.62125919868497
 20
-152.5005967500693
 30
0.0
 10
97.62125919868497
 20
-152.5005967500693
 30
0.0
 10
97.7478664577679
 20
-152.5005967500693
 30
0.0
 10
97.79299720862468
 20
-152.5005967500693
 30
0.0
 10
97.88119165304706
 20
-152.496462635487
 30
0.0
 10
98.0394937905943
 20
-152.489916954065
 30
0.0
 10
98.05758054189187
 20
-152.489916954065
 30
0.0
 10
98.10736217165372
 20
-152.4878498967738
 30
0.0
 10
98.09823266861782
 20
-152.5684651311287
 30
0.0
 10
98.09375404448699
 20
-152.7269395234502
 30
0.0
 10
98.09375404448699
 20
-152.8096218150962
 30
0.0
 10
98.09375404448699
 20
-152.8096218150962
 30
0.0
 10
98.09375404448699
 20
-153.0952202308234
 30
0.0
 10
98.09375404448699
 20
-153.0952202308234
 30
0.0
 10
98.09375404448699
 20
-153.1668782169166
 30
0.0
 10
98.0959933565524
 20
-153.2981363549046
 30
0.0
 10
98.10736217165372
 20
-153.3763400224198
 30
0.0
 10
98.03036428755838
 20
-153.3722059078375
 30
0.0
 10
97.89927840434463
 20
-153.3701388505464
 30
0.0
 10
97.81556258405306
 20
-153.3680717932552
 30
0.0
 10
97.93321259487434
 20
-153.4355956647661
 30
0.0
 10
98.0959933565524
 20
-153.4865830779478
 30
0.0
 10
98.32199162038477
 20
-153.4907171925301
 30
0.0
 10
98.32199162038477
 20
-153.4907171925301
 30
0.0
 10
98.22260061563532
 20
-153.6705511768601
 30
0.0
 10
98.22260061563532
 20
-153.6705511768601
 30
0.0
  0
SPLINE
  5
CA
330
BA
100
AcDbEntity
  8
レイヤー 1
100
AcDbSpline
210
0.0
220
0.0
230
1.0
 70
     9
 71
     3
 72
    71
 73
    67
 74
     0
 42
0.0000000001
 43
0.0000000001
 40
0.0
 40
0.0
 40
0.0
 40
0.0
 40
1.0
 40
1.0
 40
1.0
 40
2.0
 40
2.0
 40
2.0
 40
3.0
 40
3.0
 40
3.0
 40
4.0
 40
4.0
 40
4.0
 40
5.0
 40
5.0
 40
5.0
 40
6.0
 40
6.0
 40
6.0
 40
7.0
 40
7.0
 40
7.0
 40
8.0
 40
8.0
 40
8.0
 40
9.0
 40
9.0
 40
9.0
 40
10.0
 40
10.0
 40
10.0
 40
11.0
 40
11.0
 40
11.0
 40
12.0
 40
12.0
 40
12.0
 40
13.0
 40
13.0
 40
13.0
 40
14.0
 40
14.0
 40
14.0
 40
15.0
 40
15.0
 40
15.0
 40
16.0
 40
16.0
 40
16.0
 40
17.0
 40
17.0
 40
17.0
 40
18.0
 40
18.0
 40
18.0
 40
19.0
 40
19.0
 40
19.0
 40
20.0
 40
20.0
 40
20.0
 40
21.0
 40
21.0
 40
21.0
 40
22.0
 40
22.0
 40
22.0
 40
22.0
 10
97.32722029901889
 20
-151.903906212024
 30
0.0
 10
97.31154511456102
 20
-151.903906212024
 30
0.0
 10
97.29793698739428
 20
-151.8997720974417
 30
0.0
 10
97.2707207330608
 20
-151.8915038682771
 30
0.0
 10
97.11930878648407
 20
-151.938012657328
 30
0.0
 10
96.93396264937762
 20
-151.9548936252057
 30
0.0
 10
96.7847900148663
 20
-151.959027739788
 30
0.0
 10
96.7847900148663
 20
-151.959027739788
 30
0.0
 10
96.78237844802664
 20
-152.0479112033074
 30
0.0
 10
96.78237844802664
 20
-152.0479112033074
 30
0.0
 10
96.78237844802664
 20
-152.0479112033074
 30
0.0
 10
97.06039765368629
 20
-152.0479112033074
 30
0.0
 10
97.06039765368629
 20
-152.0479112033074
 30
0.0
 10
97.1168972196444
 20
-152.0479112033074
 30
0.0
 10
97.31154511456102
 20
-152.0392984645943
 30
0.0
 10
97.35891517748321
 20
-152.0330972927209
 30
0.0
 10
97.35891517748321
 20
-152.0330972927209
 30
0.0
 10
97.35891517748321
 20
-152.193983251882
 30
0.0
 10
97.35891517748321
 20
-152.193983251882
 30
0.0
 10
97.30017629945969
 20
-152.1874375704601
 30
0.0
 10
97.16685110418051
 20
-152.1853705131689
 30
0.0
 10
97.12619897745456
 20
-152.1874375704601
 30
0.0
 10
97.12619897745456
 20
-152.1874375704601
 30
0.0
 10
97.12619897745456
 20
-152.297680625988
 30
0.0
 10
97.12619897745456
 20
-152.297680625988
 30
0.0
 10
97.12619897745456
 20
-152.3441894150389
 30
0.0
 10
97.12826603474573
 20
-152.4075791719675
 30
0.0
 10
97.13515622571621
 20
-152.4454752223053
 30
0.0
 10
97.13515622571621
 20
-152.4454752223053
 30
0.0
 10
96.92948402524679
 20
-152.4454752223053
 30
0.0
 10
96.92948402524679
 20
-152.4454752223053
 30
0.0
 10
96.93602970666878
 20
-152.4055121146764
 30
0.0
 10
96.94291989763927
 20
-152.3228298230304
 30
0.0
 10
96.94291989763927
 20
-152.3080159124438
 30
0.0
 10
96.94291989763927
 20
-152.3080159124438
 30
0.0
 10
96.94291989763927
 20
-152.1874375704601
 30
0.0
 10
96.94291989763927
 20
-152.1874375704601
 30
0.0
 10
96.94291989763927
 20
-152.1874375704601
 30
0.0
 10
96.76653100879448
 20
-152.1874375704601
 30
0.0
 10
96.76653100879448
 20
-152.1874375704601
 30
0.0
 10
96.72140025793773
 20
-152.4075791719675
 30
0.0
 10
96.66248912513994
 20
-152.4878498967738
 30
0.0
 10
96.54948999322375
 20
-152.5874131562976
 30
0.0
 10
96.54948999322375
 20
-152.5874131562976
 30
0.0
 10
96.37103404708781
 20
-152.4730359861873
 30
0.0
 10
96.37103404708781
 20
-152.4730359861873
 30
0.0
 10
96.43890242814723
 20
-152.4244601398453
 30
0.0
 10
96.59944387775986
 20
-152.3124945365746
 30
0.0
 10
96.59944387775986
 20
-151.9631618543703
 30
0.0
 10
96.59944387775986
 20
-151.8808240722728
 30
0.0
 10
96.5901421199497
 20
-151.834315283222
 30
0.0
 10
96.58118487168804
 20
-151.7857394368799
 30
0.0
 10
96.73724769716987
 20
-151.8005533474665
 30
0.0
 10
96.753095136402
 20
-151.8005533474665
 30
0.0
 10
96.79133569628829
 20
-151.8005533474665
 30
0.0
 10
96.90674639504415
 20
-151.8005533474665
 30
0.0
 10
97.05833059639514
 20
-151.7833278700403
 30
0.0
 10
97.2302408611091
 20
-151.7220051704028
 30
0.0
 10
97.2302408611091
 20
-151.7220051704028
 30
0.0
 10
97.35219724128697
 20
-151.8532633083908
 30
0.0
 10
97.35219724128697
 20
-151.8532633083908
 30
0.0
 10
97.35891517748321
 20
-151.8598089898128
 30
0.0
 10
97.36339380161403
 20
-151.8680772189774
 30
0.0
 10
97.36339380161403
 20
-151.8766899576905
 30
0.0
 10
97.36339380161403
 20
-151.8997720974417
 30
0.0
 10
97.34306773825103
 20
-151.903906212024
 30
0.0
 10
97.32722029901889
 20
-151.903906212024
 30
0.0
  0
HATCH
  5
CB
330
BA
100
AcDbEntity
  8
レイヤー 1
 62
   250
420
  2299925
440
 33554687
100
AcDbHatch
 10
0.0
 20
0.0
 30
0.0
210
0.0
220
0.0
230
1.0
  2
SOLID
 70
     1
 71
     1
 91
        6
 92
        1
 93
        1
 72
     4
 94
        3
 73
     0
 74
     0
 95
       74
 96
       70
 40
0.0
 40
0.0
 40
0.0
 40
0.0
 40
1.0
 40
1.0
 40
1.0
 40
2.0
 40
2.0
 40
2.0
 40
3.0
 40
3.0
 40
3.0
 40
4.0
 40
4.0
 40
4.0
 40
5.0
 40
5.0
 40
5.0
 40
6.0
 40
6.0
 40
6.0
 40
7.0
 40
7.0
 40
7.0
 40
8.0
 40
8.0
 40
8.0
 40
9.0
 40
9.0
 40
9.0
 40
10.0
 40
10.0
 40
10.0
 40
11.0
 40
11.0
 40
11.0
 40
12.0
 40
12.0
 40
12.0
 40
13.0
 40
13.0
 40
13.0
 40
14.0
 40
14.0
 40
14.0
 40
15.0
 40
15.0
 40
15.0
 40
16.0
 40
16.0
 40
16.0
 40
17.0
 40
17.0
 40
17.0
 40
18.0
 40
18.0
 40
18.0
 40
19.0
 40
19.0
 40
19.0
 40
20.0
 40
20.0
 40
20.0
 40
21.0
 40
21.0
 40
21.0
 40
22.0
 40
22.0
 40
22.0
 40
23.0
 40
23.0
 40
23.0
 40
23.0
 10
98.23620874280207
 20
-152.1833034558778
 10
98.23620874280207
 20
-152.1833034558778
 10
98.06429847808809
 20
-152.1833034558778
 10
98.06429847808809
 20
-152.1833034558778
 10
98.06429847808809
 20
-152.1833034558778
 10
98.06429847808809
 20
-152.297680625988
 10
98.06429847808809
 20
-152.297680625988
 10
98.06429847808809
 20
-152.3376437336169
 10
98.07118866905859
 20
-152.4117132865498
 10
98.07566729318942
 20
-152.4372069931407
 10
98.07566729318942
 20
-152.4372069931407
 10
97.84949677458278
 20
-152.4372069931407
 10
97.84949677458278
 20
-152.4372069931407
 10
97.8608655896841
 20
-152.3717501789209
 10
97.86310490174951
 20
-152.3124945365746
 10
97.86310490174951
 20
-152.310082969735
 10
97.86310490174951
 20
-152.310082969735
 10
97.86310490174951
 20
-152.1874375704601
 10
97.86310490174951
 20
-152.1874375704601
 10
97.86310490174951
 20
-152.1874375704601
 10
97.67086857367257
 20
-152.1874375704601
 10
97.67086857367257
 20
-152.1874375704601
 10
97.6505425103096
 20
-152.2466932128063
 10
97.600933135322
 20
-152.392765261381
 10
97.47880450036989
 20
-152.4751030434784
 10
97.47880450036989
 20
-152.4751030434784
 10
97.31154511456102
 20
-152.3693386120813
 10
97.31154511456102
 20
-152.3693386120813
 10
97.39061005594749
 20
-152.3228298230304
 10
97.51497800296501
 20
-152.2487602700975
 10
97.51497800296501
 20
-151.9273328613237
 10
97.51497800296501
 20
-151.8722113335597
 10
97.51032712405994
 20
-151.8277696018
 10
97.50808781199452
 20
-151.7898735514622
 10
97.58956432022067
 20
-151.7981417806268
 10
97.66862926160715
 20
-151.8046874620488
 10
97.73649764266657
 20
-151.8046874620488
 10
97.9264946586781
 20
-151.8046874620488
 10
98.13888479534377
 20
-151.7454318197025
 10
98.20451386433777
 20
-151.7158039985294
 10
98.20451386433777
 20
-151.7158039985294
 10
98.34007837168236
 20
-151.8511962510997
 10
98.34007837168236
 20
-151.8511962510997
 10
98.34472925058744
 20
-151.855330365682
 10
98.34696856265285
 20
-151.8639431043951
 10
98.34696856265285
 20
-151.8701442762685
 10
98.34696856265285
 20
-151.8915038682771
 10
98.33112112342071
 20
-151.8977050401506
 10
98.31303437212314
 20
-151.8977050401506
 10
98.29046899669474
 20
-151.8977050401506
 10
98.2746215574626
 20
-151.889436810986
 10
98.25429549409962
 20
-151.8787570149817
 10
98.06877710221892
 20
-151.9359456000368
 10
97.83588864741602
 20
-151.9610947970791
 10
97.69360620387523
 20
-151.9631618543703
 10
97.69360620387523
 20
-151.9631618543703
 10
97.68895532497012
 20
-152.0458441460163
 10
97.68895532497012
 20
-152.0458441460163
 10
97.68895532497012
 20
-152.0458441460163
 10
97.98058265779653
 20
-152.0458441460163
 10
97.98058265779653
 20
-152.0458441460163
 10
98.04173310265971
 20
-152.0458441460163
 10
98.32199162038477
 20
-152.0268961208474
 10
98.36953393808123
 20
-152.0203504394254
 10
98.36953393808123
 20
-152.0203504394254
 10
98.36953393808123
 20
-152.1895046277512
 10
98.36953393808123
 20
-152.1895046277512
 10
98.33336043548612
 20
-152.1853705131689
 10
98.31975230831936
 20
-152.1833034558778
 10
98.23620874280207
 20
-152.1833034558778
 97
        0
 97
        1
330
C5
 92
        1
 93
        1
 72
     4
 94
        3
 73
     0
 74
     0
 95
       17
 96
       13
 40
0.0
 40
0.0
 40
0.0
 40
0.0
 40
1.0
 40
1.0
 40
1.0
 40
2.0
 40
2.0
 40
2.0
 40
3.0
 40
3.0
 40
3.0
 40
4.0
 40
4.0
 40
4.0
 40
4.0
 10
97.89703909227922
 20
-153.1269151092877
 10
97.89703909227922
 20
-153.1269151092877
 10
96.9225938342763
 20
-153.1269151092877
 10
96.9225938342763
 20
-153.1269151092877
 10
96.9225938342763
 20
-153.1269151092877
 10
96.9225938342763
 20
-153.234746597976
 10
96.9225938342763
 20
-153.234746597976
 10
96.9225938342763
 20
-153.234746597976
 10
97.89703909227922
 20
-153.234746597976
 10
97.89703909227922
 20
-153.234746597976
 10
97.89703909227922
 20
-153.234746597976
 10
97.89703909227922
 20
-153.1269151092877
 10
97.89703909227922
 20
-153.1269151092877
 97
        0
 97
        1
330
C6
 92
        1
 93
        1
 72
     4
 94
        3
 73
     0
 74
     0
 95
       17
 96
       13
 40
0.0
 40
0.0
 40
0.0
 40
0.0
 40
1.0
 40
1.0
 40
1.0
 40
2.0
 40
2.0
 40
2.0
 40
3.0
 40
3.0
 40
3.0
 40
4.0
 40
4.0
 40
4.0
 40
4.0
 10
97.89703909227922
 20
-152.8812798011894
 10
97.89703909227922
 20
-152.8812798011894
 10
96.9225938342763
 20
-152.8812798011894
 10
96.9225938342763
 20
-152.8812798011894
 10
96.9225938342763
 20
-152.8812798011894
 10
96.9225938342763
 20
-152.9915228567174
 10
96.9225938342763
 20
-152.9915228567174
 10
96.9225938342763
 20
-152.9915228567174
 10
97.89703909227922
 20
-152.9915228567174
 10
97.89703909227922
 20
-152.9915228567174
 10
97.89703909227922
 20
-152.9915228567174
 10
97.89703909227922
 20
-152.8812798011894
 10
97.89703909227922
 20
-152.8812798011894
 97
        0
 97
        1
330
C7
 92
        1
 93
        1
 72
     4
 94
        3
 73
     0
 74
     0
 95
       17
 96
       13
 40
0.0
 40
0.0
 40
0.0
 40
0.0
 40
1.0
 40
1.0
 40
1.0
 40
2.0
 40
2.0
 40
2.0
 40
3.0
 40
3.0
 40
3.0
 40
4.0
 40
4.0
 40
4.0
 40
4.0
 10
97.89703909227922
 20
-152.6359890026396
 10
97.89703909227922
 20
-152.6359890026396
 10
96.9225938342763
 20
-152.6359890026396
 10
96.9225938342763
 20
-152.6359890026396
 10
96.9225938342763
 20
-152.6359890026396
 10
96.9225938342763
 20
-152.7482991154587
 10
96.9225938342763
 20
-152.7482991154587
 10
96.9225938342763
 20
-152.7482991154587
 10
97.89703909227922
 20
-152.7482991154587
 10
97.89703909227922
 20
-152.7482991154587
 10
97.89703909227922
 20
-152.7482991154587
 10
97.89703909227922
 20
-152.6359890026396
 10
97.89703909227922
 20
-152.6359890026396
 97
        0
 97
        1
330
C8
 92
        1
 93
        1
 72
     4
 94
        3
 73
     0
 74
     0
 95
       74
 96
       70
 40
0.0
 40
0.0
 40
0.0
 40
0.0
 40
1.0
 40
1.0
 40
1.0
 40
2.0
 40
2.0
 40
2.0
 40
3.0
 40
3.0
 40
3.0
 40
4.0
 40
4.0
 40
4.0
 40
5.0
 40
5.0
 40
5.0
 40
6.0
 40
6.0
 40
6.0
 40
7.0
 40
7.0
 40
7.0
 40
8.0
 40
8.0
 40
8.0
 40
9.0
 40
9.0
 40
9.0
 40
10.0
 40
10.0
 40
10.0
 40
11.0
 40
11.0
 40
11.0
 40
12.0
 40
12.0
 40
12.0
 40
13.0
 40
13.0
 40
13.0
 40
14.0
 40
14.0
 40
14.0
 40
15.0
 40
15.0
 40
15.0
 40
16.0
 40
16.0
 40
16.0
 40
17.0
 40
17.0
 40
17.0
 40
18.0
 40
18.0
 40
18.0
 40
19.0
 40
19.0
 40
19.0
 40
20.0
 40
20.0
 40
20.0
 40
21.0
 40
21.0
 40
21.0
 40
22.0
 40
22.0
 40
22.0
 40
23.0
 40
23.0
 40
23.0
 40
23.0
 10
98.22260061563532
 20
-153.6705511768601
 10
97.99419078496327
 20
-153.6598713808558
 10
97.77938908145793
 20
-153.5730549746276
 10
97.59180363228608
 20
-153.4524766326438
 10
97.59180363228608
 20
-153.4524766326438
 10
97.69584551594064
 20
-153.366004735964
 10
97.69584551594064
 20
-153.366004735964
 10
97.69584551594064
 20
-153.366004735964
 10
97.1058729140916
 20
-153.366004735964
 10
97.1058729140916
 20
-153.366004735964
 10
97.1058729140916
 20
-153.366004735964
 10
97.1916557916743
 20
-153.4293944928927
 10
97.1916557916743
 20
-153.4293944928927
 10
97.19854598264483
 20
-153.4335286074749
 10
97.20957028819761
 20
-153.4442084034792
 10
97.20957028819761
 20
-153.4590223140658
 10
97.20957028819761
 20
-153.4993299312432
 10
97.13067760158539
 20
-153.4927842498212
 10
97.11483016235325
 20
-153.4907171925301
 10
96.86850583515788
 20
-153.6302435596827
 10
96.7145100669672
 20
-153.661938438147
 10
96.60392250189069
 20
-153.6788194060247
 10
96.60392250189069
 20
-153.6788194060247
 10
96.46577417293217
 20
-153.5013969885343
 10
96.46577417293217
 20
-153.5013969885343
 10
96.73035750619936
 20
-153.46970211007
 10
96.83887801398473
 20
-153.4228488114707
 10
96.93396264937762
 20
-153.3701388505464
 10
96.85472545321687
 20
-153.3722059078375
 10
96.73276907303904
 20
-153.3742729651286
 10
96.69866262773506
 20
-153.3763400224198
 10
96.7145100669672
 20
-153.2874565589003
 10
96.7169216338069
 20
-153.158609987752
 10
96.7169216338069
 20
-153.0845404348191
 10
96.7169216338069
 20
-153.0845404348191
 10
96.7169216338069
 20
-152.7841281085053
 10
96.7169216338069
 20
-152.7841281085053
 10
96.7169216338069
 20
-152.6845648489816
 10
96.71003144283638
 20
-152.5853460990064
 10
96.69866262773506
 20
-152.4878498967738
 10
96.80718313552043
 20
-152.4943955781958
 10
97.05385197226434
 20
-152.5005967500693
 10
97.16891816147168
 20
-152.5005967500693
 10
97.16891816147168
 20
-152.5005967500693
 10
97.62125919868497
 20
-152.5005967500693
 10
97.62125919868497
 20
-152.5005967500693
 10
97.7478664577679
 20
-152.5005967500693
 10
97.79299720862468
 20
-152.5005967500693
 10
97.88119165304706
 20
-152.496462635487
 10
98.0394937905943
 20
-152.489916954065
 10
98.05758054189187
 20
-152.489916954065
 10
98.10736217165372
 20
-152.4878498967738
 10
98.09823266861782
 20
-152.5684651311287
 10
98.09375404448699
 20
-152.7269395234502
 10
98.09375404448699
 20
-152.8096218150962
 10
98.09375404448699
 20
-152.8096218150962
 10
98.09375404448699
 20
-153.0952202308234
 10
98.09375404448699
 20
-153.0952202308234
 10
98.09375404448699
 20
-153.1668782169166
 10
98.0959933565524
 20
-153.2981363549046
 10
98.10736217165372
 20
-153.3763400224198
 10
98.03036428755838
 20
-153.3722059078375
 10
97.89927840434463
 20
-153.3701388505464
 10
97.81556258405306
 20
-153.3680717932552
 10
97.93321259487434
 20
-153.4355956647661
 10
98.0959933565524
 20
-153.4865830779478
 10
98.32199162038477
 20
-153.4907171925301
 10
98.32199162038477
 20
-153.4907171925301
 10
98.22260061563532
 20
-153.6705511768601
 10
98.22260061563532
 20
-153.6705511768601
 97
        0
 97
        1
330
C9
 92
        1
 93
        1
 72
     4
 94
        3
 73
     0
 74
     0
 95
       71
 96
       67
 40
0.0
 40
0.0
 40
0.0
 40
0.0
 40
1.0
 40
1.0
 40
1.0
 40
2.0
 40
2.0
 40
2.0
 40
3.0
 40
3.0
 40
3.0
 40
4.0
 40
4.0
 40
4.0
 40
5.0
 40
5.0
 40
5.0
 40
6.0
 40
6.0
 40
6.0
 40
7.0
 40
7.0
 40
7.0
 40
8.0
 40
8.0
 40
8.0
 40
9.0
 40
9.0
 40
9.0
 40
10.0
 40
10.0
 40
10.0
 40
11.0
 40
11.0
 40
11.0
 40
12.0
 40
12.0
 40
12.0
 40
13.0
 40
13.0
 40
13.0
 40
14.0
 40
14.0
 40
14.0
 40
15.0
 40
15.0
 40
15.0
 40
16.0
 40
16.0
 40
16.0
 40
17.0
 40
17.0
 40
17.0
 40
18.0
 40
18.0
 40
18.0
 40
19.0
 40
19.0
 40
19.0
 40
20.0
 40
20.0
 40
20.0
 40
21.0
 40
21.0
 40
21.0
 40
22.0
 40
22.0
 40
22.0
 40
22.0
 10
97.32722029901889
 20
-151.903906212024
 10
97.31154511456102
 20
-151.903906212024
 10
97.29793698739428
 20
-151.8997720974417
 10
97.2707207330608
 20
-151.8915038682771
 10
97.11930878648407
 20
-151.938012657328
 10
96.93396264937762
 20
-151.9548936252057
 10
96.7847900148663
 20
-151.959027739788
 10
96.7847900148663
 20
-151.959027739788
 10
96.78237844802664
 20
-152.0479112033074
 10
96.78237844802664
 20
-152.0479112033074
 10
96.78237844802664
 20
-152.0479112033074
 10
97.06039765368629
 20
-152.0479112033074
 10
97.06039765368629
 20
-152.0479112033074
 10
97.1168972196444
 20
-152.0479112033074
 10
97.31154511456102
 20
-152.0392984645943
 10
97.35891517748321
 20
-152.0330972927209
 10
97.35891517748321
 20
-152.0330972927209
 10
97.35891517748321
 20
-152.193983251882
 10
97.35891517748321
 20
-152.193983251882
 10
97.30017629945969
 20
-152.1874375704601
 10
97.16685110418051
 20
-152.1853705131689
 10
97.12619897745456
 20
-152.1874375704601
 10
97.12619897745456
 20
-152.1874375704601
 10
97.12619897745456
 20
-152.297680625988
 10
97.12619897745456
 20
-152.297680625988
 10
97.12619897745456
 20
-152.3441894150389
 10
97.12826603474573
 20
-152.4075791719675
 10
97.13515622571621
 20
-152.4454752223053
 10
97.13515622571621
 20
-152.4454752223053
 10
96.92948402524679
 20
-152.4454752223053
 10
96.92948402524679
 20
-152.4454752223053
 10
96.93602970666878
 20
-152.4055121146764
 10
96.94291989763927
 20
-152.3228298230304
 10
96.94291989763927
 20
-152.3080159124438
 10
96.94291989763927
 20
-152.3080159124438
 10
96.94291989763927
 20
-152.1874375704601
 10
96.94291989763927
 20
-152.1874375704601
 10
96.94291989763927
 20
-152.1874375704601
 10
96.76653100879448
 20
-152.1874375704601
 10
96.76653100879448
 20
-152.1874375704601
 10
96.72140025793773
 20
-152.4075791719675
 10
96.66248912513994
 20
-152.4878498967738
 10
96.54948999322375
 20
-152.5874131562976
 10
96.54948999322375
 20
-152.5874131562976
 10
96.37103404708781
 20
-152.4730359861873
 10
96.37103404708781
 20
-152.4730359861873
 10
96.43890242814723
 20
-152.4244601398453
 10
96.59944387775986
 20
-152.3124945365746
 10
96.59944387775986
 20
-151.9631618543703
 10
96.59944387775986
 20
-151.8808240722728
 10
96.5901421199497
 20
-151.834315283222
 10
96.58118487168804
 20
-151.7857394368799
 10
96.73724769716987
 20
-151.8005533474665
 10
96.753095136402
 20
-151.8005533474665
 10
96.79133569628829
 20
-151.8005533474665
 10
96.90674639504415
 20
-151.8005533474665
 10
97.05833059639514
 20
-151.7833278700403
 10
97.2302408611091
 20
-151.7220051704028
 10
97.2302408611091
 20
-151.7220051704028
 10
97.35219724128697
 20
-151.8532633083908
 10
97.35219724128697
 20
-151.8532633083908
 10
97.35891517748321
 20
-151.8598089898128
 10
97.36339380161403
 20
-151.8680772189774
 10
97.36339380161403
 20
-151.8766899576905
 10
97.36339380161403
 20
-151.8997720974417
 10
97.34306773825103
 20
-151.903906212024
 10
97.32722029901889
 20
-151.903906212024
 97
        0
 97
        1
330
CA
 75
     2
 76
     1
 98
        1
 10
0.0
 20
0.0
450
        0
451
        0
460
0.0
461
0.0
452
        0
462
0.0
453
        0
470

  0
ENDBLK
  5
BD
330
BA
100
AcDbEntity
  8
0
100
AcDbBlockEnd
  0
ENDSEC
  0
SECTION
  2
ENTITIES
  0
INSERT
  5
7A
330
70
100
AcDbEntity
  8
レイヤー 1
100
AcDbBlockReference
  2
Block_0
 10
0.0
 20
0.0
 30
0.0
  0
LWPOLYLINE
  5
80
330
70
100
AcDbEntity
  8
レイヤー 1
 62
   250
420
  2299925
370
    25
100
AcDbPolyline
 90
        1
 70
     0
 43
0.0
 10
91.5259321873912
 20
-126.9733923672194
  0
LWPOLYLINE
  5
81
330
70
100
AcDbEntity
  8
レイヤー 1
 62
   250
420
  2299925
370
    25
100
AcDbPolyline
 90
        1
 70
     0
 43
0.0
 10
91.02636357640486
 20
-127.0133929102888
  0
SPLINE
  5
82
330
70
100
AcDbEntity
  8
レイヤー 1
 62
   250
420
  2299925
370
     9
100
AcDbSpline
210
0.0
220
0.0
230
1.0
 70
     9
 71
     3
 72
    17
 73
    13
 74
     0
 42
0.0000000001
 43
0.0000000001
 40
0.0
 40
0.0
 40
0.0
 40
0.0
 40
1.0
 40
1.0
 40
1.0
 40
2.0
 40
2.0
 40
2.0
 40
3.0
 40
3.0
 40
3.0
 40
4.0
 40
4.0
 40
4.0
 40
4.0
 10
126.625172907234
 20
-167.973593949696
 30
0.0
 10
126.625172907234
 20
-167.9181372844441
 30
0.0
 10
126.5804054083761
 20
-167.8733345078093
 30
0.0
 10
126.5252662431168
 20
-167.8733345078093
 30
0.0
 10
126.4701623556331
 20
-167.8733345078093
 30
0.0
 10
126.4253595789983
 20
-167.9181372844441
 30
0.0
 10
126.4253595789983
 20
-167.973593949696
 30
0.0
 10
126.4253595789983
 20
-168.028697837179
 30
0.0
 10
126.4701623556331
 20
-168.0735006138138
 30
0.0
 10
126.5252662431168
 20
-168.0735006138138
 30
0.0
 10
126.5804054083761
 20
-168.0735006138138
 30
0.0
 10
126.625172907234
 20
-168.028697837179
 30
0.0
 10
126.625172907234
 20
-167.973593949696
 30
0.0
  0
SPLINE
  5
83
330
70
100
AcDbEntity
  8
レイヤー 1
 62
   250
420
  2299925
370
     9
100
AcDbSpline
210
0.0
220
0.0
230
1.0
 70
     9
 71
     3
 72
    17
 73
    13
 74
     0
 42
0.0000000001
 43
0.0000000001
 40
0.0
 40
0.0
 40
0.0
 40
0.0
 40
1.0
 40
1.0
 40
1.0
 40
2.0
 40
2.0
 40
2.0
 40
3.0
 40
3.0
 40
3.0
 40
4.0
 40
4.0
 40
4.0
 40
4.0
 10
86.62630746639374
 20
-163.9734821073029
 30
0.0
 10
86.62630746639374
 20
-163.918019215223
 30
0.0
 10
86.58150468862734
 20
-163.8735692152353
 30
0.0
 10
86.5264007997521
 20
-163.8735692152353
 30
0.0
 10
86.47059135532165
 20
-163.8735692152353
 30
0.0
 10
86.42578857755493
 20
-163.918019215223
 30
0.0
 10
86.42578857755493
 20
-163.9734821073029
 30
0.0
 10
86.42578857755493
 20
-164.0286212725628
 30
0.0
 10
86.47059135532165
 20
-164.0733887714207
 30
0.0
 10
86.5264007997521
 20
-164.0733887714207
 30
0.0
 10
86.58150468862734
 20
-164.0733887714207
 30
0.0
 10
86.62630746639374
 20
-164.0286212725628
 30
0.0
 10
86.62630746639374
 20
-163.9734821073029
 30
0.0
  0
SPLINE
  5
84
330
70
100
AcDbEntity
  8
レイヤー 1
 62
   250
420
  2299925
370
     9
100
AcDbSpline
210
0.0
220
0.0
230
1.0
 70
     9
 71
     3
 72
    17
 73
    13
 74
     0
 42
0.0000000001
 43
0.0000000001
 40
0.0
 40
0.0
 40
0.0
 40
0.0
 40
1.0
 40
1.0
 40
1.0
 40
2.0
 40
2.0
 40
2.0
 40
3.0
 40
3.0
 40
3.0
 40
4.0
 40
4.0
 40
4.0
 40
4.0
 10
90.68665506207926
 20
-167.973593949696
 30
0.0
 10
90.68665506207926
 20
-167.9181372844441
 30
0.0
 10
90.64185228431254
 20
-167.8733345078093
 30
0.0
 10
90.58674839543762
 20
-167.8733345078093
 30
0.0
 10
90.53160922878454
 20
-167.8733345078093
 30
0.0
 10
90.48684172879566
 20
-167.9181372844441
 30
0.0
 10
90.48684172879566
 20
-167.973593949696
 30
0.0
 10
90.48684172879566
 20
-168.028697837179
 30
0.0
 10
90.53160922878454
 20
-168.0735006138138
 30
0.0
 10
90.58674839543762
 20
-168.0735006138138
 30
0.0
 10
90.64185228431254
 20
-168.0735006138138
 30
0.0
 10
90.68665506207926
 20
-168.028697837179
 30
0.0
 10
90.68665506207926
 20
-167.973593949696
 30
0.0
  0
SPLINE
  5
85
330
70
100
AcDbEntity
  8
レイヤー 1
 62
   250
420
  2299925
370
     9
100
AcDbSpline
210
0.0
220
0.0
230
1.0
 70
     9
 71
     3
 72
    17
 73
    13
 74
     0
 42
0.0000000001
 43
0.0000000001
 40
0.0
 40
0.0
 40
0.0
 40
0.0
 40
1.0
 40
1.0
 40
1.0
 40
2.0
 40
2.0
 40
2.0
 40
3.0
 40
3.0
 40
3.0
 40
4.0
 40
4.0
 40
4.0
 40
4.0
 10
86.62630746639374
 20
-154.0075125548122
 30
0.0
 10
86.62630746639374
 20
-153.9520558895603
 30
0.0
 10
86.58150468862734
 20
-153.9072531129256
 30
0.0
 10
86.5264007997521
 20
-153.9072531129256
 30
0.0
 10
86.47059135532165
 20
-153.9072531129256
 30
0.0
 10
86.42578857755493
 20
-153.9520558895603
 30
0.0
 10
86.42578857755493
 20
-154.0075125548122
 30
0.0
 10
86.42578857755493
 20
-154.0626164422952
 30
0.0
 10
86.47059135532165
 20
-154.10741921893
 30
0.0
 10
86.5264007997521
 20
-154.10741921893
 30
0.0
 10
86.58150468862734
 20
-154.10741921893
 30
0.0
 10
86.62630746639374
 20
-154.0626164422952
 30
0.0
 10
86.62630746639374
 20
-154.0075125548122
 30
0.0
  0
LINE
  5
86
330
70
100
AcDbEntity
  8
レイヤー 1
 62
   250
420
  2299925
370
     9
100
AcDbLine
 10
90.58674839779715
 20
-167.973593949696
 30
0.0
 11
126.5865207057509
 21
-167.973593949696
 31
0.0
  0
LINE
  5
87
330
70
100
AcDbEntity
  8
レイヤー 1
 62
   250
420
  2299925
370
     9
100
AcDbLine
 10
90.58674839543762
 20
-165.7135937295756
 30
0.0
 11
90.58674839543762
 21
-168.9733661464119
 31
0.0
  0
LINE
  5
88
330
70
100
AcDbEntity
  8
レイヤー 1
 62
   250
420
  2299925
370
     9
100
AcDbLine
 10
126.5252662431168
 20
-166.0133137219291
 30
0.0
 11
126.5252662431168
 21
-168.9733661464119
 31
0.0
  0
INSERT
  5
8A
330
70
100
AcDbEntity
  8
レイヤー 1
100
AcDbBlockReference
  2
Block_1
 10
0.0
 20
0.0
 30
0.0
  0
LINE
  5
96
330
70
100
AcDbEntity
  8
レイヤー 1
 62
   250
420
  2299925
370
     9
100
AcDbLine
 10
86.5264007997521
 20
-153.9731293096668
 30
0.0
 11
86.5264007997521
 21
-163.973129307167
 31
0.0
  0
LINE
  5
97
330
70
100
AcDbEntity
  8
レイヤー 1
 62
   250
420
  2299925
370
     9
100
AcDbLine
 10
88.49010302148363
 20
-153.975797833399
 30
0.0
 11
85.53075607777886
 21
-153.975797833399
 31
0.0
  0
LINE
  5
98
330
70
100
AcDbEntity
  8
レイヤー 1
 62
   250
420
  2299925
370
     9
100
AcDbLine
 10
88.78636579918724
 20
-163.9734821073029
 30
0.0
 11
85.52592302222436
 21
-163.9734821073029
 31
0.0
  0
INSERT
  5
9A
330
70
100
AcDbEntity
  8
レイヤー 1
100
AcDbBlockReference
  2
Block_3
 10
0.0
 20
0.0
 30
0.0
  0
INSERT
  5
A7
330
70
100
AcDbEntity
  8
レイヤー 1
100
AcDbBlockReference
  2
Block_5
 10
0.0
 20
0.0
 30
0.0
  0
LINE
  5
B3
330
70
100
AcDbEntity
  8
レイヤー 1
 62
   250
420
  2299925
370
     9
100
AcDbLine
 10
89.94104734772529
 20
-164.5585947932868
 30
0.0
 11
89.07527584424011
 21
-165.0589696624976
 31
0.0
  0
LINE
  5
B4
330
70
100
AcDbEntity
  8
レイヤー 1
 62
   250
420
  2299925
370
     9
100
AcDbLine
 10
89.94104734772529
 20
-164.5585947932868
 30
0.0
 11
87.34502396284437
 21
-167.1546221316107
 31
0.0
  0
LINE
  5
B5
330
70
100
AcDbEntity
  8
レイヤー 1
 62
   250
420
  2299925
370
     9
100
AcDbLine
 10
89.94104734772529
 20
-164.5585947932868
 30
0.0
 11
89.44117138150224
 21
-165.4248651998095
 31
0.0
  0
INSERT
  5
B7
330
70
100
AcDbEntity
  8
レイヤー 1
100
AcDbBlockReference
  2
Block_7
 10
0.0
 20
0.0
 30
0.0
  0
LINE
  5
CC
330
70
100
AcDbEntity
  8
レイヤー 1
 62
   250
420
  2299925
370
     9
100
AcDbLine
 10
91.74594210510694
 20
-158.5003989064372
 30
0.0
 11
92.6117136086367
 21
-158.0000240373046
 31
0.0
  0
LINE
  5
CD
330
70
100
AcDbEntity
  8
レイヤー 1
 62
   250
420
  2299925
370
     9
100
AcDbLine
 10
91.74594210510694
 20
-158.5003989064372
 30
0.0
 11
96.15355736659029
 21
-154.0927838361044
 31
0.0
  0
LINE
  5
CE
330
70
100
AcDbEntity
  8
レイヤー 1
 62
   250
420
  2299925
370
     9
100
AcDbLine
 10
91.74594210510694
 20
-158.5003989064372
 30
0.0
 11
92.24581807140731
 21
-157.6341284999588
 31
0.0
  0
ENDSEC
  0
SECTION
  2
OBJECTS
  0
DICTIONARY
  5
C
330
0
100
AcDbDictionary
281
     1
  3
ACAD_COLOR
350
63
  3
ACAD_DETAILVIEWSTYLE
350
6A
  3
ACAD_GROUP
350
D
  3
ACAD_LAYOUT
350
62
  3
ACAD_MATERIAL
350
10
  3
ACAD_MLEADERSTYLE
350
66
  3
ACAD_MLINESTYLE
350
5F
  3
ACAD_PLOTSETTINGS
350
61
  3
ACAD_PLOTSTYLENAME
350
E
  3
ACAD_SCALELIST
350
42
  3
ACAD_SECTIONVIEWSTYLE
350
68
  3
ACAD_TABLESTYLE
350
64
  3
ACAD_VISUALSTYLE
350
29
  3
ACDB_RECOMPOSE_DATA
350
D7
  3
AcDbVariableDictionary
350
CF
  0
DICTIONARY
  5
63
102
{ACAD_REACTORS
330
C
102
}
330
C
100
AcDbDictionary
281
     1
  0
DICTIONARY
  5
6A
102
{ACAD_REACTORS
330
C
102
}
330
C
100
AcDbDictionary
281
     1
  3
Imperial24
350
6B
  0
DICTIONARY
  5
D
102
{ACAD_REACTORS
330
C
102
}
330
C
100
AcDbDictionary
281
     1
  0
DICTIONARY
  5
62
102
{ACAD_REACTORS
330
C
102
}
330
C
100
AcDbDictionary
281
     1
  3
Layout1
350
6F
  3
Layout2
350
77
  3
Model
350
73
  0
DICTIONARY
  5
10
102
{ACAD_REACTORS
330
C
102
}
330
C
100
AcDbDictionary
281
     1
  3
ByBlock
350
19
  3
ByLayer
350
11
  3
Global
350
21
  0
DICTIONARY
  5
66
102
{ACAD_REACTORS
330
C
102
}
330
C
100
AcDbDictionary
281
     1
  3
Standard
350
67
  0
DICTIONARY
  5
5F
102
{ACAD_REACTORS
330
C
102
}
330
C
100
AcDbDictionary
281
     1
  3
Standard
350
60
  0
DICTIONARY
  5
61
102
{ACAD_REACTORS
330
C
102
}
330
C
100
AcDbDictionary
281
     1
  0
ACDBDICTIONARYWDFLT
  5
E
102
{ACAD_REACTORS
330
C
102
}
330
C
100
AcDbDictionary
281
     1
  3
Normal
350
F
100
AcDbDictionaryWithDefault
340
F
  0
DICTIONARY
  5
42
102
{ACAD_REACTORS
330
C
102
}
330
C
100
AcDbDictionary
281
     1
  3
A0
350
43
  3
A1
350
44
  3
A2
350
45
  3
A3
350
46
  3
A4
350
47
  3
A5
350
48
  3
A6
350
49
  3
A7
350
4A
  3
A8
350
4B
  3
A9
350
4C
  3
B0
350
4D
  3
B1
350
4E
  3
B2
350
4F
  3
B3
350
50
  3
B4
350
51
  3
B5
350
52
  3
B6
350
53
  0
DICTIONARY
  5
68
102
{ACAD_REACTORS
330
C
102
}
330
C
100
AcDbDictionary
281
     1
  3
Imperial24
350
69
  0
DICTIONARY
  5
64
102
{ACAD_REACTORS
330
C
102
}
330
C
100
AcDbDictionary
281
     1
  3
Standard
350
65
  0
DICTIONARY
  5
29
102
{ACAD_REACTORS
330
C
102
}
330
C
100
AcDbDictionary
281
     1
  3
2dWireframe
350
2F
  3
Basic
350
2E
  3
Brighten
350
35
  3
ColorChange
350
39
  3
Conceptual
350
32
  3
Dim
350
34
  3
EdgeColorOff
350
41
  3
Facepattern
350
38
  3
Flat
350
2A
  3
FlatWithEdges
350
2B
  3
Gouraud
350
2C
  3
GouraudWithEdges
350
2D
  3
Hidden
350
31
  3
JitterOff
350
3F
  3
Linepattern
350
37
  3
OverhangOff
350
40
  3
Realistic
350
33
  3
Shaded
350
3E
  3
Shaded with edges
350
3D
  3
Shades of Gray
350
3A
  3
Sketchy
350
3B
  3
Thicken
350
36
  3
Wireframe
350
30
  3
X-Ray
350
3C
  0
XRECORD
  5
D7
102
{ACAD_REACTORS
330
C
102
}
330
C
100
AcDbXrecord
280
     1
 90
        1
330
65
  0
DICTIONARY
  5
CF
102
{ACAD_REACTORS
330
C
102
}
330
C
100
AcDbDictionary
281
     1
  3
CANNOSCALE
350
D4
  3
CMLEADERSTYLE
350
D1
  3
CTABLESTYLE
350
D0
  3
CVIEWDETAILSTYLE
350
D2
  3
CVIEWSECTIONSTYLE
350
D3
  0
ACDBDETAILVIEWSTYLE
  5
6B
102
{ACAD_XDICTIONARY
360
10C
102
}
102
{ACAD_REACTORS
330
6A
102
}
330
6A
100
AcDbModelDocViewStyle
 70
     0
  3
Imperial24
290
     0
100
AcDbDetailViewStyle
 70
     0
 71
     0
 90
        3
 71
     1
340
55
 62
   256
 40
0.24
340
0
 62
   256
 40
0.24
300

 40
0.36
280
     3
 71
     2
340
5D
 90
       25
 62
   256
 71
     3
340
55
 62
   256
 40
0.24
 90
        1
 40
0.75
 90
        1
300
%<\AcVar ViewType \f "%tc1">% %<\AcVar ViewDetailId>%\PSCALE %<\AcVar ViewScale \f "%sn">%
 71
     4
340
5D
 90
       25
 62
   256
340
5D
 90
       25
 62
   256
280
     0
  0
LAYOUT
  5
6F
102
{ACAD_REACTORS
330
62
102
}
330
62
100
AcDbPlotSettings
  1

  2

  4

  6

 40
0.0
 41
0.0
 42
0.0
 43
0.0
 44
0.0
 45
0.0
 46
0.0
 47
0.0
 48
0.0
 49
0.0
140
0.0
141
0.0
142
1.0
143
1.0
 70
   688
 72
     0
 73
     0
 74
     5
  7

 75
    16
147
1.0
 76
     0
 77
     2
 78
   300
148
0.0
149
0.0
100
AcDbLayout
  1
Layout1
 70
     1
 71
     1
 10
0.0
 20
0.0
 11
12.0
 21
9.0
 12
0.0
 22
0.0
 32
0.0
 14
0.0
 24
0.0
 34
0.0
 15
0.0
 25
0.0
 35
0.0
146
0.0
 13
0.0
 23
0.0
 33
0.0
 16
1.0
 26
0.0
 36
0.0
 17
0.0
 27
1.0
 37
0.0
 76
     0
330
6C
  0
LAYOUT
  5
77
102
{ACAD_REACTORS
330
62
102
}
330
62
100
AcDbPlotSettings
  1

  2

  4

  6

 40
0.0
 41
0.0
 42
0.0
 43
0.0
 44
0.0
 45
0.0
 46
0.0
 47
0.0
 48
0.0
 49
0.0
140
0.0
141
0.0
142
1.0
143
1.0
 70
   688
 72
     0
 73
     0
 74
     5
  7

 75
    16
147
1.0
 76
     0
 77
     2
 78
   300
148
0.0
149
0.0
100
AcDbLayout
  1
Layout2
 70
     1
 71
     2
 10
0.0
 20
0.0
 11
12.0
 21
9.0
 12
0.0
 22
0.0
 32
0.0
 14
0.0
 24
0.0
 34
0.0
 15
0.0
 25
0.0
 35
0.0
146
0.0
 13
0.0
 23
0.0
 33
0.0
 16
1.0
 26
0.0
 36
0.0
 17
0.0
 27
1.0
 37
0.0
 76
     0
330
74
  0
LAYOUT
  5
73
102
{ACAD_REACTORS
330
62
102
}
330
62
100
AcDbPlotSettings
  1

  2

  4

  6

 40
0.0
 41
0.0
 42
0.0
 43
0.0
 44
0.0
 45
0.0
 46
0.0
 47
0.0
 48
0.0
 49
0.0
140
0.0
141
0.0
142
1.0
143
1.0
 70
  1712
 72
     0
 73
     0
 74
     0
  7

 75
     0
147
1.0
 76
     0
 77
     2
 78
   300
148
0.0
149
0.0
100
AcDbLayout
  1
Model
 70
     1
 71
     0
 10
0.0
 20
0.0
 11
12.0
 21
9.0
 12
0.0
 22
0.0
 32
0.0
 14
0.0
 24
0.0
 34
0.0
 15
0.0
 25
0.0
 35
0.0
146
0.0
 13
0.0
 23
0.0
 33
0.0
 16
1.0
 26
0.0
 36
0.0
 17
0.0
 27
1.0
 37
0.0
 76
     0
330
70
  0
MATERIAL
  5
19
102
{ACAD_XDICTIONARY
360
1A
102
}
102
{ACAD_REACTORS
330
10
102
}
330
10
100
AcDbMaterial
  1
ByBlock
 72
     0
 43
0.0208333333333333
 43
0.0
 43
0.0
 43
0.0
 43
0.0
 43
0.0208333333333333
 43
0.0
 43
0.0
 43
0.0
 43
0.0
 43
1.0
 43
0.0
 43
0.0
 43
0.0
 43
0.0
 43
1.0
 77
     0
 47
0.0208333333333333
 47
0.0
 47
0.0
 47
0.0
 47
0.0
 47
0.0208333333333333
 47
0.0
 47
0.0
 47
0.0
 47
0.0
 47
1.0
 47
0.0
 47
0.0
 47
0.0
 47
0.0
 47
1.0
171
     0
 49
0.0208333333333333
 49
0.0
 49
0.0
 49
0.0
 49
0.0
 49
0.0208333333333333
 49
0.0
 49
0.0
 49
0.0
 49
0.0
 49
1.0
 49
0.0
 49
0.0
 49
0.0
 49
0.0
 49
1.0
175
     0
142
0.0208333333333333
142
0.0
142
0.0
142
0.0
142
0.0
142
0.0208333333333333
142
0.0
142
0.0
142
0.0
142
0.0
142
1.0
142
0.0
142
0.0
142
0.0
142
0.0
142
1.0
179
     0
144
0.0208333333333333
144
0.0
144
0.0
144
0.0
144
0.0
144
0.0208333333333333
144
0.0
144
0.0
144
0.0
144
0.0
144
1.0
144
0.0
144
0.0
144
0.0
144
0.0
144
1.0
147
0.0208333333333333
147
0.0
147
0.0
147
0.0
147
0.0
147
0.0208333333333333
147
0.0
147
0.0
147
0.0
147
0.0
147
1.0
147
0.0
147
0.0
147
0.0
147
0.0
147
1.0
  0
MATERIAL
  5
11
102
{ACAD_XDICTIONARY
360
12
102
}
102
{ACAD_REACTORS
330
10
102
}
330
10
100
AcDbMaterial
  1
ByLayer
 72
     0
 43
0.0208333333333333
 43
0.0
 43
0.0
 43
0.0
 43
0.0
 43
0.0208333333333333
 43
0.0
 43
0.0
 43
0.0
 43
0.0
 43
1.0
 43
0.0
 43
0.0
 43
0.0
 43
0.0
 43
1.0
 77
     0
 47
0.0208333333333333
 47
0.0
 47
0.0
 47
0.0
 47
0.0
 47
0.0208333333333333
 47
0.0
 47
0.0
 47
0.0
 47
0.0
 47
1.0
 47
0.0
 47
0.0
 47
0.0
 47
0.0
 47
1.0
171
     0
 49
0.0208333333333333
 49
0.0
 49
0.0
 49
0.0
 49
0.0
 49
0.0208333333333333
 49
0.0
 49
0.0
 49
0.0
 49
0.0
 49
1.0
 49
0.0
 49
0.0
 49
0.0
 49
0.0
 49
1.0
175
     0
142
0.0208333333333333
142
0.0
142
0.0
142
0.0
142
0.0
142
0.0208333333333333
142
0.0
142
0.0
142
0.0
142
0.0
142
1.0
142
0.0
142
0.0
142
0.0
142
0.0
142
1.0
179
     0
144
0.0208333333333333
144
0.0
144
0.0
144
0.0
144
0.0
144
0.0208333333333333
144
0.0
144
0.0
144
0.0
144
0.0
144
1.0
144
0.0
144
0.0
144
0.0
144
0.0
144
1.0
147
0.0208333333333333
147
0.0
147
0.0
147
0.0
147
0.0
147
0.0208333333333333
147
0.0
147
0.0
147
0.0
147
0.0
147
1.0
147
0.0
147
0.0
147
0.0
147
0.0
147
1.0
  0
MATERIAL
  5
21
102
{ACAD_XDICTIONARY
360
22
102
}
102
{ACAD_REACTORS
330
10
102
}
330
10
100
AcDbMaterial
  1
Global
 72
     0
 43
0.0208333333333333
 43
0.0
 43
0.0
 43
0.0
 43
0.0
 43
0.0208333333333333
 43
0.0
 43
0.0
 43
0.0
 43
0.0
 43
1.0
 43
0.0
 43
0.0
 43
0.0
 43
0.0
 43
1.0
 77
     0
 47
0.0208333333333333
 47
0.0
 47
0.0
 47
0.0
 47
0.0
 47
0.0208333333333333
 47
0.0
 47
0.0
 47
0.0
 47
0.0
 47
1.0
 47
0.0
 47
0.0
 47
0.0
 47
0.0
 47
1.0
171
     0
 49
0.0208333333333333
 49
0.0
 49
0.0
 49
0.0
 49
0.0
 49
0.0208333333333333
 49
0.0
 49
0.0
 49
0.0
 49
0.0
 49
1.0
 49
0.0
 49
0.0
 49
0.0
 49
0.0
 49
1.0
175
     0
142
0.0208333333333333
142
0.0
142
0.0
142
0.0
142
0.0
142
0.0208333333333333
142
0.0
142
0.0
142
0.0
142
0.0
142
1.0
142
0.0
142
0.0
142
0.0
142
0.0
142
1.0
179
     0
144
0.0208333333333333
144
0.0
144
0.0
144
0.0
144
0.0
144
0.0208333333333333
144
0.0
144
0.0
144
0.0
144
0.0
144
1.0
144
0.0
144
0.0
144
0.0
144
0.0
144
1.0
147
0.0208333333333333
147
0.0
147
0.0
147
0.0
147
0.0
147
0.0208333333333333
147
0.0
147
0.0
147
0.0
147
0.0
147
1.0
147
0.0
147
0.0
147
0.0
147
0.0
147
1.0
  0
MLEADERSTYLE
  5
67
102
{ACAD_XDICTIONARY
360
108
102
}
102
{ACAD_REACTORS
330
66
102
}
330
66
100
AcDbMLeaderStyle
179
     2
170
     2
171
     1
172
     0
 90
        2
 40
0.0
 41
0.0
173
     1
 91
-1056964608
340
5B
 92
       -2
290
     1
 42
0.09
291
     1
 43
0.36
  3
Standard
 44
0.18
300

342
55
174
     1
178
     6
175
     1
176
     0
 93
-1056964608
 45
0.18
292
     0
297
     0
 46
0.18
 94
-1056964608
 47
1.0
 49
1.0
140
1.0
293
     1
141
0.0
294
     1
177
     0
142
1.0
295
     0
296
     0
143
0.125
271
     0
272
     9
273
     9
  0
MLINESTYLE
  5
60
102
{ACAD_REACTORS
330
5F
102
}
330
5F
100
AcDbMlineStyle
  2
STANDARD
 70
     0
  3

 62
   256
 51
90.0
 52
90.0
 71
     2
 49
0.5
 62
   256
  6
BYLAYER
 49
-0.5
 62
   256
  6
BYLAYER
  0
ACDBPLACEHOLDER
  5
F
102
{ACAD_REACTORS
330
E
102
}
330
E
  0
SCALE
  5
43
102
{ACAD_REACTORS
330
42
102
}
330
42
100
AcDbScale
 70
     0
300
1:1
140
1.0
141
1.0
290
     1
  0
SCALE
  5
44
102
{ACAD_REACTORS
330
42
102
}
330
42
100
AcDbScale
 70
     0
300
1/128" = 1'-0"
140
0.0078125
141
12.0
290
     0
  0
SCALE
  5
45
102
{ACAD_REACTORS
330
42
102
}
330
42
100
AcDbScale
 70
     0
300
1/64" = 1'-0"
140
0.015625
141
12.0
290
     0
  0
SCALE
  5
46
102
{ACAD_REACTORS
330
42
102
}
330
42
100
AcDbScale
 70
     0
300
1/32" = 1'-0"
140
0.03125
141
12.0
290
     0
  0
SCALE
  5
47
102
{ACAD_REACTORS
330
42
102
}
330
42
100
AcDbScale
 70
     0
300
1/16" = 1'-0"
140
0.0625
141
12.0
290
     0
  0
SCALE
  5
48
102
{ACAD_REACTORS
330
42
102
}
330
42
100
AcDbScale
 70
     0
300
3/32" = 1'-0"
140
0.09375
141
12.0
290
     0
  0
SCALE
  5
49
102
{ACAD_REACTORS
330
42
102
}
330
42
100
AcDbScale
 70
     0
300
1/8" = 1'-0"
140
0.125
141
12.0
290
     0
  0
SCALE
  5
4A
102
{ACAD_REACTORS
330
42
102
}
330
42
100
AcDbScale
 70
     0
300
3/16" = 1'-0"
140
0.1875
141
12.0
290
     0
  0
SCALE
  5
4B
102
{ACAD_REACTORS
330
42
102
}
330
42
100
AcDbScale
 70
     0
300
1/4" = 1'-0"
140
0.25
141
12.0
290
     0
  0
SCALE
  5
4C
102
{ACAD_REACTORS
330
42
102
}
330
42
100
AcDbScale
 70
     0
300
3/8" = 1'-0"
140
0.375
141
12.0
290
     0
  0
SCALE
  5
4D
102
{ACAD_REACTORS
330
42
102
}
330
42
100
AcDbScale
 70
     0
300
1/2" = 1'-0"
140
0.5
141
12.0
290
     0
  0
SCALE
  5
4E
102
{ACAD_REACTORS
330
42
102
}
330
42
100
AcDbScale
 70
     0
300
3/4" = 1'-0"
140
0.75
141
12.0
290
     0
  0
SCALE
  5
4F
102
{ACAD_REACTORS
330
42
102
}
330
42
100
AcDbScale
 70
     0
300
1" = 1'-0"
140
1.0
141
12.0
290
     0
  0
SCALE
  5
50
102
{ACAD_REACTORS
330
42
102
}
330
42
100
AcDbScale
 70
     0
300
1-1/2" = 1'-0"
140
1.5
141
12.0
290
     0
  0
SCALE
  5
51
102
{ACAD_REACTORS
330
42
102
}
330
42
100
AcDbScale
 70
     0
300
3" = 1'-0"
140
3.0
141
12.0
290
     0
  0
SCALE
  5
52
102
{ACAD_REACTORS
330
42
102
}
330
42
100
AcDbScale
 70
     0
300
6" = 1'-0"
140
6.0
141
12.0
290
     0
  0
SCALE
  5
53
102
{ACAD_REACTORS
330
42
102
}
330
42
100
AcDbScale
 70
     0
300
1'-0" = 1'-0"
140
12.0
141
12.0
290
     0
  0
ACDBSECTIONVIEWSTYLE
  5
69
102
{ACAD_XDICTIONARY
360
10A
102
}
102
{ACAD_REACTORS
330
68
102
}
330
68
100
AcDbModelDocViewStyle
 70
     0
  3
Imperial24
290
     0
100
AcDbSectionViewStyle
 70
     0
 71
     0
 90
       78
 71
     1
340
55
 62
   256
 40
0.24
340
0
340
0
 62
   256
 40
0.24
300
I, O, Q, S, X, Z
 40
0.48
 90
        3
 40
0.18
 90
        1
 71
     2
340
5D
 90
       25
 62
   256
340
5D
 90
       50
 62
   256
 40
0.24
 40
0.0
 40
0.24
 71
     3
340
55
 62
   256
 40
0.24
 90
        1
 40
0.75
 90
        1
300
%<\AcVar ViewType \f "%tc1">% %<\AcVar ViewSectionStartId>%-%<\AcVar ViewSectionEndId>%\PSCALE %<\AcVar ViewScale \f "%sn">%
 71
     4
 62
   256
 62
   257
300
ANSI31
 40
1.0
 90
        0
290
     0
290
     0
 90
        6
 40
0.0
 40
1.570796326794896
 40
0.2617993877991494
 40
1.308996938995747
 40
-0.2617993877991494
 40
1.832595714594046
  0
TABLESTYLE
  5
65
102
{ACAD_XDICTIONARY
360
D5
102
}
102
{ACAD_REACTORS
330
64
102
}
330
64
100
AcDbTableStyle
280
     0
  3
Standard
 70
     0
 71
     0
 40
0.06
 41
0.06
280
     0
281
     0
  7
Standard
140
0.18
170
     2
 62
     0
 63
     7
283
     0
 90
      512
 91
        0
  1

274
    -2
284
     1
 64
     0
275
    -2
285
     1
 65
     0
276
    -2
286
     1
 66
     0
277
    -2
287
     1
 67
     0
278
    -2
288
     1
 68
     0
279
    -2
289
     1
 69
     0
  7
Standard
140
0.25
170
     5
 62
     0
 63
     7
283
     0
 90
      512
 91
        0
  1

274
    -2
284
     1
 64
     0
275
    -2
285
     1
 65
     0
276
    -2
286
     1
 66
     0
277
    -2
287
     1
 67
     0
278
    -2
288
     1
 68
     0
279
    -2
289
     1
 69
     0
  7
Standard
140
0.18
170
     5
 62
     0
 63
     7
283
     0
 90
      512
 91
        0
  1

274
    -2
284
     1
 64
     0
275
    -2
285
     1
 65
     0
276
    -2
286
     1
 66
     0
277
    -2
287
     1
 67
     0
278
    -2
288
     1
 68
     0
279
    -2
289
     1
 69
     0
  0
VISUALSTYLE
  5
2F
102
{ACAD_XDICTIONARY
360
E2
102
}
102
{ACAD_REACTORS
330
29
102
}
330
29
100
AcDbVisualStyle
  2
2dWireframe
 70
     4
177
     2
291
     0
 71
     0
176
     1
 72
     2
176
     1
 73
     0
176
     1
 90
        0
176
     1
 40
0.6
176
     1
 41
30.0
176
     1
 63
     7
421
 16777215
176
     1
 74
     1
176
     1
 91
        4
176
     1
 64
     7
176
     1
 65
   257
176
     1
 75
     1
176
     1
175
     1
176
     1
 42
1.0
176
     1
 92
        0
176
     1
 66
   257
176
     1
 43
1.0
176
     1
 76
     1
176
     1
 77
     6
176
     1
 78
     2
176
     1
 67
     7
176
     1
 79
     5
176
     1
170
     0
176
     1
171
     0
176
     1
290
     0
176
     1
 93
        1
176
     1
 44
0.0
176
     1
173
     0
176
     1
1001
ACAD
1000
AcDbSavedByObjectVersion
1070
     0
  0
VISUALSTYLE
  5
2E
102
{ACAD_XDICTIONARY
360
E0
102
}
102
{ACAD_REACTORS
330
29
102
}
330
29
100
AcDbVisualStyle
  2
Basic
 70
     7
177
     2
291
     1
 71
     1
176
     1
 72
     0
176
     1
 73
     1
176
     1
 90
        0
176
     1
 40
0.6
176
     1
 41
30.0
176
     1
 63
     7
421
 16777215
176
     1
 74
     0
176
     1
 91
        4
176
     1
 64
     7
176
     1
 65
   257
176
     1
 75
     1
176
     1
175
     1
176
     1
 42
1.0
176
     1
 92
        8
176
     1
 66
     7
176
     1
 43
1.0
176
     1
 76
     1
176
     1
 77
     6
176
     1
 78
     2
176
     1
 67
     7
176
     1
 79
     5
176
     1
170
     0
176
     1
171
     0
176
     1
290
     0
176
     1
 93
        1
176
     1
 44
0.0
176
     1
173
     0
176
     1
1001
ACAD
1000
AcDbSavedByObjectVersion
1070
     0
  0
VISUALSTYLE
  5
35
102
{ACAD_XDICTIONARY
360
EE
102
}
102
{ACAD_REACTORS
330
29
102
}
330
29
100
AcDbVisualStyle
  2
Brighten
 70
    12
177
     2
291
     1
 71
     2
176
     1
 72
     2
176
     1
 73
     0
176
     1
 90
        0
176
     1
 40
0.6
176
     1
 41
30.0
176
     1
 63
     7
421
 16777215
176
     1
 74
     1
176
     1
 91
        4
176
     1
 64
     7
176
     1
 65
   257
176
     1
 75
     1
176
     1
175
     1
176
     1
 42
1.0
176
     1
 92
        8
176
     1
 66
     7
176
     1
 43
1.0
176
     1
 76
     1
176
     1
 77
     6
176
     1
 78
     2
176
     1
 67
     7
176
     1
 79
     5
176
     1
170
     0
176
     1
171
     0
176
     1
290
     0
176
     1
 93
        1
176
     1
 44
50.0
176
     1
173
     0
176
     1
1001
ACAD
1000
AcDbSavedByObjectVersion
1070
     0
  0
VISUALSTYLE
  5
39
102
{ACAD_XDICTIONARY
360
F6
102
}
102
{ACAD_REACTORS
330
29
102
}
330
29
100
AcDbVisualStyle
  2
ColorChange
 70
    16
177
     2
291
     1
 71
     2
176
     1
 72
     2
176
     1
 73
     3
176
     1
 90
        0
176
     1
 40
0.6
176
     1
 41
30.0
176
     1
 63
     8
421
  8421504
176
     1
 74
     1
176
     1
 91
        4
176
     1
 64
     7
176
     1
 65
   257
176
     1
 75
     1
176
     1
175
     1
176
     1
 42
1.0
176
     1
 92
        8
176
     1
 66
     8
424
  8421504
176
     1
 43
1.0
176
     1
 76
     1
176
     1
 77
     6
176
     1
 78
     2
176
     1
 67
     7
176
     1
 79
     5
176
     1
170
     0
176
     1
171
     0
176
     1
290
     0
176
     1
 93
        1
176
     1
 44
0.0
176
     1
173
     0
176
     1
1001
ACAD
1000
AcDbSavedByObjectVersion
1070
     0
  0
VISUALSTYLE
  5
32
102
{ACAD_XDICTIONARY
360
E8
102
}
102
{ACAD_REACTORS
330
29
102
}
330
29
100
AcDbVisualStyle
  2
Conceptual
 70
     9
177
     2
291
     0
 71
     3
176
     1
 72
     2
176
     1
 73
     0
176
     1
 90
        0
176
     1
 40
0.6
176
     1
 41
30.0
176
     1
 63
     7
421
 16777215
176
     1
 74
     2
176
     1
 91
        2
176
     1
 64
     7
176
     1
 65
   257
176
     1
 75
     1
176
     1
175
     1
176
     1
 42
179.0
176
     1
 92
        8
176
     1
 66
     7
176
     1
 43
1.0
176
     1
 76
     1
176
     1
 77
     6
176
     1
 78
     2
176
     1
 67
     7
176
     1
 79
     3
176
     1
170
     0
176
     1
171
     0
176
     1
290
     0
176
     1
 93
        1
176
     1
 44
0.0
176
     1
173
     0
176
     1
1001
ACAD
1000
AcDbSavedByObjectVersion
1070
     0
  0
VISUALSTYLE
  5
34
102
{ACAD_XDICTIONARY
360
EC
102
}
102
{ACAD_REACTORS
330
29
102
}
330
29
100
AcDbVisualStyle
  2
Dim
 70
    11
177
     2
291
     1
 71
     2
176
     1
 72
     2
176
     1
 73
     0
176
     1
 90
        0
176
     1
 40
0.6
176
     1
 41
30.0
176
     1
 63
     7
421
 16777215
176
     1
 74
     1
176
     1
 91
        4
176
     1
 64
     7
176
     1
 65
   257
176
     1
 75
     1
176
     1
175
     1
176
     1
 42
1.0
176
     1
 92
        8
176
     1
 66
     7
176
     1
 43
1.0
176
     1
 76
     1
176
     1
 77
     6
176
     1
 78
     2
176
     1
 67
     7
176
     1
 79
     5
176
     1
170
     0
176
     1
171
     0
176
     1
290
     0
176
     1
 93
        1
176
     1
 44
-50.0
176
     1
173
     0
176
     1
1001
ACAD
1000
AcDbSavedByObjectVersion
1070
     0
  0
VISUALSTYLE
  5
41
102
{ACAD_XDICTIONARY
360
106
102
}
102
{ACAD_REACTORS
330
29
102
}
330
29
100
AcDbVisualStyle
  2
EdgeColorOff
 70
    22
177
     2
291
     1
 71
     2
176
     0
 72
     2
176
     0
 73
     0
176
     0
 90
        0
176
     0
 40
0.6
176
     0
 41
30.0
176
     0
 63
     7
421
 16777215
176
     0
 74
     1
176
     0
 91
        4
176
     0
 64
     7
176
     0
 65
   257
176
     0
 75
     1
176
     0
175
     1
176
     0
 42
1.0
176
     0
 92
        8
176
     2
 66
     7
176
     0
 43
1.0
176
     0
 76
     1
176
     0
 77
     6
176
     0
 78
     2
176
     0
 67
     7
176
     0
 79
     5
176
     0
170
     0
176
     0
171
     0
176
     0
290
     0
176
     0
 93
        1
176
     0
 44
0.0
176
     0
173
     0
176
     0
1001
ACAD
1000
AcDbSavedByObjectVersion
1070
     0
  0
VISUALSTYLE
  5
38
102
{ACAD_XDICTIONARY
360
F4
102
}
102
{ACAD_REACTORS
330
29
102
}
330
29
100
AcDbVisualStyle
  2
Facepattern
 70
    15
177
     2
291
     1
 71
     2
176
     1
 72
     2
176
     1
 73
     0
176
     1
 90
        0
176
     1
 40
0.6
176
     1
 41
30.0
176
     1
 63
     7
421
 16777215
176
     1
 74
     1
176
     1
 91
        4
176
     1
 64
     7
176
     1
 65
   257
176
     1
 75
     1
176
     1
175
     1
176
     1
 42
1.0
176
     1
 92
        8
176
     1
 66
     7
176
     1
 43
1.0
176
     1
 76
     1
176
     1
 77
     6
176
     1
 78
     2
176
     1
 67
     7
176
     1
 79
     5
176
     1
170
     0
176
     1
171
     0
176
     1
290
     0
176
     1
 93
        1
176
     1
 44
0.0
176
     1
173
     0
176
     1
1001
ACAD
1000
AcDbSavedByObjectVersion
1070
     0
  0
VISUALSTYLE
  5
2A
102
{ACAD_XDICTIONARY
360
D8
102
}
102
{ACAD_REACTORS
330
29
102
}
330
29
100
AcDbVisualStyle
  2
Flat
 70
     0
177
     2
291
     1
 71
     2
176
     1
 72
     1
176
     1
 73
     1
176
     1
 90
        2
176
     1
 40
0.6
176
     1
 41
30.0
176
     1
 63
     7
421
 16777215
176
     1
 74
     0
176
     1
 91
        0
176
     1
 64
     7
176
     1
 65
   257
176
     1
 75
     1
176
     1
175
     1
176
     1
 42
1.0
176
     1
 92
        8
176
     1
 66
     7
176
     1
 43
1.0
176
     1
 76
     1
176
     1
 77
     6
176
     1
 78
     2
176
     1
 67
     7
176
     1
 79
     5
176
     1
170
     0
176
     1
171
     0
176
     1
290
     0
176
     1
 93
       13
176
     1
 44
0.0
176
     1
173
     0
176
     1
1001
ACAD
1000
AcDbSavedByObjectVersion
1070
     0
  0
VISUALSTYLE
  5
2B
102
{ACAD_XDICTIONARY
360
DA
102
}
102
{ACAD_REACTORS
330
29
102
}
330
29
100
AcDbVisualStyle
  2
FlatWithEdges
 70
     1
177
     2
291
     1
 71
     2
176
     1
 72
     1
176
     1
 73
     1
176
     1
 90
        2
176
     1
 40
0.6
176
     1
 41
30.0
176
     1
 63
     7
421
 16777215
176
     1
 74
     1
176
     1
 91
        0
176
     1
 64
     7
176
     1
 65
   257
176
     1
 75
     1
176
     1
175
     1
176
     1
 42
1.0
176
     1
 92
        0
176
     1
 66
   257
176
     1
 43
1.0
176
     1
 76
     1
176
     1
 77
     6
176
     1
 78
     2
176
     1
 67
     7
176
     1
 79
     5
176
     1
170
     0
176
     1
171
     0
176
     1
290
     0
176
     1
 93
       13
176
     1
 44
0.0
176
     1
173
     0
176
     1
1001
ACAD
1000
AcDbSavedByObjectVersion
1070
     0
  0
VISUALSTYLE
  5
2C
102
{ACAD_XDICTIONARY
360
DC
102
}
102
{ACAD_REACTORS
330
29
102
}
330
29
100
AcDbVisualStyle
  2
Gouraud
 70
     2
177
     2
291
     1
 71
     2
176
     1
 72
     2
176
     1
 73
     1
176
     1
 90
        2
176
     1
 40
0.6
176
     1
 41
30.0
176
     1
 63
     7
421
 16777215
176
     1
 74
     0
176
     1
 91
        0
176
     1
 64
     7
176
     1
 65
   257
176
     1
 75
     1
176
     1
175
     1
176
     1
 42
1.0
176
     1
 92
        0
176
     1
 66
     7
176
     1
 43
1.0
176
     1
 76
     1
176
     1
 77
     6
176
     1
 78
     2
176
     1
 67
     7
176
     1
 79
     5
176
     1
170
     0
176
     1
171
     0
176
     1
290
     0
176
     1
 93
       13
176
     1
 44
0.0
176
     1
173
     0
176
     1
1001
ACAD
1000
AcDbSavedByObjectVersion
1070
     0
  0
VISUALSTYLE
  5
2D
102
{ACAD_XDICTIONARY
360
DE
102
}
102
{ACAD_REACTORS
330
29
102
}
330
29
100
AcDbVisualStyle
  2
GouraudWithEdges
 70
     3
177
     2
291
     1
 71
     2
176
     1
 72
     2
176
     1
 73
     1
176
     1
 90
        2
176
     1
 40
0.6
176
     1
 41
30.0
176
     1
 63
     7
421
 16777215
176
     1
 74
     1
176
     1
 91
        0
176
     1
 64
     7
176
     1
 65
   257
176
     1
 75
     1
176
     1
175
     1
176
     1
 42
1.0
176
     1
 92
        0
176
     1
 66
   257
176
     1
 43
1.0
176
     1
 76
     1
176
     1
 77
     6
176
     1
 78
     2
176
     1
 67
     7
176
     1
 79
     5
176
     1
170
     0
176
     1
171
     0
176
     1
290
     0
176
     1
 93
       13
176
     1
 44
0.0
176
     1
173
     0
176
     1
1001
ACAD
1000
AcDbSavedByObjectVersion
1070
     0
  0
VISUALSTYLE
  5
31
102
{ACAD_XDICTIONARY
360
E6
102
}
102
{ACAD_REACTORS
330
29
102
}
330
29
100
AcDbVisualStyle
  2
Hidden
 70
     6
177
     2
291
     0
 71
     1
176
     1
 72
     2
176
     1
 73
     2
176
     1
 90
        0
176
     1
 40
0.6
176
     1
 41
30.0
176
     1
 63
     7
421
 16777215
176
     1
 74
     2
176
     1
 91
        2
176
     1
 64
     7
176
     1
 65
   257
176
     1
 75
     2
176
     1
175
     1
176
     1
 42
40.0
176
     1
 92
        0
176
     1
 66
   257
176
     1
 43
1.0
176
     1
 76
     1
176
     1
 77
     6
176
     1
 78
     2
176
     1
 67
     7
176
     1
 79
     3
176
     1
170
     0
176
     1
171
     0
176
     1
290
     0
176
     1
 93
        1
176
     1
 44
0.0
176
     1
173
     0
176
     1
1001
ACAD
1000
AcDbSavedByObjectVersion
1070
     0
  0
VISUALSTYLE
  5
3F
102
{ACAD_XDICTIONARY
360
102
102
}
102
{ACAD_REACTORS
330
29
102
}
330
29
100
AcDbVisualStyle
  2
JitterOff
 70
    20
177
     2
291
     1
 71
     2
176
     0
 72
     2
176
     0
 73
     0
176
     0
 90
        0
176
     0
 40
0.6
176
     0
 41
30.0
176
     0
 63
     7
421
 16777215
176
     0
 74
     1
176
     0
 91
        4
176
     0
 64
     7
176
     0
 65
   257
176
     0
 75
     1
176
     0
175
     1
176
     0
 42
1.0
176
     0
 92
       10
176
     2
 66
     7
176
     0
 43
1.0
176
     0
 76
     1
176
     0
 77
     6
176
     0
 78
     2
176
     0
 67
     7
176
     0
 79
     5
176
     0
170
     0
176
     0
171
     0
176
     0
290
     0
176
     0
 93
        1
176
     0
 44
0.0
176
     0
173
     0
176
     0
1001
ACAD
1000
AcDbSavedByObjectVersion
1070
     0
  0
VISUALSTYLE
  5
37
102
{ACAD_XDICTIONARY
360
F2
102
}
102
{ACAD_REACTORS
330
29
102
}
330
29
100
AcDbVisualStyle
  2
Linepattern
 70
    14
177
     2
291
     1
 71
     2
176
     1
 72
     2
176
     1
 73
     0
176
     1
 90
        0
176
     1
 40
0.6
176
     1
 41
30.0
176
     1
 63
     7
421
 16777215
176
     1
 74
     1
176
     1
 91
        4
176
     1
 64
     7
176
     1
 65
   257
176
     1
 75
     7
176
     1
175
     7
176
     1
 42
1.0
176
     1
 92
        8
176
     1
 66
     7
176
     1
 43
1.0
176
     1
 76
     1
176
     1
 77
     6
176
     1
 78
     2
176
     1
 67
     7
176
     1
 79
     5
176
     1
170
     0
176
     1
171
     0
176
     1
290
     0
176
     1
 93
        1
176
     1
 44
0.0
176
     1
173
     0
176
     1
1001
ACAD
1000
AcDbSavedByObjectVersion
1070
     0
  0
VISUALSTYLE
  5
40
102
{ACAD_XDICTIONARY
360
104
102
}
102
{ACAD_REACTORS
330
29
102
}
330
29
100
AcDbVisualStyle
  2
OverhangOff
 70
    21
177
     2
291
     1
 71
     2
176
     0
 72
     2
176
     0
 73
     0
176
     0
 90
        0
176
     0
 40
0.6
176
     0
 41
30.0
176
     0
 63
     7
421
 16777215
176
     0
 74
     1
176
     0
 91
        4
176
     0
 64
     7
176
     0
 65
   257
176
     0
 75
     1
176
     0
175
     1
176
     0
 42
1.0
176
     0
 92
        9
176
     2
 66
     7
176
     0
 43
1.0
176
     0
 76
     1
176
     0
 77
     6
176
     0
 78
     2
176
     0
 67
     7
176
     0
 79
     5
176
     0
170
     0
176
     0
171
     0
176
     0
290
     0
176
     0
 93
        1
176
     0
 44
0.0
176
     0
173
     0
176
     0
1001
ACAD
1000
AcDbSavedByObjectVersion
1070
     0
  0
VISUALSTYLE
  5
33
102
{ACAD_XDICTIONARY
360
EA
102
}
102
{ACAD_REACTORS
330
29
102
}
330
29
100
AcDbVisualStyle
  2
Realistic
 70
     8
177
     2
291
     0
 71
     2
176
     1
 72
     3
176
     1
 73
     0
176
     1
 90
        2
176
     1
 40
0.6
176
     1
 41
30.0
176
     1
 63
     7
421
 16777215
176
     1
 74
     0
176
     1
 91
        0
176
     1
 64
     7
176
     1
 65
   257
176
     1
 75
     1
176
     1
175
     1
176
     1
 42
1.0
176
     1
 92
        8
176
     1
 66
   257
176
     1
 43
1.0
176
     1
 76
     1
176
     1
 77
     6
176
     1
 78
     2
176
     1
 67
     7
176
     1
 79
     3
176
     1
170
     0
176
     1
171
     0
176
     1
290
     0
176
     1
 93
       13
176
     1
 44
0.0
176
     1
173
     0
176
     1
1001
ACAD
1000
AcDbSavedByObjectVersion
1070
     0
  0
VISUALSTYLE
  5
3E
102
{ACAD_XDICTIONARY
360
100
102
}
102
{ACAD_REACTORS
330
29
102
}
330
29
100
AcDbVisualStyle
  2
Shaded
 70
    27
177
     2
291
     0
 71
     2
176
     1
 72
     2
176
     1
 73
     1
176
     1
 90
        2
176
     1
 40
0.6
176
     1
 41
30.0
176
     1
 63
     7
421
 16777215
176
     1
 74
     0
176
     1
 91
        4
176
     1
 64
     7
176
     1
 65
   257
176
     1
 75
     1
176
     1
175
     1
176
     1
 42
1.0
176
     1
 92
        8
176
     1
 66
   257
176
     1
 43
1.0
176
     1
 76
     1
176
     1
 77
     6
176
     1
 78
     2
176
     1
 67
     8
425
  7895160
176
     1
 79
     3
176
     1
170
     0
176
     1
171
     0
176
     1
290
     0
176
     1
 93
        5
176
     1
 44
0.0
176
     1
173
     0
176
     1
1001
ACAD
1000
AcDbSavedByObjectVersion
1070
     0
  0
VISUALSTYLE
  5
3D
102
{ACAD_XDICTIONARY
360
FE
102
}
102
{ACAD_REACTORS
330
29
102
}
330
29
100
AcDbVisualStyle
  2
Shaded with edges
 70
    26
177
     2
291
     0
 71
     2
176
     1
 72
     2
176
     1
 73
     1
176
     1
 90
        2
176
     1
 40
0.6
176
     1
 41
30.0
176
     1
 63
     7
421
 16777215
176
     1
 74
     1
176
     1
 91
        2
176
     1
 64
     7
176
     1
 65
   257
176
     1
 75
     2
176
     1
175
     1
176
     1
 42
1.0
176
     1
 92
        8
176
     1
 66
   257
176
     1
 43
1.0
176
     1
 76
     1
176
     1
 77
     6
176
     1
 78
     2
176
     1
 67
     7
176
     1
 79
     3
176
     1
170
     0
176
     1
171
     0
176
     1
290
     0
176
     1
 93
        5
176
     1
 44
0.0
176
     1
173
     0
176
     1
1001
ACAD
1000
AcDbSavedByObjectVersion
1070
     0
  0
VISUALSTYLE
  5
3A
102
{ACAD_XDICTIONARY
360
F8
102
}
102
{ACAD_REACTORS
330
29
102
}
330
29
100
AcDbVisualStyle
  2
Shades of Gray
 70
    23
177
     2
291
     0
 71
     2
176
     1
 72
     2
176
     1
 73
     3
176
     1
 90
        0
176
     1
 40
0.6
176
     1
 41
30.0
176
     1
 63
     7
421
 16777215
176
     1
 74
     2
176
     1
 91
        2
176
     1
 64
     7
176
     1
 65
     7
176
     1
 75
     1
176
     1
175
     1
176
     1
 42
40.0
176
     1
 92
        8
176
     1
 66
     7
176
     1
 43
1.0
176
     1
 76
     1
176
     1
 77
     6
176
     1
 78
     2
176
     1
 67
     7
176
     1
 79
     3
176
     1
170
     0
176
     1
171
     0
176
     1
290
     0
176
     1
 93
        1
176
     1
 44
0.0
176
     1
173
     0
176
     1
1001
ACAD
1000
AcDbSavedByObjectVersion
1070
     0
  0
VISUALSTYLE
  5
3B
102
{ACAD_XDICTIONARY
360
FA
102
}
102
{ACAD_REACTORS
330
29
102
}
330
29
100
AcDbVisualStyle
  2
Sketchy
 70
    24
177
     2
291
     0
 71
     1
176
     1
 72
     2
176
     1
 73
     2
176
     1
 90
        0
176
     1
 40
0.6
176
     1
 41
30.0
176
     1
 63
     7
421
 16777215
176
     1
 74
     2
176
     1
 91
        2
176
     1
 64
     7
176
     1
 65
     7
176
     1
 75
     1
176
     1
175
     1
176
     1
 42
40.0
176
     1
 92
       11
176
     1
 66
     7
176
     1
 43
1.0
176
     1
 76
     1
176
     1
 77
     6
176
     1
 78
     2
176
     1
 67
     7
176
     1
 79
     6
176
     1
170
     0
176
     1
171
     0
176
     1
290
     0
176
     1
 93
        1
176
     1
 44
0.0
176
     1
173
     0
176
     1
1001
ACAD
1000
AcDbSavedByObjectVersion
1070
     0
  0
VISUALSTYLE
  5
36
102
{ACAD_XDICTIONARY
360
F0
102
}
102
{ACAD_REACTORS
330
29
102
}
330
29
100
AcDbVisualStyle
  2
Thicken
 70
    13
177
     2
291
     1
 71
     2
176
     1
 72
     2
176
     1
 73
     0
176
     1
 90
        0
176
     1
 40
0.6
176
     1
 41
30.0
176
     1
 63
     7
421
 16777215
176
     1
 74
     1
176
     1
 91
        4
176
     1
 64
     7
176
     1
 65
   257
176
     1
 75
     1
176
     1
175
     1
176
     1
 42
1.0
176
     1
 92
       12
176
     1
 66
     7
176
     1
 43
1.0
176
     1
 76
     1
176
     1
 77
     6
176
     1
 78
     2
176
     1
 67
     7
176
     1
 79
     5
176
     1
170
     0
176
     1
171
     0
176
     1
290
     0
176
     1
 93
        1
176
     1
 44
0.0
176
     1
173
     0
176
     1
1001
ACAD
1000
AcDbSavedByObjectVersion
1070
     0
  0
VISUALSTYLE
  5
30
102
{ACAD_XDICTIONARY
360
E4
102
}
102
{ACAD_REACTORS
330
29
102
}
330
29
100
AcDbVisualStyle
  2
Wireframe
 70
     5
177
     2
291
     0
 71
     0
176
     1
 72
     2
176
     1
 73
     0
176
     1
 90
        0
176
     1
 40
0.6
176
     1
 41
30.0
176
     1
 63
     7
421
 16777215
176
     1
 74
     1
176
     1
 91
        4
176
     1
 64
     7
176
     1
 65
   257
176
     1
 75
     1
176
     1
175
     1
176
     1
 42
1.0
176
     1
 92
        0
176
     1
 66
   257
176
     1
 43
1.0
176
     1
 76
     1
176
     1
 77
     6
176
     1
 78
     2
176
     1
 67
     7
176
     1
 79
     3
176
     1
170
     0
176
     1
171
     0
176
     1
290
     0
176
     1
 93
        1
176
     1
 44
0.0
176
     1
173
     0
176
     1
1001
ACAD
1000
AcDbSavedByObjectVersion
1070
     0
  0
VISUALSTYLE
  5
3C
102
{ACAD_XDICTIONARY
360
FC
102
}
102
{ACAD_REACTORS
330
29
102
}
330
29
100
AcDbVisualStyle
  2
X-Ray
 70
    25
177
     2
291
     0
 71
     2
176
     1
 72
     2
176
     1
 73
     1
176
     1
 90
        1
176
     1
 40
0.5
176
     1
 41
30.0
176
     1
 63
     7
421
 16777215
176
     1
 74
     1
176
     1
 91
        0
176
     1
 64
     7
176
     1
 65
   257
176
     1
 75
     1
176
     1
175
     1
176
     1
 42
1.0
176
     1
 92
        8
176
     1
 66
     7
176
     1
 43
1.0
176
     1
 76
     1
176
     1
 77
     6
176
     1
 78
     2
176
     1
 67
     7
176
     1
 79
     3
176
     1
170
     0
176
     1
171
     0
176
     1
290
     0
176
     1
 93
       13
176
     1
 44
0.0
176
     1
173
     0
176
     1
1001
ACAD
1000
AcDbSavedByObjectVersion
1070
     0
  0
DICTIONARYVAR
  5
D4
102
{ACAD_REACTORS
330
CF
102
}
330
CF
100
DictionaryVariables
280
     0
  1
1:1
  0
DICTIONARYVAR
  5
D1
102
{ACAD_REACTORS
330
CF
102
}
330
CF
100
DictionaryVariables
280
     0
  1
STANDARD
  0
DICTIONARYVAR
  5
D0
102
{ACAD_REACTORS
330
CF
102
}
330
CF
100
DictionaryVariables
280
     0
  1
STANDARD
  0
DICTIONARYVAR
  5
D2
102
{ACAD_REACTORS
330
CF
102
}
330
CF
100
DictionaryVariables
280
     0
  1
Imperial24
  0
DICTIONARYVAR
  5
D3
102
{ACAD_REACTORS
330
CF
102
}
330
CF
100
DictionaryVariables
280
     0
  1
Imperial24
  0
DICTIONARY
  5
10C
330
6B
100
AcDbDictionary
280
     1
281
     1
  3
ACAD_XREC_ROUNDTRIP
360
10D
  0
DICTIONARY
  5
1A
330
19
100
AcDbDictionary
280
     1
281
     1
  3
BUMPTILE
360
1C
  3
DIFFUSETILE
360
1B
  3
OPACITYTILE
360
1F
  3
REFLECTIONTILE
360
1E
  3
REFRACTIONTILE
360
20
  3
SPECULARTILE
360
1D
  0
DICTIONARY
  5
12
330
11
100
AcDbDictionary
280
     1
281
     1
  3
BUMPTILE
360
14
  3
DIFFUSETILE
360
13
  3
OPACITYTILE
360
17
  3
REFLECTIONTILE
360
16
  3
REFRACTIONTILE
360
18
  3
SPECULARTILE
360
15
  0
DICTIONARY
  5
22
330
21
100
AcDbDictionary
280
     1
281
     1
  3
BUMPTILE
360
24
  3
DIFFUSETILE
360
23
  3
OPACITYTILE
360
27
  3
REFLECTIONTILE
360
26
  3
REFRACTIONTILE
360
28
  3
SPECULARTILE
360
25
  0
DICTIONARY
  5
108
330
67
100
AcDbDictionary
280
     1
281
     1
  3
ACAD_XREC_ROUNDTRIP
360
109
  0
DICTIONARY
  5
10A
330
69
100
AcDbDictionary
280
     1
281
     1
  3
ACAD_XREC_ROUNDTRIP
360
10B
  0
DICTIONARY
  5
D5
330
65
100
AcDbDictionary
280
     1
281
     1
  3
ACAD_ROUNDTRIP_2008_TABLESTYLE_CELLSTYLEMAP
360
D6
  0
DICTIONARY
  5
E2
330
2F
100
AcDbDictionary
280
     1
281
     1
  3
ACAD_XREC_ROUNDTRIP
360
E3
  0
DICTIONARY
  5
E0
330
2E
100
AcDbDictionary
280
     1
281
     1
  3
ACAD_XREC_ROUNDTRIP
360
E1
  0
DICTIONARY
  5
EE
330
35
100
AcDbDictionary
280
     1
281
     1
  3
ACAD_XREC_ROUNDTRIP
360
EF
  0
DICTIONARY
  5
F6
330
39
100
AcDbDictionary
280
     1
281
     1
  3
ACAD_XREC_ROUNDTRIP
360
F7
  0
DICTIONARY
  5
E8
330
32
100
AcDbDictionary
280
     1
281
     1
  3
ACAD_XREC_ROUNDTRIP
360
E9
  0
DICTIONARY
  5
EC
330
34
100
AcDbDictionary
280
     1
281
     1
  3
ACAD_XREC_ROUNDTRIP
360
ED
  0
DICTIONARY
  5
106
330
41
100
AcDbDictionary
280
     1
281
     1
  3
ACAD_XREC_ROUNDTRIP
360
107
  0
DICTIONARY
  5
F4
330
38
100
AcDbDictionary
280
     1
281
     1
  3
ACAD_XREC_ROUNDTRIP
360
F5
  0
DICTIONARY
  5
D8
330
2A
100
AcDbDictionary
280
     1
281
     1
  3
ACAD_XREC_ROUNDTRIP
360
D9
  0
DICTIONARY
  5
DA
330
2B
100
AcDbDictionary
280
     1
281
     1
  3
ACAD_XREC_ROUNDTRIP
360
DB
  0
DICTIONARY
  5
DC
330
2C
100
AcDbDictionary
280
     1
281
     1
  3
ACAD_XREC_ROUNDTRIP
360
DD
  0
DICTIONARY
  5
DE
330
2D
100
AcDbDictionary
280
     1
281
     1
  3
ACAD_XREC_ROUNDTRIP
360
DF
  0
DICTIONARY
  5
E6
330
31
100
AcDbDictionary
280
     1
281
     1
  3
ACAD_XREC_ROUNDTRIP
360
E7
  0
DICTIONARY
  5
102
330
3F
100
AcDbDictionary
280
     1
281
     1
  3
ACAD_XREC_ROUNDTRIP
360
103
  0
DICTIONARY
  5
F2
330
37
100
AcDbDictionary
280
     1
281
     1
  3
ACAD_XREC_ROUNDTRIP
360
F3
  0
DICTIONARY
  5
104
330
40
100
AcDbDictionary
280
     1
281
     1
  3
ACAD_XREC_ROUNDTRIP
360
105
  0
DICTIONARY
  5
EA
330
33
100
AcDbDictionary
280
     1
281
     1
  3
ACAD_XREC_ROUNDTRIP
360
EB
  0
DICTIONARY
  5
100
330
3E
100
AcDbDictionary
280
     1
281
     1
  3
ACAD_XREC_ROUNDTRIP
360
101
  0
DICTIONARY
  5
FE
330
3D
100
AcDbDictionary
280
     1
281
     1
  3
ACAD_XREC_ROUNDTRIP
360
FF
  0
DICTIONARY
  5
F8
330
3A
100
AcDbDictionary
280
     1
281
     1
  3
ACAD_XREC_ROUNDTRIP
360
F9
  0
DICTIONARY
  5
FA
330
3B
100
AcDbDictionary
280
     1
281
     1
  3
ACAD_XREC_ROUNDTRIP
360
FB
  0
DICTIONARY
  5
F0
330
36
100
AcDbDictionary
280
     1
281
     1
  3
ACAD_XREC_ROUNDTRIP
360
F1
  0
DICTIONARY
  5
E4
330
30
100
AcDbDictionary
280
     1
281
     1
  3
ACAD_XREC_ROUNDTRIP
360
E5
  0
DICTIONARY
  5
FC
330
3C
100
AcDbDictionary
280
     1
281
     1
  3
ACAD_XREC_ROUNDTRIP
360
FD
  0
XRECORD
  5
10D
102
{ACAD_REACTORS
330
10C
102
}
330
10C
100
AcDbXrecord
280
     1
102
DISPLAYNAME
  1
Imperial24
102
FLAGS
 90
        0
  0
XRECORD
  5
1C
102
{ACAD_REACTORS
330
1A
102
}
330
1A
100
AcDbXrecord
280
     1
270
     1
271
     1
  0
XRECORD
  5
1B
102
{ACAD_REACTORS
330
1A
102
}
330
1A
100
AcDbXrecord
280
     1
270
     1
271
     1
  0
XRECORD
  5
1F
102
{ACAD_REACTORS
330
1A
102
}
330
1A
100
AcDbXrecord
280
     1
270
     1
271
     1
  0
XRECORD
  5
1E
102
{ACAD_REACTORS
330
1A
102
}
330
1A
100
AcDbXrecord
280
     1
270
     1
271
     1
  0
XRECORD
  5
20
102
{ACAD_REACTORS
330
1A
102
}
330
1A
100
AcDbXrecord
280
     1
270
     1
271
     1
  0
XRECORD
  5
1D
102
{ACAD_REACTORS
330
1A
102
}
330
1A
100
AcDbXrecord
280
     1
270
     1
271
     1
  0
XRECORD
  5
14
102
{ACAD_REACTORS
330
12
102
}
330
12
100
AcDbXrecord
280
     1
270
     1
271
     1
  0
XRECORD
  5
13
102
{ACAD_REACTORS
330
12
102
}
330
12
100
AcDbXrecord
280
     1
270
     1
271
     1
  0
XRECORD
  5
17
102
{ACAD_REACTORS
330
12
102
}
330
12
100
AcDbXrecord
280
     1
270
     1
271
     1
  0
XRECORD
  5
16
102
{ACAD_REACTORS
330
12
102
}
330
12
100
AcDbXrecord
280
     1
270
     1
271
     1
  0
XRECORD
  5
18
102
{ACAD_REACTORS
330
12
102
}
330
12
100
AcDbXrecord
280
     1
270
     1
271
     1
  0
XRECORD
  5
15
102
{ACAD_REACTORS
330
12
102
}
330
12
100
AcDbXrecord
280
     1
270
     1
271
     1
  0
XRECORD
  5
24
102
{ACAD_REACTORS
330
22
102
}
330
22
100
AcDbXrecord
280
     1
270
     1
271
     1
  0
XRECORD
  5
23
102
{ACAD_REACTORS
330
22
102
}
330
22
100
AcDbXrecord
280
     1
270
     1
271
     1
  0
XRECORD
  5
27
102
{ACAD_REACTORS
330
22
102
}
330
22
100
AcDbXrecord
280
     1
270
     1
271
     1
  0
XRECORD
  5
26
102
{ACAD_REACTORS
330
22
102
}
330
22
100
AcDbXrecord
280
     1
270
     1
271
     1
  0
XRECORD
  5
28
102
{ACAD_REACTORS
330
22
102
}
330
22
100
AcDbXrecord
280
     1
270
     1
271
     1
  0
XRECORD
  5
25
102
{ACAD_REACTORS
330
22
102
}
330
22
100
AcDbXrecord
280
     1
270
     1
271
     1
  0
XRECORD
  5
109
102
{ACAD_REACTORS
330
108
102
}
330
108
100
AcDbXrecord
280
     1
102
ACAD_ROUNDTRIP_2012_MLEADER_STYLE
298
     1
  0
XRECORD
  5
10B
102
{ACAD_REACTORS
330
10A
102
}
330
10A
100
AcDbXrecord
280
     1
102
DISPLAYNAME
  1
Imperial24
102
FLAGS
 90
        0
  0
CELLSTYLEMAP
  5
D6
102
{ACAD_REACTORS
330
D5
102
}
330
D5
100
AcDbCellStyleMap
 90
        3
300
CELLSTYLE
  1
TABLEFORMAT_BEGIN
 90
        5
170
     1
 91
        0
 92
    32768
 62
   257
 93
        1
300
CONTENTFORMAT
  1
CONTENTFORMAT_BEGIN
 90
        0
 91
        0
 92
      512
 93
        0
300

 40
0.0
140
1.0
 94
        5
 62
     0
340
55
144
0.25
309
CONTENTFORMAT_END
171
     0
 94
        0
309
TABLEFORMAT_END
  1
CELLSTYLE_BEGIN
 90
        1
 91
        1
300
_TITLE
309
CELLSTYLE_END
300
CELLSTYLE
  1
TABLEFORMAT_BEGIN
 90
        5
170
     1
 91
        0
 92
        0
 62
   257
 93
        1
300
CONTENTFORMAT
  1
CONTENTFORMAT_BEGIN
 90
        0
 91
        0
 92
      512
 93
        0
300

 40
0.0
140
1.0
 94
        5
 62
     0
340
55
144
0.18
309
CONTENTFORMAT_END
171
     0
 94
        0
309
TABLEFORMAT_END
  1
CELLSTYLE_BEGIN
 90
        2
 91
        1
300
_HEADER
309
CELLSTYLE_END
300
CELLSTYLE
  1
TABLEFORMAT_BEGIN
 90
        5
170
     1
 91
        0
 92
        0
 62
   257
 93
        1
300
CONTENTFORMAT
  1
CONTENTFORMAT_BEGIN
 90
        0
 91
        0
 92
      512
 93
        0
300

 40
0.0
140
1.0
 94
        2
 62
     0
340
55
144
0.18
309
CONTENTFORMAT_END
171
     0
 94
        0
309
TABLEFORMAT_END
  1
CELLSTYLE_BEGIN
 90
        3
 91
        2
300
_DATA
309
CELLSTYLE_END
  0
XRECORD
  5
E3
102
{ACAD_REACTORS
330
E2
102
}
330
E2
100
AcDbXrecord
280
     1
102
RTVSPost2010Prop28
280
     1
102
RTVSPost2010PropOp28
 70
     1
102
RTVSPost2010Prop29
280
     1
102
RTVSPost2010PropOp29
 70
     1
102
RTVSPost2010Prop30
280
     0
102
RTVSPost2010PropOp30
 70
     1
102
RTVSPost2010Prop31
280
     0
102
RTVSPost2010PropOp31
 70
     1
102
RTVSPost2010Prop32
280
     0
102
RTVSPost2010PropOp32
 70
     1
102
RTVSPost2010Prop33
280
     0
102
RTVSPost2010PropOp33
 70
     1
102
RTVSPost2010Prop34
280
     0
102
RTVSPost2010PropOp34
 70
     1
102
RTVSPost2010Prop35
280
     0
102
RTVSPost2010PropOp35
 70
     1
102
RTVSPost2010Prop36
280
     0
102
RTVSPost2010PropOp36
 70
     1
102
RTVSPost2010Prop37
 90
       50
102
RTVSPost2010PropOp37
 70
     1
102
RTVSPost2010Prop38
140
0.0
102
RTVSPost2010PropOp38
 70
     1
102
RTVSPost2010Prop39
140
1.0
102
RTVSPost2010PropOp39
 70
     1
102
RTVSPost2010Prop40
 90
        0
102
RTVSPost2010PropOp40
 70
     1
102
RTVSPost2010Prop41ColorIndex
 90
       18
102
RTVSPost2010Prop41ColorRGB
 90
        0
102
RTVSPost2010PropOp41
 70
     1
102
RTVSPost2010Prop42
 90
       50
102
RTVSPost2010PropOp42
 70
     1
102
RTVSPost2010Prop43
 90
        3
102
RTVSPost2010PropOp43
 70
     1
102
RTVSPost2010Prop44ColorIndex
 90
        5
102
RTVSPost2010Prop44ColorRGB
 90
      255
102
RTVSPost2010PropOp44
 70
     1
102
RTVSPost2010Prop45
280
     0
102
RTVSPost2010PropOp45
 70
     1
102
RTVSPost2010Prop46
 90
       50
102
RTVSPost2010PropOp46
 70
     1
102
RTVSPost2010Prop47
 90
       50
102
RTVSPost2010PropOp47
 70
     1
102
RTVSPost2010Prop48
 90
       50
102
RTVSPost2010PropOp48
 70
     1
102
RTVSPost2010Prop49
280
     0
102
RTVSPost2010PropOp49
 70
     1
102
RTVSPost2010Prop50
 90
       50
102
RTVSPost2010PropOp50
 70
     1
102
RTVSPost2010Prop51ColorIndex
 90
      256
102
RTVSPost2010Prop51ColorRGB
 90
-16777216
102
RTVSPost2010PropOp51
 70
     0
102
RTVSPost2010Prop52
140
1.0
102
RTVSPost2010PropOp52
 70
     0
102
RTVSPost2010Prop53
 90
        2
102
RTVSPost2010PropOp53
 70
     1
102
RTVSPost2010Prop54
  1
strokes_ogs.tif
102
RTVSPost2010PropOp54
 70
     1
102
RTVSPost2010Prop55
280
     0
102
RTVSPost2010PropOp55
 70
     1
102
RTVSPost2010Prop56
140
1.0
102
RTVSPost2010PropOp56
 70
     1
102
RTVSPost2010Prop57
140
1.0
102
RTVSPost2010PropOp57
 70
     1
  0
XRECORD
  5
E1
102
{ACAD_REACTORS
330
E0
102
}
330
E0
100
AcDbXrecord
280
     1
102
RTVSPost2010Prop28
280
     0
102
RTVSPost2010PropOp28
 70
     1
102
RTVSPost2010Prop29
280
     1
102
RTVSPost2010PropOp29
 70
     1
102
RTVSPost2010Prop30
280
     1
102
RTVSPost2010PropOp30
 70
     1
102
RTVSPost2010Prop31
280
     0
102
RTVSPost2010PropOp31
 70
     1
102
RTVSPost2010Prop32
280
     0
102
RTVSPost2010PropOp32
 70
     1
102
RTVSPost2010Prop33
280
     0
102
RTVSPost2010PropOp33
 70
     1
102
RTVSPost2010Prop34
280
     0
102
RTVSPost2010PropOp34
 70
     1
102
RTVSPost2010Prop35
280
     0
102
RTVSPost2010PropOp35
 70
     1
102
RTVSPost2010Prop36
280
     0
102
RTVSPost2010PropOp36
 70
     1
102
RTVSPost2010Prop37
 90
       50
102
RTVSPost2010PropOp37
 70
     1
102
RTVSPost2010Prop38
140
0.0
102
RTVSPost2010PropOp38
 70
     1
102
RTVSPost2010Prop39
140
1.0
102
RTVSPost2010PropOp39
 70
     1
102
RTVSPost2010Prop40
 90
        0
102
RTVSPost2010PropOp40
 70
     1
102
RTVSPost2010Prop41ColorIndex
 90
       18
102
RTVSPost2010Prop41ColorRGB
 90
        0
102
RTVSPost2010PropOp41
 70
     1
102
RTVSPost2010Prop42
 90
       50
102
RTVSPost2010PropOp42
 70
     1
102
RTVSPost2010Prop43
 90
        3
102
RTVSPost2010PropOp43
 70
     1
102
RTVSPost2010Prop44ColorIndex
 90
        5
102
RTVSPost2010Prop44ColorRGB
 90
      255
102
RTVSPost2010PropOp44
 70
     1
102
RTVSPost2010Prop45
280
     0
102
RTVSPost2010PropOp45
 70
     1
102
RTVSPost2010Prop46
 90
       50
102
RTVSPost2010PropOp46
 70
     1
102
RTVSPost2010Prop47
 90
       50
102
RTVSPost2010PropOp47
 70
     1
102
RTVSPost2010Prop48
 90
       50
102
RTVSPost2010PropOp48
 70
     1
102
RTVSPost2010Prop49
280
     0
102
RTVSPost2010PropOp49
 70
     1
102
RTVSPost2010Prop50
 90
       50
102
RTVSPost2010PropOp50
 70
     1
102
RTVSPost2010Prop51ColorIndex
 90
      256
102
RTVSPost2010Prop51ColorRGB
 90
-16777216
102
RTVSPost2010PropOp51
 70
     0
102
RTVSPost2010Prop52
140
1.0
102
RTVSPost2010PropOp52
 70
     0
102
RTVSPost2010Prop53
 90
        2
102
RTVSPost2010PropOp53
 70
     1
102
RTVSPost2010Prop54
  1
strokes_ogs.tif
102
RTVSPost2010PropOp54
 70
     1
102
RTVSPost2010Prop55
280
     0
102
RTVSPost2010PropOp55
 70
     1
102
RTVSPost2010Prop56
140
1.0
102
RTVSPost2010PropOp56
 70
     1
102
RTVSPost2010Prop57
140
1.0
102
RTVSPost2010PropOp57
 70
     1
  0
XRECORD
  5
EF
102
{ACAD_REACTORS
330
EE
102
}
330
EE
100
AcDbXrecord
280
     1
102
RTVSPost2010Prop28
280
     0
102
RTVSPost2010PropOp28
 70
     1
102
RTVSPost2010Prop29
280
     1
102
RTVSPost2010PropOp29
 70
     1
102
RTVSPost2010Prop30
280
     1
102
RTVSPost2010PropOp30
 70
     1
102
RTVSPost2010Prop31
280
     0
102
RTVSPost2010PropOp31
 70
     1
102
RTVSPost2010Prop32
280
     0
102
RTVSPost2010PropOp32
 70
     1
102
RTVSPost2010Prop33
280
     0
102
RTVSPost2010PropOp33
 70
     1
102
RTVSPost2010Prop34
280
     0
102
RTVSPost2010PropOp34
 70
     1
102
RTVSPost2010Prop35
280
     0
102
RTVSPost2010PropOp35
 70
     1
102
RTVSPost2010Prop36
280
     0
102
RTVSPost2010PropOp36
 70
     1
102
RTVSPost2010Prop37
 90
       50
102
RTVSPost2010PropOp37
 70
     1
102
RTVSPost2010Prop38
140
0.0
102
RTVSPost2010PropOp38
 70
     1
102
RTVSPost2010Prop39
140
1.0
102
RTVSPost2010PropOp39
 70
     1
102
RTVSPost2010Prop40
 90
        0
102
RTVSPost2010PropOp40
 70
     1
102
RTVSPost2010Prop41ColorIndex
 90
       18
102
RTVSPost2010Prop41ColorRGB
 90
        0
102
RTVSPost2010PropOp41
 70
     1
102
RTVSPost2010Prop42
 90
       50
102
RTVSPost2010PropOp42
 70
     1
102
RTVSPost2010Prop43
 90
        3
102
RTVSPost2010PropOp43
 70
     1
102
RTVSPost2010Prop44ColorIndex
 90
        5
102
RTVSPost2010Prop44ColorRGB
 90
      255
102
RTVSPost2010PropOp44
 70
     1
102
RTVSPost2010Prop45
280
     0
102
RTVSPost2010PropOp45
 70
     1
102
RTVSPost2010Prop46
 90
       50
102
RTVSPost2010PropOp46
 70
     1
102
RTVSPost2010Prop47
 90
       50
102
RTVSPost2010PropOp47
 70
     1
102
RTVSPost2010Prop48
 90
       50
102
RTVSPost2010PropOp48
 70
     1
102
RTVSPost2010Prop49
280
     0
102
RTVSPost2010PropOp49
 70
     1
102
RTVSPost2010Prop50
 90
       50
102
RTVSPost2010PropOp50
 70
     1
102
RTVSPost2010Prop51ColorIndex
 90
      256
102
RTVSPost2010Prop51ColorRGB
 90
-16777216
102
RTVSPost2010PropOp51
 70
     0
102
RTVSPost2010Prop52
140
1.0
102
RTVSPost2010PropOp52
 70
     0
102
RTVSPost2010Prop53
 90
        2
102
RTVSPost2010PropOp53
 70
     1
102
RTVSPost2010Prop54
  1
strokes_ogs.tif
102
RTVSPost2010PropOp54
 70
     1
102
RTVSPost2010Prop55
280
     0
102
RTVSPost2010PropOp55
 70
     1
102
RTVSPost2010Prop56
140
1.0
102
RTVSPost2010PropOp56
 70
     1
102
RTVSPost2010Prop57
140
1.0
102
RTVSPost2010PropOp57
 70
     1
  0
XRECORD
  5
F7
102
{ACAD_REACTORS
330
F6
102
}
330
F6
100
AcDbXrecord
280
     1
102
RTVSPost2010Prop28
280
     0
102
RTVSPost2010PropOp28
 70
     1
102
RTVSPost2010Prop29
280
     1
102
RTVSPost2010PropOp29
 70
     1
102
RTVSPost2010Prop30
280
     1
102
RTVSPost2010PropOp30
 70
     1
102
RTVSPost2010Prop31
280
     0
102
RTVSPost2010PropOp31
 70
     1
102
RTVSPost2010Prop32
280
     0
102
RTVSPost2010PropOp32
 70
     1
102
RTVSPost2010Prop33
280
     0
102
RTVSPost2010PropOp33
 70
     1
102
RTVSPost2010Prop34
280
     0
102
RTVSPost2010PropOp34
 70
     1
102
RTVSPost2010Prop35
280
     0
102
RTVSPost2010PropOp35
 70
     1
102
RTVSPost2010Prop36
280
     0
102
RTVSPost2010PropOp36
 70
     1
102
RTVSPost2010Prop37
 90
       50
102
RTVSPost2010PropOp37
 70
     1
102
RTVSPost2010Prop38
140
0.0
102
RTVSPost2010PropOp38
 70
     1
102
RTVSPost2010Prop39
140
1.0
102
RTVSPost2010PropOp39
 70
     1
102
RTVSPost2010Prop40
 90
        0
102
RTVSPost2010PropOp40
 70
     1
102
RTVSPost2010Prop41ColorIndex
 90
       18
102
RTVSPost2010Prop41ColorRGB
 90
        0
102
RTVSPost2010PropOp41
 70
     1
102
RTVSPost2010Prop42
 90
       50
102
RTVSPost2010PropOp42
 70
     1
102
RTVSPost2010Prop43
 90
        3
102
RTVSPost2010PropOp43
 70
     1
102
RTVSPost2010Prop44ColorIndex
 90
        5
102
RTVSPost2010Prop44ColorRGB
 90
      255
102
RTVSPost2010PropOp44
 70
     1
102
RTVSPost2010Prop45
280
     0
102
RTVSPost2010PropOp45
 70
     1
102
RTVSPost2010Prop46
 90
       50
102
RTVSPost2010PropOp46
 70
     1
102
RTVSPost2010Prop47
 90
       50
102
RTVSPost2010PropOp47
 70
     1
102
RTVSPost2010Prop48
 90
       50
102
RTVSPost2010PropOp48
 70
     1
102
RTVSPost2010Prop49
280
     0
102
RTVSPost2010PropOp49
 70
     1
102
RTVSPost2010Prop50
 90
       50
102
RTVSPost2010PropOp50
 70
     1
102
RTVSPost2010Prop51ColorIndex
 90
      256
102
RTVSPost2010Prop51ColorRGB
 90
-16777216
102
RTVSPost2010PropOp51
 70
     0
102
RTVSPost2010Prop52
140
1.0
102
RTVSPost2010PropOp52
 70
     0
102
RTVSPost2010Prop53
 90
        2
102
RTVSPost2010PropOp53
 70
     1
102
RTVSPost2010Prop54
  1
strokes_ogs.tif
102
RTVSPost2010PropOp54
 70
     1
102
RTVSPost2010Prop55
280
     0
102
RTVSPost2010PropOp55
 70
     1
102
RTVSPost2010Prop56
140
1.0
102
RTVSPost2010PropOp56
 70
     1
102
RTVSPost2010Prop57
140
1.0
102
RTVSPost2010PropOp57
 70
     1
  0
XRECORD
  5
E9
102
{ACAD_REACTORS
330
E8
102
}
330
E8
100
AcDbXrecord
280
     1
102
RTVSPost2010Prop28
280
     0
102
RTVSPost2010PropOp28
 70
     1
102
RTVSPost2010Prop29
280
     1
102
RTVSPost2010PropOp29
 70
     1
102
RTVSPost2010Prop30
280
     1
102
RTVSPost2010PropOp30
 70
     1
102
RTVSPost2010Prop31
280
     0
102
RTVSPost2010PropOp31
 70
     1
102
RTVSPost2010Prop32
280
     0
102
RTVSPost2010PropOp32
 70
     1
102
RTVSPost2010Prop33
280
     0
102
RTVSPost2010PropOp33
 70
     1
102
RTVSPost2010Prop34
280
     0
102
RTVSPost2010PropOp34
 70
     1
102
RTVSPost2010Prop35
280
     0
102
RTVSPost2010PropOp35
 70
     1
102
RTVSPost2010Prop36
280
     0
102
RTVSPost2010PropOp36
 70
     1
102
RTVSPost2010Prop37
 90
       50
102
RTVSPost2010PropOp37
 70
     1
102
RTVSPost2010Prop38
140
0.0
102
RTVSPost2010PropOp38
 70
     1
102
RTVSPost2010Prop39
140
1.0
102
RTVSPost2010PropOp39
 70
     1
102
RTVSPost2010Prop40
 90
        0
102
RTVSPost2010PropOp40
 70
     1
102
RTVSPost2010Prop41ColorIndex
 90
       18
102
RTVSPost2010Prop41ColorRGB
 90
        0
102
RTVSPost2010PropOp41
 70
     1
102
RTVSPost2010Prop42
 90
       50
102
RTVSPost2010PropOp42
 70
     1
102
RTVSPost2010Prop43
 90
        3
102
RTVSPost2010PropOp43
 70
     1
102
RTVSPost2010Prop44ColorIndex
 90
        5
102
RTVSPost2010Prop44ColorRGB
 90
      255
102
RTVSPost2010PropOp44
 70
     1
102
RTVSPost2010Prop45
280
     0
102
RTVSPost2010PropOp45
 70
     1
102
RTVSPost2010Prop46
 90
       50
102
RTVSPost2010PropOp46
 70
     1
102
RTVSPost2010Prop47
 90
       50
102
RTVSPost2010PropOp47
 70
     1
102
RTVSPost2010Prop48
 90
       50
102
RTVSPost2010PropOp48
 70
     1
102
RTVSPost2010Prop49
280
     0
102
RTVSPost2010PropOp49
 70
     1
102
RTVSPost2010Prop50
 90
       50
102
RTVSPost2010PropOp50
 70
     1
102
RTVSPost2010Prop51ColorIndex
 90
      256
102
RTVSPost2010Prop51ColorRGB
 90
-16777216
102
RTVSPost2010PropOp51
 70
     0
102
RTVSPost2010Prop52
140
1.0
102
RTVSPost2010PropOp52
 70
     0
102
RTVSPost2010Prop53
 90
        2
102
RTVSPost2010PropOp53
 70
     1
102
RTVSPost2010Prop54
  1
strokes_ogs.tif
102
RTVSPost2010PropOp54
 70
     1
102
RTVSPost2010Prop55
280
     0
102
RTVSPost2010PropOp55
 70
     1
102
RTVSPost2010Prop56
140
1.0
102
RTVSPost2010PropOp56
 70
     1
102
RTVSPost2010Prop57
140
1.0
102
RTVSPost2010PropOp57
 70
     1
  0
XRECORD
  5
ED
102
{ACAD_REACTORS
330
EC
102
}
330
EC
100
AcDbXrecord
280
     1
102
RTVSPost2010Prop28
280
     0
102
RTVSPost2010PropOp28
 70
     1
102
RTVSPost2010Prop29
280
     1
102
RTVSPost2010PropOp29
 70
     1
102
RTVSPost2010Prop30
280
     1
102
RTVSPost2010PropOp30
 70
     1
102
RTVSPost2010Prop31
280
     0
102
RTVSPost2010PropOp31
 70
     1
102
RTVSPost2010Prop32
280
     0
102
RTVSPost2010PropOp32
 70
     1
102
RTVSPost2010Prop33
280
     0
102
RTVSPost2010PropOp33
 70
     1
102
RTVSPost2010Prop34
280
     0
102
RTVSPost2010PropOp34
 70
     1
102
RTVSPost2010Prop35
280
     0
102
RTVSPost2010PropOp35
 70
     1
102
RTVSPost2010Prop36
280
     0
102
RTVSPost2010PropOp36
 70
     1
102
RTVSPost2010Prop37
 90
       50
102
RTVSPost2010PropOp37
 70
     1
102
RTVSPost2010Prop38
140
0.0
102
RTVSPost2010PropOp38
 70
     1
102
RTVSPost2010Prop39
140
1.0
102
RTVSPost2010PropOp39
 70
     1
102
RTVSPost2010Prop40
 90
        0
102
RTVSPost2010PropOp40
 70
     1
102
RTVSPost2010Prop41ColorIndex
 90
       18
102
RTVSPost2010Prop41ColorRGB
 90
        0
102
RTVSPost2010PropOp41
 70
     1
102
RTVSPost2010Prop42
 90
       50
102
RTVSPost2010PropOp42
 70
     1
102
RTVSPost2010Prop43
 90
        3
102
RTVSPost2010PropOp43
 70
     1
102
RTVSPost2010Prop44ColorIndex
 90
        5
102
RTVSPost2010Prop44ColorRGB
 90
      255
102
RTVSPost2010PropOp44
 70
     1
102
RTVSPost2010Prop45
280
     0
102
RTVSPost2010PropOp45
 70
     1
102
RTVSPost2010Prop46
 90
       50
102
RTVSPost2010PropOp46
 70
     1
102
RTVSPost2010Prop47
 90
       50
102
RTVSPost2010PropOp47
 70
     1
102
RTVSPost2010Prop48
 90
       50
102
RTVSPost2010PropOp48
 70
     1
102
RTVSPost2010Prop49
280
     0
102
RTVSPost2010PropOp49
 70
     1
102
RTVSPost2010Prop50
 90
       50
102
RTVSPost2010PropOp50
 70
     1
102
RTVSPost2010Prop51ColorIndex
 90
      256
102
RTVSPost2010Prop51ColorRGB
 90
-16777216
102
RTVSPost2010PropOp51
 70
     0
102
RTVSPost2010Prop52
140
1.0
102
RTVSPost2010PropOp52
 70
     0
102
RTVSPost2010Prop53
 90
        2
102
RTVSPost2010PropOp53
 70
     1
102
RTVSPost2010Prop54
  1
strokes_ogs.tif
102
RTVSPost2010PropOp54
 70
     1
102
RTVSPost2010Prop55
280
     0
102
RTVSPost2010PropOp55
 70
     1
102
RTVSPost2010Prop56
140
1.0
102
RTVSPost2010PropOp56
 70
     1
102
RTVSPost2010Prop57
140
1.0
102
RTVSPost2010PropOp57
 70
     1
  0
XRECORD
  5
107
102
{ACAD_REACTORS
330
106
102
}
330
106
100
AcDbXrecord
280
     1
102
RTVSPost2010Prop28
280
     0
102
RTVSPost2010PropOp28
 70
     0
102
RTVSPost2010Prop29
280
     1
102
RTVSPost2010PropOp29
 70
     0
102
RTVSPost2010Prop30
280
     1
102
RTVSPost2010PropOp30
 70
     0
102
RTVSPost2010Prop31
280
     0
102
RTVSPost2010PropOp31
 70
     0
102
RTVSPost2010Prop32
280
     0
102
RTVSPost2010PropOp32
 70
     0
102
RTVSPost2010Prop33
280
     0
102
RTVSPost2010PropOp33
 70
     0
102
RTVSPost2010Prop34
280
     0
102
RTVSPost2010PropOp34
 70
     0
102
RTVSPost2010Prop35
280
     0
102
RTVSPost2010PropOp35
 70
     0
102
RTVSPost2010Prop36
280
     0
102
RTVSPost2010PropOp36
 70
     0
102
RTVSPost2010Prop37
 90
       50
102
RTVSPost2010PropOp37
 70
     0
102
RTVSPost2010Prop38
140
0.0
102
RTVSPost2010PropOp38
 70
     0
102
RTVSPost2010Prop39
140
1.0
102
RTVSPost2010PropOp39
 70
     0
102
RTVSPost2010Prop40
 90
        0
102
RTVSPost2010PropOp40
 70
     0
102
RTVSPost2010Prop41ColorIndex
 90
       18
102
RTVSPost2010Prop41ColorRGB
 90
        0
102
RTVSPost2010PropOp41
 70
     0
102
RTVSPost2010Prop42
 90
       50
102
RTVSPost2010PropOp42
 70
     0
102
RTVSPost2010Prop43
 90
        3
102
RTVSPost2010PropOp43
 70
     0
102
RTVSPost2010Prop44ColorIndex
 90
        5
102
RTVSPost2010Prop44ColorRGB
 90
      255
102
RTVSPost2010PropOp44
 70
     0
102
RTVSPost2010Prop45
280
     0
102
RTVSPost2010PropOp45
 70
     0
102
RTVSPost2010Prop46
 90
       50
102
RTVSPost2010PropOp46
 70
     0
102
RTVSPost2010Prop47
 90
       50
102
RTVSPost2010PropOp47
 70
     0
102
RTVSPost2010Prop48
 90
       50
102
RTVSPost2010PropOp48
 70
     0
102
RTVSPost2010Prop49
280
     0
102
RTVSPost2010PropOp49
 70
     0
102
RTVSPost2010Prop50
 90
       50
102
RTVSPost2010PropOp50
 70
     0
102
RTVSPost2010Prop51ColorIndex
 90
      256
102
RTVSPost2010Prop51ColorRGB
 90
-16777216
102
RTVSPost2010PropOp51
 70
     0
102
RTVSPost2010Prop52
140
1.0
102
RTVSPost2010PropOp52
 70
     0
102
RTVSPost2010Prop53
 90
        2
102
RTVSPost2010PropOp53
 70
     0
102
RTVSPost2010Prop54
  1
strokes_ogs.tif
102
RTVSPost2010PropOp54
 70
     0
102
RTVSPost2010Prop55
280
     0
102
RTVSPost2010PropOp55
 70
     0
102
RTVSPost2010Prop56
140
1.0
102
RTVSPost2010PropOp56
 70
     0
102
RTVSPost2010Prop57
140
1.0
102
RTVSPost2010PropOp57
 70
     0
  0
XRECORD
  5
F5
102
{ACAD_REACTORS
330
F4
102
}
330
F4
100
AcDbXrecord
280
     1
102
RTVSPost2010Prop28
280
     0
102
RTVSPost2010PropOp28
 70
     1
102
RTVSPost2010Prop29
280
     1
102
RTVSPost2010PropOp29
 70
     1
102
RTVSPost2010Prop30
280
     1
102
RTVSPost2010PropOp30
 70
     1
102
RTVSPost2010Prop31
280
     0
102
RTVSPost2010PropOp31
 70
     1
102
RTVSPost2010Prop32
280
     0
102
RTVSPost2010PropOp32
 70
     1
102
RTVSPost2010Prop33
280
     0
102
RTVSPost2010PropOp33
 70
     1
102
RTVSPost2010Prop34
280
     0
102
RTVSPost2010PropOp34
 70
     1
102
RTVSPost2010Prop35
280
     0
102
RTVSPost2010PropOp35
 70
     1
102
RTVSPost2010Prop36
280
     0
102
RTVSPost2010PropOp36
 70
     1
102
RTVSPost2010Prop37
 90
       50
102
RTVSPost2010PropOp37
 70
     1
102
RTVSPost2010Prop38
140
0.0
102
RTVSPost2010PropOp38
 70
     1
102
RTVSPost2010Prop39
140
1.0
102
RTVSPost2010PropOp39
 70
     1
102
RTVSPost2010Prop40
 90
        0
102
RTVSPost2010PropOp40
 70
     1
102
RTVSPost2010Prop41ColorIndex
 90
       18
102
RTVSPost2010Prop41ColorRGB
 90
        0
102
RTVSPost2010PropOp41
 70
     1
102
RTVSPost2010Prop42
 90
       50
102
RTVSPost2010PropOp42
 70
     1
102
RTVSPost2010Prop43
 90
        3
102
RTVSPost2010PropOp43
 70
     1
102
RTVSPost2010Prop44ColorIndex
 90
        5
102
RTVSPost2010Prop44ColorRGB
 90
      255
102
RTVSPost2010PropOp44
 70
     1
102
RTVSPost2010Prop45
280
     0
102
RTVSPost2010PropOp45
 70
     1
102
RTVSPost2010Prop46
 90
       50
102
RTVSPost2010PropOp46
 70
     1
102
RTVSPost2010Prop47
 90
       50
102
RTVSPost2010PropOp47
 70
     1
102
RTVSPost2010Prop48
 90
       50
102
RTVSPost2010PropOp48
 70
     1
102
RTVSPost2010Prop49
280
     0
102
RTVSPost2010PropOp49
 70
     1
102
RTVSPost2010Prop50
 90
       50
102
RTVSPost2010PropOp50
 70
     1
102
RTVSPost2010Prop51ColorIndex
 90
      256
102
RTVSPost2010Prop51ColorRGB
 90
-16777216
102
RTVSPost2010PropOp51
 70
     0
102
RTVSPost2010Prop52
140
1.0
102
RTVSPost2010PropOp52
 70
     0
102
RTVSPost2010Prop53
 90
        2
102
RTVSPost2010PropOp53
 70
     1
102
RTVSPost2010Prop54
  1
strokes_ogs.tif
102
RTVSPost2010PropOp54
 70
     1
102
RTVSPost2010Prop55
280
     0
102
RTVSPost2010PropOp55
 70
     1
102
RTVSPost2010Prop56
140
1.0
102
RTVSPost2010PropOp56
 70
     1
102
RTVSPost2010Prop57
140
1.0
102
RTVSPost2010PropOp57
 70
     1
  0
XRECORD
  5
D9
102
{ACAD_REACTORS
330
D8
102
}
330
D8
100
AcDbXrecord
280
     1
102
RTVSPost2010Prop28
280
     0
102
RTVSPost2010PropOp28
 70
     1
102
RTVSPost2010Prop29
280
     1
102
RTVSPost2010PropOp29
 70
     1
102
RTVSPost2010Prop30
280
     1
102
RTVSPost2010PropOp30
 70
     1
102
RTVSPost2010Prop31
280
     0
102
RTVSPost2010PropOp31
 70
     1
102
RTVSPost2010Prop32
280
     0
102
RTVSPost2010PropOp32
 70
     1
102
RTVSPost2010Prop33
280
     0
102
RTVSPost2010PropOp33
 70
     1
102
RTVSPost2010Prop34
280
     0
102
RTVSPost2010PropOp34
 70
     1
102
RTVSPost2010Prop35
280
     0
102
RTVSPost2010PropOp35
 70
     1
102
RTVSPost2010Prop36
280
     0
102
RTVSPost2010PropOp36
 70
     1
102
RTVSPost2010Prop37
 90
       50
102
RTVSPost2010PropOp37
 70
     1
102
RTVSPost2010Prop38
140
0.0
102
RTVSPost2010PropOp38
 70
     1
102
RTVSPost2010Prop39
140
1.0
102
RTVSPost2010PropOp39
 70
     1
102
RTVSPost2010Prop40
 90
        0
102
RTVSPost2010PropOp40
 70
     1
102
RTVSPost2010Prop41ColorIndex
 90
       18
102
RTVSPost2010Prop41ColorRGB
 90
        0
102
RTVSPost2010PropOp41
 70
     1
102
RTVSPost2010Prop42
 90
       50
102
RTVSPost2010PropOp42
 70
     1
102
RTVSPost2010Prop43
 90
        3
102
RTVSPost2010PropOp43
 70
     1
102
RTVSPost2010Prop44ColorIndex
 90
        5
102
RTVSPost2010Prop44ColorRGB
 90
      255
102
RTVSPost2010PropOp44
 70
     1
102
RTVSPost2010Prop45
280
     0
102
RTVSPost2010PropOp45
 70
     1
102
RTVSPost2010Prop46
 90
       50
102
RTVSPost2010PropOp46
 70
     1
102
RTVSPost2010Prop47
 90
       50
102
RTVSPost2010PropOp47
 70
     1
102
RTVSPost2010Prop48
 90
       50
102
RTVSPost2010PropOp48
 70
     1
102
RTVSPost2010Prop49
280
     0
102
RTVSPost2010PropOp49
 70
     1
102
RTVSPost2010Prop50
 90
       50
102
RTVSPost2010PropOp50
 70
     1
102
RTVSPost2010Prop51ColorIndex
 90
      256
102
RTVSPost2010Prop51ColorRGB
 90
-16777216
102
RTVSPost2010PropOp51
 70
     0
102
RTVSPost2010Prop52
140
1.0
102
RTVSPost2010PropOp52
 70
     0
102
RTVSPost2010Prop53
 90
        2
102
RTVSPost2010PropOp53
 70
     1
102
RTVSPost2010Prop54
  1
strokes_ogs.tif
102
RTVSPost2010PropOp54
 70
     1
102
RTVSPost2010Prop55
280
     0
102
RTVSPost2010PropOp55
 70
     1
102
RTVSPost2010Prop56
140
1.0
102
RTVSPost2010PropOp56
 70
     1
102
RTVSPost2010Prop57
140
1.0
102
RTVSPost2010PropOp57
 70
     1
  0
XRECORD
  5
DB
102
{ACAD_REACTORS
330
DA
102
}
330
DA
100
AcDbXrecord
280
     1
102
RTVSPost2010Prop28
280
     0
102
RTVSPost2010PropOp28
 70
     1
102
RTVSPost2010Prop29
280
     1
102
RTVSPost2010PropOp29
 70
     1
102
RTVSPost2010Prop30
280
     1
102
RTVSPost2010PropOp30
 70
     1
102
RTVSPost2010Prop31
280
     0
102
RTVSPost2010PropOp31
 70
     1
102
RTVSPost2010Prop32
280
     0
102
RTVSPost2010PropOp32
 70
     1
102
RTVSPost2010Prop33
280
     0
102
RTVSPost2010PropOp33
 70
     1
102
RTVSPost2010Prop34
280
     0
102
RTVSPost2010PropOp34
 70
     1
102
RTVSPost2010Prop35
280
     0
102
RTVSPost2010PropOp35
 70
     1
102
RTVSPost2010Prop36
280
     0
102
RTVSPost2010PropOp36
 70
     1
102
RTVSPost2010Prop37
 90
       50
102
RTVSPost2010PropOp37
 70
     1
102
RTVSPost2010Prop38
140
0.0
102
RTVSPost2010PropOp38
 70
     1
102
RTVSPost2010Prop39
140
1.0
102
RTVSPost2010PropOp39
 70
     1
102
RTVSPost2010Prop40
 90
        0
102
RTVSPost2010PropOp40
 70
     1
102
RTVSPost2010Prop41ColorIndex
 90
       18
102
RTVSPost2010Prop41ColorRGB
 90
        0
102
RTVSPost2010PropOp41
 70
     1
102
RTVSPost2010Prop42
 90
       50
102
RTVSPost2010PropOp42
 70
     1
102
RTVSPost2010Prop43
 90
        3
102
RTVSPost2010PropOp43
 70
     1
102
RTVSPost2010Prop44ColorIndex
 90
        5
102
RTVSPost2010Prop44ColorRGB
 90
      255
102
RTVSPost2010PropOp44
 70
     1
102
RTVSPost2010Prop45
280
     0
102
RTVSPost2010PropOp45
 70
     1
102
RTVSPost2010Prop46
 90
       50
102
RTVSPost2010PropOp46
 70
     1
102
RTVSPost2010Prop47
 90
       50
102
RTVSPost2010PropOp47
 70
     1
102
RTVSPost2010Prop48
 90
       50
102
RTVSPost2010PropOp48
 70
     1
102
RTVSPost2010Prop49
280
     0
102
RTVSPost2010PropOp49
 70
     1
102
RTVSPost2010Prop50
 90
       50
102
RTVSPost2010PropOp50
 70
     1
102
RTVSPost2010Prop51ColorIndex
 90
      256
102
RTVSPost2010Prop51ColorRGB
 90
-16777216
102
RTVSPost2010PropOp51
 70
     0
102
RTVSPost2010Prop52
140
1.0
102
RTVSPost2010PropOp52
 70
     0
102
RTVSPost2010Prop53
 90
        2
102
RTVSPost2010PropOp53
 70
     1
102
RTVSPost2010Prop54
  1
strokes_ogs.tif
102
RTVSPost2010PropOp54
 70
     1
102
RTVSPost2010Prop55
280
     0
102
RTVSPost2010PropOp55
 70
     1
102
RTVSPost2010Prop56
140
1.0
102
RTVSPost2010PropOp56
 70
     1
102
RTVSPost2010Prop57
140
1.0
102
RTVSPost2010PropOp57
 70
     1
  0
XRECORD
  5
DD
102
{ACAD_REACTORS
330
DC
102
}
330
DC
100
AcDbXrecord
280
     1
102
RTVSPost2010Prop28
280
     0
102
RTVSPost2010PropOp28
 70
     1
102
RTVSPost2010Prop29
280
     1
102
RTVSPost2010PropOp29
 70
     1
102
RTVSPost2010Prop30
280
     1
102
RTVSPost2010PropOp30
 70
     1
102
RTVSPost2010Prop31
280
     0
102
RTVSPost2010PropOp31
 70
     1
102
RTVSPost2010Prop32
280
     0
102
RTVSPost2010PropOp32
 70
     1
102
RTVSPost2010Prop33
280
     0
102
RTVSPost2010PropOp33
 70
     1
102
RTVSPost2010Prop34
280
     0
102
RTVSPost2010PropOp34
 70
     1
102
RTVSPost2010Prop35
280
     0
102
RTVSPost2010PropOp35
 70
     1
102
RTVSPost2010Prop36
280
     0
102
RTVSPost2010PropOp36
 70
     1
102
RTVSPost2010Prop37
 90
       50
102
RTVSPost2010PropOp37
 70
     1
102
RTVSPost2010Prop38
140
0.0
102
RTVSPost2010PropOp38
 70
     1
102
RTVSPost2010Prop39
140
1.0
102
RTVSPost2010PropOp39
 70
     1
102
RTVSPost2010Prop40
 90
        0
102
RTVSPost2010PropOp40
 70
     1
102
RTVSPost2010Prop41ColorIndex
 90
       18
102
RTVSPost2010Prop41ColorRGB
 90
        0
102
RTVSPost2010PropOp41
 70
     1
102
RTVSPost2010Prop42
 90
       50
102
RTVSPost2010PropOp42
 70
     1
102
RTVSPost2010Prop43
 90
        3
102
RTVSPost2010PropOp43
 70
     1
102
RTVSPost2010Prop44ColorIndex
 90
        5
102
RTVSPost2010Prop44ColorRGB
 90
      255
102
RTVSPost2010PropOp44
 70
     1
102
RTVSPost2010Prop45
280
     0
102
RTVSPost2010PropOp45
 70
     1
102
RTVSPost2010Prop46
 90
       50
102
RTVSPost2010PropOp46
 70
     1
102
RTVSPost2010Prop47
 90
       50
102
RTVSPost2010PropOp47
 70
     1
102
RTVSPost2010Prop48
 90
       50
102
RTVSPost2010PropOp48
 70
     1
102
RTVSPost2010Prop49
280
     0
102
RTVSPost2010PropOp49
 70
     1
102
RTVSPost2010Prop50
 90
       50
102
RTVSPost2010PropOp50
 70
     1
102
RTVSPost2010Prop51ColorIndex
 90
      256
102
RTVSPost2010Prop51ColorRGB
 90
-16777216
102
RTVSPost2010PropOp51
 70
     0
102
RTVSPost2010Prop52
140
1.0
102
RTVSPost2010PropOp52
 70
     0
102
RTVSPost2010Prop53
 90
        2
102
RTVSPost2010PropOp53
 70
     1
102
RTVSPost2010Prop54
  1
strokes_ogs.tif
102
RTVSPost2010PropOp54
 70
     1
102
RTVSPost2010Prop55
280
     0
102
RTVSPost2010PropOp55
 70
     1
102
RTVSPost2010Prop56
140
1.0
102
RTVSPost2010PropOp56
 70
     1
102
RTVSPost2010Prop57
140
1.0
102
RTVSPost2010PropOp57
 70
     1
  0
XRECORD
  5
DF
102
{ACAD_REACTORS
330
DE
102
}
330
DE
100
AcDbXrecord
280
     1
102
RTVSPost2010Prop28
280
     0
102
RTVSPost2010PropOp28
 70
     1
102
RTVSPost2010Prop29
280
     1
102
RTVSPost2010PropOp29
 70
     1
102
RTVSPost2010Prop30
280
     1
102
RTVSPost2010PropOp30
 70
     1
102
RTVSPost2010Prop31
280
     0
102
RTVSPost2010PropOp31
 70
     1
102
RTVSPost2010Prop32
280
     0
102
RTVSPost2010PropOp32
 70
     1
102
RTVSPost2010Prop33
280
     0
102
RTVSPost2010PropOp33
 70
     1
102
RTVSPost2010Prop34
280
     0
102
RTVSPost2010PropOp34
 70
     1
102
RTVSPost2010Prop35
280
     0
102
RTVSPost2010PropOp35
 70
     1
102
RTVSPost2010Prop36
280
     0
102
RTVSPost2010PropOp36
 70
     1
102
RTVSPost2010Prop37
 90
       50
102
RTVSPost2010PropOp37
 70
     1
102
RTVSPost2010Prop38
140
0.0
102
RTVSPost2010PropOp38
 70
     1
102
RTVSPost2010Prop39
140
1.0
102
RTVSPost2010PropOp39
 70
     1
102
RTVSPost2010Prop40
 90
        0
102
RTVSPost2010PropOp40
 70
     1
102
RTVSPost2010Prop41ColorIndex
 90
       18
102
RTVSPost2010Prop41ColorRGB
 90
        0
102
RTVSPost2010PropOp41
 70
     1
102
RTVSPost2010Prop42
 90
       50
102
RTVSPost2010PropOp42
 70
     1
102
RTVSPost2010Prop43
 90
        3
102
RTVSPost2010PropOp43
 70
     1
102
RTVSPost2010Prop44ColorIndex
 90
        5
102
RTVSPost2010Prop44ColorRGB
 90
      255
102
RTVSPost2010PropOp44
 70
     1
102
RTVSPost2010Prop45
280
     0
102
RTVSPost2010PropOp45
 70
     1
102
RTVSPost2010Prop46
 90
       50
102
RTVSPost2010PropOp46
 70
     1
102
RTVSPost2010Prop47
 90
       50
102
RTVSPost2010PropOp47
 70
     1
102
RTVSPost2010Prop48
 90
       50
102
RTVSPost2010PropOp48
 70
     1
102
RTVSPost2010Prop49
280
     0
102
RTVSPost2010PropOp49
 70
     1
102
RTVSPost2010Prop50
 90
       50
102
RTVSPost2010PropOp50
 70
     1
102
RTVSPost2010Prop51ColorIndex
 90
      256
102
RTVSPost2010Prop51ColorRGB
 90
-16777216
102
RTVSPost2010PropOp51
 70
     0
102
RTVSPost2010Prop52
140
1.0
102
RTVSPost2010PropOp52
 70
     0
102
RTVSPost2010Prop53
 90
        2
102
RTVSPost2010PropOp53
 70
     1
102
RTVSPost2010Prop54
  1
strokes_ogs.tif
102
RTVSPost2010PropOp54
 70
     1
102
RTVSPost2010Prop55
280
     0
102
RTVSPost2010PropOp55
 70
     1
102
RTVSPost2010Prop56
140
1.0
102
RTVSPost2010PropOp56
 70
     1
102
RTVSPost2010Prop57
140
1.0
102
RTVSPost2010PropOp57
 70
     1
  0
XRECORD
  5
E7
102
{ACAD_REACTORS
330
E6
102
}
330
E6
100
AcDbXrecord
280
     1
102
RTVSPost2010Prop28
280
     0
102
RTVSPost2010PropOp28
 70
     1
102
RTVSPost2010Prop29
280
     1
102
RTVSPost2010PropOp29
 70
     1
102
RTVSPost2010Prop30
280
     1
102
RTVSPost2010PropOp30
 70
     1
102
RTVSPost2010Prop31
280
     0
102
RTVSPost2010PropOp31
 70
     1
102
RTVSPost2010Prop32
280
     0
102
RTVSPost2010PropOp32
 70
     1
102
RTVSPost2010Prop33
280
     0
102
RTVSPost2010PropOp33
 70
     1
102
RTVSPost2010Prop34
280
     0
102
RTVSPost2010PropOp34
 70
     1
102
RTVSPost2010Prop35
280
     0
102
RTVSPost2010PropOp35
 70
     1
102
RTVSPost2010Prop36
280
     0
102
RTVSPost2010PropOp36
 70
     1
102
RTVSPost2010Prop37
 90
       50
102
RTVSPost2010PropOp37
 70
     1
102
RTVSPost2010Prop38
140
0.0
102
RTVSPost2010PropOp38
 70
     1
102
RTVSPost2010Prop39
140
1.0
102
RTVSPost2010PropOp39
 70
     1
102
RTVSPost2010Prop40
 90
        0
102
RTVSPost2010PropOp40
 70
     1
102
RTVSPost2010Prop41ColorIndex
 90
       18
102
RTVSPost2010Prop41ColorRGB
 90
        0
102
RTVSPost2010PropOp41
 70
     1
102
RTVSPost2010Prop42
 90
       50
102
RTVSPost2010PropOp42
 70
     1
102
RTVSPost2010Prop43
 90
        3
102
RTVSPost2010PropOp43
 70
     1
102
RTVSPost2010Prop44ColorIndex
 90
        5
102
RTVSPost2010Prop44ColorRGB
 90
      255
102
RTVSPost2010PropOp44
 70
     1
102
RTVSPost2010Prop45
280
     0
102
RTVSPost2010PropOp45
 70
     1
102
RTVSPost2010Prop46
 90
       50
102
RTVSPost2010PropOp46
 70
     1
102
RTVSPost2010Prop47
 90
       50
102
RTVSPost2010PropOp47
 70
     1
102
RTVSPost2010Prop48
 90
       50
102
RTVSPost2010PropOp48
 70
     1
102
RTVSPost2010Prop49
280
     0
102
RTVSPost2010PropOp49
 70
     1
102
RTVSPost2010Prop50
 90
       50
102
RTVSPost2010PropOp50
 70
     1
102
RTVSPost2010Prop51ColorIndex
 90
      256
102
RTVSPost2010Prop51ColorRGB
 90
-16777216
102
RTVSPost2010PropOp51
 70
     0
102
RTVSPost2010Prop52
140
1.0
102
RTVSPost2010PropOp52
 70
     0
102
RTVSPost2010Prop53
 90
        2
102
RTVSPost2010PropOp53
 70
     1
102
RTVSPost2010Prop54
  1
strokes_ogs.tif
102
RTVSPost2010PropOp54
 70
     1
102
RTVSPost2010Prop55
280
     0
102
RTVSPost2010PropOp55
 70
     1
102
RTVSPost2010Prop56
140
1.0
102
RTVSPost2010PropOp56
 70
     1
102
RTVSPost2010Prop57
140
1.0
102
RTVSPost2010PropOp57
 70
     1
  0
XRECORD
  5
103
102
{ACAD_REACTORS
330
102
102
}
330
102
100
AcDbXrecord
280
     1
102
RTVSPost2010Prop28
280
     0
102
RTVSPost2010PropOp28
 70
     0
102
RTVSPost2010Prop29
280
     1
102
RTVSPost2010PropOp29
 70
     0
102
RTVSPost2010Prop30
280
     1
102
RTVSPost2010PropOp30
 70
     0
102
RTVSPost2010Prop31
280
     0
102
RTVSPost2010PropOp31
 70
     0
102
RTVSPost2010Prop32
280
     0
102
RTVSPost2010PropOp32
 70
     0
102
RTVSPost2010Prop33
280
     0
102
RTVSPost2010PropOp33
 70
     0
102
RTVSPost2010Prop34
280
     0
102
RTVSPost2010PropOp34
 70
     0
102
RTVSPost2010Prop35
280
     0
102
RTVSPost2010PropOp35
 70
     0
102
RTVSPost2010Prop36
280
     0
102
RTVSPost2010PropOp36
 70
     0
102
RTVSPost2010Prop37
 90
       50
102
RTVSPost2010PropOp37
 70
     0
102
RTVSPost2010Prop38
140
0.0
102
RTVSPost2010PropOp38
 70
     0
102
RTVSPost2010Prop39
140
1.0
102
RTVSPost2010PropOp39
 70
     0
102
RTVSPost2010Prop40
 90
        0
102
RTVSPost2010PropOp40
 70
     0
102
RTVSPost2010Prop41ColorIndex
 90
       18
102
RTVSPost2010Prop41ColorRGB
 90
        0
102
RTVSPost2010PropOp41
 70
     0
102
RTVSPost2010Prop42
 90
       50
102
RTVSPost2010PropOp42
 70
     0
102
RTVSPost2010Prop43
 90
        3
102
RTVSPost2010PropOp43
 70
     0
102
RTVSPost2010Prop44ColorIndex
 90
        5
102
RTVSPost2010Prop44ColorRGB
 90
      255
102
RTVSPost2010PropOp44
 70
     0
102
RTVSPost2010Prop45
280
     0
102
RTVSPost2010PropOp45
 70
     0
102
RTVSPost2010Prop46
 90
       50
102
RTVSPost2010PropOp46
 70
     0
102
RTVSPost2010Prop47
 90
       50
102
RTVSPost2010PropOp47
 70
     0
102
RTVSPost2010Prop48
 90
       50
102
RTVSPost2010PropOp48
 70
     0
102
RTVSPost2010Prop49
280
     0
102
RTVSPost2010PropOp49
 70
     0
102
RTVSPost2010Prop50
 90
       50
102
RTVSPost2010PropOp50
 70
     0
102
RTVSPost2010Prop51ColorIndex
 90
      256
102
RTVSPost2010Prop51ColorRGB
 90
-16777216
102
RTVSPost2010PropOp51
 70
     0
102
RTVSPost2010Prop52
140
1.0
102
RTVSPost2010PropOp52
 70
     0
102
RTVSPost2010Prop53
 90
        2
102
RTVSPost2010PropOp53
 70
     0
102
RTVSPost2010Prop54
  1
strokes_ogs.tif
102
RTVSPost2010PropOp54
 70
     0
102
RTVSPost2010Prop55
280
     0
102
RTVSPost2010PropOp55
 70
     0
102
RTVSPost2010Prop56
140
1.0
102
RTVSPost2010PropOp56
 70
     0
102
RTVSPost2010Prop57
140
1.0
102
RTVSPost2010PropOp57
 70
     0
  0
XRECORD
  5
F3
102
{ACAD_REACTORS
330
F2
102
}
330
F2
100
AcDbXrecord
280
     1
102
RTVSPost2010Prop28
280
     0
102
RTVSPost2010PropOp28
 70
     1
102
RTVSPost2010Prop29
280
     1
102
RTVSPost2010PropOp29
 70
     1
102
RTVSPost2010Prop30
280
     1
102
RTVSPost2010PropOp30
 70
     1
102
RTVSPost2010Prop31
280
     0
102
RTVSPost2010PropOp31
 70
     1
102
RTVSPost2010Prop32
280
     0
102
RTVSPost2010PropOp32
 70
     1
102
RTVSPost2010Prop33
280
     0
102
RTVSPost2010PropOp33
 70
     1
102
RTVSPost2010Prop34
280
     0
102
RTVSPost2010PropOp34
 70
     1
102
RTVSPost2010Prop35
280
     0
102
RTVSPost2010PropOp35
 70
     1
102
RTVSPost2010Prop36
280
     0
102
RTVSPost2010PropOp36
 70
     1
102
RTVSPost2010Prop37
 90
       50
102
RTVSPost2010PropOp37
 70
     1
102
RTVSPost2010Prop38
140
0.0
102
RTVSPost2010PropOp38
 70
     1
102
RTVSPost2010Prop39
140
1.0
102
RTVSPost2010PropOp39
 70
     1
102
RTVSPost2010Prop40
 90
        0
102
RTVSPost2010PropOp40
 70
     1
102
RTVSPost2010Prop41ColorIndex
 90
       18
102
RTVSPost2010Prop41ColorRGB
 90
        0
102
RTVSPost2010PropOp41
 70
     1
102
RTVSPost2010Prop42
 90
       50
102
RTVSPost2010PropOp42
 70
     1
102
RTVSPost2010Prop43
 90
        3
102
RTVSPost2010PropOp43
 70
     1
102
RTVSPost2010Prop44ColorIndex
 90
        5
102
RTVSPost2010Prop44ColorRGB
 90
      255
102
RTVSPost2010PropOp44
 70
     1
102
RTVSPost2010Prop45
280
     0
102
RTVSPost2010PropOp45
 70
     1
102
RTVSPost2010Prop46
 90
       50
102
RTVSPost2010PropOp46
 70
     1
102
RTVSPost2010Prop47
 90
       50
102
RTVSPost2010PropOp47
 70
     1
102
RTVSPost2010Prop48
 90
       50
102
RTVSPost2010PropOp48
 70
     1
102
RTVSPost2010Prop49
280
     0
102
RTVSPost2010PropOp49
 70
     1
102
RTVSPost2010Prop50
 90
       50
102
RTVSPost2010PropOp50
 70
     1
102
RTVSPost2010Prop51ColorIndex
 90
      256
102
RTVSPost2010Prop51ColorRGB
 90
-16777216
102
RTVSPost2010PropOp51
 70
     0
102
RTVSPost2010Prop52
140
1.0
102
RTVSPost2010PropOp52
 70
     0
102
RTVSPost2010Prop53
 90
        2
102
RTVSPost2010PropOp53
 70
     1
102
RTVSPost2010Prop54
  1
strokes_ogs.tif
102
RTVSPost2010PropOp54
 70
     1
102
RTVSPost2010Prop55
280
     0
102
RTVSPost2010PropOp55
 70
     1
102
RTVSPost2010Prop56
140
1.0
102
RTVSPost2010PropOp56
 70
     1
102
RTVSPost2010Prop57
140
1.0
102
RTVSPost2010PropOp57
 70
     1
  0
XRECORD
  5
105
102
{ACAD_REACTORS
330
104
102
}
330
104
100
AcDbXrecord
280
     1
102
RTVSPost2010Prop28
280
     0
102
RTVSPost2010PropOp28
 70
     0
102
RTVSPost2010Prop29
280
     1
102
RTVSPost2010PropOp29
 70
     0
102
RTVSPost2010Prop30
280
     1
102
RTVSPost2010PropOp30
 70
     0
102
RTVSPost2010Prop31
280
     0
102
RTVSPost2010PropOp31
 70
     0
102
RTVSPost2010Prop32
280
     0
102
RTVSPost2010PropOp32
 70
     0
102
RTVSPost2010Prop33
280
     0
102
RTVSPost2010PropOp33
 70
     0
102
RTVSPost2010Prop34
280
     0
102
RTVSPost2010PropOp34
 70
     0
102
RTVSPost2010Prop35
280
     0
102
RTVSPost2010PropOp35
 70
     0
102
RTVSPost2010Prop36
280
     0
102
RTVSPost2010PropOp36
 70
     0
102
RTVSPost2010Prop37
 90
       50
102
RTVSPost2010PropOp37
 70
     0
102
RTVSPost2010Prop38
140
0.0
102
RTVSPost2010PropOp38
 70
     0
102
RTVSPost2010Prop39
140
1.0
102
RTVSPost2010PropOp39
 70
     0
102
RTVSPost2010Prop40
 90
        0
102
RTVSPost2010PropOp40
 70
     0
102
RTVSPost2010Prop41ColorIndex
 90
       18
102
RTVSPost2010Prop41ColorRGB
 90
        0
102
RTVSPost2010PropOp41
 70
     0
102
RTVSPost2010Prop42
 90
       50
102
RTVSPost2010PropOp42
 70
     0
102
RTVSPost2010Prop43
 90
        3
102
RTVSPost2010PropOp43
 70
     0
102
RTVSPost2010Prop44ColorIndex
 90
        5
102
RTVSPost2010Prop44ColorRGB
 90
      255
102
RTVSPost2010PropOp44
 70
     0
102
RTVSPost2010Prop45
280
     0
102
RTVSPost2010PropOp45
 70
     0
102
RTVSPost2010Prop46
 90
       50
102
RTVSPost2010PropOp46
 70
     0
102
RTVSPost2010Prop47
 90
       50
102
RTVSPost2010PropOp47
 70
     0
102
RTVSPost2010Prop48
 90
       50
102
RTVSPost2010PropOp48
 70
     0
102
RTVSPost2010Prop49
280
     0
102
RTVSPost2010PropOp49
 70
     0
102
RTVSPost2010Prop50
 90
       50
102
RTVSPost2010PropOp50
 70
     0
102
RTVSPost2010Prop51ColorIndex
 90
      256
102
RTVSPost2010Prop51ColorRGB
 90
-16777216
102
RTVSPost2010PropOp51
 70
     0
102
RTVSPost2010Prop52
140
1.0
102
RTVSPost2010PropOp52
 70
     0
102
RTVSPost2010Prop53
 90
        2
102
RTVSPost2010PropOp53
 70
     0
102
RTVSPost2010Prop54
  1
strokes_ogs.tif
102
RTVSPost2010PropOp54
 70
     0
102
RTVSPost2010Prop55
280
     0
102
RTVSPost2010PropOp55
 70
     0
102
RTVSPost2010Prop56
140
1.0
102
RTVSPost2010PropOp56
 70
     0
102
RTVSPost2010Prop57
140
1.0
102
RTVSPost2010PropOp57
 70
     0
  0
XRECORD
  5
EB
102
{ACAD_REACTORS
330
EA
102
}
330
EA
100
AcDbXrecord
280
     1
102
RTVSPost2010Prop28
280
     0
102
RTVSPost2010PropOp28
 70
     1
102
RTVSPost2010Prop29
280
     1
102
RTVSPost2010PropOp29
 70
     1
102
RTVSPost2010Prop30
280
     1
102
RTVSPost2010PropOp30
 70
     1
102
RTVSPost2010Prop31
280
     0
102
RTVSPost2010PropOp31
 70
     1
102
RTVSPost2010Prop32
280
     0
102
RTVSPost2010PropOp32
 70
     1
102
RTVSPost2010Prop33
280
     0
102
RTVSPost2010PropOp33
 70
     1
102
RTVSPost2010Prop34
280
     0
102
RTVSPost2010PropOp34
 70
     1
102
RTVSPost2010Prop35
280
     0
102
RTVSPost2010PropOp35
 70
     1
102
RTVSPost2010Prop36
280
     0
102
RTVSPost2010PropOp36
 70
     1
102
RTVSPost2010Prop37
 90
       50
102
RTVSPost2010PropOp37
 70
     1
102
RTVSPost2010Prop38
140
0.0
102
RTVSPost2010PropOp38
 70
     1
102
RTVSPost2010Prop39
140
1.0
102
RTVSPost2010PropOp39
 70
     1
102
RTVSPost2010Prop40
 90
        0
102
RTVSPost2010PropOp40
 70
     1
102
RTVSPost2010Prop41ColorIndex
 90
       18
102
RTVSPost2010Prop41ColorRGB
 90
        0
102
RTVSPost2010PropOp41
 70
     1
102
RTVSPost2010Prop42
 90
       50
102
RTVSPost2010PropOp42
 70
     1
102
RTVSPost2010Prop43
 90
        3
102
RTVSPost2010PropOp43
 70
     1
102
RTVSPost2010Prop44ColorIndex
 90
        5
102
RTVSPost2010Prop44ColorRGB
 90
      255
102
RTVSPost2010PropOp44
 70
     1
102
RTVSPost2010Prop45
280
     0
102
RTVSPost2010PropOp45
 70
     1
102
RTVSPost2010Prop46
 90
       50
102
RTVSPost2010PropOp46
 70
     1
102
RTVSPost2010Prop47
 90
       50
102
RTVSPost2010PropOp47
 70
     1
102
RTVSPost2010Prop48
 90
       50
102
RTVSPost2010PropOp48
 70
     1
102
RTVSPost2010Prop49
280
     0
102
RTVSPost2010PropOp49
 70
     1
102
RTVSPost2010Prop50
 90
       50
102
RTVSPost2010PropOp50
 70
     1
102
RTVSPost2010Prop51ColorIndex
 90
      256
102
RTVSPost2010Prop51ColorRGB
 90
-16777216
102
RTVSPost2010PropOp51
 70
     0
102
RTVSPost2010Prop52
140
1.0
102
RTVSPost2010PropOp52
 70
     0
102
RTVSPost2010Prop53
 90
        2
102
RTVSPost2010PropOp53
 70
     1
102
RTVSPost2010Prop54
  1
strokes_ogs.tif
102
RTVSPost2010PropOp54
 70
     1
102
RTVSPost2010Prop55
280
     0
102
RTVSPost2010PropOp55
 70
     1
102
RTVSPost2010Prop56
140
1.0
102
RTVSPost2010PropOp56
 70
     1
102
RTVSPost2010Prop57
140
1.0
102
RTVSPost2010PropOp57
 70
     1
  0
XRECORD
  5
101
102
{ACAD_REACTORS
330
100
102
}
330
100
100
AcDbXrecord
280
     1
102
RTVSPost2010Prop28
280
     0
102
RTVSPost2010PropOp28
 70
     1
102
RTVSPost2010Prop29
280
     1
102
RTVSPost2010PropOp29
 70
     1
102
RTVSPost2010Prop30
280
     1
102
RTVSPost2010PropOp30
 70
     1
102
RTVSPost2010Prop31
280
     0
102
RTVSPost2010PropOp31
 70
     1
102
RTVSPost2010Prop32
280
     0
102
RTVSPost2010PropOp32
 70
     1
102
RTVSPost2010Prop33
280
     0
102
RTVSPost2010PropOp33
 70
     1
102
RTVSPost2010Prop34
280
     0
102
RTVSPost2010PropOp34
 70
     1
102
RTVSPost2010Prop35
280
     0
102
RTVSPost2010PropOp35
 70
     1
102
RTVSPost2010Prop36
280
     0
102
RTVSPost2010PropOp36
 70
     1
102
RTVSPost2010Prop37
 90
       50
102
RTVSPost2010PropOp37
 70
     1
102
RTVSPost2010Prop38
140
0.0
102
RTVSPost2010PropOp38
 70
     1
102
RTVSPost2010Prop39
140
1.0
102
RTVSPost2010PropOp39
 70
     1
102
RTVSPost2010Prop40
 90
        0
102
RTVSPost2010PropOp40
 70
     1
102
RTVSPost2010Prop41ColorIndex
 90
       18
102
RTVSPost2010Prop41ColorRGB
 90
        0
102
RTVSPost2010PropOp41
 70
     1
102
RTVSPost2010Prop42
 90
       50
102
RTVSPost2010PropOp42
 70
     1
102
RTVSPost2010Prop43
 90
        3
102
RTVSPost2010PropOp43
 70
     1
102
RTVSPost2010Prop44ColorIndex
 90
        5
102
RTVSPost2010Prop44ColorRGB
 90
      255
102
RTVSPost2010PropOp44
 70
     1
102
RTVSPost2010Prop45
280
     0
102
RTVSPost2010PropOp45
 70
     1
102
RTVSPost2010Prop46
 90
       50
102
RTVSPost2010PropOp46
 70
     1
102
RTVSPost2010Prop47
 90
       50
102
RTVSPost2010PropOp47
 70
     1
102
RTVSPost2010Prop48
 90
       50
102
RTVSPost2010PropOp48
 70
     1
102
RTVSPost2010Prop49
280
     0
102
RTVSPost2010PropOp49
 70
     1
102
RTVSPost2010Prop50
 90
       50
102
RTVSPost2010PropOp50
 70
     1
102
RTVSPost2010Prop51ColorIndex
 90
      256
102
RTVSPost2010Prop51ColorRGB
 90
-16777216
102
RTVSPost2010PropOp51
 70
     0
102
RTVSPost2010Prop52
140
1.0
102
RTVSPost2010PropOp52
 70
     0
102
RTVSPost2010Prop53
 90
        2
102
RTVSPost2010PropOp53
 70
     1
102
RTVSPost2010Prop54
  1
strokes_ogs.tif
102
RTVSPost2010PropOp54
 70
     1
102
RTVSPost2010Prop55
280
     0
102
RTVSPost2010PropOp55
 70
     1
102
RTVSPost2010Prop56
140
1.0
102
RTVSPost2010PropOp56
 70
     1
102
RTVSPost2010Prop57
140
1.0
102
RTVSPost2010PropOp57
 70
     1
  0
XRECORD
  5
FF
102
{ACAD_REACTORS
330
FE
102
}
330
FE
100
AcDbXrecord
280
     1
102
RTVSPost2010Prop28
280
     0
102
RTVSPost2010PropOp28
 70
     1
102
RTVSPost2010Prop29
280
     1
102
RTVSPost2010PropOp29
 70
     1
102
RTVSPost2010Prop30
280
     1
102
RTVSPost2010PropOp30
 70
     1
102
RTVSPost2010Prop31
280
     0
102
RTVSPost2010PropOp31
 70
     1
102
RTVSPost2010Prop32
280
     0
102
RTVSPost2010PropOp32
 70
     1
102
RTVSPost2010Prop33
280
     0
102
RTVSPost2010PropOp33
 70
     1
102
RTVSPost2010Prop34
280
     0
102
RTVSPost2010PropOp34
 70
     1
102
RTVSPost2010Prop35
280
     0
102
RTVSPost2010PropOp35
 70
     1
102
RTVSPost2010Prop36
280
     0
102
RTVSPost2010PropOp36
 70
     1
102
RTVSPost2010Prop37
 90
       50
102
RTVSPost2010PropOp37
 70
     1
102
RTVSPost2010Prop38
140
0.0
102
RTVSPost2010PropOp38
 70
     1
102
RTVSPost2010Prop39
140
1.0
102
RTVSPost2010PropOp39
 70
     1
102
RTVSPost2010Prop40
 90
        0
102
RTVSPost2010PropOp40
 70
     1
102
RTVSPost2010Prop41ColorIndex
 90
       18
102
RTVSPost2010Prop41ColorRGB
 90
        0
102
RTVSPost2010PropOp41
 70
     1
102
RTVSPost2010Prop42
 90
       50
102
RTVSPost2010PropOp42
 70
     1
102
RTVSPost2010Prop43
 90
        3
102
RTVSPost2010PropOp43
 70
     1
102
RTVSPost2010Prop44ColorIndex
 90
        5
102
RTVSPost2010Prop44ColorRGB
 90
      255
102
RTVSPost2010PropOp44
 70
     1
102
RTVSPost2010Prop45
280
     0
102
RTVSPost2010PropOp45
 70
     1
102
RTVSPost2010Prop46
 90
       50
102
RTVSPost2010PropOp46
 70
     1
102
RTVSPost2010Prop47
 90
       50
102
RTVSPost2010PropOp47
 70
     1
102
RTVSPost2010Prop48
 90
       50
102
RTVSPost2010PropOp48
 70
     1
102
RTVSPost2010Prop49
280
     0
102
RTVSPost2010PropOp49
 70
     1
102
RTVSPost2010Prop50
 90
       50
102
RTVSPost2010PropOp50
 70
     1
102
RTVSPost2010Prop51ColorIndex
 90
      256
102
RTVSPost2010Prop51ColorRGB
 90
-16777216
102
RTVSPost2010PropOp51
 70
     0
102
RTVSPost2010Prop52
140
1.0
102
RTVSPost2010PropOp52
 70
     0
102
RTVSPost2010Prop53
 90
        2
102
RTVSPost2010PropOp53
 70
     1
102
RTVSPost2010Prop54
  1
strokes_ogs.tif
102
RTVSPost2010PropOp54
 70
     1
102
RTVSPost2010Prop55
280
     0
102
RTVSPost2010PropOp55
 70
     1
102
RTVSPost2010Prop56
140
1.0
102
RTVSPost2010PropOp56
 70
     1
102
RTVSPost2010Prop57
140
1.0
102
RTVSPost2010PropOp57
 70
     1
  0
XRECORD
  5
F9
102
{ACAD_REACTORS
330
F8
102
}
330
F8
100
AcDbXrecord
280
     1
102
RTVSPost2010Prop28
280
     0
102
RTVSPost2010PropOp28
 70
     1
102
RTVSPost2010Prop29
280
     1
102
RTVSPost2010PropOp29
 70
     1
102
RTVSPost2010Prop30
280
     1
102
RTVSPost2010PropOp30
 70
     1
102
RTVSPost2010Prop31
280
     0
102
RTVSPost2010PropOp31
 70
     1
102
RTVSPost2010Prop32
280
     0
102
RTVSPost2010PropOp32
 70
     1
102
RTVSPost2010Prop33
280
     0
102
RTVSPost2010PropOp33
 70
     1
102
RTVSPost2010Prop34
280
     0
102
RTVSPost2010PropOp34
 70
     1
102
RTVSPost2010Prop35
280
     0
102
RTVSPost2010PropOp35
 70
     1
102
RTVSPost2010Prop36
280
     0
102
RTVSPost2010PropOp36
 70
     1
102
RTVSPost2010Prop37
 90
       50
102
RTVSPost2010PropOp37
 70
     1
102
RTVSPost2010Prop38
140
0.0
102
RTVSPost2010PropOp38
 70
     1
102
RTVSPost2010Prop39
140
1.0
102
RTVSPost2010PropOp39
 70
     1
102
RTVSPost2010Prop40
 90
        0
102
RTVSPost2010PropOp40
 70
     1
102
RTVSPost2010Prop41ColorIndex
 90
       18
102
RTVSPost2010Prop41ColorRGB
 90
        0
102
RTVSPost2010PropOp41
 70
     1
102
RTVSPost2010Prop42
 90
       50
102
RTVSPost2010PropOp42
 70
     1
102
RTVSPost2010Prop43
 90
        3
102
RTVSPost2010PropOp43
 70
     1
102
RTVSPost2010Prop44ColorIndex
 90
        5
102
RTVSPost2010Prop44ColorRGB
 90
      255
102
RTVSPost2010PropOp44
 70
     1
102
RTVSPost2010Prop45
280
     0
102
RTVSPost2010PropOp45
 70
     1
102
RTVSPost2010Prop46
 90
       50
102
RTVSPost2010PropOp46
 70
     1
102
RTVSPost2010Prop47
 90
       50
102
RTVSPost2010PropOp47
 70
     1
102
RTVSPost2010Prop48
 90
       50
102
RTVSPost2010PropOp48
 70
     1
102
RTVSPost2010Prop49
280
     0
102
RTVSPost2010PropOp49
 70
     1
102
RTVSPost2010Prop50
 90
       50
102
RTVSPost2010PropOp50
 70
     1
102
RTVSPost2010Prop51ColorIndex
 90
      256
102
RTVSPost2010Prop51ColorRGB
 90
-16777216
102
RTVSPost2010PropOp51
 70
     0
102
RTVSPost2010Prop52
140
1.0
102
RTVSPost2010PropOp52
 70
     0
102
RTVSPost2010Prop53
 90
        2
102
RTVSPost2010PropOp53
 70
     1
102
RTVSPost2010Prop54
  1
strokes_ogs.tif
102
RTVSPost2010PropOp54
 70
     1
102
RTVSPost2010Prop55
280
     0
102
RTVSPost2010PropOp55
 70
     1
102
RTVSPost2010Prop56
140
1.0
102
RTVSPost2010PropOp56
 70
     1
102
RTVSPost2010Prop57
140
1.0
102
RTVSPost2010PropOp57
 70
     1
  0
XRECORD
  5
FB
102
{ACAD_REACTORS
330
FA
102
}
330
FA
100
AcDbXrecord
280
     1
102
RTVSPost2010Prop28
280
     0
102
RTVSPost2010PropOp28
 70
     1
102
RTVSPost2010Prop29
280
     1
102
RTVSPost2010PropOp29
 70
     1
102
RTVSPost2010Prop30
280
     1
102
RTVSPost2010PropOp30
 70
     1
102
RTVSPost2010Prop31
280
     0
102
RTVSPost2010PropOp31
 70
     1
102
RTVSPost2010Prop32
280
     0
102
RTVSPost2010PropOp32
 70
     1
102
RTVSPost2010Prop33
280
     0
102
RTVSPost2010PropOp33
 70
     1
102
RTVSPost2010Prop34
280
     0
102
RTVSPost2010PropOp34
 70
     1
102
RTVSPost2010Prop35
280
     0
102
RTVSPost2010PropOp35
 70
     1
102
RTVSPost2010Prop36
280
     0
102
RTVSPost2010PropOp36
 70
     1
102
RTVSPost2010Prop37
 90
       50
102
RTVSPost2010PropOp37
 70
     1
102
RTVSPost2010Prop38
140
0.0
102
RTVSPost2010PropOp38
 70
     1
102
RTVSPost2010Prop39
140
1.0
102
RTVSPost2010PropOp39
 70
     1
102
RTVSPost2010Prop40
 90
        0
102
RTVSPost2010PropOp40
 70
     1
102
RTVSPost2010Prop41ColorIndex
 90
       18
102
RTVSPost2010Prop41ColorRGB
 90
        0
102
RTVSPost2010PropOp41
 70
     1
102
RTVSPost2010Prop42
 90
       50
102
RTVSPost2010PropOp42
 70
     1
102
RTVSPost2010Prop43
 90
        3
102
RTVSPost2010PropOp43
 70
     1
102
RTVSPost2010Prop44ColorIndex
 90
        5
102
RTVSPost2010Prop44ColorRGB
 90
      255
102
RTVSPost2010PropOp44
 70
     1
102
RTVSPost2010Prop45
280
     0
102
RTVSPost2010PropOp45
 70
     1
102
RTVSPost2010Prop46
 90
       50
102
RTVSPost2010PropOp46
 70
     1
102
RTVSPost2010Prop47
 90
       50
102
RTVSPost2010PropOp47
 70
     1
102
RTVSPost2010Prop48
 90
       50
102
RTVSPost2010PropOp48
 70
     1
102
RTVSPost2010Prop49
280
     0
102
RTVSPost2010PropOp49
 70
     1
102
RTVSPost2010Prop50
 90
       50
102
RTVSPost2010PropOp50
 70
     1
102
RTVSPost2010Prop51ColorIndex
 90
      256
102
RTVSPost2010Prop51ColorRGB
 90
-16777216
102
RTVSPost2010PropOp51
 70
     0
102
RTVSPost2010Prop52
140
1.0
102
RTVSPost2010PropOp52
 70
     0
102
RTVSPost2010Prop53
 90
        2
102
RTVSPost2010PropOp53
 70
     1
102
RTVSPost2010Prop54
  1
strokes_ogs.tif
102
RTVSPost2010PropOp54
 70
     1
102
RTVSPost2010Prop55
280
     0
102
RTVSPost2010PropOp55
 70
     1
102
RTVSPost2010Prop56
140
1.0
102
RTVSPost2010PropOp56
 70
     1
102
RTVSPost2010Prop57
140
1.0
102
RTVSPost2010PropOp57
 70
     1
  0
XRECORD
  5
F1
102
{ACAD_REACTORS
330
F0
102
}
330
F0
100
AcDbXrecord
280
     1
102
RTVSPost2010Prop28
280
     0
102
RTVSPost2010PropOp28
 70
     1
102
RTVSPost2010Prop29
280
     1
102
RTVSPost2010PropOp29
 70
     1
102
RTVSPost2010Prop30
280
     1
102
RTVSPost2010PropOp30
 70
     1
102
RTVSPost2010Prop31
280
     0
102
RTVSPost2010PropOp31
 70
     1
102
RTVSPost2010Prop32
280
     0
102
RTVSPost2010PropOp32
 70
     1
102
RTVSPost2010Prop33
280
     0
102
RTVSPost2010PropOp33
 70
     1
102
RTVSPost2010Prop34
280
     0
102
RTVSPost2010PropOp34
 70
     1
102
RTVSPost2010Prop35
280
     0
102
RTVSPost2010PropOp35
 70
     1
102
RTVSPost2010Prop36
280
     0
102
RTVSPost2010PropOp36
 70
     1
102
RTVSPost2010Prop37
 90
       50
102
RTVSPost2010PropOp37
 70
     1
102
RTVSPost2010Prop38
140
0.0
102
RTVSPost2010PropOp38
 70
     1
102
RTVSPost2010Prop39
140
1.0
102
RTVSPost2010PropOp39
 70
     1
102
RTVSPost2010Prop40
 90
        0
102
RTVSPost2010PropOp40
 70
     1
102
RTVSPost2010Prop41ColorIndex
 90
       18
102
RTVSPost2010Prop41ColorRGB
 90
        0
102
RTVSPost2010PropOp41
 70
     1
102
RTVSPost2010Prop42
 90
       50
102
RTVSPost2010PropOp42
 70
     1
102
RTVSPost2010Prop43
 90
        3
102
RTVSPost2010PropOp43
 70
     1
102
RTVSPost2010Prop44ColorIndex
 90
        5
102
RTVSPost2010Prop44ColorRGB
 90
      255
102
RTVSPost2010PropOp44
 70
     1
102
RTVSPost2010Prop45
280
     0
102
RTVSPost2010PropOp45
 70
     1
102
RTVSPost2010Prop46
 90
       50
102
RTVSPost2010PropOp46
 70
     1
102
RTVSPost2010Prop47
 90
       50
102
RTVSPost2010PropOp47
 70
     1
102
RTVSPost2010Prop48
 90
       50
102
RTVSPost2010PropOp48
 70
     1
102
RTVSPost2010Prop49
280
     0
102
RTVSPost2010PropOp49
 70
     1
102
RTVSPost2010Prop50
 90
       50
102
RTVSPost2010PropOp50
 70
     1
102
RTVSPost2010Prop51ColorIndex
 90
      256
102
RTVSPost2010Prop51ColorRGB
 90
-16777216
102
RTVSPost2010PropOp51
 70
     0
102
RTVSPost2010Prop52
140
1.0
102
RTVSPost2010PropOp52
 70
     0
102
RTVSPost2010Prop53
 90
        2
102
RTVSPost2010PropOp53
 70
     1
102
RTVSPost2010Prop54
  1
strokes_ogs.tif
102
RTVSPost2010PropOp54
 70
     1
102
RTVSPost2010Prop55
280
     0
102
RTVSPost2010PropOp55
 70
     1
102
RTVSPost2010Prop56
140
1.0
102
RTVSPost2010PropOp56
 70
     1
102
RTVSPost2010Prop57
140
1.0
102
RTVSPost2010PropOp57
 70
     1
  0
XRECORD
  5
E5
102
{ACAD_REACTORS
330
E4
102
}
330
E4
100
AcDbXrecord
280
     1
102
RTVSPost2010Prop28
280
     0
102
RTVSPost2010PropOp28
 70
     1
102
RTVSPost2010Prop29
280
     1
102
RTVSPost2010PropOp29
 70
     1
102
RTVSPost2010Prop30
280
     1
102
RTVSPost2010PropOp30
 70
     1
102
RTVSPost2010Prop31
280
     0
102
RTVSPost2010PropOp31
 70
     1
102
RTVSPost2010Prop32
280
     0
102
RTVSPost2010PropOp32
 70
     1
102
RTVSPost2010Prop33
280
     0
102
RTVSPost2010PropOp33
 70
     1
102
RTVSPost2010Prop34
280
     0
102
RTVSPost2010PropOp34
 70
     1
102
RTVSPost2010Prop35
280
     0
102
RTVSPost2010PropOp35
 70
     1
102
RTVSPost2010Prop36
280
     0
102
RTVSPost2010PropOp36
 70
     1
102
RTVSPost2010Prop37
 90
       50
102
RTVSPost2010PropOp37
 70
     1
102
RTVSPost2010Prop38
140
0.0
102
RTVSPost2010PropOp38
 70
     1
102
RTVSPost2010Prop39
140
1.0
102
RTVSPost2010PropOp39
 70
     1
102
RTVSPost2010Prop40
 90
        0
102
RTVSPost2010PropOp40
 70
     1
102
RTVSPost2010Prop41ColorIndex
 90
       18
102
RTVSPost2010Prop41ColorRGB
 90
        0
102
RTVSPost2010PropOp41
 70
     1
102
RTVSPost2010Prop42
 90
       50
102
RTVSPost2010PropOp42
 70
     1
102
RTVSPost2010Prop43
 90
        3
102
RTVSPost2010PropOp43
 70
     1
102
RTVSPost2010Prop44ColorIndex
 90
        5
102
RTVSPost2010Prop44ColorRGB
 90
      255
102
RTVSPost2010PropOp44
 70
     1
102
RTVSPost2010Prop45
280
     0
102
RTVSPost2010PropOp45
 70
     1
102
RTVSPost2010Prop46
 90
       50
102
RTVSPost2010PropOp46
 70
     1
102
RTVSPost2010Prop47
 90
       50
102
RTVSPost2010PropOp47
 70
     1
102
RTVSPost2010Prop48
 90
       50
102
RTVSPost2010PropOp48
 70
     1
102
RTVSPost2010Prop49
280
     0
102
RTVSPost2010PropOp49
 70
     1
102
RTVSPost2010Prop50
 90
       50
102
RTVSPost2010PropOp50
 70
     1
102
RTVSPost2010Prop51ColorIndex
 90
      256
102
RTVSPost2010Prop51ColorRGB
 90
-16777216
102
RTVSPost2010PropOp51
 70
     0
102
RTVSPost2010Prop52
140
1.0
102
RTVSPost2010PropOp52
 70
     0
102
RTVSPost2010Prop53
 90
        2
102
RTVSPost2010PropOp53
 70
     1
102
RTVSPost2010Prop54
  1
strokes_ogs.tif
102
RTVSPost2010PropOp54
 70
     1
102
RTVSPost2010Prop55
280
     0
102
RTVSPost2010PropOp55
 70
     1
102
RTVSPost2010Prop56
140
1.0
102
RTVSPost2010PropOp56
 70
     1
102
RTVSPost2010Prop57
140
1.0
102
RTVSPost2010PropOp57
 70
     1
  0
XRECORD
  5
FD
102
{ACAD_REACTORS
330
FC
102
}
330
FC
100
AcDbXrecord
280
     1
102
RTVSPost2010Prop28
280
     0
102
RTVSPost2010PropOp28
 70
     1
102
RTVSPost2010Prop29
280
     1
102
RTVSPost2010PropOp29
 70
     1
102
RTVSPost2010Prop30
280
     1
102
RTVSPost2010PropOp30
 70
     1
102
RTVSPost2010Prop31
280
     0
102
RTVSPost2010PropOp31
 70
     1
102
RTVSPost2010Prop32
280
     0
102
RTVSPost2010PropOp32
 70
     1
102
RTVSPost2010Prop33
280
     0
102
RTVSPost2010PropOp33
 70
     1
102
RTVSPost2010Prop34
280
     0
102
RTVSPost2010PropOp34
 70
     1
102
RTVSPost2010Prop35
280
     0
102
RTVSPost2010PropOp35
 70
     1
102
RTVSPost2010Prop36
280
     0
102
RTVSPost2010PropOp36
 70
     1
102
RTVSPost2010Prop37
 90
       50
102
RTVSPost2010PropOp37
 70
     1
102
RTVSPost2010Prop38
140
0.0
102
RTVSPost2010PropOp38
 70
     1
102
RTVSPost2010Prop39
140
1.0
102
RTVSPost2010PropOp39
 70
     1
102
RTVSPost2010Prop40
 90
        0
102
RTVSPost2010PropOp40
 70
     1
102
RTVSPost2010Prop41ColorIndex
 90
       18
102
RTVSPost2010Prop41ColorRGB
 90
        0
102
RTVSPost2010PropOp41
 70
     1
102
RTVSPost2010Prop42
 90
       50
102
RTVSPost2010PropOp42
 70
     1
102
RTVSPost2010Prop43
 90
        3
102
RTVSPost2010PropOp43
 70
     1
102
RTVSPost2010Prop44ColorIndex
 90
        5
102
RTVSPost2010Prop44ColorRGB
 90
      255
102
RTVSPost2010PropOp44
 70
     1
102
RTVSPost2010Prop45
280
     0
102
RTVSPost2010PropOp45
 70
     1
102
RTVSPost2010Prop46
 90
       50
102
RTVSPost2010PropOp46
 70
     1
102
RTVSPost2010Prop47
 90
       50
102
RTVSPost2010PropOp47
 70
     1
102
RTVSPost2010Prop48
 90
       50
102
RTVSPost2010PropOp48
 70
     1
102
RTVSPost2010Prop49
280
     0
102
RTVSPost2010PropOp49
 70
     1
102
RTVSPost2010Prop50
 90
       50
102
RTVSPost2010PropOp50
 70
     1
102
RTVSPost2010Prop51ColorIndex
 90
      256
102
RTVSPost2010Prop51ColorRGB
 90
-16777216
102
RTVSPost2010PropOp51
 70
     0
102
RTVSPost2010Prop52
140
1.0
102
RTVSPost2010PropOp52
 70
     0
102
RTVSPost2010Prop53
 90
        2
102
RTVSPost2010PropOp53
 70
     1
102
RTVSPost2010Prop54
  1
strokes_ogs.tif
102
RTVSPost2010PropOp54
 70
     1
102
RTVSPost2010Prop55
280
     0
102
RTVSPost2010PropOp55
 70
     1
102
RTVSPost2010Prop56
140
1.0
102
RTVSPost2010PropOp56
 70
     1
102
RTVSPost2010Prop57
140
1.0
102
RTVSPost2010PropOp57
 70
     1
  0
ENDSEC
  0
EOF
