  0
SECTION
  2
HEADER
  9
$ACADVER
  1
AC1024
  9
$ACADMAINTVER
 70
   226
  9
$DWGCODEPAGE
  3
ANSI_932
  9
$INSBASE
 10
0.0
 20
0.0
 30
0.0
  9
$EXTMIN
 10
1.000000000000000E+20
 20
1.000000000000000E+20
 30
1.000000000000000E+20
  9
$EXTMAX
 10
-1.000000000000000E+20
 20
-1.000000000000000E+20
 30
-1.000000000000000E+20
  9
$LIMMIN
 10
0.0
 20
0.0
  9
$LIMMAX
 10
12.0
 20
9.0
  9
$ORTHOMODE
 70
     0
  9
$REGENMODE
 70
     1
  9
$FILLMODE
 70
     1
  9
$QTEXTMODE
 70
     0
  9
$MIRRTEXT
 70
     0
  9
$LTSCALE
 40
1.0
  9
$ATTMODE
 70
     1
  9
$TEXTSIZE
 40
0.2
  9
$TRACEWID
 40
0.05
  9
$TEXTSTYLE
  7
Standard
  9
$CLAYER
  8
0
  9
$CELTYPE
  6
ByLayer
  9
$CECOLOR
 62
   256
  9
$CELTSCALE
 40
1.0
  9
$DISPSILH
 70
     0
  9
$DIMSCALE
 40
1.0
  9
$DIMASZ
 40
0.18
  9
$DIMEXO
 40
0.0625
  9
$DIMDLI
 40
0.38
  9
$DIMRND
 40
0.0
  9
$DIMDLE
 40
0.0
  9
$DIMEXE
 40
0.18
  9
$DIMTP
 40
0.0
  9
$DIMTM
 40
0.0
  9
$DIMTXT
 40
0.18
  9
$DIMCEN
 40
0.09
  9
$DIMTSZ
 40
0.0
  9
$DIMTOL
 70
     0
  9
$DIMLIM
 70
     0
  9
$DIMTIH
 70
     1
  9
$DIMTOH
 70
     1
  9
$DIMSE1
 70
     0
  9
$DIMSE2
 70
     0
  9
$DIMTAD
 70
     0
  9
$DIMZIN
 70
     0
  9
$DIMBLK
  1

  9
$DIMASO
 70
     1
  9
$DIMSHO
 70
     1
  9
$DIMPOST
  1

  9
$DIMAPOST
  1

  9
$DIMALT
 70
     0
  9
$DIMALTD
 70
     2
  9
$DIMALTF
 40
25.4
  9
$DIMLFAC
 40
1.0
  9
$DIMTOFL
 70
     0
  9
$DIMTVP
 40
0.0
  9
$DIMTIX
 70
     0
  9
$DIMSOXD
 70
     0
  9
$DIMSAH
 70
     0
  9
$DIMBLK1
  1

  9
$DIMBLK2
  1

  9
$DIMSTYLE
  2
Standard
  9
$DIMCLRD
 70
     0
  9
$DIMCLRE
 70
     0
  9
$DIMCLRT
 70
     0
  9
$DIMTFAC
 40
1.0
  9
$DIMGAP
 40
0.09
  9
$DIMJUST
 70
     0
  9
$DIMSD1
 70
     0
  9
$DIMSD2
 70
     0
  9
$DIMTOLJ
 70
     1
  9
$DIMTZIN
 70
     0
  9
$DIMALTZ
 70
     0
  9
$DIMALTTZ
 70
     0
  9
$DIMUPT
 70
     0
  9
$DIMDEC
 70
     4
  9
$DIMTDEC
 70
     4
  9
$DIMALTU
 70
     2
  9
$DIMALTTD
 70
     2
  9
$DIMTXSTY
  7
Standard
  9
$DIMAUNIT
 70
     0
  9
$DIMADEC
 70
     0
  9
$DIMALTRND
 40
0.0
  9
$DIMAZIN
 70
     0
  9
$DIMDSEP
 70
    46
  9
$DIMATFIT
 70
     3
  9
$DIMFRAC
 70
     0
  9
$DIMLDRBLK
  1

  9
$DIMLUNIT
 70
     2
  9
$DIMLWD
 70
    -2
  9
$DIMLWE
 70
    -2
  9
$DIMTMOVE
 70
     0
  9
$DIMFXL
 40
1.0
  9
$DIMFXLON
 70
     0
  9
$DIMJOGANG
 40
0.7853981633974483
  9
$DIMTFILL
 70
     0
  9
$DIMTFILLCLR
 70
     0
  9
$DIMARCSYM
 70
     0
  9
$DIMLTYPE
  6

  9
$DIMLTEX1
  6

  9
$DIMLTEX2
  6

  9
$DIMTXTDIRECTION
 70
     0
  9
$LUNITS
 70
     2
  9
$LUPREC
 70
     4
  9
$SKETCHINC
 40
0.1
  9
$FILLETRAD
 40
0.0
  9
$AUNITS
 70
     0
  9
$AUPREC
 70
     0
  9
$MENU
  1
.
  9
$ELEVATION
 40
0.0
  9
$PELEVATION
 40
0.0
  9
$THICKNESS
 40
0.0
  9
$LIMCHECK
 70
     0
  9
$CHAMFERA
 40
0.0
  9
$CHAMFERB
 40
0.0
  9
$CHAMFERC
 40
0.0
  9
$CHAMFERD
 40
0.0
  9
$SKPOLY
 70
     0
  9
$TDCREATE
 40
2459569.488599537
  9
$TDUCREATE
 40
2459569.113599537
  9
$TDUPDATE
 40
2459569.488599537
  9
$TDUUPDATE
 40
2459569.113599537
  9
$TDINDWG
 40
0.0000000000
  9
$TDUSRTIMER
 40
0.0000000000
  9
$USRTIMER
 70
     1
  9
$ANGBASE
 50
0.0
  9
$ANGDIR
 70
     0
  9
$PDMODE
 70
     0
  9
$PDSIZE
 40
0.0
  9
$PLINEWID
 40
0.0
  9
$SPLFRAME
 70
     0
  9
$SPLINETYPE
 70
     6
  9
$SPLINESEGS
 70
     8
  9
$HANDSEED
  5
163
  9
$SURFTAB1
 70
     6
  9
$SURFTAB2
 70
     6
  9
$SURFTYPE
 70
     6
  9
$SURFU
 70
     6
  9
$SURFV
 70
     6
  9
$UCSBASE
  2

  9
$UCSNAME
  2

  9
$UCSORG
 10
0.0
 20
0.0
 30
0.0
  9
$UCSXDIR
 10
1.0
 20
0.0
 30
0.0
  9
$UCSYDIR
 10
0.0
 20
1.0
 30
0.0
  9
$UCSORTHOREF
  2

  9
$UCSORTHOVIEW
 70
     0
  9
$UCSORGTOP
 10
0.0
 20
0.0
 30
0.0
  9
$UCSORGBOTTOM
 10
0.0
 20
0.0
 30
0.0
  9
$UCSORGLEFT
 10
0.0
 20
0.0
 30
0.0
  9
$UCSORGRIGHT
 10
0.0
 20
0.0
 30
0.0
  9
$UCSORGFRONT
 10
0.0
 20
0.0
 30
0.0
  9
$UCSORGBACK
 10
0.0
 20
0.0
 30
0.0
  9
$PUCSBASE
  2

  9
$PUCSNAME
  2

  9
$PUCSORG
 10
0.0
 20
0.0
 30
0.0
  9
$PUCSXDIR
 10
1.0
 20
0.0
 30
0.0
  9
$PUCSYDIR
 10
0.0
 20
1.0
 30
0.0
  9
$PUCSORTHOREF
  2

  9
$PUCSORTHOVIEW
 70
     0
  9
$PUCSORGTOP
 10
0.0
 20
0.0
 30
0.0
  9
$PUCSORGBOTTOM
 10
0.0
 20
0.0
 30
0.0
  9
$PUCSORGLEFT
 10
0.0
 20
0.0
 30
0.0
  9
$PUCSORGRIGHT
 10
0.0
 20
0.0
 30
0.0
  9
$PUCSORGFRONT
 10
0.0
 20
0.0
 30
0.0
  9
$PUCSORGBACK
 10
0.0
 20
0.0
 30
0.0
  9
$USERI1
 70
     0
  9
$USERI2
 70
     0
  9
$USERI3
 70
     0
  9
$USERI4
 70
     0
  9
$USERI5
 70
     0
  9
$USERR1
 40
0.0
  9
$USERR2
 40
0.0
  9
$USERR3
 40
0.0
  9
$USERR4
 40
0.0
  9
$USERR5
 40
0.0
  9
$WORLDVIEW
 70
     1
  9
$SHADEDGE
 70
     3
  9
$SHADEDIF
 70
    70
  9
$TILEMODE
 70
     1
  9
$MAXACTVP
 70
    64
  9
$PINSBASE
 10
0.0
 20
0.0
 30
0.0
  9
$PLIMCHECK
 70
     0
  9
$PEXTMIN
 10
1.000000000000000E+20
 20
1.000000000000000E+20
 30
1.000000000000000E+20
  9
$PEXTMAX
 10
-1.000000000000000E+20
 20
-1.000000000000000E+20
 30
-1.000000000000000E+20
  9
$PLIMMIN
 10
0.0
 20
0.0
  9
$PLIMMAX
 10
12.0
 20
9.0
  9
$UNITMODE
 70
     0
  9
$VISRETAIN
 70
     1
  9
$PLINEGEN
 70
     0
  9
$PSLTSCALE
 70
     1
  9
$TREEDEPTH
 70
  3020
  9
$CMLSTYLE
  2
Standard
  9
$CMLJUST
 70
     0
  9
$CMLSCALE
 40
1.0
  9
$PROXYGRAPHICS
 70
     1
  9
$MEASUREMENT
 70
     0
  9
$CELWEIGHT
370
    -1
  9
$ENDCAPS
280
     0
  9
$JOINSTYLE
280
     0
  9
$LWDISPLAY
290
     1
  9
$INSUNITS
 70
     4
  9
$HYPERLINKBASE
  1

  9
$STYLESHEET
  1

  9
$XEDIT
290
     1
  9
$CEPSNTYPE
380
     0
  9
$PSTYLEMODE
290
     1
  9
$FINGERPRINTGUID
  2
{C1CFD186-ECDD-C043-B9CB-1F86A9C3708A}
  9
$VERSIONGUID
  2
{58FB781E-6CED-BD4C-BC1F-F10A2430EB1F}
  9
$EXTNAMES
290
     1
  9
$PSVPSCALE
 40
0.0
  9
$OLESTARTUP
290
     0
  9
$SORTENTS
280
   127
  9
$INDEXCTL
280
     0
  9
$HIDETEXT
280
     1
  9
$XCLIPFRAME
280
     2
  9
$HALOGAP
280
     0
  9
$OBSCOLOR
 70
   257
  9
$OBSLTYPE
280
     0
  9
$INTERSECTIONDISPLAY
280
     0
  9
$INTERSECTIONCOLOR
 70
   257
  9
$DIMASSOC
280
     2
  9
$PROJECTNAME
  1

  9
$CAMERADISPLAY
290
     0
  9
$LENSLENGTH
 40
50.0
  9
$CAMERAHEIGHT
 40
0.0
  9
$STEPSPERSEC
 40
2.0
  9
$STEPSIZE
 40
6.0
  9
$3DDWFPREC
 40
2.0
  9
$PSOLWIDTH
 40
0.25
  9
$PSOLHEIGHT
 40
4.0
  9
$LOFTANG1
 40
1.570796326794896
  9
$LOFTANG2
 40
1.570796326794896
  9
$LOFTMAG1
 40
0.0
  9
$LOFTMAG2
 40
0.0
  9
$LOFTPARAM
 70
     7
  9
$LOFTNORMALS
280
     1
  9
$LATITUDE
 40
37.795
  9
$LONGITUDE
 40
-122.394
  9
$NORTHDIRECTION
 40
0.0
  9
$TIMEZONE
 70
 -8000
  9
$LIGHTGLYPHDISPLAY
280
     1
  9
$TILEMODELIGHTSYNCH
280
     1
  9
$CMATERIAL
347
11
  9
$SOLIDHIST
280
     0
  9
$SHOWHIST
280
     1
  9
$DWFFRAME
280
     2
  9
$DGNFRAME
280
     0
  9
$REALWORLDSCALE
290
     1
  9
$INTERFERECOLOR
 62
     1
  9
$INTERFEREOBJVS
345
33
  9
$INTERFEREVPVS
346
30
  9
$CSHADOW
280
     0
  9
$SHADOWPLANELOCATION
 40
0.0
  0
ENDSEC
  0
SECTION
  2
CLASSES
  0
CLASS
  1
ACDBDICTIONARYWDFLT
  2
AcDbDictionaryWithDefault
  3
ObjectDBX Classes
 90
        0
 91
        1
280
     0
281
     0
  0
CLASS
  1
MATERIAL
  2
AcDbMaterial
  3
ObjectDBX Classes
 90
     1153
 91
        3
280
     0
281
     0
  0
CLASS
  1
VISUALSTYLE
  2
AcDbVisualStyle
  3
ObjectDBX Classes
 90
     4095
 91
       24
280
     0
281
     0
  0
CLASS
  1
SCALE
  2
AcDbScale
  3
ObjectDBX Classes
 90
     1153
 91
       17
280
     0
281
     0
  0
CLASS
  1
TABLESTYLE
  2
AcDbTableStyle
  3
ObjectDBX Classes
 90
     4095
 91
        1
280
     0
281
     0
  0
CLASS
  1
MLEADERSTYLE
  2
AcDbMLeaderStyle
  3
ACDB_MLEADERSTYLE_CLASS
 90
     4095
 91
        1
280
     0
281
     0
  0
CLASS
  1
ACDBSECTIONVIEWSTYLE
  2
AcDbSectionViewStyle
  3
ObjectDBX Classes
 90
     1025
 91
        1
280
     0
281
     0
  0
CLASS
  1
ACDBDETAILVIEWSTYLE
  2
AcDbDetailViewStyle
  3
ObjectDBX Classes
 90
     1025
 91
        1
280
     0
281
     0
  0
CLASS
  1
DICTIONARYVAR
  2
AcDbDictionaryVar
  3
ObjectDBX Classes
 90
        0
 91
        5
280
     0
281
     0
  0
CLASS
  1
CELLSTYLEMAP
  2
AcDbCellStyleMap
  3
ObjectDBX Classes
 90
     1152
 91
        1
280
     0
281
     0
  0
ENDSEC
  0
SECTION
  2
TABLES
  0
TABLE
  2
VPORT
  5
8
330
0
100
AcDbSymbolTable
 70
     1
  0
VPORT
  5
57
330
8
100
AcDbSymbolTableRecord
100
AcDbViewportTableRecord
  2
*Active
 70
     0
 10
0.0
 20
0.0
 11
1.0
 21
1.0
 12
0.0
 22
0.0
 13
0.0
 23
0.0
 14
1.0
 24
1.0
 15
0.0
 25
0.0
 16
0.0
 26
0.0
 36
1.0
 17
104.9999999737534
 27
-148.4999999628701
 37
0.0
 40
302.939999924255
 41
0.7070707070707534
 42
50.0
 43
0.0
 44
0.0
 50
0.0
 51
0.0
 71
     0
 72
   100
 73
     1
 74
     0
 75
     1
 76
     0
 77
     0
 78
     0
281
     0
 65
     1
110
0.0
120
0.0
130
0.0
111
1.0
121
0.0
131
0.0
112
0.0
122
1.0
132
0.0
 79
     0
146
0.0
 60
     3
 61
     5
292
     1
282
     1
141
0.0
142
0.0
 63
   250
421
  3355443
  0
ENDTAB
  0
TABLE
  2
LTYPE
  5
5
330
0
100
AcDbSymbolTable
 70
     3
  0
LTYPE
  5
5B
330
5
100
AcDbSymbolTableRecord
100
AcDbLinetypeTableRecord
  2
ByBlock
 70
     0
  3

 72
    65
 73
     0
 40
0.0
  0
LTYPE
  5
5C
330
5
100
AcDbSymbolTableRecord
100
AcDbLinetypeTableRecord
  2
ByLayer
 70
     0
  3

 72
    65
 73
     0
 40
0.0
  0
LTYPE
  5
5D
330
5
100
AcDbSymbolTableRecord
100
AcDbLinetypeTableRecord
  2
Continuous
 70
     0
  3
Solid line
 72
    65
 73
     0
 40
0.0
  0
LTYPE
  5
7A
330
5
100
AcDbSymbolTableRecord
100
AcDbLinetypeTableRecord
  2
AI-Linetype-0
 70
     0
  3
Adobe Illustrator Linetype No. 0
 72
    65
 73
     2
 40
1.411111110758333
 49
0.7055555553791667
 74
     0
 49
-0.7055555553791667
 74
     0
  0
LTYPE
  5
7C
330
5
100
AcDbSymbolTableRecord
100
AcDbLinetypeTableRecord
  2
AI-Linetype-1
 70
     0
  3
Adobe Illustrator Linetype No. 1
 72
    65
 73
     2
 40
1.411111110758333
 49
0.7055555553791667
 74
     0
 49
-0.7055555553791667
 74
     0
  0
ENDTAB
  0
TABLE
  2
LAYER
  5
2
330
0
100
AcDbSymbolTable
 70
     2
  0
LAYER
  5
54
330
2
100
AcDbSymbolTableRecord
100
AcDbLayerTableRecord
  2
0
 70
     0
 62
     7
  6
Continuous
370
    -3
390
F
347
21
  0
LAYER
  5
78
330
2
100
AcDbSymbolTableRecord
100
AcDbLayerTableRecord
  2
レイヤー 1
 70
     0
 62
     7
  6
Continuous
370
     0
390
F
347
21
  0
ENDTAB
  0
TABLE
  2
STYLE
  5
3
330
0
100
AcDbSymbolTable
 70
     2
  0
STYLE
  5
55
330
3
100
AcDbSymbolTableRecord
100
AcDbTextStyleTableRecord
  2
Standard
 70
     0
 40
0.0
 41
1.0
 50
0.0
 71
     0
 42
0.2
  3
txt
  4

  0
STYLE
  5
5A
330
3
100
AcDbSymbolTableRecord
100
AcDbTextStyleTableRecord
  2
Annotative
 70
     0
 40
0.0
 41
1.0
 50
0.0
 71
     0
 42
0.2
  3
txt
  4

1001
AcadAnnotative
1000
AnnotativeData
1002
{
1070
     1
1070
     1
1002
}
  0
ENDTAB
  0
TABLE
  2
VIEW
  5
6
330
0
100
AcDbSymbolTable
 70
     0
  0
ENDTAB
  0
TABLE
  2
UCS
  5
7
330
0
100
AcDbSymbolTable
 70
     0
  0
ENDTAB
  0
TABLE
  2
APPID
  5
9
330
0
100
AcDbSymbolTable
 70
     2
  0
APPID
  5
56
330
9
100
AcDbSymbolTableRecord
100
AcDbRegAppTableRecord
  2
ACAD
 70
     0
  0
APPID
  5
5E
330
9
100
AcDbSymbolTableRecord
100
AcDbRegAppTableRecord
  2
AcadAnnotative
 70
     0
  0
ENDTAB
  0
TABLE
  2
DIMSTYLE
  5
A
330
0
100
AcDbSymbolTable
 70
     2
100
AcDbDimStyleTable
 71
     0
  0
DIMSTYLE
105
58
330
A
100
AcDbSymbolTableRecord
100
AcDbDimStyleTableRecord
  2
Standard
 70
     0
340
55
  0
DIMSTYLE
105
59
330
A
100
AcDbSymbolTableRecord
100
AcDbDimStyleTableRecord
  2
Annotative
 70
     0
340
55
1001
AcadAnnotative
1000
AnnotativeData
1002
{
1070
     1
1070
     1
1002
}
  0
ENDTAB
  0
TABLE
  2
BLOCK_RECORD
  5
1
330
0
100
AcDbSymbolTable
 70
    20
  0
BLOCK_RECORD
  5
70
330
1
100
AcDbSymbolTableRecord
100
AcDbBlockTableRecord
  2
*Model_Space
340
73
 70
     0
280
     1
281
     0
  0
BLOCK_RECORD
  5
6C
330
1
100
AcDbSymbolTableRecord
100
AcDbBlockTableRecord
  2
*Paper_Space
340
6F
 70
     0
280
     1
281
     0
  0
BLOCK_RECORD
  5
74
330
1
100
AcDbSymbolTableRecord
100
AcDbBlockTableRecord
  2
*Paper_Space0
340
77
 70
     0
280
     1
281
     0
  0
BLOCK_RECORD
  5
83
330
1
100
AcDbSymbolTableRecord
100
AcDbBlockTableRecord
  2
Block_0
340
0
102
{BLKREFS
331
84
102
}
 70
     0
280
     1
281
     0
  0
BLOCK_RECORD
  5
87
330
1
100
AcDbSymbolTableRecord
100
AcDbBlockTableRecord
  2
Block_1
340
0
102
{BLKREFS
331
88
102
}
 70
     0
280
     1
281
     0
  0
BLOCK_RECORD
  5
9D
330
1
100
AcDbSymbolTableRecord
100
AcDbBlockTableRecord
  2
Block_2
340
0
102
{BLKREFS
331
9E
102
}
 70
     0
280
     1
281
     0
  0
BLOCK_RECORD
  5
A1
330
1
100
AcDbSymbolTableRecord
100
AcDbBlockTableRecord
  2
Block_3
340
0
102
{BLKREFS
331
A2
102
}
 70
     0
280
     1
281
     0
  0
BLOCK_RECORD
  5
A5
330
1
100
AcDbSymbolTableRecord
100
AcDbBlockTableRecord
  2
Block_4
340
0
102
{BLKREFS
331
A6
102
}
 70
     0
280
     1
281
     0
  0
BLOCK_RECORD
  5
AE
330
1
100
AcDbSymbolTableRecord
100
AcDbBlockTableRecord
  2
Block_5
340
0
102
{BLKREFS
331
AF
102
}
 70
     0
280
     1
281
     0
  0
BLOCK_RECORD
  5
B2
330
1
100
AcDbSymbolTableRecord
100
AcDbBlockTableRecord
  2
Block_6
340
0
102
{BLKREFS
331
B3
102
}
 70
     0
280
     1
281
     0
  0
BLOCK_RECORD
  5
BB
330
1
100
AcDbSymbolTableRecord
100
AcDbBlockTableRecord
  2
Block_7
340
0
102
{BLKREFS
331
BC
102
}
 70
     0
280
     1
281
     0
  0
BLOCK_RECORD
  5
C0
330
1
100
AcDbSymbolTableRecord
100
AcDbBlockTableRecord
  2
Block_8
340
0
102
{BLKREFS
331
C1
102
}
 70
     0
280
     1
281
     0
  0
BLOCK_RECORD
  5
C8
330
1
100
AcDbSymbolTableRecord
100
AcDbBlockTableRecord
  2
Block_9
340
0
102
{BLKREFS
331
C9
102
}
 70
     0
280
     1
281
     0
  0
BLOCK_RECORD
  5
CC
330
1
100
AcDbSymbolTableRecord
100
AcDbBlockTableRecord
  2
Block_10
340
0
102
{BLKREFS
331
CD
102
}
 70
     0
280
     1
281
     0
  0
BLOCK_RECORD
  5
D5
330
1
100
AcDbSymbolTableRecord
100
AcDbBlockTableRecord
  2
Block_11
340
0
102
{BLKREFS
331
D6
102
}
 70
     0
280
     1
281
     0
  0
BLOCK_RECORD
  5
D9
330
1
100
AcDbSymbolTableRecord
100
AcDbBlockTableRecord
  2
Block_12
340
0
102
{BLKREFS
331
DA
102
}
 70
     0
280
     1
281
     0
  0
BLOCK_RECORD
  5
E2
330
1
100
AcDbSymbolTableRecord
100
AcDbBlockTableRecord
  2
Block_13
340
0
102
{BLKREFS
331
E3
102
}
 70
     0
280
     1
281
     0
  0
BLOCK_RECORD
  5
E6
330
1
100
AcDbSymbolTableRecord
100
AcDbBlockTableRecord
  2
Block_14
340
0
102
{BLKREFS
331
E7
102
}
 70
     0
280
     1
281
     0
  0
BLOCK_RECORD
  5
EF
330
1
100
AcDbSymbolTableRecord
100
AcDbBlockTableRecord
  2
Block_15
340
0
102
{BLKREFS
331
F0
102
}
 70
     0
280
     1
281
     0
  0
BLOCK_RECORD
  5
F3
330
1
100
AcDbSymbolTableRecord
100
AcDbBlockTableRecord
  2
Block_16
340
0
102
{BLKREFS
331
F4
102
}
 70
     0
280
     1
281
     0
  0
BLOCK_RECORD
  5
F7
330
1
100
AcDbSymbolTableRecord
100
AcDbBlockTableRecord
  2
Block_17
340
0
102
{BLKREFS
331
F8
102
}
 70
     0
280
     1
281
     0
  0
BLOCK_RECORD
  5
11B
330
1
100
AcDbSymbolTableRecord
100
AcDbBlockTableRecord
  2
Block_18
340
0
102
{BLKREFS
331
11C
102
}
 70
     0
280
     1
281
     0
  0
ENDTAB
  0
ENDSEC
  0
SECTION
  2
BLOCKS
  0
BLOCK
  5
71
330
70
100
AcDbEntity
  8
0
100
AcDbBlockBegin
  2
*Model_Space
 70
     0
 10
0.0
 20
0.0
 30
0.0
  3
*Model_Space
  1

  0
ENDBLK
  5
72
330
70
100
AcDbEntity
  8
0
100
AcDbBlockEnd
  0
BLOCK
  5
6D
330
6C
100
AcDbEntity
 67
     1
  8
0
100
AcDbBlockBegin
  2
*Paper_Space
 70
     0
 10
0.0
 20
0.0
 30
0.0
  3
*Paper_Space
  1

  0
ENDBLK
  5
6E
330
6C
100
AcDbEntity
 67
     1
  8
0
100
AcDbBlockEnd
  0
BLOCK
  5
75
330
74
100
AcDbEntity
 67
     1
  8
0
100
AcDbBlockBegin
  2
*Paper_Space0
 70
     0
 10
0.0
 20
0.0
 30
0.0
  3
*Paper_Space0
  1

  0
ENDBLK
  5
76
330
74
100
AcDbEntity
 67
     1
  8
0
100
AcDbBlockEnd
  0
BLOCK
  5
85
330
83
100
AcDbEntity
  8
0
100
AcDbBlockBegin
  2
Block_0
 70
     0
 10
0.0
 20
0.0
 30
0.0
  3
Block_0
  1

  0
INSERT
  5
88
330
83
100
AcDbEntity
  8
レイヤー 1
100
AcDbBlockReference
  2
Block_1
 10
0.0
 20
0.0
 30
0.0
  0
ENDBLK
  5
86
330
83
100
AcDbEntity
  8
0
100
AcDbBlockEnd
  0
BLOCK
  5
89
330
87
100
AcDbEntity
  8
0
100
AcDbBlockBegin
  2
Block_1
 70
     0
 10
0.0
 20
0.0
 30
0.0
  3
Block_1
  1

  0
SPLINE
  5
8B
330
87
100
AcDbEntity
  8
レイヤー 1
100
AcDbSpline
210
0.0
220
0.0
230
1.0
 70
     9
 71
     3
 72
    17
 73
    13
 74
     0
 42
0.0000000001
 43
0.0000000001
 40
0.0
 40
0.0
 40
0.0
 40
0.0
 40
1.0
 40
1.0
 40
1.0
 40
2.0
 40
2.0
 40
2.0
 40
3.0
 40
3.0
 40
3.0
 40
4.0
 40
4.0
 40
4.0
 40
4.0
 10
113.3429524456226
 20
-137.0400417409136
 30
0.0
 10
113.3260714777448
 20
-137.0694973073125
 30
0.0
 10
113.2754285741117
 20
-137.1626871401885
 30
0.0
 10
113.2647487781074
 20
-137.1816351653573
 30
0.0
 10
113.4552625584417
 20
-137.2408908077036
 30
0.0
 10
113.4762776409018
 20
-137.2472642343514
 30
0.0
 10
113.5482801365435
 20
-137.2748249982334
 30
0.0
 10
113.6034016643075
 20
-137.1880085920051
 30
0.0
 10
113.6264838040586
 20
-137.1139390390722
 30
0.0
 10
113.6412977146452
 20
-137.0400417409136
 30
0.0
 10
113.6412977146452
 20
-137.0400417409136
 30
0.0
 10
113.3429524456226
 20
-137.0400417409136
 30
0.0
 10
113.3429524456226
 20
-137.0400417409136
 30
0.0
  0
SPLINE
  5
8C
330
87
100
AcDbEntity
  8
レイヤー 1
100
AcDbSpline
210
0.0
220
0.0
230
1.0
 70
    11
 71
     3
 72
    20
 73
    16
 74
     0
 42
0.0000000001
 43
0.0000000001
 40
0.0
 40
0.0
 40
0.0
 40
0.0
 40
1.0
 40
1.0
 40
1.0
 40
2.0
 40
2.0
 40
2.0
 40
3.0
 40
3.0
 40
3.0
 40
4.0
 40
4.0
 40
4.0
 40
5.0
 40
5.0
 40
5.0
 40
5.0
 10
113.279562688694
 20
-136.1896199203797
 30
0.0
 10
113.279562688694
 20
-136.1896199203797
 30
0.0
 10
113.2478678102297
 20
-136.1896199203797
 30
0.0
 10
113.2478678102297
 20
-136.1896199203797
 30
0.0
 10
113.2943765992806
 20
-136.2890109251291
 30
0.0
 10
113.3260714777448
 20
-136.3692816499354
 30
0.0
 10
113.3598334135003
 20
-136.4962334185669
 30
0.0
 10
113.3598334135003
 20
-136.4962334185669
 30
0.0
 10
113.5672281617123
 20
-136.4962334185669
 30
0.0
 10
113.5672281617123
 20
-136.4962334185669
 30
0.0
 10
113.5989230401766
 20
-136.4032158404651
 30
0.0
 10
113.6223496894763
 20
-136.3186387463023
 30
0.0
 10
113.6454318292275
 20
-136.1896199203797
 30
0.0
 10
113.6454318292275
 20
-136.1896199203797
 30
0.0
 10
113.279562688694
 20
-136.1896199203797
 30
0.0
 10
113.279562688694
 20
-136.1896199203797
 30
0.0
  0
SPLINE
  5
8D
330
87
100
AcDbEntity
  8
レイヤー 1
100
AcDbSpline
210
0.0
220
0.0
230
1.0
 70
     9
 71
     3
 72
   242
 73
   238
 74
     0
 42
0.0000000001
 43
0.0000000001
 40
0.0
 40
0.0
 40
0.0
 40
0.0
 40
1.0
 40
1.0
 40
1.0
 40
2.0
 40
2.0
 40
2.0
 40
3.0
 40
3.0
 40
3.0
 40
4.0
 40
4.0
 40
4.0
 40
5.0
 40
5.0
 40
5.0
 40
6.0
 40
6.0
 40
6.0
 40
7.0
 40
7.0
 40
7.0
 40
8.0
 40
8.0
 40
8.0
 40
9.0
 40
9.0
 40
9.0
 40
10.0
 40
10.0
 40
10.0
 40
11.0
 40
11.0
 40
11.0
 40
12.0
 40
12.0
 40
12.0
 40
13.0
 40
13.0
 40
13.0
 40
14.0
 40
14.0
 40
14.0
 40
15.0
 40
15.0
 40
15.0
 40
16.0
 40
16.0
 40
16.0
 40
17.0
 40
17.0
 40
17.0
 40
18.0
 40
18.0
 40
18.0
 40
19.0
 40
19.0
 40
19.0
 40
20.0
 40
20.0
 40
20.0
 40
21.0
 40
21.0
 40
21.0
 40
22.0
 40
22.0
 40
22.0
 40
23.0
 40
23.0
 40
23.0
 40
24.0
 40
24.0
 40
24.0
 40
25.0
 40
25.0
 40
25.0
 40
26.0
 40
26.0
 40
26.0
 40
27.0
 40
27.0
 40
27.0
 40
28.0
 40
28.0
 40
28.0
 40
29.0
 40
29.0
 40
29.0
 40
30.0
 40
30.0
 40
30.0
 40
31.0
 40
31.0
 40
31.0
 40
32.0
 40
32.0
 40
32.0
 40
33.0
 40
33.0
 40
33.0
 40
34.0
 40
34.0
 40
34.0
 40
35.0
 40
35.0
 40
35.0
 40
36.0
 40
36.0
 40
36.0
 40
37.0
 40
37.0
 40
37.0
 40
38.0
 40
38.0
 40
38.0
 40
39.0
 40
39.0
 40
39.0
 40
40.0
 40
40.0
 40
40.0
 40
41.0
 40
41.0
 40
41.0
 40
42.0
 40
42.0
 40
42.0
 40
43.0
 40
43.0
 40
43.0
 40
44.0
 40
44.0
 40
44.0
 40
45.0
 40
45.0
 40
45.0
 40
46.0
 40
46.0
 40
46.0
 40
47.0
 40
47.0
 40
47.0
 40
48.0
 40
48.0
 40
48.0
 40
49.0
 40
49.0
 40
49.0
 40
50.0
 40
50.0
 40
50.0
 40
51.0
 40
51.0
 40
51.0
 40
52.0
 40
52.0
 40
52.0
 40
53.0
 40
53.0
 40
53.0
 40
54.0
 40
54.0
 40
54.0
 40
55.0
 40
55.0
 40
55.0
 40
56.0
 40
56.0
 40
56.0
 40
57.0
 40
57.0
 40
57.0
 40
58.0
 40
58.0
 40
58.0
 40
59.0
 40
59.0
 40
59.0
 40
60.0
 40
60.0
 40
60.0
 40
61.0
 40
61.0
 40
61.0
 40
62.0
 40
62.0
 40
62.0
 40
63.0
 40
63.0
 40
63.0
 40
64.0
 40
64.0
 40
64.0
 40
65.0
 40
65.0
 40
65.0
 40
66.0
 40
66.0
 40
66.0
 40
67.0
 40
67.0
 40
67.0
 40
68.0
 40
68.0
 40
68.0
 40
69.0
 40
69.0
 40
69.0
 40
70.0
 40
70.0
 40
70.0
 40
71.0
 40
71.0
 40
71.0
 40
72.0
 40
72.0
 40
72.0
 40
73.0
 40
73.0
 40
73.0
 40
74.0
 40
74.0
 40
74.0
 40
75.0
 40
75.0
 40
75.0
 40
76.0
 40
76.0
 40
76.0
 40
77.0
 40
77.0
 40
77.0
 40
78.0
 40
78.0
 40
78.0
 40
79.0
 40
79.0
 40
79.0
 40
79.0
 10
113.9079481052035
 20
-136.6548800656626
 30
0.0
 10
113.9079481052035
 20
-136.6548800656626
 30
0.0
 10
113.6540445679406
 20
-136.6548800656626
 30
0.0
 10
113.6540445679406
 20
-136.6548800656626
 30
0.0
 10
113.6540445679406
 20
-136.6548800656626
 30
0.0
 10
113.3770588909265
 20
-136.6548800656626
 30
0.0
 10
113.3770588909265
 20
-136.6548800656626
 30
0.0
 10
113.3770588909265
 20
-136.6548800656626
 30
0.0
 10
113.5038384047837
 20
-136.6972547401312
 30
0.0
 10
113.5038384047837
 20
-136.6972547401312
 30
0.0
 10
113.514518200788
 20
-136.7015611094878
 30
0.0
 10
113.5272650540835
 20
-136.7077622813612
 30
0.0
 10
113.5272650540835
 20
-136.7205091346566
 30
0.0
 10
113.5272650540835
 20
-136.741696471891
 30
0.0
 10
113.4952256660706
 20
-136.7480698985387
 30
0.0
 10
113.4742105836106
 20
-136.752204013121
 30
0.0
 10
113.4635307876063
 20
-136.7754584076464
 30
0.0
 10
113.4339029664332
 20
-136.8410874766404
 30
0.0
 10
113.4149549412643
 20
-136.8855292084001
 30
0.0
 10
113.4149549412643
 20
-136.8855292084001
 30
0.0
 10
113.6857394464049
 20
-136.8855292084001
 30
0.0
 10
113.6857394464049
 20
-136.8855292084001
 30
0.0
 10
113.7766899672155
 20
-136.8855292084001
 30
0.0
 10
113.9734049194233
 20
-136.8812228390436
 30
0.0
 10
114.1153428534156
 20
-136.8727823551047
 30
0.0
 10
114.1153428534156
 20
-136.8727823551047
 30
0.0
 10
114.1153428534156
 20
-137.0505492821436
 30
0.0
 10
114.1153428534156
 20
-137.0505492821436
 30
0.0
 10
114.0326605617696
 20
-137.046242912787
 30
0.0
 10
114.0116454793096
 20
-137.046242912787
 30
0.0
 10
113.8318114949795
 20
-137.0421087982047
 30
0.0
 10
113.8001166165152
 20
-137.1964490759439
 30
0.0
 10
113.7556748847555
 20
-137.2768920555245
 30
0.0
 10
113.7112331529958
 20
-137.3466552391008
 30
0.0
 10
113.8318114949795
 20
-137.4059108814471
 30
0.0
 10
113.9375759263767
 20
-137.4736070077323
 30
0.0
 10
114.0412733004827
 20
-137.556117044604
 30
0.0
 10
114.0412733004827
 20
-137.556117044604
 30
0.0
 10
113.9227620157901
 20
-137.7232041756386
 30
0.0
 10
113.9227620157901
 20
-137.7232041756386
 30
0.0
 10
113.8993353664904
 20
-137.7042561504697
 30
0.0
 10
113.886588513195
 20
-137.6958156665309
 30
0.0
 10
113.7746229099244
 20
-137.6110663175938
 30
0.0
 10
113.7260470635824
 20
-137.5729980124817
 30
0.0
 10
113.6667914212361
 20
-137.5371690194352
 30
0.0
 10
113.5861761868812
 20
-137.4927272876754
 30
0.0
 10
113.3746473240869
 20
-137.6789346986532
 30
0.0
 10
113.1696641427145
 20
-137.7021890931786
 30
0.0
 10
112.8795871028565
 20
-137.7318169143518
 30
0.0
 10
112.8795871028565
 20
-137.7318169143518
 30
0.0
 10
112.776234238299
 20
-137.5519829300217
 30
0.0
 10
112.776234238299
 20
-137.5519829300217
 30
0.0
 10
113.0935275324905
 20
-137.5476765606651
 30
0.0
 10
113.2688828926897
 20
-137.5223551088486
 30
0.0
 10
113.4211561131377
 20
-137.4122843080948
 30
0.0
 10
113.3029893379937
 20
-137.3614691496874
 30
0.0
 10
113.2141058744742
 20
-137.3340806405797
 30
0.0
 10
113.1779323718791
 20
-137.3213337872842
 30
0.0
 10
113.1589843467102
 20
-137.3488945511663
 30
0.0
 10
113.1441704361237
 20
-137.3678425763351
 30
0.0
 10
113.1166096722417
 20
-137.4017767668648
 30
0.0
 10
113.1166096722417
 20
-137.4017767668648
 30
0.0
 10
112.9198947200339
 20
-137.3192667299931
 30
0.0
 10
112.9198947200339
 20
-137.3192667299931
 30
0.0
 10
113.0025770116799
 20
-137.2388237504125
 30
0.0
 10
113.0638997113173
 20
-137.1435668602453
 30
0.0
 10
113.1207437868239
 20
-137.0421087982047
 30
0.0
 10
112.9305745160382
 20
-137.046242912787
 30
0.0
 10
112.9092149240296
 20
-137.046242912787
 30
0.0
 10
112.8268771419322
 20
-137.0505492821436
 30
0.0
 10
112.8268771419322
 20
-137.0505492821436
 30
0.0
 10
112.8268771419322
 20
-136.8727823551047
 30
0.0
 10
112.8268771419322
 20
-136.8727823551047
 30
0.0
 10
112.9664035090848
 20
-136.8791557817524
 30
0.0
 10
113.175865314588
 20
-136.883462151109
 30
0.0
 10
113.2013590211788
 20
-136.883462151109
 30
0.0
 10
113.2182399890565
 20
-136.8495279605792
 30
0.0
 10
113.2733615168205
 20
-136.7289496185955
 30
0.0
 10
113.2923095419894
 20
-136.6548800656626
 30
0.0
 10
113.2733615168205
 20
-136.6548800656626
 30
0.0
 10
113.0955945897816
 20
-136.6612534923103
 30
0.0
 10
112.900946694865
 20
-136.6740003456058
 30
0.0
 10
112.900946694865
 20
-136.6740003456058
 30
0.0
 10
112.900946694865
 20
-136.807325540885
 30
0.0
 10
112.900946694865
 20
-136.807325540885
 30
0.0
 10
112.852370848523
 20
-136.8326469927015
 30
0.0
 10
112.7931152061767
 20
-136.8643418711658
 30
0.0
 10
112.6597900108975
 20
-136.9299709401599
 30
0.0
 10
112.6597900108975
 20
-136.9299709401599
 30
0.0
 10
112.6597900108975
 20
-137.0758707339602
 30
0.0
 10
112.6597900108975
 20
-137.0758707339602
 30
0.0
 10
112.6597900108975
 20
-137.0758707339602
 30
0.0
 10
112.6597900108975
 20
-137.5435424460829
 30
0.0
 10
112.6597900108975
 20
-137.5435424460829
 30
0.0
 10
112.6597900108975
 20
-137.67032195994
 30
0.0
 10
112.6236165083024
 20
-137.7295776022863
 30
0.0
 10
112.3404296594149
 20
-137.7211371183475
 30
0.0
 10
112.3404296594149
 20
-137.7211371183475
 30
0.0
 10
112.2367322853089
 20
-137.5139146249097
 30
0.0
 10
112.2367322853089
 20
-137.5139146249097
 30
0.0
 10
112.3001220422374
 20
-137.5264892234308
 30
0.0
 10
112.3486978885795
 20
-137.5307955927874
 30
0.0
 10
112.3890055057569
 20
-137.5307955927874
 30
0.0
 10
112.4651421159809
 20
-137.5307955927874
 30
0.0
 10
112.4758219119852
 20
-137.507541198262
 30
0.0
 10
112.4758219119852
 20
-137.441912129268
 30
0.0
 10
112.4758219119852
 20
-137.441912129268
 30
0.0
 10
112.4758219119852
 20
-137.0124809770316
 30
0.0
 10
112.4758219119852
 20
-137.0124809770316
 30
0.0
 10
112.3783257097526
 20
-137.0526163394347
 30
0.0
 10
112.3614447418749
 20
-137.0589897660825
 30
0.0
 10
112.314935952824
 20
-137.0781100460256
 30
0.0
 10
112.3108018382417
 20
-137.0991251284856
 30
0.0
 10
112.3063232141109
 20
-137.1287529496588
 30
0.0
 10
112.287375188942
 20
-137.1287529496588
 30
0.0
 10
112.2791069597774
 20
-137.1287529496588
 30
0.0
 10
112.2684271637732
 20
-137.1246188350765
 30
0.0
 10
112.2618814823512
 20
-137.101364440551
 30
0.0
 10
112.2618814823512
 20
-137.101364440551
 30
0.0
 10
112.2091715214269
 20
-136.9087836029255
 30
0.0
 10
112.2091715214269
 20
-136.9087836029255
 30
0.0
 10
112.3552435700015
 20
-136.8622748138747
 30
0.0
 10
112.4207003842212
 20
-136.8390204193492
 30
0.0
 10
112.4758219119852
 20
-136.817833082115
 30
0.0
 10
112.4758219119852
 20
-136.817833082115
 30
0.0
 10
112.4758219119852
 20
-136.4052828977563
 30
0.0
 10
112.4758219119852
 20
-136.4052828977563
 30
0.0
 10
112.4758219119852
 20
-136.4052828977563
 30
0.0
 10
112.4227674415123
 20
-136.4052828977563
 30
0.0
 10
112.4227674415123
 20
-136.4052828977563
 30
0.0
 10
112.4227674415123
 20
-136.4052828977563
 30
0.0
 10
112.3445637739972
 20
-136.4052828977563
 30
0.0
 10
112.3445637739972
 20
-136.4052828977563
 30
0.0
 10
112.2766953929378
 20
-136.4052828977563
 30
0.0
 10
112.2684271637732
 20
-136.4052828977563
 30
0.0
 10
112.232253661178
 20
-136.411656324404
 30
0.0
 10
112.232253661178
 20
-136.411656324404
 30
0.0
 10
112.232253661178
 20
-136.2170084294874
 30
0.0
 10
112.232253661178
 20
-136.2170084294874
 30
0.0
 10
112.25981442506
 20
-136.2233818561351
 30
0.0
 10
112.2684271637732
 20
-136.2233818561351
 30
0.0
 10
112.3380180925752
 20
-136.2233818561351
 30
0.0
 10
112.3380180925752
 20
-136.2233818561351
 30
0.0
 10
112.4713432878544
 20
-136.2233818561351
 30
0.0
 10
112.4713432878544
 20
-136.2233818561351
 30
0.0
 10
112.4713432878544
 20
-136.1536186725588
 30
0.0
 10
112.4713432878544
 20
-136.0711086356871
 30
0.0
 10
112.4692762305632
 20
-136.0668022663305
 30
0.0
 10
112.4610080013986
 20
-135.8869682820005
 30
0.0
 10
112.4610080013986
 20
-135.8680202568316
 30
0.0
 10
112.4585964345589
 20
-135.8215114677807
 30
0.0
 10
112.4585964345589
 20
-135.8215114677807
 30
0.0
 10
112.6746039214841
 20
-135.8299519517196
 30
0.0
 10
112.6746039214841
 20
-135.8299519517196
 30
0.0
 10
112.6852837174884
 20
-135.8299519517196
 30
0.0
 10
112.7062987999484
 20
-135.8320190090107
 30
0.0
 10
112.7062987999484
 20
-135.8488999768884
 30
0.0
 10
112.7062987999484
 20
-135.8680202568316
 30
0.0
 10
112.6914848893618
 20
-135.8785277980616
 30
0.0
 10
112.665991182771
 20
-135.8976480780047
 30
0.0
 10
112.665991182771
 20
-135.9482909816379
 30
0.0
 10
112.6597900108975
 20
-136.1768730670843
 30
0.0
 10
112.6618570681887
 20
-136.2233818561351
 30
0.0
 10
112.7910481488856
 20
-136.2233818561351
 30
0.0
 10
112.8034504926324
 20
-136.2233818561351
 30
0.0
 10
112.900946694865
 20
-136.2149413721962
 30
0.0
 10
112.900946694865
 20
-136.2149413721962
 30
0.0
 10
112.900946694865
 20
-136.4095892671129
 30
0.0
 10
112.900946694865
 20
-136.4095892671129
 30
0.0
 10
112.8627061349787
 20
-136.4073499550474
 30
0.0
 10
112.7951822634678
 20
-136.4032158404651
 30
0.0
 10
112.6597900108975
 20
-136.4052828977563
 30
0.0
 10
112.6597900108975
 20
-136.4052828977563
 30
0.0
 10
112.6597900108975
 20
-136.7437635291821
 30
0.0
 10
112.6597900108975
 20
-136.7437635291821
 30
0.0
 10
112.7149115386615
 20
-136.7205091346566
 30
0.0
 10
112.7803683528813
 20
-136.6929483707747
 30
0.0
 10
112.8289441992233
 20
-136.6696939762492
 30
0.0
 10
112.8289441992233
 20
-136.6696939762492
 30
0.0
 10
112.8289441992233
 20
-136.4920993039846
 30
0.0
 10
112.8289441992233
 20
-136.4920993039846
 30
0.0
 10
112.9433213693336
 20
-136.5046739025058
 30
0.0
 10
113.0618326540262
 20
-136.5046739025058
 30
0.0
 10
113.1779323718791
 20
-136.5046739025058
 30
0.0
 10
113.1548502321279
 20
-136.4095892671129
 30
0.0
 10
113.1272894682459
 20
-136.3270792302411
 30
0.0
 10
113.0638997113173
 20
-136.193754034962
 30
0.0
 10
113.0194579795576
 20
-136.1958210922531
 30
0.0
 10
112.9367756879116
 20
-136.2001274616097
 30
0.0
 10
112.8988796375739
 20
-136.2021945189008
 30
0.0
 10
112.8988796375739
 20
-136.2021945189008
 30
0.0
 10
112.8988796375739
 20
-136.0223605345708
 30
0.0
 10
112.8988796375739
 20
-136.0223605345708
 30
0.0
 10
113.0235920941399
 20
-136.0308010185096
 30
0.0
 10
113.1972249065965
 20
-136.0351073878662
 30
0.0
 10
113.279562688694
 20
-136.0351073878662
 30
0.0
 10
113.279562688694
 20
-136.0351073878662
 30
0.0
 10
113.36224498034
 20
-136.0351073878662
 30
0.0
 10
113.36224498034
 20
-136.0351073878662
 30
0.0
 10
113.36224498034
 20
-135.8721543714139
 30
0.0
 10
113.36224498034
 20
-135.8616468301839
 30
0.0
 10
113.3598334135003
 20
-135.8066975571941
 30
0.0
 10
113.3598334135003
 20
-135.8066975571941
 30
0.0
 10
113.5841091295901
 20
-135.8320190090107
 30
0.0
 10
113.5841091295901
 20
-135.8320190090107
 30
0.0
 10
113.5885877537209
 20
-135.8320190090107
 30
0.0
 10
113.6096028361809
 20
-135.8340860663019
 30
0.0
 10
113.6096028361809
 20
-135.8509670341796
 30
0.0
 10
113.6096028361809
 20
-135.8657809447662
 30
0.0
 10
113.5989230401766
 20
-135.8743936834793
 30
0.0
 10
113.5713622762946
 20
-135.8892075940659
 30
0.0
 10
113.5651611044212
 20
-135.9546644082856
 30
0.0
 10
113.56309404713
 20
-135.9758517455199
 30
0.0
 10
113.56309404713
 20
-136.0351073878662
 30
0.0
 10
113.56309404713
 20
-136.0351073878662
 30
0.0
 10
113.6581786825229
 20
-136.0351073878662
 30
0.0
 10
113.6581786825229
 20
-136.0351073878662
 30
0.0
 10
113.7408609741689
 20
-136.0351073878662
 30
0.0
 10
113.914149277077
 20
-136.0308010185096
 30
0.0
 10
114.0392062431916
 20
-136.0223605345708
 30
0.0
 10
114.0392062431916
 20
-136.0223605345708
 30
0.0
 10
114.0392062431916
 20
-136.2021945189008
 30
0.0
 10
114.0392062431916
 20
-136.2021945189008
 30
0.0
 10
114.0095784220184
 20
-136.2001274616097
 30
0.0
 10
113.8910671373258
 20
-136.1958210922531
 30
0.0
 10
113.8507595201484
 20
-136.193754034962
 30
0.0
 10
113.8359456095618
 20
-136.2445691933694
 30
0.0
 10
113.8021836738064
 20
-136.3567070514143
 30
0.0
 10
113.7363823500381
 20
-136.4962334185669
 30
0.0
 10
113.7787570245067
 20
-136.4962334185669
 30
0.0
 10
114.0560872110693
 20
-136.477285393398
 30
0.0
 10
114.1174099107068
 20
-136.4750460813326
 30
0.0
 10
114.1174099107068
 20
-136.4750460813326
 30
0.0
 10
114.1174099107068
 20
-136.6591864350192
 30
0.0
 10
114.1174099107068
 20
-136.6591864350192
 30
0.0
 10
114.0877820895336
 20
-136.6591864350192
 30
0.0
 10
114.0709011216559
 20
-136.6548800656626
 30
0.0
 10
113.9079481052035
 20
-136.6548800656626
 30
0.0
  0
HATCH
  5
8E
330
87
100
AcDbEntity
  8
レイヤー 1
 62
   250
420
  2299925
440
 33554687
100
AcDbHatch
 10
0.0
 20
0.0
 30
0.0
210
0.0
220
0.0
230
1.0
  2
SOLID
 70
     1
 71
     1
 91
        3
 92
        1
 93
        1
 72
     4
 94
        3
 73
     0
 74
     0
 95
       17
 96
       13
 40
0.0
 40
0.0
 40
0.0
 40
0.0
 40
1.0
 40
1.0
 40
1.0
 40
2.0
 40
2.0
 40
2.0
 40
3.0
 40
3.0
 40
3.0
 40
4.0
 40
4.0
 40
4.0
 40
4.0
 10
113.3429524456226
 20
-137.0400417409136
 10
113.3260714777448
 20
-137.0694973073125
 10
113.2754285741117
 20
-137.1626871401885
 10
113.2647487781074
 20
-137.1816351653573
 10
113.4552625584417
 20
-137.2408908077036
 10
113.4762776409018
 20
-137.2472642343514
 10
113.5482801365435
 20
-137.2748249982334
 10
113.6034016643075
 20
-137.1880085920051
 10
113.6264838040586
 20
-137.1139390390722
 10
113.6412977146452
 20
-137.0400417409136
 10
113.6412977146452
 20
-137.0400417409136
 10
113.3429524456226
 20
-137.0400417409136
 10
113.3429524456226
 20
-137.0400417409136
 97
        0
 97
        1
330
8B
 92
        1
 93
        1
 72
     4
 94
        3
 73
     0
 74
     0
 95
       20
 96
       16
 40
0.0
 40
0.0
 40
0.0
 40
0.0
 40
1.0
 40
1.0
 40
1.0
 40
2.0
 40
2.0
 40
2.0
 40
3.0
 40
3.0
 40
3.0
 40
4.0
 40
4.0
 40
4.0
 40
5.0
 40
5.0
 40
5.0
 40
5.0
 10
113.279562688694
 20
-136.1896199203797
 10
113.279562688694
 20
-136.1896199203797
 10
113.2478678102297
 20
-136.1896199203797
 10
113.2478678102297
 20
-136.1896199203797
 10
113.2943765992806
 20
-136.2890109251291
 10
113.3260714777448
 20
-136.3692816499354
 10
113.3598334135003
 20
-136.4962334185669
 10
113.3598334135003
 20
-136.4962334185669
 10
113.5672281617123
 20
-136.4962334185669
 10
113.5672281617123
 20
-136.4962334185669
 10
113.5989230401766
 20
-136.4032158404651
 10
113.6223496894763
 20
-136.3186387463023
 10
113.6454318292275
 20
-136.1896199203797
 10
113.6454318292275
 20
-136.1896199203797
 10
113.279562688694
 20
-136.1896199203797
 10
113.279562688694
 20
-136.1896199203797
 97
        0
 97
        1
330
8C
 92
        1
 93
        1
 72
     4
 94
        3
 73
     0
 74
     0
 95
      242
 96
      238
 40
0.0
 40
0.0
 40
0.0
 40
0.0
 40
1.0
 40
1.0
 40
1.0
 40
2.0
 40
2.0
 40
2.0
 40
3.0
 40
3.0
 40
3.0
 40
4.0
 40
4.0
 40
4.0
 40
5.0
 40
5.0
 40
5.0
 40
6.0
 40
6.0
 40
6.0
 40
7.0
 40
7.0
 40
7.0
 40
8.0
 40
8.0
 40
8.0
 40
9.0
 40
9.0
 40
9.0
 40
10.0
 40
10.0
 40
10.0
 40
11.0
 40
11.0
 40
11.0
 40
12.0
 40
12.0
 40
12.0
 40
13.0
 40
13.0
 40
13.0
 40
14.0
 40
14.0
 40
14.0
 40
15.0
 40
15.0
 40
15.0
 40
16.0
 40
16.0
 40
16.0
 40
17.0
 40
17.0
 40
17.0
 40
18.0
 40
18.0
 40
18.0
 40
19.0
 40
19.0
 40
19.0
 40
20.0
 40
20.0
 40
20.0
 40
21.0
 40
21.0
 40
21.0
 40
22.0
 40
22.0
 40
22.0
 40
23.0
 40
23.0
 40
23.0
 40
24.0
 40
24.0
 40
24.0
 40
25.0
 40
25.0
 40
25.0
 40
26.0
 40
26.0
 40
26.0
 40
27.0
 40
27.0
 40
27.0
 40
28.0
 40
28.0
 40
28.0
 40
29.0
 40
29.0
 40
29.0
 40
30.0
 40
30.0
 40
30.0
 40
31.0
 40
31.0
 40
31.0
 40
32.0
 40
32.0
 40
32.0
 40
33.0
 40
33.0
 40
33.0
 40
34.0
 40
34.0
 40
34.0
 40
35.0
 40
35.0
 40
35.0
 40
36.0
 40
36.0
 40
36.0
 40
37.0
 40
37.0
 40
37.0
 40
38.0
 40
38.0
 40
38.0
 40
39.0
 40
39.0
 40
39.0
 40
40.0
 40
40.0
 40
40.0
 40
41.0
 40
41.0
 40
41.0
 40
42.0
 40
42.0
 40
42.0
 40
43.0
 40
43.0
 40
43.0
 40
44.0
 40
44.0
 40
44.0
 40
45.0
 40
45.0
 40
45.0
 40
46.0
 40
46.0
 40
46.0
 40
47.0
 40
47.0
 40
47.0
 40
48.0
 40
48.0
 40
48.0
 40
49.0
 40
49.0
 40
49.0
 40
50.0
 40
50.0
 40
50.0
 40
51.0
 40
51.0
 40
51.0
 40
52.0
 40
52.0
 40
52.0
 40
53.0
 40
53.0
 40
53.0
 40
54.0
 40
54.0
 40
54.0
 40
55.0
 40
55.0
 40
55.0
 40
56.0
 40
56.0
 40
56.0
 40
57.0
 40
57.0
 40
57.0
 40
58.0
 40
58.0
 40
58.0
 40
59.0
 40
59.0
 40
59.0
 40
60.0
 40
60.0
 40
60.0
 40
61.0
 40
61.0
 40
61.0
 40
62.0
 40
62.0
 40
62.0
 40
63.0
 40
63.0
 40
63.0
 40
64.0
 40
64.0
 40
64.0
 40
65.0
 40
65.0
 40
65.0
 40
66.0
 40
66.0
 40
66.0
 40
67.0
 40
67.0
 40
67.0
 40
68.0
 40
68.0
 40
68.0
 40
69.0
 40
69.0
 40
69.0
 40
70.0
 40
70.0
 40
70.0
 40
71.0
 40
71.0
 40
71.0
 40
72.0
 40
72.0
 40
72.0
 40
73.0
 40
73.0
 40
73.0
 40
74.0
 40
74.0
 40
74.0
 40
75.0
 40
75.0
 40
75.0
 40
76.0
 40
76.0
 40
76.0
 40
77.0
 40
77.0
 40
77.0
 40
78.0
 40
78.0
 40
78.0
 40
79.0
 40
79.0
 40
79.0
 40
79.0
 10
113.9079481052035
 20
-136.6548800656626
 10
113.9079481052035
 20
-136.6548800656626
 10
113.6540445679406
 20
-136.6548800656626
 10
113.6540445679406
 20
-136.6548800656626
 10
113.6540445679406
 20
-136.6548800656626
 10
113.3770588909265
 20
-136.6548800656626
 10
113.3770588909265
 20
-136.6548800656626
 10
113.3770588909265
 20
-136.6548800656626
 10
113.5038384047837
 20
-136.6972547401312
 10
113.5038384047837
 20
-136.6972547401312
 10
113.514518200788
 20
-136.7015611094878
 10
113.5272650540835
 20
-136.7077622813612
 10
113.5272650540835
 20
-136.7205091346566
 10
113.5272650540835
 20
-136.741696471891
 10
113.4952256660706
 20
-136.7480698985387
 10
113.4742105836106
 20
-136.752204013121
 10
113.4635307876063
 20
-136.7754584076464
 10
113.4339029664332
 20
-136.8410874766404
 10
113.4149549412643
 20
-136.8855292084001
 10
113.4149549412643
 20
-136.8855292084001
 10
113.6857394464049
 20
-136.8855292084001
 10
113.6857394464049
 20
-136.8855292084001
 10
113.7766899672155
 20
-136.8855292084001
 10
113.9734049194233
 20
-136.8812228390436
 10
114.1153428534156
 20
-136.8727823551047
 10
114.1153428534156
 20
-136.8727823551047
 10
114.1153428534156
 20
-137.0505492821436
 10
114.1153428534156
 20
-137.0505492821436
 10
114.0326605617696
 20
-137.046242912787
 10
114.0116454793096
 20
-137.046242912787
 10
113.8318114949795
 20
-137.0421087982047
 10
113.8001166165152
 20
-137.1964490759439
 10
113.7556748847555
 20
-137.2768920555245
 10
113.7112331529958
 20
-137.3466552391008
 10
113.8318114949795
 20
-137.4059108814471
 10
113.9375759263767
 20
-137.4736070077323
 10
114.0412733004827
 20
-137.556117044604
 10
114.0412733004827
 20
-137.556117044604
 10
113.9227620157901
 20
-137.7232041756386
 10
113.9227620157901
 20
-137.7232041756386
 10
113.8993353664904
 20
-137.7042561504697
 10
113.886588513195
 20
-137.6958156665309
 10
113.7746229099244
 20
-137.6110663175938
 10
113.7260470635824
 20
-137.5729980124817
 10
113.6667914212361
 20
-137.5371690194352
 10
113.5861761868812
 20
-137.4927272876754
 10
113.3746473240869
 20
-137.6789346986532
 10
113.1696641427145
 20
-137.7021890931786
 10
112.8795871028565
 20
-137.7318169143518
 10
112.8795871028565
 20
-137.7318169143518
 10
112.776234238299
 20
-137.5519829300217
 10
112.776234238299
 20
-137.5519829300217
 10
113.0935275324905
 20
-137.5476765606651
 10
113.2688828926897
 20
-137.5223551088486
 10
113.4211561131377
 20
-137.4122843080948
 10
113.3029893379937
 20
-137.3614691496874
 10
113.2141058744742
 20
-137.3340806405797
 10
113.1779323718791
 20
-137.3213337872842
 10
113.1589843467102
 20
-137.3488945511663
 10
113.1441704361237
 20
-137.3678425763351
 10
113.1166096722417
 20
-137.4017767668648
 10
113.1166096722417
 20
-137.4017767668648
 10
112.9198947200339
 20
-137.3192667299931
 10
112.9198947200339
 20
-137.3192667299931
 10
113.0025770116799
 20
-137.2388237504125
 10
113.0638997113173
 20
-137.1435668602453
 10
113.1207437868239
 20
-137.0421087982047
 10
112.9305745160382
 20
-137.046242912787
 10
112.9092149240296
 20
-137.046242912787
 10
112.8268771419322
 20
-137.0505492821436
 10
112.8268771419322
 20
-137.0505492821436
 10
112.8268771419322
 20
-136.8727823551047
 10
112.8268771419322
 20
-136.8727823551047
 10
112.9664035090848
 20
-136.8791557817524
 10
113.175865314588
 20
-136.883462151109
 10
113.2013590211788
 20
-136.883462151109
 10
113.2182399890565
 20
-136.8495279605792
 10
113.2733615168205
 20
-136.7289496185955
 10
113.2923095419894
 20
-136.6548800656626
 10
113.2733615168205
 20
-136.6548800656626
 10
113.0955945897816
 20
-136.6612534923103
 10
112.900946694865
 20
-136.6740003456058
 10
112.900946694865
 20
-136.6740003456058
 10
112.900946694865
 20
-136.807325540885
 10
112.900946694865
 20
-136.807325540885
 10
112.852370848523
 20
-136.8326469927015
 10
112.7931152061767
 20
-136.8643418711658
 10
112.6597900108975
 20
-136.9299709401599
 10
112.6597900108975
 20
-136.9299709401599
 10
112.6597900108975
 20
-137.0758707339602
 10
112.6597900108975
 20
-137.0758707339602
 10
112.6597900108975
 20
-137.0758707339602
 10
112.6597900108975
 20
-137.5435424460829
 10
112.6597900108975
 20
-137.5435424460829
 10
112.6597900108975
 20
-137.67032195994
 10
112.6236165083024
 20
-137.7295776022863
 10
112.3404296594149
 20
-137.7211371183475
 10
112.3404296594149
 20
-137.7211371183475
 10
112.2367322853089
 20
-137.5139146249097
 10
112.2367322853089
 20
-137.5139146249097
 10
112.3001220422374
 20
-137.5264892234308
 10
112.3486978885795
 20
-137.5307955927874
 10
112.3890055057569
 20
-137.5307955927874
 10
112.4651421159809
 20
-137.5307955927874
 10
112.4758219119852
 20
-137.507541198262
 10
112.4758219119852
 20
-137.441912129268
 10
112.4758219119852
 20
-137.441912129268
 10
112.4758219119852
 20
-137.0124809770316
 10
112.4758219119852
 20
-137.0124809770316
 10
112.3783257097526
 20
-137.0526163394347
 10
112.3614447418749
 20
-137.0589897660825
 10
112.314935952824
 20
-137.0781100460256
 10
112.3108018382417
 20
-137.0991251284856
 10
112.3063232141109
 20
-137.1287529496588
 10
112.287375188942
 20
-137.1287529496588
 10
112.2791069597774
 20
-137.1287529496588
 10
112.2684271637732
 20
-137.1246188350765
 10
112.2618814823512
 20
-137.101364440551
 10
112.2618814823512
 20
-137.101364440551
 10
112.2091715214269
 20
-136.9087836029255
 10
112.2091715214269
 20
-136.9087836029255
 10
112.3552435700015
 20
-136.8622748138747
 10
112.4207003842212
 20
-136.8390204193492
 10
112.4758219119852
 20
-136.817833082115
 10
112.4758219119852
 20
-136.817833082115
 10
112.4758219119852
 20
-136.4052828977563
 10
112.4758219119852
 20
-136.4052828977563
 10
112.4758219119852
 20
-136.4052828977563
 10
112.4227674415123
 20
-136.4052828977563
 10
112.4227674415123
 20
-136.4052828977563
 10
112.4227674415123
 20
-136.4052828977563
 10
112.3445637739972
 20
-136.4052828977563
 10
112.3445637739972
 20
-136.4052828977563
 10
112.2766953929378
 20
-136.4052828977563
 10
112.2684271637732
 20
-136.4052828977563
 10
112.232253661178
 20
-136.411656324404
 10
112.232253661178
 20
-136.411656324404
 10
112.232253661178
 20
-136.2170084294874
 10
112.232253661178
 20
-136.2170084294874
 10
112.25981442506
 20
-136.2233818561351
 10
112.2684271637732
 20
-136.2233818561351
 10
112.3380180925752
 20
-136.2233818561351
 10
112.3380180925752
 20
-136.2233818561351
 10
112.4713432878544
 20
-136.2233818561351
 10
112.4713432878544
 20
-136.2233818561351
 10
112.4713432878544
 20
-136.1536186725588
 10
112.4713432878544
 20
-136.0711086356871
 10
112.4692762305632
 20
-136.0668022663305
 10
112.4610080013986
 20
-135.8869682820005
 10
112.4610080013986
 20
-135.8680202568316
 10
112.4585964345589
 20
-135.8215114677807
 10
112.4585964345589
 20
-135.8215114677807
 10
112.6746039214841
 20
-135.8299519517196
 10
112.6746039214841
 20
-135.8299519517196
 10
112.6852837174884
 20
-135.8299519517196
 10
112.7062987999484
 20
-135.8320190090107
 10
112.7062987999484
 20
-135.8488999768884
 10
112.7062987999484
 20
-135.8680202568316
 10
112.6914848893618
 20
-135.8785277980616
 10
112.665991182771
 20
-135.8976480780047
 10
112.665991182771
 20
-135.9482909816379
 10
112.6597900108975
 20
-136.1768730670843
 10
112.6618570681887
 20
-136.2233818561351
 10
112.7910481488856
 20
-136.2233818561351
 10
112.8034504926324
 20
-136.2233818561351
 10
112.900946694865
 20
-136.2149413721962
 10
112.900946694865
 20
-136.2149413721962
 10
112.900946694865
 20
-136.4095892671129
 10
112.900946694865
 20
-136.4095892671129
 10
112.8627061349787
 20
-136.4073499550474
 10
112.7951822634678
 20
-136.4032158404651
 10
112.6597900108975
 20
-136.4052828977563
 10
112.6597900108975
 20
-136.4052828977563
 10
112.6597900108975
 20
-136.7437635291821
 10
112.6597900108975
 20
-136.7437635291821
 10
112.7149115386615
 20
-136.7205091346566
 10
112.7803683528813
 20
-136.6929483707747
 10
112.8289441992233
 20
-136.6696939762492
 10
112.8289441992233
 20
-136.6696939762492
 10
112.8289441992233
 20
-136.4920993039846
 10
112.8289441992233
 20
-136.4920993039846
 10
112.9433213693336
 20
-136.5046739025058
 10
113.0618326540262
 20
-136.5046739025058
 10
113.1779323718791
 20
-136.5046739025058
 10
113.1548502321279
 20
-136.4095892671129
 10
113.1272894682459
 20
-136.3270792302411
 10
113.0638997113173
 20
-136.193754034962
 10
113.0194579795576
 20
-136.1958210922531
 10
112.9367756879116
 20
-136.2001274616097
 10
112.8988796375739
 20
-136.2021945189008
 10
112.8988796375739
 20
-136.2021945189008
 10
112.8988796375739
 20
-136.0223605345708
 10
112.8988796375739
 20
-136.0223605345708
 10
113.0235920941399
 20
-136.0308010185096
 10
113.1972249065965
 20
-136.0351073878662
 10
113.279562688694
 20
-136.0351073878662
 10
113.279562688694
 20
-136.0351073878662
 10
113.36224498034
 20
-136.0351073878662
 10
113.36224498034
 20
-136.0351073878662
 10
113.36224498034
 20
-135.8721543714139
 10
113.36224498034
 20
-135.8616468301839
 10
113.3598334135003
 20
-135.8066975571941
 10
113.3598334135003
 20
-135.8066975571941
 10
113.5841091295901
 20
-135.8320190090107
 10
113.5841091295901
 20
-135.8320190090107
 10
113.5885877537209
 20
-135.8320190090107
 10
113.6096028361809
 20
-135.8340860663019
 10
113.6096028361809
 20
-135.8509670341796
 10
113.6096028361809
 20
-135.8657809447662
 10
113.5989230401766
 20
-135.8743936834793
 10
113.5713622762946
 20
-135.8892075940659
 10
113.5651611044212
 20
-135.9546644082856
 10
113.56309404713
 20
-135.9758517455199
 10
113.56309404713
 20
-136.0351073878662
 10
113.56309404713
 20
-136.0351073878662
 10
113.6581786825229
 20
-136.0351073878662
 10
113.6581786825229
 20
-136.0351073878662
 10
113.7408609741689
 20
-136.0351073878662
 10
113.914149277077
 20
-136.0308010185096
 10
114.0392062431916
 20
-136.0223605345708
 10
114.0392062431916
 20
-136.0223605345708
 10
114.0392062431916
 20
-136.2021945189008
 10
114.0392062431916
 20
-136.2021945189008
 10
114.0095784220184
 20
-136.2001274616097
 10
113.8910671373258
 20
-136.1958210922531
 10
113.8507595201484
 20
-136.193754034962
 10
113.8359456095618
 20
-136.2445691933694
 10
113.8021836738064
 20
-136.3567070514143
 10
113.7363823500381
 20
-136.4962334185669
 10
113.7787570245067
 20
-136.4962334185669
 10
114.0560872110693
 20
-136.477285393398
 10
114.1174099107068
 20
-136.4750460813326
 10
114.1174099107068
 20
-136.4750460813326
 10
114.1174099107068
 20
-136.6591864350192
 10
114.1174099107068
 20
-136.6591864350192
 10
114.0877820895336
 20
-136.6591864350192
 10
114.0709011216559
 20
-136.6548800656626
 10
113.9079481052035
 20
-136.6548800656626
 97
        0
 97
        1
330
8D
 75
     2
 76
     1
 98
        1
 10
0.0
 20
0.0
450
        0
451
        0
460
0.0
461
0.0
452
        0
462
0.0
453
        0
470

  0
SPLINE
  5
8F
330
87
100
AcDbEntity
  8
レイヤー 1
100
AcDbSpline
210
0.0
220
0.0
230
1.0
 70
    11
 71
     3
 72
    17
 73
    13
 74
     0
 42
0.0000000001
 43
0.0000000001
 40
0.0
 40
0.0
 40
0.0
 40
0.0
 40
1.0
 40
1.0
 40
1.0
 40
2.0
 40
2.0
 40
2.0
 40
3.0
 40
3.0
 40
3.0
 40
4.0
 40
4.0
 40
4.0
 40
4.0
 10
115.7645100622047
 20
-137.4546589825634
 30
0.0
 10
115.7645100622047
 20
-137.4546589825634
 30
0.0
 10
115.0579209781799
 20
-137.4546589825634
 30
0.0
 10
115.0579209781799
 20
-137.4546589825634
 30
0.0
 10
115.0579209781799
 20
-137.4546589825634
 30
0.0
 10
115.0579209781799
 20
-137.5688638978994
 30
0.0
 10
115.0579209781799
 20
-137.5688638978994
 30
0.0
 10
115.0579209781799
 20
-137.5688638978994
 30
0.0
 10
115.7645100622047
 20
-137.5688638978994
 30
0.0
 10
115.7645100622047
 20
-137.5688638978994
 30
0.0
 10
115.7645100622047
 20
-137.5688638978994
 30
0.0
 10
115.7645100622047
 20
-137.4546589825634
 30
0.0
 10
115.7645100622047
 20
-137.4546589825634
 30
0.0
  0
SPLINE
  5
90
330
87
100
AcDbEntity
  8
レイヤー 1
100
AcDbSpline
210
0.0
220
0.0
230
1.0
 70
    11
 71
     3
 72
    17
 73
    13
 74
     0
 42
0.0000000001
 43
0.0000000001
 40
0.0
 40
0.0
 40
0.0
 40
0.0
 40
1.0
 40
1.0
 40
1.0
 40
2.0
 40
2.0
 40
2.0
 40
3.0
 40
3.0
 40
3.0
 40
4.0
 40
4.0
 40
4.0
 40
4.0
 10
115.7645100622047
 20
-137.2112629865305
 30
0.0
 10
115.7645100622047
 20
-137.2112629865305
 30
0.0
 10
115.0579209781799
 20
-137.2112629865305
 30
0.0
 10
115.0579209781799
 20
-137.2112629865305
 30
0.0
 10
115.0579209781799
 20
-137.2112629865305
 30
0.0
 10
115.0579209781799
 20
-137.3256401566408
 30
0.0
 10
115.0579209781799
 20
-137.3256401566408
 30
0.0
 10
115.0579209781799
 20
-137.3256401566408
 30
0.0
 10
115.7645100622047
 20
-137.3256401566408
 30
0.0
 10
115.7645100622047
 20
-137.3256401566408
 30
0.0
 10
115.7645100622047
 20
-137.3256401566408
 30
0.0
 10
115.7645100622047
 20
-137.2112629865305
 30
0.0
 10
115.7645100622047
 20
-137.2112629865305
 30
0.0
  0
SPLINE
  5
91
330
87
100
AcDbEntity
  8
レイヤー 1
100
AcDbSpline
210
0.0
220
0.0
230
1.0
 70
    11
 71
     3
 72
    17
 73
    13
 74
     0
 42
0.0000000001
 43
0.0000000001
 40
0.0
 40
0.0
 40
0.0
 40
0.0
 40
1.0
 40
1.0
 40
1.0
 40
2.0
 40
2.0
 40
2.0
 40
3.0
 40
3.0
 40
3.0
 40
4.0
 40
4.0
 40
4.0
 40
4.0
 10
115.7645100622047
 20
-136.9785467865019
 30
0.0
 10
115.7645100622047
 20
-136.9785467865019
 30
0.0
 10
115.0579209781799
 20
-136.9785467865019
 30
0.0
 10
115.0579209781799
 20
-136.9785467865019
 30
0.0
 10
115.0579209781799
 20
-136.9785467865019
 30
0.0
 10
115.0579209781799
 20
-137.0865505299645
 30
0.0
 10
115.0579209781799
 20
-137.0865505299645
 30
0.0
 10
115.0579209781799
 20
-137.0865505299645
 30
0.0
 10
115.7645100622047
 20
-137.0865505299645
 30
0.0
 10
115.7645100622047
 20
-137.0865505299645
 30
0.0
 10
115.7645100622047
 20
-137.0865505299645
 30
0.0
 10
115.7645100622047
 20
-136.9785467865019
 30
0.0
 10
115.7645100622047
 20
-136.9785467865019
 30
0.0
  0
SPLINE
  5
92
330
87
100
AcDbEntity
  8
レイヤー 1
100
AcDbSpline
210
0.0
220
0.0
230
1.0
 70
     9
 71
     3
 72
   203
 73
   199
 74
     0
 42
0.0000000001
 43
0.0000000001
 40
0.0
 40
0.0
 40
0.0
 40
0.0
 40
1.0
 40
1.0
 40
1.0
 40
2.0
 40
2.0
 40
2.0
 40
3.0
 40
3.0
 40
3.0
 40
4.0
 40
4.0
 40
4.0
 40
5.0
 40
5.0
 40
5.0
 40
6.0
 40
6.0
 40
6.0
 40
7.0
 40
7.0
 40
7.0
 40
8.0
 40
8.0
 40
8.0
 40
9.0
 40
9.0
 40
9.0
 40
10.0
 40
10.0
 40
10.0
 40
11.0
 40
11.0
 40
11.0
 40
12.0
 40
12.0
 40
12.0
 40
13.0
 40
13.0
 40
13.0
 40
14.0
 40
14.0
 40
14.0
 40
15.0
 40
15.0
 40
15.0
 40
16.0
 40
16.0
 40
16.0
 40
17.0
 40
17.0
 40
17.0
 40
18.0
 40
18.0
 40
18.0
 40
19.0
 40
19.0
 40
19.0
 40
20.0
 40
20.0
 40
20.0
 40
21.0
 40
21.0
 40
21.0
 40
22.0
 40
22.0
 40
22.0
 40
23.0
 40
23.0
 40
23.0
 40
24.0
 40
24.0
 40
24.0
 40
25.0
 40
25.0
 40
25.0
 40
26.0
 40
26.0
 40
26.0
 40
27.0
 40
27.0
 40
27.0
 40
28.0
 40
28.0
 40
28.0
 40
29.0
 40
29.0
 40
29.0
 40
30.0
 40
30.0
 40
30.0
 40
31.0
 40
31.0
 40
31.0
 40
32.0
 40
32.0
 40
32.0
 40
33.0
 40
33.0
 40
33.0
 40
34.0
 40
34.0
 40
34.0
 40
35.0
 40
35.0
 40
35.0
 40
36.0
 40
36.0
 40
36.0
 40
37.0
 40
37.0
 40
37.0
 40
38.0
 40
38.0
 40
38.0
 40
39.0
 40
39.0
 40
39.0
 40
40.0
 40
40.0
 40
40.0
 40
41.0
 40
41.0
 40
41.0
 40
42.0
 40
42.0
 40
42.0
 40
43.0
 40
43.0
 40
43.0
 40
44.0
 40
44.0
 40
44.0
 40
45.0
 40
45.0
 40
45.0
 40
46.0
 40
46.0
 40
46.0
 40
47.0
 40
47.0
 40
47.0
 40
48.0
 40
48.0
 40
48.0
 40
49.0
 40
49.0
 40
49.0
 40
50.0
 40
50.0
 40
50.0
 40
51.0
 40
51.0
 40
51.0
 40
52.0
 40
52.0
 40
52.0
 40
53.0
 40
53.0
 40
53.0
 40
54.0
 40
54.0
 40
54.0
 40
55.0
 40
55.0
 40
55.0
 40
56.0
 40
56.0
 40
56.0
 40
57.0
 40
57.0
 40
57.0
 40
58.0
 40
58.0
 40
58.0
 40
59.0
 40
59.0
 40
59.0
 40
60.0
 40
60.0
 40
60.0
 40
61.0
 40
61.0
 40
61.0
 40
62.0
 40
62.0
 40
62.0
 40
63.0
 40
63.0
 40
63.0
 40
64.0
 40
64.0
 40
64.0
 40
65.0
 40
65.0
 40
65.0
 40
66.0
 40
66.0
 40
66.0
 40
66.0
 10
115.5994899884612
 20
-136.7225761919478
 30
0.0
 10
115.5994899884612
 20
-136.7225761919478
 30
0.0
 10
115.0406955007537
 20
-136.7225761919478
 30
0.0
 10
115.0406955007537
 20
-136.7225761919478
 30
0.0
 10
115.0303602142979
 20
-136.7670179237075
 30
0.0
 10
115.0217474755848
 20
-136.7987128021718
 30
0.0
 10
115.0090006222894
 20
-136.8369533620581
 30
0.0
 10
115.0344943288802
 20
-136.8369533620581
 30
0.0
 10
115.0493082394668
 20
-136.8390204193492
 30
0.0
 10
115.0555094113403
 20
-136.8390204193492
 30
0.0
 10
115.0555094113403
 20
-136.8390204193492
 30
0.0
 10
115.2439561343834
 20
-136.8390204193492
 30
0.0
 10
115.2439561343834
 20
-136.8390204193492
 30
0.0
 10
115.2439561343834
 20
-136.8390204193492
 30
0.0
 10
115.6184380136301
 20
-136.8390204193492
 30
0.0
 10
115.6184380136301
 20
-136.8390204193492
 30
0.0
 10
115.6690809172633
 20
-136.8390204193492
 30
0.0
 10
115.9526122756993
 20
-136.8262735660538
 30
0.0
 10
115.9843071541636
 20
-136.8262735660538
 30
0.0
 10
115.9822400968725
 20
-136.8538343299358
 30
0.0
 10
115.9801730395813
 20
-136.8727823551047
 30
0.0
 10
115.9801730395813
 20
-136.9024101762778
 30
0.0
 10
115.9781059822902
 20
-136.9341050547421
 30
0.0
 10
115.9781059822902
 20
-137.0694973073125
 30
0.0
 10
115.9781059822902
 20
-137.0970580711944
 30
0.0
 10
115.9781059822902
 20
-137.0970580711944
 30
0.0
 10
115.9781059822902
 20
-137.3425211245185
 30
0.0
 10
115.9781059822902
 20
-137.3425211245185
 30
0.0
 10
115.9781059822902
 20
-137.3869628562782
 30
0.0
 10
115.9822400968725
 20
-137.583677808486
 30
0.0
 10
115.9863742114548
 20
-137.7359510289341
 30
0.0
 10
115.9863742114548
 20
-137.7359510289341
 30
0.0
 10
115.7600314380738
 20
-137.7359510289341
 30
0.0
 10
115.7600314380738
 20
-137.7359510289341
 30
0.0
 10
115.7600314380738
 20
-137.7359510289341
 30
0.0
 10
115.762098495365
 20
-137.7021890931786
 30
0.0
 10
115.762098495365
 20
-137.7021890931786
 30
0.0
 10
115.762098495365
 20
-137.7021890931786
 30
0.0
 10
115.0599880354711
 20
-137.7021890931786
 30
0.0
 10
115.0599880354711
 20
-137.7021890931786
 30
0.0
 10
115.0599880354711
 20
-137.7021890931786
 30
0.0
 10
115.0620550927622
 20
-137.7359510289341
 30
0.0
 10
115.0620550927622
 20
-137.7359510289341
 30
0.0
 10
115.0620550927622
 20
-137.7359510289341
 30
0.0
 10
114.8439805485459
 20
-137.7359510289341
 30
0.0
 10
114.8439805485459
 20
-137.7359510289341
 30
0.0
 10
114.8484591726768
 20
-137.6810017559443
 30
0.0
 10
114.8484591726768
 20
-137.6682549026489
 30
0.0
 10
114.8546603445502
 20
-137.5540499873129
 30
0.0
 10
114.8567274018414
 20
-137.5264892234308
 30
0.0
 10
114.8587944591325
 20
-137.393336282926
 30
0.0
 10
114.8587944591325
 20
-137.3742160029828
 30
0.0
 10
114.8587944591325
 20
-137.3742160029828
 30
0.0
 10
114.8587944591325
 20
-137.1711276241273
 30
0.0
 10
114.8587944591325
 20
-137.1711276241273
 30
0.0
 10
114.7192680919799
 20
-137.4207247920337
 30
0.0
 10
114.5501139036541
 20
-137.5519829300217
 30
0.0
 10
114.4443494722569
 20
-137.6174397442414
 30
0.0
 10
114.4443494722569
 20
-137.6174397442414
 30
0.0
 10
114.2707166598004
 20
-137.4779133770889
 30
0.0
 10
114.2707166598004
 20
-137.4779133770889
 30
0.0
 10
114.3596001233198
 20
-137.4270982186814
 30
0.0
 10
114.5036051146032
 20
-137.3402818124531
 30
0.0
 10
114.6410644244647
 20
-137.1458061723108
 30
0.0
 10
114.7320149452753
 20
-137.0188544036793
 30
0.0
 10
114.7974717594951
 20
-136.8750216671701
 30
0.0
 10
114.831578204799
 20
-136.7225761919478
 30
0.0
 10
114.6028238645784
 20
-136.7248155040132
 30
0.0
 10
114.4229898802484
 20
-136.7311889306609
 30
0.0
 10
114.3279052448555
 20
-136.7332559879521
 30
0.0
 10
114.3279052448555
 20
-136.7332559879521
 30
0.0
 10
114.3279052448555
 20
-136.5554890609132
 30
0.0
 10
114.3279052448555
 20
-136.5554890609132
 30
0.0
 10
114.5246201970633
 20
-136.5618624875609
 30
0.0
 10
114.8081515554993
 20
-136.5661688569175
 30
0.0
 10
114.9583577186562
 20
-136.5661688569175
 30
0.0
 10
114.9583577186562
 20
-136.5661688569175
 30
0.0
 10
115.1719536387417
 20
-136.5661688569175
 30
0.0
 10
115.1719536387417
 20
-136.5661688569175
 30
0.0
 10
115.1719536387417
 20
-136.5661688569175
 30
0.0
 10
115.1719536387417
 20
-136.4581651134549
 30
0.0
 10
115.1719536387417
 20
-136.4581651134549
 30
0.0
 10
115.1719536387417
 20
-136.4581651134549
 30
0.0
 10
115.0258815901671
 20
-136.4581651134549
 30
0.0
 10
115.0258815901671
 20
-136.4581651134549
 30
0.0
 10
114.8567274018414
 20
-136.4581651134549
 30
0.0
 10
114.6875732135156
 20
-136.4624714828114
 30
0.0
 10
114.520486082481
 20
-136.4688449094592
 30
0.0
 10
114.520486082481
 20
-136.4688449094592
 30
0.0
 10
114.520486082481
 20
-136.297451409068
 30
0.0
 10
114.520486082481
 20
-136.297451409068
 30
0.0
 10
114.6748263602202
 20
-136.307958950298
 30
0.0
 10
114.8608615164237
 20
-136.307958950298
 30
0.0
 10
115.0258815901671
 20
-136.307958950298
 30
0.0
 10
115.0258815901671
 20
-136.307958950298
 30
0.0
 10
115.1719536387417
 20
-136.307958950298
 30
0.0
 10
115.1719536387417
 20
-136.307958950298
 30
0.0
 10
115.1719536387417
 20
-136.307958950298
 30
0.0
 10
115.1719536387417
 20
-136.1896199203797
 30
0.0
 10
115.1719536387417
 20
-136.1896199203797
 30
0.0
 10
115.1719536387417
 20
-136.1896199203797
 30
0.0
 10
115.0406955007537
 20
-136.1896199203797
 30
0.0
 10
115.0406955007537
 20
-136.1896199203797
 30
0.0
 10
114.9941867117028
 20
-136.1896199203797
 30
0.0
 10
114.7912705876216
 20
-136.1980604043185
 30
0.0
 10
114.748895913153
 20
-136.1980604043185
 30
0.0
 10
114.5459797890718
 20
-136.2021945189008
 30
0.0
 10
114.4694986692993
 20
-136.204261576192
 30
0.0
 10
114.3912950017841
 20
-136.2065008882574
 30
0.0
 10
114.3912950017841
 20
-136.2065008882574
 30
0.0
 10
114.3912950017841
 20
-136.0223605345708
 30
0.0
 10
114.3912950017841
 20
-136.0223605345708
 30
0.0
 10
114.5056721718944
 20
-136.0308010185096
 30
0.0
 10
114.5501139036541
 20
-136.0308010185096
 30
0.0
 10
114.9328640120654
 20
-136.0394137572228
 30
0.0
 10
114.8694742551368
 20
-135.9441568670556
 30
0.0
 10
114.8419134912548
 20
-135.9165961031736
 30
0.0
 10
114.8060844982082
 20
-135.8805948553527
 30
0.0
 10
114.8060844982082
 20
-135.8805948553527
 30
0.0
 10
114.9814398584074
 20
-135.798084818481
 30
0.0
 10
114.9814398584074
 20
-135.798084818481
 30
0.0
 10
115.0217474755848
 20
-135.8340860663019
 30
0.0
 10
115.0661892073445
 20
-135.8764607407705
 30
0.0
 10
115.1402587602774
 20
-135.9863592867499
 30
0.0
 10
115.1402587602774
 20
-135.9863592867499
 30
0.0
 10
115.0258815901671
 20
-136.0414808145139
 30
0.0
 10
115.0258815901671
 20
-136.0414808145139
 30
0.0
 10
115.0258815901671
 20
-136.0414808145139
 30
0.0
 10
115.0365613861714
 20
-136.0414808145139
 30
0.0
 10
115.0365613861714
 20
-136.0414808145139
 30
0.0
 10
115.0365613861714
 20
-136.0414808145139
 30
0.0
 10
115.5591823712838
 20
-136.0414808145139
 30
0.0
 10
115.5591823712838
 20
-136.0414808145139
 30
0.0
 10
115.5591823712838
 20
-136.0414808145139
 30
0.0
 10
115.4640977358909
 20
-135.9970390827542
 30
0.0
 10
115.4640977358909
 20
-135.9970390827542
 30
0.0
 10
115.4913139902244
 20
-135.9589707776422
 30
0.0
 10
115.5485025752795
 20
-135.8785277980616
 30
0.0
 10
115.5633164858661
 20
-135.8044582451287
 30
0.0
 10
115.5633164858661
 20
-135.8044582451287
 30
0.0
 10
115.7769124059516
 20
-135.8680202568316
 30
0.0
 10
115.7769124059516
 20
-135.8680202568316
 30
0.0
 10
115.7855251446647
 20
-135.8700873141228
 30
0.0
 10
115.8065402271247
 20
-135.8805948553527
 30
0.0
 10
115.8065402271247
 20
-135.901782192587
 30
0.0
 10
115.8065402271247
 20
-135.939850497699
 30
0.0
 10
115.741083412905
 20
-135.939850497699
 30
0.0
 10
115.7221353877361
 20
-135.939850497699
 30
0.0
 10
115.7114555917318
 20
-135.9589707776422
 30
0.0
 10
115.6880289424321
 20
-135.9991061400454
 30
0.0
 10
115.658401121259
 20
-136.0394137572228
 30
0.0
 10
116.0583767070965
 20
-136.0330403305751
 30
0.0
 10
116.0880045282696
 20
-136.0308010185096
 30
0.0
 10
116.1641411384937
 20
-136.0245998466362
 30
0.0
 10
116.1641411384937
 20
-136.0245998466362
 30
0.0
 10
116.1641411384937
 20
-136.2065008882574
 30
0.0
 10
116.1641411384937
 20
-136.2065008882574
 30
0.0
 10
116.1451931133248
 20
-136.2065008882574
 30
0.0
 10
116.1196994067339
 20
-136.204261576192
 30
0.0
 10
115.899902314775
 20
-136.1958210922531
 30
0.0
 10
115.8489149015933
 20
-136.193754034962
 30
0.0
 10
115.6291178096344
 20
-136.1896199203797
 30
0.0
 10
115.5846760778747
 20
-136.1896199203797
 30
0.0
 10
115.5846760778747
 20
-136.1896199203797
 30
0.0
 10
115.3686685909495
 20
-136.1896199203797
 30
0.0
 10
115.3686685909495
 20
-136.1896199203797
 30
0.0
 10
115.3686685909495
 20
-136.1896199203797
 30
0.0
 10
115.3686685909495
 20
-136.307958950298
 30
0.0
 10
115.3686685909495
 20
-136.307958950298
 30
0.0
 10
115.3686685909495
 20
-136.307958950298
 30
0.0
 10
115.5423014034061
 20
-136.307958950298
 30
0.0
 10
115.5423014034061
 20
-136.307958950298
 30
0.0
 10
115.7052544198584
 20
-136.307958950298
 30
0.0
 10
115.8954236906442
 20
-136.307958950298
 30
0.0
 10
116.052175535223
 20
-136.297451409068
 30
0.0
 10
116.052175535223
 20
-136.297451409068
 30
0.0
 10
116.052175535223
 20
-136.4688449094592
 30
0.0
 10
116.052175535223
 20
-136.4688449094592
 30
0.0
 10
115.8427137297199
 20
-136.4604044255203
 30
0.0
 10
115.6459987775121
 20
-136.4581651134549
 30
0.0
 10
115.5423014034061
 20
-136.4581651134549
 30
0.0
 10
115.5423014034061
 20
-136.4581651134549
 30
0.0
 10
115.3686685909495
 20
-136.4581651134549
 30
0.0
 10
115.3686685909495
 20
-136.4581651134549
 30
0.0
 10
115.3686685909495
 20
-136.4581651134549
 30
0.0
 10
115.3686685909495
 20
-136.5661688569175
 30
0.0
 10
115.3686685909495
 20
-136.5661688569175
 30
0.0
 10
115.3686685909495
 20
-136.5661688569175
 30
0.0
 10
115.5994899884612
 20
-136.5661688569175
 30
0.0
 10
115.5994899884612
 20
-136.5661688569175
 30
0.0
 10
115.7324706741919
 20
-136.5661688569175
 30
0.0
 10
116.0204806567588
 20
-136.5618624875609
 30
0.0
 10
116.2295979527134
 20
-136.5554890609132
 30
0.0
 10
116.2295979527134
 20
-136.5554890609132
 30
0.0
 10
116.2295979527134
 20
-136.7332559879521
 30
0.0
 10
116.2295979527134
 20
-136.7332559879521
 30
0.0
 10
116.0373616246365
 20
-136.7268825613044
 30
0.0
 10
115.7242024450273
 20
-136.7225761919478
 30
0.0
 10
115.5994899884612
 20
-136.7225761919478
 30
0.0
  0
HATCH
  5
93
330
87
100
AcDbEntity
  8
レイヤー 1
 62
   250
420
  2299925
440
 33554687
100
AcDbHatch
 10
0.0
 20
0.0
 30
0.0
210
0.0
220
0.0
230
1.0
  2
SOLID
 70
     1
 71
     1
 91
        4
 92
        1
 93
        1
 72
     4
 94
        3
 73
     0
 74
     0
 95
       17
 96
       13
 40
0.0
 40
0.0
 40
0.0
 40
0.0
 40
1.0
 40
1.0
 40
1.0
 40
2.0
 40
2.0
 40
2.0
 40
3.0
 40
3.0
 40
3.0
 40
4.0
 40
4.0
 40
4.0
 40
4.0
 10
115.7645100622047
 20
-137.4546589825634
 10
115.7645100622047
 20
-137.4546589825634
 10
115.0579209781799
 20
-137.4546589825634
 10
115.0579209781799
 20
-137.4546589825634
 10
115.0579209781799
 20
-137.4546589825634
 10
115.0579209781799
 20
-137.5688638978994
 10
115.0579209781799
 20
-137.5688638978994
 10
115.0579209781799
 20
-137.5688638978994
 10
115.7645100622047
 20
-137.5688638978994
 10
115.7645100622047
 20
-137.5688638978994
 10
115.7645100622047
 20
-137.5688638978994
 10
115.7645100622047
 20
-137.4546589825634
 10
115.7645100622047
 20
-137.4546589825634
 97
        0
 97
        1
330
8F
 92
        1
 93
        1
 72
     4
 94
        3
 73
     0
 74
     0
 95
       17
 96
       13
 40
0.0
 40
0.0
 40
0.0
 40
0.0
 40
1.0
 40
1.0
 40
1.0
 40
2.0
 40
2.0
 40
2.0
 40
3.0
 40
3.0
 40
3.0
 40
4.0
 40
4.0
 40
4.0
 40
4.0
 10
115.7645100622047
 20
-137.2112629865305
 10
115.7645100622047
 20
-137.2112629865305
 10
115.0579209781799
 20
-137.2112629865305
 10
115.0579209781799
 20
-137.2112629865305
 10
115.0579209781799
 20
-137.2112629865305
 10
115.0579209781799
 20
-137.3256401566408
 10
115.0579209781799
 20
-137.3256401566408
 10
115.0579209781799
 20
-137.3256401566408
 10
115.7645100622047
 20
-137.3256401566408
 10
115.7645100622047
 20
-137.3256401566408
 10
115.7645100622047
 20
-137.3256401566408
 10
115.7645100622047
 20
-137.2112629865305
 10
115.7645100622047
 20
-137.2112629865305
 97
        0
 97
        1
330
90
 92
        1
 93
        1
 72
     4
 94
        3
 73
     0
 74
     0
 95
       17
 96
       13
 40
0.0
 40
0.0
 40
0.0
 40
0.0
 40
1.0
 40
1.0
 40
1.0
 40
2.0
 40
2.0
 40
2.0
 40
3.0
 40
3.0
 40
3.0
 40
4.0
 40
4.0
 40
4.0
 40
4.0
 10
115.7645100622047
 20
-136.9785467865019
 10
115.7645100622047
 20
-136.9785467865019
 10
115.0579209781799
 20
-136.9785467865019
 10
115.0579209781799
 20
-136.9785467865019
 10
115.0579209781799
 20
-136.9785467865019
 10
115.0579209781799
 20
-137.0865505299645
 10
115.0579209781799
 20
-137.0865505299645
 10
115.0579209781799
 20
-137.0865505299645
 10
115.7645100622047
 20
-137.0865505299645
 10
115.7645100622047
 20
-137.0865505299645
 10
115.7645100622047
 20
-137.0865505299645
 10
115.7645100622047
 20
-136.9785467865019
 10
115.7645100622047
 20
-136.9785467865019
 97
        0
 97
        1
330
91
 92
        1
 93
        1
 72
     4
 94
        3
 73
     0
 74
     0
 95
      203
 96
      199
 40
0.0
 40
0.0
 40
0.0
 40
0.0
 40
1.0
 40
1.0
 40
1.0
 40
2.0
 40
2.0
 40
2.0
 40
3.0
 40
3.0
 40
3.0
 40
4.0
 40
4.0
 40
4.0
 40
5.0
 40
5.0
 40
5.0
 40
6.0
 40
6.0
 40
6.0
 40
7.0
 40
7.0
 40
7.0
 40
8.0
 40
8.0
 40
8.0
 40
9.0
 40
9.0
 40
9.0
 40
10.0
 40
10.0
 40
10.0
 40
11.0
 40
11.0
 40
11.0
 40
12.0
 40
12.0
 40
12.0
 40
13.0
 40
13.0
 40
13.0
 40
14.0
 40
14.0
 40
14.0
 40
15.0
 40
15.0
 40
15.0
 40
16.0
 40
16.0
 40
16.0
 40
17.0
 40
17.0
 40
17.0
 40
18.0
 40
18.0
 40
18.0
 40
19.0
 40
19.0
 40
19.0
 40
20.0
 40
20.0
 40
20.0
 40
21.0
 40
21.0
 40
21.0
 40
22.0
 40
22.0
 40
22.0
 40
23.0
 40
23.0
 40
23.0
 40
24.0
 40
24.0
 40
24.0
 40
25.0
 40
25.0
 40
25.0
 40
26.0
 40
26.0
 40
26.0
 40
27.0
 40
27.0
 40
27.0
 40
28.0
 40
28.0
 40
28.0
 40
29.0
 40
29.0
 40
29.0
 40
30.0
 40
30.0
 40
30.0
 40
31.0
 40
31.0
 40
31.0
 40
32.0
 40
32.0
 40
32.0
 40
33.0
 40
33.0
 40
33.0
 40
34.0
 40
34.0
 40
34.0
 40
35.0
 40
35.0
 40
35.0
 40
36.0
 40
36.0
 40
36.0
 40
37.0
 40
37.0
 40
37.0
 40
38.0
 40
38.0
 40
38.0
 40
39.0
 40
39.0
 40
39.0
 40
40.0
 40
40.0
 40
40.0
 40
41.0
 40
41.0
 40
41.0
 40
42.0
 40
42.0
 40
42.0
 40
43.0
 40
43.0
 40
43.0
 40
44.0
 40
44.0
 40
44.0
 40
45.0
 40
45.0
 40
45.0
 40
46.0
 40
46.0
 40
46.0
 40
47.0
 40
47.0
 40
47.0
 40
48.0
 40
48.0
 40
48.0
 40
49.0
 40
49.0
 40
49.0
 40
50.0
 40
50.0
 40
50.0
 40
51.0
 40
51.0
 40
51.0
 40
52.0
 40
52.0
 40
52.0
 40
53.0
 40
53.0
 40
53.0
 40
54.0
 40
54.0
 40
54.0
 40
55.0
 40
55.0
 40
55.0
 40
56.0
 40
56.0
 40
56.0
 40
57.0
 40
57.0
 40
57.0
 40
58.0
 40
58.0
 40
58.0
 40
59.0
 40
59.0
 40
59.0
 40
60.0
 40
60.0
 40
60.0
 40
61.0
 40
61.0
 40
61.0
 40
62.0
 40
62.0
 40
62.0
 40
63.0
 40
63.0
 40
63.0
 40
64.0
 40
64.0
 40
64.0
 40
65.0
 40
65.0
 40
65.0
 40
66.0
 40
66.0
 40
66.0
 40
66.0
 10
115.5994899884612
 20
-136.7225761919478
 10
115.5994899884612
 20
-136.7225761919478
 10
115.0406955007537
 20
-136.7225761919478
 10
115.0406955007537
 20
-136.7225761919478
 10
115.0303602142979
 20
-136.7670179237075
 10
115.0217474755848
 20
-136.7987128021718
 10
115.0090006222894
 20
-136.8369533620581
 10
115.0344943288802
 20
-136.8369533620581
 10
115.0493082394668
 20
-136.8390204193492
 10
115.0555094113403
 20
-136.8390204193492
 10
115.0555094113403
 20
-136.8390204193492
 10
115.2439561343834
 20
-136.8390204193492
 10
115.2439561343834
 20
-136.8390204193492
 10
115.2439561343834
 20
-136.8390204193492
 10
115.6184380136301
 20
-136.8390204193492
 10
115.6184380136301
 20
-136.8390204193492
 10
115.6690809172633
 20
-136.8390204193492
 10
115.9526122756993
 20
-136.8262735660538
 10
115.9843071541636
 20
-136.8262735660538
 10
115.9822400968725
 20
-136.8538343299358
 10
115.9801730395813
 20
-136.8727823551047
 10
115.9801730395813
 20
-136.9024101762778
 10
115.9781059822902
 20
-136.9341050547421
 10
115.9781059822902
 20
-137.0694973073125
 10
115.9781059822902
 20
-137.0970580711944
 10
115.9781059822902
 20
-137.0970580711944
 10
115.9781059822902
 20
-137.3425211245185
 10
115.9781059822902
 20
-137.3425211245185
 10
115.9781059822902
 20
-137.3869628562782
 10
115.9822400968725
 20
-137.583677808486
 10
115.9863742114548
 20
-137.7359510289341
 10
115.9863742114548
 20
-137.7359510289341
 10
115.7600314380738
 20
-137.7359510289341
 10
115.7600314380738
 20
-137.7359510289341
 10
115.7600314380738
 20
-137.7359510289341
 10
115.762098495365
 20
-137.7021890931786
 10
115.762098495365
 20
-137.7021890931786
 10
115.762098495365
 20
-137.7021890931786
 10
115.0599880354711
 20
-137.7021890931786
 10
115.0599880354711
 20
-137.7021890931786
 10
115.0599880354711
 20
-137.7021890931786
 10
115.0620550927622
 20
-137.7359510289341
 10
115.0620550927622
 20
-137.7359510289341
 10
115.0620550927622
 20
-137.7359510289341
 10
114.8439805485459
 20
-137.7359510289341
 10
114.8439805485459
 20
-137.7359510289341
 10
114.8484591726768
 20
-137.6810017559443
 10
114.8484591726768
 20
-137.6682549026489
 10
114.8546603445502
 20
-137.5540499873129
 10
114.8567274018414
 20
-137.5264892234308
 10
114.8587944591325
 20
-137.393336282926
 10
114.8587944591325
 20
-137.3742160029828
 10
114.8587944591325
 20
-137.3742160029828
 10
114.8587944591325
 20
-137.1711276241273
 10
114.8587944591325
 20
-137.1711276241273
 10
114.7192680919799
 20
-137.4207247920337
 10
114.5501139036541
 20
-137.5519829300217
 10
114.4443494722569
 20
-137.6174397442414
 10
114.4443494722569
 20
-137.6174397442414
 10
114.2707166598004
 20
-137.4779133770889
 10
114.2707166598004
 20
-137.4779133770889
 10
114.3596001233198
 20
-137.4270982186814
 10
114.5036051146032
 20
-137.3402818124531
 10
114.6410644244647
 20
-137.1458061723108
 10
114.7320149452753
 20
-137.0188544036793
 10
114.7974717594951
 20
-136.8750216671701
 10
114.831578204799
 20
-136.7225761919478
 10
114.6028238645784
 20
-136.7248155040132
 10
114.4229898802484
 20
-136.7311889306609
 10
114.3279052448555
 20
-136.7332559879521
 10
114.3279052448555
 20
-136.7332559879521
 10
114.3279052448555
 20
-136.5554890609132
 10
114.3279052448555
 20
-136.5554890609132
 10
114.5246201970633
 20
-136.5618624875609
 10
114.8081515554993
 20
-136.5661688569175
 10
114.9583577186562
 20
-136.5661688569175
 10
114.9583577186562
 20
-136.5661688569175
 10
115.1719536387417
 20
-136.5661688569175
 10
115.1719536387417
 20
-136.5661688569175
 10
115.1719536387417
 20
-136.5661688569175
 10
115.1719536387417
 20
-136.4581651134549
 10
115.1719536387417
 20
-136.4581651134549
 10
115.1719536387417
 20
-136.4581651134549
 10
115.0258815901671
 20
-136.4581651134549
 10
115.0258815901671
 20
-136.4581651134549
 10
114.8567274018414
 20
-136.4581651134549
 10
114.6875732135156
 20
-136.4624714828114
 10
114.520486082481
 20
-136.4688449094592
 10
114.520486082481
 20
-136.4688449094592
 10
114.520486082481
 20
-136.297451409068
 10
114.520486082481
 20
-136.297451409068
 10
114.6748263602202
 20
-136.307958950298
 10
114.8608615164237
 20
-136.307958950298
 10
115.0258815901671
 20
-136.307958950298
 10
115.0258815901671
 20
-136.307958950298
 10
115.1719536387417
 20
-136.307958950298
 10
115.1719536387417
 20
-136.307958950298
 10
115.1719536387417
 20
-136.307958950298
 10
115.1719536387417
 20
-136.1896199203797
 10
115.1719536387417
 20
-136.1896199203797
 10
115.1719536387417
 20
-136.1896199203797
 10
115.0406955007537
 20
-136.1896199203797
 10
115.0406955007537
 20
-136.1896199203797
 10
114.9941867117028
 20
-136.1896199203797
 10
114.7912705876216
 20
-136.1980604043185
 10
114.748895913153
 20
-136.1980604043185
 10
114.5459797890718
 20
-136.2021945189008
 10
114.4694986692993
 20
-136.204261576192
 10
114.3912950017841
 20
-136.2065008882574
 10
114.3912950017841
 20
-136.2065008882574
 10
114.3912950017841
 20
-136.0223605345708
 10
114.3912950017841
 20
-136.0223605345708
 10
114.5056721718944
 20
-136.0308010185096
 10
114.5501139036541
 20
-136.0308010185096
 10
114.9328640120654
 20
-136.0394137572228
 10
114.8694742551368
 20
-135.9441568670556
 10
114.8419134912548
 20
-135.9165961031736
 10
114.8060844982082
 20
-135.8805948553527
 10
114.8060844982082
 20
-135.8805948553527
 10
114.9814398584074
 20
-135.798084818481
 10
114.9814398584074
 20
-135.798084818481
 10
115.0217474755848
 20
-135.8340860663019
 10
115.0661892073445
 20
-135.8764607407705
 10
115.1402587602774
 20
-135.9863592867499
 10
115.1402587602774
 20
-135.9863592867499
 10
115.0258815901671
 20
-136.0414808145139
 10
115.0258815901671
 20
-136.0414808145139
 10
115.0258815901671
 20
-136.0414808145139
 10
115.0365613861714
 20
-136.0414808145139
 10
115.0365613861714
 20
-136.0414808145139
 10
115.0365613861714
 20
-136.0414808145139
 10
115.5591823712838
 20
-136.0414808145139
 10
115.5591823712838
 20
-136.0414808145139
 10
115.5591823712838
 20
-136.0414808145139
 10
115.4640977358909
 20
-135.9970390827542
 10
115.4640977358909
 20
-135.9970390827542
 10
115.4913139902244
 20
-135.9589707776422
 10
115.5485025752795
 20
-135.8785277980616
 10
115.5633164858661
 20
-135.8044582451287
 10
115.5633164858661
 20
-135.8044582451287
 10
115.7769124059516
 20
-135.8680202568316
 10
115.7769124059516
 20
-135.8680202568316
 10
115.7855251446647
 20
-135.8700873141228
 10
115.8065402271247
 20
-135.8805948553527
 10
115.8065402271247
 20
-135.901782192587
 10
115.8065402271247
 20
-135.939850497699
 10
115.741083412905
 20
-135.939850497699
 10
115.7221353877361
 20
-135.939850497699
 10
115.7114555917318
 20
-135.9589707776422
 10
115.6880289424321
 20
-135.9991061400454
 10
115.658401121259
 20
-136.0394137572228
 10
116.0583767070965
 20
-136.0330403305751
 10
116.0880045282696
 20
-136.0308010185096
 10
116.1641411384937
 20
-136.0245998466362
 10
116.1641411384937
 20
-136.0245998466362
 10
116.1641411384937
 20
-136.2065008882574
 10
116.1641411384937
 20
-136.2065008882574
 10
116.1451931133248
 20
-136.2065008882574
 10
116.1196994067339
 20
-136.204261576192
 10
115.899902314775
 20
-136.1958210922531
 10
115.8489149015933
 20
-136.193754034962
 10
115.6291178096344
 20
-136.1896199203797
 10
115.5846760778747
 20
-136.1896199203797
 10
115.5846760778747
 20
-136.1896199203797
 10
115.3686685909495
 20
-136.1896199203797
 10
115.3686685909495
 20
-136.1896199203797
 10
115.3686685909495
 20
-136.1896199203797
 10
115.3686685909495
 20
-136.307958950298
 10
115.3686685909495
 20
-136.307958950298
 10
115.3686685909495
 20
-136.307958950298
 10
115.5423014034061
 20
-136.307958950298
 10
115.5423014034061
 20
-136.307958950298
 10
115.7052544198584
 20
-136.307958950298
 10
115.8954236906442
 20
-136.307958950298
 10
116.052175535223
 20
-136.297451409068
 10
116.052175535223
 20
-136.297451409068
 10
116.052175535223
 20
-136.4688449094592
 10
116.052175535223
 20
-136.4688449094592
 10
115.8427137297199
 20
-136.4604044255203
 10
115.6459987775121
 20
-136.4581651134549
 10
115.5423014034061
 20
-136.4581651134549
 10
115.5423014034061
 20
-136.4581651134549
 10
115.3686685909495
 20
-136.4581651134549
 10
115.3686685909495
 20
-136.4581651134549
 10
115.3686685909495
 20
-136.4581651134549
 10
115.3686685909495
 20
-136.5661688569175
 10
115.3686685909495
 20
-136.5661688569175
 10
115.3686685909495
 20
-136.5661688569175
 10
115.5994899884612
 20
-136.5661688569175
 10
115.5994899884612
 20
-136.5661688569175
 10
115.7324706741919
 20
-136.5661688569175
 10
116.0204806567588
 20
-136.5618624875609
 10
116.2295979527134
 20
-136.5554890609132
 10
116.2295979527134
 20
-136.5554890609132
 10
116.2295979527134
 20
-136.7332559879521
 10
116.2295979527134
 20
-136.7332559879521
 10
116.0373616246365
 20
-136.7268825613044
 10
115.7242024450273
 20
-136.7225761919478
 10
115.5994899884612
 20
-136.7225761919478
 97
        0
 97
        1
330
92
 75
     2
 76
     1
 98
        1
 10
0.0
 20
0.0
450
        0
451
        0
460
0.0
461
0.0
452
        0
462
0.0
453
        0
470

  0
SPLINE
  5
94
330
87
100
AcDbEntity
  8
レイヤー 1
100
AcDbSpline
210
0.0
220
0.0
230
1.0
 70
     9
 71
     3
 72
    29
 73
    25
 74
     0
 42
0.0000000001
 43
0.0000000001
 40
0.0
 40
0.0
 40
0.0
 40
0.0
 40
1.0
 40
1.0
 40
1.0
 40
2.0
 40
2.0
 40
2.0
 40
3.0
 40
3.0
 40
3.0
 40
4.0
 40
4.0
 40
4.0
 40
5.0
 40
5.0
 40
5.0
 40
6.0
 40
6.0
 40
6.0
 40
7.0
 40
7.0
 40
7.0
 40
8.0
 40
8.0
 40
8.0
 40
8.0
 10
117.4746554610827
 20
-136.1704996404365
 30
0.0
 10
117.4746554610827
 20
-136.1704996404365
 30
0.0
 10
117.1211886642961
 20
-136.1704996404365
 30
0.0
 10
117.1211886642961
 20
-136.1704996404365
 30
0.0
 10
117.0092230610255
 20
-136.1704996404365
 30
0.0
 10
116.8696966938728
 20
-136.1768730670843
 30
0.0
 10
116.7618652051845
 20
-136.1896199203797
 30
0.0
 10
116.7618652051845
 20
-136.1896199203797
 30
0.0
 10
116.7618652051845
 20
-135.9546644082856
 30
0.0
 10
116.7618652051845
 20
-135.9546644082856
 30
0.0
 10
116.8800319803286
 20
-135.9694783188722
 30
0.0
 10
117.0643445887895
 20
-135.9737846882288
 30
0.0
 10
117.1211886642961
 20
-135.9737846882288
 30
0.0
 10
117.1211886642961
 20
-135.9737846882288
 30
0.0
 10
117.4746554610827
 20
-135.9737846882288
 30
0.0
 10
117.4746554610827
 20
-135.9737846882288
 30
0.0
 10
117.4936034862516
 20
-135.9737846882288
 30
0.0
 10
117.6968641198813
 20
-135.9737846882288
 30
0.0
 10
117.8384575443251
 20
-135.9546644082856
 30
0.0
 10
117.8384575443251
 20
-135.9546644082856
 30
0.0
 10
117.8384575443251
 20
-136.1896199203797
 30
0.0
 10
117.8384575443251
 20
-136.1896199203797
 30
0.0
 10
117.6820502092947
 20
-136.1704996404365
 30
0.0
 10
117.4915364289604
 20
-136.1704996404365
 30
0.0
 10
117.4746554610827
 20
-136.1704996404365
 30
0.0
  0
SPLINE
  5
95
330
87
100
AcDbEntity
  8
レイヤー 1
100
AcDbSpline
210
0.0
220
0.0
230
1.0
 70
     9
 71
     3
 72
    47
 73
    43
 74
     0
 42
0.0000000001
 43
0.0000000001
 40
0.0
 40
0.0
 40
0.0
 40
0.0
 40
1.0
 40
1.0
 40
1.0
 40
2.0
 40
2.0
 40
2.0
 40
3.0
 40
3.0
 40
3.0
 40
4.0
 40
4.0
 40
4.0
 40
5.0
 40
5.0
 40
5.0
 40
6.0
 40
6.0
 40
6.0
 40
7.0
 40
7.0
 40
7.0
 40
8.0
 40
8.0
 40
8.0
 40
9.0
 40
9.0
 40
9.0
 40
10.0
 40
10.0
 40
10.0
 40
11.0
 40
11.0
 40
11.0
 40
12.0
 40
12.0
 40
12.0
 40
13.0
 40
13.0
 40
13.0
 40
14.0
 40
14.0
 40
14.0
 40
14.0
 10
117.5762857778976
 20
-136.6993217974224
 30
0.0
 10
117.5762857778976
 20
-136.6993217974224
 30
0.0
 10
117.4746554610827
 20
-136.6993217974224
 30
0.0
 10
117.4746554610827
 20
-136.6993217974224
 30
0.0
 10
117.4746554610827
 20
-136.7861382036507
 30
0.0
 10
117.4536403786227
 20
-137.1754339934839
 30
0.0
 10
117.2569254264149
 20
-137.3954033402171
 30
0.0
 10
117.1043076964183
 20
-137.5645575285429
 30
0.0
 10
116.8972574577548
 20
-137.6344929668934
 30
0.0
 10
116.8125081088177
 20
-137.6618814760012
 30
0.0
 10
116.8125081088177
 20
-137.6618814760012
 30
0.0
 10
116.6178602139011
 20
-137.4947943449666
 30
0.0
 10
116.6178602139011
 20
-137.4947943449666
 30
0.0
 10
116.7153564161337
 20
-137.4820474916711
 30
0.0
 10
116.8907117763329
 20
-137.4587930971457
 30
0.0
 10
117.079158499376
 20
-137.2705186288768
 30
0.0
 10
117.1532280523089
 20
-137.1986883880093
 30
0.0
 10
117.2569254264149
 20
-137.0589897660825
 30
0.0
 10
117.2569254264149
 20
-136.6993217974224
 30
0.0
 10
117.2569254264149
 20
-136.6993217974224
 30
0.0
 10
117.0261040289032
 20
-136.6993217974224
 30
0.0
 10
117.0261040289032
 20
-136.6993217974224
 30
0.0
 10
116.8400688726997
 20
-136.6993217974224
 30
0.0
 10
116.6536892069477
 20
-136.7036281667789
 30
0.0
 10
116.4676540507442
 20
-136.7184420773655
 30
0.0
 10
116.4676540507442
 20
-136.7184420773655
 30
0.0
 10
116.4676540507442
 20
-136.4984727306323
 30
0.0
 10
116.4676540507442
 20
-136.4984727306323
 30
0.0
 10
116.6561007737874
 20
-136.5132866412189
 30
0.0
 10
116.9416991895146
 20
-136.5174207558012
 30
0.0
 10
117.0261040289032
 20
-136.5174207558012
 30
0.0
 10
117.0261040289032
 20
-136.5174207558012
 30
0.0
 10
117.5762857778976
 20
-136.5174207558012
 30
0.0
 10
117.5762857778976
 20
-136.5174207558012
 30
0.0
 10
117.5952338030665
 20
-136.5174207558012
 30
0.0
 10
117.912527097258
 20
-136.5174207558012
 30
0.0
 10
118.14093692793
 20
-136.4984727306323
 30
0.0
 10
118.14093692793
 20
-136.4984727306323
 30
0.0
 10
118.14093692793
 20
-136.7184420773655
 30
0.0
 10
118.14093692793
 20
-136.7184420773655
 30
0.0
 10
117.9528347144354
 20
-136.7036281667789
 30
0.0
 10
117.7643879913922
 20
-136.6993217974224
 30
0.0
 10
117.5762857778976
 20
-136.6993217974224
 30
0.0
  0
HATCH
  5
96
330
87
100
AcDbEntity
  8
レイヤー 1
 62
   250
420
  2299925
440
 33554687
100
AcDbHatch
 10
0.0
 20
0.0
 30
0.0
210
0.0
220
0.0
230
1.0
  2
SOLID
 70
     1
 71
     1
 91
        2
 92
        1
 93
        1
 72
     4
 94
        3
 73
     0
 74
     0
 95
       29
 96
       25
 40
0.0
 40
0.0
 40
0.0
 40
0.0
 40
1.0
 40
1.0
 40
1.0
 40
2.0
 40
2.0
 40
2.0
 40
3.0
 40
3.0
 40
3.0
 40
4.0
 40
4.0
 40
4.0
 40
5.0
 40
5.0
 40
5.0
 40
6.0
 40
6.0
 40
6.0
 40
7.0
 40
7.0
 40
7.0
 40
8.0
 40
8.0
 40
8.0
 40
8.0
 10
117.4746554610827
 20
-136.1704996404365
 10
117.4746554610827
 20
-136.1704996404365
 10
117.1211886642961
 20
-136.1704996404365
 10
117.1211886642961
 20
-136.1704996404365
 10
117.0092230610255
 20
-136.1704996404365
 10
116.8696966938728
 20
-136.1768730670843
 10
116.7618652051845
 20
-136.1896199203797
 10
116.7618652051845
 20
-136.1896199203797
 10
116.7618652051845
 20
-135.9546644082856
 10
116.7618652051845
 20
-135.9546644082856
 10
116.8800319803286
 20
-135.9694783188722
 10
117.0643445887895
 20
-135.9737846882288
 10
117.1211886642961
 20
-135.9737846882288
 10
117.1211886642961
 20
-135.9737846882288
 10
117.4746554610827
 20
-135.9737846882288
 10
117.4746554610827
 20
-135.9737846882288
 10
117.4936034862516
 20
-135.9737846882288
 10
117.6968641198813
 20
-135.9737846882288
 10
117.8384575443251
 20
-135.9546644082856
 10
117.8384575443251
 20
-135.9546644082856
 10
117.8384575443251
 20
-136.1896199203797
 10
117.8384575443251
 20
-136.1896199203797
 10
117.6820502092947
 20
-136.1704996404365
 10
117.4915364289604
 20
-136.1704996404365
 10
117.4746554610827
 20
-136.1704996404365
 97
        0
 97
        1
330
94
 92
        1
 93
        1
 72
     4
 94
        3
 73
     0
 74
     0
 95
       47
 96
       43
 40
0.0
 40
0.0
 40
0.0
 40
0.0
 40
1.0
 40
1.0
 40
1.0
 40
2.0
 40
2.0
 40
2.0
 40
3.0
 40
3.0
 40
3.0
 40
4.0
 40
4.0
 40
4.0
 40
5.0
 40
5.0
 40
5.0
 40
6.0
 40
6.0
 40
6.0
 40
7.0
 40
7.0
 40
7.0
 40
8.0
 40
8.0
 40
8.0
 40
9.0
 40
9.0
 40
9.0
 40
10.0
 40
10.0
 40
10.0
 40
11.0
 40
11.0
 40
11.0
 40
12.0
 40
12.0
 40
12.0
 40
13.0
 40
13.0
 40
13.0
 40
14.0
 40
14.0
 40
14.0
 40
14.0
 10
117.5762857778976
 20
-136.6993217974224
 10
117.5762857778976
 20
-136.6993217974224
 10
117.4746554610827
 20
-136.6993217974224
 10
117.4746554610827
 20
-136.6993217974224
 10
117.4746554610827
 20
-136.7861382036507
 10
117.4536403786227
 20
-137.1754339934839
 10
117.2569254264149
 20
-137.3954033402171
 10
117.1043076964183
 20
-137.5645575285429
 10
116.8972574577548
 20
-137.6344929668934
 10
116.8125081088177
 20
-137.6618814760012
 10
116.8125081088177
 20
-137.6618814760012
 10
116.6178602139011
 20
-137.4947943449666
 10
116.6178602139011
 20
-137.4947943449666
 10
116.7153564161337
 20
-137.4820474916711
 10
116.8907117763329
 20
-137.4587930971457
 10
117.079158499376
 20
-137.2705186288768
 10
117.1532280523089
 20
-137.1986883880093
 10
117.2569254264149
 20
-137.0589897660825
 10
117.2569254264149
 20
-136.6993217974224
 10
117.2569254264149
 20
-136.6993217974224
 10
117.0261040289032
 20
-136.6993217974224
 10
117.0261040289032
 20
-136.6993217974224
 10
116.8400688726997
 20
-136.6993217974224
 10
116.6536892069477
 20
-136.7036281667789
 10
116.4676540507442
 20
-136.7184420773655
 10
116.4676540507442
 20
-136.7184420773655
 10
116.4676540507442
 20
-136.4984727306323
 10
116.4676540507442
 20
-136.4984727306323
 10
116.6561007737874
 20
-136.5132866412189
 10
116.9416991895146
 20
-136.5174207558012
 10
117.0261040289032
 20
-136.5174207558012
 10
117.0261040289032
 20
-136.5174207558012
 10
117.5762857778976
 20
-136.5174207558012
 10
117.5762857778976
 20
-136.5174207558012
 10
117.5952338030665
 20
-136.5174207558012
 10
117.912527097258
 20
-136.5174207558012
 10
118.14093692793
 20
-136.4984727306323
 10
118.14093692793
 20
-136.4984727306323
 10
118.14093692793
 20
-136.7184420773655
 10
118.14093692793
 20
-136.7184420773655
 10
117.9528347144354
 20
-136.7036281667789
 10
117.7643879913922
 20
-136.6993217974224
 10
117.5762857778976
 20
-136.6993217974224
 97
        0
 97
        1
330
95
 75
     2
 76
     1
 98
        1
 10
0.0
 20
0.0
450
        0
451
        0
460
0.0
461
0.0
452
        0
462
0.0
453
        0
470

  0
SPLINE
  5
97
330
87
100
AcDbEntity
  8
レイヤー 1
100
AcDbSpline
210
0.0
220
0.0
230
1.0
 70
     9
 71
     3
 72
    29
 73
    25
 74
     0
 42
0.0000000001
 43
0.0000000001
 40
0.0
 40
0.0
 40
0.0
 40
0.0
 40
1.0
 40
1.0
 40
1.0
 40
2.0
 40
2.0
 40
2.0
 40
3.0
 40
3.0
 40
3.0
 40
4.0
 40
4.0
 40
4.0
 40
5.0
 40
5.0
 40
5.0
 40
6.0
 40
6.0
 40
6.0
 40
7.0
 40
7.0
 40
7.0
 40
8.0
 40
8.0
 40
8.0
 40
8.0
 10
119.4221679388944
 20
-136.8622748138747
 30
0.0
 10
119.4221679388944
 20
-136.8622748138747
 30
0.0
 10
118.9377875136683
 20
-136.8622748138747
 30
0.0
 10
118.9377875136683
 20
-136.8622748138747
 30
0.0
 10
118.9102267497863
 20
-136.8622748138747
 30
0.0
 10
118.5929334555948
 20
-136.8622748138747
 30
0.0
 10
118.3814045928005
 20
-136.8875962656913
 30
0.0
 10
118.3814045928005
 20
-136.8875962656913
 30
0.0
 10
118.3814045928005
 20
-136.6571193777281
 30
0.0
 10
118.3814045928005
 20
-136.6571193777281
 30
0.0
 10
118.5398789851219
 20
-136.6803737722535
 30
0.0
 10
118.7303927654563
 20
-136.6824408295447
 30
0.0
 10
118.9377875136683
 20
-136.6824408295447
 30
0.0
 10
118.9377875136683
 20
-136.6824408295447
 30
0.0
 10
119.4221679388944
 20
-136.6824408295447
 30
0.0
 10
119.4221679388944
 20
-136.6824408295447
 30
0.0
 10
119.6082030950979
 20
-136.6824408295447
 30
0.0
 10
119.7945827608499
 20
-136.6803737722535
 30
0.0
 10
119.9785508597623
 20
-136.6571193777281
 30
0.0
 10
119.9785508597623
 20
-136.6571193777281
 30
0.0
 10
119.9785508597623
 20
-136.8875962656913
 30
0.0
 10
119.9785508597623
 20
-136.8875962656913
 30
0.0
 10
119.7945827608499
 20
-136.8643418711658
 30
0.0
 10
119.5468803954605
 20
-136.8622748138747
 30
0.0
 10
119.4221679388944
 20
-136.8622748138747
 30
0.0
  0
HATCH
  5
98
330
87
100
AcDbEntity
  8
レイヤー 1
 62
   250
420
  2299925
440
 33554687
100
AcDbHatch
 10
0.0
 20
0.0
 30
0.0
210
0.0
220
0.0
230
1.0
  2
SOLID
 70
     1
 71
     1
 91
        1
 92
        1
 93
        1
 72
     4
 94
        3
 73
     0
 74
     0
 95
       29
 96
       25
 40
0.0
 40
0.0
 40
0.0
 40
0.0
 40
1.0
 40
1.0
 40
1.0
 40
2.0
 40
2.0
 40
2.0
 40
3.0
 40
3.0
 40
3.0
 40
4.0
 40
4.0
 40
4.0
 40
5.0
 40
5.0
 40
5.0
 40
6.0
 40
6.0
 40
6.0
 40
7.0
 40
7.0
 40
7.0
 40
8.0
 40
8.0
 40
8.0
 40
8.0
 10
119.4221679388944
 20
-136.8622748138747
 10
119.4221679388944
 20
-136.8622748138747
 10
118.9377875136683
 20
-136.8622748138747
 10
118.9377875136683
 20
-136.8622748138747
 10
118.9102267497863
 20
-136.8622748138747
 10
118.5929334555948
 20
-136.8622748138747
 10
118.3814045928005
 20
-136.8875962656913
 10
118.3814045928005
 20
-136.8875962656913
 10
118.3814045928005
 20
-136.6571193777281
 10
118.3814045928005
 20
-136.6571193777281
 10
118.5398789851219
 20
-136.6803737722535
 10
118.7303927654563
 20
-136.6824408295447
 10
118.9377875136683
 20
-136.6824408295447
 10
118.9377875136683
 20
-136.6824408295447
 10
119.4221679388944
 20
-136.6824408295447
 10
119.4221679388944
 20
-136.6824408295447
 10
119.6082030950979
 20
-136.6824408295447
 10
119.7945827608499
 20
-136.6803737722535
 10
119.9785508597623
 20
-136.6571193777281
 10
119.9785508597623
 20
-136.6571193777281
 10
119.9785508597623
 20
-136.8875962656913
 10
119.9785508597623
 20
-136.8875962656913
 10
119.7945827608499
 20
-136.8643418711658
 10
119.5468803954605
 20
-136.8622748138747
 10
119.4221679388944
 20
-136.8622748138747
 97
        0
 97
        1
330
97
 75
     2
 76
     1
 98
        1
 10
0.0
 20
0.0
450
        0
451
        0
460
0.0
461
0.0
452
        0
462
0.0
453
        0
470

  0
SPLINE
  5
99
330
87
100
AcDbEntity
  8
レイヤー 1
100
AcDbSpline
210
0.0
220
0.0
230
1.0
 70
     9
 71
     3
 72
    17
 73
    13
 74
     0
 42
0.0000000001
 43
0.0000000001
 40
0.0
 40
0.0
 40
0.0
 40
0.0
 40
1.0
 40
1.0
 40
1.0
 40
2.0
 40
2.0
 40
2.0
 40
3.0
 40
3.0
 40
3.0
 40
4.0
 40
4.0
 40
4.0
 40
4.0
 10
121.8409694790884
 20
-135.8954087659393
 30
0.0
 10
121.7861924608729
 20
-135.8954087659393
 30
0.0
 10
121.7417507291131
 20
-135.939850497699
 30
0.0
 10
121.7417507291131
 20
-135.994972025463
 30
0.0
 10
121.7417507291131
 20
-136.0519883557439
 30
0.0
 10
121.7861924608729
 20
-136.1007364568602
 30
0.0
 10
121.8451035936706
 20
-136.1007364568602
 30
0.0
 10
121.9043592360169
 20
-136.1007364568602
 30
0.0
 10
121.9446668531944
 20
-136.0499212984528
 30
0.0
 10
121.9446668531944
 20
-135.9970390827542
 30
0.0
 10
121.9446668531944
 20
-135.939850497699
 30
0.0
 10
121.8981580641435
 20
-135.8954087659393
 30
0.0
 10
121.8409694790884
 20
-135.8954087659393
 30
0.0
  0
SPLINE
  5
9A
330
87
100
AcDbEntity
  8
レイヤー 1
100
AcDbSpline
210
0.0
220
0.0
230
1.0
 70
     9
 71
     3
 72
    17
 73
    13
 74
     0
 42
0.0000000001
 43
0.0000000001
 40
0.0
 40
0.0
 40
0.0
 40
0.0
 40
1.0
 40
1.0
 40
1.0
 40
2.0
 40
2.0
 40
2.0
 40
3.0
 40
3.0
 40
3.0
 40
4.0
 40
4.0
 40
4.0
 40
4.0
 10
121.8430365363795
 20
-136.2254489134262
 30
0.0
 10
121.7162570225223
 20
-136.2254489134262
 30
0.0
 10
121.6146267057074
 20
-136.1239908513857
 30
0.0
 10
121.6146267057074
 20
-135.9970390827542
 30
0.0
 10
121.6146267057074
 20
-135.8700873141228
 30
0.0
 10
121.7162570225223
 20
-135.7663899400167
 30
0.0
 10
121.8430365363795
 20
-135.7663899400167
 30
0.0
 10
121.9701605597852
 20
-135.7663899400167
 30
0.0
 10
122.0738579338912
 20
-135.8700873141228
 30
0.0
 10
122.0738579338912
 20
-135.9970390827542
 30
0.0
 10
122.0738579338912
 20
-136.1239908513857
 30
0.0
 10
121.9701605597852
 20
-136.2254489134262
 30
0.0
 10
121.8430365363795
 20
-136.2254489134262
 30
0.0
  0
SPLINE
  5
9B
330
87
100
AcDbEntity
  8
レイヤー 1
100
AcDbSpline
210
0.0
220
0.0
230
1.0
 70
     9
 71
     3
 72
    44
 73
    40
 74
     0
 42
0.0000000001
 43
0.0000000001
 40
0.0
 40
0.0
 40
0.0
 40
0.0
 40
1.0
 40
1.0
 40
1.0
 40
2.0
 40
2.0
 40
2.0
 40
3.0
 40
3.0
 40
3.0
 40
4.0
 40
4.0
 40
4.0
 40
5.0
 40
5.0
 40
5.0
 40
6.0
 40
6.0
 40
6.0
 40
7.0
 40
7.0
 40
7.0
 40
8.0
 40
8.0
 40
8.0
 40
9.0
 40
9.0
 40
9.0
 40
10.0
 40
10.0
 40
10.0
 40
11.0
 40
11.0
 40
11.0
 40
12.0
 40
12.0
 40
12.0
 40
13.0
 40
13.0
 40
13.0
 40
13.0
 10
121.6335747308763
 20
-136.4244031776995
 30
0.0
 10
121.5216091276057
 20
-136.7925116302984
 30
0.0
 10
121.4709662239725
 20
-136.9511582773941
 30
0.0
 10
121.2742512717648
 20
-137.2007554453005
 30
0.0
 10
121.0899386633039
 20
-137.431404588038
 30
0.0
 10
120.8532606034672
 20
-137.6174397442414
 30
0.0
 10
120.5738633596135
 20
-137.7106295771175
 30
0.0
 10
120.5738633596135
 20
-137.7106295771175
 30
0.0
 10
120.381282521988
 20
-137.5307955927874
 30
0.0
 10
120.381282521988
 20
-137.5307955927874
 30
0.0
 10
121.022414791793
 20
-137.3785223723394
 30
0.0
 10
121.3524549392799
 20
-136.8221394514715
 30
0.0
 10
121.4158446962085
 20
-136.3820285032309
 30
0.0
 10
121.4158446962085
 20
-136.3820285032309
 30
0.0
 10
120.6499999698375
 20
-136.3820285032309
 30
0.0
 10
120.6499999698375
 20
-136.3820285032309
 30
0.0
 10
120.5569823917357
 20
-136.3820285032309
 30
0.0
 10
120.3730142928234
 20
-136.3863348725874
 30
0.0
 10
120.2162624482445
 20
-136.4052828977563
 30
0.0
 10
120.2162624482445
 20
-136.4052828977563
 30
0.0
 10
120.2162624482445
 20
-136.1853135510231
 30
0.0
 10
120.2162624482445
 20
-136.1853135510231
 30
0.0
 10
120.3030788544728
 20
-136.2065008882574
 30
0.0
 10
120.5549153344446
 20
-136.2065008882574
 30
0.0
 10
120.6541340844198
 20
-136.2065008882574
 30
0.0
 10
120.6541340844198
 20
-136.2065008882574
 30
0.0
 10
121.0858045487216
 20
-136.2065008882574
 30
0.0
 10
121.0858045487216
 20
-136.2065008882574
 30
0.0
 10
121.1281792231902
 20
-136.2065008882574
 30
0.0
 10
121.3627902257357
 20
-136.204261576192
 30
0.0
 10
121.4010307856219
 20
-136.1980604043185
 30
0.0
 10
121.4434054600905
 20
-136.1916869776708
 30
0.0
 10
121.4454725173817
 20
-136.1896199203797
 30
0.0
 10
121.5067952170191
 20
-136.1493123032022
 30
0.0
 10
121.5067952170191
 20
-136.1493123032022
 30
0.0
 10
121.6948974305138
 20
-136.3038248357157
 30
0.0
 10
121.6948974305138
 20
-136.3038248357157
 30
0.0
 10
121.6656141188891
 20
-136.3334526568888
 30
0.0
 10
121.6508002083026
 20
-136.3651475353532
 30
0.0
 10
121.6335747308763
 20
-136.4244031776995
 30
0.0
  0
HATCH
  5
9C
330
87
100
AcDbEntity
  8
レイヤー 1
 62
   250
420
  2299925
440
 33554687
100
AcDbHatch
 10
0.0
 20
0.0
 30
0.0
210
0.0
220
0.0
230
1.0
  2
SOLID
 70
     1
 71
     1
 91
        3
 92
        1
 93
        1
 72
     4
 94
        3
 73
     0
 74
     0
 95
       17
 96
       13
 40
0.0
 40
0.0
 40
0.0
 40
0.0
 40
1.0
 40
1.0
 40
1.0
 40
2.0
 40
2.0
 40
2.0
 40
3.0
 40
3.0
 40
3.0
 40
4.0
 40
4.0
 40
4.0
 40
4.0
 10
121.8409694790884
 20
-135.8954087659393
 10
121.7861924608729
 20
-135.8954087659393
 10
121.7417507291131
 20
-135.939850497699
 10
121.7417507291131
 20
-135.994972025463
 10
121.7417507291131
 20
-136.0519883557439
 10
121.7861924608729
 20
-136.1007364568602
 10
121.8451035936706
 20
-136.1007364568602
 10
121.9043592360169
 20
-136.1007364568602
 10
121.9446668531944
 20
-136.0499212984528
 10
121.9446668531944
 20
-135.9970390827542
 10
121.9446668531944
 20
-135.939850497699
 10
121.8981580641435
 20
-135.8954087659393
 10
121.8409694790884
 20
-135.8954087659393
 97
        0
 97
        1
330
99
 92
        1
 93
        1
 72
     4
 94
        3
 73
     0
 74
     0
 95
       17
 96
       13
 40
0.0
 40
0.0
 40
0.0
 40
0.0
 40
1.0
 40
1.0
 40
1.0
 40
2.0
 40
2.0
 40
2.0
 40
3.0
 40
3.0
 40
3.0
 40
4.0
 40
4.0
 40
4.0
 40
4.0
 10
121.8430365363795
 20
-136.2254489134262
 10
121.7162570225223
 20
-136.2254489134262
 10
121.6146267057074
 20
-136.1239908513857
 10
121.6146267057074
 20
-135.9970390827542
 10
121.6146267057074
 20
-135.8700873141228
 10
121.7162570225223
 20
-135.7663899400167
 10
121.8430365363795
 20
-135.7663899400167
 10
121.9701605597852
 20
-135.7663899400167
 10
122.0738579338912
 20
-135.8700873141228
 10
122.0738579338912
 20
-135.9970390827542
 10
122.0738579338912
 20
-136.1239908513857
 10
121.9701605597852
 20
-136.2254489134262
 10
121.8430365363795
 20
-136.2254489134262
 97
        0
 97
        1
330
9A
 92
        1
 93
        1
 72
     4
 94
        3
 73
     0
 74
     0
 95
       44
 96
       40
 40
0.0
 40
0.0
 40
0.0
 40
0.0
 40
1.0
 40
1.0
 40
1.0
 40
2.0
 40
2.0
 40
2.0
 40
3.0
 40
3.0
 40
3.0
 40
4.0
 40
4.0
 40
4.0
 40
5.0
 40
5.0
 40
5.0
 40
6.0
 40
6.0
 40
6.0
 40
7.0
 40
7.0
 40
7.0
 40
8.0
 40
8.0
 40
8.0
 40
9.0
 40
9.0
 40
9.0
 40
10.0
 40
10.0
 40
10.0
 40
11.0
 40
11.0
 40
11.0
 40
12.0
 40
12.0
 40
12.0
 40
13.0
 40
13.0
 40
13.0
 40
13.0
 10
121.6335747308763
 20
-136.4244031776995
 10
121.5216091276057
 20
-136.7925116302984
 10
121.4709662239725
 20
-136.9511582773941
 10
121.2742512717648
 20
-137.2007554453005
 10
121.0899386633039
 20
-137.431404588038
 10
120.8532606034672
 20
-137.6174397442414
 10
120.5738633596135
 20
-137.7106295771175
 10
120.5738633596135
 20
-137.7106295771175
 10
120.381282521988
 20
-137.5307955927874
 10
120.381282521988
 20
-137.5307955927874
 10
121.022414791793
 20
-137.3785223723394
 10
121.3524549392799
 20
-136.8221394514715
 10
121.4158446962085
 20
-136.3820285032309
 10
121.4158446962085
 20
-136.3820285032309
 10
120.6499999698375
 20
-136.3820285032309
 10
120.6499999698375
 20
-136.3820285032309
 10
120.5569823917357
 20
-136.3820285032309
 10
120.3730142928234
 20
-136.3863348725874
 10
120.2162624482445
 20
-136.4052828977563
 10
120.2162624482445
 20
-136.4052828977563
 10
120.2162624482445
 20
-136.1853135510231
 10
120.2162624482445
 20
-136.1853135510231
 10
120.3030788544728
 20
-136.2065008882574
 10
120.5549153344446
 20
-136.2065008882574
 10
120.6541340844198
 20
-136.2065008882574
 10
120.6541340844198
 20
-136.2065008882574
 10
121.0858045487216
 20
-136.2065008882574
 10
121.0858045487216
 20
-136.2065008882574
 10
121.1281792231902
 20
-136.2065008882574
 10
121.3627902257357
 20
-136.204261576192
 10
121.4010307856219
 20
-136.1980604043185
 10
121.4434054600905
 20
-136.1916869776708
 10
121.4454725173817
 20
-136.1896199203797
 10
121.5067952170191
 20
-136.1493123032022
 10
121.5067952170191
 20
-136.1493123032022
 10
121.6948974305138
 20
-136.3038248357157
 10
121.6948974305138
 20
-136.3038248357157
 10
121.6656141188891
 20
-136.3334526568888
 10
121.6508002083026
 20
-136.3651475353532
 10
121.6335747308763
 20
-136.4244031776995
 97
        0
 97
        1
330
9B
 75
     2
 76
     1
 98
        1
 10
0.0
 20
0.0
450
        0
451
        0
460
0.0
461
0.0
452
        0
462
0.0
453
        0
470

  0
ENDBLK
  5
8A
330
87
100
AcDbEntity
  8
0
100
AcDbBlockEnd
  0
BLOCK
  5
9F
330
9D
100
AcDbEntity
  8
0
100
AcDbBlockBegin
  2
Block_2
 70
     0
 10
0.0
 20
0.0
 30
0.0
  3
Block_2
  1

  0
INSERT
  5
A2
330
9D
100
AcDbEntity
  8
レイヤー 1
100
AcDbBlockReference
  2
Block_3
 10
0.0
 20
0.0
 30
0.0
  0
INSERT
  5
BC
330
9D
100
AcDbEntity
  8
レイヤー 1
100
AcDbBlockReference
  2
Block_7
 10
0.0
 20
0.0
 30
0.0
  0
INSERT
  5
C9
330
9D
100
AcDbEntity
  8
レイヤー 1
100
AcDbBlockReference
  2
Block_9
 10
0.0
 20
0.0
 30
0.0
  0
INSERT
  5
D6
330
9D
100
AcDbEntity
  8
レイヤー 1
100
AcDbBlockReference
  2
Block_11
 10
0.0
 20
0.0
 30
0.0
  0
INSERT
  5
F0
330
9D
100
AcDbEntity
  8
レイヤー 1
100
AcDbBlockReference
  2
Block_15
 10
0.0
 20
0.0
 30
0.0
  0
INSERT
  5
11C
330
9D
100
AcDbEntity
  8
レイヤー 1
100
AcDbBlockReference
  2
Block_18
 10
0.0
 20
0.0
 30
0.0
  0
ENDBLK
  5
A0
330
9D
100
AcDbEntity
  8
0
100
AcDbBlockEnd
  0
BLOCK
  5
A3
330
A1
100
AcDbEntity
  8
0
100
AcDbBlockBegin
  2
Block_3
 70
     0
 10
0.0
 20
0.0
 30
0.0
  3
Block_3
  1

  0
INSERT
  5
A6
330
A1
100
AcDbEntity
  8
レイヤー 1
100
AcDbBlockReference
  2
Block_4
 10
0.0
 20
0.0
 30
0.0
  0
INSERT
  5
AF
330
A1
100
AcDbEntity
  8
レイヤー 1
100
AcDbBlockReference
  2
Block_5
 10
0.0
 20
0.0
 30
0.0
  0
ENDBLK
  5
A4
330
A1
100
AcDbEntity
  8
0
100
AcDbBlockEnd
  0
BLOCK
  5
A7
330
A5
100
AcDbEntity
  8
0
100
AcDbBlockBegin
  2
Block_4
 70
     0
 10
0.0
 20
0.0
 30
0.0
  3
Block_4
  1

  0
SPLINE
  5
A9
330
A5
100
AcDbEntity
  8
レイヤー 1
 62
   250
420
  2299925
370
     9
100
AcDbSpline
210
0.0
220
0.0
230
1.0
 70
     9
 71
     3
 72
    17
 73
    13
 74
     0
 42
0.0000000001
 43
0.0000000001
 40
0.0
 40
0.0
 40
0.0
 40
0.0
 40
1.0
 40
1.0
 40
1.0
 40
2.0
 40
2.0
 40
2.0
 40
3.0
 40
3.0
 40
3.0
 40
4.0
 40
4.0
 40
4.0
 40
4.0
 10
105.6680628652341
 20
-166.8358009796078
 30
0.0
 10
105.6680628652341
 20
-166.7799915365871
 30
0.0
 10
105.6232600874674
 20
-166.7351887599523
 30
0.0
 10
105.5681561985925
 20
-166.7351887599523
 30
0.0
 10
105.5130170319394
 20
-166.7351887599523
 30
0.0
 10
105.4682495319509
 20
-166.7799915365871
 30
0.0
 10
105.4682495319509
 20
-166.8358009796078
 30
0.0
 10
105.4682495319509
 20
-166.8909048670908
 30
0.0
 10
105.5130170319394
 20
-166.9357076437256
 30
0.0
 10
105.5681561985925
 20
-166.9357076437256
 30
0.0
 10
105.6232600874674
 20
-166.9357076437256
 30
0.0
 10
105.6680628652341
 20
-166.8909048670908
 30
0.0
 10
105.6680628652341
 20
-166.8358009796078
 30
0.0
  0
SPLINE
  5
AA
330
A5
100
AcDbEntity
  8
レイヤー 1
 62
   250
420
  2299925
370
     9
100
AcDbSpline
210
0.0
220
0.0
230
1.0
 70
     9
 71
     3
 72
    17
 73
    13
 74
     0
 42
0.0000000001
 43
0.0000000001
 40
0.0
 40
0.0
 40
0.0
 40
0.0
 40
1.0
 40
1.0
 40
1.0
 40
2.0
 40
2.0
 40
2.0
 40
3.0
 40
3.0
 40
3.0
 40
4.0
 40
4.0
 40
4.0
 40
4.0
 10
125.6944731825225
 20
-166.8358009796078
 30
0.0
 10
125.6944731825225
 20
-166.7799915365871
 30
0.0
 10
125.6496704058878
 20
-166.7351887599523
 30
0.0
 10
125.5945665184047
 20
-166.7351887599523
 30
0.0
 10
125.5394273531448
 20
-166.7351887599523
 30
0.0
 10
125.4946609900037
 20
-166.7799915365871
 30
0.0
 10
125.4946609900037
 20
-166.8358009796078
 30
0.0
 10
125.4946609900037
 20
-166.8909048670908
 30
0.0
 10
125.5394273531448
 20
-166.9357076437256
 30
0.0
 10
125.5945665184047
 20
-166.9357076437256
 30
0.0
 10
125.6496704058878
 20
-166.9357076437256
 30
0.0
 10
125.6944731825225
 20
-166.8909048670908
 30
0.0
 10
125.6944731825225
 20
-166.8358009796078
 30
0.0
  0
LINE
  5
AB
330
A5
100
AcDbEntity
  8
レイヤー 1
 62
   250
420
  2299925
370
     9
100
AcDbLine
 10
105.5945671117786
 20
-166.8358009796078
 30
0.0
 11
125.5945671067785
 21
-166.8358009796078
 31
0.0
  0
LINE
  5
AC
330
A5
100
AcDbEntity
  8
レイヤー 1
 62
   250
420
  2299925
370
     9
100
AcDbLine
 10
105.5681561985925
 20
-164.5758007594874
 30
0.0
 11
105.5681561985925
 21
-167.8355731763236
 31
0.0
  0
LINE
  5
AD
330
A5
100
AcDbEntity
  8
レイヤー 1
 62
   250
420
  2299925
370
     9
100
AcDbLine
 10
125.5945665184047
 20
-165.0753340800766
 30
0.0
 11
125.5945665184047
 21
-167.8355731763236
 31
0.0
  0
ENDBLK
  5
A8
330
A5
100
AcDbEntity
  8
0
100
AcDbBlockEnd
  0
BLOCK
  5
B0
330
AE
100
AcDbEntity
  8
0
100
AcDbBlockBegin
  2
Block_5
 70
     0
 10
0.0
 20
0.0
 30
0.0
  3
Block_5
  1

  0
INSERT
  5
B3
330
AE
100
AcDbEntity
  8
レイヤー 1
100
AcDbBlockReference
  2
Block_6
 10
0.0
 20
0.0
 30
0.0
  0
ENDBLK
  5
B1
330
AE
100
AcDbEntity
  8
0
100
AcDbBlockEnd
  0
BLOCK
  5
B4
330
B2
100
AcDbEntity
  8
0
100
AcDbBlockBegin
  2
Block_6
 70
     0
 10
0.0
 20
0.0
 30
0.0
  3
Block_6
  1

  0
SPLINE
  5
B6
330
B2
100
AcDbEntity
  8
レイヤー 1
100
AcDbSpline
210
0.0
220
0.0
230
1.0
 70
     9
 71
     3
 72
    44
 73
    40
 74
     0
 42
0.0000000001
 43
0.0000000001
 40
0.0
 40
0.0
 40
0.0
 40
0.0
 40
1.0
 40
1.0
 40
1.0
 40
2.0
 40
2.0
 40
2.0
 40
3.0
 40
3.0
 40
3.0
 40
4.0
 40
4.0
 40
4.0
 40
5.0
 40
5.0
 40
5.0
 40
6.0
 40
6.0
 40
6.0
 40
7.0
 40
7.0
 40
7.0
 40
8.0
 40
8.0
 40
8.0
 40
9.0
 40
9.0
 40
9.0
 40
10.0
 40
10.0
 40
10.0
 40
11.0
 40
11.0
 40
11.0
 40
12.0
 40
12.0
 40
12.0
 40
13.0
 40
13.0
 40
13.0
 40
13.0
 10
115.0854817420619
 20
-165.5406276712884
 30
0.0
 10
114.8677517073942
 20
-165.6994465731584
 30
0.0
 10
114.7747341292924
 20
-165.7735161260913
 30
0.0
 10
114.7258137734018
 20
-165.9171766078262
 30
0.0
 10
114.7258137734018
 20
-165.9171766078262
 30
0.0
 10
115.5044053530683
 20
-165.9171766078262
 30
0.0
 10
115.5044053530683
 20
-165.9171766078262
 30
0.0
 10
115.5044053530683
 20
-165.9171766078262
 30
0.0
 10
115.5044053530683
 20
-166.1225042987471
 30
0.0
 10
115.5044053530683
 20
-166.1225042987471
 30
0.0
 10
115.5044053530683
 20
-166.1225042987471
 30
0.0
 10
114.4763888602698
 20
-166.1225042987471
 30
0.0
 10
114.4763888602698
 20
-166.1225042987471
 30
0.0
 10
114.5080837387341
 20
-165.7649033873782
 30
0.0
 10
114.5735405529538
 20
-165.686699719863
 30
0.0
 10
114.9587022282047
 20
-165.3883544508404
 30
0.0
 10
115.2146728227588
 20
-165.1895724413415
 30
0.0
 10
115.2801296369786
 20
-165.1217040602821
 30
0.0
 10
115.2801296369786
 20
-164.9842447504206
 30
0.0
 10
115.2801296369786
 20
-164.865733465728
 30
0.0
 10
115.2081271413368
 20
-164.7348198372885
 30
0.0
 10
115.0114121891291
 20
-164.7348198372885
 30
0.0
 10
114.7513074799927
 20
-164.7348198372885
 30
0.0
 10
114.7430392508281
 20
-164.9652967252517
 30
0.0
 10
114.7385606266973
 20
-165.0817409526531
 30
0.0
 10
114.7385606266973
 20
-165.0817409526531
 30
0.0
 10
114.5142849106075
 20
-165.0817409526531
 30
0.0
 10
114.5142849106075
 20
-165.0817409526531
 30
0.0
 10
114.5228976493206
 20
-164.9546169292474
 30
0.0
 10
114.5335774453249
 20
-164.8426513259768
 30
0.0
 10
114.6138481701312
 20
-164.7241400412842
 30
0.0
 10
114.7237467161107
 20
-164.5632540821231
 30
0.0
 10
114.9101263818627
 20
-164.5294921463676
 30
0.0
 10
115.0262260997156
 20
-164.5294921463676
 30
0.0
 10
115.3035562862783
 20
-164.5294921463676
 30
0.0
 10
115.5109510344903
 20
-164.7134602452799
 30
0.0
 10
115.5109510344903
 20
-164.9863118077117
 30
0.0
 10
115.5109510344903
 20
-165.2150661479323
 30
0.0
 10
115.3945068070888
 20
-165.3142848979075
 30
0.0
 10
115.0854817420619
 20
-165.5406276712884
 30
0.0
  0
HATCH
  5
B7
330
B2
100
AcDbEntity
  8
レイヤー 1
 62
   250
420
  2299925
440
 33554687
100
AcDbHatch
 10
0.0
 20
0.0
 30
0.0
210
0.0
220
0.0
230
1.0
  2
SOLID
 70
     1
 71
     1
 91
        1
 92
        1
 93
        1
 72
     4
 94
        3
 73
     0
 74
     0
 95
       44
 96
       40
 40
0.0
 40
0.0
 40
0.0
 40
0.0
 40
1.0
 40
1.0
 40
1.0
 40
2.0
 40
2.0
 40
2.0
 40
3.0
 40
3.0
 40
3.0
 40
4.0
 40
4.0
 40
4.0
 40
5.0
 40
5.0
 40
5.0
 40
6.0
 40
6.0
 40
6.0
 40
7.0
 40
7.0
 40
7.0
 40
8.0
 40
8.0
 40
8.0
 40
9.0
 40
9.0
 40
9.0
 40
10.0
 40
10.0
 40
10.0
 40
11.0
 40
11.0
 40
11.0
 40
12.0
 40
12.0
 40
12.0
 40
13.0
 40
13.0
 40
13.0
 40
13.0
 10
115.0854817420619
 20
-165.5406276712884
 10
114.8677517073942
 20
-165.6994465731584
 10
114.7747341292924
 20
-165.7735161260913
 10
114.7258137734018
 20
-165.9171766078262
 10
114.7258137734018
 20
-165.9171766078262
 10
115.5044053530683
 20
-165.9171766078262
 10
115.5044053530683
 20
-165.9171766078262
 10
115.5044053530683
 20
-165.9171766078262
 10
115.5044053530683
 20
-166.1225042987471
 10
115.5044053530683
 20
-166.1225042987471
 10
115.5044053530683
 20
-166.1225042987471
 10
114.4763888602698
 20
-166.1225042987471
 10
114.4763888602698
 20
-166.1225042987471
 10
114.5080837387341
 20
-165.7649033873782
 10
114.5735405529538
 20
-165.686699719863
 10
114.9587022282047
 20
-165.3883544508404
 10
115.2146728227588
 20
-165.1895724413415
 10
115.2801296369786
 20
-165.1217040602821
 10
115.2801296369786
 20
-164.9842447504206
 10
115.2801296369786
 20
-164.865733465728
 10
115.2081271413368
 20
-164.7348198372885
 10
115.0114121891291
 20
-164.7348198372885
 10
114.7513074799927
 20
-164.7348198372885
 10
114.7430392508281
 20
-164.9652967252517
 10
114.7385606266973
 20
-165.0817409526531
 10
114.7385606266973
 20
-165.0817409526531
 10
114.5142849106075
 20
-165.0817409526531
 10
114.5142849106075
 20
-165.0817409526531
 10
114.5228976493206
 20
-164.9546169292474
 10
114.5335774453249
 20
-164.8426513259768
 10
114.6138481701312
 20
-164.7241400412842
 10
114.7237467161107
 20
-164.5632540821231
 10
114.9101263818627
 20
-164.5294921463676
 10
115.0262260997156
 20
-164.5294921463676
 10
115.3035562862783
 20
-164.5294921463676
 10
115.5109510344903
 20
-164.7134602452799
 10
115.5109510344903
 20
-164.9863118077117
 10
115.5109510344903
 20
-165.2150661479323
 10
115.3945068070888
 20
-165.3142848979075
 10
115.0854817420619
 20
-165.5406276712884
 97
        0
 97
        1
330
B6
 75
     2
 76
     1
 98
        1
 10
0.0
 20
0.0
450
        0
451
        0
460
0.0
461
0.0
452
        0
462
0.0
453
        0
470

  0
SPLINE
  5
B8
330
B2
100
AcDbEntity
  8
レイヤー 1
100
AcDbSpline
210
0.0
220
0.0
230
1.0
 70
     9
 71
     3
 72
    17
 73
    13
 74
     0
 42
0.0000000001
 43
0.0000000001
 40
0.0
 40
0.0
 40
0.0
 40
0.0
 40
1.0
 40
1.0
 40
1.0
 40
2.0
 40
2.0
 40
2.0
 40
3.0
 40
3.0
 40
3.0
 40
4.0
 40
4.0
 40
4.0
 40
4.0
 10
116.1693087817216
 20
-164.7220729839931
 30
0.0
 10
115.9198838685895
 20
-164.7220729839931
 30
0.0
 10
115.87303056999
 20
-165.0056043424291
 30
0.0
 10
115.87303056999
 20
-165.3504584005027
 30
0.0
 10
115.87303056999
 20
-165.6698187519853
 30
0.0
 10
115.9092040725852
 20
-165.9784993074637
 30
0.0
 10
116.1693087817216
 20
-165.9784993074637
 30
0.0
 10
116.417011147111
 20
-165.9784993074637
 30
0.0
 10
116.465586993453
 20
-165.6973795158673
 30
0.0
 10
116.465586993453
 20
-165.3504584005027
 30
0.0
 10
116.465586993453
 20
-165.0307535394714
 30
0.0
 10
116.4273464335668
 20
-164.7220729839931
 30
0.0
 10
116.1693087817216
 20
-164.7220729839931
 30
0.0
  0
SPLINE
  5
B9
330
B2
100
AcDbEntity
  8
レイヤー 1
100
AcDbSpline
210
0.0
220
0.0
230
1.0
 70
     9
 71
     3
 72
    29
 73
    25
 74
     0
 42
0.0000000001
 43
0.0000000001
 40
0.0
 40
0.0
 40
0.0
 40
0.0
 40
1.0
 40
1.0
 40
1.0
 40
2.0
 40
2.0
 40
2.0
 40
3.0
 40
3.0
 40
3.0
 40
4.0
 40
4.0
 40
4.0
 40
5.0
 40
5.0
 40
5.0
 40
6.0
 40
6.0
 40
6.0
 40
7.0
 40
7.0
 40
7.0
 40
8.0
 40
8.0
 40
8.0
 40
8.0
 10
116.5672173102679
 20
-165.9447373717082
 30
0.0
 10
116.4590413120311
 20
-166.1541991772114
 30
0.0
 10
116.285753009123
 20
-166.1731472023803
 30
0.0
 10
116.1693087817216
 20
-166.1731472023803
 30
0.0
 10
116.0084228225604
 20
-166.1731472023803
 30
0.0
 10
115.8668293981166
 20
-166.1266384133294
 30
0.0
 10
115.7717447627237
 20
-165.9447373717082
 30
0.0
 10
115.6680473886177
 20
-165.7500894767916
 30
0.0
 10
115.6490993634488
 20
-165.5130669074064
 30
0.0
 10
115.6490993634488
 20
-165.3504584005027
 30
0.0
 10
115.6490993634488
 20
-165.2064534092192
 30
0.0
 10
115.6659803313266
 20
-164.9546169292474
 30
0.0
 10
115.7717447627237
 20
-164.7558349197485
 30
0.0
 10
115.879576251412
 20
-164.5529187956673
 30
0.0
 10
116.0404622105732
 20
-164.5294921463676
 30
0.0
 10
116.1693087817216
 20
-164.5294921463676
 30
0.0
 10
116.3281276835916
 20
-164.5294921463676
 30
0.0
 10
116.4717881653265
 20
-164.5739338781273
 30
0.0
 10
116.5672173102679
 20
-164.7558349197485
 30
0.0
 10
116.6664360602431
 20
-164.948415757374
 30
0.0
 10
116.6898627095428
 20
-165.1768255880461
 30
0.0
 10
116.6898627095428
 20
-165.3504584005027
 30
0.0
 10
116.6898627095428
 20
-165.5216796461196
 30
0.0
 10
116.6685031175342
 20
-165.7521565340828
 30
0.0
 10
116.5672173102679
 20
-165.9447373717082
 30
0.0
  0
HATCH
  5
BA
330
B2
100
AcDbEntity
  8
レイヤー 1
 62
   250
420
  2299925
440
 33554687
100
AcDbHatch
 10
0.0
 20
0.0
 30
0.0
210
0.0
220
0.0
230
1.0
  2
SOLID
 70
     1
 71
     1
 91
        2
 92
        1
 93
        1
 72
     4
 94
        3
 73
     0
 74
     0
 95
       17
 96
       13
 40
0.0
 40
0.0
 40
0.0
 40
0.0
 40
1.0
 40
1.0
 40
1.0
 40
2.0
 40
2.0
 40
2.0
 40
3.0
 40
3.0
 40
3.0
 40
4.0
 40
4.0
 40
4.0
 40
4.0
 10
116.1693087817216
 20
-164.7220729839931
 10
115.9198838685895
 20
-164.7220729839931
 10
115.87303056999
 20
-165.0056043424291
 10
115.87303056999
 20
-165.3504584005027
 10
115.87303056999
 20
-165.6698187519853
 10
115.9092040725852
 20
-165.9784993074637
 10
116.1693087817216
 20
-165.9784993074637
 10
116.417011147111
 20
-165.9784993074637
 10
116.465586993453
 20
-165.6973795158673
 10
116.465586993453
 20
-165.3504584005027
 10
116.465586993453
 20
-165.0307535394714
 10
116.4273464335668
 20
-164.7220729839931
 10
116.1693087817216
 20
-164.7220729839931
 97
        0
 97
        1
330
B8
 92
        1
 93
        1
 72
     4
 94
        3
 73
     0
 74
     0
 95
       29
 96
       25
 40
0.0
 40
0.0
 40
0.0
 40
0.0
 40
1.0
 40
1.0
 40
1.0
 40
2.0
 40
2.0
 40
2.0
 40
3.0
 40
3.0
 40
3.0
 40
4.0
 40
4.0
 40
4.0
 40
5.0
 40
5.0
 40
5.0
 40
6.0
 40
6.0
 40
6.0
 40
7.0
 40
7.0
 40
7.0
 40
8.0
 40
8.0
 40
8.0
 40
8.0
 10
116.5672173102679
 20
-165.9447373717082
 10
116.4590413120311
 20
-166.1541991772114
 10
116.285753009123
 20
-166.1731472023803
 10
116.1693087817216
 20
-166.1731472023803
 10
116.0084228225604
 20
-166.1731472023803
 10
115.8668293981166
 20
-166.1266384133294
 10
115.7717447627237
 20
-165.9447373717082
 10
115.6680473886177
 20
-165.7500894767916
 10
115.6490993634488
 20
-165.5130669074064
 10
115.6490993634488
 20
-165.3504584005027
 10
115.6490993634488
 20
-165.2064534092192
 10
115.6659803313266
 20
-164.9546169292474
 10
115.7717447627237
 20
-164.7558349197485
 10
115.879576251412
 20
-164.5529187956673
 10
116.0404622105732
 20
-164.5294921463676
 10
116.1693087817216
 20
-164.5294921463676
 10
116.3281276835916
 20
-164.5294921463676
 10
116.4717881653265
 20
-164.5739338781273
 10
116.5672173102679
 20
-164.7558349197485
 10
116.6664360602431
 20
-164.948415757374
 10
116.6898627095428
 20
-165.1768255880461
 10
116.6898627095428
 20
-165.3504584005027
 10
116.6898627095428
 20
-165.5216796461196
 10
116.6685031175342
 20
-165.7521565340828
 10
116.5672173102679
 20
-165.9447373717082
 97
        0
 97
        1
330
B9
 75
     2
 76
     1
 98
        1
 10
0.0
 20
0.0
450
        0
451
        0
460
0.0
461
0.0
452
        0
462
0.0
453
        0
470

  0
ENDBLK
  5
B5
330
B2
100
AcDbEntity
  8
0
100
AcDbBlockEnd
  0
BLOCK
  5
BD
330
BB
100
AcDbEntity
  8
0
100
AcDbBlockBegin
  2
Block_7
 70
     0
 10
0.0
 20
0.0
 30
0.0
  3
Block_7
  1

  0
LINE
  5
BF
330
BB
100
AcDbEntity
  8
レイヤー 1
 62
   250
420
  2299925
370
     9
100
AcDbLine
 10
89.00358026346752
 20
-151.5070106580256
 30
0.0
 11
103.1542699821522
 21
-165.6577354758664
 31
0.0
  0
INSERT
  5
C1
330
BB
100
AcDbEntity
  8
レイヤー 1
100
AcDbBlockReference
  2
Block_8
 10
0.0
 20
0.0
 30
0.0
  0
ENDBLK
  5
BE
330
BB
100
AcDbEntity
  8
0
100
AcDbBlockEnd
  0
BLOCK
  5
C2
330
C0
100
AcDbEntity
  8
0
100
AcDbBlockBegin
  2
Block_8
 70
     0
 10
0.0
 20
0.0
 30
0.0
  3
Block_8
  1

  0
SPLINE
  5
C4
330
C0
100
AcDbEntity
  8
レイヤー 1
 62
   250
420
  2299925
370
     9
100
AcDbSpline
210
0.0
220
0.0
230
1.0
 70
     9
 71
     3
 72
    17
 73
    13
 74
     0
 42
0.0000000001
 43
0.0000000001
 40
0.0
 40
0.0
 40
0.0
 40
0.0
 40
1.0
 40
1.0
 40
1.0
 40
2.0
 40
2.0
 40
2.0
 40
3.0
 40
3.0
 40
3.0
 40
4.0
 40
4.0
 40
4.0
 40
4.0
 10
89.10348693010949
 20
-151.5070106580256
 30
0.0
 10
89.10348693010979
 20
-151.4519067705425
 30
0.0
 10
89.05868415234307
 20
-151.4071039939077
 30
0.0
 10
89.00358026346752
 20
-151.4071039939077
 30
0.0
 10
88.94777081903709
 20
-151.4071039939077
 30
0.0
 10
88.90296804127036
 20
-151.4519067705425
 30
0.0
 10
88.90296804127101
 20
-151.5070106580256
 30
0.0
 10
88.90296804127101
 20
-151.5621498232855
 30
0.0
 10
88.94777081903709
 20
-151.6069525999203
 30
0.0
 10
89.00358026346752
 20
-151.6069525999203
 30
0.0
 10
89.05868415234307
 20
-151.6069525999203
 30
0.0
 10
89.10348693010979
 20
-151.5621498232855
 30
0.0
 10
89.10348693010949
 20
-151.5070106580256
 30
0.0
  0
CIRCLE
  5
C5
330
C0
100
AcDbEntity
  8
レイヤー 1
 62
   250
420
  2299925
370
     9
100
AcDbCircle
 10
103.1542702396443
 20
-165.6577357333584
 30
0.0
 40
0.0999066653797766
  0
LINE
  5
C6
330
C0
100
AcDbEntity
  8
レイヤー 1
 62
   250
420
  2299925
370
     9
100
AcDbLine
 10
90.03570220765386
 20
-150.4748887399128
 30
0.0
 11
88.29594331920059
 21
-152.213977306656
 31
0.0
  0
LINE
  5
C7
330
C0
100
AcDbEntity
  8
レイヤー 1
 62
   250
420
  2299925
370
     9
100
AcDbLine
 10
104.1864274616087
 20
-164.6255785374687
 30
0.0
 11
102.4473388509322
 21
-166.3653726597495
 31
0.0
  0
ENDBLK
  5
C3
330
C0
100
AcDbEntity
  8
0
100
AcDbBlockEnd
  0
BLOCK
  5
CA
330
C8
100
AcDbEntity
  8
0
100
AcDbBlockBegin
  2
Block_9
 70
     0
 10
0.0
 20
0.0
 30
0.0
  3
Block_9
  1

  0
INSERT
  5
CD
330
C8
100
AcDbEntity
  8
レイヤー 1
100
AcDbBlockReference
  2
Block_10
 10
0.0
 20
0.0
 30
0.0
  0
ENDBLK
  5
CB
330
C8
100
AcDbEntity
  8
0
100
AcDbBlockEnd
  0
BLOCK
  5
CE
330
CC
100
AcDbEntity
  8
0
100
AcDbBlockBegin
  2
Block_10
 70
     0
 10
0.0
 20
0.0
 30
0.0
  3
Block_10
  1

  0
SPLINE
  5
D0
330
CC
100
AcDbEntity
  8
レイヤー 1
100
AcDbSpline
210
0.0
220
0.0
230
1.0
 70
     9
 71
     3
 72
    44
 73
    40
 74
     0
 42
0.0000000001
 43
0.0000000001
 40
0.0
 40
0.0
 40
0.0
 40
0.0
 40
1.0
 40
1.0
 40
1.0
 40
2.0
 40
2.0
 40
2.0
 40
3.0
 40
3.0
 40
3.0
 40
4.0
 40
4.0
 40
4.0
 40
5.0
 40
5.0
 40
5.0
 40
6.0
 40
6.0
 40
6.0
 40
7.0
 40
7.0
 40
7.0
 40
8.0
 40
8.0
 40
8.0
 40
9.0
 40
9.0
 40
9.0
 40
10.0
 40
10.0
 40
10.0
 40
11.0
 40
11.0
 40
11.0
 40
12.0
 40
12.0
 40
12.0
 40
13.0
 40
13.0
 40
13.0
 40
13.0
 10
96.58221840033363
 20
-157.4046901733224
 30
0.0
 10
96.31608477409807
 20
-157.3626600084024
 30
0.0
 10
96.197917998954
 20
-157.3492241360099
 30
0.0
 10
96.06149221773812
 20
-157.4164034979722
 30
0.0
 10
96.06149221773812
 20
-157.4164034979722
 30
0.0
 10
96.61201847628102
 20
-157.9669297565152
 30
0.0
 10
96.61201847628102
 20
-157.9669297565152
 30
0.0
 10
96.61201847628102
 20
-157.9669297565152
 30
0.0
 10
96.46680770157775
 20
-158.1119682764442
 30
0.0
 10
96.46680770157775
 20
-158.1119682764442
 30
0.0
 10
96.46680770157775
 20
-158.1119682764442
 30
0.0
 10
95.73989255419004
 20
-157.3850531290565
 30
0.0
 10
95.73989255419004
 20
-157.3850531290565
 30
0.0
 10
96.01550019301001
 20
-157.1549207506418
 30
0.0
 10
96.11695825505062
 20
-157.1456189928316
 30
0.0
 10
96.60013289685693
 20
-157.2069416924691
 30
0.0
 10
96.92190481517926
 20
-157.247593819195
 30
0.0
 10
97.01595592192658
 20
-157.2458712714524
 30
0.0
 10
97.11310761461062
 20
-157.1487195787684
 30
0.0
 10
97.19699568967646
 20
-157.0650037584768
 30
0.0
 10
97.23868134504797
 20
-156.9209987671933
 30
0.0
 10
97.09984399699241
 20
-156.7821614191378
 30
0.0
 10
96.91587589808007
 20
-156.5981933202254
 30
0.0
 10
96.7467217097543
 20
-156.7552896743528
 30
0.0
 10
96.66162785126862
 20
-156.8348713800621
 30
0.0
 10
96.66162785126862
 20
-156.8348713800621
 30
0.0
 10
96.50280894939861
 20
-156.6760524781921
 30
0.0
 10
96.50280894939861
 20
-156.6760524781921
 30
0.0
 10
96.59875485866281
 20
-156.5923366579005
 30
0.0
 10
96.68557126489112
 20
-156.5206786718073
 30
0.0
 10
96.8261311606893
 20
-156.4938069270223
 30
0.0
 10
97.01733396012066
 20
-156.4576334244272
 30
0.0
 10
97.17322453082822
 20
-156.5654649131156
 30
0.0
 10
97.25521780337718
 20
-156.6474581856645
 30
0.0
 10
97.45141599126215
 20
-156.8434841187752
 30
0.0
 10
97.46795244959136
 20
-157.1204697957893
 30
0.0
 10
97.27502710241736
 20
-157.3133951429633
 30
0.0
 10
97.11345212415913
 20
-157.4749701212215
 30
0.0
 10
96.96083439416257
 20
-157.4629122870231
 30
0.0
 10
96.58221840033363
 20
-157.4046901733224
 30
0.0
  0
HATCH
  5
D1
330
CC
100
AcDbEntity
  8
レイヤー 1
 62
   250
420
  2299925
440
 33554687
100
AcDbHatch
 10
0.0
 20
0.0
 30
0.0
210
0.0
220
0.0
230
1.0
  2
SOLID
 70
     1
 71
     1
 91
        1
 92
        1
 93
        1
 72
     4
 94
        3
 73
     0
 74
     0
 95
       44
 96
       40
 40
0.0
 40
0.0
 40
0.0
 40
0.0
 40
1.0
 40
1.0
 40
1.0
 40
2.0
 40
2.0
 40
2.0
 40
3.0
 40
3.0
 40
3.0
 40
4.0
 40
4.0
 40
4.0
 40
5.0
 40
5.0
 40
5.0
 40
6.0
 40
6.0
 40
6.0
 40
7.0
 40
7.0
 40
7.0
 40
8.0
 40
8.0
 40
8.0
 40
9.0
 40
9.0
 40
9.0
 40
10.0
 40
10.0
 40
10.0
 40
11.0
 40
11.0
 40
11.0
 40
12.0
 40
12.0
 40
12.0
 40
13.0
 40
13.0
 40
13.0
 40
13.0
 10
96.58221840033363
 20
-157.4046901733224
 10
96.31608477409807
 20
-157.3626600084024
 10
96.197917998954
 20
-157.3492241360099
 10
96.06149221773812
 20
-157.4164034979722
 10
96.06149221773812
 20
-157.4164034979722
 10
96.61201847628102
 20
-157.9669297565152
 10
96.61201847628102
 20
-157.9669297565152
 10
96.61201847628102
 20
-157.9669297565152
 10
96.46680770157775
 20
-158.1119682764442
 10
96.46680770157775
 20
-158.1119682764442
 10
96.46680770157775
 20
-158.1119682764442
 10
95.73989255419004
 20
-157.3850531290565
 10
95.73989255419004
 20
-157.3850531290565
 10
96.01550019301001
 20
-157.1549207506418
 10
96.11695825505062
 20
-157.1456189928316
 10
96.60013289685693
 20
-157.2069416924691
 10
96.92190481517926
 20
-157.247593819195
 10
97.01595592192658
 20
-157.2458712714524
 10
97.11310761461062
 20
-157.1487195787684
 10
97.19699568967646
 20
-157.0650037584768
 10
97.23868134504797
 20
-156.9209987671933
 10
97.09984399699241
 20
-156.7821614191378
 10
96.91587589808007
 20
-156.5981933202254
 10
96.7467217097543
 20
-156.7552896743528
 10
96.66162785126862
 20
-156.8348713800621
 10
96.66162785126862
 20
-156.8348713800621
 10
96.50280894939861
 20
-156.6760524781921
 10
96.50280894939861
 20
-156.6760524781921
 10
96.59875485866281
 20
-156.5923366579005
 10
96.68557126489112
 20
-156.5206786718073
 10
96.8261311606893
 20
-156.4938069270223
 10
97.01733396012066
 20
-156.4576334244272
 10
97.17322453082822
 20
-156.5654649131156
 10
97.25521780337718
 20
-156.6474581856645
 10
97.45141599126215
 20
-156.8434841187752
 10
97.46795244959136
 20
-157.1204697957893
 10
97.27502710241736
 20
-157.3133951429633
 10
97.11345212415913
 20
-157.4749701212215
 10
96.96083439416257
 20
-157.4629122870231
 10
96.58221840033363
 20
-157.4046901733224
 97
        0
 97
        1
330
D0
 75
     2
 76
     1
 98
        1
 10
0.0
 20
0.0
450
        0
451
        0
460
0.0
461
0.0
452
        0
462
0.0
453
        0
470

  0
SPLINE
  5
D2
330
CC
100
AcDbEntity
  8
レイヤー 1
100
AcDbSpline
210
0.0
220
0.0
230
1.0
 70
     9
 71
     3
 72
    17
 73
    13
 74
     0
 42
0.0000000001
 43
0.0000000001
 40
0.0
 40
0.0
 40
0.0
 40
0.0
 40
1.0
 40
1.0
 40
1.0
 40
2.0
 40
2.0
 40
2.0
 40
3.0
 40
3.0
 40
3.0
 40
4.0
 40
4.0
 40
4.0
 40
4.0
 10
97.92752818732367
 20
-157.5917588581715
 30
0.0
 10
97.7511392984789
 20
-157.4153699693267
 30
0.0
 10
97.51756182457896
 20
-157.5828016099098
 30
0.0
 10
97.27364906422327
 20
-157.8267143702655
 30
0.0
 10
97.04782305516513
 20
-158.0527126340979
 30
0.0
 10
96.85489770799115
 20
-158.2966253944536
 30
0.0
 10
97.03886580690349
 20
-158.480593493366
 30
0.0
 10
97.2142211671027
 20
-158.6559488535652
 30
0.0
 10
97.44728187667986
 20
-158.4909287798217
 30
0.0
 10
97.69257267522965
 20
-158.2456379812719
 30
0.0
 10
97.91857093906202
 20
-158.0196397174395
 30
0.0
 10
98.11011824804191
 20
-157.7743489188897
 30
0.0
 10
97.92752818732367
 20
-157.5917588581715
 30
0.0
  0
SPLINE
  5
D3
330
CC
100
AcDbEntity
  8
レイヤー 1
100
AcDbSpline
210
0.0
220
0.0
230
1.0
 70
     9
 71
     3
 72
    29
 73
    25
 74
     0
 42
0.0000000001
 43
0.0000000001
 40
0.0
 40
0.0
 40
0.0
 40
0.0
 40
1.0
 40
1.0
 40
1.0
 40
2.0
 40
2.0
 40
2.0
 40
3.0
 40
3.0
 40
3.0
 40
4.0
 40
4.0
 40
4.0
 40
5.0
 40
5.0
 40
5.0
 40
6.0
 40
6.0
 40
6.0
 40
7.0
 40
7.0
 40
7.0
 40
8.0
 40
8.0
 40
8.0
 40
8.0
 10
97.34427352167088
 20
-158.7379421261141
 30
0.0
 10
97.11965329603259
 20
-158.8096001122073
 30
0.0
 10
96.98357202436522
 20
-158.7003905853249
 30
0.0
 10
96.90123424226776
 20
-158.6180528032274
 30
0.0
 10
96.78754609125451
 20
-158.5043646522142
 30
0.0
 10
96.72019447451788
 20
-158.3713839664835
 30
0.0
 10
96.78168942892959
 20
-158.1753580333728
 30
0.0
 10
96.8459404597295
 20
-157.9645181896755
 30
0.0
 10
96.99993622792016
 20
-157.7833061671514
 30
0.0
 10
97.11517467190176
 20
-157.6682399779441
 30
0.0
 10
97.21697724349091
 20
-157.5666096611292
 30
0.0
 10
97.40697425950244
 20
-157.4005560587401
 30
0.0
 10
97.62229272733055
 20
-157.3347547349719
 30
0.0
 10
97.84243432883801
 20
-157.2675753730095
 30
0.0
 10
97.97265893818044
 20
-157.3647270656935
 30
0.0
 10
98.06360945899106
 20
-157.4556775865041
 30
0.0
 10
98.1759195718102
 20
-157.5679876993232
 30
0.0
 10
98.2461995197093
 20
-157.7009683850539
 30
0.0
 10
98.18487682007184
 20
-157.8973388277132
 30
0.0
 10
98.11907549630356
 20
-158.1037000472796
 30
0.0
 10
97.97403697637456
 20
-158.281811483867
 30
0.0
 10
97.85139157709966
 20
-158.4044568831419
 30
0.0
 10
97.73012421601887
 20
-158.5257242442227
 30
0.0
 10
97.55201277943145
 20
-158.6735188405399
 30
0.0
 10
97.34427352167088
 20
-158.7379421261141
 30
0.0
  0
HATCH
  5
D4
330
CC
100
AcDbEntity
  8
レイヤー 1
 62
   250
420
  2299925
440
 33554687
100
AcDbHatch
 10
0.0
 20
0.0
 30
0.0
210
0.0
220
0.0
230
1.0
  2
SOLID
 70
     1
 71
     1
 91
        2
 92
        1
 93
        1
 72
     4
 94
        3
 73
     0
 74
     0
 95
       17
 96
       13
 40
0.0
 40
0.0
 40
0.0
 40
0.0
 40
1.0
 40
1.0
 40
1.0
 40
2.0
 40
2.0
 40
2.0
 40
3.0
 40
3.0
 40
3.0
 40
4.0
 40
4.0
 40
4.0
 40
4.0
 10
97.92752818732367
 20
-157.5917588581715
 10
97.7511392984789
 20
-157.4153699693267
 10
97.51756182457896
 20
-157.5828016099098
 10
97.27364906422327
 20
-157.8267143702655
 10
97.04782305516513
 20
-158.0527126340979
 10
96.85489770799115
 20
-158.2966253944536
 10
97.03886580690349
 20
-158.480593493366
 10
97.2142211671027
 20
-158.6559488535652
 10
97.44728187667986
 20
-158.4909287798217
 10
97.69257267522965
 20
-158.2456379812719
 10
97.91857093906202
 20
-158.0196397174395
 10
98.11011824804191
 20
-157.7743489188897
 10
97.92752818732367
 20
-157.5917588581715
 97
        0
 97
        1
330
D2
 92
        1
 93
        1
 72
     4
 94
        3
 73
     0
 74
     0
 95
       29
 96
       25
 40
0.0
 40
0.0
 40
0.0
 40
0.0
 40
1.0
 40
1.0
 40
1.0
 40
2.0
 40
2.0
 40
2.0
 40
3.0
 40
3.0
 40
3.0
 40
4.0
 40
4.0
 40
4.0
 40
5.0
 40
5.0
 40
5.0
 40
6.0
 40
6.0
 40
6.0
 40
7.0
 40
7.0
 40
7.0
 40
8.0
 40
8.0
 40
8.0
 40
8.0
 10
97.34427352167088
 20
-158.7379421261141
 10
97.11965329603259
 20
-158.8096001122073
 10
96.98357202436522
 20
-158.7003905853249
 10
96.90123424226776
 20
-158.6180528032274
 10
96.78754609125451
 20
-158.5043646522142
 10
96.72019447451788
 20
-158.3713839664835
 10
96.78168942892959
 20
-158.1753580333728
 10
96.8459404597295
 20
-157.9645181896755
 10
96.99993622792016
 20
-157.7833061671514
 10
97.11517467190176
 20
-157.6682399779441
 10
97.21697724349091
 20
-157.5666096611292
 10
97.40697425950244
 20
-157.4005560587401
 10
97.62229272733055
 20
-157.3347547349719
 10
97.84243432883801
 20
-157.2675753730095
 10
97.97265893818044
 20
-157.3647270656935
 10
98.06360945899106
 20
-157.4556775865041
 10
98.1759195718102
 20
-157.5679876993232
 10
98.2461995197093
 20
-157.7009683850539
 10
98.18487682007184
 20
-157.8973388277132
 10
98.11907549630356
 20
-158.1037000472796
 10
97.97403697637456
 20
-158.281811483867
 10
97.85139157709966
 20
-158.4044568831419
 10
97.73012421601887
 20
-158.5257242442227
 10
97.55201277943145
 20
-158.6735188405399
 10
97.34427352167088
 20
-158.7379421261141
 97
        0
 97
        1
330
D3
 75
     2
 76
     1
 98
        1
 10
0.0
 20
0.0
450
        0
451
        0
460
0.0
461
0.0
452
        0
462
0.0
453
        0
470

  0
ENDBLK
  5
CF
330
CC
100
AcDbEntity
  8
0
100
AcDbBlockEnd
  0
BLOCK
  5
D7
330
D5
100
AcDbEntity
  8
0
100
AcDbBlockBegin
  2
Block_11
 70
     0
 10
0.0
 20
0.0
 30
0.0
  3
Block_11
  1

  0
INSERT
  5
DA
330
D5
100
AcDbEntity
  8
レイヤー 1
100
AcDbBlockReference
  2
Block_12
 10
0.0
 20
0.0
 30
0.0
  0
INSERT
  5
E3
330
D5
100
AcDbEntity
  8
レイヤー 1
100
AcDbBlockReference
  2
Block_13
 10
0.0
 20
0.0
 30
0.0
  0
ENDBLK
  5
D8
330
D5
100
AcDbEntity
  8
0
100
AcDbBlockEnd
  0
BLOCK
  5
DB
330
D9
100
AcDbEntity
  8
0
100
AcDbBlockBegin
  2
Block_12
 70
     0
 10
0.0
 20
0.0
 30
0.0
  3
Block_12
  1

  0
SPLINE
  5
DD
330
D9
100
AcDbEntity
  8
レイヤー 1
 62
   250
420
  2299925
370
     9
100
AcDbSpline
210
0.0
220
0.0
230
1.0
 70
     9
 71
     3
 72
    17
 73
    13
 74
     0
 42
0.0000000001
 43
0.0000000001
 40
0.0
 40
0.0
 40
0.0
 40
0.0
 40
1.0
 40
1.0
 40
1.0
 40
2.0
 40
2.0
 40
2.0
 40
3.0
 40
3.0
 40
3.0
 40
4.0
 40
4.0
 40
4.0
 40
4.0
 10
87.25032736820628
 20
-129.0963489730181
 30
0.0
 10
87.25032736820628
 20
-129.0408923077663
 30
0.0
 10
87.20552459043924
 20
-128.9960895311315
 30
0.0
 10
87.15042070156433
 20
-128.9960895311315
 30
0.0
 10
87.09528153491126
 20
-128.9960895311315
 30
0.0
 10
87.05051403492268
 20
-129.0408923077663
 30
0.0
 10
87.05051403492268
 20
-129.0963489730181
 30
0.0
 10
87.05051403492268
 20
-129.1514463364084
 30
0.0
 10
87.09528153491126
 20
-129.1962491141748
 30
0.0
 10
87.15042070156433
 20
-129.1962491141748
 30
0.0
 10
87.20552459043924
 20
-129.1962491141748
 30
0.0
 10
87.25032736820628
 20
-129.1514463364084
 30
0.0
 10
87.25032736820628
 20
-129.0963489730181
 30
0.0
  0
CIRCLE
  5
DE
330
D9
100
AcDbEntity
  8
レイヤー 1
 62
   250
420
  2299925
370
     9
100
AcDbCircle
 10
87.15042070156441
 20
-149.0961695671046
 30
0.0
 40
0.0999066653797766
  0
LINE
  5
DF
330
D9
100
AcDbEntity
  8
レイヤー 1
 62
   250
420
  2299925
370
    13
100
AcDbLine
 10
87.15042070156433
 20
-149.0961693214032
 30
0.0
 11
87.15042070156433
 21
-129.0961693264029
 31
0.0
  0
LINE
  5
E0
330
D9
100
AcDbEntity
  8
レイヤー 1
 62
   250
420
  2299925
370
     9
100
AcDbLine
 10
89.41038570099912
 20
-149.0961695671046
 30
0.0
 11
86.15064847959178
 21
-149.0961695671046
 31
0.0
  0
LINE
  5
E1
330
D9
100
AcDbEntity
  8
レイヤー 1
 62
   250
420
  2299925
370
     9
100
AcDbLine
 10
88.91085236779096
 20
-129.0963489730181
 30
0.0
 11
86.15064847959178
 21
-129.0963489730181
 31
0.0
  0
ENDBLK
  5
DC
330
D9
100
AcDbEntity
  8
0
100
AcDbBlockEnd
  0
BLOCK
  5
E4
330
E2
100
AcDbEntity
  8
0
100
AcDbBlockBegin
  2
Block_13
 70
     0
 10
0.0
 20
0.0
 30
0.0
  3
Block_13
  1

  0
INSERT
  5
E7
330
E2
100
AcDbEntity
  8
レイヤー 1
100
AcDbBlockReference
  2
Block_14
 10
0.0
 20
0.0
 30
0.0
  0
ENDBLK
  5
E5
330
E2
100
AcDbEntity
  8
0
100
AcDbBlockEnd
  0
BLOCK
  5
E8
330
E6
100
AcDbEntity
  8
0
100
AcDbBlockBegin
  2
Block_14
 70
     0
 10
0.0
 20
0.0
 30
0.0
  3
Block_14
  1

  0
SPLINE
  5
EA
330
E6
100
AcDbEntity
  8
レイヤー 1
100
AcDbSpline
210
0.0
220
0.0
230
1.0
 70
     9
 71
     3
 72
    44
 73
    40
 74
     0
 42
0.0000000001
 43
0.0000000001
 40
0.0
 40
0.0
 40
0.0
 40
0.0
 40
1.0
 40
1.0
 40
1.0
 40
2.0
 40
2.0
 40
2.0
 40
3.0
 40
3.0
 40
3.0
 40
4.0
 40
4.0
 40
4.0
 40
5.0
 40
5.0
 40
5.0
 40
6.0
 40
6.0
 40
6.0
 40
7.0
 40
7.0
 40
7.0
 40
8.0
 40
8.0
 40
8.0
 40
9.0
 40
9.0
 40
9.0
 40
10.0
 40
10.0
 40
10.0
 40
11.0
 40
11.0
 40
11.0
 40
12.0
 40
12.0
 40
12.0
 40
13.0
 40
13.0
 40
13.0
 40
13.0
 10
85.85556909745973
 20
-139.5919962216124
 30
0.0
 10
86.01421574455548
 20
-139.8097262562802
 30
0.0
 10
86.08828529748835
 20
-139.9027438343819
 30
0.0
 10
86.23211803399753
 20
-139.9516641902725
 30
0.0
 10
86.23211803399753
 20
-139.9516641902725
 30
0.0
 10
86.23211803399753
 20
-139.173072610606
 30
0.0
 10
86.23211803399753
 20
-139.173072610606
 30
0.0
 10
86.23211803399753
 20
-139.173072610606
 30
0.0
 10
86.43727347014417
 20
-139.173072610606
 30
0.0
 10
86.43727347014417
 20
-139.173072610606
 30
0.0
 10
86.43727347014417
 20
-139.173072610606
 30
0.0
 10
86.43727347014417
 20
-140.2010891034046
 30
0.0
 10
86.43727347014417
 20
-140.2010891034046
 30
0.0
 10
86.07967255877523
 20
-140.1693942249403
 30
0.0
 10
86.00146889126007
 20
-140.1039374107205
 30
0.0
 10
85.70312362223742
 20
-139.7187757354696
 30
0.0
 10
85.5043416127385
 20
-139.4628051409155
 30
0.0
 10
85.43664548645335
 20
-139.3973483266958
 30
0.0
 10
85.29918617659188
 20
-139.3973483266958
 30
0.0
 10
85.18067489189929
 20
-139.3973483266958
 30
0.0
 10
85.04941675391126
 20
-139.4693508223375
 30
0.0
 10
85.04941675391126
 20
-139.6660657745453
 30
0.0
 10
85.04941675391126
 20
-139.9261704836816
 30
0.0
 10
85.28006589664874
 20
-139.9347832223947
 30
0.0
 10
85.39651012405018
 20
-139.9389173369771
 30
0.0
 10
85.39651012405018
 20
-139.9389173369771
 30
0.0
 10
85.39651012405018
 20
-140.1631930530668
 30
0.0
 10
85.39651012405018
 20
-140.1631930530668
 30
0.0
 10
85.26955835541873
 20
-140.1545803143537
 30
0.0
 10
85.15742049737385
 20
-140.1439005183494
 30
0.0
 10
85.03890921268125
 20
-140.0636297935431
 30
0.0
 10
84.87819550829433
 20
-139.9537312475636
 30
0.0
 10
84.84426131776464
 20
-139.7673515818116
 30
0.0
 10
84.84426131776464
 20
-139.6512518639587
 30
0.0
 10
84.84426131776464
 20
-139.3739216773961
 30
0.0
 10
85.02840167145123
 20
-139.166526929184
 30
0.0
 10
85.30125323388302
 20
-139.166526929184
 30
0.0
 10
85.52966306455509
 20
-139.166526929184
 30
0.0
 10
85.62922632407881
 20
-139.2829711565855
 30
0.0
 10
85.85556909745973
 20
-139.5919962216124
 30
0.0
  0
HATCH
  5
EB
330
E6
100
AcDbEntity
  8
レイヤー 1
 62
   250
420
  2299925
440
 33554687
100
AcDbHatch
 10
0.0
 20
0.0
 30
0.0
210
0.0
220
0.0
230
1.0
  2
SOLID
 70
     1
 71
     1
 91
        1
 92
        1
 93
        1
 72
     4
 94
        3
 73
     0
 74
     0
 95
       44
 96
       40
 40
0.0
 40
0.0
 40
0.0
 40
0.0
 40
1.0
 40
1.0
 40
1.0
 40
2.0
 40
2.0
 40
2.0
 40
3.0
 40
3.0
 40
3.0
 40
4.0
 40
4.0
 40
4.0
 40
5.0
 40
5.0
 40
5.0
 40
6.0
 40
6.0
 40
6.0
 40
7.0
 40
7.0
 40
7.0
 40
8.0
 40
8.0
 40
8.0
 40
9.0
 40
9.0
 40
9.0
 40
10.0
 40
10.0
 40
10.0
 40
11.0
 40
11.0
 40
11.0
 40
12.0
 40
12.0
 40
12.0
 40
13.0
 40
13.0
 40
13.0
 40
13.0
 10
85.85556909745973
 20
-139.5919962216124
 10
86.01421574455548
 20
-139.8097262562802
 10
86.08828529748835
 20
-139.9027438343819
 10
86.23211803399753
 20
-139.9516641902725
 10
86.23211803399753
 20
-139.9516641902725
 10
86.23211803399753
 20
-139.173072610606
 10
86.23211803399753
 20
-139.173072610606
 10
86.23211803399753
 20
-139.173072610606
 10
86.43727347014417
 20
-139.173072610606
 10
86.43727347014417
 20
-139.173072610606
 10
86.43727347014417
 20
-139.173072610606
 10
86.43727347014417
 20
-140.2010891034046
 10
86.43727347014417
 20
-140.2010891034046
 10
86.07967255877523
 20
-140.1693942249403
 10
86.00146889126007
 20
-140.1039374107205
 10
85.70312362223742
 20
-139.7187757354696
 10
85.5043416127385
 20
-139.4628051409155
 10
85.43664548645335
 20
-139.3973483266958
 10
85.29918617659188
 20
-139.3973483266958
 10
85.18067489189929
 20
-139.3973483266958
 10
85.04941675391126
 20
-139.4693508223375
 10
85.04941675391126
 20
-139.6660657745453
 10
85.04941675391126
 20
-139.9261704836816
 10
85.28006589664874
 20
-139.9347832223947
 10
85.39651012405018
 20
-139.9389173369771
 10
85.39651012405018
 20
-139.9389173369771
 10
85.39651012405018
 20
-140.1631930530668
 10
85.39651012405018
 20
-140.1631930530668
 10
85.26955835541873
 20
-140.1545803143537
 10
85.15742049737385
 20
-140.1439005183494
 10
85.03890921268125
 20
-140.0636297935431
 10
84.87819550829433
 20
-139.9537312475636
 10
84.84426131776464
 20
-139.7673515818116
 10
84.84426131776464
 20
-139.6512518639587
 10
84.84426131776464
 20
-139.3739216773961
 10
85.02840167145123
 20
-139.166526929184
 10
85.30125323388302
 20
-139.166526929184
 10
85.52966306455509
 20
-139.166526929184
 10
85.62922632407881
 20
-139.2829711565855
 10
85.85556909745973
 20
-139.5919962216124
 97
        0
 97
        1
330
EA
 75
     2
 76
     1
 98
        1
 10
0.0
 20
0.0
450
        0
451
        0
460
0.0
461
0.0
452
        0
462
0.0
453
        0
470

  0
SPLINE
  5
EC
330
E6
100
AcDbEntity
  8
レイヤー 1
100
AcDbSpline
210
0.0
220
0.0
230
1.0
 70
     9
 71
     3
 72
    17
 73
    13
 74
     0
 42
0.0000000001
 43
0.0000000001
 40
0.0
 40
0.0
 40
0.0
 40
0.0
 40
1.0
 40
1.0
 40
1.0
 40
2.0
 40
2.0
 40
2.0
 40
3.0
 40
3.0
 40
3.0
 40
4.0
 40
4.0
 40
4.0
 40
4.0
 10
85.0368421553901
 20
-138.5081691819528
 30
0.0
 10
85.0368421553901
 20
-138.7577663498591
 30
0.0
 10
85.32020125905189
 20
-138.8044473936843
 30
0.0
 10
85.66505531712541
 20
-138.8044473936843
 30
0.0
 10
85.98458792338233
 20
-138.8044473936843
 30
0.0
 10
86.29344073363498
 20
-138.7682738910892
 30
0.0
 10
86.29344073363498
 20
-138.5081691819528
 30
0.0
 10
86.29344073363498
 20
-138.2606390713376
 30
0.0
 10
86.01197643249006
 20
-138.2118909702213
 30
0.0
 10
85.66505531712541
 20
-138.2118909702213
 30
0.0
 10
85.34569496564275
 20
-138.2118909702213
 30
0.0
 10
85.0368421553901
 20
-138.2501315301076
 30
0.0
 10
85.0368421553901
 20
-138.5081691819528
 30
0.0
  0
SPLINE
  5
ED
330
E6
100
AcDbEntity
  8
レイヤー 1
100
AcDbSpline
210
0.0
220
0.0
230
1.0
 70
     9
 71
     3
 72
    29
 73
    25
 74
     0
 42
0.0000000001
 43
0.0000000001
 40
0.0
 40
0.0
 40
0.0
 40
0.0
 40
1.0
 40
1.0
 40
1.0
 40
2.0
 40
2.0
 40
2.0
 40
3.0
 40
3.0
 40
3.0
 40
4.0
 40
4.0
 40
4.0
 40
5.0
 40
5.0
 40
5.0
 40
6.0
 40
6.0
 40
6.0
 40
7.0
 40
7.0
 40
7.0
 40
8.0
 40
8.0
 40
8.0
 40
8.0
 10
86.25950654310527
 20
-138.1104329081807
 30
0.0
 10
86.46896834860845
 20
-138.218264396869
 30
0.0
 10
86.4880886285516
 20
-138.3917249545514
 30
0.0
 10
86.4880886285516
 20
-138.5081691819528
 30
0.0
 10
86.4880886285516
 20
-138.6688828863397
 30
0.0
 10
86.44157983950071
 20
-138.8106485655577
 30
0.0
 10
86.25950654310527
 20
-138.9057332009506
 30
0.0
 10
86.06503090296291
 20
-139.0094305750567
 30
0.0
 10
85.82800833357772
 20
-139.028723109774
 30
0.0
 10
85.66505531712541
 20
-139.028723109774
 30
0.0
 10
85.52122258061622
 20
-139.028723109774
 30
0.0
 10
85.26955835541873
 20
-139.0114976323478
 30
0.0
 10
85.07060409114554
 20
-138.9057332009506
 30
0.0
 10
84.86751571229007
 20
-138.7979017122623
 30
0.0
 10
84.84426131776464
 20
-138.6371880078754
 30
0.0
 10
84.84426131776464
 20
-138.5081691819528
 30
0.0
 10
84.84426131776464
 20
-138.3495225348571
 30
0.0
 10
84.88870304952435
 20
-138.2056897983479
 30
0.0
 10
85.07060409114554
 20
-138.1104329081807
 30
0.0
 10
85.263184928771
 20
-138.0110419034312
 30
0.0
 10
85.49159475944307
 20
-137.9877875089058
 30
0.0
 10
85.66505531712541
 20
-137.9877875089058
 30
0.0
 10
85.83644881751657
 20
-137.9877875089058
 30
0.0
 10
86.06709796025405
 20
-138.0088025913658
 30
0.0
 10
86.25950654310527
 20
-138.1104329081807
 30
0.0
  0
HATCH
  5
EE
330
E6
100
AcDbEntity
  8
レイヤー 1
 62
   250
420
  2299925
440
 33554687
100
AcDbHatch
 10
0.0
 20
0.0
 30
0.0
210
0.0
220
0.0
230
1.0
  2
SOLID
 70
     1
 71
     1
 91
        2
 92
        1
 93
        1
 72
     4
 94
        3
 73
     0
 74
     0
 95
       17
 96
       13
 40
0.0
 40
0.0
 40
0.0
 40
0.0
 40
1.0
 40
1.0
 40
1.0
 40
2.0
 40
2.0
 40
2.0
 40
3.0
 40
3.0
 40
3.0
 40
4.0
 40
4.0
 40
4.0
 40
4.0
 10
85.0368421553901
 20
-138.5081691819528
 10
85.0368421553901
 20
-138.7577663498591
 10
85.32020125905189
 20
-138.8044473936843
 10
85.66505531712541
 20
-138.8044473936843
 10
85.98458792338233
 20
-138.8044473936843
 10
86.29344073363498
 20
-138.7682738910892
 10
86.29344073363498
 20
-138.5081691819528
 10
86.29344073363498
 20
-138.2606390713376
 10
86.01197643249006
 20
-138.2118909702213
 10
85.66505531712541
 20
-138.2118909702213
 10
85.34569496564275
 20
-138.2118909702213
 10
85.0368421553901
 20
-138.2501315301076
 10
85.0368421553901
 20
-138.5081691819528
 97
        0
 97
        1
330
EC
 92
        1
 93
        1
 72
     4
 94
        3
 73
     0
 74
     0
 95
       29
 96
       25
 40
0.0
 40
0.0
 40
0.0
 40
0.0
 40
1.0
 40
1.0
 40
1.0
 40
2.0
 40
2.0
 40
2.0
 40
3.0
 40
3.0
 40
3.0
 40
4.0
 40
4.0
 40
4.0
 40
5.0
 40
5.0
 40
5.0
 40
6.0
 40
6.0
 40
6.0
 40
7.0
 40
7.0
 40
7.0
 40
8.0
 40
8.0
 40
8.0
 40
8.0
 10
86.25950654310527
 20
-138.1104329081807
 10
86.46896834860845
 20
-138.218264396869
 10
86.4880886285516
 20
-138.3917249545514
 10
86.4880886285516
 20
-138.5081691819528
 10
86.4880886285516
 20
-138.6688828863397
 10
86.44157983950071
 20
-138.8106485655577
 10
86.25950654310527
 20
-138.9057332009506
 10
86.06503090296291
 20
-139.0094305750567
 10
85.82800833357772
 20
-139.028723109774
 10
85.66505531712541
 20
-139.028723109774
 10
85.52122258061622
 20
-139.028723109774
 10
85.26955835541873
 20
-139.0114976323478
 10
85.07060409114554
 20
-138.9057332009506
 10
84.86751571229007
 20
-138.7979017122623
 10
84.84426131776464
 20
-138.6371880078754
 10
84.84426131776464
 20
-138.5081691819528
 10
84.84426131776464
 20
-138.3495225348571
 10
84.88870304952435
 20
-138.2056897983479
 10
85.07060409114554
 20
-138.1104329081807
 10
85.263184928771
 20
-138.0110419034312
 10
85.49159475944307
 20
-137.9877875089058
 10
85.66505531712541
 20
-137.9877875089058
 10
85.83644881751657
 20
-137.9877875089058
 10
86.06709796025405
 20
-138.0088025913658
 10
86.25950654310527
 20
-138.1104329081807
 97
        0
 97
        1
330
ED
 75
     2
 76
     1
 98
        1
 10
0.0
 20
0.0
450
        0
451
        0
460
0.0
461
0.0
452
        0
462
0.0
453
        0
470

  0
ENDBLK
  5
E9
330
E6
100
AcDbEntity
  8
0
100
AcDbBlockEnd
  0
BLOCK
  5
F1
330
EF
100
AcDbEntity
  8
0
100
AcDbBlockBegin
  2
Block_15
 70
     0
 10
0.0
 20
0.0
 30
0.0
  3
Block_15
  1

  0
INSERT
  5
F4
330
EF
100
AcDbEntity
  8
レイヤー 1
100
AcDbBlockReference
  2
Block_16
 10
0.0
 20
0.0
 30
0.0
  0
LINE
  5
115
330
EF
100
AcDbEntity
  8
レイヤー 1
 62
   250
420
  2299925
370
     9
100
AcDbLine
 10
106.2270048469589
 20
-161.6240686587475
 30
0.0
 11
106.4853792848117
 21
-160.6580572945036
 31
0.0
  0
LINE
  5
116
330
EF
100
AcDbEntity
  8
レイヤー 1
 62
   250
420
  2299925
370
     9
100
AcDbLine
 10
106.2270048469589
 20
-161.6240684134221
 30
0.0
 11
106.2270048469589
 21
-149.6338882331651
 31
0.0
  0
LINE
  5
117
330
EF
100
AcDbEntity
  8
レイヤー 1
 62
   250
420
  2299925
370
     9
100
AcDbLine
 10
106.2270048469589
 20
-161.6240686587475
 30
0.0
 11
105.9679248535686
 21
-160.6580572945036
 31
0.0
  0
LINE
  5
118
330
EF
100
AcDbEntity
  8
レイヤー 1
 62
   250
420
  2299925
370
     9
100
AcDbLine
 10
93.18078429379427
 20
-148.4794467459516
 30
0.0
 11
94.14679565804972
 21
-148.7378211837617
 31
0.0
  0
LINE
  5
119
330
EF
100
AcDbEntity
  8
レイヤー 1
 62
   250
420
  2299925
370
     9
100
AcDbLine
 10
93.18080281083629
 20
-148.4794449289205
 30
0.0
 11
104.6664386154844
 21
-148.4794449286785
 31
0.0
  0
LINE
  5
11A
330
EF
100
AcDbEntity
  8
レイヤー 1
 62
   250
420
  2299925
370
     9
100
AcDbLine
 10
93.18078429379427
 20
-148.4794467459516
 30
0.0
 11
94.14679565802661
 21
-148.2203667525177
 31
0.0
  0
ENDBLK
  5
F2
330
EF
100
AcDbEntity
  8
0
100
AcDbBlockEnd
  0
BLOCK
  5
F5
330
F3
100
AcDbEntity
  8
0
100
AcDbBlockBegin
  2
Block_16
 70
     0
 10
0.0
 20
0.0
 30
0.0
  3
Block_16
  1

  0
INSERT
  5
F8
330
F3
100
AcDbEntity
  8
レイヤー 1
100
AcDbBlockReference
  2
Block_17
 10
0.0
 20
0.0
 30
0.0
  0
ENDBLK
  5
F6
330
F3
100
AcDbEntity
  8
0
100
AcDbBlockEnd
  0
BLOCK
  5
F9
330
F7
100
AcDbEntity
  8
0
100
AcDbBlockBegin
  2
Block_17
 70
     0
 10
0.0
 20
0.0
 30
0.0
  3
Block_17
  1

  0
SPLINE
  5
FB
330
F7
100
AcDbEntity
  8
レイヤー 1
100
AcDbSpline
210
0.0
220
0.0
230
1.0
 70
     9
 71
     3
 72
    41
 73
    37
 74
     0
 42
0.0000000001
 43
0.0000000001
 40
0.0
 40
0.0
 40
0.0
 40
0.0
 40
1.0
 40
1.0
 40
1.0
 40
2.0
 40
2.0
 40
2.0
 40
3.0
 40
3.0
 40
3.0
 40
4.0
 40
4.0
 40
4.0
 40
5.0
 40
5.0
 40
5.0
 40
6.0
 40
6.0
 40
6.0
 40
7.0
 40
7.0
 40
7.0
 40
8.0
 40
8.0
 40
8.0
 40
9.0
 40
9.0
 40
9.0
 40
10.0
 40
10.0
 40
10.0
 40
11.0
 40
11.0
 40
11.0
 40
12.0
 40
12.0
 40
12.0
 40
12.0
 10
107.1138752987423
 20
-149.2501491597361
 30
0.0
 10
106.8727186147748
 20
-149.1147569071658
 30
0.0
 10
106.694951687736
 20
-148.8184786954342
 30
0.0
 10
106.6546440705585
 20
-148.6894598695116
 30
0.0
 10
106.5340657285748
 20
-148.9538709480046
 30
0.0
 10
106.371457221671
 20
-149.1316378750435
 30
0.0
 10
106.1895561800498
 20
-149.2456705356052
 30
0.0
 10
106.1895561800498
 20
-149.2456705356052
 30
0.0
 10
105.9924967182935
 20
-149.1082112257438
 30
0.0
 10
105.9924967182935
 20
-149.1082112257438
 30
0.0
 10
106.0624321566441
 20
-149.0830620287014
 30
0.0
 10
106.2085042052187
 20
-149.0213948195155
 30
0.0
 10
106.3311496044936
 20
-148.8672267965506
 30
0.0
 10
106.4558620610596
 20
-148.7106472067459
 30
0.0
 10
106.5447455245791
 20
-148.4779310067173
 30
0.0
 10
106.5447455245791
 20
-148.2178262975809
 30
0.0
 10
106.5447455245791
 20
-148.1161959807661
 30
0.0
 10
106.5319986712836
 20
-148.0443657398986
 30
0.0
 10
106.5216633848279
 20
-147.9976846960735
 30
0.0
 10
106.5216633848279
 20
-147.9976846960735
 30
0.0
 10
106.7266465662003
 20
-148.0188720333078
 30
0.0
 10
106.7266465662003
 20
-148.0188720333078
 30
0.0
 10
106.7480061582088
 20
-148.0209390905989
 30
0.0
 10
106.7690212406688
 20
-148.0231784026643
 30
0.0
 10
106.7690212406688
 20
-148.0443657398986
 30
0.0
 10
106.7690212406688
 20
-148.0633137650675
 30
0.0
 10
106.7583414446646
 20
-148.0717542490063
 30
0.0
 10
106.7245795089091
 20
-148.0929415862406
 30
0.0
 10
106.7163112797445
 20
-148.293962907805
 30
0.0
 10
106.7731553552511
 20
-148.5371866490636
 30
0.0
 10
106.8344780548886
 20
-148.6577649910473
 30
0.0
 10
106.9254285756992
 20
-148.8332926060208
 30
0.0
 10
107.1200764706158
 20
-149.0131265903509
 30
0.0
 10
107.2554687231861
 20
-149.070315175406
 30
0.0
 10
107.2554687231861
 20
-149.070315175406
 30
0.0
 10
107.1138752987423
 20
-149.2501491597361
 30
0.0
 10
107.1138752987423
 20
-149.2501491597361
 30
0.0
  0
SPLINE
  5
FC
330
F7
100
AcDbEntity
  8
レイヤー 1
100
AcDbSpline
210
0.0
220
0.0
230
1.0
 70
    11
 71
     3
 72
    17
 73
    13
 74
     0
 42
0.0000000001
 43
0.0000000001
 40
0.0
 40
0.0
 40
0.0
 40
0.0
 40
1.0
 40
1.0
 40
1.0
 40
2.0
 40
2.0
 40
2.0
 40
3.0
 40
3.0
 40
3.0
 40
4.0
 40
4.0
 40
4.0
 40
4.0
 10
106.0245361063063
 20
-148.2917235957395
 30
0.0
 10
106.0245361063063
 20
-148.2917235957395
 30
0.0
 10
105.8636501471452
 20
-148.2917235957395
 30
0.0
 10
105.8636501471452
 20
-148.2917235957395
 30
0.0
 10
105.8636501471452
 20
-148.2917235957395
 30
0.0
 10
105.8636501471452
 20
-148.4209146764364
 30
0.0
 10
105.8636501471452
 20
-148.4209146764364
 30
0.0
 10
105.8636501471452
 20
-148.4209146764364
 30
0.0
 10
106.0245361063063
 20
-148.4209146764364
 30
0.0
 10
106.0245361063063
 20
-148.4209146764364
 30
0.0
 10
106.0245361063063
 20
-148.4209146764364
 30
0.0
 10
106.0245361063063
 20
-148.2917235957395
 30
0.0
 10
106.0245361063063
 20
-148.2917235957395
 30
0.0
  0
SPLINE
  5
FD
330
F7
100
AcDbEntity
  8
レイヤー 1
100
AcDbSpline
210
0.0
220
0.0
230
1.0
 70
    11
 71
     3
 72
    17
 73
    13
 74
     0
 42
0.0000000001
 43
0.0000000001
 40
0.0
 40
0.0
 40
0.0
 40
0.0
 40
1.0
 40
1.0
 40
1.0
 40
2.0
 40
2.0
 40
2.0
 40
3.0
 40
3.0
 40
3.0
 40
4.0
 40
4.0
 40
4.0
 40
4.0
 10
106.0245361063063
 20
-148.0188720333078
 30
0.0
 10
106.0245361063063
 20
-148.0188720333078
 30
0.0
 10
105.8636501471452
 20
-148.0188720333078
 30
0.0
 10
105.8636501471452
 20
-148.0188720333078
 30
0.0
 10
105.8636501471452
 20
-148.0188720333078
 30
0.0
 10
105.8636501471452
 20
-148.1478908592304
 30
0.0
 10
105.8636501471452
 20
-148.1478908592304
 30
0.0
 10
105.8636501471452
 20
-148.1478908592304
 30
0.0
 10
106.0245361063063
 20
-148.1478908592304
 30
0.0
 10
106.0245361063063
 20
-148.1478908592304
 30
0.0
 10
106.0245361063063
 20
-148.1478908592304
 30
0.0
 10
106.0245361063063
 20
-148.0188720333078
 30
0.0
 10
106.0245361063063
 20
-148.0188720333078
 30
0.0
  0
SPLINE
  5
FE
330
F7
100
AcDbEntity
  8
レイヤー 1
100
AcDbSpline
210
0.0
220
0.0
230
1.0
 70
    11
 71
     3
 72
    17
 73
    13
 74
     0
 42
0.0000000001
 43
0.0000000001
 40
0.0
 40
0.0
 40
0.0
 40
0.0
 40
1.0
 40
1.0
 40
1.0
 40
2.0
 40
2.0
 40
2.0
 40
3.0
 40
3.0
 40
3.0
 40
4.0
 40
4.0
 40
4.0
 40
4.0
 10
105.6920843919797
 20
-148.2917235957395
 30
0.0
 10
105.6920843919797
 20
-148.2917235957395
 30
0.0
 10
105.5336099996582
 20
-148.2917235957395
 30
0.0
 10
105.5336099996582
 20
-148.2917235957395
 30
0.0
 10
105.5336099996582
 20
-148.2917235957395
 30
0.0
 10
105.5336099996582
 20
-148.4209146764364
 30
0.0
 10
105.5336099996582
 20
-148.4209146764364
 30
0.0
 10
105.5336099996582
 20
-148.4209146764364
 30
0.0
 10
105.6920843919797
 20
-148.4209146764364
 30
0.0
 10
105.6920843919797
 20
-148.4209146764364
 30
0.0
 10
105.6920843919797
 20
-148.4209146764364
 30
0.0
 10
105.6920843919797
 20
-148.2917235957395
 30
0.0
 10
105.6920843919797
 20
-148.2917235957395
 30
0.0
  0
SPLINE
  5
FF
330
F7
100
AcDbEntity
  8
レイヤー 1
100
AcDbSpline
210
0.0
220
0.0
230
1.0
 70
    11
 71
     3
 72
    17
 73
    13
 74
     0
 42
0.0000000001
 43
0.0000000001
 40
0.0
 40
0.0
 40
0.0
 40
0.0
 40
1.0
 40
1.0
 40
1.0
 40
2.0
 40
2.0
 40
2.0
 40
3.0
 40
3.0
 40
3.0
 40
4.0
 40
4.0
 40
4.0
 40
4.0
 10
105.6920843919797
 20
-148.0188720333078
 30
0.0
 10
105.6920843919797
 20
-148.0188720333078
 30
0.0
 10
105.5336099996582
 20
-148.0188720333078
 30
0.0
 10
105.5336099996582
 20
-148.0188720333078
 30
0.0
 10
105.5336099996582
 20
-148.0188720333078
 30
0.0
 10
105.5336099996582
 20
-148.1478908592304
 30
0.0
 10
105.5336099996582
 20
-148.1478908592304
 30
0.0
 10
105.5336099996582
 20
-148.1478908592304
 30
0.0
 10
105.6920843919797
 20
-148.1478908592304
 30
0.0
 10
105.6920843919797
 20
-148.1478908592304
 30
0.0
 10
105.6920843919797
 20
-148.1478908592304
 30
0.0
 10
105.6920843919797
 20
-148.0188720333078
 30
0.0
 10
105.6920843919797
 20
-148.0188720333078
 30
0.0
  0
SPLINE
  5
100
330
F7
100
AcDbEntity
  8
レイヤー 1
100
AcDbSpline
210
0.0
220
0.0
230
1.0
 70
     9
 71
     3
 72
   197
 73
   193
 74
     0
 42
0.0000000001
 43
0.0000000001
 40
0.0
 40
0.0
 40
0.0
 40
0.0
 40
1.0
 40
1.0
 40
1.0
 40
2.0
 40
2.0
 40
2.0
 40
3.0
 40
3.0
 40
3.0
 40
4.0
 40
4.0
 40
4.0
 40
5.0
 40
5.0
 40
5.0
 40
6.0
 40
6.0
 40
6.0
 40
7.0
 40
7.0
 40
7.0
 40
8.0
 40
8.0
 40
8.0
 40
9.0
 40
9.0
 40
9.0
 40
10.0
 40
10.0
 40
10.0
 40
11.0
 40
11.0
 40
11.0
 40
12.0
 40
12.0
 40
12.0
 40
13.0
 40
13.0
 40
13.0
 40
14.0
 40
14.0
 40
14.0
 40
15.0
 40
15.0
 40
15.0
 40
16.0
 40
16.0
 40
16.0
 40
17.0
 40
17.0
 40
17.0
 40
18.0
 40
18.0
 40
18.0
 40
19.0
 40
19.0
 40
19.0
 40
20.0
 40
20.0
 40
20.0
 40
21.0
 40
21.0
 40
21.0
 40
22.0
 40
22.0
 40
22.0
 40
23.0
 40
23.0
 40
23.0
 40
24.0
 40
24.0
 40
24.0
 40
25.0
 40
25.0
 40
25.0
 40
26.0
 40
26.0
 40
26.0
 40
27.0
 40
27.0
 40
27.0
 40
28.0
 40
28.0
 40
28.0
 40
29.0
 40
29.0
 40
29.0
 40
30.0
 40
30.0
 40
30.0
 40
31.0
 40
31.0
 40
31.0
 40
32.0
 40
32.0
 40
32.0
 40
33.0
 40
33.0
 40
33.0
 40
34.0
 40
34.0
 40
34.0
 40
35.0
 40
35.0
 40
35.0
 40
36.0
 40
36.0
 40
36.0
 40
37.0
 40
37.0
 40
37.0
 40
38.0
 40
38.0
 40
38.0
 40
39.0
 40
39.0
 40
39.0
 40
40.0
 40
40.0
 40
40.0
 40
41.0
 40
41.0
 40
41.0
 40
42.0
 40
42.0
 40
42.0
 40
43.0
 40
43.0
 40
43.0
 40
44.0
 40
44.0
 40
44.0
 40
45.0
 40
45.0
 40
45.0
 40
46.0
 40
46.0
 40
46.0
 40
47.0
 40
47.0
 40
47.0
 40
48.0
 40
48.0
 40
48.0
 40
49.0
 40
49.0
 40
49.0
 40
50.0
 40
50.0
 40
50.0
 40
51.0
 40
51.0
 40
51.0
 40
52.0
 40
52.0
 40
52.0
 40
53.0
 40
53.0
 40
53.0
 40
54.0
 40
54.0
 40
54.0
 40
55.0
 40
55.0
 40
55.0
 40
56.0
 40
56.0
 40
56.0
 40
57.0
 40
57.0
 40
57.0
 40
58.0
 40
58.0
 40
58.0
 40
59.0
 40
59.0
 40
59.0
 40
60.0
 40
60.0
 40
60.0
 40
61.0
 40
61.0
 40
61.0
 40
62.0
 40
62.0
 40
62.0
 40
63.0
 40
63.0
 40
63.0
 40
64.0
 40
64.0
 40
64.0
 40
64.0
 10
107.1986246476795
 20
-147.8941595767417
 30
0.0
 10
107.1879448516752
 20
-147.9236151431406
 30
0.0
 10
107.1645182023755
 20
-147.9702961869657
 30
0.0
 10
107.1541829159198
 20
-147.9976846960735
 30
0.0
 10
107.1541829159198
 20
-147.9976846960735
 30
0.0
 10
107.0928602162823
 20
-148.1501301712958
 30
0.0
 10
107.0928602162823
 20
-148.1501301712958
 30
0.0
 10
107.082180420278
 20
-148.1754516231124
 30
0.0
 10
107.033604573936
 20
-148.2875894811573
 30
0.0
 10
107.0208577206406
 20
-148.3108438756827
 30
0.0
 10
107.0187906633494
 20
-148.3172173023304
 30
0.0
 10
107.0143120392186
 20
-148.3256577862693
 30
0.0
 10
107.0122449819275
 20
-148.332031212917
 30
0.0
 10
107.0122449819275
 20
-148.332031212917
 30
0.0
 10
106.8027831764243
 20
-148.2791489972184
 30
0.0
 10
106.8027831764243
 20
-148.2791489972184
 30
0.0
 10
106.881331353488
 20
-148.1690781964647
 30
0.0
 10
106.9426540531254
 20
-148.0336859438943
 30
0.0
 10
106.9743489315897
 20
-147.9236151431406
 30
0.0
 10
106.9743489315897
 20
-147.9236151431406
 30
0.0
 10
106.5089165315325
 20
-147.9236151431406
 30
0.0
 10
106.5089165315325
 20
-147.9236151431406
 30
0.0
 10
106.4283012971776
 20
-148.0886352168841
 30
0.0
 10
106.3607774256667
 20
-148.1670111391735
 30
0.0
 10
106.3270154899113
 20
-148.2071465015767
 30
0.0
 10
106.3270154899113
 20
-148.2071465015767
 30
0.0
 10
106.2043700906364
 20
-148.1415174325826
 30
0.0
 10
106.2043700906364
 20
-148.1415174325826
 30
0.0
 10
106.2043700906364
 20
-148.1415174325826
 30
0.0
 10
106.2043700906364
 20
-148.3129109329738
 30
0.0
 10
106.2043700906364
 20
-148.3129109329738
 30
0.0
 10
106.2043700906364
 20
-148.4209146764364
 30
0.0
 10
106.2064371479275
 20
-148.4694905227784
 30
0.0
 10
106.2167724343833
 20
-148.5752549541756
 30
0.0
 10
106.1451144482901
 20
-148.5731878968845
 30
0.0
 10
106.1237548562815
 20
-148.5731878968845
 30
0.0
 10
105.9187716749092
 20
-148.5731878968845
 30
0.0
 10
105.9187716749092
 20
-148.5731878968845
 30
0.0
 10
105.8636501471452
 20
-148.5731878968845
 30
0.0
 10
105.8636501471452
 20
-148.5731878968845
 30
0.0
 10
105.8636501471452
 20
-148.5731878968845
 30
0.0
 10
105.8636501471452
 20
-148.7085801494548
 30
0.0
 10
105.8636501471452
 20
-148.7085801494548
 30
0.0
 10
105.8636501471452
 20
-148.7085801494548
 30
0.0
 10
105.9356526427869
 20
-148.7085801494548
 30
0.0
 10
105.9356526427869
 20
-148.7085801494548
 30
0.0
 10
106.0011094570066
 20
-148.7085801494548
 30
0.0
 10
106.1471815055812
 20
-148.7042737800982
 30
0.0
 10
106.2529459369784
 20
-148.6958332961594
 30
0.0
 10
106.2529459369784
 20
-148.6958332961594
 30
0.0
 10
106.2529459369784
 20
-148.8736002231983
 30
0.0
 10
106.2529459369784
 20
-148.8736002231983
 30
0.0
 10
106.1554497347458
 20
-148.8672267965506
 30
0.0
 10
105.9969753424244
 20
-148.862920427194
 30
0.0
 10
105.9356526427869
 20
-148.862920427194
 30
0.0
 10
105.9356526427869
 20
-148.862920427194
 30
0.0
 10
105.8636501471452
 20
-148.862920427194
 30
0.0
 10
105.8636501471452
 20
-148.862920427194
 30
0.0
 10
105.8657172044363
 20
-148.9518038907134
 30
0.0
 10
105.8698513190186
 20
-149.1908935173898
 30
0.0
 10
105.8719183763098
 20
-149.2649630703226
 30
0.0
 10
105.8719183763098
 20
-149.2649630703226
 30
0.0
 10
105.6710693095197
 20
-149.2649630703226
 30
0.0
 10
105.6710693095197
 20
-149.2649630703226
 30
0.0
 10
105.6838161628151
 20
-149.0510226406886
 30
0.0
 10
105.6838161628151
 20
-149.0213948195155
 30
0.0
 10
105.6879502773974
 20
-148.862920427194
 30
0.0
 10
105.6879502773974
 20
-148.862920427194
 30
0.0
 10
105.6183593485954
 20
-148.862920427194
 30
0.0
 10
105.6183593485954
 20
-148.862920427194
 30
0.0
 10
105.5611707635402
 20
-148.862920427194
 30
0.0
 10
105.4088975430922
 20
-148.8672267965506
 30
0.0
 10
105.2986544875642
 20
-148.8736002231983
 30
0.0
 10
105.2986544875642
 20
-148.8736002231983
 30
0.0
 10
105.2986544875642
 20
-148.6958332961594
 30
0.0
 10
105.2986544875642
 20
-148.6958332961594
 30
0.0
 10
105.4044189189614
 20
-148.7042737800982
 30
0.0
 10
105.5484239102448
 20
-148.7085801494548
 30
0.0
 10
105.6183593485954
 20
-148.7085801494548
 30
0.0
 10
105.6183593485954
 20
-148.7085801494548
 30
0.0
 10
105.6920843919797
 20
-148.7085801494548
 30
0.0
 10
105.6920843919797
 20
-148.7085801494548
 30
0.0
 10
105.6920843919797
 20
-148.7085801494548
 30
0.0
 10
105.6920843919797
 20
-148.5731878968845
 30
0.0
 10
105.6920843919797
 20
-148.5731878968845
 30
0.0
 10
105.6920843919797
 20
-148.5731878968845
 30
0.0
 10
105.6479871697685
 20
-148.5731878968845
 30
0.0
 10
105.6479871697685
 20
-148.5731878968845
 30
0.0
 10
105.571506049996
 20
-148.5731878968845
 30
0.0
 10
105.379269721919
 20
-148.5752549541756
 30
0.0
 10
105.3451632766151
 20
-148.5752549541756
 30
0.0
 10
105.351708958037
 20
-148.5034247133082
 30
0.0
 10
105.3599771872016
 20
-148.4229817337276
 30
0.0
 10
105.3599771872016
 20
-148.3024033917438
 30
0.0
 10
105.3599771872016
 20
-148.3024033917438
 30
0.0
 10
105.3599771872016
 20
-148.1289428340615
 30
0.0
 10
105.3599771872016
 20
-148.1289428340615
 30
0.0
 10
105.3599771872016
 20
-148.0569403384198
 30
0.0
 10
105.351708958037
 20
-147.936361996436
 30
0.0
 10
105.3451632766151
 20
-147.8560912716297
 30
0.0
 10
105.4237114536788
 20
-147.860225386212
 30
0.0
 10
105.4616075040165
 20
-147.8622924435032
 30
0.0
 10
105.5887315274222
 20
-147.8622924435032
 30
0.0
 10
105.5887315274222
 20
-147.8622924435032
 30
0.0
 10
105.6920843919797
 20
-147.8622924435032
 30
0.0
 10
105.6920843919797
 20
-147.8622924435032
 30
0.0
 10
105.6920843919797
 20
-147.8622924435032
 30
0.0
 10
105.6920843919797
 20
-147.7163926497028
 30
0.0
 10
105.6920843919797
 20
-147.7163926497028
 30
0.0
 10
105.6920843919797
 20
-147.7163926497028
 30
0.0
 10
105.6138807244646
 20
-147.7163926497028
 30
0.0
 10
105.6138807244646
 20
-147.7163926497028
 30
0.0
 10
105.5591037062491
 20
-147.7163926497028
 30
0.0
 10
105.3875379510836
 20
-147.7206990190594
 30
0.0
 10
105.303133111695
 20
-147.7269001909328
 30
0.0
 10
105.303133111695
 20
-147.7269001909328
 30
0.0
 10
105.303133111695
 20
-147.5493055186682
 30
0.0
 10
105.303133111695
 20
-147.5493055186682
 30
0.0
 10
105.3854708937925
 20
-147.5556789453159
 30
0.0
 10
105.5484239102448
 20
-147.5598130598982
 30
0.0
 10
105.6138807244646
 20
-147.5598130598982
 30
0.0
 10
105.6138807244646
 20
-147.5598130598982
 30
0.0
 10
105.6920843919797
 20
-147.5598130598982
 30
0.0
 10
105.6920843919797
 20
-147.5598130598982
 30
0.0
 10
105.6920843919797
 20
-147.5260511241428
 30
0.0
 10
105.6879502773974
 20
-147.3715385916293
 30
0.0
 10
105.6879502773974
 20
-147.339843713165
 30
0.0
 10
105.6879502773974
 20
-147.339843713165
 30
0.0
 10
105.8846652296052
 20
-147.3567246810427
 30
0.0
 10
105.8846652296052
 20
-147.3567246810427
 30
0.0
 10
105.9015461974829
 20
-147.3587917383339
 30
0.0
 10
105.9229057894915
 20
-147.3610310503993
 30
0.0
 10
105.9229057894915
 20
-147.3820461328593
 30
0.0
 10
105.9229057894915
 20
-147.405472782159
 30
0.0
 10
105.9015461974829
 20
-147.4139132660979
 30
0.0
 10
105.8743299431494
 20
-147.426487864619
 30
0.0
 10
105.8743299431494
 20
-147.4476752018533
 30
0.0
 10
105.8719183763098
 20
-147.5429320920205
 30
0.0
 10
105.8719183763098
 20
-147.5598130598982
 30
0.0
 10
105.8719183763098
 20
-147.5598130598982
 30
0.0
 10
105.9311740186561
 20
-147.5598130598982
 30
0.0
 10
105.9311740186561
 20
-147.5598130598982
 30
0.0
 10
105.9990423997155
 20
-147.5598130598982
 30
0.0
 10
106.1427028814504
 20
-147.5556789453159
 30
0.0
 10
106.2484673128476
 20
-147.5493055186682
 30
0.0
 10
106.2484673128476
 20
-147.5493055186682
 30
0.0
 10
106.2484673128476
 20
-147.7269001909328
 30
0.0
 10
106.2484673128476
 20
-147.7269001909328
 30
0.0
 10
106.1513156201635
 20
-147.7206990190594
 30
0.0
 10
105.9949082851332
 20
-147.7163926497028
 30
0.0
 10
105.9311740186561
 20
-147.7163926497028
 30
0.0
 10
105.9311740186561
 20
-147.7163926497028
 30
0.0
 10
105.8636501471452
 20
-147.7163926497028
 30
0.0
 10
105.8636501471452
 20
-147.7163926497028
 30
0.0
 10
105.8636501471452
 20
-147.7163926497028
 30
0.0
 10
105.8636501471452
 20
-147.8622924435032
 30
0.0
 10
105.8636501471452
 20
-147.8622924435032
 30
0.0
 10
105.8636501471452
 20
-147.8622924435032
 30
0.0
 10
105.9335855854957
 20
-147.8622924435032
 30
0.0
 10
105.9335855854957
 20
-147.8622924435032
 30
0.0
 10
106.0837917486527
 20
-147.8622924435032
 30
0.0
 10
106.1554497347458
 20
-147.8581583289209
 30
0.0
 10
106.2167724343833
 20
-147.8560912716297
 30
0.0
 10
106.2085042052187
 20
-147.9511759070226
 30
0.0
 10
106.2064371479275
 20
-148.029551829312
 30
0.0
 10
106.2043700906364
 20
-148.067620134424
 30
0.0
 10
106.3587103683756
 20
-147.8560912716297
 30
0.0
 10
106.4644747997727
 20
-147.6085611610145
 30
0.0
 10
106.4813557676505
 20
-147.3462171398127
 30
0.0
 10
106.4813557676505
 20
-147.3462171398127
 30
0.0
 10
106.6970187450271
 20
-147.3968600434459
 30
0.0
 10
106.6970187450271
 20
-147.3968600434459
 30
0.0
 10
106.7118326556137
 20
-147.4011664128025
 30
0.0
 10
106.7266465662003
 20
-147.4075398394502
 30
0.0
 10
106.7266465662003
 20
-147.4244208073279
 30
0.0
 10
106.7266465662003
 20
-147.4413017752056
 30
0.0
 10
106.722512451618
 20
-147.443541087271
 30
0.0
 10
106.6718695479848
 20
-147.4645561697311
 30
0.0
 10
106.6546440705585
 20
-147.5408650347293
 30
0.0
 10
106.6294948735162
 20
-147.6318155555399
 30
0.0
 10
106.5809190271742
 20
-147.7587673241714
 30
0.0
 10
106.5809190271742
 20
-147.7587673241714
 30
0.0
 10
106.9192274038257
 20
-147.7587673241714
 30
0.0
 10
106.9192274038257
 20
-147.7587673241714
 30
0.0
 10
106.957467963712
 20
-147.7587673241714
 30
0.0
 10
107.0863145348603
 20
-147.7544609548148
 30
0.0
 10
107.1348903812024
 20
-147.7480875281671
 30
0.0
 10
107.1348903812024
 20
-147.7480875281671
 30
0.0
 10
107.2282524688526
 20
-147.8178507117434
 30
0.0
 10
107.2282524688526
 20
-147.8178507117434
 30
0.0
 10
107.2196397301395
 20
-147.8390380489777
 30
0.0
 10
107.2134385582661
 20
-147.8581583289209
 30
0.0
 10
107.1986246476795
 20
-147.8941595767417
 30
0.0
  0
HATCH
  5
101
330
F7
100
AcDbEntity
  8
レイヤー 1
 62
   250
420
  2299925
440
 33554687
100
AcDbHatch
 10
0.0
 20
0.0
 30
0.0
210
0.0
220
0.0
230
1.0
  2
SOLID
 70
     1
 71
     1
 91
        6
 92
        1
 93
        1
 72
     4
 94
        3
 73
     0
 74
     0
 95
       41
 96
       37
 40
0.0
 40
0.0
 40
0.0
 40
0.0
 40
1.0
 40
1.0
 40
1.0
 40
2.0
 40
2.0
 40
2.0
 40
3.0
 40
3.0
 40
3.0
 40
4.0
 40
4.0
 40
4.0
 40
5.0
 40
5.0
 40
5.0
 40
6.0
 40
6.0
 40
6.0
 40
7.0
 40
7.0
 40
7.0
 40
8.0
 40
8.0
 40
8.0
 40
9.0
 40
9.0
 40
9.0
 40
10.0
 40
10.0
 40
10.0
 40
11.0
 40
11.0
 40
11.0
 40
12.0
 40
12.0
 40
12.0
 40
12.0
 10
107.1138752987423
 20
-149.2501491597361
 10
106.8727186147748
 20
-149.1147569071658
 10
106.694951687736
 20
-148.8184786954342
 10
106.6546440705585
 20
-148.6894598695116
 10
106.5340657285748
 20
-148.9538709480046
 10
106.371457221671
 20
-149.1316378750435
 10
106.1895561800498
 20
-149.2456705356052
 10
106.1895561800498
 20
-149.2456705356052
 10
105.9924967182935
 20
-149.1082112257438
 10
105.9924967182935
 20
-149.1082112257438
 10
106.0624321566441
 20
-149.0830620287014
 10
106.2085042052187
 20
-149.0213948195155
 10
106.3311496044936
 20
-148.8672267965506
 10
106.4558620610596
 20
-148.7106472067459
 10
106.5447455245791
 20
-148.4779310067173
 10
106.5447455245791
 20
-148.2178262975809
 10
106.5447455245791
 20
-148.1161959807661
 10
106.5319986712836
 20
-148.0443657398986
 10
106.5216633848279
 20
-147.9976846960735
 10
106.5216633848279
 20
-147.9976846960735
 10
106.7266465662003
 20
-148.0188720333078
 10
106.7266465662003
 20
-148.0188720333078
 10
106.7480061582088
 20
-148.0209390905989
 10
106.7690212406688
 20
-148.0231784026643
 10
106.7690212406688
 20
-148.0443657398986
 10
106.7690212406688
 20
-148.0633137650675
 10
106.7583414446646
 20
-148.0717542490063
 10
106.7245795089091
 20
-148.0929415862406
 10
106.7163112797445
 20
-148.293962907805
 10
106.7731553552511
 20
-148.5371866490636
 10
106.8344780548886
 20
-148.6577649910473
 10
106.9254285756992
 20
-148.8332926060208
 10
107.1200764706158
 20
-149.0131265903509
 10
107.2554687231861
 20
-149.070315175406
 10
107.2554687231861
 20
-149.070315175406
 10
107.1138752987423
 20
-149.2501491597361
 10
107.1138752987423
 20
-149.2501491597361
 97
        0
 97
        1
330
FB
 92
        1
 93
        1
 72
     4
 94
        3
 73
     0
 74
     0
 95
       17
 96
       13
 40
0.0
 40
0.0
 40
0.0
 40
0.0
 40
1.0
 40
1.0
 40
1.0
 40
2.0
 40
2.0
 40
2.0
 40
3.0
 40
3.0
 40
3.0
 40
4.0
 40
4.0
 40
4.0
 40
4.0
 10
106.0245361063063
 20
-148.2917235957395
 10
106.0245361063063
 20
-148.2917235957395
 10
105.8636501471452
 20
-148.2917235957395
 10
105.8636501471452
 20
-148.2917235957395
 10
105.8636501471452
 20
-148.2917235957395
 10
105.8636501471452
 20
-148.4209146764364
 10
105.8636501471452
 20
-148.4209146764364
 10
105.8636501471452
 20
-148.4209146764364
 10
106.0245361063063
 20
-148.4209146764364
 10
106.0245361063063
 20
-148.4209146764364
 10
106.0245361063063
 20
-148.4209146764364
 10
106.0245361063063
 20
-148.2917235957395
 10
106.0245361063063
 20
-148.2917235957395
 97
        0
 97
        1
330
FC
 92
        1
 93
        1
 72
     4
 94
        3
 73
     0
 74
     0
 95
       17
 96
       13
 40
0.0
 40
0.0
 40
0.0
 40
0.0
 40
1.0
 40
1.0
 40
1.0
 40
2.0
 40
2.0
 40
2.0
 40
3.0
 40
3.0
 40
3.0
 40
4.0
 40
4.0
 40
4.0
 40
4.0
 10
106.0245361063063
 20
-148.0188720333078
 10
106.0245361063063
 20
-148.0188720333078
 10
105.8636501471452
 20
-148.0188720333078
 10
105.8636501471452
 20
-148.0188720333078
 10
105.8636501471452
 20
-148.0188720333078
 10
105.8636501471452
 20
-148.1478908592304
 10
105.8636501471452
 20
-148.1478908592304
 10
105.8636501471452
 20
-148.1478908592304
 10
106.0245361063063
 20
-148.1478908592304
 10
106.0245361063063
 20
-148.1478908592304
 10
106.0245361063063
 20
-148.1478908592304
 10
106.0245361063063
 20
-148.0188720333078
 10
106.0245361063063
 20
-148.0188720333078
 97
        0
 97
        1
330
FD
 92
        1
 93
        1
 72
     4
 94
        3
 73
     0
 74
     0
 95
       17
 96
       13
 40
0.0
 40
0.0
 40
0.0
 40
0.0
 40
1.0
 40
1.0
 40
1.0
 40
2.0
 40
2.0
 40
2.0
 40
3.0
 40
3.0
 40
3.0
 40
4.0
 40
4.0
 40
4.0
 40
4.0
 10
105.6920843919797
 20
-148.2917235957395
 10
105.6920843919797
 20
-148.2917235957395
 10
105.5336099996582
 20
-148.2917235957395
 10
105.5336099996582
 20
-148.2917235957395
 10
105.5336099996582
 20
-148.2917235957395
 10
105.5336099996582
 20
-148.4209146764364
 10
105.5336099996582
 20
-148.4209146764364
 10
105.5336099996582
 20
-148.4209146764364
 10
105.6920843919797
 20
-148.4209146764364
 10
105.6920843919797
 20
-148.4209146764364
 10
105.6920843919797
 20
-148.4209146764364
 10
105.6920843919797
 20
-148.2917235957395
 10
105.6920843919797
 20
-148.2917235957395
 97
        0
 97
        1
330
FE
 92
        1
 93
        1
 72
     4
 94
        3
 73
     0
 74
     0
 95
       17
 96
       13
 40
0.0
 40
0.0
 40
0.0
 40
0.0
 40
1.0
 40
1.0
 40
1.0
 40
2.0
 40
2.0
 40
2.0
 40
3.0
 40
3.0
 40
3.0
 40
4.0
 40
4.0
 40
4.0
 40
4.0
 10
105.6920843919797
 20
-148.0188720333078
 10
105.6920843919797
 20
-148.0188720333078
 10
105.5336099996582
 20
-148.0188720333078
 10
105.5336099996582
 20
-148.0188720333078
 10
105.5336099996582
 20
-148.0188720333078
 10
105.5336099996582
 20
-148.1478908592304
 10
105.5336099996582
 20
-148.1478908592304
 10
105.5336099996582
 20
-148.1478908592304
 10
105.6920843919797
 20
-148.1478908592304
 10
105.6920843919797
 20
-148.1478908592304
 10
105.6920843919797
 20
-148.1478908592304
 10
105.6920843919797
 20
-148.0188720333078
 10
105.6920843919797
 20
-148.0188720333078
 97
        0
 97
        1
330
FF
 92
        1
 93
        1
 72
     4
 94
        3
 73
     0
 74
     0
 95
      197
 96
      193
 40
0.0
 40
0.0
 40
0.0
 40
0.0
 40
1.0
 40
1.0
 40
1.0
 40
2.0
 40
2.0
 40
2.0
 40
3.0
 40
3.0
 40
3.0
 40
4.0
 40
4.0
 40
4.0
 40
5.0
 40
5.0
 40
5.0
 40
6.0
 40
6.0
 40
6.0
 40
7.0
 40
7.0
 40
7.0
 40
8.0
 40
8.0
 40
8.0
 40
9.0
 40
9.0
 40
9.0
 40
10.0
 40
10.0
 40
10.0
 40
11.0
 40
11.0
 40
11.0
 40
12.0
 40
12.0
 40
12.0
 40
13.0
 40
13.0
 40
13.0
 40
14.0
 40
14.0
 40
14.0
 40
15.0
 40
15.0
 40
15.0
 40
16.0
 40
16.0
 40
16.0
 40
17.0
 40
17.0
 40
17.0
 40
18.0
 40
18.0
 40
18.0
 40
19.0
 40
19.0
 40
19.0
 40
20.0
 40
20.0
 40
20.0
 40
21.0
 40
21.0
 40
21.0
 40
22.0
 40
22.0
 40
22.0
 40
23.0
 40
23.0
 40
23.0
 40
24.0
 40
24.0
 40
24.0
 40
25.0
 40
25.0
 40
25.0
 40
26.0
 40
26.0
 40
26.0
 40
27.0
 40
27.0
 40
27.0
 40
28.0
 40
28.0
 40
28.0
 40
29.0
 40
29.0
 40
29.0
 40
30.0
 40
30.0
 40
30.0
 40
31.0
 40
31.0
 40
31.0
 40
32.0
 40
32.0
 40
32.0
 40
33.0
 40
33.0
 40
33.0
 40
34.0
 40
34.0
 40
34.0
 40
35.0
 40
35.0
 40
35.0
 40
36.0
 40
36.0
 40
36.0
 40
37.0
 40
37.0
 40
37.0
 40
38.0
 40
38.0
 40
38.0
 40
39.0
 40
39.0
 40
39.0
 40
40.0
 40
40.0
 40
40.0
 40
41.0
 40
41.0
 40
41.0
 40
42.0
 40
42.0
 40
42.0
 40
43.0
 40
43.0
 40
43.0
 40
44.0
 40
44.0
 40
44.0
 40
45.0
 40
45.0
 40
45.0
 40
46.0
 40
46.0
 40
46.0
 40
47.0
 40
47.0
 40
47.0
 40
48.0
 40
48.0
 40
48.0
 40
49.0
 40
49.0
 40
49.0
 40
50.0
 40
50.0
 40
50.0
 40
51.0
 40
51.0
 40
51.0
 40
52.0
 40
52.0
 40
52.0
 40
53.0
 40
53.0
 40
53.0
 40
54.0
 40
54.0
 40
54.0
 40
55.0
 40
55.0
 40
55.0
 40
56.0
 40
56.0
 40
56.0
 40
57.0
 40
57.0
 40
57.0
 40
58.0
 40
58.0
 40
58.0
 40
59.0
 40
59.0
 40
59.0
 40
60.0
 40
60.0
 40
60.0
 40
61.0
 40
61.0
 40
61.0
 40
62.0
 40
62.0
 40
62.0
 40
63.0
 40
63.0
 40
63.0
 40
64.0
 40
64.0
 40
64.0
 40
64.0
 10
107.1986246476795
 20
-147.8941595767417
 10
107.1879448516752
 20
-147.9236151431406
 10
107.1645182023755
 20
-147.9702961869657
 10
107.1541829159198
 20
-147.9976846960735
 10
107.1541829159198
 20
-147.9976846960735
 10
107.0928602162823
 20
-148.1501301712958
 10
107.0928602162823
 20
-148.1501301712958
 10
107.082180420278
 20
-148.1754516231124
 10
107.033604573936
 20
-148.2875894811573
 10
107.0208577206406
 20
-148.3108438756827
 10
107.0187906633494
 20
-148.3172173023304
 10
107.0143120392186
 20
-148.3256577862693
 10
107.0122449819275
 20
-148.332031212917
 10
107.0122449819275
 20
-148.332031212917
 10
106.8027831764243
 20
-148.2791489972184
 10
106.8027831764243
 20
-148.2791489972184
 10
106.881331353488
 20
-148.1690781964647
 10
106.9426540531254
 20
-148.0336859438943
 10
106.9743489315897
 20
-147.9236151431406
 10
106.9743489315897
 20
-147.9236151431406
 10
106.5089165315325
 20
-147.9236151431406
 10
106.5089165315325
 20
-147.9236151431406
 10
106.4283012971776
 20
-148.0886352168841
 10
106.3607774256667
 20
-148.1670111391735
 10
106.3270154899113
 20
-148.2071465015767
 10
106.3270154899113
 20
-148.2071465015767
 10
106.2043700906364
 20
-148.1415174325826
 10
106.2043700906364
 20
-148.1415174325826
 10
106.2043700906364
 20
-148.1415174325826
 10
106.2043700906364
 20
-148.3129109329738
 10
106.2043700906364
 20
-148.3129109329738
 10
106.2043700906364
 20
-148.4209146764364
 10
106.2064371479275
 20
-148.4694905227784
 10
106.2167724343833
 20
-148.5752549541756
 10
106.1451144482901
 20
-148.5731878968845
 10
106.1237548562815
 20
-148.5731878968845
 10
105.9187716749092
 20
-148.5731878968845
 10
105.9187716749092
 20
-148.5731878968845
 10
105.8636501471452
 20
-148.5731878968845
 10
105.8636501471452
 20
-148.5731878968845
 10
105.8636501471452
 20
-148.5731878968845
 10
105.8636501471452
 20
-148.7085801494548
 10
105.8636501471452
 20
-148.7085801494548
 10
105.8636501471452
 20
-148.7085801494548
 10
105.9356526427869
 20
-148.7085801494548
 10
105.9356526427869
 20
-148.7085801494548
 10
106.0011094570066
 20
-148.7085801494548
 10
106.1471815055812
 20
-148.7042737800982
 10
106.2529459369784
 20
-148.6958332961594
 10
106.2529459369784
 20
-148.6958332961594
 10
106.2529459369784
 20
-148.8736002231983
 10
106.2529459369784
 20
-148.8736002231983
 10
106.1554497347458
 20
-148.8672267965506
 10
105.9969753424244
 20
-148.862920427194
 10
105.9356526427869
 20
-148.862920427194
 10
105.9356526427869
 20
-148.862920427194
 10
105.8636501471452
 20
-148.862920427194
 10
105.8636501471452
 20
-148.862920427194
 10
105.8657172044363
 20
-148.9518038907134
 10
105.8698513190186
 20
-149.1908935173898
 10
105.8719183763098
 20
-149.2649630703226
 10
105.8719183763098
 20
-149.2649630703226
 10
105.6710693095197
 20
-149.2649630703226
 10
105.6710693095197
 20
-149.2649630703226
 10
105.6838161628151
 20
-149.0510226406886
 10
105.6838161628151
 20
-149.0213948195155
 10
105.6879502773974
 20
-148.862920427194
 10
105.6879502773974
 20
-148.862920427194
 10
105.6183593485954
 20
-148.862920427194
 10
105.6183593485954
 20
-148.862920427194
 10
105.5611707635402
 20
-148.862920427194
 10
105.4088975430922
 20
-148.8672267965506
 10
105.2986544875642
 20
-148.8736002231983
 10
105.2986544875642
 20
-148.8736002231983
 10
105.2986544875642
 20
-148.6958332961594
 10
105.2986544875642
 20
-148.6958332961594
 10
105.4044189189614
 20
-148.7042737800982
 10
105.5484239102448
 20
-148.7085801494548
 10
105.6183593485954
 20
-148.7085801494548
 10
105.6183593485954
 20
-148.7085801494548
 10
105.6920843919797
 20
-148.7085801494548
 10
105.6920843919797
 20
-148.7085801494548
 10
105.6920843919797
 20
-148.7085801494548
 10
105.6920843919797
 20
-148.5731878968845
 10
105.6920843919797
 20
-148.5731878968845
 10
105.6920843919797
 20
-148.5731878968845
 10
105.6479871697685
 20
-148.5731878968845
 10
105.6479871697685
 20
-148.5731878968845
 10
105.571506049996
 20
-148.5731878968845
 10
105.379269721919
 20
-148.5752549541756
 10
105.3451632766151
 20
-148.5752549541756
 10
105.351708958037
 20
-148.5034247133082
 10
105.3599771872016
 20
-148.4229817337276
 10
105.3599771872016
 20
-148.3024033917438
 10
105.3599771872016
 20
-148.3024033917438
 10
105.3599771872016
 20
-148.1289428340615
 10
105.3599771872016
 20
-148.1289428340615
 10
105.3599771872016
 20
-148.0569403384198
 10
105.351708958037
 20
-147.936361996436
 10
105.3451632766151
 20
-147.8560912716297
 10
105.4237114536788
 20
-147.860225386212
 10
105.4616075040165
 20
-147.8622924435032
 10
105.5887315274222
 20
-147.8622924435032
 10
105.5887315274222
 20
-147.8622924435032
 10
105.6920843919797
 20
-147.8622924435032
 10
105.6920843919797
 20
-147.8622924435032
 10
105.6920843919797
 20
-147.8622924435032
 10
105.6920843919797
 20
-147.7163926497028
 10
105.6920843919797
 20
-147.7163926497028
 10
105.6920843919797
 20
-147.7163926497028
 10
105.6138807244646
 20
-147.7163926497028
 10
105.6138807244646
 20
-147.7163926497028
 10
105.5591037062491
 20
-147.7163926497028
 10
105.3875379510836
 20
-147.7206990190594
 10
105.303133111695
 20
-147.7269001909328
 10
105.303133111695
 20
-147.7269001909328
 10
105.303133111695
 20
-147.5493055186682
 10
105.303133111695
 20
-147.5493055186682
 10
105.3854708937925
 20
-147.5556789453159
 10
105.5484239102448
 20
-147.5598130598982
 10
105.6138807244646
 20
-147.5598130598982
 10
105.6138807244646
 20
-147.5598130598982
 10
105.6920843919797
 20
-147.5598130598982
 10
105.6920843919797
 20
-147.5598130598982
 10
105.6920843919797
 20
-147.5260511241428
 10
105.6879502773974
 20
-147.3715385916293
 10
105.6879502773974
 20
-147.339843713165
 10
105.6879502773974
 20
-147.339843713165
 10
105.8846652296052
 20
-147.3567246810427
 10
105.8846652296052
 20
-147.3567246810427
 10
105.9015461974829
 20
-147.3587917383339
 10
105.9229057894915
 20
-147.3610310503993
 10
105.9229057894915
 20
-147.3820461328593
 10
105.9229057894915
 20
-147.405472782159
 10
105.9015461974829
 20
-147.4139132660979
 10
105.8743299431494
 20
-147.426487864619
 10
105.8743299431494
 20
-147.4476752018533
 10
105.8719183763098
 20
-147.5429320920205
 10
105.8719183763098
 20
-147.5598130598982
 10
105.8719183763098
 20
-147.5598130598982
 10
105.9311740186561
 20
-147.5598130598982
 10
105.9311740186561
 20
-147.5598130598982
 10
105.9990423997155
 20
-147.5598130598982
 10
106.1427028814504
 20
-147.5556789453159
 10
106.2484673128476
 20
-147.5493055186682
 10
106.2484673128476
 20
-147.5493055186682
 10
106.2484673128476
 20
-147.7269001909328
 10
106.2484673128476
 20
-147.7269001909328
 10
106.1513156201635
 20
-147.7206990190594
 10
105.9949082851332
 20
-147.7163926497028
 10
105.9311740186561
 20
-147.7163926497028
 10
105.9311740186561
 20
-147.7163926497028
 10
105.8636501471452
 20
-147.7163926497028
 10
105.8636501471452
 20
-147.7163926497028
 10
105.8636501471452
 20
-147.7163926497028
 10
105.8636501471452
 20
-147.8622924435032
 10
105.8636501471452
 20
-147.8622924435032
 10
105.8636501471452
 20
-147.8622924435032
 10
105.9335855854957
 20
-147.8622924435032
 10
105.9335855854957
 20
-147.8622924435032
 10
106.0837917486527
 20
-147.8622924435032
 10
106.1554497347458
 20
-147.8581583289209
 10
106.2167724343833
 20
-147.8560912716297
 10
106.2085042052187
 20
-147.9511759070226
 10
106.2064371479275
 20
-148.029551829312
 10
106.2043700906364
 20
-148.067620134424
 10
106.3587103683756
 20
-147.8560912716297
 10
106.4644747997727
 20
-147.6085611610145
 10
106.4813557676505
 20
-147.3462171398127
 10
106.4813557676505
 20
-147.3462171398127
 10
106.6970187450271
 20
-147.3968600434459
 10
106.6970187450271
 20
-147.3968600434459
 10
106.7118326556137
 20
-147.4011664128025
 10
106.7266465662003
 20
-147.4075398394502
 10
106.7266465662003
 20
-147.4244208073279
 10
106.7266465662003
 20
-147.4413017752056
 10
106.722512451618
 20
-147.443541087271
 10
106.6718695479848
 20
-147.4645561697311
 10
106.6546440705585
 20
-147.5408650347293
 10
106.6294948735162
 20
-147.6318155555399
 10
106.5809190271742
 20
-147.7587673241714
 10
106.5809190271742
 20
-147.7587673241714
 10
106.9192274038257
 20
-147.7587673241714
 10
106.9192274038257
 20
-147.7587673241714
 10
106.957467963712
 20
-147.7587673241714
 10
107.0863145348603
 20
-147.7544609548148
 10
107.1348903812024
 20
-147.7480875281671
 10
107.1348903812024
 20
-147.7480875281671
 10
107.2282524688526
 20
-147.8178507117434
 10
107.2282524688526
 20
-147.8178507117434
 10
107.2196397301395
 20
-147.8390380489777
 10
107.2134385582661
 20
-147.8581583289209
 10
107.1986246476795
 20
-147.8941595767417
 97
        0
 97
        1
330
100
 75
     2
 76
     1
 98
        1
 10
0.0
 20
0.0
450
        0
451
        0
460
0.0
461
0.0
452
        0
462
0.0
453
        0
470

  0
SPLINE
  5
102
330
F7
100
AcDbEntity
  8
レイヤー 1
100
AcDbSpline
210
0.0
220
0.0
230
1.0
 70
     9
 71
     3
 72
    74
 73
    70
 74
     0
 42
0.0000000001
 43
0.0000000001
 40
0.0
 40
0.0
 40
0.0
 40
0.0
 40
1.0
 40
1.0
 40
1.0
 40
2.0
 40
2.0
 40
2.0
 40
3.0
 40
3.0
 40
3.0
 40
4.0
 40
4.0
 40
4.0
 40
5.0
 40
5.0
 40
5.0
 40
6.0
 40
6.0
 40
6.0
 40
7.0
 40
7.0
 40
7.0
 40
8.0
 40
8.0
 40
8.0
 40
9.0
 40
9.0
 40
9.0
 40
10.0
 40
10.0
 40
10.0
 40
11.0
 40
11.0
 40
11.0
 40
12.0
 40
12.0
 40
12.0
 40
13.0
 40
13.0
 40
13.0
 40
14.0
 40
14.0
 40
14.0
 40
15.0
 40
15.0
 40
15.0
 40
16.0
 40
16.0
 40
16.0
 40
17.0
 40
17.0
 40
17.0
 40
18.0
 40
18.0
 40
18.0
 40
19.0
 40
19.0
 40
19.0
 40
20.0
 40
20.0
 40
20.0
 40
21.0
 40
21.0
 40
21.0
 40
22.0
 40
22.0
 40
22.0
 40
23.0
 40
23.0
 40
23.0
 40
23.0
 10
109.1592284883352
 20
-147.7968356292834
 30
0.0
 10
109.1592284883352
 20
-147.7968356292834
 30
0.0
 10
108.9986870387225
 20
-147.7968356292834
 30
0.0
 10
108.9986870387225
 20
-147.7968356292834
 30
0.0
 10
108.9986870387225
 20
-147.7968356292834
 30
0.0
 10
108.9986870387225
 20
-147.9110405446195
 30
0.0
 10
108.9986870387225
 20
-147.9110405446195
 30
0.0
 10
108.9986870387225
 20
-147.9511759070226
 30
0.0
 10
109.004888210596
 20
-148.0252454599555
 30
0.0
 10
109.0090223251783
 20
-148.0505669117721
 30
0.0
 10
109.0090223251783
 20
-148.0505669117721
 30
0.0
 10
108.7974934623839
 20
-148.0505669117721
 30
0.0
 10
108.7974934623839
 20
-148.0505669117721
 30
0.0
 10
108.8081732583882
 20
-147.9851100975523
 30
0.0
 10
108.8102403156794
 20
-147.925854455206
 30
0.0
 10
108.8102403156794
 20
-147.9236151431406
 30
0.0
 10
108.8102403156794
 20
-147.9236151431406
 30
0.0
 10
108.8102403156794
 20
-147.8009697438657
 30
0.0
 10
108.8102403156794
 20
-147.8009697438657
 30
0.0
 10
108.8102403156794
 20
-147.8009697438657
 30
0.0
 10
108.6304063313493
 20
-147.8009697438657
 30
0.0
 10
108.6304063313493
 20
-147.8009697438657
 30
0.0
 10
108.6114583061805
 20
-147.860225386212
 30
0.0
 10
108.5649495171296
 20
-148.0061251800123
 30
0.0
 10
108.4505723470193
 20
-148.0886352168841
 30
0.0
 10
108.4505723470193
 20
-148.0886352168841
 30
0.0
 10
108.2941650119889
 20
-147.9828707854869
 30
0.0
 10
108.2941650119889
 20
-147.9828707854869
 30
0.0
 10
108.3682345649218
 20
-147.936361996436
 30
0.0
 10
108.4843342827747
 20
-147.8622924435032
 30
0.0
 10
108.4843342827747
 20
-147.5408650347293
 30
0.0
 10
108.4843342827747
 20
-147.4857435069653
 30
0.0
 10
108.4802001681924
 20
-147.4413017752056
 30
0.0
 10
108.4781331109013
 20
-147.4032334700936
 30
0.0
 10
108.5542697211253
 20
-147.4116739540325
 30
0.0
 10
108.6283392740582
 20
-147.4180473806802
 30
0.0
 10
108.6917290309868
 20
-147.4180473806802
 30
0.0
 10
108.8694959580257
 20
-147.4180473806802
 30
0.0
 10
109.0682779675246
 20
-147.3587917383339
 30
0.0
 10
109.129600667162
 20
-147.3291639171607
 30
0.0
 10
109.129600667162
 20
-147.3291639171607
 30
0.0
 10
109.2567246905677
 20
-147.4645561697311
 30
0.0
 10
109.2567246905677
 20
-147.4645561697311
 30
0.0
 10
109.26085880515
 20
-147.4688625390876
 30
0.0
 10
109.2629258624412
 20
-147.4773030230265
 30
0.0
 10
109.2629258624412
 20
-147.4836764496742
 30
0.0
 10
109.2629258624412
 20
-147.5048637869085
 30
0.0
 10
109.2481119518546
 20
-147.5112372135562
 30
0.0
 10
109.2312309839769
 20
-147.5112372135562
 30
0.0
 10
109.2102159015169
 20
-147.5112372135562
 30
0.0
 10
109.1954019909303
 20
-147.5027967296173
 30
0.0
 10
109.1761094562129
 20
-147.4921169336131
 30
0.0
 10
109.0028211533048
 20
-147.5493055186682
 30
0.0
 10
108.7847466090885
 20
-147.5746269704848
 30
0.0
 10
108.6514214138093
 20
-147.5766940277759
 30
0.0
 10
108.6514214138093
 20
-147.5766940277759
 30
0.0
 10
108.6472872992271
 20
-147.6592040646477
 30
0.0
 10
108.6472872992271
 20
-147.6592040646477
 30
0.0
 10
108.6472872992271
 20
-147.6592040646477
 30
0.0
 10
108.9201388616588
 20
-147.6592040646477
 30
0.0
 10
108.9201388616588
 20
-147.6592040646477
 30
0.0
 10
108.977327446714
 20
-147.6592040646477
 30
0.0
 10
109.23984372269
 20
-147.6402560394788
 30
0.0
 10
109.2842854544497
 20
-147.6338826128311
 30
0.0
 10
109.2842854544497
 20
-147.6338826128311
 30
0.0
 10
109.2842854544497
 20
-147.8030368011568
 30
0.0
 10
109.2842854544497
 20
-147.8030368011568
 30
0.0
 10
109.2501790091458
 20
-147.7989026865746
 30
0.0
 10
109.2374321558503
 20
-147.7968356292834
 30
0.0
 10
109.1592284883352
 20
-147.7968356292834
 30
0.0
  0
SPLINE
  5
103
330
F7
100
AcDbEntity
  8
レイヤー 1
100
AcDbSpline
210
0.0
220
0.0
230
1.0
 70
    11
 71
     3
 72
    17
 73
    13
 74
     0
 42
0.0000000001
 43
0.0000000001
 40
0.0
 40
0.0
 40
0.0
 40
0.0
 40
1.0
 40
1.0
 40
1.0
 40
2.0
 40
2.0
 40
2.0
 40
3.0
 40
3.0
 40
3.0
 40
4.0
 40
4.0
 40
4.0
 40
4.0
 10
108.8419351941437
 20
-148.7402750279191
 30
0.0
 10
108.8419351941437
 20
-148.7402750279191
 30
0.0
 10
107.9303629287466
 20
-148.7402750279191
 30
0.0
 10
107.9303629287466
 20
-148.7402750279191
 30
0.0
 10
107.9303629287466
 20
-148.7402750279191
 30
0.0
 10
107.9303629287466
 20
-148.8481065166074
 30
0.0
 10
107.9303629287466
 20
-148.8481065166074
 30
0.0
 10
107.9303629287466
 20
-148.8481065166074
 30
0.0
 10
108.8419351941437
 20
-148.8481065166074
 30
0.0
 10
108.8419351941437
 20
-148.8481065166074
 30
0.0
 10
108.8419351941437
 20
-148.8481065166074
 30
0.0
 10
108.8419351941437
 20
-148.7402750279191
 30
0.0
 10
108.8419351941437
 20
-148.7402750279191
 30
0.0
  0
SPLINE
  5
104
330
F7
100
AcDbEntity
  8
レイヤー 1
100
AcDbSpline
210
0.0
220
0.0
230
1.0
 70
    11
 71
     3
 72
    17
 73
    13
 74
     0
 42
0.0000000001
 43
0.0000000001
 40
0.0
 40
0.0
 40
0.0
 40
0.0
 40
1.0
 40
1.0
 40
1.0
 40
2.0
 40
2.0
 40
2.0
 40
3.0
 40
3.0
 40
3.0
 40
4.0
 40
4.0
 40
4.0
 40
4.0
 10
108.8419351941437
 20
-148.494811974595
 30
0.0
 10
108.8419351941437
 20
-148.494811974595
 30
0.0
 10
107.9303629287466
 20
-148.494811974595
 30
0.0
 10
107.9303629287466
 20
-148.494811974595
 30
0.0
 10
107.9303629287466
 20
-148.494811974595
 30
0.0
 10
107.9303629287466
 20
-148.6048827753488
 30
0.0
 10
107.9303629287466
 20
-148.6048827753488
 30
0.0
 10
107.9303629287466
 20
-148.6048827753488
 30
0.0
 10
108.8419351941437
 20
-148.6048827753488
 30
0.0
 10
108.8419351941437
 20
-148.6048827753488
 30
0.0
 10
108.8419351941437
 20
-148.6048827753488
 30
0.0
 10
108.8419351941437
 20
-148.494811974595
 30
0.0
 10
108.8419351941437
 20
-148.494811974595
 30
0.0
  0
SPLINE
  5
105
330
F7
100
AcDbEntity
  8
レイヤー 1
100
AcDbSpline
210
0.0
220
0.0
230
1.0
 70
    11
 71
     3
 72
    17
 73
    13
 74
     0
 42
0.0000000001
 43
0.0000000001
 40
0.0
 40
0.0
 40
0.0
 40
0.0
 40
1.0
 40
1.0
 40
1.0
 40
2.0
 40
2.0
 40
2.0
 40
3.0
 40
3.0
 40
3.0
 40
4.0
 40
4.0
 40
4.0
 40
4.0
 10
108.8419351941437
 20
-148.2495211760453
 30
0.0
 10
108.8419351941437
 20
-148.2495211760453
 30
0.0
 10
107.9303629287466
 20
-148.2495211760453
 30
0.0
 10
107.9303629287466
 20
-148.2495211760453
 30
0.0
 10
107.9303629287466
 20
-148.2495211760453
 30
0.0
 10
107.9303629287466
 20
-148.3616590340901
 30
0.0
 10
107.9303629287466
 20
-148.3616590340901
 30
0.0
 10
107.9303629287466
 20
-148.3616590340901
 30
0.0
 10
108.8419351941437
 20
-148.3616590340901
 30
0.0
 10
108.8419351941437
 20
-148.3616590340901
 30
0.0
 10
108.8419351941437
 20
-148.3616590340901
 30
0.0
 10
108.8419351941437
 20
-148.2495211760453
 30
0.0
 10
108.8419351941437
 20
-148.2495211760453
 30
0.0
  0
SPLINE
  5
106
330
F7
100
AcDbEntity
  8
レイヤー 1
100
AcDbSpline
210
0.0
220
0.0
230
1.0
 70
     9
 71
     3
 72
    74
 73
    70
 74
     0
 42
0.0000000001
 43
0.0000000001
 40
0.0
 40
0.0
 40
0.0
 40
0.0
 40
1.0
 40
1.0
 40
1.0
 40
2.0
 40
2.0
 40
2.0
 40
3.0
 40
3.0
 40
3.0
 40
4.0
 40
4.0
 40
4.0
 40
5.0
 40
5.0
 40
5.0
 40
6.0
 40
6.0
 40
6.0
 40
7.0
 40
7.0
 40
7.0
 40
8.0
 40
8.0
 40
8.0
 40
9.0
 40
9.0
 40
9.0
 40
10.0
 40
10.0
 40
10.0
 40
11.0
 40
11.0
 40
11.0
 40
12.0
 40
12.0
 40
12.0
 40
13.0
 40
13.0
 40
13.0
 40
14.0
 40
14.0
 40
14.0
 40
15.0
 40
15.0
 40
15.0
 40
16.0
 40
16.0
 40
16.0
 40
17.0
 40
17.0
 40
17.0
 40
18.0
 40
18.0
 40
18.0
 40
19.0
 40
19.0
 40
19.0
 40
20.0
 40
20.0
 40
20.0
 40
21.0
 40
21.0
 40
21.0
 40
22.0
 40
22.0
 40
22.0
 40
23.0
 40
23.0
 40
23.0
 40
23.0
 10
109.1464816350397
 20
-149.2839110954915
 30
0.0
 10
108.9328857149542
 20
-149.2732312994872
 30
0.0
 10
108.7320366481642
 20
-149.1864148932589
 30
0.0
 10
108.5563367784164
 20
-149.0658365512752
 30
0.0
 10
108.5563367784164
 20
-149.0658365512752
 30
0.0
 10
108.653832980649
 20
-148.9793646545954
 30
0.0
 10
108.653832980649
 20
-148.9793646545954
 30
0.0
 10
108.653832980649
 20
-148.9793646545954
 30
0.0
 10
108.1015841743635
 20
-148.9793646545954
 30
0.0
 10
108.1015841743635
 20
-148.9793646545954
 30
0.0
 10
108.1015841743635
 20
-148.9793646545954
 30
0.0
 10
108.1818548991698
 20
-149.042754411524
 30
0.0
 10
108.1818548991698
 20
-149.042754411524
 30
0.0
 10
108.1884005805918
 20
-149.0468885261063
 30
0.0
 10
108.1987358670475
 20
-149.0575683221106
 30
0.0
 10
108.1987358670475
 20
-149.0723822326972
 30
0.0
 10
108.1987358670475
 20
-149.1126898498746
 30
0.0
 10
108.1246663141147
 20
-149.1061441684526
 30
0.0
 10
108.1098524035281
 20
-149.1040771111615
 30
0.0
 10
107.8793755155649
 20
-149.2436034783141
 30
0.0
 10
107.7357150338299
 20
-149.2752983567784
 30
0.0
 10
107.6320176597239
 20
-149.2921793246561
 30
0.0
 10
107.6320176597239
 20
-149.2921793246561
 30
0.0
 10
107.502826579027
 20
-149.1147569071658
 30
0.0
 10
107.502826579027
 20
-149.1147569071658
 30
0.0
 10
107.7505289444165
 20
-149.0830620287014
 30
0.0
 10
107.8518147516829
 20
-149.036208730102
 30
0.0
 10
107.9406982152023
 20
-148.9834987691777
 30
0.0
 10
107.8666286622694
 20
-148.9855658264689
 30
0.0
 10
107.7525960017077
 20
-148.98763288376
 30
0.0
 10
107.7209011232434
 20
-148.9896999410512
 30
0.0
 10
107.7357150338299
 20
-148.9008164775317
 30
0.0
 10
107.7377820911211
 20
-148.7719699063834
 30
0.0
 10
107.7377820911211
 20
-148.6979003534505
 30
0.0
 10
107.7377820911211
 20
-148.6979003534505
 30
0.0
 10
107.7377820911211
 20
-148.397660281911
 30
0.0
 10
107.7377820911211
 20
-148.397660281911
 30
0.0
 10
107.7377820911211
 20
-148.2980970223873
 30
0.0
 10
107.7312364096991
 20
-148.1987060176378
 30
0.0
 10
107.7209011232434
 20
-148.1013820701795
 30
0.0
 10
107.8221869305097
 20
-148.1077554968272
 30
0.0
 10
108.0530083280214
 20
-148.1141289234749
 30
0.0
 10
108.1608398167098
 20
-148.1141289234749
 30
0.0
 10
108.1608398167098
 20
-148.1141289234749
 30
0.0
 10
108.5838975422984
 20
-148.1141289234749
 30
0.0
 10
108.5838975422984
 20
-148.1141289234749
 30
0.0
 10
108.702408826991
 20
-148.1141289234749
 30
0.0
 10
108.7447835014596
 20
-148.1141289234749
 30
0.0
 10
108.8271212835571
 20
-148.1098225541184
 30
0.0
 10
108.9752603894228
 20
-148.1034491274706
 30
0.0
 10
108.9921413573005
 20
-148.1034491274706
 30
0.0
 10
109.0386501463514
 20
-148.1013820701795
 30
0.0
 10
109.0303819171868
 20
-148.1818250497601
 30
0.0
 10
109.025903293056
 20
-148.3404716968558
 30
0.0
 10
109.025903293056
 20
-148.4229817337276
 30
0.0
 10
109.025903293056
 20
-148.4229817337276
 30
0.0
 10
109.025903293056
 20
-148.7085801494548
 30
0.0
 10
109.025903293056
 20
-148.7085801494548
 30
0.0
 10
109.025903293056
 20
-148.7804103903222
 30
0.0
 10
109.0279703503471
 20
-148.911496273536
 30
0.0
 10
109.0386501463514
 20
-148.9896999410512
 30
0.0
 10
108.9666476507097
 20
-148.9855658264689
 30
0.0
 10
108.8440022514348
 20
-148.9834987691777
 30
0.0
 10
108.7657985839196
 20
-148.9814317118866
 30
0.0
 10
108.8756971298991
 20
-149.0489555833975
 30
0.0
 10
109.0279703503471
 20
-149.0999429965792
 30
0.0
 10
109.23984372269
 20
-149.1040771111615
 30
0.0
 10
109.23984372269
 20
-149.1040771111615
 30
0.0
 10
109.1464816350397
 20
-149.2839110954915
 30
0.0
 10
109.1464816350397
 20
-149.2839110954915
 30
0.0
  0
SPLINE
  5
107
330
F7
100
AcDbEntity
  8
レイヤー 1
100
AcDbSpline
210
0.0
220
0.0
230
1.0
 70
    11
 71
     3
 72
    71
 73
    67
 74
     0
 42
0.0000000001
 43
0.0000000001
 40
0.0
 40
0.0
 40
0.0
 40
0.0
 40
1.0
 40
1.0
 40
1.0
 40
2.0
 40
2.0
 40
2.0
 40
3.0
 40
3.0
 40
3.0
 40
4.0
 40
4.0
 40
4.0
 40
5.0
 40
5.0
 40
5.0
 40
6.0
 40
6.0
 40
6.0
 40
7.0
 40
7.0
 40
7.0
 40
8.0
 40
8.0
 40
8.0
 40
9.0
 40
9.0
 40
9.0
 40
10.0
 40
10.0
 40
10.0
 40
11.0
 40
11.0
 40
11.0
 40
12.0
 40
12.0
 40
12.0
 40
13.0
 40
13.0
 40
13.0
 40
14.0
 40
14.0
 40
14.0
 40
15.0
 40
15.0
 40
15.0
 40
16.0
 40
16.0
 40
16.0
 40
17.0
 40
17.0
 40
17.0
 40
18.0
 40
18.0
 40
18.0
 40
19.0
 40
19.0
 40
19.0
 40
20.0
 40
20.0
 40
20.0
 40
21.0
 40
21.0
 40
21.0
 40
22.0
 40
22.0
 40
22.0
 40
22.0
 10
108.3089789225755
 20
-147.5174383854296
 30
0.0
 10
108.2941650119889
 20
-147.5174383854296
 30
0.0
 10
108.2814181586935
 20
-147.5133042708474
 30
0.0
 10
108.2559244521027
 20
-147.5048637869085
 30
0.0
 10
108.1143310276589
 20
-147.5513725759594
 30
0.0
 10
107.9406982152023
 20
-147.5682535438371
 30
0.0
 10
107.8011718480497
 20
-147.5725599131937
 30
0.0
 10
107.8011718480497
 20
-147.5725599131937
 30
0.0
 10
107.7991047907585
 20
-147.6614433767131
 30
0.0
 10
107.7991047907585
 20
-147.6614433767131
 30
0.0
 10
107.7991047907585
 20
-147.6614433767131
 30
0.0
 10
108.0592094998949
 20
-147.6614433767131
 30
0.0
 10
108.0592094998949
 20
-147.6614433767131
 30
0.0
 10
108.1122639703677
 20
-147.6614433767131
 30
0.0
 10
108.2941650119889
 20
-147.652830638
 30
0.0
 10
108.3386067437487
 20
-147.6466294661265
 30
0.0
 10
108.3386067437487
 20
-147.6466294661265
 30
0.0
 10
108.3386067437487
 20
-147.8073431705134
 30
0.0
 10
108.3386067437487
 20
-147.8073431705134
 30
0.0
 10
108.2834852159846
 20
-147.8009697438657
 30
0.0
 10
108.1587727594186
 20
-147.7989026865746
 30
0.0
 10
108.1205321995323
 20
-147.8009697438657
 30
0.0
 10
108.1205321995323
 20
-147.8009697438657
 30
0.0
 10
108.1205321995323
 20
-147.9110405446195
 30
0.0
 10
108.1205321995323
 20
-147.9110405446195
 30
0.0
 10
108.1205321995323
 20
-147.9575493336703
 30
0.0
 10
108.1225992568235
 20
-148.0209390905989
 30
0.0
 10
108.1291449382455
 20
-148.0590073957109
 30
0.0
 10
108.1291449382455
 20
-148.0590073957109
 30
0.0
 10
107.93656410062
 20
-148.0590073957109
 30
0.0
 10
107.93656410062
 20
-148.0590073957109
 30
0.0
 10
107.9427652724934
 20
-148.0188720333078
 30
0.0
 10
107.9493109539154
 20
-147.936361996436
 30
0.0
 10
107.9493109539154
 20
-147.9215480858495
 30
0.0
 10
107.9493109539154
 20
-147.9215480858495
 30
0.0
 10
107.9493109539154
 20
-147.8009697438657
 30
0.0
 10
107.9493109539154
 20
-147.8009697438657
 30
0.0
 10
107.9493109539154
 20
-147.8009697438657
 30
0.0
 10
107.784290880172
 20
-147.8009697438657
 30
0.0
 10
107.784290880172
 20
-147.8009697438657
 30
0.0
 10
107.7419162057034
 20
-148.0209390905989
 30
0.0
 10
107.6867946779394
 20
-148.1013820701795
 30
0.0
 10
107.5810302465422
 20
-148.2007730749289
 30
0.0
 10
107.5810302465422
 20
-148.2007730749289
 30
0.0
 10
107.4139431155076
 20
-148.0865681595929
 30
0.0
 10
107.4139431155076
 20
-148.0865681595929
 30
0.0
 10
107.4773328724362
 20
-148.0379923132509
 30
0.0
 10
107.6275390355931
 20
-147.925854455206
 30
0.0
 10
107.6275390355931
 20
-147.5766940277759
 30
0.0
 10
107.6275390355931
 20
-147.4941839909042
 30
0.0
 10
107.6192708064285
 20
-147.4476752018533
 30
0.0
 10
107.6106580677154
 20
-147.3990993555113
 30
0.0
 10
107.75673011629
 20
-147.4139132660979
 30
0.0
 10
107.7715440268765
 20
-147.4139132660979
 30
0.0
 10
107.8073730199231
 20
-147.4139132660979
 30
0.0
 10
107.91554901816
 20
-147.4139132660979
 30
0.0
 10
108.0571424426038
 20
-147.3968600434459
 30
0.0
 10
108.2180284017649
 20
-147.3355373438085
 30
0.0
 10
108.2180284017649
 20
-147.3355373438085
 30
0.0
 10
108.3320610623267
 20
-147.4667954817965
 30
0.0
 10
108.3320610623267
 20
-147.4667954817965
 30
0.0
 10
108.3386067437487
 20
-147.4731689084442
 30
0.0
 10
108.3427408583309
 20
-147.481609392383
 30
0.0
 10
108.3427408583309
 20
-147.4900498763219
 30
0.0
 10
108.3427408583309
 20
-147.5133042708474
 30
0.0
 10
108.3237928331621
 20
-147.5174383854296
 30
0.0
 10
108.3089789225755
 20
-147.5174383854296
 30
0.0
  0
HATCH
  5
108
330
F7
100
AcDbEntity
  8
レイヤー 1
 62
   250
420
  2299925
440
 33554687
100
AcDbHatch
 10
0.0
 20
0.0
 30
0.0
210
0.0
220
0.0
230
1.0
  2
SOLID
 70
     1
 71
     1
 91
        6
 92
        1
 93
        1
 72
     4
 94
        3
 73
     0
 74
     0
 95
       74
 96
       70
 40
0.0
 40
0.0
 40
0.0
 40
0.0
 40
1.0
 40
1.0
 40
1.0
 40
2.0
 40
2.0
 40
2.0
 40
3.0
 40
3.0
 40
3.0
 40
4.0
 40
4.0
 40
4.0
 40
5.0
 40
5.0
 40
5.0
 40
6.0
 40
6.0
 40
6.0
 40
7.0
 40
7.0
 40
7.0
 40
8.0
 40
8.0
 40
8.0
 40
9.0
 40
9.0
 40
9.0
 40
10.0
 40
10.0
 40
10.0
 40
11.0
 40
11.0
 40
11.0
 40
12.0
 40
12.0
 40
12.0
 40
13.0
 40
13.0
 40
13.0
 40
14.0
 40
14.0
 40
14.0
 40
15.0
 40
15.0
 40
15.0
 40
16.0
 40
16.0
 40
16.0
 40
17.0
 40
17.0
 40
17.0
 40
18.0
 40
18.0
 40
18.0
 40
19.0
 40
19.0
 40
19.0
 40
20.0
 40
20.0
 40
20.0
 40
21.0
 40
21.0
 40
21.0
 40
22.0
 40
22.0
 40
22.0
 40
23.0
 40
23.0
 40
23.0
 40
23.0
 10
109.1592284883352
 20
-147.7968356292834
 10
109.1592284883352
 20
-147.7968356292834
 10
108.9986870387225
 20
-147.7968356292834
 10
108.9986870387225
 20
-147.7968356292834
 10
108.9986870387225
 20
-147.7968356292834
 10
108.9986870387225
 20
-147.9110405446195
 10
108.9986870387225
 20
-147.9110405446195
 10
108.9986870387225
 20
-147.9511759070226
 10
109.004888210596
 20
-148.0252454599555
 10
109.0090223251783
 20
-148.0505669117721
 10
109.0090223251783
 20
-148.0505669117721
 10
108.7974934623839
 20
-148.0505669117721
 10
108.7974934623839
 20
-148.0505669117721
 10
108.8081732583882
 20
-147.9851100975523
 10
108.8102403156794
 20
-147.925854455206
 10
108.8102403156794
 20
-147.9236151431406
 10
108.8102403156794
 20
-147.9236151431406
 10
108.8102403156794
 20
-147.8009697438657
 10
108.8102403156794
 20
-147.8009697438657
 10
108.8102403156794
 20
-147.8009697438657
 10
108.6304063313493
 20
-147.8009697438657
 10
108.6304063313493
 20
-147.8009697438657
 10
108.6114583061805
 20
-147.860225386212
 10
108.5649495171296
 20
-148.0061251800123
 10
108.4505723470193
 20
-148.0886352168841
 10
108.4505723470193
 20
-148.0886352168841
 10
108.2941650119889
 20
-147.9828707854869
 10
108.2941650119889
 20
-147.9828707854869
 10
108.3682345649218
 20
-147.936361996436
 10
108.4843342827747
 20
-147.8622924435032
 10
108.4843342827747
 20
-147.5408650347293
 10
108.4843342827747
 20
-147.4857435069653
 10
108.4802001681924
 20
-147.4413017752056
 10
108.4781331109013
 20
-147.4032334700936
 10
108.5542697211253
 20
-147.4116739540325
 10
108.6283392740582
 20
-147.4180473806802
 10
108.6917290309868
 20
-147.4180473806802
 10
108.8694959580257
 20
-147.4180473806802
 10
109.0682779675246
 20
-147.3587917383339
 10
109.129600667162
 20
-147.3291639171607
 10
109.129600667162
 20
-147.3291639171607
 10
109.2567246905677
 20
-147.4645561697311
 10
109.2567246905677
 20
-147.4645561697311
 10
109.26085880515
 20
-147.4688625390876
 10
109.2629258624412
 20
-147.4773030230265
 10
109.2629258624412
 20
-147.4836764496742
 10
109.2629258624412
 20
-147.5048637869085
 10
109.2481119518546
 20
-147.5112372135562
 10
109.2312309839769
 20
-147.5112372135562
 10
109.2102159015169
 20
-147.5112372135562
 10
109.1954019909303
 20
-147.5027967296173
 10
109.1761094562129
 20
-147.4921169336131
 10
109.0028211533048
 20
-147.5493055186682
 10
108.7847466090885
 20
-147.5746269704848
 10
108.6514214138093
 20
-147.5766940277759
 10
108.6514214138093
 20
-147.5766940277759
 10
108.6472872992271
 20
-147.6592040646477
 10
108.6472872992271
 20
-147.6592040646477
 10
108.6472872992271
 20
-147.6592040646477
 10
108.9201388616588
 20
-147.6592040646477
 10
108.9201388616588
 20
-147.6592040646477
 10
108.977327446714
 20
-147.6592040646477
 10
109.23984372269
 20
-147.6402560394788
 10
109.2842854544497
 20
-147.6338826128311
 10
109.2842854544497
 20
-147.6338826128311
 10
109.2842854544497
 20
-147.8030368011568
 10
109.2842854544497
 20
-147.8030368011568
 10
109.2501790091458
 20
-147.7989026865746
 10
109.2374321558503
 20
-147.7968356292834
 10
109.1592284883352
 20
-147.7968356292834
 97
        0
 97
        1
330
102
 92
        1
 93
        1
 72
     4
 94
        3
 73
     0
 74
     0
 95
       17
 96
       13
 40
0.0
 40
0.0
 40
0.0
 40
0.0
 40
1.0
 40
1.0
 40
1.0
 40
2.0
 40
2.0
 40
2.0
 40
3.0
 40
3.0
 40
3.0
 40
4.0
 40
4.0
 40
4.0
 40
4.0
 10
108.8419351941437
 20
-148.7402750279191
 10
108.8419351941437
 20
-148.7402750279191
 10
107.9303629287466
 20
-148.7402750279191
 10
107.9303629287466
 20
-148.7402750279191
 10
107.9303629287466
 20
-148.7402750279191
 10
107.9303629287466
 20
-148.8481065166074
 10
107.9303629287466
 20
-148.8481065166074
 10
107.9303629287466
 20
-148.8481065166074
 10
108.8419351941437
 20
-148.8481065166074
 10
108.8419351941437
 20
-148.8481065166074
 10
108.8419351941437
 20
-148.8481065166074
 10
108.8419351941437
 20
-148.7402750279191
 10
108.8419351941437
 20
-148.7402750279191
 97
        0
 97
        1
330
103
 92
        1
 93
        1
 72
     4
 94
        3
 73
     0
 74
     0
 95
       17
 96
       13
 40
0.0
 40
0.0
 40
0.0
 40
0.0
 40
1.0
 40
1.0
 40
1.0
 40
2.0
 40
2.0
 40
2.0
 40
3.0
 40
3.0
 40
3.0
 40
4.0
 40
4.0
 40
4.0
 40
4.0
 10
108.8419351941437
 20
-148.494811974595
 10
108.8419351941437
 20
-148.494811974595
 10
107.9303629287466
 20
-148.494811974595
 10
107.9303629287466
 20
-148.494811974595
 10
107.9303629287466
 20
-148.494811974595
 10
107.9303629287466
 20
-148.6048827753488
 10
107.9303629287466
 20
-148.6048827753488
 10
107.9303629287466
 20
-148.6048827753488
 10
108.8419351941437
 20
-148.6048827753488
 10
108.8419351941437
 20
-148.6048827753488
 10
108.8419351941437
 20
-148.6048827753488
 10
108.8419351941437
 20
-148.494811974595
 10
108.8419351941437
 20
-148.494811974595
 97
        0
 97
        1
330
104
 92
        1
 93
        1
 72
     4
 94
        3
 73
     0
 74
     0
 95
       17
 96
       13
 40
0.0
 40
0.0
 40
0.0
 40
0.0
 40
1.0
 40
1.0
 40
1.0
 40
2.0
 40
2.0
 40
2.0
 40
3.0
 40
3.0
 40
3.0
 40
4.0
 40
4.0
 40
4.0
 40
4.0
 10
108.8419351941437
 20
-148.2495211760453
 10
108.8419351941437
 20
-148.2495211760453
 10
107.9303629287466
 20
-148.2495211760453
 10
107.9303629287466
 20
-148.2495211760453
 10
107.9303629287466
 20
-148.2495211760453
 10
107.9303629287466
 20
-148.3616590340901
 10
107.9303629287466
 20
-148.3616590340901
 10
107.9303629287466
 20
-148.3616590340901
 10
108.8419351941437
 20
-148.3616590340901
 10
108.8419351941437
 20
-148.3616590340901
 10
108.8419351941437
 20
-148.3616590340901
 10
108.8419351941437
 20
-148.2495211760453
 10
108.8419351941437
 20
-148.2495211760453
 97
        0
 97
        1
330
105
 92
        1
 93
        1
 72
     4
 94
        3
 73
     0
 74
     0
 95
       74
 96
       70
 40
0.0
 40
0.0
 40
0.0
 40
0.0
 40
1.0
 40
1.0
 40
1.0
 40
2.0
 40
2.0
 40
2.0
 40
3.0
 40
3.0
 40
3.0
 40
4.0
 40
4.0
 40
4.0
 40
5.0
 40
5.0
 40
5.0
 40
6.0
 40
6.0
 40
6.0
 40
7.0
 40
7.0
 40
7.0
 40
8.0
 40
8.0
 40
8.0
 40
9.0
 40
9.0
 40
9.0
 40
10.0
 40
10.0
 40
10.0
 40
11.0
 40
11.0
 40
11.0
 40
12.0
 40
12.0
 40
12.0
 40
13.0
 40
13.0
 40
13.0
 40
14.0
 40
14.0
 40
14.0
 40
15.0
 40
15.0
 40
15.0
 40
16.0
 40
16.0
 40
16.0
 40
17.0
 40
17.0
 40
17.0
 40
18.0
 40
18.0
 40
18.0
 40
19.0
 40
19.0
 40
19.0
 40
20.0
 40
20.0
 40
20.0
 40
21.0
 40
21.0
 40
21.0
 40
22.0
 40
22.0
 40
22.0
 40
23.0
 40
23.0
 40
23.0
 40
23.0
 10
109.1464816350397
 20
-149.2839110954915
 10
108.9328857149542
 20
-149.2732312994872
 10
108.7320366481642
 20
-149.1864148932589
 10
108.5563367784164
 20
-149.0658365512752
 10
108.5563367784164
 20
-149.0658365512752
 10
108.653832980649
 20
-148.9793646545954
 10
108.653832980649
 20
-148.9793646545954
 10
108.653832980649
 20
-148.9793646545954
 10
108.1015841743635
 20
-148.9793646545954
 10
108.1015841743635
 20
-148.9793646545954
 10
108.1015841743635
 20
-148.9793646545954
 10
108.1818548991698
 20
-149.042754411524
 10
108.1818548991698
 20
-149.042754411524
 10
108.1884005805918
 20
-149.0468885261063
 10
108.1987358670475
 20
-149.0575683221106
 10
108.1987358670475
 20
-149.0723822326972
 10
108.1987358670475
 20
-149.1126898498746
 10
108.1246663141147
 20
-149.1061441684526
 10
108.1098524035281
 20
-149.1040771111615
 10
107.8793755155649
 20
-149.2436034783141
 10
107.7357150338299
 20
-149.2752983567784
 10
107.6320176597239
 20
-149.2921793246561
 10
107.6320176597239
 20
-149.2921793246561
 10
107.502826579027
 20
-149.1147569071658
 10
107.502826579027
 20
-149.1147569071658
 10
107.7505289444165
 20
-149.0830620287014
 10
107.8518147516829
 20
-149.036208730102
 10
107.9406982152023
 20
-148.9834987691777
 10
107.8666286622694
 20
-148.9855658264689
 10
107.7525960017077
 20
-148.98763288376
 10
107.7209011232434
 20
-148.9896999410512
 10
107.7357150338299
 20
-148.9008164775317
 10
107.7377820911211
 20
-148.7719699063834
 10
107.7377820911211
 20
-148.6979003534505
 10
107.7377820911211
 20
-148.6979003534505
 10
107.7377820911211
 20
-148.397660281911
 10
107.7377820911211
 20
-148.397660281911
 10
107.7377820911211
 20
-148.2980970223873
 10
107.7312364096991
 20
-148.1987060176378
 10
107.7209011232434
 20
-148.1013820701795
 10
107.8221869305097
 20
-148.1077554968272
 10
108.0530083280214
 20
-148.1141289234749
 10
108.1608398167098
 20
-148.1141289234749
 10
108.1608398167098
 20
-148.1141289234749
 10
108.5838975422984
 20
-148.1141289234749
 10
108.5838975422984
 20
-148.1141289234749
 10
108.702408826991
 20
-148.1141289234749
 10
108.7447835014596
 20
-148.1141289234749
 10
108.8271212835571
 20
-148.1098225541184
 10
108.9752603894228
 20
-148.1034491274706
 10
108.9921413573005
 20
-148.1034491274706
 10
109.0386501463514
 20
-148.1013820701795
 10
109.0303819171868
 20
-148.1818250497601
 10
109.025903293056
 20
-148.3404716968558
 10
109.025903293056
 20
-148.4229817337276
 10
109.025903293056
 20
-148.4229817337276
 10
109.025903293056
 20
-148.7085801494548
 10
109.025903293056
 20
-148.7085801494548
 10
109.025903293056
 20
-148.7804103903222
 10
109.0279703503471
 20
-148.911496273536
 10
109.0386501463514
 20
-148.9896999410512
 10
108.9666476507097
 20
-148.9855658264689
 10
108.8440022514348
 20
-148.9834987691777
 10
108.7657985839196
 20
-148.9814317118866
 10
108.8756971298991
 20
-149.0489555833975
 10
109.0279703503471
 20
-149.0999429965792
 10
109.23984372269
 20
-149.1040771111615
 10
109.23984372269
 20
-149.1040771111615
 10
109.1464816350397
 20
-149.2839110954915
 10
109.1464816350397
 20
-149.2839110954915
 97
        0
 97
        1
330
106
 92
        1
 93
        1
 72
     4
 94
        3
 73
     0
 74
     0
 95
       71
 96
       67
 40
0.0
 40
0.0
 40
0.0
 40
0.0
 40
1.0
 40
1.0
 40
1.0
 40
2.0
 40
2.0
 40
2.0
 40
3.0
 40
3.0
 40
3.0
 40
4.0
 40
4.0
 40
4.0
 40
5.0
 40
5.0
 40
5.0
 40
6.0
 40
6.0
 40
6.0
 40
7.0
 40
7.0
 40
7.0
 40
8.0
 40
8.0
 40
8.0
 40
9.0
 40
9.0
 40
9.0
 40
10.0
 40
10.0
 40
10.0
 40
11.0
 40
11.0
 40
11.0
 40
12.0
 40
12.0
 40
12.0
 40
13.0
 40
13.0
 40
13.0
 40
14.0
 40
14.0
 40
14.0
 40
15.0
 40
15.0
 40
15.0
 40
16.0
 40
16.0
 40
16.0
 40
17.0
 40
17.0
 40
17.0
 40
18.0
 40
18.0
 40
18.0
 40
19.0
 40
19.0
 40
19.0
 40
20.0
 40
20.0
 40
20.0
 40
21.0
 40
21.0
 40
21.0
 40
22.0
 40
22.0
 40
22.0
 40
22.0
 10
108.3089789225755
 20
-147.5174383854296
 10
108.2941650119889
 20
-147.5174383854296
 10
108.2814181586935
 20
-147.5133042708474
 10
108.2559244521027
 20
-147.5048637869085
 10
108.1143310276589
 20
-147.5513725759594
 10
107.9406982152023
 20
-147.5682535438371
 10
107.8011718480497
 20
-147.5725599131937
 10
107.8011718480497
 20
-147.5725599131937
 10
107.7991047907585
 20
-147.6614433767131
 10
107.7991047907585
 20
-147.6614433767131
 10
107.7991047907585
 20
-147.6614433767131
 10
108.0592094998949
 20
-147.6614433767131
 10
108.0592094998949
 20
-147.6614433767131
 10
108.1122639703677
 20
-147.6614433767131
 10
108.2941650119889
 20
-147.652830638
 10
108.3386067437487
 20
-147.6466294661265
 10
108.3386067437487
 20
-147.6466294661265
 10
108.3386067437487
 20
-147.8073431705134
 10
108.3386067437487
 20
-147.8073431705134
 10
108.2834852159846
 20
-147.8009697438657
 10
108.1587727594186
 20
-147.7989026865746
 10
108.1205321995323
 20
-147.8009697438657
 10
108.1205321995323
 20
-147.8009697438657
 10
108.1205321995323
 20
-147.9110405446195
 10
108.1205321995323
 20
-147.9110405446195
 10
108.1205321995323
 20
-147.9575493336703
 10
108.1225992568235
 20
-148.0209390905989
 10
108.1291449382455
 20
-148.0590073957109
 10
108.1291449382455
 20
-148.0590073957109
 10
107.93656410062
 20
-148.0590073957109
 10
107.93656410062
 20
-148.0590073957109
 10
107.9427652724934
 20
-148.0188720333078
 10
107.9493109539154
 20
-147.936361996436
 10
107.9493109539154
 20
-147.9215480858495
 10
107.9493109539154
 20
-147.9215480858495
 10
107.9493109539154
 20
-147.8009697438657
 10
107.9493109539154
 20
-147.8009697438657
 10
107.9493109539154
 20
-147.8009697438657
 10
107.784290880172
 20
-147.8009697438657
 10
107.784290880172
 20
-147.8009697438657
 10
107.7419162057034
 20
-148.0209390905989
 10
107.6867946779394
 20
-148.1013820701795
 10
107.5810302465422
 20
-148.2007730749289
 10
107.5810302465422
 20
-148.2007730749289
 10
107.4139431155076
 20
-148.0865681595929
 10
107.4139431155076
 20
-148.0865681595929
 10
107.4773328724362
 20
-148.0379923132509
 10
107.6275390355931
 20
-147.925854455206
 10
107.6275390355931
 20
-147.5766940277759
 10
107.6275390355931
 20
-147.4941839909042
 10
107.6192708064285
 20
-147.4476752018533
 10
107.6106580677154
 20
-147.3990993555113
 10
107.75673011629
 20
-147.4139132660979
 10
107.7715440268765
 20
-147.4139132660979
 10
107.8073730199231
 20
-147.4139132660979
 10
107.91554901816
 20
-147.4139132660979
 10
108.0571424426038
 20
-147.3968600434459
 10
108.2180284017649
 20
-147.3355373438085
 10
108.2180284017649
 20
-147.3355373438085
 10
108.3320610623267
 20
-147.4667954817965
 10
108.3320610623267
 20
-147.4667954817965
 10
108.3386067437487
 20
-147.4731689084442
 10
108.3427408583309
 20
-147.481609392383
 10
108.3427408583309
 20
-147.4900498763219
 10
108.3427408583309
 20
-147.5133042708474
 10
108.3237928331621
 20
-147.5174383854296
 10
108.3089789225755
 20
-147.5174383854296
 97
        0
 97
        1
330
107
 75
     2
 76
     1
 98
        1
 10
0.0
 20
0.0
450
        0
451
        0
460
0.0
461
0.0
452
        0
462
0.0
453
        0
470

  0
SPLINE
  5
109
330
F7
100
AcDbEntity
  8
レイヤー 1
100
AcDbSpline
210
0.0
220
0.0
230
1.0
 70
     9
 71
     3
 72
    53
 73
    49
 74
     0
 42
0.0000000001
 43
0.0000000001
 40
0.0
 40
0.0
 40
0.0
 40
0.0
 40
1.0
 40
1.0
 40
1.0
 40
2.0
 40
2.0
 40
2.0
 40
3.0
 40
3.0
 40
3.0
 40
4.0
 40
4.0
 40
4.0
 40
5.0
 40
5.0
 40
5.0
 40
6.0
 40
6.0
 40
6.0
 40
7.0
 40
7.0
 40
7.0
 40
8.0
 40
8.0
 40
8.0
 40
9.0
 40
9.0
 40
9.0
 40
10.0
 40
10.0
 40
10.0
 40
11.0
 40
11.0
 40
11.0
 40
12.0
 40
12.0
 40
12.0
 40
13.0
 40
13.0
 40
13.0
 40
14.0
 40
14.0
 40
14.0
 40
15.0
 40
15.0
 40
15.0
 40
16.0
 40
16.0
 40
16.0
 40
16.0
 10
109.9081922468285
 20
-149.1591986389255
 30
0.0
 10
109.7180229760427
 20
-149.1591986389255
 30
0.0
 10
109.6587673336964
 20
-149.0341416728109
 30
0.0
 10
109.6587673336964
 20
-148.8860025669452
 30
0.0
 10
109.6587673336964
 20
-148.8860025669452
 30
0.0
 10
109.6587673336964
 20
-148.1923325909901
 30
0.0
 10
109.6587673336964
 20
-148.1923325909901
 30
0.0
 10
109.6587673336964
 20
-148.1923325909901
 30
0.0
 10
109.4768662920752
 20
-148.1923325909901
 30
0.0
 10
109.4768662920752
 20
-148.1923325909901
 30
0.0
 10
109.4768662920752
 20
-148.1923325909901
 30
0.0
 10
109.4768662920752
 20
-147.9999240081389
 30
0.0
 10
109.4768662920752
 20
-147.9999240081389
 30
0.0
 10
109.4768662920752
 20
-147.9999240081389
 30
0.0
 10
109.6587673336964
 20
-147.9999240081389
 30
0.0
 10
109.6587673336964
 20
-147.9999240081389
 30
0.0
 10
109.6587673336964
 20
-147.9999240081389
 30
0.0
 10
109.6587673336964
 20
-147.6846977712385
 30
0.0
 10
109.6587673336964
 20
-147.6846977712385
 30
0.0
 10
109.6587673336964
 20
-147.6846977712385
 30
0.0
 10
109.8764973683642
 20
-147.6846977712385
 30
0.0
 10
109.8764973683642
 20
-147.6846977712385
 30
0.0
 10
109.8764973683642
 20
-147.6846977712385
 30
0.0
 10
109.8764973683642
 20
-147.9999240081389
 30
0.0
 10
109.8764973683642
 20
-147.9999240081389
 30
0.0
 10
109.8764973683642
 20
-147.9999240081389
 30
0.0
 10
110.0670111486985
 20
-147.9999240081389
 30
0.0
 10
110.0670111486985
 20
-147.9999240081389
 30
0.0
 10
110.0670111486985
 20
-147.9999240081389
 30
0.0
 10
110.0670111486985
 20
-148.1923325909901
 30
0.0
 10
110.0670111486985
 20
-148.1923325909901
 30
0.0
 10
110.0670111486985
 20
-148.1923325909901
 30
0.0
 10
109.8764973683642
 20
-148.1923325909901
 30
0.0
 10
109.8764973683642
 20
-148.1923325909901
 30
0.0
 10
109.8764973683642
 20
-148.1923325909901
 30
0.0
 10
109.8764973683642
 20
-148.8608533699028
 30
0.0
 10
109.8764973683642
 20
-148.8608533699028
 30
0.0
 10
109.8764973683642
 20
-148.9452582092915
 30
0.0
 10
109.929551838837
 20
-148.9686848585911
 30
0.0
 10
110.0012098249302
 20
-148.9686848585911
 30
0.0
 10
110.0118896209345
 20
-148.9686848585911
 30
0.0
 10
110.0353162702342
 20
-148.9686848585911
 30
0.0
 10
110.0670111486985
 20
-148.9645507440088
 30
0.0
 10
110.0670111486985
 20
-148.9645507440088
 30
0.0
 10
110.0670111486985
 20
-149.1357719896258
 30
0.0
 10
110.0670111486985
 20
-149.1357719896258
 30
0.0
 10
110.0332492129431
 20
-149.1485188429212
 30
0.0
 10
109.9591796600102
 20
-149.1591986389255
 30
0.0
 10
109.9081922468285
 20
-149.1591986389255
 30
0.0
  0
HATCH
  5
10A
330
F7
100
AcDbEntity
  8
レイヤー 1
 62
   250
420
  2299925
440
 33554687
100
AcDbHatch
 10
0.0
 20
0.0
 30
0.0
210
0.0
220
0.0
230
1.0
  2
SOLID
 70
     1
 71
     1
 91
        1
 92
        1
 93
        1
 72
     4
 94
        3
 73
     0
 74
     0
 95
       53
 96
       49
 40
0.0
 40
0.0
 40
0.0
 40
0.0
 40
1.0
 40
1.0
 40
1.0
 40
2.0
 40
2.0
 40
2.0
 40
3.0
 40
3.0
 40
3.0
 40
4.0
 40
4.0
 40
4.0
 40
5.0
 40
5.0
 40
5.0
 40
6.0
 40
6.0
 40
6.0
 40
7.0
 40
7.0
 40
7.0
 40
8.0
 40
8.0
 40
8.0
 40
9.0
 40
9.0
 40
9.0
 40
10.0
 40
10.0
 40
10.0
 40
11.0
 40
11.0
 40
11.0
 40
12.0
 40
12.0
 40
12.0
 40
13.0
 40
13.0
 40
13.0
 40
14.0
 40
14.0
 40
14.0
 40
15.0
 40
15.0
 40
15.0
 40
16.0
 40
16.0
 40
16.0
 40
16.0
 10
109.9081922468285
 20
-149.1591986389255
 10
109.7180229760427
 20
-149.1591986389255
 10
109.6587673336964
 20
-149.0341416728109
 10
109.6587673336964
 20
-148.8860025669452
 10
109.6587673336964
 20
-148.8860025669452
 10
109.6587673336964
 20
-148.1923325909901
 10
109.6587673336964
 20
-148.1923325909901
 10
109.6587673336964
 20
-148.1923325909901
 10
109.4768662920752
 20
-148.1923325909901
 10
109.4768662920752
 20
-148.1923325909901
 10
109.4768662920752
 20
-148.1923325909901
 10
109.4768662920752
 20
-147.9999240081389
 10
109.4768662920752
 20
-147.9999240081389
 10
109.4768662920752
 20
-147.9999240081389
 10
109.6587673336964
 20
-147.9999240081389
 10
109.6587673336964
 20
-147.9999240081389
 10
109.6587673336964
 20
-147.9999240081389
 10
109.6587673336964
 20
-147.6846977712385
 10
109.6587673336964
 20
-147.6846977712385
 10
109.6587673336964
 20
-147.6846977712385
 10
109.8764973683642
 20
-147.6846977712385
 10
109.8764973683642
 20
-147.6846977712385
 10
109.8764973683642
 20
-147.6846977712385
 10
109.8764973683642
 20
-147.9999240081389
 10
109.8764973683642
 20
-147.9999240081389
 10
109.8764973683642
 20
-147.9999240081389
 10
110.0670111486985
 20
-147.9999240081389
 10
110.0670111486985
 20
-147.9999240081389
 10
110.0670111486985
 20
-147.9999240081389
 10
110.0670111486985
 20
-148.1923325909901
 10
110.0670111486985
 20
-148.1923325909901
 10
110.0670111486985
 20
-148.1923325909901
 10
109.8764973683642
 20
-148.1923325909901
 10
109.8764973683642
 20
-148.1923325909901
 10
109.8764973683642
 20
-148.1923325909901
 10
109.8764973683642
 20
-148.8608533699028
 10
109.8764973683642
 20
-148.8608533699028
 10
109.8764973683642
 20
-148.9452582092915
 10
109.929551838837
 20
-148.9686848585911
 10
110.0012098249302
 20
-148.9686848585911
 10
110.0118896209345
 20
-148.9686848585911
 10
110.0353162702342
 20
-148.9686848585911
 10
110.0670111486985
 20
-148.9645507440088
 10
110.0670111486985
 20
-148.9645507440088
 10
110.0670111486985
 20
-149.1357719896258
 10
110.0670111486985
 20
-149.1357719896258
 10
110.0332492129431
 20
-149.1485188429212
 10
109.9591796600102
 20
-149.1591986389255
 10
109.9081922468285
 20
-149.1591986389255
 97
        0
 97
        1
330
109
 75
     2
 76
     1
 98
        1
 10
0.0
 20
0.0
450
        0
451
        0
460
0.0
461
0.0
452
        0
462
0.0
453
        0
470

  0
SPLINE
  5
10B
330
F7
100
AcDbEntity
  8
レイヤー 1
100
AcDbSpline
210
0.0
220
0.0
230
1.0
 70
    11
 71
     3
 72
    17
 73
    13
 74
     0
 42
0.0000000001
 43
0.0000000001
 40
0.0
 40
0.0
 40
0.0
 40
0.0
 40
1.0
 40
1.0
 40
1.0
 40
2.0
 40
2.0
 40
2.0
 40
3.0
 40
3.0
 40
3.0
 40
4.0
 40
4.0
 40
4.0
 40
4.0
 10
110.2409884707036
 20
-148.6556979337562
 30
0.0
 10
110.2409884707036
 20
-148.6556979337562
 30
0.0
 10
110.2409884707036
 20
-148.4505424976096
 30
0.0
 10
110.2409884707036
 20
-148.4505424976096
 30
0.0
 10
110.2409884707036
 20
-148.4505424976096
 30
0.0
 10
111.4192111266591
 20
-148.4505424976096
 30
0.0
 10
111.4192111266591
 20
-148.4505424976096
 30
0.0
 10
111.4192111266591
 20
-148.4505424976096
 30
0.0
 10
111.4192111266591
 20
-148.6556979337562
 30
0.0
 10
111.4192111266591
 20
-148.6556979337562
 30
0.0
 10
111.4192111266591
 20
-148.6556979337562
 30
0.0
 10
110.2409884707036
 20
-148.6556979337562
 30
0.0
 10
110.2409884707036
 20
-148.6556979337562
 30
0.0
  0
SPLINE
  5
10C
330
F7
100
AcDbEntity
  8
レイヤー 1
100
AcDbSpline
210
0.0
220
0.0
230
1.0
 70
    11
 71
     3
 72
    17
 73
    13
 74
     0
 42
0.0000000001
 43
0.0000000001
 40
0.0
 40
0.0
 40
0.0
 40
0.0
 40
1.0
 40
1.0
 40
1.0
 40
2.0
 40
2.0
 40
2.0
 40
3.0
 40
3.0
 40
3.0
 40
4.0
 40
4.0
 40
4.0
 40
4.0
 10
110.2409884707036
 20
-148.2219604121632
 30
0.0
 10
110.2409884707036
 20
-148.2219604121632
 30
0.0
 10
110.2409884707036
 20
-148.0168049760166
 30
0.0
 10
110.2409884707036
 20
-148.0168049760166
 30
0.0
 10
110.2409884707036
 20
-148.0168049760166
 30
0.0
 10
111.4192111266591
 20
-148.0168049760166
 30
0.0
 10
111.4192111266591
 20
-148.0168049760166
 30
0.0
 10
111.4192111266591
 20
-148.0168049760166
 30
0.0
 10
111.4192111266591
 20
-148.2219604121632
 30
0.0
 10
111.4192111266591
 20
-148.2219604121632
 30
0.0
 10
111.4192111266591
 20
-148.2219604121632
 30
0.0
 10
110.2409884707036
 20
-148.2219604121632
 30
0.0
 10
110.2409884707036
 20
-148.2219604121632
 30
0.0
  0
HATCH
  5
10D
330
F7
100
AcDbEntity
  8
レイヤー 1
 62
   250
420
  2299925
440
 33554687
100
AcDbHatch
 10
0.0
 20
0.0
 30
0.0
210
0.0
220
0.0
230
1.0
  2
SOLID
 70
     1
 71
     1
 91
        2
 92
        1
 93
        1
 72
     4
 94
        3
 73
     0
 74
     0
 95
       17
 96
       13
 40
0.0
 40
0.0
 40
0.0
 40
0.0
 40
1.0
 40
1.0
 40
1.0
 40
2.0
 40
2.0
 40
2.0
 40
3.0
 40
3.0
 40
3.0
 40
4.0
 40
4.0
 40
4.0
 40
4.0
 10
110.2409884707036
 20
-148.6556979337562
 10
110.2409884707036
 20
-148.6556979337562
 10
110.2409884707036
 20
-148.4505424976096
 10
110.2409884707036
 20
-148.4505424976096
 10
110.2409884707036
 20
-148.4505424976096
 10
111.4192111266591
 20
-148.4505424976096
 10
111.4192111266591
 20
-148.4505424976096
 10
111.4192111266591
 20
-148.4505424976096
 10
111.4192111266591
 20
-148.6556979337562
 10
111.4192111266591
 20
-148.6556979337562
 10
111.4192111266591
 20
-148.6556979337562
 10
110.2409884707036
 20
-148.6556979337562
 10
110.2409884707036
 20
-148.6556979337562
 97
        0
 97
        1
330
10B
 92
        1
 93
        1
 72
     4
 94
        3
 73
     0
 74
     0
 95
       17
 96
       13
 40
0.0
 40
0.0
 40
0.0
 40
0.0
 40
1.0
 40
1.0
 40
1.0
 40
2.0
 40
2.0
 40
2.0
 40
3.0
 40
3.0
 40
3.0
 40
4.0
 40
4.0
 40
4.0
 40
4.0
 10
110.2409884707036
 20
-148.2219604121632
 10
110.2409884707036
 20
-148.2219604121632
 10
110.2409884707036
 20
-148.0168049760166
 10
110.2409884707036
 20
-148.0168049760166
 10
110.2409884707036
 20
-148.0168049760166
 10
111.4192111266591
 20
-148.0168049760166
 10
111.4192111266591
 20
-148.0168049760166
 10
111.4192111266591
 20
-148.0168049760166
 10
111.4192111266591
 20
-148.2219604121632
 10
111.4192111266591
 20
-148.2219604121632
 10
111.4192111266591
 20
-148.2219604121632
 10
110.2409884707036
 20
-148.2219604121632
 10
110.2409884707036
 20
-148.2219604121632
 97
        0
 97
        1
330
10C
 75
     2
 76
     1
 98
        1
 10
0.0
 20
0.0
450
        0
451
        0
460
0.0
461
0.0
452
        0
462
0.0
453
        0
470

  0
SPLINE
  5
10E
330
F7
100
AcDbEntity
  8
レイヤー 1
100
AcDbSpline
210
0.0
220
0.0
230
1.0
 70
    11
 71
     3
 72
    26
 73
    22
 74
     0
 42
0.0000000001
 43
0.0000000001
 40
0.0
 40
0.0
 40
0.0
 40
0.0
 40
1.0
 40
1.0
 40
1.0
 40
2.0
 40
2.0
 40
2.0
 40
3.0
 40
3.0
 40
3.0
 40
4.0
 40
4.0
 40
4.0
 40
5.0
 40
5.0
 40
5.0
 40
6.0
 40
6.0
 40
6.0
 40
7.0
 40
7.0
 40
7.0
 40
7.0
 10
112.0954833704136
 20
-149.1082112257438
 30
0.0
 10
112.0954833704136
 20
-149.1082112257438
 30
0.0
 10
112.0954833704136
 20
-148.0040581227212
 30
0.0
 10
112.0954833704136
 20
-148.0040581227212
 30
0.0
 10
112.0954833704136
 20
-148.0040581227212
 30
0.0
 10
111.7654432229267
 20
-148.0040581227212
 30
0.0
 10
111.7654432229267
 20
-148.0040581227212
 30
0.0
 10
111.7654432229267
 20
-148.0040581227212
 30
0.0
 10
111.7654432229267
 20
-147.8560912716297
 30
0.0
 10
111.7654432229267
 20
-147.8560912716297
 30
0.0
 10
112.0975504277048
 20
-147.8412773610431
 30
0.0
 10
112.1440592167556
 20
-147.6783243445908
 30
0.0
 10
112.1736870379288
 20
-147.5641194292548
 30
0.0
 10
112.1736870379288
 20
-147.5641194292548
 30
0.0
 10
112.3197590865034
 20
-147.5641194292548
 30
0.0
 10
112.3197590865034
 20
-147.5641194292548
 30
0.0
 10
112.3197590865034
 20
-147.5641194292548
 30
0.0
 10
112.3197590865034
 20
-149.1082112257438
 30
0.0
 10
112.3197590865034
 20
-149.1082112257438
 30
0.0
 10
112.3197590865034
 20
-149.1082112257438
 30
0.0
 10
112.0954833704136
 20
-149.1082112257438
 30
0.0
 10
112.0954833704136
 20
-149.1082112257438
 30
0.0
  0
HATCH
  5
10F
330
F7
100
AcDbEntity
  8
レイヤー 1
 62
   250
420
  2299925
440
 33554687
100
AcDbHatch
 10
0.0
 20
0.0
 30
0.0
210
0.0
220
0.0
230
1.0
  2
SOLID
 70
     1
 71
     1
 91
        1
 92
        1
 93
        1
 72
     4
 94
        3
 73
     0
 74
     0
 95
       26
 96
       22
 40
0.0
 40
0.0
 40
0.0
 40
0.0
 40
1.0
 40
1.0
 40
1.0
 40
2.0
 40
2.0
 40
2.0
 40
3.0
 40
3.0
 40
3.0
 40
4.0
 40
4.0
 40
4.0
 40
5.0
 40
5.0
 40
5.0
 40
6.0
 40
6.0
 40
6.0
 40
7.0
 40
7.0
 40
7.0
 40
7.0
 10
112.0954833704136
 20
-149.1082112257438
 10
112.0954833704136
 20
-149.1082112257438
 10
112.0954833704136
 20
-148.0040581227212
 10
112.0954833704136
 20
-148.0040581227212
 10
112.0954833704136
 20
-148.0040581227212
 10
111.7654432229267
 20
-148.0040581227212
 10
111.7654432229267
 20
-148.0040581227212
 10
111.7654432229267
 20
-148.0040581227212
 10
111.7654432229267
 20
-147.8560912716297
 10
111.7654432229267
 20
-147.8560912716297
 10
112.0975504277048
 20
-147.8412773610431
 10
112.1440592167556
 20
-147.6783243445908
 10
112.1736870379288
 20
-147.5641194292548
 10
112.1736870379288
 20
-147.5641194292548
 10
112.3197590865034
 20
-147.5641194292548
 10
112.3197590865034
 20
-147.5641194292548
 10
112.3197590865034
 20
-147.5641194292548
 10
112.3197590865034
 20
-149.1082112257438
 10
112.3197590865034
 20
-149.1082112257438
 10
112.3197590865034
 20
-149.1082112257438
 10
112.0954833704136
 20
-149.1082112257438
 10
112.0954833704136
 20
-149.1082112257438
 97
        0
 97
        1
330
10E
 75
     2
 76
     1
 98
        1
 10
0.0
 20
0.0
450
        0
451
        0
460
0.0
461
0.0
452
        0
462
0.0
453
        0
470

  0
SPLINE
  5
110
330
F7
100
AcDbEntity
  8
レイヤー 1
100
AcDbSpline
210
0.0
220
0.0
230
1.0
 70
    11
 71
     3
 72
    17
 73
    13
 74
     0
 42
0.0000000001
 43
0.0000000001
 40
0.0
 40
0.0
 40
0.0
 40
0.0
 40
1.0
 40
1.0
 40
1.0
 40
2.0
 40
2.0
 40
2.0
 40
3.0
 40
3.0
 40
3.0
 40
4.0
 40
4.0
 40
4.0
 40
4.0
 10
112.8816541601476
 20
-149.1082112257438
 30
0.0
 10
112.8816541601476
 20
-149.1082112257438
 30
0.0
 10
112.8816541601476
 20
-148.8567192553205
 30
0.0
 10
112.8816541601476
 20
-148.8567192553205
 30
0.0
 10
112.8816541601476
 20
-148.8567192553205
 30
0.0
 10
113.1334906401194
 20
-148.8567192553205
 30
0.0
 10
113.1334906401194
 20
-148.8567192553205
 30
0.0
 10
113.1334906401194
 20
-148.8567192553205
 30
0.0
 10
113.1334906401194
 20
-149.1082112257438
 30
0.0
 10
113.1334906401194
 20
-149.1082112257438
 30
0.0
 10
113.1334906401194
 20
-149.1082112257438
 30
0.0
 10
112.8816541601476
 20
-149.1082112257438
 30
0.0
 10
112.8816541601476
 20
-149.1082112257438
 30
0.0
  0
HATCH
  5
111
330
F7
100
AcDbEntity
  8
レイヤー 1
 62
   250
420
  2299925
440
 33554687
100
AcDbHatch
 10
0.0
 20
0.0
 30
0.0
210
0.0
220
0.0
230
1.0
  2
SOLID
 70
     1
 71
     1
 91
        1
 92
        1
 93
        1
 72
     4
 94
        3
 73
     0
 74
     0
 95
       17
 96
       13
 40
0.0
 40
0.0
 40
0.0
 40
0.0
 40
1.0
 40
1.0
 40
1.0
 40
2.0
 40
2.0
 40
2.0
 40
3.0
 40
3.0
 40
3.0
 40
4.0
 40
4.0
 40
4.0
 40
4.0
 10
112.8816541601476
 20
-149.1082112257438
 10
112.8816541601476
 20
-149.1082112257438
 10
112.8816541601476
 20
-148.8567192553205
 10
112.8816541601476
 20
-148.8567192553205
 10
112.8816541601476
 20
-148.8567192553205
 10
113.1334906401194
 20
-148.8567192553205
 10
113.1334906401194
 20
-148.8567192553205
 10
113.1334906401194
 20
-148.8567192553205
 10
113.1334906401194
 20
-149.1082112257438
 10
113.1334906401194
 20
-149.1082112257438
 10
113.1334906401194
 20
-149.1082112257438
 10
112.8816541601476
 20
-149.1082112257438
 10
112.8816541601476
 20
-149.1082112257438
 97
        0
 97
        1
330
110
 75
     2
 76
     1
 98
        1
 10
0.0
 20
0.0
450
        0
451
        0
460
0.0
461
0.0
452
        0
462
0.0
453
        0
470

  0
SPLINE
  5
112
330
F7
100
AcDbEntity
  8
レイヤー 1
100
AcDbSpline
210
0.0
220
0.0
230
1.0
 70
     9
 71
     3
 72
    17
 73
    13
 74
     0
 42
0.0000000001
 43
0.0000000001
 40
0.0
 40
0.0
 40
0.0
 40
0.0
 40
1.0
 40
1.0
 40
1.0
 40
2.0
 40
2.0
 40
2.0
 40
3.0
 40
3.0
 40
3.0
 40
4.0
 40
4.0
 40
4.0
 40
4.0
 10
113.8697075453173
 20
-147.707952165764
 30
0.0
 10
113.6202826321852
 20
-147.707952165764
 30
0.0
 10
113.5734293335858
 20
-147.9914835242
 30
0.0
 10
113.5734293335858
 20
-148.3361653274993
 30
0.0
 10
113.5734293335858
 20
-148.6556979337562
 30
0.0
 10
113.6096028361809
 20
-148.9645507440088
 30
0.0
 10
113.8697075453173
 20
-148.9645507440088
 30
0.0
 10
114.1174099107068
 20
-148.9645507440088
 30
0.0
 10
114.1659857570488
 20
-148.6830864428639
 30
0.0
 10
114.1659857570488
 20
-148.3361653274993
 30
0.0
 10
114.1659857570488
 20
-148.0168049760166
 30
0.0
 10
114.1277451971625
 20
-147.707952165764
 30
0.0
 10
113.8697075453173
 20
-147.707952165764
 30
0.0
  0
SPLINE
  5
113
330
F7
100
AcDbEntity
  8
レイヤー 1
100
AcDbSpline
210
0.0
220
0.0
230
1.0
 70
     9
 71
     3
 72
    29
 73
    25
 74
     0
 42
0.0000000001
 43
0.0000000001
 40
0.0
 40
0.0
 40
0.0
 40
0.0
 40
1.0
 40
1.0
 40
1.0
 40
2.0
 40
2.0
 40
2.0
 40
3.0
 40
3.0
 40
3.0
 40
4.0
 40
4.0
 40
4.0
 40
5.0
 40
5.0
 40
5.0
 40
6.0
 40
6.0
 40
6.0
 40
7.0
 40
7.0
 40
7.0
 40
8.0
 40
8.0
 40
8.0
 40
8.0
 10
114.2676160738636
 20
-148.9304442987049
 30
0.0
 10
114.1594400756268
 20
-149.1399061042081
 30
0.0
 10
113.9861517727187
 20
-149.1591986389255
 30
0.0
 10
113.8697075453173
 20
-149.1591986389255
 30
0.0
 10
113.7088215861561
 20
-149.1591986389255
 30
0.0
 10
113.5672281617123
 20
-149.1126898498746
 30
0.0
 10
113.4721435263194
 20
-148.9304442987049
 30
0.0
 10
113.3684461522134
 20
-148.7359686585625
 30
0.0
 10
113.3494981270446
 20
-148.4991183439516
 30
0.0
 10
113.3494981270446
 20
-148.3361653274993
 30
0.0
 10
113.3494981270446
 20
-148.1923325909901
 30
0.0
 10
113.3663790949223
 20
-147.9406683657926
 30
0.0
 10
113.4721435263194
 20
-147.7417141015194
 30
0.0
 10
113.5799750150078
 20
-147.5386257226639
 30
0.0
 10
113.7408609741689
 20
-147.5153713281385
 30
0.0
 10
113.8697075453173
 20
-147.5153713281385
 30
0.0
 10
114.0285264471873
 20
-147.5153713281385
 30
0.0
 10
114.1721869289222
 20
-147.5598130598982
 30
0.0
 10
114.2676160738636
 20
-147.7417141015194
 30
0.0
 10
114.3668348238388
 20
-147.9342949391449
 30
0.0
 10
114.3902614731385
 20
-148.1627047698169
 30
0.0
 10
114.3902614731385
 20
-148.3361653274993
 30
0.0
 10
114.3902614731385
 20
-148.5075588278905
 30
0.0
 10
114.36890188113
 20
-148.738207970628
 30
0.0
 10
114.2676160738636
 20
-148.9304442987049
 30
0.0
  0
HATCH
  5
114
330
F7
100
AcDbEntity
  8
レイヤー 1
 62
   250
420
  2299925
440
 33554687
100
AcDbHatch
 10
0.0
 20
0.0
 30
0.0
210
0.0
220
0.0
230
1.0
  2
SOLID
 70
     1
 71
     1
 91
        2
 92
        1
 93
        1
 72
     4
 94
        3
 73
     0
 74
     0
 95
       17
 96
       13
 40
0.0
 40
0.0
 40
0.0
 40
0.0
 40
1.0
 40
1.0
 40
1.0
 40
2.0
 40
2.0
 40
2.0
 40
3.0
 40
3.0
 40
3.0
 40
4.0
 40
4.0
 40
4.0
 40
4.0
 10
113.8697075453173
 20
-147.707952165764
 10
113.6202826321852
 20
-147.707952165764
 10
113.5734293335858
 20
-147.9914835242
 10
113.5734293335858
 20
-148.3361653274993
 10
113.5734293335858
 20
-148.6556979337562
 10
113.6096028361809
 20
-148.9645507440088
 10
113.8697075453173
 20
-148.9645507440088
 10
114.1174099107068
 20
-148.9645507440088
 10
114.1659857570488
 20
-148.6830864428639
 10
114.1659857570488
 20
-148.3361653274993
 10
114.1659857570488
 20
-148.0168049760166
 10
114.1277451971625
 20
-147.707952165764
 10
113.8697075453173
 20
-147.707952165764
 97
        0
 97
        1
330
112
 92
        1
 93
        1
 72
     4
 94
        3
 73
     0
 74
     0
 95
       29
 96
       25
 40
0.0
 40
0.0
 40
0.0
 40
0.0
 40
1.0
 40
1.0
 40
1.0
 40
2.0
 40
2.0
 40
2.0
 40
3.0
 40
3.0
 40
3.0
 40
4.0
 40
4.0
 40
4.0
 40
5.0
 40
5.0
 40
5.0
 40
6.0
 40
6.0
 40
6.0
 40
7.0
 40
7.0
 40
7.0
 40
8.0
 40
8.0
 40
8.0
 40
8.0
 10
114.2676160738636
 20
-148.9304442987049
 10
114.1594400756268
 20
-149.1399061042081
 10
113.9861517727187
 20
-149.1591986389255
 10
113.8697075453173
 20
-149.1591986389255
 10
113.7088215861561
 20
-149.1591986389255
 10
113.5672281617123
 20
-149.1126898498746
 10
113.4721435263194
 20
-148.9304442987049
 10
113.3684461522134
 20
-148.7359686585625
 10
113.3494981270446
 20
-148.4991183439516
 10
113.3494981270446
 20
-148.3361653274993
 10
113.3494981270446
 20
-148.1923325909901
 10
113.3663790949223
 20
-147.9406683657926
 10
113.4721435263194
 20
-147.7417141015194
 10
113.5799750150078
 20
-147.5386257226639
 10
113.7408609741689
 20
-147.5153713281385
 10
113.8697075453173
 20
-147.5153713281385
 10
114.0285264471873
 20
-147.5153713281385
 10
114.1721869289222
 20
-147.5598130598982
 10
114.2676160738636
 20
-147.7417141015194
 10
114.3668348238388
 20
-147.9342949391449
 10
114.3902614731385
 20
-148.1627047698169
 10
114.3902614731385
 20
-148.3361653274993
 10
114.3902614731385
 20
-148.5075588278905
 10
114.36890188113
 20
-148.738207970628
 10
114.2676160738636
 20
-148.9304442987049
 97
        0
 97
        1
330
113
 75
     2
 76
     1
 98
        1
 10
0.0
 20
0.0
450
        0
451
        0
460
0.0
461
0.0
452
        0
462
0.0
453
        0
470

  0
ENDBLK
  5
FA
330
F7
100
AcDbEntity
  8
0
100
AcDbBlockEnd
  0
BLOCK
  5
11D
330
11B
100
AcDbEntity
  8
0
100
AcDbBlockBegin
  2
Block_18
 70
     0
 10
0.0
 20
0.0
 30
0.0
  3
Block_18
  1

  0
LWPOLYLINE
  5
11F
330
11B
100
AcDbEntity
  8
レイヤー 1
 62
   250
420
  2299925
370
    25
100
AcDbPolyline
 90
        4
 70
     1
 43
0.0
 10
92.44349675510918
 20
-147.9114278723933
 10
91.44349675535876
 20
-147.9114278723933
 10
91.84349675525867
 20
-129.0963488666424
 10
92.44349675510918
 20
-129.0963488666424
  0
LWPOLYLINE
  5
120
330
11B
100
AcDbEntity
  8
レイヤー 1
 62
   250
420
  2299925
370
    25
100
AcDbPolyline
 90
        4
 70
     1
 43
0.0
 10
125.594564909739
 20
-162.8474170449654
 10
106.7823295200884
 20
-163.2474170448653
 10
106.7823295200884
 20
-162.2474170451149
 10
125.594564909739
 20
-162.2474170451149
  0
LWPOLYLINE
  5
121
330
11B
100
AcDbEntity
  8
レイヤー 1
 62
   250
420
  2299925
370
    25
100
AcDbPolyline
 90
        4
 70
     1
 43
0.0
 10
104.7365579850144
 20
-162.389410107215
 10
92.30629620985851
 20
-149.9591483323774
 10
93.01340299085271
 20
-149.2520415513511
 10
105.4436647660086
 20
-161.68230332619
  0
SPLINE
  5
122
330
11B
100
AcDbEntity
  8
レイヤー 1
 62
   250
420
  2299925
370
    25
100
AcDbSpline
210
0.0
220
0.0
230
1.0
 70
    11
 71
     3
 72
    29
 73
    25
 74
     0
 42
0.0000000001
 43
0.0000000001
 40
0.0
 40
0.0
 40
0.0
 40
0.0
 40
1.0
 40
1.0
 40
1.0
 40
2.0
 40
2.0
 40
2.0
 40
3.0
 40
3.0
 40
3.0
 40
4.0
 40
4.0
 40
4.0
 40
5.0
 40
5.0
 40
5.0
 40
6.0
 40
6.0
 40
6.0
 40
7.0
 40
7.0
 40
7.0
 40
8.0
 40
8.0
 40
8.0
 40
8.0
 10
106.7823826999171
 20
-163.2513431021497
 30
0.0
 10
106.7823826999171
 20
-163.2513431021497
 30
0.0
 10
106.3887805407273
 20
-163.2513431021497
 30
0.0
 10
106.3887805407273
 20
-163.2513431021497
 30
0.0
 10
105.8499676068342
 20
-163.2513431021497
 30
0.0
 10
105.4935724788851
 20
-163.1684885557294
 30
0.0
 10
105.0414036964461
 20
-162.7164920280646
 30
0.0
 10
105.0414036964461
 20
-162.7164920280646
 30
0.0
 10
104.7232491283833
 20
-162.3983374600018
 30
0.0
 10
104.7232491283833
 20
-162.3983374600018
 30
0.0
 10
104.7232491283833
 20
-162.3983374600018
 30
0.0
 10
105.4301827219565
 20
-161.69105935688
 30
0.0
 10
105.4301827219565
 20
-161.69105935688
 30
0.0
 10
105.4301827219565
 20
-161.69105935688
 30
0.0
 10
105.7485095447936
 20
-162.0092139249429
 30
0.0
 10
105.7485095447936
 20
-162.0092139249429
 30
0.0
 10
105.9726130061091
 20
-162.2333173862583
 30
0.0
 10
106.0508166736243
 20
-162.2512318827816
 30
0.0
 10
106.3887805407273
 20
-162.2512318827816
 30
0.0
 10
106.3887805407273
 20
-162.2512318827816
 30
0.0
 10
106.7823826999171
 20
-162.2512318827816
 30
0.0
 10
106.7823826999171
 20
-162.2512318827816
 30
0.0
 10
106.7823826999171
 20
-162.2512318827816
 30
0.0
 10
106.7823826999171
 20
-163.2513431021497
 30
0.0
 10
106.7823826999171
 20
-163.2513431021497
 30
0.0
  0
SPLINE
  5
123
330
11B
100
AcDbEntity
  8
レイヤー 1
 62
   250
420
  2299925
370
    25
100
AcDbSpline
210
0.0
220
0.0
230
1.0
 70
    11
 71
     3
 72
    29
 73
    25
 74
     0
 42
0.0000000001
 43
0.0000000001
 40
0.0
 40
0.0
 40
0.0
 40
0.0
 40
1.0
 40
1.0
 40
1.0
 40
2.0
 40
2.0
 40
2.0
 40
3.0
 40
3.0
 40
3.0
 40
4.0
 40
4.0
 40
4.0
 40
5.0
 40
5.0
 40
5.0
 40
6.0
 40
6.0
 40
6.0
 40
7.0
 40
7.0
 40
7.0
 40
8.0
 40
8.0
 40
8.0
 40
8.0
 10
92.29680518910233
 20
-149.9718935207205
 30
0.0
 10
92.29680518910233
 20
-149.9718935207205
 30
0.0
 10
91.97830611149099
 20
-149.6535666978834
 30
0.0
 10
91.97830611149099
 20
-149.6535666978834
 30
0.0
 10
91.5207974310498
 20
-149.195885762668
 30
0.0
 10
91.44345503740593
 20
-148.8835878569301
 30
0.0
 10
91.44345503740593
 20
-148.3570050120094
 30
0.0
 10
91.44345503740593
 20
-148.3570050120094
 30
0.0
 10
91.44345503740593
 20
-147.9113819109923
 30
0.0
 10
91.44345503740593
 20
-147.9113819109923
 30
0.0
 10
91.44345503740593
 20
-147.9113819109923
 30
0.0
 10
92.44356625677395
 20
-147.9113819109923
 30
0.0
 10
92.44356625677395
 20
-147.9113819109923
 30
0.0
 10
92.44356625677395
 20
-147.9113819109923
 30
0.0
 10
92.44356625677395
 20
-148.3570050120094
 30
0.0
 10
92.44356625677395
 20
-148.3570050120094
 30
0.0
 10
92.44356625677395
 20
-148.6581063574202
 30
0.0
 10
92.44356625677395
 20
-148.7044428916968
 30
0.0
 10
92.68558421461277
 20
-148.9462885947617
 30
0.0
 10
92.68558421461277
 20
-148.9462885947617
 30
0.0
 10
93.00391103744985
 20
-149.2649599271473
 30
0.0
 10
93.00391103744985
 20
-149.2649599271473
 30
0.0
 10
93.00391103744985
 20
-149.2649599271473
 30
0.0
 10
92.29680518910233
 20
-149.9718935207205
 30
0.0
 10
92.29680518910233
 20
-149.9718935207205
 30
0.0
  0
ENDBLK
  5
11E
330
11B
100
AcDbEntity
  8
0
100
AcDbBlockEnd
  0
ENDSEC
  0
SECTION
  2
ENTITIES
  0
LINE
  5
79
330
70
100
AcDbEntity
  8
レイヤー 1
  6
AI-Linetype-0
 62
   154
420
    23468
370
    25
100
AcDbLine
 10
92.95447304227186
 20
-129.1020015332431
 30
0.0
 11
92.95447304227186
 21
-139.1017343336839
 31
0.0
  0
LINE
  5
7B
330
70
100
AcDbEntity
  8
レイヤー 1
  6
AI-Linetype-1
 62
   154
420
    23468
370
    25
100
AcDbLine
 10
115.4949282228212
 20
-161.7952072310917
 30
0.0
 11
125.4946610232623
 21
-161.7952072310917
 31
0.0
  0
LINE
  5
7D
330
70
100
AcDbEntity
  8
レイヤー 1
 62
    18
420
        0
370
     9
100
AcDbLine
 10
93.39544525324393
 20
-137.0319166087119
 30
0.0
 11
111.5551361194179
 21
-137.0319166087119
 31
0.0
  0
LINE
  5
7E
330
70
100
AcDbEntity
  8
レイヤー 1
 62
    18
420
        0
370
     9
100
AcDbLine
 10
93.39544525324393
 20
-137.0319166087119
 30
0.0
 11
94.36142133971094
 21
-136.7728366153216
 31
0.0
  0
LINE
  5
7F
330
70
100
AcDbEntity
  8
レイヤー 1
 62
    18
420
        0
370
     9
100
AcDbLine
 10
93.39544525324393
 20
-137.0319166087119
 30
0.0
 11
94.36142133971094
 21
-137.2909917206094
 31
0.0
  0
LINE
  5
80
330
70
100
AcDbEntity
  8
レイヤー 1
 62
    18
420
        0
370
     9
100
AcDbLine
 10
117.1343593648392
 20
-161.1593703686492
 30
0.0
 11
117.393436010691
 21
-160.1933546149117
 31
0.0
  0
LINE
  5
81
330
70
100
AcDbEntity
  8
レイヤー 1
 62
    18
420
        0
370
     9
100
AcDbLine
 10
117.1343593648392
 20
-161.1593699087576
 30
0.0
 11
117.1343593648392
 21
-138.333197326001
 31
0.0
  0
LINE
  5
82
330
70
100
AcDbEntity
  8
レイヤー 1
 62
    18
420
        0
370
     9
100
AcDbLine
 10
117.1343593648392
 20
-161.1593703686492
 30
0.0
 11
116.8752760239104
 21
-160.1933546149117
 31
0.0
  0
INSERT
  5
84
330
70
100
AcDbEntity
  8
レイヤー 1
100
AcDbBlockReference
  2
Block_0
 10
0.0
 20
0.0
 30
0.0
  0
INSERT
  5
9E
330
70
100
AcDbEntity
  8
レイヤー 1
100
AcDbBlockReference
  2
Block_2
 10
0.0
 20
0.0
 30
0.0
  0
ENDSEC
  0
SECTION
  2
OBJECTS
  0
DICTIONARY
  5
C
330
0
100
AcDbDictionary
281
     1
  3
ACAD_COLOR
350
63
  3
ACAD_DETAILVIEWSTYLE
350
6A
  3
ACAD_GROUP
350
D
  3
ACAD_LAYOUT
350
62
  3
ACAD_MATERIAL
350
10
  3
ACAD_MLEADERSTYLE
350
66
  3
ACAD_MLINESTYLE
350
5F
  3
ACAD_PLOTSETTINGS
350
61
  3
ACAD_PLOTSTYLENAME
350
E
  3
ACAD_SCALELIST
350
42
  3
ACAD_SECTIONVIEWSTYLE
350
68
  3
ACAD_TABLESTYLE
350
64
  3
ACAD_VISUALSTYLE
350
29
  3
ACDB_RECOMPOSE_DATA
350
12C
  3
AcDbVariableDictionary
350
124
  0
DICTIONARY
  5
63
102
{ACAD_REACTORS
330
C
102
}
330
C
100
AcDbDictionary
281
     1
  0
DICTIONARY
  5
6A
102
{ACAD_REACTORS
330
C
102
}
330
C
100
AcDbDictionary
281
     1
  3
Imperial24
350
6B
  0
DICTIONARY
  5
D
102
{ACAD_REACTORS
330
C
102
}
330
C
100
AcDbDictionary
281
     1
  0
DICTIONARY
  5
62
102
{ACAD_REACTORS
330
C
102
}
330
C
100
AcDbDictionary
281
     1
  3
Layout1
350
6F
  3
Layout2
350
77
  3
Model
350
73
  0
DICTIONARY
  5
10
102
{ACAD_REACTORS
330
C
102
}
330
C
100
AcDbDictionary
281
     1
  3
ByBlock
350
19
  3
ByLayer
350
11
  3
Global
350
21
  0
DICTIONARY
  5
66
102
{ACAD_REACTORS
330
C
102
}
330
C
100
AcDbDictionary
281
     1
  3
Standard
350
67
  0
DICTIONARY
  5
5F
102
{ACAD_REACTORS
330
C
102
}
330
C
100
AcDbDictionary
281
     1
  3
Standard
350
60
  0
DICTIONARY
  5
61
102
{ACAD_REACTORS
330
C
102
}
330
C
100
AcDbDictionary
281
     1
  0
ACDBDICTIONARYWDFLT
  5
E
102
{ACAD_REACTORS
330
C
102
}
330
C
100
AcDbDictionary
281
     1
  3
Normal
350
F
100
AcDbDictionaryWithDefault
340
F
  0
DICTIONARY
  5
42
102
{ACAD_REACTORS
330
C
102
}
330
C
100
AcDbDictionary
281
     1
  3
A0
350
43
  3
A1
350
44
  3
A2
350
45
  3
A3
350
46
  3
A4
350
47
  3
A5
350
48
  3
A6
350
49
  3
A7
350
4A
  3
A8
350
4B
  3
A9
350
4C
  3
B0
350
4D
  3
B1
350
4E
  3
B2
350
4F
  3
B3
350
50
  3
B4
350
51
  3
B5
350
52
  3
B6
350
53
  0
DICTIONARY
  5
68
102
{ACAD_REACTORS
330
C
102
}
330
C
100
AcDbDictionary
281
     1
  3
Imperial24
350
69
  0
DICTIONARY
  5
64
102
{ACAD_REACTORS
330
C
102
}
330
C
100
AcDbDictionary
281
     1
  3
Standard
350
65
  0
DICTIONARY
  5
29
102
{ACAD_REACTORS
330
C
102
}
330
C
100
AcDbDictionary
281
     1
  3
2dWireframe
350
2F
  3
Basic
350
2E
  3
Brighten
350
35
  3
ColorChange
350
39
  3
Conceptual
350
32
  3
Dim
350
34
  3
EdgeColorOff
350
41
  3
Facepattern
350
38
  3
Flat
350
2A
  3
FlatWithEdges
350
2B
  3
Gouraud
350
2C
  3
GouraudWithEdges
350
2D
  3
Hidden
350
31
  3
JitterOff
350
3F
  3
Linepattern
350
37
  3
OverhangOff
350
40
  3
Realistic
350
33
  3
Shaded
350
3E
  3
Shaded with edges
350
3D
  3
Shades of Gray
350
3A
  3
Sketchy
350
3B
  3
Thicken
350
36
  3
Wireframe
350
30
  3
X-Ray
350
3C
  0
XRECORD
  5
12C
102
{ACAD_REACTORS
330
C
102
}
330
C
100
AcDbXrecord
280
     1
 90
        1
330
65
  0
DICTIONARY
  5
124
102
{ACAD_REACTORS
330
C
102
}
330
C
100
AcDbDictionary
281
     1
  3
CANNOSCALE
350
129
  3
CMLEADERSTYLE
350
126
  3
CTABLESTYLE
350
125
  3
CVIEWDETAILSTYLE
350
127
  3
CVIEWSECTIONSTYLE
350
128
  0
ACDBDETAILVIEWSTYLE
  5
6B
102
{ACAD_XDICTIONARY
360
161
102
}
102
{ACAD_REACTORS
330
6A
102
}
330
6A
100
AcDbModelDocViewStyle
 70
     0
  3
Imperial24
290
     0
100
AcDbDetailViewStyle
 70
     0
 71
     0
 90
        3
 71
     1
340
55
 62
   256
 40
0.24
340
0
 62
   256
 40
0.24
300

 40
0.36
280
     3
 71
     2
340
5D
 90
       25
 62
   256
 71
     3
340
55
 62
   256
 40
0.24
 90
        1
 40
0.75
 90
        1
300
%<\AcVar ViewType \f "%tc1">% %<\AcVar ViewDetailId>%\PSCALE %<\AcVar ViewScale \f "%sn">%
 71
     4
340
5D
 90
       25
 62
   256
340
5D
 90
       25
 62
   256
280
     0
  0
LAYOUT
  5
6F
102
{ACAD_REACTORS
330
62
102
}
330
62
100
AcDbPlotSettings
  1

  2

  4

  6

 40
0.0
 41
0.0
 42
0.0
 43
0.0
 44
0.0
 45
0.0
 46
0.0
 47
0.0
 48
0.0
 49
0.0
140
0.0
141
0.0
142
1.0
143
1.0
 70
   688
 72
     0
 73
     0
 74
     5
  7

 75
    16
147
1.0
 76
     0
 77
     2
 78
   300
148
0.0
149
0.0
100
AcDbLayout
  1
Layout1
 70
     1
 71
     1
 10
0.0
 20
0.0
 11
12.0
 21
9.0
 12
0.0
 22
0.0
 32
0.0
 14
0.0
 24
0.0
 34
0.0
 15
0.0
 25
0.0
 35
0.0
146
0.0
 13
0.0
 23
0.0
 33
0.0
 16
1.0
 26
0.0
 36
0.0
 17
0.0
 27
1.0
 37
0.0
 76
     0
330
6C
  0
LAYOUT
  5
77
102
{ACAD_REACTORS
330
62
102
}
330
62
100
AcDbPlotSettings
  1

  2

  4

  6

 40
0.0
 41
0.0
 42
0.0
 43
0.0
 44
0.0
 45
0.0
 46
0.0
 47
0.0
 48
0.0
 49
0.0
140
0.0
141
0.0
142
1.0
143
1.0
 70
   688
 72
     0
 73
     0
 74
     5
  7

 75
    16
147
1.0
 76
     0
 77
     2
 78
   300
148
0.0
149
0.0
100
AcDbLayout
  1
Layout2
 70
     1
 71
     2
 10
0.0
 20
0.0
 11
12.0
 21
9.0
 12
0.0
 22
0.0
 32
0.0
 14
0.0
 24
0.0
 34
0.0
 15
0.0
 25
0.0
 35
0.0
146
0.0
 13
0.0
 23
0.0
 33
0.0
 16
1.0
 26
0.0
 36
0.0
 17
0.0
 27
1.0
 37
0.0
 76
     0
330
74
  0
LAYOUT
  5
73
102
{ACAD_REACTORS
330
62
102
}
330
62
100
AcDbPlotSettings
  1

  2

  4

  6

 40
0.0
 41
0.0
 42
0.0
 43
0.0
 44
0.0
 45
0.0
 46
0.0
 47
0.0
 48
0.0
 49
0.0
140
0.0
141
0.0
142
1.0
143
1.0
 70
  1712
 72
     0
 73
     0
 74
     0
  7

 75
     0
147
1.0
 76
     0
 77
     2
 78
   300
148
0.0
149
0.0
100
AcDbLayout
  1
Model
 70
     1
 71
     0
 10
0.0
 20
0.0
 11
12.0
 21
9.0
 12
0.0
 22
0.0
 32
0.0
 14
0.0
 24
0.0
 34
0.0
 15
0.0
 25
0.0
 35
0.0
146
0.0
 13
0.0
 23
0.0
 33
0.0
 16
1.0
 26
0.0
 36
0.0
 17
0.0
 27
1.0
 37
0.0
 76
     0
330
70
  0
MATERIAL
  5
19
102
{ACAD_XDICTIONARY
360
1A
102
}
102
{ACAD_REACTORS
330
10
102
}
330
10
100
AcDbMaterial
  1
ByBlock
 72
     0
 43
0.0208333333333333
 43
0.0
 43
0.0
 43
0.0
 43
0.0
 43
0.0208333333333333
 43
0.0
 43
0.0
 43
0.0
 43
0.0
 43
1.0
 43
0.0
 43
0.0
 43
0.0
 43
0.0
 43
1.0
 77
     0
 47
0.0208333333333333
 47
0.0
 47
0.0
 47
0.0
 47
0.0
 47
0.0208333333333333
 47
0.0
 47
0.0
 47
0.0
 47
0.0
 47
1.0
 47
0.0
 47
0.0
 47
0.0
 47
0.0
 47
1.0
171
     0
 49
0.0208333333333333
 49
0.0
 49
0.0
 49
0.0
 49
0.0
 49
0.0208333333333333
 49
0.0
 49
0.0
 49
0.0
 49
0.0
 49
1.0
 49
0.0
 49
0.0
 49
0.0
 49
0.0
 49
1.0
175
     0
142
0.0208333333333333
142
0.0
142
0.0
142
0.0
142
0.0
142
0.0208333333333333
142
0.0
142
0.0
142
0.0
142
0.0
142
1.0
142
0.0
142
0.0
142
0.0
142
0.0
142
1.0
179
     0
144
0.0208333333333333
144
0.0
144
0.0
144
0.0
144
0.0
144
0.0208333333333333
144
0.0
144
0.0
144
0.0
144
0.0
144
1.0
144
0.0
144
0.0
144
0.0
144
0.0
144
1.0
147
0.0208333333333333
147
0.0
147
0.0
147
0.0
147
0.0
147
0.0208333333333333
147
0.0
147
0.0
147
0.0
147
0.0
147
1.0
147
0.0
147
0.0
147
0.0
147
0.0
147
1.0
  0
MATERIAL
  5
11
102
{ACAD_XDICTIONARY
360
12
102
}
102
{ACAD_REACTORS
330
10
102
}
330
10
100
AcDbMaterial
  1
ByLayer
 72
     0
 43
0.0208333333333333
 43
0.0
 43
0.0
 43
0.0
 43
0.0
 43
0.0208333333333333
 43
0.0
 43
0.0
 43
0.0
 43
0.0
 43
1.0
 43
0.0
 43
0.0
 43
0.0
 43
0.0
 43
1.0
 77
     0
 47
0.0208333333333333
 47
0.0
 47
0.0
 47
0.0
 47
0.0
 47
0.0208333333333333
 47
0.0
 47
0.0
 47
0.0
 47
0.0
 47
1.0
 47
0.0
 47
0.0
 47
0.0
 47
0.0
 47
1.0
171
     0
 49
0.0208333333333333
 49
0.0
 49
0.0
 49
0.0
 49
0.0
 49
0.0208333333333333
 49
0.0
 49
0.0
 49
0.0
 49
0.0
 49
1.0
 49
0.0
 49
0.0
 49
0.0
 49
0.0
 49
1.0
175
     0
142
0.0208333333333333
142
0.0
142
0.0
142
0.0
142
0.0
142
0.0208333333333333
142
0.0
142
0.0
142
0.0
142
0.0
142
1.0
142
0.0
142
0.0
142
0.0
142
0.0
142
1.0
179
     0
144
0.0208333333333333
144
0.0
144
0.0
144
0.0
144
0.0
144
0.0208333333333333
144
0.0
144
0.0
144
0.0
144
0.0
144
1.0
144
0.0
144
0.0
144
0.0
144
0.0
144
1.0
147
0.0208333333333333
147
0.0
147
0.0
147
0.0
147
0.0
147
0.0208333333333333
147
0.0
147
0.0
147
0.0
147
0.0
147
1.0
147
0.0
147
0.0
147
0.0
147
0.0
147
1.0
  0
MATERIAL
  5
21
102
{ACAD_XDICTIONARY
360
22
102
}
102
{ACAD_REACTORS
330
10
102
}
330
10
100
AcDbMaterial
  1
Global
 72
     0
 43
0.0208333333333333
 43
0.0
 43
0.0
 43
0.0
 43
0.0
 43
0.0208333333333333
 43
0.0
 43
0.0
 43
0.0
 43
0.0
 43
1.0
 43
0.0
 43
0.0
 43
0.0
 43
0.0
 43
1.0
 77
     0
 47
0.0208333333333333
 47
0.0
 47
0.0
 47
0.0
 47
0.0
 47
0.0208333333333333
 47
0.0
 47
0.0
 47
0.0
 47
0.0
 47
1.0
 47
0.0
 47
0.0
 47
0.0
 47
0.0
 47
1.0
171
     0
 49
0.0208333333333333
 49
0.0
 49
0.0
 49
0.0
 49
0.0
 49
0.0208333333333333
 49
0.0
 49
0.0
 49
0.0
 49
0.0
 49
1.0
 49
0.0
 49
0.0
 49
0.0
 49
0.0
 49
1.0
175
     0
142
0.0208333333333333
142
0.0
142
0.0
142
0.0
142
0.0
142
0.0208333333333333
142
0.0
142
0.0
142
0.0
142
0.0
142
1.0
142
0.0
142
0.0
142
0.0
142
0.0
142
1.0
179
     0
144
0.0208333333333333
144
0.0
144
0.0
144
0.0
144
0.0
144
0.0208333333333333
144
0.0
144
0.0
144
0.0
144
0.0
144
1.0
144
0.0
144
0.0
144
0.0
144
0.0
144
1.0
147
0.0208333333333333
147
0.0
147
0.0
147
0.0
147
0.0
147
0.0208333333333333
147
0.0
147
0.0
147
0.0
147
0.0
147
1.0
147
0.0
147
0.0
147
0.0
147
0.0
147
1.0
  0
MLEADERSTYLE
  5
67
102
{ACAD_XDICTIONARY
360
15D
102
}
102
{ACAD_REACTORS
330
66
102
}
330
66
100
AcDbMLeaderStyle
179
     2
170
     2
171
     1
172
     0
 90
        2
 40
0.0
 41
0.0
173
     1
 91
-1056964608
340
5B
 92
       -2
290
     1
 42
0.09
291
     1
 43
0.36
  3
Standard
 44
0.18
300

342
55
174
     1
178
     6
175
     1
176
     0
 93
-1056964608
 45
0.18
292
     0
297
     0
 46
0.18
 94
-1056964608
 47
1.0
 49
1.0
140
1.0
293
     1
141
0.0
294
     1
177
     0
142
1.0
295
     0
296
     0
143
0.125
271
     0
272
     9
273
     9
  0
MLINESTYLE
  5
60
102
{ACAD_REACTORS
330
5F
102
}
330
5F
100
AcDbMlineStyle
  2
STANDARD
 70
     0
  3

 62
   256
 51
90.0
 52
90.0
 71
     2
 49
0.5
 62
   256
  6
BYLAYER
 49
-0.5
 62
   256
  6
BYLAYER
  0
ACDBPLACEHOLDER
  5
F
102
{ACAD_REACTORS
330
E
102
}
330
E
  0
SCALE
  5
43
102
{ACAD_REACTORS
330
42
102
}
330
42
100
AcDbScale
 70
     0
300
1:1
140
1.0
141
1.0
290
     1
  0
SCALE
  5
44
102
{ACAD_REACTORS
330
42
102
}
330
42
100
AcDbScale
 70
     0
300
1/128" = 1'-0"
140
0.0078125
141
12.0
290
     0
  0
SCALE
  5
45
102
{ACAD_REACTORS
330
42
102
}
330
42
100
AcDbScale
 70
     0
300
1/64" = 1'-0"
140
0.015625
141
12.0
290
     0
  0
SCALE
  5
46
102
{ACAD_REACTORS
330
42
102
}
330
42
100
AcDbScale
 70
     0
300
1/32" = 1'-0"
140
0.03125
141
12.0
290
     0
  0
SCALE
  5
47
102
{ACAD_REACTORS
330
42
102
}
330
42
100
AcDbScale
 70
     0
300
1/16" = 1'-0"
140
0.0625
141
12.0
290
     0
  0
SCALE
  5
48
102
{ACAD_REACTORS
330
42
102
}
330
42
100
AcDbScale
 70
     0
300
3/32" = 1'-0"
140
0.09375
141
12.0
290
     0
  0
SCALE
  5
49
102
{ACAD_REACTORS
330
42
102
}
330
42
100
AcDbScale
 70
     0
300
1/8" = 1'-0"
140
0.125
141
12.0
290
     0
  0
SCALE
  5
4A
102
{ACAD_REACTORS
330
42
102
}
330
42
100
AcDbScale
 70
     0
300
3/16" = 1'-0"
140
0.1875
141
12.0
290
     0
  0
SCALE
  5
4B
102
{ACAD_REACTORS
330
42
102
}
330
42
100
AcDbScale
 70
     0
300
1/4" = 1'-0"
140
0.25
141
12.0
290
     0
  0
SCALE
  5
4C
102
{ACAD_REACTORS
330
42
102
}
330
42
100
AcDbScale
 70
     0
300
3/8" = 1'-0"
140
0.375
141
12.0
290
     0
  0
SCALE
  5
4D
102
{ACAD_REACTORS
330
42
102
}
330
42
100
AcDbScale
 70
     0
300
1/2" = 1'-0"
140
0.5
141
12.0
290
     0
  0
SCALE
  5
4E
102
{ACAD_REACTORS
330
42
102
}
330
42
100
AcDbScale
 70
     0
300
3/4" = 1'-0"
140
0.75
141
12.0
290
     0
  0
SCALE
  5
4F
102
{ACAD_REACTORS
330
42
102
}
330
42
100
AcDbScale
 70
     0
300
1" = 1'-0"
140
1.0
141
12.0
290
     0
  0
SCALE
  5
50
102
{ACAD_REACTORS
330
42
102
}
330
42
100
AcDbScale
 70
     0
300
1-1/2" = 1'-0"
140
1.5
141
12.0
290
     0
  0
SCALE
  5
51
102
{ACAD_REACTORS
330
42
102
}
330
42
100
AcDbScale
 70
     0
300
3" = 1'-0"
140
3.0
141
12.0
290
     0
  0
SCALE
  5
52
102
{ACAD_REACTORS
330
42
102
}
330
42
100
AcDbScale
 70
     0
300
6" = 1'-0"
140
6.0
141
12.0
290
     0
  0
SCALE
  5
53
102
{ACAD_REACTORS
330
42
102
}
330
42
100
AcDbScale
 70
     0
300
1'-0" = 1'-0"
140
12.0
141
12.0
290
     0
  0
ACDBSECTIONVIEWSTYLE
  5
69
102
{ACAD_XDICTIONARY
360
15F
102
}
102
{ACAD_REACTORS
330
68
102
}
330
68
100
AcDbModelDocViewStyle
 70
     0
  3
Imperial24
290
     0
100
AcDbSectionViewStyle
 70
     0
 71
     0
 90
       78
 71
     1
340
55
 62
   256
 40
0.24
340
0
340
0
 62
   256
 40
0.24
300
I, O, Q, S, X, Z
 40
0.48
 90
        3
 40
0.18
 90
        1
 71
     2
340
5D
 90
       25
 62
   256
340
5D
 90
       50
 62
   256
 40
0.24
 40
0.0
 40
0.24
 71
     3
340
55
 62
   256
 40
0.24
 90
        1
 40
0.75
 90
        1
300
%<\AcVar ViewType \f "%tc1">% %<\AcVar ViewSectionStartId>%-%<\AcVar ViewSectionEndId>%\PSCALE %<\AcVar ViewScale \f "%sn">%
 71
     4
 62
   256
 62
   257
300
ANSI31
 40
1.0
 90
        0
290
     0
290
     0
 90
        6
 40
0.0
 40
1.570796326794896
 40
0.2617993877991494
 40
1.308996938995747
 40
-0.2617993877991494
 40
1.832595714594046
  0
TABLESTYLE
  5
65
102
{ACAD_XDICTIONARY
360
12A
102
}
102
{ACAD_REACTORS
330
64
102
}
330
64
100
AcDbTableStyle
280
     0
  3
Standard
 70
     0
 71
     0
 40
0.06
 41
0.06
280
     0
281
     0
  7
Standard
140
0.18
170
     2
 62
     0
 63
     7
283
     0
 90
      512
 91
        0
  1

274
    -2
284
     1
 64
     0
275
    -2
285
     1
 65
     0
276
    -2
286
     1
 66
     0
277
    -2
287
     1
 67
     0
278
    -2
288
     1
 68
     0
279
    -2
289
     1
 69
     0
  7
Standard
140
0.25
170
     5
 62
     0
 63
     7
283
     0
 90
      512
 91
        0
  1

274
    -2
284
     1
 64
     0
275
    -2
285
     1
 65
     0
276
    -2
286
     1
 66
     0
277
    -2
287
     1
 67
     0
278
    -2
288
     1
 68
     0
279
    -2
289
     1
 69
     0
  7
Standard
140
0.18
170
     5
 62
     0
 63
     7
283
     0
 90
      512
 91
        0
  1

274
    -2
284
     1
 64
     0
275
    -2
285
     1
 65
     0
276
    -2
286
     1
 66
     0
277
    -2
287
     1
 67
     0
278
    -2
288
     1
 68
     0
279
    -2
289
     1
 69
     0
  0
VISUALSTYLE
  5
2F
102
{ACAD_XDICTIONARY
360
137
102
}
102
{ACAD_REACTORS
330
29
102
}
330
29
100
AcDbVisualStyle
  2
2dWireframe
 70
     4
177
     2
291
     0
 71
     0
176
     1
 72
     2
176
     1
 73
     0
176
     1
 90
        0
176
     1
 40
0.6
176
     1
 41
30.0
176
     1
 63
     7
421
 16777215
176
     1
 74
     1
176
     1
 91
        4
176
     1
 64
     7
176
     1
 65
   257
176
     1
 75
     1
176
     1
175
     1
176
     1
 42
1.0
176
     1
 92
        0
176
     1
 66
   257
176
     1
 43
1.0
176
     1
 76
     1
176
     1
 77
     6
176
     1
 78
     2
176
     1
 67
     7
176
     1
 79
     5
176
     1
170
     0
176
     1
171
     0
176
     1
290
     0
176
     1
 93
        1
176
     1
 44
0.0
176
     1
173
     0
176
     1
1001
ACAD
1000
AcDbSavedByObjectVersion
1070
     0
  0
VISUALSTYLE
  5
2E
102
{ACAD_XDICTIONARY
360
135
102
}
102
{ACAD_REACTORS
330
29
102
}
330
29
100
AcDbVisualStyle
  2
Basic
 70
     7
177
     2
291
     1
 71
     1
176
     1
 72
     0
176
     1
 73
     1
176
     1
 90
        0
176
     1
 40
0.6
176
     1
 41
30.0
176
     1
 63
     7
421
 16777215
176
     1
 74
     0
176
     1
 91
        4
176
     1
 64
     7
176
     1
 65
   257
176
     1
 75
     1
176
     1
175
     1
176
     1
 42
1.0
176
     1
 92
        8
176
     1
 66
     7
176
     1
 43
1.0
176
     1
 76
     1
176
     1
 77
     6
176
     1
 78
     2
176
     1
 67
     7
176
     1
 79
     5
176
     1
170
     0
176
     1
171
     0
176
     1
290
     0
176
     1
 93
        1
176
     1
 44
0.0
176
     1
173
     0
176
     1
1001
ACAD
1000
AcDbSavedByObjectVersion
1070
     0
  0
VISUALSTYLE
  5
35
102
{ACAD_XDICTIONARY
360
143
102
}
102
{ACAD_REACTORS
330
29
102
}
330
29
100
AcDbVisualStyle
  2
Brighten
 70
    12
177
     2
291
     1
 71
     2
176
     1
 72
     2
176
     1
 73
     0
176
     1
 90
        0
176
     1
 40
0.6
176
     1
 41
30.0
176
     1
 63
     7
421
 16777215
176
     1
 74
     1
176
     1
 91
        4
176
     1
 64
     7
176
     1
 65
   257
176
     1
 75
     1
176
     1
175
     1
176
     1
 42
1.0
176
     1
 92
        8
176
     1
 66
     7
176
     1
 43
1.0
176
     1
 76
     1
176
     1
 77
     6
176
     1
 78
     2
176
     1
 67
     7
176
     1
 79
     5
176
     1
170
     0
176
     1
171
     0
176
     1
290
     0
176
     1
 93
        1
176
     1
 44
50.0
176
     1
173
     0
176
     1
1001
ACAD
1000
AcDbSavedByObjectVersion
1070
     0
  0
VISUALSTYLE
  5
39
102
{ACAD_XDICTIONARY
360
14B
102
}
102
{ACAD_REACTORS
330
29
102
}
330
29
100
AcDbVisualStyle
  2
ColorChange
 70
    16
177
     2
291
     1
 71
     2
176
     1
 72
     2
176
     1
 73
     3
176
     1
 90
        0
176
     1
 40
0.6
176
     1
 41
30.0
176
     1
 63
     8
421
  8421504
176
     1
 74
     1
176
     1
 91
        4
176
     1
 64
     7
176
     1
 65
   257
176
     1
 75
     1
176
     1
175
     1
176
     1
 42
1.0
176
     1
 92
        8
176
     1
 66
     8
424
  8421504
176
     1
 43
1.0
176
     1
 76
     1
176
     1
 77
     6
176
     1
 78
     2
176
     1
 67
     7
176
     1
 79
     5
176
     1
170
     0
176
     1
171
     0
176
     1
290
     0
176
     1
 93
        1
176
     1
 44
0.0
176
     1
173
     0
176
     1
1001
ACAD
1000
AcDbSavedByObjectVersion
1070
     0
  0
VISUALSTYLE
  5
32
102
{ACAD_XDICTIONARY
360
13D
102
}
102
{ACAD_REACTORS
330
29
102
}
330
29
100
AcDbVisualStyle
  2
Conceptual
 70
     9
177
     2
291
     0
 71
     3
176
     1
 72
     2
176
     1
 73
     0
176
     1
 90
        0
176
     1
 40
0.6
176
     1
 41
30.0
176
     1
 63
     7
421
 16777215
176
     1
 74
     2
176
     1
 91
        2
176
     1
 64
     7
176
     1
 65
   257
176
     1
 75
     1
176
     1
175
     1
176
     1
 42
179.0
176
     1
 92
        8
176
     1
 66
     7
176
     1
 43
1.0
176
     1
 76
     1
176
     1
 77
     6
176
     1
 78
     2
176
     1
 67
     7
176
     1
 79
     3
176
     1
170
     0
176
     1
171
     0
176
     1
290
     0
176
     1
 93
        1
176
     1
 44
0.0
176
     1
173
     0
176
     1
1001
ACAD
1000
AcDbSavedByObjectVersion
1070
     0
  0
VISUALSTYLE
  5
34
102
{ACAD_XDICTIONARY
360
141
102
}
102
{ACAD_REACTORS
330
29
102
}
330
29
100
AcDbVisualStyle
  2
Dim
 70
    11
177
     2
291
     1
 71
     2
176
     1
 72
     2
176
     1
 73
     0
176
     1
 90
        0
176
     1
 40
0.6
176
     1
 41
30.0
176
     1
 63
     7
421
 16777215
176
     1
 74
     1
176
     1
 91
        4
176
     1
 64
     7
176
     1
 65
   257
176
     1
 75
     1
176
     1
175
     1
176
     1
 42
1.0
176
     1
 92
        8
176
     1
 66
     7
176
     1
 43
1.0
176
     1
 76
     1
176
     1
 77
     6
176
     1
 78
     2
176
     1
 67
     7
176
     1
 79
     5
176
     1
170
     0
176
     1
171
     0
176
     1
290
     0
176
     1
 93
        1
176
     1
 44
-50.0
176
     1
173
     0
176
     1
1001
ACAD
1000
AcDbSavedByObjectVersion
1070
     0
  0
VISUALSTYLE
  5
41
102
{ACAD_XDICTIONARY
360
15B
102
}
102
{ACAD_REACTORS
330
29
102
}
330
29
100
AcDbVisualStyle
  2
EdgeColorOff
 70
    22
177
     2
291
     1
 71
     2
176
     0
 72
     2
176
     0
 73
     0
176
     0
 90
        0
176
     0
 40
0.6
176
     0
 41
30.0
176
     0
 63
     7
421
 16777215
176
     0
 74
     1
176
     0
 91
        4
176
     0
 64
     7
176
     0
 65
   257
176
     0
 75
     1
176
     0
175
     1
176
     0
 42
1.0
176
     0
 92
        8
176
     2
 66
     7
176
     0
 43
1.0
176
     0
 76
     1
176
     0
 77
     6
176
     0
 78
     2
176
     0
 67
     7
176
     0
 79
     5
176
     0
170
     0
176
     0
171
     0
176
     0
290
     0
176
     0
 93
        1
176
     0
 44
0.0
176
     0
173
     0
176
     0
1001
ACAD
1000
AcDbSavedByObjectVersion
1070
     0
  0
VISUALSTYLE
  5
38
102
{ACAD_XDICTIONARY
360
149
102
}
102
{ACAD_REACTORS
330
29
102
}
330
29
100
AcDbVisualStyle
  2
Facepattern
 70
    15
177
     2
291
     1
 71
     2
176
     1
 72
     2
176
     1
 73
     0
176
     1
 90
        0
176
     1
 40
0.6
176
     1
 41
30.0
176
     1
 63
     7
421
 16777215
176
     1
 74
     1
176
     1
 91
        4
176
     1
 64
     7
176
     1
 65
   257
176
     1
 75
     1
176
     1
175
     1
176
     1
 42
1.0
176
     1
 92
        8
176
     1
 66
     7
176
     1
 43
1.0
176
     1
 76
     1
176
     1
 77
     6
176
     1
 78
     2
176
     1
 67
     7
176
     1
 79
     5
176
     1
170
     0
176
     1
171
     0
176
     1
290
     0
176
     1
 93
        1
176
     1
 44
0.0
176
     1
173
     0
176
     1
1001
ACAD
1000
AcDbSavedByObjectVersion
1070
     0
  0
VISUALSTYLE
  5
2A
102
{ACAD_XDICTIONARY
360
12D
102
}
102
{ACAD_REACTORS
330
29
102
}
330
29
100
AcDbVisualStyle
  2
Flat
 70
     0
177
     2
291
     1
 71
     2
176
     1
 72
     1
176
     1
 73
     1
176
     1
 90
        2
176
     1
 40
0.6
176
     1
 41
30.0
176
     1
 63
     7
421
 16777215
176
     1
 74
     0
176
     1
 91
        0
176
     1
 64
     7
176
     1
 65
   257
176
     1
 75
     1
176
     1
175
     1
176
     1
 42
1.0
176
     1
 92
        8
176
     1
 66
     7
176
     1
 43
1.0
176
     1
 76
     1
176
     1
 77
     6
176
     1
 78
     2
176
     1
 67
     7
176
     1
 79
     5
176
     1
170
     0
176
     1
171
     0
176
     1
290
     0
176
     1
 93
       13
176
     1
 44
0.0
176
     1
173
     0
176
     1
1001
ACAD
1000
AcDbSavedByObjectVersion
1070
     0
  0
VISUALSTYLE
  5
2B
102
{ACAD_XDICTIONARY
360
12F
102
}
102
{ACAD_REACTORS
330
29
102
}
330
29
100
AcDbVisualStyle
  2
FlatWithEdges
 70
     1
177
     2
291
     1
 71
     2
176
     1
 72
     1
176
     1
 73
     1
176
     1
 90
        2
176
     1
 40
0.6
176
     1
 41
30.0
176
     1
 63
     7
421
 16777215
176
     1
 74
     1
176
     1
 91
        0
176
     1
 64
     7
176
     1
 65
   257
176
     1
 75
     1
176
     1
175
     1
176
     1
 42
1.0
176
     1
 92
        0
176
     1
 66
   257
176
     1
 43
1.0
176
     1
 76
     1
176
     1
 77
     6
176
     1
 78
     2
176
     1
 67
     7
176
     1
 79
     5
176
     1
170
     0
176
     1
171
     0
176
     1
290
     0
176
     1
 93
       13
176
     1
 44
0.0
176
     1
173
     0
176
     1
1001
ACAD
1000
AcDbSavedByObjectVersion
1070
     0
  0
VISUALSTYLE
  5
2C
102
{ACAD_XDICTIONARY
360
131
102
}
102
{ACAD_REACTORS
330
29
102
}
330
29
100
AcDbVisualStyle
  2
Gouraud
 70
     2
177
     2
291
     1
 71
     2
176
     1
 72
     2
176
     1
 73
     1
176
     1
 90
        2
176
     1
 40
0.6
176
     1
 41
30.0
176
     1
 63
     7
421
 16777215
176
     1
 74
     0
176
     1
 91
        0
176
     1
 64
     7
176
     1
 65
   257
176
     1
 75
     1
176
     1
175
     1
176
     1
 42
1.0
176
     1
 92
        0
176
     1
 66
     7
176
     1
 43
1.0
176
     1
 76
     1
176
     1
 77
     6
176
     1
 78
     2
176
     1
 67
     7
176
     1
 79
     5
176
     1
170
     0
176
     1
171
     0
176
     1
290
     0
176
     1
 93
       13
176
     1
 44
0.0
176
     1
173
     0
176
     1
1001
ACAD
1000
AcDbSavedByObjectVersion
1070
     0
  0
VISUALSTYLE
  5
2D
102
{ACAD_XDICTIONARY
360
133
102
}
102
{ACAD_REACTORS
330
29
102
}
330
29
100
AcDbVisualStyle
  2
GouraudWithEdges
 70
     3
177
     2
291
     1
 71
     2
176
     1
 72
     2
176
     1
 73
     1
176
     1
 90
        2
176
     1
 40
0.6
176
     1
 41
30.0
176
     1
 63
     7
421
 16777215
176
     1
 74
     1
176
     1
 91
        0
176
     1
 64
     7
176
     1
 65
   257
176
     1
 75
     1
176
     1
175
     1
176
     1
 42
1.0
176
     1
 92
        0
176
     1
 66
   257
176
     1
 43
1.0
176
     1
 76
     1
176
     1
 77
     6
176
     1
 78
     2
176
     1
 67
     7
176
     1
 79
     5
176
     1
170
     0
176
     1
171
     0
176
     1
290
     0
176
     1
 93
       13
176
     1
 44
0.0
176
     1
173
     0
176
     1
1001
ACAD
1000
AcDbSavedByObjectVersion
1070
     0
  0
VISUALSTYLE
  5
31
102
{ACAD_XDICTIONARY
360
13B
102
}
102
{ACAD_REACTORS
330
29
102
}
330
29
100
AcDbVisualStyle
  2
Hidden
 70
     6
177
     2
291
     0
 71
     1
176
     1
 72
     2
176
     1
 73
     2
176
     1
 90
        0
176
     1
 40
0.6
176
     1
 41
30.0
176
     1
 63
     7
421
 16777215
176
     1
 74
     2
176
     1
 91
        2
176
     1
 64
     7
176
     1
 65
   257
176
     1
 75
     2
176
     1
175
     1
176
     1
 42
40.0
176
     1
 92
        0
176
     1
 66
   257
176
     1
 43
1.0
176
     1
 76
     1
176
     1
 77
     6
176
     1
 78
     2
176
     1
 67
     7
176
     1
 79
     3
176
     1
170
     0
176
     1
171
     0
176
     1
290
     0
176
     1
 93
        1
176
     1
 44
0.0
176
     1
173
     0
176
     1
1001
ACAD
1000
AcDbSavedByObjectVersion
1070
     0
  0
VISUALSTYLE
  5
3F
102
{ACAD_XDICTIONARY
360
157
102
}
102
{ACAD_REACTORS
330
29
102
}
330
29
100
AcDbVisualStyle
  2
JitterOff
 70
    20
177
     2
291
     1
 71
     2
176
     0
 72
     2
176
     0
 73
     0
176
     0
 90
        0
176
     0
 40
0.6
176
     0
 41
30.0
176
     0
 63
     7
421
 16777215
176
     0
 74
     1
176
     0
 91
        4
176
     0
 64
     7
176
     0
 65
   257
176
     0
 75
     1
176
     0
175
     1
176
     0
 42
1.0
176
     0
 92
       10
176
     2
 66
     7
176
     0
 43
1.0
176
     0
 76
     1
176
     0
 77
     6
176
     0
 78
     2
176
     0
 67
     7
176
     0
 79
     5
176
     0
170
     0
176
     0
171
     0
176
     0
290
     0
176
     0
 93
        1
176
     0
 44
0.0
176
     0
173
     0
176
     0
1001
ACAD
1000
AcDbSavedByObjectVersion
1070
     0
  0
VISUALSTYLE
  5
37
102
{ACAD_XDICTIONARY
360
147
102
}
102
{ACAD_REACTORS
330
29
102
}
330
29
100
AcDbVisualStyle
  2
Linepattern
 70
    14
177
     2
291
     1
 71
     2
176
     1
 72
     2
176
     1
 73
     0
176
     1
 90
        0
176
     1
 40
0.6
176
     1
 41
30.0
176
     1
 63
     7
421
 16777215
176
     1
 74
     1
176
     1
 91
        4
176
     1
 64
     7
176
     1
 65
   257
176
     1
 75
     7
176
     1
175
     7
176
     1
 42
1.0
176
     1
 92
        8
176
     1
 66
     7
176
     1
 43
1.0
176
     1
 76
     1
176
     1
 77
     6
176
     1
 78
     2
176
     1
 67
     7
176
     1
 79
     5
176
     1
170
     0
176
     1
171
     0
176
     1
290
     0
176
     1
 93
        1
176
     1
 44
0.0
176
     1
173
     0
176
     1
1001
ACAD
1000
AcDbSavedByObjectVersion
1070
     0
  0
VISUALSTYLE
  5
40
102
{ACAD_XDICTIONARY
360
159
102
}
102
{ACAD_REACTORS
330
29
102
}
330
29
100
AcDbVisualStyle
  2
OverhangOff
 70
    21
177
     2
291
     1
 71
     2
176
     0
 72
     2
176
     0
 73
     0
176
     0
 90
        0
176
     0
 40
0.6
176
     0
 41
30.0
176
     0
 63
     7
421
 16777215
176
     0
 74
     1
176
     0
 91
        4
176
     0
 64
     7
176
     0
 65
   257
176
     0
 75
     1
176
     0
175
     1
176
     0
 42
1.0
176
     0
 92
        9
176
     2
 66
     7
176
     0
 43
1.0
176
     0
 76
     1
176
     0
 77
     6
176
     0
 78
     2
176
     0
 67
     7
176
     0
 79
     5
176
     0
170
     0
176
     0
171
     0
176
     0
290
     0
176
     0
 93
        1
176
     0
 44
0.0
176
     0
173
     0
176
     0
1001
ACAD
1000
AcDbSavedByObjectVersion
1070
     0
  0
VISUALSTYLE
  5
33
102
{ACAD_XDICTIONARY
360
13F
102
}
102
{ACAD_REACTORS
330
29
102
}
330
29
100
AcDbVisualStyle
  2
Realistic
 70
     8
177
     2
291
     0
 71
     2
176
     1
 72
     3
176
     1
 73
     0
176
     1
 90
        2
176
     1
 40
0.6
176
     1
 41
30.0
176
     1
 63
     7
421
 16777215
176
     1
 74
     0
176
     1
 91
        0
176
     1
 64
     7
176
     1
 65
   257
176
     1
 75
     1
176
     1
175
     1
176
     1
 42
1.0
176
     1
 92
        8
176
     1
 66
   257
176
     1
 43
1.0
176
     1
 76
     1
176
     1
 77
     6
176
     1
 78
     2
176
     1
 67
     7
176
     1
 79
     3
176
     1
170
     0
176
     1
171
     0
176
     1
290
     0
176
     1
 93
       13
176
     1
 44
0.0
176
     1
173
     0
176
     1
1001
ACAD
1000
AcDbSavedByObjectVersion
1070
     0
  0
VISUALSTYLE
  5
3E
102
{ACAD_XDICTIONARY
360
155
102
}
102
{ACAD_REACTORS
330
29
102
}
330
29
100
AcDbVisualStyle
  2
Shaded
 70
    27
177
     2
291
     0
 71
     2
176
     1
 72
     2
176
     1
 73
     1
176
     1
 90
        2
176
     1
 40
0.6
176
     1
 41
30.0
176
     1
 63
     7
421
 16777215
176
     1
 74
     0
176
     1
 91
        4
176
     1
 64
     7
176
     1
 65
   257
176
     1
 75
     1
176
     1
175
     1
176
     1
 42
1.0
176
     1
 92
        8
176
     1
 66
   257
176
     1
 43
1.0
176
     1
 76
     1
176
     1
 77
     6
176
     1
 78
     2
176
     1
 67
     8
425
  7895160
176
     1
 79
     3
176
     1
170
     0
176
     1
171
     0
176
     1
290
     0
176
     1
 93
        5
176
     1
 44
0.0
176
     1
173
     0
176
     1
1001
ACAD
1000
AcDbSavedByObjectVersion
1070
     0
  0
VISUALSTYLE
  5
3D
102
{ACAD_XDICTIONARY
360
153
102
}
102
{ACAD_REACTORS
330
29
102
}
330
29
100
AcDbVisualStyle
  2
Shaded with edges
 70
    26
177
     2
291
     0
 71
     2
176
     1
 72
     2
176
     1
 73
     1
176
     1
 90
        2
176
     1
 40
0.6
176
     1
 41
30.0
176
     1
 63
     7
421
 16777215
176
     1
 74
     1
176
     1
 91
        2
176
     1
 64
     7
176
     1
 65
   257
176
     1
 75
     2
176
     1
175
     1
176
     1
 42
1.0
176
     1
 92
        8
176
     1
 66
   257
176
     1
 43
1.0
176
     1
 76
     1
176
     1
 77
     6
176
     1
 78
     2
176
     1
 67
     7
176
     1
 79
     3
176
     1
170
     0
176
     1
171
     0
176
     1
290
     0
176
     1
 93
        5
176
     1
 44
0.0
176
     1
173
     0
176
     1
1001
ACAD
1000
AcDbSavedByObjectVersion
1070
     0
  0
VISUALSTYLE
  5
3A
102
{ACAD_XDICTIONARY
360
14D
102
}
102
{ACAD_REACTORS
330
29
102
}
330
29
100
AcDbVisualStyle
  2
Shades of Gray
 70
    23
177
     2
291
     0
 71
     2
176
     1
 72
     2
176
     1
 73
     3
176
     1
 90
        0
176
     1
 40
0.6
176
     1
 41
30.0
176
     1
 63
     7
421
 16777215
176
     1
 74
     2
176
     1
 91
        2
176
     1
 64
     7
176
     1
 65
     7
176
     1
 75
     1
176
     1
175
     1
176
     1
 42
40.0
176
     1
 92
        8
176
     1
 66
     7
176
     1
 43
1.0
176
     1
 76
     1
176
     1
 77
     6
176
     1
 78
     2
176
     1
 67
     7
176
     1
 79
     3
176
     1
170
     0
176
     1
171
     0
176
     1
290
     0
176
     1
 93
        1
176
     1
 44
0.0
176
     1
173
     0
176
     1
1001
ACAD
1000
AcDbSavedByObjectVersion
1070
     0
  0
VISUALSTYLE
  5
3B
102
{ACAD_XDICTIONARY
360
14F
102
}
102
{ACAD_REACTORS
330
29
102
}
330
29
100
AcDbVisualStyle
  2
Sketchy
 70
    24
177
     2
291
     0
 71
     1
176
     1
 72
     2
176
     1
 73
     2
176
     1
 90
        0
176
     1
 40
0.6
176
     1
 41
30.0
176
     1
 63
     7
421
 16777215
176
     1
 74
     2
176
     1
 91
        2
176
     1
 64
     7
176
     1
 65
     7
176
     1
 75
     1
176
     1
175
     1
176
     1
 42
40.0
176
     1
 92
       11
176
     1
 66
     7
176
     1
 43
1.0
176
     1
 76
     1
176
     1
 77
     6
176
     1
 78
     2
176
     1
 67
     7
176
     1
 79
     6
176
     1
170
     0
176
     1
171
     0
176
     1
290
     0
176
     1
 93
        1
176
     1
 44
0.0
176
     1
173
     0
176
     1
1001
ACAD
1000
AcDbSavedByObjectVersion
1070
     0
  0
VISUALSTYLE
  5
36
102
{ACAD_XDICTIONARY
360
145
102
}
102
{ACAD_REACTORS
330
29
102
}
330
29
100
AcDbVisualStyle
  2
Thicken
 70
    13
177
     2
291
     1
 71
     2
176
     1
 72
     2
176
     1
 73
     0
176
     1
 90
        0
176
     1
 40
0.6
176
     1
 41
30.0
176
     1
 63
     7
421
 16777215
176
     1
 74
     1
176
     1
 91
        4
176
     1
 64
     7
176
     1
 65
   257
176
     1
 75
     1
176
     1
175
     1
176
     1
 42
1.0
176
     1
 92
       12
176
     1
 66
     7
176
     1
 43
1.0
176
     1
 76
     1
176
     1
 77
     6
176
     1
 78
     2
176
     1
 67
     7
176
     1
 79
     5
176
     1
170
     0
176
     1
171
     0
176
     1
290
     0
176
     1
 93
        1
176
     1
 44
0.0
176
     1
173
     0
176
     1
1001
ACAD
1000
AcDbSavedByObjectVersion
1070
     0
  0
VISUALSTYLE
  5
30
102
{ACAD_XDICTIONARY
360
139
102
}
102
{ACAD_REACTORS
330
29
102
}
330
29
100
AcDbVisualStyle
  2
Wireframe
 70
     5
177
     2
291
     0
 71
     0
176
     1
 72
     2
176
     1
 73
     0
176
     1
 90
        0
176
     1
 40
0.6
176
     1
 41
30.0
176
     1
 63
     7
421
 16777215
176
     1
 74
     1
176
     1
 91
        4
176
     1
 64
     7
176
     1
 65
   257
176
     1
 75
     1
176
     1
175
     1
176
     1
 42
1.0
176
     1
 92
        0
176
     1
 66
   257
176
     1
 43
1.0
176
     1
 76
     1
176
     1
 77
     6
176
     1
 78
     2
176
     1
 67
     7
176
     1
 79
     3
176
     1
170
     0
176
     1
171
     0
176
     1
290
     0
176
     1
 93
        1
176
     1
 44
0.0
176
     1
173
     0
176
     1
1001
ACAD
1000
AcDbSavedByObjectVersion
1070
     0
  0
VISUALSTYLE
  5
3C
102
{ACAD_XDICTIONARY
360
151
102
}
102
{ACAD_REACTORS
330
29
102
}
330
29
100
AcDbVisualStyle
  2
X-Ray
 70
    25
177
     2
291
     0
 71
     2
176
     1
 72
     2
176
     1
 73
     1
176
     1
 90
        1
176
     1
 40
0.5
176
     1
 41
30.0
176
     1
 63
     7
421
 16777215
176
     1
 74
     1
176
     1
 91
        0
176
     1
 64
     7
176
     1
 65
   257
176
     1
 75
     1
176
     1
175
     1
176
     1
 42
1.0
176
     1
 92
        8
176
     1
 66
     7
176
     1
 43
1.0
176
     1
 76
     1
176
     1
 77
     6
176
     1
 78
     2
176
     1
 67
     7
176
     1
 79
     3
176
     1
170
     0
176
     1
171
     0
176
     1
290
     0
176
     1
 93
       13
176
     1
 44
0.0
176
     1
173
     0
176
     1
1001
ACAD
1000
AcDbSavedByObjectVersion
1070
     0
  0
DICTIONARYVAR
  5
129
102
{ACAD_REACTORS
330
124
102
}
330
124
100
DictionaryVariables
280
     0
  1
1:1
  0
DICTIONARYVAR
  5
126
102
{ACAD_REACTORS
330
124
102
}
330
124
100
DictionaryVariables
280
     0
  1
STANDARD
  0
DICTIONARYVAR
  5
125
102
{ACAD_REACTORS
330
124
102
}
330
124
100
DictionaryVariables
280
     0
  1
STANDARD
  0
DICTIONARYVAR
  5
127
102
{ACAD_REACTORS
330
124
102
}
330
124
100
DictionaryVariables
280
     0
  1
Imperial24
  0
DICTIONARYVAR
  5
128
102
{ACAD_REACTORS
330
124
102
}
330
124
100
DictionaryVariables
280
     0
  1
Imperial24
  0
DICTIONARY
  5
161
330
6B
100
AcDbDictionary
280
     1
281
     1
  3
ACAD_XREC_ROUNDTRIP
360
162
  0
DICTIONARY
  5
1A
330
19
100
AcDbDictionary
280
     1
281
     1
  3
BUMPTILE
360
1C
  3
DIFFUSETILE
360
1B
  3
OPACITYTILE
360
1F
  3
REFLECTIONTILE
360
1E
  3
REFRACTIONTILE
360
20
  3
SPECULARTILE
360
1D
  0
DICTIONARY
  5
12
330
11
100
AcDbDictionary
280
     1
281
     1
  3
BUMPTILE
360
14
  3
DIFFUSETILE
360
13
  3
OPACITYTILE
360
17
  3
REFLECTIONTILE
360
16
  3
REFRACTIONTILE
360
18
  3
SPECULARTILE
360
15
  0
DICTIONARY
  5
22
330
21
100
AcDbDictionary
280
     1
281
     1
  3
BUMPTILE
360
24
  3
DIFFUSETILE
360
23
  3
OPACITYTILE
360
27
  3
REFLECTIONTILE
360
26
  3
REFRACTIONTILE
360
28
  3
SPECULARTILE
360
25
  0
DICTIONARY
  5
15D
330
67
100
AcDbDictionary
280
     1
281
     1
  3
ACAD_XREC_ROUNDTRIP
360
15E
  0
DICTIONARY
  5
15F
330
69
100
AcDbDictionary
280
     1
281
     1
  3
ACAD_XREC_ROUNDTRIP
360
160
  0
DICTIONARY
  5
12A
330
65
100
AcDbDictionary
280
     1
281
     1
  3
ACAD_ROUNDTRIP_2008_TABLESTYLE_CELLSTYLEMAP
360
12B
  0
DICTIONARY
  5
137
330
2F
100
AcDbDictionary
280
     1
281
     1
  3
ACAD_XREC_ROUNDTRIP
360
138
  0
DICTIONARY
  5
135
330
2E
100
AcDbDictionary
280
     1
281
     1
  3
ACAD_XREC_ROUNDTRIP
360
136
  0
DICTIONARY
  5
143
330
35
100
AcDbDictionary
280
     1
281
     1
  3
ACAD_XREC_ROUNDTRIP
360
144
  0
DICTIONARY
  5
14B
330
39
100
AcDbDictionary
280
     1
281
     1
  3
ACAD_XREC_ROUNDTRIP
360
14C
  0
DICTIONARY
  5
13D
330
32
100
AcDbDictionary
280
     1
281
     1
  3
ACAD_XREC_ROUNDTRIP
360
13E
  0
DICTIONARY
  5
141
330
34
100
AcDbDictionary
280
     1
281
     1
  3
ACAD_XREC_ROUNDTRIP
360
142
  0
DICTIONARY
  5
15B
330
41
100
AcDbDictionary
280
     1
281
     1
  3
ACAD_XREC_ROUNDTRIP
360
15C
  0
DICTIONARY
  5
149
330
38
100
AcDbDictionary
280
     1
281
     1
  3
ACAD_XREC_ROUNDTRIP
360
14A
  0
DICTIONARY
  5
12D
330
2A
100
AcDbDictionary
280
     1
281
     1
  3
ACAD_XREC_ROUNDTRIP
360
12E
  0
DICTIONARY
  5
12F
330
2B
100
AcDbDictionary
280
     1
281
     1
  3
ACAD_XREC_ROUNDTRIP
360
130
  0
DICTIONARY
  5
131
330
2C
100
AcDbDictionary
280
     1
281
     1
  3
ACAD_XREC_ROUNDTRIP
360
132
  0
DICTIONARY
  5
133
330
2D
100
AcDbDictionary
280
     1
281
     1
  3
ACAD_XREC_ROUNDTRIP
360
134
  0
DICTIONARY
  5
13B
330
31
100
AcDbDictionary
280
     1
281
     1
  3
ACAD_XREC_ROUNDTRIP
360
13C
  0
DICTIONARY
  5
157
330
3F
100
AcDbDictionary
280
     1
281
     1
  3
ACAD_XREC_ROUNDTRIP
360
158
  0
DICTIONARY
  5
147
330
37
100
AcDbDictionary
280
     1
281
     1
  3
ACAD_XREC_ROUNDTRIP
360
148
  0
DICTIONARY
  5
159
330
40
100
AcDbDictionary
280
     1
281
     1
  3
ACAD_XREC_ROUNDTRIP
360
15A
  0
DICTIONARY
  5
13F
330
33
100
AcDbDictionary
280
     1
281
     1
  3
ACAD_XREC_ROUNDTRIP
360
140
  0
DICTIONARY
  5
155
330
3E
100
AcDbDictionary
280
     1
281
     1
  3
ACAD_XREC_ROUNDTRIP
360
156
  0
DICTIONARY
  5
153
330
3D
100
AcDbDictionary
280
     1
281
     1
  3
ACAD_XREC_ROUNDTRIP
360
154
  0
DICTIONARY
  5
14D
330
3A
100
AcDbDictionary
280
     1
281
     1
  3
ACAD_XREC_ROUNDTRIP
360
14E
  0
DICTIONARY
  5
14F
330
3B
100
AcDbDictionary
280
     1
281
     1
  3
ACAD_XREC_ROUNDTRIP
360
150
  0
DICTIONARY
  5
145
330
36
100
AcDbDictionary
280
     1
281
     1
  3
ACAD_XREC_ROUNDTRIP
360
146
  0
DICTIONARY
  5
139
330
30
100
AcDbDictionary
280
     1
281
     1
  3
ACAD_XREC_ROUNDTRIP
360
13A
  0
DICTIONARY
  5
151
330
3C
100
AcDbDictionary
280
     1
281
     1
  3
ACAD_XREC_ROUNDTRIP
360
152
  0
XRECORD
  5
162
102
{ACAD_REACTORS
330
161
102
}
330
161
100
AcDbXrecord
280
     1
102
DISPLAYNAME
  1
Imperial24
102
FLAGS
 90
        0
  0
XRECORD
  5
1C
102
{ACAD_REACTORS
330
1A
102
}
330
1A
100
AcDbXrecord
280
     1
270
     1
271
     1
  0
XRECORD
  5
1B
102
{ACAD_REACTORS
330
1A
102
}
330
1A
100
AcDbXrecord
280
     1
270
     1
271
     1
  0
XRECORD
  5
1F
102
{ACAD_REACTORS
330
1A
102
}
330
1A
100
AcDbXrecord
280
     1
270
     1
271
     1
  0
XRECORD
  5
1E
102
{ACAD_REACTORS
330
1A
102
}
330
1A
100
AcDbXrecord
280
     1
270
     1
271
     1
  0
XRECORD
  5
20
102
{ACAD_REACTORS
330
1A
102
}
330
1A
100
AcDbXrecord
280
     1
270
     1
271
     1
  0
XRECORD
  5
1D
102
{ACAD_REACTORS
330
1A
102
}
330
1A
100
AcDbXrecord
280
     1
270
     1
271
     1
  0
XRECORD
  5
14
102
{ACAD_REACTORS
330
12
102
}
330
12
100
AcDbXrecord
280
     1
270
     1
271
     1
  0
XRECORD
  5
13
102
{ACAD_REACTORS
330
12
102
}
330
12
100
AcDbXrecord
280
     1
270
     1
271
     1
  0
XRECORD
  5
17
102
{ACAD_REACTORS
330
12
102
}
330
12
100
AcDbXrecord
280
     1
270
     1
271
     1
  0
XRECORD
  5
16
102
{ACAD_REACTORS
330
12
102
}
330
12
100
AcDbXrecord
280
     1
270
     1
271
     1
  0
XRECORD
  5
18
102
{ACAD_REACTORS
330
12
102
}
330
12
100
AcDbXrecord
280
     1
270
     1
271
     1
  0
XRECORD
  5
15
102
{ACAD_REACTORS
330
12
102
}
330
12
100
AcDbXrecord
280
     1
270
     1
271
     1
  0
XRECORD
  5
24
102
{ACAD_REACTORS
330
22
102
}
330
22
100
AcDbXrecord
280
     1
270
     1
271
     1
  0
XRECORD
  5
23
102
{ACAD_REACTORS
330
22
102
}
330
22
100
AcDbXrecord
280
     1
270
     1
271
     1
  0
XRECORD
  5
27
102
{ACAD_REACTORS
330
22
102
}
330
22
100
AcDbXrecord
280
     1
270
     1
271
     1
  0
XRECORD
  5
26
102
{ACAD_REACTORS
330
22
102
}
330
22
100
AcDbXrecord
280
     1
270
     1
271
     1
  0
XRECORD
  5
28
102
{ACAD_REACTORS
330
22
102
}
330
22
100
AcDbXrecord
280
     1
270
     1
271
     1
  0
XRECORD
  5
25
102
{ACAD_REACTORS
330
22
102
}
330
22
100
AcDbXrecord
280
     1
270
     1
271
     1
  0
XRECORD
  5
15E
102
{ACAD_REACTORS
330
15D
102
}
330
15D
100
AcDbXrecord
280
     1
102
ACAD_ROUNDTRIP_2012_MLEADER_STYLE
298
     1
  0
XRECORD
  5
160
102
{ACAD_REACTORS
330
15F
102
}
330
15F
100
AcDbXrecord
280
     1
102
DISPLAYNAME
  1
Imperial24
102
FLAGS
 90
        0
  0
CELLSTYLEMAP
  5
12B
102
{ACAD_REACTORS
330
12A
102
}
330
12A
100
AcDbCellStyleMap
 90
        3
300
CELLSTYLE
  1
TABLEFORMAT_BEGIN
 90
        5
170
     1
 91
        0
 92
    32768
 62
   257
 93
        1
300
CONTENTFORMAT
  1
CONTENTFORMAT_BEGIN
 90
        0
 91
        0
 92
      512
 93
        0
300

 40
0.0
140
1.0
 94
        5
 62
     0
340
55
144
0.25
309
CONTENTFORMAT_END
171
     0
 94
        0
309
TABLEFORMAT_END
  1
CELLSTYLE_BEGIN
 90
        1
 91
        1
300
_TITLE
309
CELLSTYLE_END
300
CELLSTYLE
  1
TABLEFORMAT_BEGIN
 90
        5
170
     1
 91
        0
 92
        0
 62
   257
 93
        1
300
CONTENTFORMAT
  1
CONTENTFORMAT_BEGIN
 90
        0
 91
        0
 92
      512
 93
        0
300

 40
0.0
140
1.0
 94
        5
 62
     0
340
55
144
0.18
309
CONTENTFORMAT_END
171
     0
 94
        0
309
TABLEFORMAT_END
  1
CELLSTYLE_BEGIN
 90
        2
 91
        1
300
_HEADER
309
CELLSTYLE_END
300
CELLSTYLE
  1
TABLEFORMAT_BEGIN
 90
        5
170
     1
 91
        0
 92
        0
 62
   257
 93
        1
300
CONTENTFORMAT
  1
CONTENTFORMAT_BEGIN
 90
        0
 91
        0
 92
      512
 93
        0
300

 40
0.0
140
1.0
 94
        2
 62
     0
340
55
144
0.18
309
CONTENTFORMAT_END
171
     0
 94
        0
309
TABLEFORMAT_END
  1
CELLSTYLE_BEGIN
 90
        3
 91
        2
300
_DATA
309
CELLSTYLE_END
  0
XRECORD
  5
138
102
{ACAD_REACTORS
330
137
102
}
330
137
100
AcDbXrecord
280
     1
102
RTVSPost2010Prop28
280
     1
102
RTVSPost2010PropOp28
 70
     1
102
RTVSPost2010Prop29
280
     1
102
RTVSPost2010PropOp29
 70
     1
102
RTVSPost2010Prop30
280
     0
102
RTVSPost2010PropOp30
 70
     1
102
RTVSPost2010Prop31
280
     0
102
RTVSPost2010PropOp31
 70
     1
102
RTVSPost2010Prop32
280
     0
102
RTVSPost2010PropOp32
 70
     1
102
RTVSPost2010Prop33
280
     0
102
RTVSPost2010PropOp33
 70
     1
102
RTVSPost2010Prop34
280
     0
102
RTVSPost2010PropOp34
 70
     1
102
RTVSPost2010Prop35
280
     0
102
RTVSPost2010PropOp35
 70
     1
102
RTVSPost2010Prop36
280
     0
102
RTVSPost2010PropOp36
 70
     1
102
RTVSPost2010Prop37
 90
       50
102
RTVSPost2010PropOp37
 70
     1
102
RTVSPost2010Prop38
140
0.0
102
RTVSPost2010PropOp38
 70
     1
102
RTVSPost2010Prop39
140
1.0
102
RTVSPost2010PropOp39
 70
     1
102
RTVSPost2010Prop40
 90
        0
102
RTVSPost2010PropOp40
 70
     1
102
RTVSPost2010Prop41ColorIndex
 90
       18
102
RTVSPost2010Prop41ColorRGB
 90
        0
102
RTVSPost2010PropOp41
 70
     1
102
RTVSPost2010Prop42
 90
       50
102
RTVSPost2010PropOp42
 70
     1
102
RTVSPost2010Prop43
 90
        3
102
RTVSPost2010PropOp43
 70
     1
102
RTVSPost2010Prop44ColorIndex
 90
        5
102
RTVSPost2010Prop44ColorRGB
 90
      255
102
RTVSPost2010PropOp44
 70
     1
102
RTVSPost2010Prop45
280
     0
102
RTVSPost2010PropOp45
 70
     1
102
RTVSPost2010Prop46
 90
       50
102
RTVSPost2010PropOp46
 70
     1
102
RTVSPost2010Prop47
 90
       50
102
RTVSPost2010PropOp47
 70
     1
102
RTVSPost2010Prop48
 90
       50
102
RTVSPost2010PropOp48
 70
     1
102
RTVSPost2010Prop49
280
     0
102
RTVSPost2010PropOp49
 70
     1
102
RTVSPost2010Prop50
 90
       50
102
RTVSPost2010PropOp50
 70
     1
102
RTVSPost2010Prop51ColorIndex
 90
      256
102
RTVSPost2010Prop51ColorRGB
 90
-16777216
102
RTVSPost2010PropOp51
 70
     0
102
RTVSPost2010Prop52
140
1.0
102
RTVSPost2010PropOp52
 70
     0
102
RTVSPost2010Prop53
 90
        2
102
RTVSPost2010PropOp53
 70
     1
102
RTVSPost2010Prop54
  1
strokes_ogs.tif
102
RTVSPost2010PropOp54
 70
     1
102
RTVSPost2010Prop55
280
     0
102
RTVSPost2010PropOp55
 70
     1
102
RTVSPost2010Prop56
140
1.0
102
RTVSPost2010PropOp56
 70
     1
102
RTVSPost2010Prop57
140
1.0
102
RTVSPost2010PropOp57
 70
     1
  0
XRECORD
  5
136
102
{ACAD_REACTORS
330
135
102
}
330
135
100
AcDbXrecord
280
     1
102
RTVSPost2010Prop28
280
     0
102
RTVSPost2010PropOp28
 70
     1
102
RTVSPost2010Prop29
280
     1
102
RTVSPost2010PropOp29
 70
     1
102
RTVSPost2010Prop30
280
     1
102
RTVSPost2010PropOp30
 70
     1
102
RTVSPost2010Prop31
280
     0
102
RTVSPost2010PropOp31
 70
     1
102
RTVSPost2010Prop32
280
     0
102
RTVSPost2010PropOp32
 70
     1
102
RTVSPost2010Prop33
280
     0
102
RTVSPost2010PropOp33
 70
     1
102
RTVSPost2010Prop34
280
     0
102
RTVSPost2010PropOp34
 70
     1
102
RTVSPost2010Prop35
280
     0
102
RTVSPost2010PropOp35
 70
     1
102
RTVSPost2010Prop36
280
     0
102
RTVSPost2010PropOp36
 70
     1
102
RTVSPost2010Prop37
 90
       50
102
RTVSPost2010PropOp37
 70
     1
102
RTVSPost2010Prop38
140
0.0
102
RTVSPost2010PropOp38
 70
     1
102
RTVSPost2010Prop39
140
1.0
102
RTVSPost2010PropOp39
 70
     1
102
RTVSPost2010Prop40
 90
        0
102
RTVSPost2010PropOp40
 70
     1
102
RTVSPost2010Prop41ColorIndex
 90
       18
102
RTVSPost2010Prop41ColorRGB
 90
        0
102
RTVSPost2010PropOp41
 70
     1
102
RTVSPost2010Prop42
 90
       50
102
RTVSPost2010PropOp42
 70
     1
102
RTVSPost2010Prop43
 90
        3
102
RTVSPost2010PropOp43
 70
     1
102
RTVSPost2010Prop44ColorIndex
 90
        5
102
RTVSPost2010Prop44ColorRGB
 90
      255
102
RTVSPost2010PropOp44
 70
     1
102
RTVSPost2010Prop45
280
     0
102
RTVSPost2010PropOp45
 70
     1
102
RTVSPost2010Prop46
 90
       50
102
RTVSPost2010PropOp46
 70
     1
102
RTVSPost2010Prop47
 90
       50
102
RTVSPost2010PropOp47
 70
     1
102
RTVSPost2010Prop48
 90
       50
102
RTVSPost2010PropOp48
 70
     1
102
RTVSPost2010Prop49
280
     0
102
RTVSPost2010PropOp49
 70
     1
102
RTVSPost2010Prop50
 90
       50
102
RTVSPost2010PropOp50
 70
     1
102
RTVSPost2010Prop51ColorIndex
 90
      256
102
RTVSPost2010Prop51ColorRGB
 90
-16777216
102
RTVSPost2010PropOp51
 70
     0
102
RTVSPost2010Prop52
140
1.0
102
RTVSPost2010PropOp52
 70
     0
102
RTVSPost2010Prop53
 90
        2
102
RTVSPost2010PropOp53
 70
     1
102
RTVSPost2010Prop54
  1
strokes_ogs.tif
102
RTVSPost2010PropOp54
 70
     1
102
RTVSPost2010Prop55
280
     0
102
RTVSPost2010PropOp55
 70
     1
102
RTVSPost2010Prop56
140
1.0
102
RTVSPost2010PropOp56
 70
     1
102
RTVSPost2010Prop57
140
1.0
102
RTVSPost2010PropOp57
 70
     1
  0
XRECORD
  5
144
102
{ACAD_REACTORS
330
143
102
}
330
143
100
AcDbXrecord
280
     1
102
RTVSPost2010Prop28
280
     0
102
RTVSPost2010PropOp28
 70
     1
102
RTVSPost2010Prop29
280
     1
102
RTVSPost2010PropOp29
 70
     1
102
RTVSPost2010Prop30
280
     1
102
RTVSPost2010PropOp30
 70
     1
102
RTVSPost2010Prop31
280
     0
102
RTVSPost2010PropOp31
 70
     1
102
RTVSPost2010Prop32
280
     0
102
RTVSPost2010PropOp32
 70
     1
102
RTVSPost2010Prop33
280
     0
102
RTVSPost2010PropOp33
 70
     1
102
RTVSPost2010Prop34
280
     0
102
RTVSPost2010PropOp34
 70
     1
102
RTVSPost2010Prop35
280
     0
102
RTVSPost2010PropOp35
 70
     1
102
RTVSPost2010Prop36
280
     0
102
RTVSPost2010PropOp36
 70
     1
102
RTVSPost2010Prop37
 90
       50
102
RTVSPost2010PropOp37
 70
     1
102
RTVSPost2010Prop38
140
0.0
102
RTVSPost2010PropOp38
 70
     1
102
RTVSPost2010Prop39
140
1.0
102
RTVSPost2010PropOp39
 70
     1
102
RTVSPost2010Prop40
 90
        0
102
RTVSPost2010PropOp40
 70
     1
102
RTVSPost2010Prop41ColorIndex
 90
       18
102
RTVSPost2010Prop41ColorRGB
 90
        0
102
RTVSPost2010PropOp41
 70
     1
102
RTVSPost2010Prop42
 90
       50
102
RTVSPost2010PropOp42
 70
     1
102
RTVSPost2010Prop43
 90
        3
102
RTVSPost2010PropOp43
 70
     1
102
RTVSPost2010Prop44ColorIndex
 90
        5
102
RTVSPost2010Prop44ColorRGB
 90
      255
102
RTVSPost2010PropOp44
 70
     1
102
RTVSPost2010Prop45
280
     0
102
RTVSPost2010PropOp45
 70
     1
102
RTVSPost2010Prop46
 90
       50
102
RTVSPost2010PropOp46
 70
     1
102
RTVSPost2010Prop47
 90
       50
102
RTVSPost2010PropOp47
 70
     1
102
RTVSPost2010Prop48
 90
       50
102
RTVSPost2010PropOp48
 70
     1
102
RTVSPost2010Prop49
280
     0
102
RTVSPost2010PropOp49
 70
     1
102
RTVSPost2010Prop50
 90
       50
102
RTVSPost2010PropOp50
 70
     1
102
RTVSPost2010Prop51ColorIndex
 90
      256
102
RTVSPost2010Prop51ColorRGB
 90
-16777216
102
RTVSPost2010PropOp51
 70
     0
102
RTVSPost2010Prop52
140
1.0
102
RTVSPost2010PropOp52
 70
     0
102
RTVSPost2010Prop53
 90
        2
102
RTVSPost2010PropOp53
 70
     1
102
RTVSPost2010Prop54
  1
strokes_ogs.tif
102
RTVSPost2010PropOp54
 70
     1
102
RTVSPost2010Prop55
280
     0
102
RTVSPost2010PropOp55
 70
     1
102
RTVSPost2010Prop56
140
1.0
102
RTVSPost2010PropOp56
 70
     1
102
RTVSPost2010Prop57
140
1.0
102
RTVSPost2010PropOp57
 70
     1
  0
XRECORD
  5
14C
102
{ACAD_REACTORS
330
14B
102
}
330
14B
100
AcDbXrecord
280
     1
102
RTVSPost2010Prop28
280
     0
102
RTVSPost2010PropOp28
 70
     1
102
RTVSPost2010Prop29
280
     1
102
RTVSPost2010PropOp29
 70
     1
102
RTVSPost2010Prop30
280
     1
102
RTVSPost2010PropOp30
 70
     1
102
RTVSPost2010Prop31
280
     0
102
RTVSPost2010PropOp31
 70
     1
102
RTVSPost2010Prop32
280
     0
102
RTVSPost2010PropOp32
 70
     1
102
RTVSPost2010Prop33
280
     0
102
RTVSPost2010PropOp33
 70
     1
102
RTVSPost2010Prop34
280
     0
102
RTVSPost2010PropOp34
 70
     1
102
RTVSPost2010Prop35
280
     0
102
RTVSPost2010PropOp35
 70
     1
102
RTVSPost2010Prop36
280
     0
102
RTVSPost2010PropOp36
 70
     1
102
RTVSPost2010Prop37
 90
       50
102
RTVSPost2010PropOp37
 70
     1
102
RTVSPost2010Prop38
140
0.0
102
RTVSPost2010PropOp38
 70
     1
102
RTVSPost2010Prop39
140
1.0
102
RTVSPost2010PropOp39
 70
     1
102
RTVSPost2010Prop40
 90
        0
102
RTVSPost2010PropOp40
 70
     1
102
RTVSPost2010Prop41ColorIndex
 90
       18
102
RTVSPost2010Prop41ColorRGB
 90
        0
102
RTVSPost2010PropOp41
 70
     1
102
RTVSPost2010Prop42
 90
       50
102
RTVSPost2010PropOp42
 70
     1
102
RTVSPost2010Prop43
 90
        3
102
RTVSPost2010PropOp43
 70
     1
102
RTVSPost2010Prop44ColorIndex
 90
        5
102
RTVSPost2010Prop44ColorRGB
 90
      255
102
RTVSPost2010PropOp44
 70
     1
102
RTVSPost2010Prop45
280
     0
102
RTVSPost2010PropOp45
 70
     1
102
RTVSPost2010Prop46
 90
       50
102
RTVSPost2010PropOp46
 70
     1
102
RTVSPost2010Prop47
 90
       50
102
RTVSPost2010PropOp47
 70
     1
102
RTVSPost2010Prop48
 90
       50
102
RTVSPost2010PropOp48
 70
     1
102
RTVSPost2010Prop49
280
     0
102
RTVSPost2010PropOp49
 70
     1
102
RTVSPost2010Prop50
 90
       50
102
RTVSPost2010PropOp50
 70
     1
102
RTVSPost2010Prop51ColorIndex
 90
      256
102
RTVSPost2010Prop51ColorRGB
 90
-16777216
102
RTVSPost2010PropOp51
 70
     0
102
RTVSPost2010Prop52
140
1.0
102
RTVSPost2010PropOp52
 70
     0
102
RTVSPost2010Prop53
 90
        2
102
RTVSPost2010PropOp53
 70
     1
102
RTVSPost2010Prop54
  1
strokes_ogs.tif
102
RTVSPost2010PropOp54
 70
     1
102
RTVSPost2010Prop55
280
     0
102
RTVSPost2010PropOp55
 70
     1
102
RTVSPost2010Prop56
140
1.0
102
RTVSPost2010PropOp56
 70
     1
102
RTVSPost2010Prop57
140
1.0
102
RTVSPost2010PropOp57
 70
     1
  0
XRECORD
  5
13E
102
{ACAD_REACTORS
330
13D
102
}
330
13D
100
AcDbXrecord
280
     1
102
RTVSPost2010Prop28
280
     0
102
RTVSPost2010PropOp28
 70
     1
102
RTVSPost2010Prop29
280
     1
102
RTVSPost2010PropOp29
 70
     1
102
RTVSPost2010Prop30
280
     1
102
RTVSPost2010PropOp30
 70
     1
102
RTVSPost2010Prop31
280
     0
102
RTVSPost2010PropOp31
 70
     1
102
RTVSPost2010Prop32
280
     0
102
RTVSPost2010PropOp32
 70
     1
102
RTVSPost2010Prop33
280
     0
102
RTVSPost2010PropOp33
 70
     1
102
RTVSPost2010Prop34
280
     0
102
RTVSPost2010PropOp34
 70
     1
102
RTVSPost2010Prop35
280
     0
102
RTVSPost2010PropOp35
 70
     1
102
RTVSPost2010Prop36
280
     0
102
RTVSPost2010PropOp36
 70
     1
102
RTVSPost2010Prop37
 90
       50
102
RTVSPost2010PropOp37
 70
     1
102
RTVSPost2010Prop38
140
0.0
102
RTVSPost2010PropOp38
 70
     1
102
RTVSPost2010Prop39
140
1.0
102
RTVSPost2010PropOp39
 70
     1
102
RTVSPost2010Prop40
 90
        0
102
RTVSPost2010PropOp40
 70
     1
102
RTVSPost2010Prop41ColorIndex
 90
       18
102
RTVSPost2010Prop41ColorRGB
 90
        0
102
RTVSPost2010PropOp41
 70
     1
102
RTVSPost2010Prop42
 90
       50
102
RTVSPost2010PropOp42
 70
     1
102
RTVSPost2010Prop43
 90
        3
102
RTVSPost2010PropOp43
 70
     1
102
RTVSPost2010Prop44ColorIndex
 90
        5
102
RTVSPost2010Prop44ColorRGB
 90
      255
102
RTVSPost2010PropOp44
 70
     1
102
RTVSPost2010Prop45
280
     0
102
RTVSPost2010PropOp45
 70
     1
102
RTVSPost2010Prop46
 90
       50
102
RTVSPost2010PropOp46
 70
     1
102
RTVSPost2010Prop47
 90
       50
102
RTVSPost2010PropOp47
 70
     1
102
RTVSPost2010Prop48
 90
       50
102
RTVSPost2010PropOp48
 70
     1
102
RTVSPost2010Prop49
280
     0
102
RTVSPost2010PropOp49
 70
     1
102
RTVSPost2010Prop50
 90
       50
102
RTVSPost2010PropOp50
 70
     1
102
RTVSPost2010Prop51ColorIndex
 90
      256
102
RTVSPost2010Prop51ColorRGB
 90
-16777216
102
RTVSPost2010PropOp51
 70
     0
102
RTVSPost2010Prop52
140
1.0
102
RTVSPost2010PropOp52
 70
     0
102
RTVSPost2010Prop53
 90
        2
102
RTVSPost2010PropOp53
 70
     1
102
RTVSPost2010Prop54
  1
strokes_ogs.tif
102
RTVSPost2010PropOp54
 70
     1
102
RTVSPost2010Prop55
280
     0
102
RTVSPost2010PropOp55
 70
     1
102
RTVSPost2010Prop56
140
1.0
102
RTVSPost2010PropOp56
 70
     1
102
RTVSPost2010Prop57
140
1.0
102
RTVSPost2010PropOp57
 70
     1
  0
XRECORD
  5
142
102
{ACAD_REACTORS
330
141
102
}
330
141
100
AcDbXrecord
280
     1
102
RTVSPost2010Prop28
280
     0
102
RTVSPost2010PropOp28
 70
     1
102
RTVSPost2010Prop29
280
     1
102
RTVSPost2010PropOp29
 70
     1
102
RTVSPost2010Prop30
280
     1
102
RTVSPost2010PropOp30
 70
     1
102
RTVSPost2010Prop31
280
     0
102
RTVSPost2010PropOp31
 70
     1
102
RTVSPost2010Prop32
280
     0
102
RTVSPost2010PropOp32
 70
     1
102
RTVSPost2010Prop33
280
     0
102
RTVSPost2010PropOp33
 70
     1
102
RTVSPost2010Prop34
280
     0
102
RTVSPost2010PropOp34
 70
     1
102
RTVSPost2010Prop35
280
     0
102
RTVSPost2010PropOp35
 70
     1
102
RTVSPost2010Prop36
280
     0
102
RTVSPost2010PropOp36
 70
     1
102
RTVSPost2010Prop37
 90
       50
102
RTVSPost2010PropOp37
 70
     1
102
RTVSPost2010Prop38
140
0.0
102
RTVSPost2010PropOp38
 70
     1
102
RTVSPost2010Prop39
140
1.0
102
RTVSPost2010PropOp39
 70
     1
102
RTVSPost2010Prop40
 90
        0
102
RTVSPost2010PropOp40
 70
     1
102
RTVSPost2010Prop41ColorIndex
 90
       18
102
RTVSPost2010Prop41ColorRGB
 90
        0
102
RTVSPost2010PropOp41
 70
     1
102
RTVSPost2010Prop42
 90
       50
102
RTVSPost2010PropOp42
 70
     1
102
RTVSPost2010Prop43
 90
        3
102
RTVSPost2010PropOp43
 70
     1
102
RTVSPost2010Prop44ColorIndex
 90
        5
102
RTVSPost2010Prop44ColorRGB
 90
      255
102
RTVSPost2010PropOp44
 70
     1
102
RTVSPost2010Prop45
280
     0
102
RTVSPost2010PropOp45
 70
     1
102
RTVSPost2010Prop46
 90
       50
102
RTVSPost2010PropOp46
 70
     1
102
RTVSPost2010Prop47
 90
       50
102
RTVSPost2010PropOp47
 70
     1
102
RTVSPost2010Prop48
 90
       50
102
RTVSPost2010PropOp48
 70
     1
102
RTVSPost2010Prop49
280
     0
102
RTVSPost2010PropOp49
 70
     1
102
RTVSPost2010Prop50
 90
       50
102
RTVSPost2010PropOp50
 70
     1
102
RTVSPost2010Prop51ColorIndex
 90
      256
102
RTVSPost2010Prop51ColorRGB
 90
-16777216
102
RTVSPost2010PropOp51
 70
     0
102
RTVSPost2010Prop52
140
1.0
102
RTVSPost2010PropOp52
 70
     0
102
RTVSPost2010Prop53
 90
        2
102
RTVSPost2010PropOp53
 70
     1
102
RTVSPost2010Prop54
  1
strokes_ogs.tif
102
RTVSPost2010PropOp54
 70
     1
102
RTVSPost2010Prop55
280
     0
102
RTVSPost2010PropOp55
 70
     1
102
RTVSPost2010Prop56
140
1.0
102
RTVSPost2010PropOp56
 70
     1
102
RTVSPost2010Prop57
140
1.0
102
RTVSPost2010PropOp57
 70
     1
  0
XRECORD
  5
15C
102
{ACAD_REACTORS
330
15B
102
}
330
15B
100
AcDbXrecord
280
     1
102
RTVSPost2010Prop28
280
     0
102
RTVSPost2010PropOp28
 70
     0
102
RTVSPost2010Prop29
280
     1
102
RTVSPost2010PropOp29
 70
     0
102
RTVSPost2010Prop30
280
     1
102
RTVSPost2010PropOp30
 70
     0
102
RTVSPost2010Prop31
280
     0
102
RTVSPost2010PropOp31
 70
     0
102
RTVSPost2010Prop32
280
     0
102
RTVSPost2010PropOp32
 70
     0
102
RTVSPost2010Prop33
280
     0
102
RTVSPost2010PropOp33
 70
     0
102
RTVSPost2010Prop34
280
     0
102
RTVSPost2010PropOp34
 70
     0
102
RTVSPost2010Prop35
280
     0
102
RTVSPost2010PropOp35
 70
     0
102
RTVSPost2010Prop36
280
     0
102
RTVSPost2010PropOp36
 70
     0
102
RTVSPost2010Prop37
 90
       50
102
RTVSPost2010PropOp37
 70
     0
102
RTVSPost2010Prop38
140
0.0
102
RTVSPost2010PropOp38
 70
     0
102
RTVSPost2010Prop39
140
1.0
102
RTVSPost2010PropOp39
 70
     0
102
RTVSPost2010Prop40
 90
        0
102
RTVSPost2010PropOp40
 70
     0
102
RTVSPost2010Prop41ColorIndex
 90
       18
102
RTVSPost2010Prop41ColorRGB
 90
        0
102
RTVSPost2010PropOp41
 70
     0
102
RTVSPost2010Prop42
 90
       50
102
RTVSPost2010PropOp42
 70
     0
102
RTVSPost2010Prop43
 90
        3
102
RTVSPost2010PropOp43
 70
     0
102
RTVSPost2010Prop44ColorIndex
 90
        5
102
RTVSPost2010Prop44ColorRGB
 90
      255
102
RTVSPost2010PropOp44
 70
     0
102
RTVSPost2010Prop45
280
     0
102
RTVSPost2010PropOp45
 70
     0
102
RTVSPost2010Prop46
 90
       50
102
RTVSPost2010PropOp46
 70
     0
102
RTVSPost2010Prop47
 90
       50
102
RTVSPost2010PropOp47
 70
     0
102
RTVSPost2010Prop48
 90
       50
102
RTVSPost2010PropOp48
 70
     0
102
RTVSPost2010Prop49
280
     0
102
RTVSPost2010PropOp49
 70
     0
102
RTVSPost2010Prop50
 90
       50
102
RTVSPost2010PropOp50
 70
     0
102
RTVSPost2010Prop51ColorIndex
 90
      256
102
RTVSPost2010Prop51ColorRGB
 90
-16777216
102
RTVSPost2010PropOp51
 70
     0
102
RTVSPost2010Prop52
140
1.0
102
RTVSPost2010PropOp52
 70
     0
102
RTVSPost2010Prop53
 90
        2
102
RTVSPost2010PropOp53
 70
     0
102
RTVSPost2010Prop54
  1
strokes_ogs.tif
102
RTVSPost2010PropOp54
 70
     0
102
RTVSPost2010Prop55
280
     0
102
RTVSPost2010PropOp55
 70
     0
102
RTVSPost2010Prop56
140
1.0
102
RTVSPost2010PropOp56
 70
     0
102
RTVSPost2010Prop57
140
1.0
102
RTVSPost2010PropOp57
 70
     0
  0
XRECORD
  5
14A
102
{ACAD_REACTORS
330
149
102
}
330
149
100
AcDbXrecord
280
     1
102
RTVSPost2010Prop28
280
     0
102
RTVSPost2010PropOp28
 70
     1
102
RTVSPost2010Prop29
280
     1
102
RTVSPost2010PropOp29
 70
     1
102
RTVSPost2010Prop30
280
     1
102
RTVSPost2010PropOp30
 70
     1
102
RTVSPost2010Prop31
280
     0
102
RTVSPost2010PropOp31
 70
     1
102
RTVSPost2010Prop32
280
     0
102
RTVSPost2010PropOp32
 70
     1
102
RTVSPost2010Prop33
280
     0
102
RTVSPost2010PropOp33
 70
     1
102
RTVSPost2010Prop34
280
     0
102
RTVSPost2010PropOp34
 70
     1
102
RTVSPost2010Prop35
280
     0
102
RTVSPost2010PropOp35
 70
     1
102
RTVSPost2010Prop36
280
     0
102
RTVSPost2010PropOp36
 70
     1
102
RTVSPost2010Prop37
 90
       50
102
RTVSPost2010PropOp37
 70
     1
102
RTVSPost2010Prop38
140
0.0
102
RTVSPost2010PropOp38
 70
     1
102
RTVSPost2010Prop39
140
1.0
102
RTVSPost2010PropOp39
 70
     1
102
RTVSPost2010Prop40
 90
        0
102
RTVSPost2010PropOp40
 70
     1
102
RTVSPost2010Prop41ColorIndex
 90
       18
102
RTVSPost2010Prop41ColorRGB
 90
        0
102
RTVSPost2010PropOp41
 70
     1
102
RTVSPost2010Prop42
 90
       50
102
RTVSPost2010PropOp42
 70
     1
102
RTVSPost2010Prop43
 90
        3
102
RTVSPost2010PropOp43
 70
     1
102
RTVSPost2010Prop44ColorIndex
 90
        5
102
RTVSPost2010Prop44ColorRGB
 90
      255
102
RTVSPost2010PropOp44
 70
     1
102
RTVSPost2010Prop45
280
     0
102
RTVSPost2010PropOp45
 70
     1
102
RTVSPost2010Prop46
 90
       50
102
RTVSPost2010PropOp46
 70
     1
102
RTVSPost2010Prop47
 90
       50
102
RTVSPost2010PropOp47
 70
     1
102
RTVSPost2010Prop48
 90
       50
102
RTVSPost2010PropOp48
 70
     1
102
RTVSPost2010Prop49
280
     0
102
RTVSPost2010PropOp49
 70
     1
102
RTVSPost2010Prop50
 90
       50
102
RTVSPost2010PropOp50
 70
     1
102
RTVSPost2010Prop51ColorIndex
 90
      256
102
RTVSPost2010Prop51ColorRGB
 90
-16777216
102
RTVSPost2010PropOp51
 70
     0
102
RTVSPost2010Prop52
140
1.0
102
RTVSPost2010PropOp52
 70
     0
102
RTVSPost2010Prop53
 90
        2
102
RTVSPost2010PropOp53
 70
     1
102
RTVSPost2010Prop54
  1
strokes_ogs.tif
102
RTVSPost2010PropOp54
 70
     1
102
RTVSPost2010Prop55
280
     0
102
RTVSPost2010PropOp55
 70
     1
102
RTVSPost2010Prop56
140
1.0
102
RTVSPost2010PropOp56
 70
     1
102
RTVSPost2010Prop57
140
1.0
102
RTVSPost2010PropOp57
 70
     1
  0
XRECORD
  5
12E
102
{ACAD_REACTORS
330
12D
102
}
330
12D
100
AcDbXrecord
280
     1
102
RTVSPost2010Prop28
280
     0
102
RTVSPost2010PropOp28
 70
     1
102
RTVSPost2010Prop29
280
     1
102
RTVSPost2010PropOp29
 70
     1
102
RTVSPost2010Prop30
280
     1
102
RTVSPost2010PropOp30
 70
     1
102
RTVSPost2010Prop31
280
     0
102
RTVSPost2010PropOp31
 70
     1
102
RTVSPost2010Prop32
280
     0
102
RTVSPost2010PropOp32
 70
     1
102
RTVSPost2010Prop33
280
     0
102
RTVSPost2010PropOp33
 70
     1
102
RTVSPost2010Prop34
280
     0
102
RTVSPost2010PropOp34
 70
     1
102
RTVSPost2010Prop35
280
     0
102
RTVSPost2010PropOp35
 70
     1
102
RTVSPost2010Prop36
280
     0
102
RTVSPost2010PropOp36
 70
     1
102
RTVSPost2010Prop37
 90
       50
102
RTVSPost2010PropOp37
 70
     1
102
RTVSPost2010Prop38
140
0.0
102
RTVSPost2010PropOp38
 70
     1
102
RTVSPost2010Prop39
140
1.0
102
RTVSPost2010PropOp39
 70
     1
102
RTVSPost2010Prop40
 90
        0
102
RTVSPost2010PropOp40
 70
     1
102
RTVSPost2010Prop41ColorIndex
 90
       18
102
RTVSPost2010Prop41ColorRGB
 90
        0
102
RTVSPost2010PropOp41
 70
     1
102
RTVSPost2010Prop42
 90
       50
102
RTVSPost2010PropOp42
 70
     1
102
RTVSPost2010Prop43
 90
        3
102
RTVSPost2010PropOp43
 70
     1
102
RTVSPost2010Prop44ColorIndex
 90
        5
102
RTVSPost2010Prop44ColorRGB
 90
      255
102
RTVSPost2010PropOp44
 70
     1
102
RTVSPost2010Prop45
280
     0
102
RTVSPost2010PropOp45
 70
     1
102
RTVSPost2010Prop46
 90
       50
102
RTVSPost2010PropOp46
 70
     1
102
RTVSPost2010Prop47
 90
       50
102
RTVSPost2010PropOp47
 70
     1
102
RTVSPost2010Prop48
 90
       50
102
RTVSPost2010PropOp48
 70
     1
102
RTVSPost2010Prop49
280
     0
102
RTVSPost2010PropOp49
 70
     1
102
RTVSPost2010Prop50
 90
       50
102
RTVSPost2010PropOp50
 70
     1
102
RTVSPost2010Prop51ColorIndex
 90
      256
102
RTVSPost2010Prop51ColorRGB
 90
-16777216
102
RTVSPost2010PropOp51
 70
     0
102
RTVSPost2010Prop52
140
1.0
102
RTVSPost2010PropOp52
 70
     0
102
RTVSPost2010Prop53
 90
        2
102
RTVSPost2010PropOp53
 70
     1
102
RTVSPost2010Prop54
  1
strokes_ogs.tif
102
RTVSPost2010PropOp54
 70
     1
102
RTVSPost2010Prop55
280
     0
102
RTVSPost2010PropOp55
 70
     1
102
RTVSPost2010Prop56
140
1.0
102
RTVSPost2010PropOp56
 70
     1
102
RTVSPost2010Prop57
140
1.0
102
RTVSPost2010PropOp57
 70
     1
  0
XRECORD
  5
130
102
{ACAD_REACTORS
330
12F
102
}
330
12F
100
AcDbXrecord
280
     1
102
RTVSPost2010Prop28
280
     0
102
RTVSPost2010PropOp28
 70
     1
102
RTVSPost2010Prop29
280
     1
102
RTVSPost2010PropOp29
 70
     1
102
RTVSPost2010Prop30
280
     1
102
RTVSPost2010PropOp30
 70
     1
102
RTVSPost2010Prop31
280
     0
102
RTVSPost2010PropOp31
 70
     1
102
RTVSPost2010Prop32
280
     0
102
RTVSPost2010PropOp32
 70
     1
102
RTVSPost2010Prop33
280
     0
102
RTVSPost2010PropOp33
 70
     1
102
RTVSPost2010Prop34
280
     0
102
RTVSPost2010PropOp34
 70
     1
102
RTVSPost2010Prop35
280
     0
102
RTVSPost2010PropOp35
 70
     1
102
RTVSPost2010Prop36
280
     0
102
RTVSPost2010PropOp36
 70
     1
102
RTVSPost2010Prop37
 90
       50
102
RTVSPost2010PropOp37
 70
     1
102
RTVSPost2010Prop38
140
0.0
102
RTVSPost2010PropOp38
 70
     1
102
RTVSPost2010Prop39
140
1.0
102
RTVSPost2010PropOp39
 70
     1
102
RTVSPost2010Prop40
 90
        0
102
RTVSPost2010PropOp40
 70
     1
102
RTVSPost2010Prop41ColorIndex
 90
       18
102
RTVSPost2010Prop41ColorRGB
 90
        0
102
RTVSPost2010PropOp41
 70
     1
102
RTVSPost2010Prop42
 90
       50
102
RTVSPost2010PropOp42
 70
     1
102
RTVSPost2010Prop43
 90
        3
102
RTVSPost2010PropOp43
 70
     1
102
RTVSPost2010Prop44ColorIndex
 90
        5
102
RTVSPost2010Prop44ColorRGB
 90
      255
102
RTVSPost2010PropOp44
 70
     1
102
RTVSPost2010Prop45
280
     0
102
RTVSPost2010PropOp45
 70
     1
102
RTVSPost2010Prop46
 90
       50
102
RTVSPost2010PropOp46
 70
     1
102
RTVSPost2010Prop47
 90
       50
102
RTVSPost2010PropOp47
 70
     1
102
RTVSPost2010Prop48
 90
       50
102
RTVSPost2010PropOp48
 70
     1
102
RTVSPost2010Prop49
280
     0
102
RTVSPost2010PropOp49
 70
     1
102
RTVSPost2010Prop50
 90
       50
102
RTVSPost2010PropOp50
 70
     1
102
RTVSPost2010Prop51ColorIndex
 90
      256
102
RTVSPost2010Prop51ColorRGB
 90
-16777216
102
RTVSPost2010PropOp51
 70
     0
102
RTVSPost2010Prop52
140
1.0
102
RTVSPost2010PropOp52
 70
     0
102
RTVSPost2010Prop53
 90
        2
102
RTVSPost2010PropOp53
 70
     1
102
RTVSPost2010Prop54
  1
strokes_ogs.tif
102
RTVSPost2010PropOp54
 70
     1
102
RTVSPost2010Prop55
280
     0
102
RTVSPost2010PropOp55
 70
     1
102
RTVSPost2010Prop56
140
1.0
102
RTVSPost2010PropOp56
 70
     1
102
RTVSPost2010Prop57
140
1.0
102
RTVSPost2010PropOp57
 70
     1
  0
XRECORD
  5
132
102
{ACAD_REACTORS
330
131
102
}
330
131
100
AcDbXrecord
280
     1
102
RTVSPost2010Prop28
280
     0
102
RTVSPost2010PropOp28
 70
     1
102
RTVSPost2010Prop29
280
     1
102
RTVSPost2010PropOp29
 70
     1
102
RTVSPost2010Prop30
280
     1
102
RTVSPost2010PropOp30
 70
     1
102
RTVSPost2010Prop31
280
     0
102
RTVSPost2010PropOp31
 70
     1
102
RTVSPost2010Prop32
280
     0
102
RTVSPost2010PropOp32
 70
     1
102
RTVSPost2010Prop33
280
     0
102
RTVSPost2010PropOp33
 70
     1
102
RTVSPost2010Prop34
280
     0
102
RTVSPost2010PropOp34
 70
     1
102
RTVSPost2010Prop35
280
     0
102
RTVSPost2010PropOp35
 70
     1
102
RTVSPost2010Prop36
280
     0
102
RTVSPost2010PropOp36
 70
     1
102
RTVSPost2010Prop37
 90
       50
102
RTVSPost2010PropOp37
 70
     1
102
RTVSPost2010Prop38
140
0.0
102
RTVSPost2010PropOp38
 70
     1
102
RTVSPost2010Prop39
140
1.0
102
RTVSPost2010PropOp39
 70
     1
102
RTVSPost2010Prop40
 90
        0
102
RTVSPost2010PropOp40
 70
     1
102
RTVSPost2010Prop41ColorIndex
 90
       18
102
RTVSPost2010Prop41ColorRGB
 90
        0
102
RTVSPost2010PropOp41
 70
     1
102
RTVSPost2010Prop42
 90
       50
102
RTVSPost2010PropOp42
 70
     1
102
RTVSPost2010Prop43
 90
        3
102
RTVSPost2010PropOp43
 70
     1
102
RTVSPost2010Prop44ColorIndex
 90
        5
102
RTVSPost2010Prop44ColorRGB
 90
      255
102
RTVSPost2010PropOp44
 70
     1
102
RTVSPost2010Prop45
280
     0
102
RTVSPost2010PropOp45
 70
     1
102
RTVSPost2010Prop46
 90
       50
102
RTVSPost2010PropOp46
 70
     1
102
RTVSPost2010Prop47
 90
       50
102
RTVSPost2010PropOp47
 70
     1
102
RTVSPost2010Prop48
 90
       50
102
RTVSPost2010PropOp48
 70
     1
102
RTVSPost2010Prop49
280
     0
102
RTVSPost2010PropOp49
 70
     1
102
RTVSPost2010Prop50
 90
       50
102
RTVSPost2010PropOp50
 70
     1
102
RTVSPost2010Prop51ColorIndex
 90
      256
102
RTVSPost2010Prop51ColorRGB
 90
-16777216
102
RTVSPost2010PropOp51
 70
     0
102
RTVSPost2010Prop52
140
1.0
102
RTVSPost2010PropOp52
 70
     0
102
RTVSPost2010Prop53
 90
        2
102
RTVSPost2010PropOp53
 70
     1
102
RTVSPost2010Prop54
  1
strokes_ogs.tif
102
RTVSPost2010PropOp54
 70
     1
102
RTVSPost2010Prop55
280
     0
102
RTVSPost2010PropOp55
 70
     1
102
RTVSPost2010Prop56
140
1.0
102
RTVSPost2010PropOp56
 70
     1
102
RTVSPost2010Prop57
140
1.0
102
RTVSPost2010PropOp57
 70
     1
  0
XRECORD
  5
134
102
{ACAD_REACTORS
330
133
102
}
330
133
100
AcDbXrecord
280
     1
102
RTVSPost2010Prop28
280
     0
102
RTVSPost2010PropOp28
 70
     1
102
RTVSPost2010Prop29
280
     1
102
RTVSPost2010PropOp29
 70
     1
102
RTVSPost2010Prop30
280
     1
102
RTVSPost2010PropOp30
 70
     1
102
RTVSPost2010Prop31
280
     0
102
RTVSPost2010PropOp31
 70
     1
102
RTVSPost2010Prop32
280
     0
102
RTVSPost2010PropOp32
 70
     1
102
RTVSPost2010Prop33
280
     0
102
RTVSPost2010PropOp33
 70
     1
102
RTVSPost2010Prop34
280
     0
102
RTVSPost2010PropOp34
 70
     1
102
RTVSPost2010Prop35
280
     0
102
RTVSPost2010PropOp35
 70
     1
102
RTVSPost2010Prop36
280
     0
102
RTVSPost2010PropOp36
 70
     1
102
RTVSPost2010Prop37
 90
       50
102
RTVSPost2010PropOp37
 70
     1
102
RTVSPost2010Prop38
140
0.0
102
RTVSPost2010PropOp38
 70
     1
102
RTVSPost2010Prop39
140
1.0
102
RTVSPost2010PropOp39
 70
     1
102
RTVSPost2010Prop40
 90
        0
102
RTVSPost2010PropOp40
 70
     1
102
RTVSPost2010Prop41ColorIndex
 90
       18
102
RTVSPost2010Prop41ColorRGB
 90
        0
102
RTVSPost2010PropOp41
 70
     1
102
RTVSPost2010Prop42
 90
       50
102
RTVSPost2010PropOp42
 70
     1
102
RTVSPost2010Prop43
 90
        3
102
RTVSPost2010PropOp43
 70
     1
102
RTVSPost2010Prop44ColorIndex
 90
        5
102
RTVSPost2010Prop44ColorRGB
 90
      255
102
RTVSPost2010PropOp44
 70
     1
102
RTVSPost2010Prop45
280
     0
102
RTVSPost2010PropOp45
 70
     1
102
RTVSPost2010Prop46
 90
       50
102
RTVSPost2010PropOp46
 70
     1
102
RTVSPost2010Prop47
 90
       50
102
RTVSPost2010PropOp47
 70
     1
102
RTVSPost2010Prop48
 90
       50
102
RTVSPost2010PropOp48
 70
     1
102
RTVSPost2010Prop49
280
     0
102
RTVSPost2010PropOp49
 70
     1
102
RTVSPost2010Prop50
 90
       50
102
RTVSPost2010PropOp50
 70
     1
102
RTVSPost2010Prop51ColorIndex
 90
      256
102
RTVSPost2010Prop51ColorRGB
 90
-16777216
102
RTVSPost2010PropOp51
 70
     0
102
RTVSPost2010Prop52
140
1.0
102
RTVSPost2010PropOp52
 70
     0
102
RTVSPost2010Prop53
 90
        2
102
RTVSPost2010PropOp53
 70
     1
102
RTVSPost2010Prop54
  1
strokes_ogs.tif
102
RTVSPost2010PropOp54
 70
     1
102
RTVSPost2010Prop55
280
     0
102
RTVSPost2010PropOp55
 70
     1
102
RTVSPost2010Prop56
140
1.0
102
RTVSPost2010PropOp56
 70
     1
102
RTVSPost2010Prop57
140
1.0
102
RTVSPost2010PropOp57
 70
     1
  0
XRECORD
  5
13C
102
{ACAD_REACTORS
330
13B
102
}
330
13B
100
AcDbXrecord
280
     1
102
RTVSPost2010Prop28
280
     0
102
RTVSPost2010PropOp28
 70
     1
102
RTVSPost2010Prop29
280
     1
102
RTVSPost2010PropOp29
 70
     1
102
RTVSPost2010Prop30
280
     1
102
RTVSPost2010PropOp30
 70
     1
102
RTVSPost2010Prop31
280
     0
102
RTVSPost2010PropOp31
 70
     1
102
RTVSPost2010Prop32
280
     0
102
RTVSPost2010PropOp32
 70
     1
102
RTVSPost2010Prop33
280
     0
102
RTVSPost2010PropOp33
 70
     1
102
RTVSPost2010Prop34
280
     0
102
RTVSPost2010PropOp34
 70
     1
102
RTVSPost2010Prop35
280
     0
102
RTVSPost2010PropOp35
 70
     1
102
RTVSPost2010Prop36
280
     0
102
RTVSPost2010PropOp36
 70
     1
102
RTVSPost2010Prop37
 90
       50
102
RTVSPost2010PropOp37
 70
     1
102
RTVSPost2010Prop38
140
0.0
102
RTVSPost2010PropOp38
 70
     1
102
RTVSPost2010Prop39
140
1.0
102
RTVSPost2010PropOp39
 70
     1
102
RTVSPost2010Prop40
 90
        0
102
RTVSPost2010PropOp40
 70
     1
102
RTVSPost2010Prop41ColorIndex
 90
       18
102
RTVSPost2010Prop41ColorRGB
 90
        0
102
RTVSPost2010PropOp41
 70
     1
102
RTVSPost2010Prop42
 90
       50
102
RTVSPost2010PropOp42
 70
     1
102
RTVSPost2010Prop43
 90
        3
102
RTVSPost2010PropOp43
 70
     1
102
RTVSPost2010Prop44ColorIndex
 90
        5
102
RTVSPost2010Prop44ColorRGB
 90
      255
102
RTVSPost2010PropOp44
 70
     1
102
RTVSPost2010Prop45
280
     0
102
RTVSPost2010PropOp45
 70
     1
102
RTVSPost2010Prop46
 90
       50
102
RTVSPost2010PropOp46
 70
     1
102
RTVSPost2010Prop47
 90
       50
102
RTVSPost2010PropOp47
 70
     1
102
RTVSPost2010Prop48
 90
       50
102
RTVSPost2010PropOp48
 70
     1
102
RTVSPost2010Prop49
280
     0
102
RTVSPost2010PropOp49
 70
     1
102
RTVSPost2010Prop50
 90
       50
102
RTVSPost2010PropOp50
 70
     1
102
RTVSPost2010Prop51ColorIndex
 90
      256
102
RTVSPost2010Prop51ColorRGB
 90
-16777216
102
RTVSPost2010PropOp51
 70
     0
102
RTVSPost2010Prop52
140
1.0
102
RTVSPost2010PropOp52
 70
     0
102
RTVSPost2010Prop53
 90
        2
102
RTVSPost2010PropOp53
 70
     1
102
RTVSPost2010Prop54
  1
strokes_ogs.tif
102
RTVSPost2010PropOp54
 70
     1
102
RTVSPost2010Prop55
280
     0
102
RTVSPost2010PropOp55
 70
     1
102
RTVSPost2010Prop56
140
1.0
102
RTVSPost2010PropOp56
 70
     1
102
RTVSPost2010Prop57
140
1.0
102
RTVSPost2010PropOp57
 70
     1
  0
XRECORD
  5
158
102
{ACAD_REACTORS
330
157
102
}
330
157
100
AcDbXrecord
280
     1
102
RTVSPost2010Prop28
280
     0
102
RTVSPost2010PropOp28
 70
     0
102
RTVSPost2010Prop29
280
     1
102
RTVSPost2010PropOp29
 70
     0
102
RTVSPost2010Prop30
280
     1
102
RTVSPost2010PropOp30
 70
     0
102
RTVSPost2010Prop31
280
     0
102
RTVSPost2010PropOp31
 70
     0
102
RTVSPost2010Prop32
280
     0
102
RTVSPost2010PropOp32
 70
     0
102
RTVSPost2010Prop33
280
     0
102
RTVSPost2010PropOp33
 70
     0
102
RTVSPost2010Prop34
280
     0
102
RTVSPost2010PropOp34
 70
     0
102
RTVSPost2010Prop35
280
     0
102
RTVSPost2010PropOp35
 70
     0
102
RTVSPost2010Prop36
280
     0
102
RTVSPost2010PropOp36
 70
     0
102
RTVSPost2010Prop37
 90
       50
102
RTVSPost2010PropOp37
 70
     0
102
RTVSPost2010Prop38
140
0.0
102
RTVSPost2010PropOp38
 70
     0
102
RTVSPost2010Prop39
140
1.0
102
RTVSPost2010PropOp39
 70
     0
102
RTVSPost2010Prop40
 90
        0
102
RTVSPost2010PropOp40
 70
     0
102
RTVSPost2010Prop41ColorIndex
 90
       18
102
RTVSPost2010Prop41ColorRGB
 90
        0
102
RTVSPost2010PropOp41
 70
     0
102
RTVSPost2010Prop42
 90
       50
102
RTVSPost2010PropOp42
 70
     0
102
RTVSPost2010Prop43
 90
        3
102
RTVSPost2010PropOp43
 70
     0
102
RTVSPost2010Prop44ColorIndex
 90
        5
102
RTVSPost2010Prop44ColorRGB
 90
      255
102
RTVSPost2010PropOp44
 70
     0
102
RTVSPost2010Prop45
280
     0
102
RTVSPost2010PropOp45
 70
     0
102
RTVSPost2010Prop46
 90
       50
102
RTVSPost2010PropOp46
 70
     0
102
RTVSPost2010Prop47
 90
       50
102
RTVSPost2010PropOp47
 70
     0
102
RTVSPost2010Prop48
 90
       50
102
RTVSPost2010PropOp48
 70
     0
102
RTVSPost2010Prop49
280
     0
102
RTVSPost2010PropOp49
 70
     0
102
RTVSPost2010Prop50
 90
       50
102
RTVSPost2010PropOp50
 70
     0
102
RTVSPost2010Prop51ColorIndex
 90
      256
102
RTVSPost2010Prop51ColorRGB
 90
-16777216
102
RTVSPost2010PropOp51
 70
     0
102
RTVSPost2010Prop52
140
1.0
102
RTVSPost2010PropOp52
 70
     0
102
RTVSPost2010Prop53
 90
        2
102
RTVSPost2010PropOp53
 70
     0
102
RTVSPost2010Prop54
  1
strokes_ogs.tif
102
RTVSPost2010PropOp54
 70
     0
102
RTVSPost2010Prop55
280
     0
102
RTVSPost2010PropOp55
 70
     0
102
RTVSPost2010Prop56
140
1.0
102
RTVSPost2010PropOp56
 70
     0
102
RTVSPost2010Prop57
140
1.0
102
RTVSPost2010PropOp57
 70
     0
  0
XRECORD
  5
148
102
{ACAD_REACTORS
330
147
102
}
330
147
100
AcDbXrecord
280
     1
102
RTVSPost2010Prop28
280
     0
102
RTVSPost2010PropOp28
 70
     1
102
RTVSPost2010Prop29
280
     1
102
RTVSPost2010PropOp29
 70
     1
102
RTVSPost2010Prop30
280
     1
102
RTVSPost2010PropOp30
 70
     1
102
RTVSPost2010Prop31
280
     0
102
RTVSPost2010PropOp31
 70
     1
102
RTVSPost2010Prop32
280
     0
102
RTVSPost2010PropOp32
 70
     1
102
RTVSPost2010Prop33
280
     0
102
RTVSPost2010PropOp33
 70
     1
102
RTVSPost2010Prop34
280
     0
102
RTVSPost2010PropOp34
 70
     1
102
RTVSPost2010Prop35
280
     0
102
RTVSPost2010PropOp35
 70
     1
102
RTVSPost2010Prop36
280
     0
102
RTVSPost2010PropOp36
 70
     1
102
RTVSPost2010Prop37
 90
       50
102
RTVSPost2010PropOp37
 70
     1
102
RTVSPost2010Prop38
140
0.0
102
RTVSPost2010PropOp38
 70
     1
102
RTVSPost2010Prop39
140
1.0
102
RTVSPost2010PropOp39
 70
     1
102
RTVSPost2010Prop40
 90
        0
102
RTVSPost2010PropOp40
 70
     1
102
RTVSPost2010Prop41ColorIndex
 90
       18
102
RTVSPost2010Prop41ColorRGB
 90
        0
102
RTVSPost2010PropOp41
 70
     1
102
RTVSPost2010Prop42
 90
       50
102
RTVSPost2010PropOp42
 70
     1
102
RTVSPost2010Prop43
 90
        3
102
RTVSPost2010PropOp43
 70
     1
102
RTVSPost2010Prop44ColorIndex
 90
        5
102
RTVSPost2010Prop44ColorRGB
 90
      255
102
RTVSPost2010PropOp44
 70
     1
102
RTVSPost2010Prop45
280
     0
102
RTVSPost2010PropOp45
 70
     1
102
RTVSPost2010Prop46
 90
       50
102
RTVSPost2010PropOp46
 70
     1
102
RTVSPost2010Prop47
 90
       50
102
RTVSPost2010PropOp47
 70
     1
102
RTVSPost2010Prop48
 90
       50
102
RTVSPost2010PropOp48
 70
     1
102
RTVSPost2010Prop49
280
     0
102
RTVSPost2010PropOp49
 70
     1
102
RTVSPost2010Prop50
 90
       50
102
RTVSPost2010PropOp50
 70
     1
102
RTVSPost2010Prop51ColorIndex
 90
      256
102
RTVSPost2010Prop51ColorRGB
 90
-16777216
102
RTVSPost2010PropOp51
 70
     0
102
RTVSPost2010Prop52
140
1.0
102
RTVSPost2010PropOp52
 70
     0
102
RTVSPost2010Prop53
 90
        2
102
RTVSPost2010PropOp53
 70
     1
102
RTVSPost2010Prop54
  1
strokes_ogs.tif
102
RTVSPost2010PropOp54
 70
     1
102
RTVSPost2010Prop55
280
     0
102
RTVSPost2010PropOp55
 70
     1
102
RTVSPost2010Prop56
140
1.0
102
RTVSPost2010PropOp56
 70
     1
102
RTVSPost2010Prop57
140
1.0
102
RTVSPost2010PropOp57
 70
     1
  0
XRECORD
  5
15A
102
{ACAD_REACTORS
330
159
102
}
330
159
100
AcDbXrecord
280
     1
102
RTVSPost2010Prop28
280
     0
102
RTVSPost2010PropOp28
 70
     0
102
RTVSPost2010Prop29
280
     1
102
RTVSPost2010PropOp29
 70
     0
102
RTVSPost2010Prop30
280
     1
102
RTVSPost2010PropOp30
 70
     0
102
RTVSPost2010Prop31
280
     0
102
RTVSPost2010PropOp31
 70
     0
102
RTVSPost2010Prop32
280
     0
102
RTVSPost2010PropOp32
 70
     0
102
RTVSPost2010Prop33
280
     0
102
RTVSPost2010PropOp33
 70
     0
102
RTVSPost2010Prop34
280
     0
102
RTVSPost2010PropOp34
 70
     0
102
RTVSPost2010Prop35
280
     0
102
RTVSPost2010PropOp35
 70
     0
102
RTVSPost2010Prop36
280
     0
102
RTVSPost2010PropOp36
 70
     0
102
RTVSPost2010Prop37
 90
       50
102
RTVSPost2010PropOp37
 70
     0
102
RTVSPost2010Prop38
140
0.0
102
RTVSPost2010PropOp38
 70
     0
102
RTVSPost2010Prop39
140
1.0
102
RTVSPost2010PropOp39
 70
     0
102
RTVSPost2010Prop40
 90
        0
102
RTVSPost2010PropOp40
 70
     0
102
RTVSPost2010Prop41ColorIndex
 90
       18
102
RTVSPost2010Prop41ColorRGB
 90
        0
102
RTVSPost2010PropOp41
 70
     0
102
RTVSPost2010Prop42
 90
       50
102
RTVSPost2010PropOp42
 70
     0
102
RTVSPost2010Prop43
 90
        3
102
RTVSPost2010PropOp43
 70
     0
102
RTVSPost2010Prop44ColorIndex
 90
        5
102
RTVSPost2010Prop44ColorRGB
 90
      255
102
RTVSPost2010PropOp44
 70
     0
102
RTVSPost2010Prop45
280
     0
102
RTVSPost2010PropOp45
 70
     0
102
RTVSPost2010Prop46
 90
       50
102
RTVSPost2010PropOp46
 70
     0
102
RTVSPost2010Prop47
 90
       50
102
RTVSPost2010PropOp47
 70
     0
102
RTVSPost2010Prop48
 90
       50
102
RTVSPost2010PropOp48
 70
     0
102
RTVSPost2010Prop49
280
     0
102
RTVSPost2010PropOp49
 70
     0
102
RTVSPost2010Prop50
 90
       50
102
RTVSPost2010PropOp50
 70
     0
102
RTVSPost2010Prop51ColorIndex
 90
      256
102
RTVSPost2010Prop51ColorRGB
 90
-16777216
102
RTVSPost2010PropOp51
 70
     0
102
RTVSPost2010Prop52
140
1.0
102
RTVSPost2010PropOp52
 70
     0
102
RTVSPost2010Prop53
 90
        2
102
RTVSPost2010PropOp53
 70
     0
102
RTVSPost2010Prop54
  1
strokes_ogs.tif
102
RTVSPost2010PropOp54
 70
     0
102
RTVSPost2010Prop55
280
     0
102
RTVSPost2010PropOp55
 70
     0
102
RTVSPost2010Prop56
140
1.0
102
RTVSPost2010PropOp56
 70
     0
102
RTVSPost2010Prop57
140
1.0
102
RTVSPost2010PropOp57
 70
     0
  0
XRECORD
  5
140
102
{ACAD_REACTORS
330
13F
102
}
330
13F
100
AcDbXrecord
280
     1
102
RTVSPost2010Prop28
280
     0
102
RTVSPost2010PropOp28
 70
     1
102
RTVSPost2010Prop29
280
     1
102
RTVSPost2010PropOp29
 70
     1
102
RTVSPost2010Prop30
280
     1
102
RTVSPost2010PropOp30
 70
     1
102
RTVSPost2010Prop31
280
     0
102
RTVSPost2010PropOp31
 70
     1
102
RTVSPost2010Prop32
280
     0
102
RTVSPost2010PropOp32
 70
     1
102
RTVSPost2010Prop33
280
     0
102
RTVSPost2010PropOp33
 70
     1
102
RTVSPost2010Prop34
280
     0
102
RTVSPost2010PropOp34
 70
     1
102
RTVSPost2010Prop35
280
     0
102
RTVSPost2010PropOp35
 70
     1
102
RTVSPost2010Prop36
280
     0
102
RTVSPost2010PropOp36
 70
     1
102
RTVSPost2010Prop37
 90
       50
102
RTVSPost2010PropOp37
 70
     1
102
RTVSPost2010Prop38
140
0.0
102
RTVSPost2010PropOp38
 70
     1
102
RTVSPost2010Prop39
140
1.0
102
RTVSPost2010PropOp39
 70
     1
102
RTVSPost2010Prop40
 90
        0
102
RTVSPost2010PropOp40
 70
     1
102
RTVSPost2010Prop41ColorIndex
 90
       18
102
RTVSPost2010Prop41ColorRGB
 90
        0
102
RTVSPost2010PropOp41
 70
     1
102
RTVSPost2010Prop42
 90
       50
102
RTVSPost2010PropOp42
 70
     1
102
RTVSPost2010Prop43
 90
        3
102
RTVSPost2010PropOp43
 70
     1
102
RTVSPost2010Prop44ColorIndex
 90
        5
102
RTVSPost2010Prop44ColorRGB
 90
      255
102
RTVSPost2010PropOp44
 70
     1
102
RTVSPost2010Prop45
280
     0
102
RTVSPost2010PropOp45
 70
     1
102
RTVSPost2010Prop46
 90
       50
102
RTVSPost2010PropOp46
 70
     1
102
RTVSPost2010Prop47
 90
       50
102
RTVSPost2010PropOp47
 70
     1
102
RTVSPost2010Prop48
 90
       50
102
RTVSPost2010PropOp48
 70
     1
102
RTVSPost2010Prop49
280
     0
102
RTVSPost2010PropOp49
 70
     1
102
RTVSPost2010Prop50
 90
       50
102
RTVSPost2010PropOp50
 70
     1
102
RTVSPost2010Prop51ColorIndex
 90
      256
102
RTVSPost2010Prop51ColorRGB
 90
-16777216
102
RTVSPost2010PropOp51
 70
     0
102
RTVSPost2010Prop52
140
1.0
102
RTVSPost2010PropOp52
 70
     0
102
RTVSPost2010Prop53
 90
        2
102
RTVSPost2010PropOp53
 70
     1
102
RTVSPost2010Prop54
  1
strokes_ogs.tif
102
RTVSPost2010PropOp54
 70
     1
102
RTVSPost2010Prop55
280
     0
102
RTVSPost2010PropOp55
 70
     1
102
RTVSPost2010Prop56
140
1.0
102
RTVSPost2010PropOp56
 70
     1
102
RTVSPost2010Prop57
140
1.0
102
RTVSPost2010PropOp57
 70
     1
  0
XRECORD
  5
156
102
{ACAD_REACTORS
330
155
102
}
330
155
100
AcDbXrecord
280
     1
102
RTVSPost2010Prop28
280
     0
102
RTVSPost2010PropOp28
 70
     1
102
RTVSPost2010Prop29
280
     1
102
RTVSPost2010PropOp29
 70
     1
102
RTVSPost2010Prop30
280
     1
102
RTVSPost2010PropOp30
 70
     1
102
RTVSPost2010Prop31
280
     0
102
RTVSPost2010PropOp31
 70
     1
102
RTVSPost2010Prop32
280
     0
102
RTVSPost2010PropOp32
 70
     1
102
RTVSPost2010Prop33
280
     0
102
RTVSPost2010PropOp33
 70
     1
102
RTVSPost2010Prop34
280
     0
102
RTVSPost2010PropOp34
 70
     1
102
RTVSPost2010Prop35
280
     0
102
RTVSPost2010PropOp35
 70
     1
102
RTVSPost2010Prop36
280
     0
102
RTVSPost2010PropOp36
 70
     1
102
RTVSPost2010Prop37
 90
       50
102
RTVSPost2010PropOp37
 70
     1
102
RTVSPost2010Prop38
140
0.0
102
RTVSPost2010PropOp38
 70
     1
102
RTVSPost2010Prop39
140
1.0
102
RTVSPost2010PropOp39
 70
     1
102
RTVSPost2010Prop40
 90
        0
102
RTVSPost2010PropOp40
 70
     1
102
RTVSPost2010Prop41ColorIndex
 90
       18
102
RTVSPost2010Prop41ColorRGB
 90
        0
102
RTVSPost2010PropOp41
 70
     1
102
RTVSPost2010Prop42
 90
       50
102
RTVSPost2010PropOp42
 70
     1
102
RTVSPost2010Prop43
 90
        3
102
RTVSPost2010PropOp43
 70
     1
102
RTVSPost2010Prop44ColorIndex
 90
        5
102
RTVSPost2010Prop44ColorRGB
 90
      255
102
RTVSPost2010PropOp44
 70
     1
102
RTVSPost2010Prop45
280
     0
102
RTVSPost2010PropOp45
 70
     1
102
RTVSPost2010Prop46
 90
       50
102
RTVSPost2010PropOp46
 70
     1
102
RTVSPost2010Prop47
 90
       50
102
RTVSPost2010PropOp47
 70
     1
102
RTVSPost2010Prop48
 90
       50
102
RTVSPost2010PropOp48
 70
     1
102
RTVSPost2010Prop49
280
     0
102
RTVSPost2010PropOp49
 70
     1
102
RTVSPost2010Prop50
 90
       50
102
RTVSPost2010PropOp50
 70
     1
102
RTVSPost2010Prop51ColorIndex
 90
      256
102
RTVSPost2010Prop51ColorRGB
 90
-16777216
102
RTVSPost2010PropOp51
 70
     0
102
RTVSPost2010Prop52
140
1.0
102
RTVSPost2010PropOp52
 70
     0
102
RTVSPost2010Prop53
 90
        2
102
RTVSPost2010PropOp53
 70
     1
102
RTVSPost2010Prop54
  1
strokes_ogs.tif
102
RTVSPost2010PropOp54
 70
     1
102
RTVSPost2010Prop55
280
     0
102
RTVSPost2010PropOp55
 70
     1
102
RTVSPost2010Prop56
140
1.0
102
RTVSPost2010PropOp56
 70
     1
102
RTVSPost2010Prop57
140
1.0
102
RTVSPost2010PropOp57
 70
     1
  0
XRECORD
  5
154
102
{ACAD_REACTORS
330
153
102
}
330
153
100
AcDbXrecord
280
     1
102
RTVSPost2010Prop28
280
     0
102
RTVSPost2010PropOp28
 70
     1
102
RTVSPost2010Prop29
280
     1
102
RTVSPost2010PropOp29
 70
     1
102
RTVSPost2010Prop30
280
     1
102
RTVSPost2010PropOp30
 70
     1
102
RTVSPost2010Prop31
280
     0
102
RTVSPost2010PropOp31
 70
     1
102
RTVSPost2010Prop32
280
     0
102
RTVSPost2010PropOp32
 70
     1
102
RTVSPost2010Prop33
280
     0
102
RTVSPost2010PropOp33
 70
     1
102
RTVSPost2010Prop34
280
     0
102
RTVSPost2010PropOp34
 70
     1
102
RTVSPost2010Prop35
280
     0
102
RTVSPost2010PropOp35
 70
     1
102
RTVSPost2010Prop36
280
     0
102
RTVSPost2010PropOp36
 70
     1
102
RTVSPost2010Prop37
 90
       50
102
RTVSPost2010PropOp37
 70
     1
102
RTVSPost2010Prop38
140
0.0
102
RTVSPost2010PropOp38
 70
     1
102
RTVSPost2010Prop39
140
1.0
102
RTVSPost2010PropOp39
 70
     1
102
RTVSPost2010Prop40
 90
        0
102
RTVSPost2010PropOp40
 70
     1
102
RTVSPost2010Prop41ColorIndex
 90
       18
102
RTVSPost2010Prop41ColorRGB
 90
        0
102
RTVSPost2010PropOp41
 70
     1
102
RTVSPost2010Prop42
 90
       50
102
RTVSPost2010PropOp42
 70
     1
102
RTVSPost2010Prop43
 90
        3
102
RTVSPost2010PropOp43
 70
     1
102
RTVSPost2010Prop44ColorIndex
 90
        5
102
RTVSPost2010Prop44ColorRGB
 90
      255
102
RTVSPost2010PropOp44
 70
     1
102
RTVSPost2010Prop45
280
     0
102
RTVSPost2010PropOp45
 70
     1
102
RTVSPost2010Prop46
 90
       50
102
RTVSPost2010PropOp46
 70
     1
102
RTVSPost2010Prop47
 90
       50
102
RTVSPost2010PropOp47
 70
     1
102
RTVSPost2010Prop48
 90
       50
102
RTVSPost2010PropOp48
 70
     1
102
RTVSPost2010Prop49
280
     0
102
RTVSPost2010PropOp49
 70
     1
102
RTVSPost2010Prop50
 90
       50
102
RTVSPost2010PropOp50
 70
     1
102
RTVSPost2010Prop51ColorIndex
 90
      256
102
RTVSPost2010Prop51ColorRGB
 90
-16777216
102
RTVSPost2010PropOp51
 70
     0
102
RTVSPost2010Prop52
140
1.0
102
RTVSPost2010PropOp52
 70
     0
102
RTVSPost2010Prop53
 90
        2
102
RTVSPost2010PropOp53
 70
     1
102
RTVSPost2010Prop54
  1
strokes_ogs.tif
102
RTVSPost2010PropOp54
 70
     1
102
RTVSPost2010Prop55
280
     0
102
RTVSPost2010PropOp55
 70
     1
102
RTVSPost2010Prop56
140
1.0
102
RTVSPost2010PropOp56
 70
     1
102
RTVSPost2010Prop57
140
1.0
102
RTVSPost2010PropOp57
 70
     1
  0
XRECORD
  5
14E
102
{ACAD_REACTORS
330
14D
102
}
330
14D
100
AcDbXrecord
280
     1
102
RTVSPost2010Prop28
280
     0
102
RTVSPost2010PropOp28
 70
     1
102
RTVSPost2010Prop29
280
     1
102
RTVSPost2010PropOp29
 70
     1
102
RTVSPost2010Prop30
280
     1
102
RTVSPost2010PropOp30
 70
     1
102
RTVSPost2010Prop31
280
     0
102
RTVSPost2010PropOp31
 70
     1
102
RTVSPost2010Prop32
280
     0
102
RTVSPost2010PropOp32
 70
     1
102
RTVSPost2010Prop33
280
     0
102
RTVSPost2010PropOp33
 70
     1
102
RTVSPost2010Prop34
280
     0
102
RTVSPost2010PropOp34
 70
     1
102
RTVSPost2010Prop35
280
     0
102
RTVSPost2010PropOp35
 70
     1
102
RTVSPost2010Prop36
280
     0
102
RTVSPost2010PropOp36
 70
     1
102
RTVSPost2010Prop37
 90
       50
102
RTVSPost2010PropOp37
 70
     1
102
RTVSPost2010Prop38
140
0.0
102
RTVSPost2010PropOp38
 70
     1
102
RTVSPost2010Prop39
140
1.0
102
RTVSPost2010PropOp39
 70
     1
102
RTVSPost2010Prop40
 90
        0
102
RTVSPost2010PropOp40
 70
     1
102
RTVSPost2010Prop41ColorIndex
 90
       18
102
RTVSPost2010Prop41ColorRGB
 90
        0
102
RTVSPost2010PropOp41
 70
     1
102
RTVSPost2010Prop42
 90
       50
102
RTVSPost2010PropOp42
 70
     1
102
RTVSPost2010Prop43
 90
        3
102
RTVSPost2010PropOp43
 70
     1
102
RTVSPost2010Prop44ColorIndex
 90
        5
102
RTVSPost2010Prop44ColorRGB
 90
      255
102
RTVSPost2010PropOp44
 70
     1
102
RTVSPost2010Prop45
280
     0
102
RTVSPost2010PropOp45
 70
     1
102
RTVSPost2010Prop46
 90
       50
102
RTVSPost2010PropOp46
 70
     1
102
RTVSPost2010Prop47
 90
       50
102
RTVSPost2010PropOp47
 70
     1
102
RTVSPost2010Prop48
 90
       50
102
RTVSPost2010PropOp48
 70
     1
102
RTVSPost2010Prop49
280
     0
102
RTVSPost2010PropOp49
 70
     1
102
RTVSPost2010Prop50
 90
       50
102
RTVSPost2010PropOp50
 70
     1
102
RTVSPost2010Prop51ColorIndex
 90
      256
102
RTVSPost2010Prop51ColorRGB
 90
-16777216
102
RTVSPost2010PropOp51
 70
     0
102
RTVSPost2010Prop52
140
1.0
102
RTVSPost2010PropOp52
 70
     0
102
RTVSPost2010Prop53
 90
        2
102
RTVSPost2010PropOp53
 70
     1
102
RTVSPost2010Prop54
  1
strokes_ogs.tif
102
RTVSPost2010PropOp54
 70
     1
102
RTVSPost2010Prop55
280
     0
102
RTVSPost2010PropOp55
 70
     1
102
RTVSPost2010Prop56
140
1.0
102
RTVSPost2010PropOp56
 70
     1
102
RTVSPost2010Prop57
140
1.0
102
RTVSPost2010PropOp57
 70
     1
  0
XRECORD
  5
150
102
{ACAD_REACTORS
330
14F
102
}
330
14F
100
AcDbXrecord
280
     1
102
RTVSPost2010Prop28
280
     0
102
RTVSPost2010PropOp28
 70
     1
102
RTVSPost2010Prop29
280
     1
102
RTVSPost2010PropOp29
 70
     1
102
RTVSPost2010Prop30
280
     1
102
RTVSPost2010PropOp30
 70
     1
102
RTVSPost2010Prop31
280
     0
102
RTVSPost2010PropOp31
 70
     1
102
RTVSPost2010Prop32
280
     0
102
RTVSPost2010PropOp32
 70
     1
102
RTVSPost2010Prop33
280
     0
102
RTVSPost2010PropOp33
 70
     1
102
RTVSPost2010Prop34
280
     0
102
RTVSPost2010PropOp34
 70
     1
102
RTVSPost2010Prop35
280
     0
102
RTVSPost2010PropOp35
 70
     1
102
RTVSPost2010Prop36
280
     0
102
RTVSPost2010PropOp36
 70
     1
102
RTVSPost2010Prop37
 90
       50
102
RTVSPost2010PropOp37
 70
     1
102
RTVSPost2010Prop38
140
0.0
102
RTVSPost2010PropOp38
 70
     1
102
RTVSPost2010Prop39
140
1.0
102
RTVSPost2010PropOp39
 70
     1
102
RTVSPost2010Prop40
 90
        0
102
RTVSPost2010PropOp40
 70
     1
102
RTVSPost2010Prop41ColorIndex
 90
       18
102
RTVSPost2010Prop41ColorRGB
 90
        0
102
RTVSPost2010PropOp41
 70
     1
102
RTVSPost2010Prop42
 90
       50
102
RTVSPost2010PropOp42
 70
     1
102
RTVSPost2010Prop43
 90
        3
102
RTVSPost2010PropOp43
 70
     1
102
RTVSPost2010Prop44ColorIndex
 90
        5
102
RTVSPost2010Prop44ColorRGB
 90
      255
102
RTVSPost2010PropOp44
 70
     1
102
RTVSPost2010Prop45
280
     0
102
RTVSPost2010PropOp45
 70
     1
102
RTVSPost2010Prop46
 90
       50
102
RTVSPost2010PropOp46
 70
     1
102
RTVSPost2010Prop47
 90
       50
102
RTVSPost2010PropOp47
 70
     1
102
RTVSPost2010Prop48
 90
       50
102
RTVSPost2010PropOp48
 70
     1
102
RTVSPost2010Prop49
280
     0
102
RTVSPost2010PropOp49
 70
     1
102
RTVSPost2010Prop50
 90
       50
102
RTVSPost2010PropOp50
 70
     1
102
RTVSPost2010Prop51ColorIndex
 90
      256
102
RTVSPost2010Prop51ColorRGB
 90
-16777216
102
RTVSPost2010PropOp51
 70
     0
102
RTVSPost2010Prop52
140
1.0
102
RTVSPost2010PropOp52
 70
     0
102
RTVSPost2010Prop53
 90
        2
102
RTVSPost2010PropOp53
 70
     1
102
RTVSPost2010Prop54
  1
strokes_ogs.tif
102
RTVSPost2010PropOp54
 70
     1
102
RTVSPost2010Prop55
280
     0
102
RTVSPost2010PropOp55
 70
     1
102
RTVSPost2010Prop56
140
1.0
102
RTVSPost2010PropOp56
 70
     1
102
RTVSPost2010Prop57
140
1.0
102
RTVSPost2010PropOp57
 70
     1
  0
XRECORD
  5
146
102
{ACAD_REACTORS
330
145
102
}
330
145
100
AcDbXrecord
280
     1
102
RTVSPost2010Prop28
280
     0
102
RTVSPost2010PropOp28
 70
     1
102
RTVSPost2010Prop29
280
     1
102
RTVSPost2010PropOp29
 70
     1
102
RTVSPost2010Prop30
280
     1
102
RTVSPost2010PropOp30
 70
     1
102
RTVSPost2010Prop31
280
     0
102
RTVSPost2010PropOp31
 70
     1
102
RTVSPost2010Prop32
280
     0
102
RTVSPost2010PropOp32
 70
     1
102
RTVSPost2010Prop33
280
     0
102
RTVSPost2010PropOp33
 70
     1
102
RTVSPost2010Prop34
280
     0
102
RTVSPost2010PropOp34
 70
     1
102
RTVSPost2010Prop35
280
     0
102
RTVSPost2010PropOp35
 70
     1
102
RTVSPost2010Prop36
280
     0
102
RTVSPost2010PropOp36
 70
     1
102
RTVSPost2010Prop37
 90
       50
102
RTVSPost2010PropOp37
 70
     1
102
RTVSPost2010Prop38
140
0.0
102
RTVSPost2010PropOp38
 70
     1
102
RTVSPost2010Prop39
140
1.0
102
RTVSPost2010PropOp39
 70
     1
102
RTVSPost2010Prop40
 90
        0
102
RTVSPost2010PropOp40
 70
     1
102
RTVSPost2010Prop41ColorIndex
 90
       18
102
RTVSPost2010Prop41ColorRGB
 90
        0
102
RTVSPost2010PropOp41
 70
     1
102
RTVSPost2010Prop42
 90
       50
102
RTVSPost2010PropOp42
 70
     1
102
RTVSPost2010Prop43
 90
        3
102
RTVSPost2010PropOp43
 70
     1
102
RTVSPost2010Prop44ColorIndex
 90
        5
102
RTVSPost2010Prop44ColorRGB
 90
      255
102
RTVSPost2010PropOp44
 70
     1
102
RTVSPost2010Prop45
280
     0
102
RTVSPost2010PropOp45
 70
     1
102
RTVSPost2010Prop46
 90
       50
102
RTVSPost2010PropOp46
 70
     1
102
RTVSPost2010Prop47
 90
       50
102
RTVSPost2010PropOp47
 70
     1
102
RTVSPost2010Prop48
 90
       50
102
RTVSPost2010PropOp48
 70
     1
102
RTVSPost2010Prop49
280
     0
102
RTVSPost2010PropOp49
 70
     1
102
RTVSPost2010Prop50
 90
       50
102
RTVSPost2010PropOp50
 70
     1
102
RTVSPost2010Prop51ColorIndex
 90
      256
102
RTVSPost2010Prop51ColorRGB
 90
-16777216
102
RTVSPost2010PropOp51
 70
     0
102
RTVSPost2010Prop52
140
1.0
102
RTVSPost2010PropOp52
 70
     0
102
RTVSPost2010Prop53
 90
        2
102
RTVSPost2010PropOp53
 70
     1
102
RTVSPost2010Prop54
  1
strokes_ogs.tif
102
RTVSPost2010PropOp54
 70
     1
102
RTVSPost2010Prop55
280
     0
102
RTVSPost2010PropOp55
 70
     1
102
RTVSPost2010Prop56
140
1.0
102
RTVSPost2010PropOp56
 70
     1
102
RTVSPost2010Prop57
140
1.0
102
RTVSPost2010PropOp57
 70
     1
  0
XRECORD
  5
13A
102
{ACAD_REACTORS
330
139
102
}
330
139
100
AcDbXrecord
280
     1
102
RTVSPost2010Prop28
280
     0
102
RTVSPost2010PropOp28
 70
     1
102
RTVSPost2010Prop29
280
     1
102
RTVSPost2010PropOp29
 70
     1
102
RTVSPost2010Prop30
280
     1
102
RTVSPost2010PropOp30
 70
     1
102
RTVSPost2010Prop31
280
     0
102
RTVSPost2010PropOp31
 70
     1
102
RTVSPost2010Prop32
280
     0
102
RTVSPost2010PropOp32
 70
     1
102
RTVSPost2010Prop33
280
     0
102
RTVSPost2010PropOp33
 70
     1
102
RTVSPost2010Prop34
280
     0
102
RTVSPost2010PropOp34
 70
     1
102
RTVSPost2010Prop35
280
     0
102
RTVSPost2010PropOp35
 70
     1
102
RTVSPost2010Prop36
280
     0
102
RTVSPost2010PropOp36
 70
     1
102
RTVSPost2010Prop37
 90
       50
102
RTVSPost2010PropOp37
 70
     1
102
RTVSPost2010Prop38
140
0.0
102
RTVSPost2010PropOp38
 70
     1
102
RTVSPost2010Prop39
140
1.0
102
RTVSPost2010PropOp39
 70
     1
102
RTVSPost2010Prop40
 90
        0
102
RTVSPost2010PropOp40
 70
     1
102
RTVSPost2010Prop41ColorIndex
 90
       18
102
RTVSPost2010Prop41ColorRGB
 90
        0
102
RTVSPost2010PropOp41
 70
     1
102
RTVSPost2010Prop42
 90
       50
102
RTVSPost2010PropOp42
 70
     1
102
RTVSPost2010Prop43
 90
        3
102
RTVSPost2010PropOp43
 70
     1
102
RTVSPost2010Prop44ColorIndex
 90
        5
102
RTVSPost2010Prop44ColorRGB
 90
      255
102
RTVSPost2010PropOp44
 70
     1
102
RTVSPost2010Prop45
280
     0
102
RTVSPost2010PropOp45
 70
     1
102
RTVSPost2010Prop46
 90
       50
102
RTVSPost2010PropOp46
 70
     1
102
RTVSPost2010Prop47
 90
       50
102
RTVSPost2010PropOp47
 70
     1
102
RTVSPost2010Prop48
 90
       50
102
RTVSPost2010PropOp48
 70
     1
102
RTVSPost2010Prop49
280
     0
102
RTVSPost2010PropOp49
 70
     1
102
RTVSPost2010Prop50
 90
       50
102
RTVSPost2010PropOp50
 70
     1
102
RTVSPost2010Prop51ColorIndex
 90
      256
102
RTVSPost2010Prop51ColorRGB
 90
-16777216
102
RTVSPost2010PropOp51
 70
     0
102
RTVSPost2010Prop52
140
1.0
102
RTVSPost2010PropOp52
 70
     0
102
RTVSPost2010Prop53
 90
        2
102
RTVSPost2010PropOp53
 70
     1
102
RTVSPost2010Prop54
  1
strokes_ogs.tif
102
RTVSPost2010PropOp54
 70
     1
102
RTVSPost2010Prop55
280
     0
102
RTVSPost2010PropOp55
 70
     1
102
RTVSPost2010Prop56
140
1.0
102
RTVSPost2010PropOp56
 70
     1
102
RTVSPost2010Prop57
140
1.0
102
RTVSPost2010PropOp57
 70
     1
  0
XRECORD
  5
152
102
{ACAD_REACTORS
330
151
102
}
330
151
100
AcDbXrecord
280
     1
102
RTVSPost2010Prop28
280
     0
102
RTVSPost2010PropOp28
 70
     1
102
RTVSPost2010Prop29
280
     1
102
RTVSPost2010PropOp29
 70
     1
102
RTVSPost2010Prop30
280
     1
102
RTVSPost2010PropOp30
 70
     1
102
RTVSPost2010Prop31
280
     0
102
RTVSPost2010PropOp31
 70
     1
102
RTVSPost2010Prop32
280
     0
102
RTVSPost2010PropOp32
 70
     1
102
RTVSPost2010Prop33
280
     0
102
RTVSPost2010PropOp33
 70
     1
102
RTVSPost2010Prop34
280
     0
102
RTVSPost2010PropOp34
 70
     1
102
RTVSPost2010Prop35
280
     0
102
RTVSPost2010PropOp35
 70
     1
102
RTVSPost2010Prop36
280
     0
102
RTVSPost2010PropOp36
 70
     1
102
RTVSPost2010Prop37
 90
       50
102
RTVSPost2010PropOp37
 70
     1
102
RTVSPost2010Prop38
140
0.0
102
RTVSPost2010PropOp38
 70
     1
102
RTVSPost2010Prop39
140
1.0
102
RTVSPost2010PropOp39
 70
     1
102
RTVSPost2010Prop40
 90
        0
102
RTVSPost2010PropOp40
 70
     1
102
RTVSPost2010Prop41ColorIndex
 90
       18
102
RTVSPost2010Prop41ColorRGB
 90
        0
102
RTVSPost2010PropOp41
 70
     1
102
RTVSPost2010Prop42
 90
       50
102
RTVSPost2010PropOp42
 70
     1
102
RTVSPost2010Prop43
 90
        3
102
RTVSPost2010PropOp43
 70
     1
102
RTVSPost2010Prop44ColorIndex
 90
        5
102
RTVSPost2010Prop44ColorRGB
 90
      255
102
RTVSPost2010PropOp44
 70
     1
102
RTVSPost2010Prop45
280
     0
102
RTVSPost2010PropOp45
 70
     1
102
RTVSPost2010Prop46
 90
       50
102
RTVSPost2010PropOp46
 70
     1
102
RTVSPost2010Prop47
 90
       50
102
RTVSPost2010PropOp47
 70
     1
102
RTVSPost2010Prop48
 90
       50
102
RTVSPost2010PropOp48
 70
     1
102
RTVSPost2010Prop49
280
     0
102
RTVSPost2010PropOp49
 70
     1
102
RTVSPost2010Prop50
 90
       50
102
RTVSPost2010PropOp50
 70
     1
102
RTVSPost2010Prop51ColorIndex
 90
      256
102
RTVSPost2010Prop51ColorRGB
 90
-16777216
102
RTVSPost2010PropOp51
 70
     0
102
RTVSPost2010Prop52
140
1.0
102
RTVSPost2010PropOp52
 70
     0
102
RTVSPost2010Prop53
 90
        2
102
RTVSPost2010PropOp53
 70
     1
102
RTVSPost2010Prop54
  1
strokes_ogs.tif
102
RTVSPost2010PropOp54
 70
     1
102
RTVSPost2010Prop55
280
     0
102
RTVSPost2010PropOp55
 70
     1
102
RTVSPost2010Prop56
140
1.0
102
RTVSPost2010PropOp56
 70
     1
102
RTVSPost2010Prop57
140
1.0
102
RTVSPost2010PropOp57
 70
     1
  0
ENDSEC
  0
EOF
