  0
SECTION
  2
HEADER
  9
$ACADVER
  1
AC1024
  9
$ACADMAINTVER
 70
   226
  9
$DWGCODEPAGE
  3
ANSI_932
  9
$INSBASE
 10
0.0
 20
0.0
 30
0.0
  9
$EXTMIN
 10
1.000000000000000E+20
 20
1.000000000000000E+20
 30
1.000000000000000E+20
  9
$EXTMAX
 10
-1.000000000000000E+20
 20
-1.000000000000000E+20
 30
-1.000000000000000E+20
  9
$LIMMIN
 10
0.0
 20
0.0
  9
$LIMMAX
 10
12.0
 20
9.0
  9
$ORTHOMODE
 70
     0
  9
$REGENMODE
 70
     1
  9
$FILLMODE
 70
     1
  9
$QTEXTMODE
 70
     0
  9
$MIRRTEXT
 70
     0
  9
$LTSCALE
 40
1.0
  9
$ATTMODE
 70
     1
  9
$TEXTSIZE
 40
0.2
  9
$TRACEWID
 40
0.05
  9
$TEXTSTYLE
  7
Standard
  9
$CLAYER
  8
0
  9
$CELTYPE
  6
ByLayer
  9
$CECOLOR
 62
   256
  9
$CELTSCALE
 40
1.0
  9
$DISPSILH
 70
     0
  9
$DIMSCALE
 40
1.0
  9
$DIMASZ
 40
0.18
  9
$DIMEXO
 40
0.0625
  9
$DIMDLI
 40
0.38
  9
$DIMRND
 40
0.0
  9
$DIMDLE
 40
0.0
  9
$DIMEXE
 40
0.18
  9
$DIMTP
 40
0.0
  9
$DIMTM
 40
0.0
  9
$DIMTXT
 40
0.18
  9
$DIMCEN
 40
0.09
  9
$DIMTSZ
 40
0.0
  9
$DIMTOL
 70
     0
  9
$DIMLIM
 70
     0
  9
$DIMTIH
 70
     1
  9
$DIMTOH
 70
     1
  9
$DIMSE1
 70
     0
  9
$DIMSE2
 70
     0
  9
$DIMTAD
 70
     0
  9
$DIMZIN
 70
     0
  9
$DIMBLK
  1

  9
$DIMASO
 70
     1
  9
$DIMSHO
 70
     1
  9
$DIMPOST
  1

  9
$DIMAPOST
  1

  9
$DIMALT
 70
     0
  9
$DIMALTD
 70
     2
  9
$DIMALTF
 40
25.4
  9
$DIMLFAC
 40
1.0
  9
$DIMTOFL
 70
     0
  9
$DIMTVP
 40
0.0
  9
$DIMTIX
 70
     0
  9
$DIMSOXD
 70
     0
  9
$DIMSAH
 70
     0
  9
$DIMBLK1
  1

  9
$DIMBLK2
  1

  9
$DIMSTYLE
  2
Standard
  9
$DIMCLRD
 70
     0
  9
$DIMCLRE
 70
     0
  9
$DIMCLRT
 70
     0
  9
$DIMTFAC
 40
1.0
  9
$DIMGAP
 40
0.09
  9
$DIMJUST
 70
     0
  9
$DIMSD1
 70
     0
  9
$DIMSD2
 70
     0
  9
$DIMTOLJ
 70
     1
  9
$DIMTZIN
 70
     0
  9
$DIMALTZ
 70
     0
  9
$DIMALTTZ
 70
     0
  9
$DIMUPT
 70
     0
  9
$DIMDEC
 70
     4
  9
$DIMTDEC
 70
     4
  9
$DIMALTU
 70
     2
  9
$DIMALTTD
 70
     2
  9
$DIMTXSTY
  7
Standard
  9
$DIMAUNIT
 70
     0
  9
$DIMADEC
 70
     0
  9
$DIMALTRND
 40
0.0
  9
$DIMAZIN
 70
     0
  9
$DIMDSEP
 70
    46
  9
$DIMATFIT
 70
     3
  9
$DIMFRAC
 70
     0
  9
$DIMLDRBLK
  1

  9
$DIMLUNIT
 70
     2
  9
$DIMLWD
 70
    -2
  9
$DIMLWE
 70
    -2
  9
$DIMTMOVE
 70
     0
  9
$DIMFXL
 40
1.0
  9
$DIMFXLON
 70
     0
  9
$DIMJOGANG
 40
0.7853981633974483
  9
$DIMTFILL
 70
     0
  9
$DIMTFILLCLR
 70
     0
  9
$DIMARCSYM
 70
     0
  9
$DIMLTYPE
  6

  9
$DIMLTEX1
  6

  9
$DIMLTEX2
  6

  9
$DIMTXTDIRECTION
 70
     0
  9
$LUNITS
 70
     2
  9
$LUPREC
 70
     4
  9
$SKETCHINC
 40
0.1
  9
$FILLETRAD
 40
0.0
  9
$AUNITS
 70
     0
  9
$AUPREC
 70
     0
  9
$MENU
  1
.
  9
$ELEVATION
 40
0.0
  9
$PELEVATION
 40
0.0
  9
$THICKNESS
 40
0.0
  9
$LIMCHECK
 70
     0
  9
$CHAMFERA
 40
0.0
  9
$CHAMFERB
 40
0.0
  9
$CHAMFERC
 40
0.0
  9
$CHAMFERD
 40
0.0
  9
$SKPOLY
 70
     0
  9
$TDCREATE
 40
2459569.488576389
  9
$TDUCREATE
 40
2459569.113576389
  9
$TDUPDATE
 40
2459569.488576389
  9
$TDUUPDATE
 40
2459569.113576389
  9
$TDINDWG
 40
0.0000000000
  9
$TDUSRTIMER
 40
0.0000000000
  9
$USRTIMER
 70
     1
  9
$ANGBASE
 50
0.0
  9
$ANGDIR
 70
     0
  9
$PDMODE
 70
     0
  9
$PDSIZE
 40
0.0
  9
$PLINEWID
 40
0.0
  9
$SPLFRAME
 70
     0
  9
$SPLINETYPE
 70
     6
  9
$SPLINESEGS
 70
     8
  9
$HANDSEED
  5
13F
  9
$SURFTAB1
 70
     6
  9
$SURFTAB2
 70
     6
  9
$SURFTYPE
 70
     6
  9
$SURFU
 70
     6
  9
$SURFV
 70
     6
  9
$UCSBASE
  2

  9
$UCSNAME
  2

  9
$UCSORG
 10
0.0
 20
0.0
 30
0.0
  9
$UCSXDIR
 10
1.0
 20
0.0
 30
0.0
  9
$UCSYDIR
 10
0.0
 20
1.0
 30
0.0
  9
$UCSORTHOREF
  2

  9
$UCSORTHOVIEW
 70
     0
  9
$UCSORGTOP
 10
0.0
 20
0.0
 30
0.0
  9
$UCSORGBOTTOM
 10
0.0
 20
0.0
 30
0.0
  9
$UCSORGLEFT
 10
0.0
 20
0.0
 30
0.0
  9
$UCSORGRIGHT
 10
0.0
 20
0.0
 30
0.0
  9
$UCSORGFRONT
 10
0.0
 20
0.0
 30
0.0
  9
$UCSORGBACK
 10
0.0
 20
0.0
 30
0.0
  9
$PUCSBASE
  2

  9
$PUCSNAME
  2

  9
$PUCSORG
 10
0.0
 20
0.0
 30
0.0
  9
$PUCSXDIR
 10
1.0
 20
0.0
 30
0.0
  9
$PUCSYDIR
 10
0.0
 20
1.0
 30
0.0
  9
$PUCSORTHOREF
  2

  9
$PUCSORTHOVIEW
 70
     0
  9
$PUCSORGTOP
 10
0.0
 20
0.0
 30
0.0
  9
$PUCSORGBOTTOM
 10
0.0
 20
0.0
 30
0.0
  9
$PUCSORGLEFT
 10
0.0
 20
0.0
 30
0.0
  9
$PUCSORGRIGHT
 10
0.0
 20
0.0
 30
0.0
  9
$PUCSORGFRONT
 10
0.0
 20
0.0
 30
0.0
  9
$PUCSORGBACK
 10
0.0
 20
0.0
 30
0.0
  9
$USERI1
 70
     0
  9
$USERI2
 70
     0
  9
$USERI3
 70
     0
  9
$USERI4
 70
     0
  9
$USERI5
 70
     0
  9
$USERR1
 40
0.0
  9
$USERR2
 40
0.0
  9
$USERR3
 40
0.0
  9
$USERR4
 40
0.0
  9
$USERR5
 40
0.0
  9
$WORLDVIEW
 70
     1
  9
$SHADEDGE
 70
     3
  9
$SHADEDIF
 70
    70
  9
$TILEMODE
 70
     1
  9
$MAXACTVP
 70
    64
  9
$PINSBASE
 10
0.0
 20
0.0
 30
0.0
  9
$PLIMCHECK
 70
     0
  9
$PEXTMIN
 10
1.000000000000000E+20
 20
1.000000000000000E+20
 30
1.000000000000000E+20
  9
$PEXTMAX
 10
-1.000000000000000E+20
 20
-1.000000000000000E+20
 30
-1.000000000000000E+20
  9
$PLIMMIN
 10
0.0
 20
0.0
  9
$PLIMMAX
 10
12.0
 20
9.0
  9
$UNITMODE
 70
     0
  9
$VISRETAIN
 70
     1
  9
$PLINEGEN
 70
     0
  9
$PSLTSCALE
 70
     1
  9
$TREEDEPTH
 70
  3020
  9
$CMLSTYLE
  2
Standard
  9
$CMLJUST
 70
     0
  9
$CMLSCALE
 40
1.0
  9
$PROXYGRAPHICS
 70
     1
  9
$MEASUREMENT
 70
     0
  9
$CELWEIGHT
370
    -1
  9
$ENDCAPS
280
     0
  9
$JOINSTYLE
280
     0
  9
$LWDISPLAY
290
     1
  9
$INSUNITS
 70
     4
  9
$HYPERLINKBASE
  1

  9
$STYLESHEET
  1

  9
$XEDIT
290
     1
  9
$CEPSNTYPE
380
     0
  9
$PSTYLEMODE
290
     1
  9
$FINGERPRINTGUID
  2
{49797526-B940-A24D-A451-ADC6C2836086}
  9
$VERSIONGUID
  2
{ADE22724-3FAE-0B45-9B87-AE74BADC7A9A}
  9
$EXTNAMES
290
     1
  9
$PSVPSCALE
 40
0.0
  9
$OLESTARTUP
290
     0
  9
$SORTENTS
280
   127
  9
$INDEXCTL
280
     0
  9
$HIDETEXT
280
     1
  9
$XCLIPFRAME
280
     2
  9
$HALOGAP
280
     0
  9
$OBSCOLOR
 70
   257
  9
$OBSLTYPE
280
     0
  9
$INTERSECTIONDISPLAY
280
     0
  9
$INTERSECTIONCOLOR
 70
   257
  9
$DIMASSOC
280
     2
  9
$PROJECTNAME
  1

  9
$CAMERADISPLAY
290
     0
  9
$LENSLENGTH
 40
50.0
  9
$CAMERAHEIGHT
 40
0.0
  9
$STEPSPERSEC
 40
2.0
  9
$STEPSIZE
 40
6.0
  9
$3DDWFPREC
 40
2.0
  9
$PSOLWIDTH
 40
0.25
  9
$PSOLHEIGHT
 40
4.0
  9
$LOFTANG1
 40
1.570796326794896
  9
$LOFTANG2
 40
1.570796326794896
  9
$LOFTMAG1
 40
0.0
  9
$LOFTMAG2
 40
0.0
  9
$LOFTPARAM
 70
     7
  9
$LOFTNORMALS
280
     1
  9
$LATITUDE
 40
37.795
  9
$LONGITUDE
 40
-122.394
  9
$NORTHDIRECTION
 40
0.0
  9
$TIMEZONE
 70
 -8000
  9
$LIGHTGLYPHDISPLAY
280
     1
  9
$TILEMODELIGHTSYNCH
280
     1
  9
$CMATERIAL
347
11
  9
$SOLIDHIST
280
     0
  9
$SHOWHIST
280
     1
  9
$DWFFRAME
280
     2
  9
$DGNFRAME
280
     0
  9
$REALWORLDSCALE
290
     1
  9
$INTERFERECOLOR
 62
     1
  9
$INTERFEREOBJVS
345
33
  9
$INTERFEREVPVS
346
30
  9
$CSHADOW
280
     0
  9
$SHADOWPLANELOCATION
 40
0.0
  0
ENDSEC
  0
SECTION
  2
CLASSES
  0
CLASS
  1
ACDBDICTIONARYWDFLT
  2
AcDbDictionaryWithDefault
  3
ObjectDBX Classes
 90
        0
 91
        1
280
     0
281
     0
  0
CLASS
  1
MATERIAL
  2
AcDbMaterial
  3
ObjectDBX Classes
 90
     1153
 91
        3
280
     0
281
     0
  0
CLASS
  1
VISUALSTYLE
  2
AcDbVisualStyle
  3
ObjectDBX Classes
 90
     4095
 91
       24
280
     0
281
     0
  0
CLASS
  1
SCALE
  2
AcDbScale
  3
ObjectDBX Classes
 90
     1153
 91
       17
280
     0
281
     0
  0
CLASS
  1
TABLESTYLE
  2
AcDbTableStyle
  3
ObjectDBX Classes
 90
     4095
 91
        1
280
     0
281
     0
  0
CLASS
  1
MLEADERSTYLE
  2
AcDbMLeaderStyle
  3
ACDB_MLEADERSTYLE_CLASS
 90
     4095
 91
        1
280
     0
281
     0
  0
CLASS
  1
ACDBSECTIONVIEWSTYLE
  2
AcDbSectionViewStyle
  3
ObjectDBX Classes
 90
     1025
 91
        1
280
     0
281
     0
  0
CLASS
  1
ACDBDETAILVIEWSTYLE
  2
AcDbDetailViewStyle
  3
ObjectDBX Classes
 90
     1025
 91
        1
280
     0
281
     0
  0
CLASS
  1
DICTIONARYVAR
  2
AcDbDictionaryVar
  3
ObjectDBX Classes
 90
        0
 91
        5
280
     0
281
     0
  0
CLASS
  1
CELLSTYLEMAP
  2
AcDbCellStyleMap
  3
ObjectDBX Classes
 90
     1152
 91
        1
280
     0
281
     0
  0
ENDSEC
  0
SECTION
  2
TABLES
  0
TABLE
  2
VPORT
  5
8
330
0
100
AcDbSymbolTable
 70
     1
  0
VPORT
  5
57
330
8
100
AcDbSymbolTableRecord
100
AcDbViewportTableRecord
  2
*Active
 70
     0
 10
0.0
 20
0.0
 11
1.0
 21
1.0
 12
0.0
 22
0.0
 13
0.0
 23
0.0
 14
1.0
 24
1.0
 15
0.0
 25
0.0
 16
0.0
 26
0.0
 36
1.0
 17
104.9999999737534
 27
-148.4999999628701
 37
0.0
 40
302.939999924255
 41
0.7070707070707534
 42
50.0
 43
0.0
 44
0.0
 50
0.0
 51
0.0
 71
     0
 72
   100
 73
     1
 74
     0
 75
     1
 76
     0
 77
     0
 78
     0
281
     0
 65
     1
110
0.0
120
0.0
130
0.0
111
1.0
121
0.0
131
0.0
112
0.0
122
1.0
132
0.0
 79
     0
146
0.0
 60
     3
 61
     5
292
     1
282
     1
141
0.0
142
0.0
 63
   250
421
  3355443
  0
ENDTAB
  0
TABLE
  2
LTYPE
  5
5
330
0
100
AcDbSymbolTable
 70
     1
  0
LTYPE
  5
5B
330
5
100
AcDbSymbolTableRecord
100
AcDbLinetypeTableRecord
  2
ByBlock
 70
     0
  3

 72
    65
 73
     0
 40
0.0
  0
LTYPE
  5
5C
330
5
100
AcDbSymbolTableRecord
100
AcDbLinetypeTableRecord
  2
ByLayer
 70
     0
  3

 72
    65
 73
     0
 40
0.0
  0
LTYPE
  5
5D
330
5
100
AcDbSymbolTableRecord
100
AcDbLinetypeTableRecord
  2
Continuous
 70
     0
  3
Solid line
 72
    65
 73
     0
 40
0.0
  0
ENDTAB
  0
TABLE
  2
LAYER
  5
2
330
0
100
AcDbSymbolTable
 70
     2
  0
LAYER
  5
54
330
2
100
AcDbSymbolTableRecord
100
AcDbLayerTableRecord
  2
0
 70
     0
 62
     7
  6
Continuous
370
    -3
390
F
347
21
  0
LAYER
  5
78
330
2
100
AcDbSymbolTableRecord
100
AcDbLayerTableRecord
  2
レイヤー 1
 70
     0
 62
     7
  6
Continuous
370
     0
390
F
347
21
  0
ENDTAB
  0
TABLE
  2
STYLE
  5
3
330
0
100
AcDbSymbolTable
 70
     2
  0
STYLE
  5
55
330
3
100
AcDbSymbolTableRecord
100
AcDbTextStyleTableRecord
  2
Standard
 70
     0
 40
0.0
 41
1.0
 50
0.0
 71
     0
 42
0.2
  3
txt
  4

  0
STYLE
  5
5A
330
3
100
AcDbSymbolTableRecord
100
AcDbTextStyleTableRecord
  2
Annotative
 70
     0
 40
0.0
 41
1.0
 50
0.0
 71
     0
 42
0.2
  3
txt
  4

1001
AcadAnnotative
1000
AnnotativeData
1002
{
1070
     1
1070
     1
1002
}
  0
ENDTAB
  0
TABLE
  2
VIEW
  5
6
330
0
100
AcDbSymbolTable
 70
     0
  0
ENDTAB
  0
TABLE
  2
UCS
  5
7
330
0
100
AcDbSymbolTable
 70
     0
  0
ENDTAB
  0
TABLE
  2
APPID
  5
9
330
0
100
AcDbSymbolTable
 70
     2
  0
APPID
  5
56
330
9
100
AcDbSymbolTableRecord
100
AcDbRegAppTableRecord
  2
ACAD
 70
     0
  0
APPID
  5
5E
330
9
100
AcDbSymbolTableRecord
100
AcDbRegAppTableRecord
  2
AcadAnnotative
 70
     0
  0
ENDTAB
  0
TABLE
  2
DIMSTYLE
  5
A
330
0
100
AcDbSymbolTable
 70
     2
100
AcDbDimStyleTable
 71
     0
  0
DIMSTYLE
105
58
330
A
100
AcDbSymbolTableRecord
100
AcDbDimStyleTableRecord
  2
Standard
 70
     0
340
55
  0
DIMSTYLE
105
59
330
A
100
AcDbSymbolTableRecord
100
AcDbDimStyleTableRecord
  2
Annotative
 70
     0
340
55
1001
AcadAnnotative
1000
AnnotativeData
1002
{
1070
     1
1070
     1
1002
}
  0
ENDTAB
  0
TABLE
  2
BLOCK_RECORD
  5
1
330
0
100
AcDbSymbolTable
 70
    18
  0
BLOCK_RECORD
  5
70
330
1
100
AcDbSymbolTableRecord
100
AcDbBlockTableRecord
  2
*Model_Space
340
73
 70
     0
280
     1
281
     0
  0
BLOCK_RECORD
  5
6C
330
1
100
AcDbSymbolTableRecord
100
AcDbBlockTableRecord
  2
*Paper_Space
340
6F
 70
     0
280
     1
281
     0
  0
BLOCK_RECORD
  5
74
330
1
100
AcDbSymbolTableRecord
100
AcDbBlockTableRecord
  2
*Paper_Space0
340
77
 70
     0
280
     1
281
     0
  0
BLOCK_RECORD
  5
79
330
1
100
AcDbSymbolTableRecord
100
AcDbBlockTableRecord
  2
Block_0
340
0
102
{BLKREFS
331
7A
102
}
 70
     0
280
     1
281
     0
  0
BLOCK_RECORD
  5
7D
330
1
100
AcDbSymbolTableRecord
100
AcDbBlockTableRecord
  2
Block_1
340
0
102
{BLKREFS
331
7E
102
}
 70
     0
280
     1
281
     0
  0
BLOCK_RECORD
  5
81
330
1
100
AcDbSymbolTableRecord
100
AcDbBlockTableRecord
  2
Block_2
340
0
102
{BLKREFS
331
82
102
}
 70
     0
280
     1
281
     0
  0
BLOCK_RECORD
  5
8A
330
1
100
AcDbSymbolTableRecord
100
AcDbBlockTableRecord
  2
Block_3
340
0
102
{BLKREFS
331
8B
102
}
 70
     0
280
     1
281
     0
  0
BLOCK_RECORD
  5
8E
330
1
100
AcDbSymbolTableRecord
100
AcDbBlockTableRecord
  2
Block_4
340
0
102
{BLKREFS
331
8F
102
}
 70
     0
280
     1
281
     0
  0
BLOCK_RECORD
  5
97
330
1
100
AcDbSymbolTableRecord
100
AcDbBlockTableRecord
  2
Block_5
340
0
102
{BLKREFS
331
98
102
}
 70
     0
280
     1
281
     0
  0
BLOCK_RECORD
  5
9C
330
1
100
AcDbSymbolTableRecord
100
AcDbBlockTableRecord
  2
Block_6
340
0
102
{BLKREFS
331
9D
102
}
 70
     0
280
     1
281
     0
  0
BLOCK_RECORD
  5
A4
330
1
100
AcDbSymbolTableRecord
100
AcDbBlockTableRecord
  2
Block_7
340
0
102
{BLKREFS
331
A5
102
}
 70
     0
280
     1
281
     0
  0
BLOCK_RECORD
  5
A8
330
1
100
AcDbSymbolTableRecord
100
AcDbBlockTableRecord
  2
Block_8
340
0
102
{BLKREFS
331
A9
102
}
 70
     0
280
     1
281
     0
  0
BLOCK_RECORD
  5
B1
330
1
100
AcDbSymbolTableRecord
100
AcDbBlockTableRecord
  2
Block_9
340
0
102
{BLKREFS
331
B2
102
}
 70
     0
280
     1
281
     0
  0
BLOCK_RECORD
  5
B5
330
1
100
AcDbSymbolTableRecord
100
AcDbBlockTableRecord
  2
Block_10
340
0
102
{BLKREFS
331
B6
102
}
 70
     0
280
     1
281
     0
  0
BLOCK_RECORD
  5
BE
330
1
100
AcDbSymbolTableRecord
100
AcDbBlockTableRecord
  2
Block_11
340
0
102
{BLKREFS
331
BF
102
}
 70
     0
280
     1
281
     0
  0
BLOCK_RECORD
  5
C2
330
1
100
AcDbSymbolTableRecord
100
AcDbBlockTableRecord
  2
Block_12
340
0
102
{BLKREFS
331
C3
102
}
 70
     0
280
     1
281
     0
  0
BLOCK_RECORD
  5
CB
330
1
100
AcDbSymbolTableRecord
100
AcDbBlockTableRecord
  2
Block_13
340
0
102
{BLKREFS
331
CC
102
}
 70
     0
280
     1
281
     0
  0
BLOCK_RECORD
  5
CF
330
1
100
AcDbSymbolTableRecord
100
AcDbBlockTableRecord
  2
Block_14
340
0
102
{BLKREFS
331
D0
102
}
 70
     0
280
     1
281
     0
  0
BLOCK_RECORD
  5
D3
330
1
100
AcDbSymbolTableRecord
100
AcDbBlockTableRecord
  2
Block_15
340
0
102
{BLKREFS
331
D4
102
}
 70
     0
280
     1
281
     0
  0
BLOCK_RECORD
  5
F7
330
1
100
AcDbSymbolTableRecord
100
AcDbBlockTableRecord
  2
Block_16
340
0
102
{BLKREFS
331
F8
102
}
 70
     0
280
     1
281
     0
  0
ENDTAB
  0
ENDSEC
  0
SECTION
  2
BLOCKS
  0
BLOCK
  5
71
330
70
100
AcDbEntity
  8
0
100
AcDbBlockBegin
  2
*Model_Space
 70
     0
 10
0.0
 20
0.0
 30
0.0
  3
*Model_Space
  1

  0
ENDBLK
  5
72
330
70
100
AcDbEntity
  8
0
100
AcDbBlockEnd
  0
BLOCK
  5
6D
330
6C
100
AcDbEntity
 67
     1
  8
0
100
AcDbBlockBegin
  2
*Paper_Space
 70
     0
 10
0.0
 20
0.0
 30
0.0
  3
*Paper_Space
  1

  0
ENDBLK
  5
6E
330
6C
100
AcDbEntity
 67
     1
  8
0
100
AcDbBlockEnd
  0
BLOCK
  5
75
330
74
100
AcDbEntity
 67
     1
  8
0
100
AcDbBlockBegin
  2
*Paper_Space0
 70
     0
 10
0.0
 20
0.0
 30
0.0
  3
*Paper_Space0
  1

  0
ENDBLK
  5
76
330
74
100
AcDbEntity
 67
     1
  8
0
100
AcDbBlockEnd
  0
BLOCK
  5
7B
330
79
100
AcDbEntity
  8
0
100
AcDbBlockBegin
  2
Block_0
 70
     0
 10
0.0
 20
0.0
 30
0.0
  3
Block_0
  1

  0
INSERT
  5
7E
330
79
100
AcDbEntity
  8
レイヤー 1
100
AcDbBlockReference
  2
Block_1
 10
0.0
 20
0.0
 30
0.0
  0
INSERT
  5
98
330
79
100
AcDbEntity
  8
レイヤー 1
100
AcDbBlockReference
  2
Block_5
 10
0.0
 20
0.0
 30
0.0
  0
INSERT
  5
A5
330
79
100
AcDbEntity
  8
レイヤー 1
100
AcDbBlockReference
  2
Block_7
 10
0.0
 20
0.0
 30
0.0
  0
INSERT
  5
B2
330
79
100
AcDbEntity
  8
レイヤー 1
100
AcDbBlockReference
  2
Block_9
 10
0.0
 20
0.0
 30
0.0
  0
INSERT
  5
CC
330
79
100
AcDbEntity
  8
レイヤー 1
100
AcDbBlockReference
  2
Block_13
 10
0.0
 20
0.0
 30
0.0
  0
INSERT
  5
F8
330
79
100
AcDbEntity
  8
レイヤー 1
100
AcDbBlockReference
  2
Block_16
 10
0.0
 20
0.0
 30
0.0
  0
ENDBLK
  5
7C
330
79
100
AcDbEntity
  8
0
100
AcDbBlockEnd
  0
BLOCK
  5
7F
330
7D
100
AcDbEntity
  8
0
100
AcDbBlockBegin
  2
Block_1
 70
     0
 10
0.0
 20
0.0
 30
0.0
  3
Block_1
  1

  0
INSERT
  5
82
330
7D
100
AcDbEntity
  8
レイヤー 1
100
AcDbBlockReference
  2
Block_2
 10
0.0
 20
0.0
 30
0.0
  0
INSERT
  5
8B
330
7D
100
AcDbEntity
  8
レイヤー 1
100
AcDbBlockReference
  2
Block_3
 10
0.0
 20
0.0
 30
0.0
  0
ENDBLK
  5
80
330
7D
100
AcDbEntity
  8
0
100
AcDbBlockEnd
  0
BLOCK
  5
83
330
81
100
AcDbEntity
  8
0
100
AcDbBlockBegin
  2
Block_2
 70
     0
 10
0.0
 20
0.0
 30
0.0
  3
Block_2
  1

  0
SPLINE
  5
85
330
81
100
AcDbEntity
  8
レイヤー 1
 62
   250
420
  2299925
370
     9
100
AcDbSpline
210
0.0
220
0.0
230
1.0
 70
     9
 71
     3
 72
    17
 73
    13
 74
     0
 42
0.0000000001
 43
0.0000000001
 40
0.0
 40
0.0
 40
0.0
 40
0.0
 40
1.0
 40
1.0
 40
1.0
 40
2.0
 40
2.0
 40
2.0
 40
3.0
 40
3.0
 40
3.0
 40
4.0
 40
4.0
 40
4.0
 40
4.0
 10
105.6681033215563
 20
-166.8358009796078
 30
0.0
 10
105.6681033215563
 20
-166.7799915365871
 30
0.0
 10
105.6233005437895
 20
-166.7351887599523
 30
0.0
 10
105.5681966549146
 20
-166.7351887599523
 30
0.0
 10
105.5130574882615
 20
-166.7351887599523
 30
0.0
 10
105.468289988273
 20
-166.7799915365871
 30
0.0
 10
105.468289988273
 20
-166.8358009796078
 30
0.0
 10
105.468289988273
 20
-166.8909048670908
 30
0.0
 10
105.5130574882615
 20
-166.9357076437256
 30
0.0
 10
105.5681966549146
 20
-166.9357076437256
 30
0.0
 10
105.6233005437895
 20
-166.9357076437256
 30
0.0
 10
105.6681033215563
 20
-166.8909048670908
 30
0.0
 10
105.6681033215563
 20
-166.8358009796078
 30
0.0
  0
SPLINE
  5
86
330
81
100
AcDbEntity
  8
レイヤー 1
 62
   250
420
  2299925
370
     9
100
AcDbSpline
210
0.0
220
0.0
230
1.0
 70
     9
 71
     3
 72
    17
 73
    13
 74
     0
 42
0.0000000001
 43
0.0000000001
 40
0.0
 40
0.0
 40
0.0
 40
0.0
 40
1.0
 40
1.0
 40
1.0
 40
2.0
 40
2.0
 40
2.0
 40
3.0
 40
3.0
 40
3.0
 40
4.0
 40
4.0
 40
4.0
 40
4.0
 10
125.694513638844
 20
-166.8358009796078
 30
0.0
 10
125.694513638844
 20
-166.7799915365871
 30
0.0
 10
125.6497108622093
 20
-166.7351887599523
 30
0.0
 10
125.5946069747262
 20
-166.7351887599523
 30
0.0
 10
125.5394678094662
 20
-166.7351887599523
 30
0.0
 10
125.4947014463258
 20
-166.7799915365871
 30
0.0
 10
125.4947014463258
 20
-166.8358009796078
 30
0.0
 10
125.4947014463258
 20
-166.8909048670908
 30
0.0
 10
125.5394678094662
 20
-166.9357076437256
 30
0.0
 10
125.5946069747262
 20
-166.9357076437256
 30
0.0
 10
125.6497108622093
 20
-166.9357076437256
 30
0.0
 10
125.694513638844
 20
-166.8909048670908
 30
0.0
 10
125.694513638844
 20
-166.8358009796078
 30
0.0
  0
LINE
  5
87
330
81
100
AcDbEntity
  8
レイヤー 1
 62
   250
420
  2299925
370
     9
100
AcDbLine
 10
105.5946075681007
 20
-166.8358009796078
 30
0.0
 11
125.5946075631001
 21
-166.8358009796078
 31
0.0
  0
LINE
  5
88
330
81
100
AcDbEntity
  8
レイヤー 1
 62
   250
420
  2299925
370
     9
100
AcDbLine
 10
105.5681966549146
 20
-164.5758007594874
 30
0.0
 11
105.5681966549146
 21
-167.8355731763236
 31
0.0
  0
LINE
  5
89
330
81
100
AcDbEntity
  8
レイヤー 1
 62
   250
420
  2299925
370
     9
100
AcDbLine
 10
125.5946069747262
 20
-165.0753340800766
 30
0.0
 11
125.5946069747262
 21
-167.8355731763236
 31
0.0
  0
ENDBLK
  5
84
330
81
100
AcDbEntity
  8
0
100
AcDbBlockEnd
  0
BLOCK
  5
8C
330
8A
100
AcDbEntity
  8
0
100
AcDbBlockBegin
  2
Block_3
 70
     0
 10
0.0
 20
0.0
 30
0.0
  3
Block_3
  1

  0
INSERT
  5
8F
330
8A
100
AcDbEntity
  8
レイヤー 1
100
AcDbBlockReference
  2
Block_4
 10
0.0
 20
0.0
 30
0.0
  0
ENDBLK
  5
8D
330
8A
100
AcDbEntity
  8
0
100
AcDbBlockEnd
  0
BLOCK
  5
90
330
8E
100
AcDbEntity
  8
0
100
AcDbBlockBegin
  2
Block_4
 70
     0
 10
0.0
 20
0.0
 30
0.0
  3
Block_4
  1

  0
SPLINE
  5
92
330
8E
100
AcDbEntity
  8
レイヤー 1
100
AcDbSpline
210
0.0
220
0.0
230
1.0
 70
     9
 71
     3
 72
    44
 73
    40
 74
     0
 42
0.0000000001
 43
0.0000000001
 40
0.0
 40
0.0
 40
0.0
 40
0.0
 40
1.0
 40
1.0
 40
1.0
 40
2.0
 40
2.0
 40
2.0
 40
3.0
 40
3.0
 40
3.0
 40
4.0
 40
4.0
 40
4.0
 40
5.0
 40
5.0
 40
5.0
 40
6.0
 40
6.0
 40
6.0
 40
7.0
 40
7.0
 40
7.0
 40
8.0
 40
8.0
 40
8.0
 40
9.0
 40
9.0
 40
9.0
 40
10.0
 40
10.0
 40
10.0
 40
11.0
 40
11.0
 40
11.0
 40
12.0
 40
12.0
 40
12.0
 40
13.0
 40
13.0
 40
13.0
 40
13.0
 10
115.0858262516105
 20
-165.5406276712884
 30
0.0
 10
114.8680962169427
 20
-165.6994465731584
 30
0.0
 10
114.7750786388409
 20
-165.7735161260913
 30
0.0
 10
114.7261582829504
 20
-165.9171766078262
 30
0.0
 10
114.7261582829504
 20
-165.9171766078262
 30
0.0
 10
115.5047498626168
 20
-165.9171766078262
 30
0.0
 10
115.5047498626168
 20
-165.9171766078262
 30
0.0
 10
115.5047498626168
 20
-165.9171766078262
 30
0.0
 10
115.5047498626168
 20
-166.1225042987471
 30
0.0
 10
115.5047498626168
 20
-166.1225042987471
 30
0.0
 10
115.5047498626168
 20
-166.1225042987471
 30
0.0
 10
114.4767333698183
 20
-166.1225042987471
 30
0.0
 10
114.4767333698183
 20
-166.1225042987471
 30
0.0
 10
114.5084282482826
 20
-165.7649033873782
 30
0.0
 10
114.5738850625023
 20
-165.686699719863
 30
0.0
 10
114.9590467377533
 20
-165.3883544508404
 30
0.0
 10
115.2150173323073
 20
-165.1895724413415
 30
0.0
 10
115.2804741465271
 20
-165.1217040602821
 30
0.0
 10
115.2804741465271
 20
-164.9842447504206
 30
0.0
 10
115.2804741465271
 20
-164.865733465728
 30
0.0
 10
115.2084716508854
 20
-164.7348198372885
 30
0.0
 10
115.0117566986776
 20
-164.7348198372885
 30
0.0
 10
114.7516519895412
 20
-164.7348198372885
 30
0.0
 10
114.7433837603766
 20
-164.9652967252517
 30
0.0
 10
114.7389051362458
 20
-165.0817409526531
 30
0.0
 10
114.7389051362458
 20
-165.0817409526531
 30
0.0
 10
114.514629420156
 20
-165.0817409526531
 30
0.0
 10
114.514629420156
 20
-165.0817409526531
 30
0.0
 10
114.5232421588692
 20
-164.9546169292474
 30
0.0
 10
114.5339219548734
 20
-164.8426513259768
 30
0.0
 10
114.6141926796798
 20
-164.7241400412842
 30
0.0
 10
114.7240912256592
 20
-164.5632540821231
 30
0.0
 10
114.9104708914113
 20
-164.5294921463676
 30
0.0
 10
115.0265706092642
 20
-164.5294921463676
 30
0.0
 10
115.3039007958268
 20
-164.5294921463676
 30
0.0
 10
115.5112955440388
 20
-164.7134602452799
 30
0.0
 10
115.5112955440388
 20
-164.9863118077117
 30
0.0
 10
115.5112955440388
 20
-165.2150661479323
 30
0.0
 10
115.3948513166374
 20
-165.3142848979075
 30
0.0
 10
115.0858262516105
 20
-165.5406276712884
 30
0.0
  0
HATCH
  5
93
330
8E
100
AcDbEntity
  8
レイヤー 1
 62
   250
420
  2299925
440
 33554687
100
AcDbHatch
 10
0.0
 20
0.0
 30
0.0
210
0.0
220
0.0
230
1.0
  2
SOLID
 70
     1
 71
     1
 91
        1
 92
        1
 93
        1
 72
     4
 94
        3
 73
     0
 74
     0
 95
       44
 96
       40
 40
0.0
 40
0.0
 40
0.0
 40
0.0
 40
1.0
 40
1.0
 40
1.0
 40
2.0
 40
2.0
 40
2.0
 40
3.0
 40
3.0
 40
3.0
 40
4.0
 40
4.0
 40
4.0
 40
5.0
 40
5.0
 40
5.0
 40
6.0
 40
6.0
 40
6.0
 40
7.0
 40
7.0
 40
7.0
 40
8.0
 40
8.0
 40
8.0
 40
9.0
 40
9.0
 40
9.0
 40
10.0
 40
10.0
 40
10.0
 40
11.0
 40
11.0
 40
11.0
 40
12.0
 40
12.0
 40
12.0
 40
13.0
 40
13.0
 40
13.0
 40
13.0
 10
115.0858262516105
 20
-165.5406276712884
 10
114.8680962169427
 20
-165.6994465731584
 10
114.7750786388409
 20
-165.7735161260913
 10
114.7261582829504
 20
-165.9171766078262
 10
114.7261582829504
 20
-165.9171766078262
 10
115.5047498626168
 20
-165.9171766078262
 10
115.5047498626168
 20
-165.9171766078262
 10
115.5047498626168
 20
-165.9171766078262
 10
115.5047498626168
 20
-166.1225042987471
 10
115.5047498626168
 20
-166.1225042987471
 10
115.5047498626168
 20
-166.1225042987471
 10
114.4767333698183
 20
-166.1225042987471
 10
114.4767333698183
 20
-166.1225042987471
 10
114.5084282482826
 20
-165.7649033873782
 10
114.5738850625023
 20
-165.686699719863
 10
114.9590467377533
 20
-165.3883544508404
 10
115.2150173323073
 20
-165.1895724413415
 10
115.2804741465271
 20
-165.1217040602821
 10
115.2804741465271
 20
-164.9842447504206
 10
115.2804741465271
 20
-164.865733465728
 10
115.2084716508854
 20
-164.7348198372885
 10
115.0117566986776
 20
-164.7348198372885
 10
114.7516519895412
 20
-164.7348198372885
 10
114.7433837603766
 20
-164.9652967252517
 10
114.7389051362458
 20
-165.0817409526531
 10
114.7389051362458
 20
-165.0817409526531
 10
114.514629420156
 20
-165.0817409526531
 10
114.514629420156
 20
-165.0817409526531
 10
114.5232421588692
 20
-164.9546169292474
 10
114.5339219548734
 20
-164.8426513259768
 10
114.6141926796798
 20
-164.7241400412842
 10
114.7240912256592
 20
-164.5632540821231
 10
114.9104708914113
 20
-164.5294921463676
 10
115.0265706092642
 20
-164.5294921463676
 10
115.3039007958268
 20
-164.5294921463676
 10
115.5112955440388
 20
-164.7134602452799
 10
115.5112955440388
 20
-164.9863118077117
 10
115.5112955440388
 20
-165.2150661479323
 10
115.3948513166374
 20
-165.3142848979075
 10
115.0858262516105
 20
-165.5406276712884
 97
        0
 97
        1
330
92
 75
     2
 76
     1
 98
        1
 10
0.0
 20
0.0
450
        0
451
        0
460
0.0
461
0.0
452
        0
462
0.0
453
        0
470

  0
SPLINE
  5
94
330
8E
100
AcDbEntity
  8
レイヤー 1
100
AcDbSpline
210
0.0
220
0.0
230
1.0
 70
     9
 71
     3
 72
    17
 73
    13
 74
     0
 42
0.0000000001
 43
0.0000000001
 40
0.0
 40
0.0
 40
0.0
 40
0.0
 40
1.0
 40
1.0
 40
1.0
 40
2.0
 40
2.0
 40
2.0
 40
3.0
 40
3.0
 40
3.0
 40
4.0
 40
4.0
 40
4.0
 40
4.0
 10
116.1696532912701
 20
-164.7220729839931
 30
0.0
 10
115.920228378138
 20
-164.7220729839931
 30
0.0
 10
115.8733750795386
 20
-165.0056043424291
 30
0.0
 10
115.8733750795386
 20
-165.3504584005027
 30
0.0
 10
115.8733750795386
 20
-165.6698187519853
 30
0.0
 10
115.9095485821337
 20
-165.9784993074637
 30
0.0
 10
116.1696532912701
 20
-165.9784993074637
 30
0.0
 10
116.4173556566595
 20
-165.9784993074637
 30
0.0
 10
116.4659315030016
 20
-165.6973795158673
 30
0.0
 10
116.4659315030016
 20
-165.3504584005027
 30
0.0
 10
116.4659315030016
 20
-165.0307535394714
 30
0.0
 10
116.4276909431153
 20
-164.7220729839931
 30
0.0
 10
116.1696532912701
 20
-164.7220729839931
 30
0.0
  0
SPLINE
  5
95
330
8E
100
AcDbEntity
  8
レイヤー 1
100
AcDbSpline
210
0.0
220
0.0
230
1.0
 70
     9
 71
     3
 72
    29
 73
    25
 74
     0
 42
0.0000000001
 43
0.0000000001
 40
0.0
 40
0.0
 40
0.0
 40
0.0
 40
1.0
 40
1.0
 40
1.0
 40
2.0
 40
2.0
 40
2.0
 40
3.0
 40
3.0
 40
3.0
 40
4.0
 40
4.0
 40
4.0
 40
5.0
 40
5.0
 40
5.0
 40
6.0
 40
6.0
 40
6.0
 40
7.0
 40
7.0
 40
7.0
 40
8.0
 40
8.0
 40
8.0
 40
8.0
 10
116.5675618198164
 20
-165.9447373717082
 30
0.0
 10
116.4593858215796
 20
-166.1541991772114
 30
0.0
 10
116.2860975186715
 20
-166.1731472023803
 30
0.0
 10
116.1696532912701
 20
-166.1731472023803
 30
0.0
 10
116.0087673321089
 20
-166.1731472023803
 30
0.0
 10
115.8671739076651
 20
-166.1266384133294
 30
0.0
 10
115.7720892722722
 20
-165.9447373717082
 30
0.0
 10
115.6683918981662
 20
-165.7500894767916
 30
0.0
 10
115.6494438729973
 20
-165.5130669074064
 30
0.0
 10
115.6494438729973
 20
-165.3504584005027
 30
0.0
 10
115.6494438729973
 20
-165.2064534092192
 30
0.0
 10
115.6663248408751
 20
-164.9546169292474
 30
0.0
 10
115.7720892722722
 20
-164.7558349197485
 30
0.0
 10
115.8799207609606
 20
-164.5529187956673
 30
0.0
 10
116.0408067201217
 20
-164.5294921463676
 30
0.0
 10
116.1696532912701
 20
-164.5294921463676
 30
0.0
 10
116.3284721931401
 20
-164.5294921463676
 30
0.0
 10
116.472132674875
 20
-164.5739338781273
 30
0.0
 10
116.5675618198164
 20
-164.7558349197485
 30
0.0
 10
116.6667805697916
 20
-164.948415757374
 30
0.0
 10
116.6902072190913
 20
-165.1768255880461
 30
0.0
 10
116.6902072190913
 20
-165.3504584005027
 30
0.0
 10
116.6902072190913
 20
-165.5216796461196
 30
0.0
 10
116.6688476270828
 20
-165.7521565340828
 30
0.0
 10
116.5675618198164
 20
-165.9447373717082
 30
0.0
  0
HATCH
  5
96
330
8E
100
AcDbEntity
  8
レイヤー 1
 62
   250
420
  2299925
440
 33554687
100
AcDbHatch
 10
0.0
 20
0.0
 30
0.0
210
0.0
220
0.0
230
1.0
  2
SOLID
 70
     1
 71
     1
 91
        2
 92
        1
 93
        1
 72
     4
 94
        3
 73
     0
 74
     0
 95
       17
 96
       13
 40
0.0
 40
0.0
 40
0.0
 40
0.0
 40
1.0
 40
1.0
 40
1.0
 40
2.0
 40
2.0
 40
2.0
 40
3.0
 40
3.0
 40
3.0
 40
4.0
 40
4.0
 40
4.0
 40
4.0
 10
116.1696532912701
 20
-164.7220729839931
 10
115.920228378138
 20
-164.7220729839931
 10
115.8733750795386
 20
-165.0056043424291
 10
115.8733750795386
 20
-165.3504584005027
 10
115.8733750795386
 20
-165.6698187519853
 10
115.9095485821337
 20
-165.9784993074637
 10
116.1696532912701
 20
-165.9784993074637
 10
116.4173556566595
 20
-165.9784993074637
 10
116.4659315030016
 20
-165.6973795158673
 10
116.4659315030016
 20
-165.3504584005027
 10
116.4659315030016
 20
-165.0307535394714
 10
116.4276909431153
 20
-164.7220729839931
 10
116.1696532912701
 20
-164.7220729839931
 97
        0
 97
        1
330
94
 92
        1
 93
        1
 72
     4
 94
        3
 73
     0
 74
     0
 95
       29
 96
       25
 40
0.0
 40
0.0
 40
0.0
 40
0.0
 40
1.0
 40
1.0
 40
1.0
 40
2.0
 40
2.0
 40
2.0
 40
3.0
 40
3.0
 40
3.0
 40
4.0
 40
4.0
 40
4.0
 40
5.0
 40
5.0
 40
5.0
 40
6.0
 40
6.0
 40
6.0
 40
7.0
 40
7.0
 40
7.0
 40
8.0
 40
8.0
 40
8.0
 40
8.0
 10
116.5675618198164
 20
-165.9447373717082
 10
116.4593858215796
 20
-166.1541991772114
 10
116.2860975186715
 20
-166.1731472023803
 10
116.1696532912701
 20
-166.1731472023803
 10
116.0087673321089
 20
-166.1731472023803
 10
115.8671739076651
 20
-166.1266384133294
 10
115.7720892722722
 20
-165.9447373717082
 10
115.6683918981662
 20
-165.7500894767916
 10
115.6494438729973
 20
-165.5130669074064
 10
115.6494438729973
 20
-165.3504584005027
 10
115.6494438729973
 20
-165.2064534092192
 10
115.6663248408751
 20
-164.9546169292474
 10
115.7720892722722
 20
-164.7558349197485
 10
115.8799207609606
 20
-164.5529187956673
 10
116.0408067201217
 20
-164.5294921463676
 10
116.1696532912701
 20
-164.5294921463676
 10
116.3284721931401
 20
-164.5294921463676
 10
116.472132674875
 20
-164.5739338781273
 10
116.5675618198164
 20
-164.7558349197485
 10
116.6667805697916
 20
-164.948415757374
 10
116.6902072190913
 20
-165.1768255880461
 10
116.6902072190913
 20
-165.3504584005027
 10
116.6902072190913
 20
-165.5216796461196
 10
116.6688476270828
 20
-165.7521565340828
 10
116.5675618198164
 20
-165.9447373717082
 97
        0
 97
        1
330
95
 75
     2
 76
     1
 98
        1
 10
0.0
 20
0.0
450
        0
451
        0
460
0.0
461
0.0
452
        0
462
0.0
453
        0
470

  0
ENDBLK
  5
91
330
8E
100
AcDbEntity
  8
0
100
AcDbBlockEnd
  0
BLOCK
  5
99
330
97
100
AcDbEntity
  8
0
100
AcDbBlockBegin
  2
Block_5
 70
     0
 10
0.0
 20
0.0
 30
0.0
  3
Block_5
  1

  0
LINE
  5
9B
330
97
100
AcDbEntity
  8
レイヤー 1
 62
   250
420
  2299925
370
     9
100
AcDbLine
 10
89.00362071978966
 20
-151.5070106580256
 30
0.0
 11
103.1543104384737
 21
-165.6577354758664
 31
0.0
  0
INSERT
  5
9D
330
97
100
AcDbEntity
  8
レイヤー 1
100
AcDbBlockReference
  2
Block_6
 10
0.0
 20
0.0
 30
0.0
  0
ENDBLK
  5
9A
330
97
100
AcDbEntity
  8
0
100
AcDbBlockEnd
  0
BLOCK
  5
9E
330
9C
100
AcDbEntity
  8
0
100
AcDbBlockBegin
  2
Block_6
 70
     0
 10
0.0
 20
0.0
 30
0.0
  3
Block_6
  1

  0
SPLINE
  5
A0
330
9C
100
AcDbEntity
  8
レイヤー 1
 62
   250
420
  2299925
370
     9
100
AcDbSpline
210
0.0
220
0.0
230
1.0
 70
     9
 71
     3
 72
    17
 73
    13
 74
     0
 42
0.0000000001
 43
0.0000000001
 40
0.0
 40
0.0
 40
0.0
 40
0.0
 40
1.0
 40
1.0
 40
1.0
 40
2.0
 40
2.0
 40
2.0
 40
3.0
 40
3.0
 40
3.0
 40
4.0
 40
4.0
 40
4.0
 40
4.0
 10
89.10352738643096
 20
-151.5070106580256
 30
0.0
 10
89.10352738643162
 20
-151.4519067705425
 30
0.0
 10
89.05872460866488
 20
-151.4071039939077
 30
0.0
 10
89.00362071978934
 20
-151.4071039939077
 30
0.0
 10
88.94781127535891
 20
-151.4071039939077
 30
0.0
 10
88.90300849759219
 20
-151.4519067705425
 30
0.0
 10
88.90300849759249
 20
-151.5070106580256
 30
0.0
 10
88.90300849759249
 20
-151.5621498232855
 30
0.0
 10
88.94781127535891
 20
-151.6069525999203
 30
0.0
 10
89.00362071978934
 20
-151.6069525999203
 30
0.0
 10
89.05872460866488
 20
-151.6069525999203
 30
0.0
 10
89.1035273864313
 20
-151.5621498232855
 30
0.0
 10
89.10352738643096
 20
-151.5070106580256
 30
0.0
  0
CIRCLE
  5
A1
330
9C
100
AcDbEntity
  8
レイヤー 1
 62
   250
420
  2299925
370
     9
100
AcDbCircle
 10
103.1543106959659
 20
-165.6577357333584
 30
0.0
 40
0.0999066653796563
  0
LINE
  5
A2
330
9C
100
AcDbEntity
  8
レイヤー 1
 62
   250
420
  2299925
370
     9
100
AcDbLine
 10
90.03574266397599
 20
-150.4748887399128
 30
0.0
 11
88.2959837755224
 21
-152.213977306656
 31
0.0
  0
LINE
  5
A3
330
9C
100
AcDbEntity
  8
レイヤー 1
 62
   250
420
  2299925
370
     9
100
AcDbLine
 10
104.1864679179302
 20
-164.6255785374687
 30
0.0
 11
102.447379307254
 21
-166.3653726597495
 31
0.0
  0
ENDBLK
  5
9F
330
9C
100
AcDbEntity
  8
0
100
AcDbBlockEnd
  0
BLOCK
  5
A6
330
A4
100
AcDbEntity
  8
0
100
AcDbBlockBegin
  2
Block_7
 70
     0
 10
0.0
 20
0.0
 30
0.0
  3
Block_7
  1

  0
INSERT
  5
A9
330
A4
100
AcDbEntity
  8
レイヤー 1
100
AcDbBlockReference
  2
Block_8
 10
0.0
 20
0.0
 30
0.0
  0
ENDBLK
  5
A7
330
A4
100
AcDbEntity
  8
0
100
AcDbBlockEnd
  0
BLOCK
  5
AA
330
A8
100
AcDbEntity
  8
0
100
AcDbBlockBegin
  2
Block_8
 70
     0
 10
0.0
 20
0.0
 30
0.0
  3
Block_8
  1

  0
SPLINE
  5
AC
330
A8
100
AcDbEntity
  8
レイヤー 1
100
AcDbSpline
210
0.0
220
0.0
230
1.0
 70
     9
 71
     3
 72
    44
 73
    40
 74
     0
 42
0.0000000001
 43
0.0000000001
 40
0.0
 40
0.0
 40
0.0
 40
0.0
 40
1.0
 40
1.0
 40
1.0
 40
2.0
 40
2.0
 40
2.0
 40
3.0
 40
3.0
 40
3.0
 40
4.0
 40
4.0
 40
4.0
 40
5.0
 40
5.0
 40
5.0
 40
6.0
 40
6.0
 40
6.0
 40
7.0
 40
7.0
 40
7.0
 40
8.0
 40
8.0
 40
8.0
 40
9.0
 40
9.0
 40
9.0
 40
10.0
 40
10.0
 40
10.0
 40
11.0
 40
11.0
 40
11.0
 40
12.0
 40
12.0
 40
12.0
 40
13.0
 40
13.0
 40
13.0
 40
13.0
 10
96.58239065510787
 20
-157.4046901733224
 30
0.0
 10
96.31625702887234
 20
-157.3626600084024
 30
0.0
 10
96.19809025372825
 20
-157.3492241360099
 30
0.0
 10
96.06166447251236
 20
-157.4164034979722
 30
0.0
 10
96.06166447251236
 20
-157.4164034979722
 30
0.0
 10
96.61219073105529
 20
-157.9669297565152
 30
0.0
 10
96.61219073105529
 20
-157.9669297565152
 30
0.0
 10
96.61219073105529
 20
-157.9669297565152
 30
0.0
 10
96.466979956352
 20
-158.1119682764442
 30
0.0
 10
96.466979956352
 20
-158.1119682764442
 30
0.0
 10
96.466979956352
 20
-158.1119682764442
 30
0.0
 10
95.74006480896429
 20
-157.3850531290565
 30
0.0
 10
95.74006480896429
 20
-157.3850531290565
 30
0.0
 10
96.01567244778429
 20
-157.1549207506418
 30
0.0
 10
96.11713050982489
 20
-157.1456189928316
 30
0.0
 10
96.60030515163118
 20
-157.2069416924691
 30
0.0
 10
96.92207706995352
 20
-157.247593819195
 30
0.0
 10
97.01612817670083
 20
-157.2458712714524
 30
0.0
 10
97.11327986938488
 20
-157.1487195787684
 30
0.0
 10
97.19716794445071
 20
-157.0650037584768
 30
0.0
 10
97.23885359982224
 20
-156.9209987671933
 30
0.0
 10
97.10001625176666
 20
-156.7821614191378
 30
0.0
 10
96.91604815285433
 20
-156.5981933202254
 30
0.0
 10
96.74689396452855
 20
-156.7552896743528
 30
0.0
 10
96.66180010604289
 20
-156.8348713800621
 30
0.0
 10
96.66180010604289
 20
-156.8348713800621
 30
0.0
 10
96.50298120417287
 20
-156.6760524781921
 30
0.0
 10
96.50298120417287
 20
-156.6760524781921
 30
0.0
 10
96.59892711343708
 20
-156.5923366579005
 30
0.0
 10
96.68574351966539
 20
-156.5206786718073
 30
0.0
 10
96.82630341546357
 20
-156.4938069270223
 30
0.0
 10
97.01750621489495
 20
-156.4576334244272
 30
0.0
 10
97.1733967856025
 20
-156.5654649131156
 30
0.0
 10
97.25539005815143
 20
-156.6474581856645
 30
0.0
 10
97.45158824603642
 20
-156.8434841187752
 30
0.0
 10
97.46812470436561
 20
-157.1204697957893
 30
0.0
 10
97.27519935719163
 20
-157.3133951429633
 30
0.0
 10
97.11362437893342
 20
-157.4749701212215
 30
0.0
 10
96.96100664893684
 20
-157.4629122870231
 30
0.0
 10
96.58239065510787
 20
-157.4046901733224
 30
0.0
  0
HATCH
  5
AD
330
A8
100
AcDbEntity
  8
レイヤー 1
 62
   250
420
  2299925
440
 33554687
100
AcDbHatch
 10
0.0
 20
0.0
 30
0.0
210
0.0
220
0.0
230
1.0
  2
SOLID
 70
     1
 71
     1
 91
        1
 92
        1
 93
        1
 72
     4
 94
        3
 73
     0
 74
     0
 95
       44
 96
       40
 40
0.0
 40
0.0
 40
0.0
 40
0.0
 40
1.0
 40
1.0
 40
1.0
 40
2.0
 40
2.0
 40
2.0
 40
3.0
 40
3.0
 40
3.0
 40
4.0
 40
4.0
 40
4.0
 40
5.0
 40
5.0
 40
5.0
 40
6.0
 40
6.0
 40
6.0
 40
7.0
 40
7.0
 40
7.0
 40
8.0
 40
8.0
 40
8.0
 40
9.0
 40
9.0
 40
9.0
 40
10.0
 40
10.0
 40
10.0
 40
11.0
 40
11.0
 40
11.0
 40
12.0
 40
12.0
 40
12.0
 40
13.0
 40
13.0
 40
13.0
 40
13.0
 10
96.58239065510787
 20
-157.4046901733224
 10
96.31625702887234
 20
-157.3626600084024
 10
96.19809025372825
 20
-157.3492241360099
 10
96.06166447251236
 20
-157.4164034979722
 10
96.06166447251236
 20
-157.4164034979722
 10
96.61219073105529
 20
-157.9669297565152
 10
96.61219073105529
 20
-157.9669297565152
 10
96.61219073105529
 20
-157.9669297565152
 10
96.466979956352
 20
-158.1119682764442
 10
96.466979956352
 20
-158.1119682764442
 10
96.466979956352
 20
-158.1119682764442
 10
95.74006480896429
 20
-157.3850531290565
 10
95.74006480896429
 20
-157.3850531290565
 10
96.01567244778429
 20
-157.1549207506418
 10
96.11713050982489
 20
-157.1456189928316
 10
96.60030515163118
 20
-157.2069416924691
 10
96.92207706995352
 20
-157.247593819195
 10
97.01612817670083
 20
-157.2458712714524
 10
97.11327986938488
 20
-157.1487195787684
 10
97.19716794445071
 20
-157.0650037584768
 10
97.23885359982224
 20
-156.9209987671933
 10
97.10001625176666
 20
-156.7821614191378
 10
96.91604815285433
 20
-156.5981933202254
 10
96.74689396452855
 20
-156.7552896743528
 10
96.66180010604289
 20
-156.8348713800621
 10
96.66180010604289
 20
-156.8348713800621
 10
96.50298120417287
 20
-156.6760524781921
 10
96.50298120417287
 20
-156.6760524781921
 10
96.59892711343708
 20
-156.5923366579005
 10
96.68574351966539
 20
-156.5206786718073
 10
96.82630341546357
 20
-156.4938069270223
 10
97.01750621489495
 20
-156.4576334244272
 10
97.1733967856025
 20
-156.5654649131156
 10
97.25539005815143
 20
-156.6474581856645
 10
97.45158824603642
 20
-156.8434841187752
 10
97.46812470436561
 20
-157.1204697957893
 10
97.27519935719163
 20
-157.3133951429633
 10
97.11362437893342
 20
-157.4749701212215
 10
96.96100664893684
 20
-157.4629122870231
 10
96.58239065510787
 20
-157.4046901733224
 97
        0
 97
        1
330
AC
 75
     2
 76
     1
 98
        1
 10
0.0
 20
0.0
450
        0
451
        0
460
0.0
461
0.0
452
        0
462
0.0
453
        0
470

  0
SPLINE
  5
AE
330
A8
100
AcDbEntity
  8
レイヤー 1
100
AcDbSpline
210
0.0
220
0.0
230
1.0
 70
     9
 71
     3
 72
    17
 73
    13
 74
     0
 42
0.0000000001
 43
0.0000000001
 40
0.0
 40
0.0
 40
0.0
 40
0.0
 40
1.0
 40
1.0
 40
1.0
 40
2.0
 40
2.0
 40
2.0
 40
3.0
 40
3.0
 40
3.0
 40
4.0
 40
4.0
 40
4.0
 40
4.0
 10
97.92770044209795
 20
-157.5917588581715
 30
0.0
 10
97.75131155325315
 20
-157.4153699693267
 30
0.0
 10
97.51773407935321
 20
-157.5828016099098
 30
0.0
 10
97.27382131899751
 20
-157.8267143702655
 30
0.0
 10
97.04799530993939
 20
-158.0527126340979
 30
0.0
 10
96.8550699627654
 20
-158.2966253944536
 30
0.0
 10
97.03903806167774
 20
-158.480593493366
 30
0.0
 10
97.21439342187697
 20
-158.6559488535652
 30
0.0
 10
97.44745413145411
 20
-158.4909287798217
 30
0.0
 10
97.6927449300039
 20
-158.2456379812719
 30
0.0
 10
97.9187431938363
 20
-158.0196397174395
 30
0.0
 10
98.11029050281618
 20
-157.7743489188897
 30
0.0
 10
97.92770044209795
 20
-157.5917588581715
 30
0.0
  0
SPLINE
  5
AF
330
A8
100
AcDbEntity
  8
レイヤー 1
100
AcDbSpline
210
0.0
220
0.0
230
1.0
 70
     9
 71
     3
 72
    29
 73
    25
 74
     0
 42
0.0000000001
 43
0.0000000001
 40
0.0
 40
0.0
 40
0.0
 40
0.0
 40
1.0
 40
1.0
 40
1.0
 40
2.0
 40
2.0
 40
2.0
 40
3.0
 40
3.0
 40
3.0
 40
4.0
 40
4.0
 40
4.0
 40
5.0
 40
5.0
 40
5.0
 40
6.0
 40
6.0
 40
6.0
 40
7.0
 40
7.0
 40
7.0
 40
8.0
 40
8.0
 40
8.0
 40
8.0
 10
97.34444577644515
 20
-158.7379421261141
 30
0.0
 10
97.11982555080686
 20
-158.8096001122073
 30
0.0
 10
96.98374427913948
 20
-158.7003905853249
 30
0.0
 10
96.90140649704202
 20
-158.6180528032274
 30
0.0
 10
96.78771834602876
 20
-158.5043646522142
 30
0.0
 10
96.72036672929214
 20
-158.3713839664835
 30
0.0
 10
96.78186168370384
 20
-158.1753580333728
 30
0.0
 10
96.84611271450377
 20
-157.9645181896755
 30
0.0
 10
97.00010848269442
 20
-157.7833061671514
 30
0.0
 10
97.11534692667603
 20
-157.6682399779441
 30
0.0
 10
97.21714949826516
 20
-157.5666096611292
 30
0.0
 10
97.40714651427669
 20
-157.4005560587401
 30
0.0
 10
97.6224649821048
 20
-157.3347547349719
 30
0.0
 10
97.84260658361226
 20
-157.2675753730095
 30
0.0
 10
97.97283119295471
 20
-157.3647270656935
 30
0.0
 10
98.06378171376531
 20
-157.4556775865041
 30
0.0
 10
98.17609182658445
 20
-157.5679876993232
 30
0.0
 10
98.24637177448355
 20
-157.7009683850539
 30
0.0
 10
98.1850490748461
 20
-157.8973388277132
 30
0.0
 10
98.11924775107783
 20
-158.1037000472796
 30
0.0
 10
97.97420923114882
 20
-158.281811483867
 30
0.0
 10
97.85156383187391
 20
-158.4044568831419
 30
0.0
 10
97.73029647079312
 20
-158.5257242442227
 30
0.0
 10
97.55218503420572
 20
-158.6735188405399
 30
0.0
 10
97.34444577644515
 20
-158.7379421261141
 30
0.0
  0
HATCH
  5
B0
330
A8
100
AcDbEntity
  8
レイヤー 1
 62
   250
420
  2299925
440
 33554687
100
AcDbHatch
 10
0.0
 20
0.0
 30
0.0
210
0.0
220
0.0
230
1.0
  2
SOLID
 70
     1
 71
     1
 91
        2
 92
        1
 93
        1
 72
     4
 94
        3
 73
     0
 74
     0
 95
       17
 96
       13
 40
0.0
 40
0.0
 40
0.0
 40
0.0
 40
1.0
 40
1.0
 40
1.0
 40
2.0
 40
2.0
 40
2.0
 40
3.0
 40
3.0
 40
3.0
 40
4.0
 40
4.0
 40
4.0
 40
4.0
 10
97.92770044209795
 20
-157.5917588581715
 10
97.75131155325315
 20
-157.4153699693267
 10
97.51773407935321
 20
-157.5828016099098
 10
97.27382131899751
 20
-157.8267143702655
 10
97.04799530993939
 20
-158.0527126340979
 10
96.8550699627654
 20
-158.2966253944536
 10
97.03903806167774
 20
-158.480593493366
 10
97.21439342187697
 20
-158.6559488535652
 10
97.44745413145411
 20
-158.4909287798217
 10
97.6927449300039
 20
-158.2456379812719
 10
97.9187431938363
 20
-158.0196397174395
 10
98.11029050281618
 20
-157.7743489188897
 10
97.92770044209795
 20
-157.5917588581715
 97
        0
 97
        1
330
AE
 92
        1
 93
        1
 72
     4
 94
        3
 73
     0
 74
     0
 95
       29
 96
       25
 40
0.0
 40
0.0
 40
0.0
 40
0.0
 40
1.0
 40
1.0
 40
1.0
 40
2.0
 40
2.0
 40
2.0
 40
3.0
 40
3.0
 40
3.0
 40
4.0
 40
4.0
 40
4.0
 40
5.0
 40
5.0
 40
5.0
 40
6.0
 40
6.0
 40
6.0
 40
7.0
 40
7.0
 40
7.0
 40
8.0
 40
8.0
 40
8.0
 40
8.0
 10
97.34444577644515
 20
-158.7379421261141
 10
97.11982555080686
 20
-158.8096001122073
 10
96.98374427913948
 20
-158.7003905853249
 10
96.90140649704202
 20
-158.6180528032274
 10
96.78771834602876
 20
-158.5043646522142
 10
96.72036672929214
 20
-158.3713839664835
 10
96.78186168370384
 20
-158.1753580333728
 10
96.84611271450377
 20
-157.9645181896755
 10
97.00010848269442
 20
-157.7833061671514
 10
97.11534692667603
 20
-157.6682399779441
 10
97.21714949826516
 20
-157.5666096611292
 10
97.40714651427669
 20
-157.4005560587401
 10
97.6224649821048
 20
-157.3347547349719
 10
97.84260658361226
 20
-157.2675753730095
 10
97.97283119295471
 20
-157.3647270656935
 10
98.06378171376531
 20
-157.4556775865041
 10
98.17609182658445
 20
-157.5679876993232
 10
98.24637177448355
 20
-157.7009683850539
 10
98.1850490748461
 20
-157.8973388277132
 10
98.11924775107783
 20
-158.1037000472796
 10
97.97420923114882
 20
-158.281811483867
 10
97.85156383187391
 20
-158.4044568831419
 10
97.73029647079312
 20
-158.5257242442227
 10
97.55218503420572
 20
-158.6735188405399
 10
97.34444577644515
 20
-158.7379421261141
 97
        0
 97
        1
330
AF
 75
     2
 76
     1
 98
        1
 10
0.0
 20
0.0
450
        0
451
        0
460
0.0
461
0.0
452
        0
462
0.0
453
        0
470

  0
ENDBLK
  5
AB
330
A8
100
AcDbEntity
  8
0
100
AcDbBlockEnd
  0
BLOCK
  5
B3
330
B1
100
AcDbEntity
  8
0
100
AcDbBlockBegin
  2
Block_9
 70
     0
 10
0.0
 20
0.0
 30
0.0
  3
Block_9
  1

  0
INSERT
  5
B6
330
B1
100
AcDbEntity
  8
レイヤー 1
100
AcDbBlockReference
  2
Block_10
 10
0.0
 20
0.0
 30
0.0
  0
INSERT
  5
BF
330
B1
100
AcDbEntity
  8
レイヤー 1
100
AcDbBlockReference
  2
Block_11
 10
0.0
 20
0.0
 30
0.0
  0
ENDBLK
  5
B4
330
B1
100
AcDbEntity
  8
0
100
AcDbBlockEnd
  0
BLOCK
  5
B7
330
B5
100
AcDbEntity
  8
0
100
AcDbBlockBegin
  2
Block_10
 70
     0
 10
0.0
 20
0.0
 30
0.0
  3
Block_10
  1

  0
SPLINE
  5
B9
330
B5
100
AcDbEntity
  8
レイヤー 1
 62
   250
420
  2299925
370
     9
100
AcDbSpline
210
0.0
220
0.0
230
1.0
 70
     9
 71
     3
 72
    17
 73
    13
 74
     0
 42
0.0000000001
 43
0.0000000001
 40
0.0
 40
0.0
 40
0.0
 40
0.0
 40
1.0
 40
1.0
 40
1.0
 40
2.0
 40
2.0
 40
2.0
 40
3.0
 40
3.0
 40
3.0
 40
4.0
 40
4.0
 40
4.0
 40
4.0
 10
87.25036782452777
 20
-129.0963489730181
 30
0.0
 10
87.25036782452777
 20
-129.0408923077663
 30
0.0
 10
87.20556504676137
 20
-128.9960895311315
 30
0.0
 10
87.15046115788615
 20
-128.9960895311315
 30
0.0
 10
87.09532199123337
 20
-128.9960895311315
 30
0.0
 10
87.05055449124449
 20
-129.0408923077663
 30
0.0
 10
87.05055449124449
 20
-129.0963489730181
 30
0.0
 10
87.05055449124449
 20
-129.1514463364084
 30
0.0
 10
87.09532199123337
 20
-129.1962491141748
 30
0.0
 10
87.15046115788615
 20
-129.1962491141748
 30
0.0
 10
87.20556504676137
 20
-129.1962491141748
 30
0.0
 10
87.25036782452777
 20
-129.1514463364084
 30
0.0
 10
87.25036782452777
 20
-129.0963489730181
 30
0.0
  0
CIRCLE
  5
BA
330
B5
100
AcDbEntity
  8
レイヤー 1
 62
   250
420
  2299925
370
     9
100
AcDbCircle
 10
87.15046115788615
 20
-149.0961695671046
 30
0.0
 40
0.0999066653797365
  0
LINE
  5
BB
330
B5
100
AcDbEntity
  8
レイヤー 1
 62
   250
420
  2299925
370
    13
100
AcDbLine
 10
87.15046115788615
 20
-149.0961693214032
 30
0.0
 11
87.15046115788615
 21
-129.0961693264029
 31
0.0
  0
LINE
  5
BC
330
B5
100
AcDbEntity
  8
レイヤー 1
 62
   250
420
  2299925
370
     9
100
AcDbLine
 10
89.41042615732127
 20
-149.0961695671046
 30
0.0
 11
86.15068893591391
 21
-149.0961695671046
 31
0.0
  0
LINE
  5
BD
330
B5
100
AcDbEntity
  8
レイヤー 1
 62
   250
420
  2299925
370
     9
100
AcDbLine
 10
88.91089282411277
 20
-129.0963489730181
 30
0.0
 11
86.15068893591391
 21
-129.0963489730181
 31
0.0
  0
ENDBLK
  5
B8
330
B5
100
AcDbEntity
  8
0
100
AcDbBlockEnd
  0
BLOCK
  5
C0
330
BE
100
AcDbEntity
  8
0
100
AcDbBlockBegin
  2
Block_11
 70
     0
 10
0.0
 20
0.0
 30
0.0
  3
Block_11
  1

  0
INSERT
  5
C3
330
BE
100
AcDbEntity
  8
レイヤー 1
100
AcDbBlockReference
  2
Block_12
 10
0.0
 20
0.0
 30
0.0
  0
ENDBLK
  5
C1
330
BE
100
AcDbEntity
  8
0
100
AcDbBlockEnd
  0
BLOCK
  5
C4
330
C2
100
AcDbEntity
  8
0
100
AcDbBlockBegin
  2
Block_12
 70
     0
 10
0.0
 20
0.0
 30
0.0
  3
Block_12
  1

  0
SPLINE
  5
C6
330
C2
100
AcDbEntity
  8
レイヤー 1
100
AcDbSpline
210
0.0
220
0.0
230
1.0
 70
     9
 71
     3
 72
    44
 73
    40
 74
     0
 42
0.0000000001
 43
0.0000000001
 40
0.0
 40
0.0
 40
0.0
 40
0.0
 40
1.0
 40
1.0
 40
1.0
 40
2.0
 40
2.0
 40
2.0
 40
3.0
 40
3.0
 40
3.0
 40
4.0
 40
4.0
 40
4.0
 40
5.0
 40
5.0
 40
5.0
 40
6.0
 40
6.0
 40
6.0
 40
7.0
 40
7.0
 40
7.0
 40
8.0
 40
8.0
 40
8.0
 40
9.0
 40
9.0
 40
9.0
 40
10.0
 40
10.0
 40
10.0
 40
11.0
 40
11.0
 40
11.0
 40
12.0
 40
12.0
 40
12.0
 40
13.0
 40
13.0
 40
13.0
 40
13.0
 10
85.85556909745973
 20
-139.5919962216124
 30
0.0
 10
86.01421574455548
 20
-139.8097262562802
 30
0.0
 10
86.08828529748835
 20
-139.9027438343819
 30
0.0
 10
86.23211803399753
 20
-139.9516641902725
 30
0.0
 10
86.23211803399753
 20
-139.9516641902725
 30
0.0
 10
86.23211803399753
 20
-139.173072610606
 30
0.0
 10
86.23211803399753
 20
-139.173072610606
 30
0.0
 10
86.23211803399753
 20
-139.173072610606
 30
0.0
 10
86.43727347014417
 20
-139.173072610606
 30
0.0
 10
86.43727347014417
 20
-139.173072610606
 30
0.0
 10
86.43727347014417
 20
-139.173072610606
 30
0.0
 10
86.43727347014417
 20
-140.2010891034046
 30
0.0
 10
86.43727347014417
 20
-140.2010891034046
 30
0.0
 10
86.07967255877523
 20
-140.1693942249403
 30
0.0
 10
86.00146889126007
 20
-140.1039374107205
 30
0.0
 10
85.70312362223742
 20
-139.7187757354696
 30
0.0
 10
85.5043416127385
 20
-139.4628051409155
 30
0.0
 10
85.43664548645335
 20
-139.3973483266958
 30
0.0
 10
85.29918617659188
 20
-139.3973483266958
 30
0.0
 10
85.18067489189929
 20
-139.3973483266958
 30
0.0
 10
85.04941675391126
 20
-139.4693508223375
 30
0.0
 10
85.04941675391126
 20
-139.6660657745453
 30
0.0
 10
85.04941675391126
 20
-139.9261704836816
 30
0.0
 10
85.28006589664874
 20
-139.9347832223947
 30
0.0
 10
85.39651012405018
 20
-139.9389173369771
 30
0.0
 10
85.39651012405018
 20
-139.9389173369771
 30
0.0
 10
85.39651012405018
 20
-140.1631930530668
 30
0.0
 10
85.39651012405018
 20
-140.1631930530668
 30
0.0
 10
85.26955835541873
 20
-140.1545803143537
 30
0.0
 10
85.15742049737385
 20
-140.1439005183494
 30
0.0
 10
85.03890921268125
 20
-140.0636297935431
 30
0.0
 10
84.87819550829433
 20
-139.9537312475636
 30
0.0
 10
84.84426131776464
 20
-139.7673515818116
 30
0.0
 10
84.84426131776464
 20
-139.6512518639587
 30
0.0
 10
84.84426131776464
 20
-139.3739216773961
 30
0.0
 10
85.02840167145123
 20
-139.166526929184
 30
0.0
 10
85.30125323388302
 20
-139.166526929184
 30
0.0
 10
85.52966306455509
 20
-139.166526929184
 30
0.0
 10
85.62922632407881
 20
-139.2829711565855
 30
0.0
 10
85.85556909745973
 20
-139.5919962216124
 30
0.0
  0
HATCH
  5
C7
330
C2
100
AcDbEntity
  8
レイヤー 1
 62
   250
420
  2299925
440
 33554687
100
AcDbHatch
 10
0.0
 20
0.0
 30
0.0
210
0.0
220
0.0
230
1.0
  2
SOLID
 70
     1
 71
     1
 91
        1
 92
        1
 93
        1
 72
     4
 94
        3
 73
     0
 74
     0
 95
       44
 96
       40
 40
0.0
 40
0.0
 40
0.0
 40
0.0
 40
1.0
 40
1.0
 40
1.0
 40
2.0
 40
2.0
 40
2.0
 40
3.0
 40
3.0
 40
3.0
 40
4.0
 40
4.0
 40
4.0
 40
5.0
 40
5.0
 40
5.0
 40
6.0
 40
6.0
 40
6.0
 40
7.0
 40
7.0
 40
7.0
 40
8.0
 40
8.0
 40
8.0
 40
9.0
 40
9.0
 40
9.0
 40
10.0
 40
10.0
 40
10.0
 40
11.0
 40
11.0
 40
11.0
 40
12.0
 40
12.0
 40
12.0
 40
13.0
 40
13.0
 40
13.0
 40
13.0
 10
85.85556909745973
 20
-139.5919962216124
 10
86.01421574455548
 20
-139.8097262562802
 10
86.08828529748835
 20
-139.9027438343819
 10
86.23211803399753
 20
-139.9516641902725
 10
86.23211803399753
 20
-139.9516641902725
 10
86.23211803399753
 20
-139.173072610606
 10
86.23211803399753
 20
-139.173072610606
 10
86.23211803399753
 20
-139.173072610606
 10
86.43727347014417
 20
-139.173072610606
 10
86.43727347014417
 20
-139.173072610606
 10
86.43727347014417
 20
-139.173072610606
 10
86.43727347014417
 20
-140.2010891034046
 10
86.43727347014417
 20
-140.2010891034046
 10
86.07967255877523
 20
-140.1693942249403
 10
86.00146889126007
 20
-140.1039374107205
 10
85.70312362223742
 20
-139.7187757354696
 10
85.5043416127385
 20
-139.4628051409155
 10
85.43664548645335
 20
-139.3973483266958
 10
85.29918617659188
 20
-139.3973483266958
 10
85.18067489189929
 20
-139.3973483266958
 10
85.04941675391126
 20
-139.4693508223375
 10
85.04941675391126
 20
-139.6660657745453
 10
85.04941675391126
 20
-139.9261704836816
 10
85.28006589664874
 20
-139.9347832223947
 10
85.39651012405018
 20
-139.9389173369771
 10
85.39651012405018
 20
-139.9389173369771
 10
85.39651012405018
 20
-140.1631930530668
 10
85.39651012405018
 20
-140.1631930530668
 10
85.26955835541873
 20
-140.1545803143537
 10
85.15742049737385
 20
-140.1439005183494
 10
85.03890921268125
 20
-140.0636297935431
 10
84.87819550829433
 20
-139.9537312475636
 10
84.84426131776464
 20
-139.7673515818116
 10
84.84426131776464
 20
-139.6512518639587
 10
84.84426131776464
 20
-139.3739216773961
 10
85.02840167145123
 20
-139.166526929184
 10
85.30125323388302
 20
-139.166526929184
 10
85.52966306455509
 20
-139.166526929184
 10
85.62922632407881
 20
-139.2829711565855
 10
85.85556909745973
 20
-139.5919962216124
 97
        0
 97
        1
330
C6
 75
     2
 76
     1
 98
        1
 10
0.0
 20
0.0
450
        0
451
        0
460
0.0
461
0.0
452
        0
462
0.0
453
        0
470

  0
SPLINE
  5
C8
330
C2
100
AcDbEntity
  8
レイヤー 1
100
AcDbSpline
210
0.0
220
0.0
230
1.0
 70
     9
 71
     3
 72
    17
 73
    13
 74
     0
 42
0.0000000001
 43
0.0000000001
 40
0.0
 40
0.0
 40
0.0
 40
0.0
 40
1.0
 40
1.0
 40
1.0
 40
2.0
 40
2.0
 40
2.0
 40
3.0
 40
3.0
 40
3.0
 40
4.0
 40
4.0
 40
4.0
 40
4.0
 10
85.0368421553901
 20
-138.5081691819528
 30
0.0
 10
85.0368421553901
 20
-138.7577663498591
 30
0.0
 10
85.32020125905189
 20
-138.8044473936843
 30
0.0
 10
85.66505531712541
 20
-138.8044473936843
 30
0.0
 10
85.98458792338233
 20
-138.8044473936843
 30
0.0
 10
86.29344073363498
 20
-138.7682738910892
 30
0.0
 10
86.29344073363498
 20
-138.5081691819528
 30
0.0
 10
86.29344073363498
 20
-138.2606390713376
 30
0.0
 10
86.01197643249006
 20
-138.2118909702213
 30
0.0
 10
85.66505531712541
 20
-138.2118909702213
 30
0.0
 10
85.34569496564275
 20
-138.2118909702213
 30
0.0
 10
85.0368421553901
 20
-138.2501315301076
 30
0.0
 10
85.0368421553901
 20
-138.5081691819528
 30
0.0
  0
SPLINE
  5
C9
330
C2
100
AcDbEntity
  8
レイヤー 1
100
AcDbSpline
210
0.0
220
0.0
230
1.0
 70
     9
 71
     3
 72
    29
 73
    25
 74
     0
 42
0.0000000001
 43
0.0000000001
 40
0.0
 40
0.0
 40
0.0
 40
0.0
 40
1.0
 40
1.0
 40
1.0
 40
2.0
 40
2.0
 40
2.0
 40
3.0
 40
3.0
 40
3.0
 40
4.0
 40
4.0
 40
4.0
 40
5.0
 40
5.0
 40
5.0
 40
6.0
 40
6.0
 40
6.0
 40
7.0
 40
7.0
 40
7.0
 40
8.0
 40
8.0
 40
8.0
 40
8.0
 10
86.25950654310527
 20
-138.1104329081807
 30
0.0
 10
86.46896834860845
 20
-138.218264396869
 30
0.0
 10
86.4880886285516
 20
-138.3917249545514
 30
0.0
 10
86.4880886285516
 20
-138.5081691819528
 30
0.0
 10
86.4880886285516
 20
-138.6688828863397
 30
0.0
 10
86.44157983950071
 20
-138.8106485655577
 30
0.0
 10
86.25950654310527
 20
-138.9057332009506
 30
0.0
 10
86.06503090296291
 20
-139.0094305750567
 30
0.0
 10
85.82800833357772
 20
-139.028723109774
 30
0.0
 10
85.66505531712541
 20
-139.028723109774
 30
0.0
 10
85.52122258061622
 20
-139.028723109774
 30
0.0
 10
85.26955835541873
 20
-139.0114976323478
 30
0.0
 10
85.07060409114554
 20
-138.9057332009506
 30
0.0
 10
84.86751571229007
 20
-138.7979017122623
 30
0.0
 10
84.84426131776464
 20
-138.6371880078754
 30
0.0
 10
84.84426131776464
 20
-138.5081691819528
 30
0.0
 10
84.84426131776464
 20
-138.3495225348571
 30
0.0
 10
84.88870304952435
 20
-138.2056897983479
 30
0.0
 10
85.07060409114554
 20
-138.1104329081807
 30
0.0
 10
85.263184928771
 20
-138.0110419034312
 30
0.0
 10
85.49159475944307
 20
-137.9877875089058
 30
0.0
 10
85.66505531712541
 20
-137.9877875089058
 30
0.0
 10
85.83644881751657
 20
-137.9877875089058
 30
0.0
 10
86.06709796025405
 20
-138.0088025913658
 30
0.0
 10
86.25950654310527
 20
-138.1104329081807
 30
0.0
  0
HATCH
  5
CA
330
C2
100
AcDbEntity
  8
レイヤー 1
 62
   250
420
  2299925
440
 33554687
100
AcDbHatch
 10
0.0
 20
0.0
 30
0.0
210
0.0
220
0.0
230
1.0
  2
SOLID
 70
     1
 71
     1
 91
        2
 92
        1
 93
        1
 72
     4
 94
        3
 73
     0
 74
     0
 95
       17
 96
       13
 40
0.0
 40
0.0
 40
0.0
 40
0.0
 40
1.0
 40
1.0
 40
1.0
 40
2.0
 40
2.0
 40
2.0
 40
3.0
 40
3.0
 40
3.0
 40
4.0
 40
4.0
 40
4.0
 40
4.0
 10
85.0368421553901
 20
-138.5081691819528
 10
85.0368421553901
 20
-138.7577663498591
 10
85.32020125905189
 20
-138.8044473936843
 10
85.66505531712541
 20
-138.8044473936843
 10
85.98458792338233
 20
-138.8044473936843
 10
86.29344073363498
 20
-138.7682738910892
 10
86.29344073363498
 20
-138.5081691819528
 10
86.29344073363498
 20
-138.2606390713376
 10
86.01197643249006
 20
-138.2118909702213
 10
85.66505531712541
 20
-138.2118909702213
 10
85.34569496564275
 20
-138.2118909702213
 10
85.0368421553901
 20
-138.2501315301076
 10
85.0368421553901
 20
-138.5081691819528
 97
        0
 97
        1
330
C8
 92
        1
 93
        1
 72
     4
 94
        3
 73
     0
 74
     0
 95
       29
 96
       25
 40
0.0
 40
0.0
 40
0.0
 40
0.0
 40
1.0
 40
1.0
 40
1.0
 40
2.0
 40
2.0
 40
2.0
 40
3.0
 40
3.0
 40
3.0
 40
4.0
 40
4.0
 40
4.0
 40
5.0
 40
5.0
 40
5.0
 40
6.0
 40
6.0
 40
6.0
 40
7.0
 40
7.0
 40
7.0
 40
8.0
 40
8.0
 40
8.0
 40
8.0
 10
86.25950654310527
 20
-138.1104329081807
 10
86.46896834860845
 20
-138.218264396869
 10
86.4880886285516
 20
-138.3917249545514
 10
86.4880886285516
 20
-138.5081691819528
 10
86.4880886285516
 20
-138.6688828863397
 10
86.44157983950071
 20
-138.8106485655577
 10
86.25950654310527
 20
-138.9057332009506
 10
86.06503090296291
 20
-139.0094305750567
 10
85.82800833357772
 20
-139.028723109774
 10
85.66505531712541
 20
-139.028723109774
 10
85.52122258061622
 20
-139.028723109774
 10
85.26955835541873
 20
-139.0114976323478
 10
85.07060409114554
 20
-138.9057332009506
 10
84.86751571229007
 20
-138.7979017122623
 10
84.84426131776464
 20
-138.6371880078754
 10
84.84426131776464
 20
-138.5081691819528
 10
84.84426131776464
 20
-138.3495225348571
 10
84.88870304952435
 20
-138.2056897983479
 10
85.07060409114554
 20
-138.1104329081807
 10
85.263184928771
 20
-138.0110419034312
 10
85.49159475944307
 20
-137.9877875089058
 10
85.66505531712541
 20
-137.9877875089058
 10
85.83644881751657
 20
-137.9877875089058
 10
86.06709796025405
 20
-138.0088025913658
 10
86.25950654310527
 20
-138.1104329081807
 97
        0
 97
        1
330
C9
 75
     2
 76
     1
 98
        1
 10
0.0
 20
0.0
450
        0
451
        0
460
0.0
461
0.0
452
        0
462
0.0
453
        0
470

  0
ENDBLK
  5
C5
330
C2
100
AcDbEntity
  8
0
100
AcDbBlockEnd
  0
BLOCK
  5
CD
330
CB
100
AcDbEntity
  8
0
100
AcDbBlockBegin
  2
Block_13
 70
     0
 10
0.0
 20
0.0
 30
0.0
  3
Block_13
  1

  0
INSERT
  5
D0
330
CB
100
AcDbEntity
  8
レイヤー 1
100
AcDbBlockReference
  2
Block_14
 10
0.0
 20
0.0
 30
0.0
  0
LINE
  5
F1
330
CB
100
AcDbEntity
  8
レイヤー 1
 62
   250
420
  2299925
370
     9
100
AcDbLine
 10
106.1443857630585
 20
-161.69106291832
 30
0.0
 11
106.4027602009112
 21
-160.725051554076
 31
0.0
  0
LINE
  5
F2
330
CB
100
AcDbEntity
  8
レイヤー 1
 62
   250
420
  2299925
370
     9
100
AcDbLine
 10
106.1443857630585
 20
-161.6910626489167
 30
0.0
 11
106.1443857630585
 21
-149.6338882331651
 31
0.0
  0
LINE
  5
F3
330
CB
100
AcDbEntity
  8
レイヤー 1
 62
   250
420
  2299925
370
     9
100
AcDbLine
 10
106.1443857630585
 20
-161.69106291832
 30
0.0
 11
105.8853057696681
 21
-160.725051554076
 31
0.0
  0
LINE
  5
F4
330
CB
100
AcDbEntity
  8
レイヤー 1
 62
   250
420
  2299925
370
     9
100
AcDbLine
 10
93.18082475011609
 20
-148.4794467459516
 30
0.0
 11
94.14683611437153
 21
-148.7378211837617
 31
0.0
  0
LINE
  5
F5
330
CB
100
AcDbEntity
  8
レイヤー 1
 62
   250
420
  2299925
370
     9
100
AcDbLine
 10
93.1808432671581
 20
-148.4794449289205
 30
0.0
 11
104.033819446121
 21
-148.4794449286785
 31
0.0
  0
LINE
  5
F6
330
CB
100
AcDbEntity
  8
レイヤー 1
 62
   250
420
  2299925
370
     9
100
AcDbLine
 10
93.18082475011609
 20
-148.4794467459516
 30
0.0
 11
94.1468361143481
 21
-148.2203667525177
 31
0.0
  0
ENDBLK
  5
CE
330
CB
100
AcDbEntity
  8
0
100
AcDbBlockEnd
  0
BLOCK
  5
D1
330
CF
100
AcDbEntity
  8
0
100
AcDbBlockBegin
  2
Block_14
 70
     0
 10
0.0
 20
0.0
 30
0.0
  3
Block_14
  1

  0
INSERT
  5
D4
330
CF
100
AcDbEntity
  8
レイヤー 1
100
AcDbBlockReference
  2
Block_15
 10
0.0
 20
0.0
 30
0.0
  0
ENDBLK
  5
D2
330
CF
100
AcDbEntity
  8
0
100
AcDbBlockEnd
  0
BLOCK
  5
D5
330
D3
100
AcDbEntity
  8
0
100
AcDbBlockBegin
  2
Block_15
 70
     0
 10
0.0
 20
0.0
 30
0.0
  3
Block_15
  1

  0
SPLINE
  5
D7
330
D3
100
AcDbEntity
  8
レイヤー 1
100
AcDbSpline
210
0.0
220
0.0
230
1.0
 70
     9
 71
     3
 72
    41
 73
    37
 74
     0
 42
0.0000000001
 43
0.0000000001
 40
0.0
 40
0.0
 40
0.0
 40
0.0
 40
1.0
 40
1.0
 40
1.0
 40
2.0
 40
2.0
 40
2.0
 40
3.0
 40
3.0
 40
3.0
 40
4.0
 40
4.0
 40
4.0
 40
5.0
 40
5.0
 40
5.0
 40
6.0
 40
6.0
 40
6.0
 40
7.0
 40
7.0
 40
7.0
 40
8.0
 40
8.0
 40
8.0
 40
9.0
 40
9.0
 40
9.0
 40
10.0
 40
10.0
 40
10.0
 40
11.0
 40
11.0
 40
11.0
 40
12.0
 40
12.0
 40
12.0
 40
12.0
 10
106.4810112581019
 20
-149.2501491597361
 30
0.0
 10
106.2398545741345
 20
-149.1147569071658
 30
0.0
 10
106.0620876470956
 20
-148.8184786954342
 30
0.0
 10
106.0217800299182
 20
-148.6894598695116
 30
0.0
 10
105.9012016879344
 20
-148.9538709480046
 30
0.0
 10
105.7385931810306
 20
-149.1316378750435
 30
0.0
 10
105.5566921394094
 20
-149.2456705356052
 30
0.0
 10
105.5566921394094
 20
-149.2456705356052
 30
0.0
 10
105.3598049324274
 20
-149.1082112257438
 30
0.0
 10
105.3598049324274
 20
-149.1082112257438
 30
0.0
 10
105.429740370778
 20
-149.0830620287014
 30
0.0
 10
105.5756401645783
 20
-149.0213948195155
 30
0.0
 10
105.6982855638532
 20
-148.8672267965506
 30
0.0
 10
105.8229980204192
 20
-148.7106472067459
 30
0.0
 10
105.9118814839387
 20
-148.4779310067173
 30
0.0
 10
105.9118814839387
 20
-148.2178262975809
 30
0.0
 10
105.9118814839387
 20
-148.1161959807661
 30
0.0
 10
105.8991346306432
 20
-148.0443657398986
 30
0.0
 10
105.8887993441875
 20
-147.9976846960735
 30
0.0
 10
105.8887993441875
 20
-147.9976846960735
 30
0.0
 10
106.0937825255599
 20
-148.0188720333078
 30
0.0
 10
106.0937825255599
 20
-148.0188720333078
 30
0.0
 10
106.1151421175684
 20
-148.0209390905989
 30
0.0
 10
106.1361572000284
 20
-148.0231784026643
 30
0.0
 10
106.1361572000284
 20
-148.0443657398986
 30
0.0
 10
106.1361572000284
 20
-148.0633137650675
 30
0.0
 10
106.1254774040242
 20
-148.0717542490063
 30
0.0
 10
106.0917154682687
 20
-148.0929415862406
 30
0.0
 10
106.0834472391041
 20
-148.293962907805
 30
0.0
 10
106.1402913146107
 20
-148.5371866490636
 30
0.0
 10
106.2016140142482
 20
-148.6577649910473
 30
0.0
 10
106.2925645350588
 20
-148.8332926060208
 30
0.0
 10
106.4872124299754
 20
-149.0131265903509
 30
0.0
 10
106.6226046825457
 20
-149.070315175406
 30
0.0
 10
106.6226046825457
 20
-149.070315175406
 30
0.0
 10
106.4810112581019
 20
-149.2501491597361
 30
0.0
 10
106.4810112581019
 20
-149.2501491597361
 30
0.0
  0
SPLINE
  5
D8
330
D3
100
AcDbEntity
  8
レイヤー 1
100
AcDbSpline
210
0.0
220
0.0
230
1.0
 70
    11
 71
     3
 72
    17
 73
    13
 74
     0
 42
0.0000000001
 43
0.0000000001
 40
0.0
 40
0.0
 40
0.0
 40
0.0
 40
1.0
 40
1.0
 40
1.0
 40
2.0
 40
2.0
 40
2.0
 40
3.0
 40
3.0
 40
3.0
 40
4.0
 40
4.0
 40
4.0
 40
4.0
 10
105.3918443204402
 20
-148.2917235957395
 30
0.0
 10
105.3918443204402
 20
-148.2917235957395
 30
0.0
 10
105.230958361279
 20
-148.2917235957395
 30
0.0
 10
105.230958361279
 20
-148.2917235957395
 30
0.0
 10
105.230958361279
 20
-148.2917235957395
 30
0.0
 10
105.230958361279
 20
-148.4209146764364
 30
0.0
 10
105.230958361279
 20
-148.4209146764364
 30
0.0
 10
105.230958361279
 20
-148.4209146764364
 30
0.0
 10
105.3918443204402
 20
-148.4209146764364
 30
0.0
 10
105.3918443204402
 20
-148.4209146764364
 30
0.0
 10
105.3918443204402
 20
-148.4209146764364
 30
0.0
 10
105.3918443204402
 20
-148.2917235957395
 30
0.0
 10
105.3918443204402
 20
-148.2917235957395
 30
0.0
  0
SPLINE
  5
D9
330
D3
100
AcDbEntity
  8
レイヤー 1
100
AcDbSpline
210
0.0
220
0.0
230
1.0
 70
    11
 71
     3
 72
    17
 73
    13
 74
     0
 42
0.0000000001
 43
0.0000000001
 40
0.0
 40
0.0
 40
0.0
 40
0.0
 40
1.0
 40
1.0
 40
1.0
 40
2.0
 40
2.0
 40
2.0
 40
3.0
 40
3.0
 40
3.0
 40
4.0
 40
4.0
 40
4.0
 40
4.0
 10
105.3918443204402
 20
-148.0188720333078
 30
0.0
 10
105.3918443204402
 20
-148.0188720333078
 30
0.0
 10
105.230958361279
 20
-148.0188720333078
 30
0.0
 10
105.230958361279
 20
-148.0188720333078
 30
0.0
 10
105.230958361279
 20
-148.0188720333078
 30
0.0
 10
105.230958361279
 20
-148.1478908592304
 30
0.0
 10
105.230958361279
 20
-148.1478908592304
 30
0.0
 10
105.230958361279
 20
-148.1478908592304
 30
0.0
 10
105.3918443204402
 20
-148.1478908592304
 30
0.0
 10
105.3918443204402
 20
-148.1478908592304
 30
0.0
 10
105.3918443204402
 20
-148.1478908592304
 30
0.0
 10
105.3918443204402
 20
-148.0188720333078
 30
0.0
 10
105.3918443204402
 20
-148.0188720333078
 30
0.0
  0
SPLINE
  5
DA
330
D3
100
AcDbEntity
  8
レイヤー 1
100
AcDbSpline
210
0.0
220
0.0
230
1.0
 70
    11
 71
     3
 72
    17
 73
    13
 74
     0
 42
0.0000000001
 43
0.0000000001
 40
0.0
 40
0.0
 40
0.0
 40
0.0
 40
1.0
 40
1.0
 40
1.0
 40
2.0
 40
2.0
 40
2.0
 40
3.0
 40
3.0
 40
3.0
 40
4.0
 40
4.0
 40
4.0
 40
4.0
 10
105.0593926061136
 20
-148.2917235957395
 30
0.0
 10
105.0593926061136
 20
-148.2917235957395
 30
0.0
 10
104.9009182137921
 20
-148.2917235957395
 30
0.0
 10
104.9009182137921
 20
-148.2917235957395
 30
0.0
 10
104.9009182137921
 20
-148.2917235957395
 30
0.0
 10
104.9009182137921
 20
-148.4209146764364
 30
0.0
 10
104.9009182137921
 20
-148.4209146764364
 30
0.0
 10
104.9009182137921
 20
-148.4209146764364
 30
0.0
 10
105.0593926061136
 20
-148.4209146764364
 30
0.0
 10
105.0593926061136
 20
-148.4209146764364
 30
0.0
 10
105.0593926061136
 20
-148.4209146764364
 30
0.0
 10
105.0593926061136
 20
-148.2917235957395
 30
0.0
 10
105.0593926061136
 20
-148.2917235957395
 30
0.0
  0
SPLINE
  5
DB
330
D3
100
AcDbEntity
  8
レイヤー 1
100
AcDbSpline
210
0.0
220
0.0
230
1.0
 70
    11
 71
     3
 72
    17
 73
    13
 74
     0
 42
0.0000000001
 43
0.0000000001
 40
0.0
 40
0.0
 40
0.0
 40
0.0
 40
1.0
 40
1.0
 40
1.0
 40
2.0
 40
2.0
 40
2.0
 40
3.0
 40
3.0
 40
3.0
 40
4.0
 40
4.0
 40
4.0
 40
4.0
 10
105.0593926061136
 20
-148.0188720333078
 30
0.0
 10
105.0593926061136
 20
-148.0188720333078
 30
0.0
 10
104.9009182137921
 20
-148.0188720333078
 30
0.0
 10
104.9009182137921
 20
-148.0188720333078
 30
0.0
 10
104.9009182137921
 20
-148.0188720333078
 30
0.0
 10
104.9009182137921
 20
-148.1478908592304
 30
0.0
 10
104.9009182137921
 20
-148.1478908592304
 30
0.0
 10
104.9009182137921
 20
-148.1478908592304
 30
0.0
 10
105.0593926061136
 20
-148.1478908592304
 30
0.0
 10
105.0593926061136
 20
-148.1478908592304
 30
0.0
 10
105.0593926061136
 20
-148.1478908592304
 30
0.0
 10
105.0593926061136
 20
-148.0188720333078
 30
0.0
 10
105.0593926061136
 20
-148.0188720333078
 30
0.0
  0
SPLINE
  5
DC
330
D3
100
AcDbEntity
  8
レイヤー 1
100
AcDbSpline
210
0.0
220
0.0
230
1.0
 70
     9
 71
     3
 72
   197
 73
   193
 74
     0
 42
0.0000000001
 43
0.0000000001
 40
0.0
 40
0.0
 40
0.0
 40
0.0
 40
1.0
 40
1.0
 40
1.0
 40
2.0
 40
2.0
 40
2.0
 40
3.0
 40
3.0
 40
3.0
 40
4.0
 40
4.0
 40
4.0
 40
5.0
 40
5.0
 40
5.0
 40
6.0
 40
6.0
 40
6.0
 40
7.0
 40
7.0
 40
7.0
 40
8.0
 40
8.0
 40
8.0
 40
9.0
 40
9.0
 40
9.0
 40
10.0
 40
10.0
 40
10.0
 40
11.0
 40
11.0
 40
11.0
 40
12.0
 40
12.0
 40
12.0
 40
13.0
 40
13.0
 40
13.0
 40
14.0
 40
14.0
 40
14.0
 40
15.0
 40
15.0
 40
15.0
 40
16.0
 40
16.0
 40
16.0
 40
17.0
 40
17.0
 40
17.0
 40
18.0
 40
18.0
 40
18.0
 40
19.0
 40
19.0
 40
19.0
 40
20.0
 40
20.0
 40
20.0
 40
21.0
 40
21.0
 40
21.0
 40
22.0
 40
22.0
 40
22.0
 40
23.0
 40
23.0
 40
23.0
 40
24.0
 40
24.0
 40
24.0
 40
25.0
 40
25.0
 40
25.0
 40
26.0
 40
26.0
 40
26.0
 40
27.0
 40
27.0
 40
27.0
 40
28.0
 40
28.0
 40
28.0
 40
29.0
 40
29.0
 40
29.0
 40
30.0
 40
30.0
 40
30.0
 40
31.0
 40
31.0
 40
31.0
 40
32.0
 40
32.0
 40
32.0
 40
33.0
 40
33.0
 40
33.0
 40
34.0
 40
34.0
 40
34.0
 40
35.0
 40
35.0
 40
35.0
 40
36.0
 40
36.0
 40
36.0
 40
37.0
 40
37.0
 40
37.0
 40
38.0
 40
38.0
 40
38.0
 40
39.0
 40
39.0
 40
39.0
 40
40.0
 40
40.0
 40
40.0
 40
41.0
 40
41.0
 40
41.0
 40
42.0
 40
42.0
 40
42.0
 40
43.0
 40
43.0
 40
43.0
 40
44.0
 40
44.0
 40
44.0
 40
45.0
 40
45.0
 40
45.0
 40
46.0
 40
46.0
 40
46.0
 40
47.0
 40
47.0
 40
47.0
 40
48.0
 40
48.0
 40
48.0
 40
49.0
 40
49.0
 40
49.0
 40
50.0
 40
50.0
 40
50.0
 40
51.0
 40
51.0
 40
51.0
 40
52.0
 40
52.0
 40
52.0
 40
53.0
 40
53.0
 40
53.0
 40
54.0
 40
54.0
 40
54.0
 40
55.0
 40
55.0
 40
55.0
 40
56.0
 40
56.0
 40
56.0
 40
57.0
 40
57.0
 40
57.0
 40
58.0
 40
58.0
 40
58.0
 40
59.0
 40
59.0
 40
59.0
 40
60.0
 40
60.0
 40
60.0
 40
61.0
 40
61.0
 40
61.0
 40
62.0
 40
62.0
 40
62.0
 40
63.0
 40
63.0
 40
63.0
 40
64.0
 40
64.0
 40
64.0
 40
64.0
 10
106.5657606070391
 20
-147.8941595767417
 30
0.0
 10
106.5550808110348
 20
-147.9236151431406
 30
0.0
 10
106.5316541617351
 20
-147.9702961869657
 30
0.0
 10
106.5213188752794
 20
-147.9976846960735
 30
0.0
 10
106.5213188752794
 20
-147.9976846960735
 30
0.0
 10
106.4599961756419
 20
-148.1501301712958
 30
0.0
 10
106.4599961756419
 20
-148.1501301712958
 30
0.0
 10
106.4493163796377
 20
-148.1754516231124
 30
0.0
 10
106.4007405332956
 20
-148.2875894811573
 30
0.0
 10
106.3879936800002
 20
-148.3108438756827
 30
0.0
 10
106.385926622709
 20
-148.3172173023304
 30
0.0
 10
106.3814479985782
 20
-148.3256577862693
 30
0.0
 10
106.3793809412871
 20
-148.332031212917
 30
0.0
 10
106.3793809412871
 20
-148.332031212917
 30
0.0
 10
106.1699191357839
 20
-148.2791489972184
 30
0.0
 10
106.1699191357839
 20
-148.2791489972184
 30
0.0
 10
106.2484673128476
 20
-148.1690781964647
 30
0.0
 10
106.309790012485
 20
-148.0336859438943
 30
0.0
 10
106.3414848909493
 20
-147.9236151431406
 30
0.0
 10
106.3414848909493
 20
-147.9236151431406
 30
0.0
 10
105.8760524908921
 20
-147.9236151431406
 30
0.0
 10
105.8760524908921
 20
-147.9236151431406
 30
0.0
 10
105.7954372565372
 20
-148.0886352168841
 30
0.0
 10
105.7279133850263
 20
-148.1670111391735
 30
0.0
 10
105.6941514492709
 20
-148.2071465015767
 30
0.0
 10
105.6941514492709
 20
-148.2071465015767
 30
0.0
 10
105.571506049996
 20
-148.1415174325826
 30
0.0
 10
105.571506049996
 20
-148.1415174325826
 30
0.0
 10
105.571506049996
 20
-148.1415174325826
 30
0.0
 10
105.571506049996
 20
-148.3129109329738
 30
0.0
 10
105.571506049996
 20
-148.3129109329738
 30
0.0
 10
105.571506049996
 20
-148.4209146764364
 30
0.0
 10
105.5735731072871
 20
-148.4694905227784
 30
0.0
 10
105.5839083937429
 20
-148.5752549541756
 30
0.0
 10
105.5122504076497
 20
-148.5731878968845
 30
0.0
 10
105.4908908156411
 20
-148.5731878968845
 30
0.0
 10
105.286079889043
 20
-148.5731878968845
 30
0.0
 10
105.286079889043
 20
-148.5731878968845
 30
0.0
 10
105.230958361279
 20
-148.5731878968845
 30
0.0
 10
105.230958361279
 20
-148.5731878968845
 30
0.0
 10
105.230958361279
 20
-148.5731878968845
 30
0.0
 10
105.230958361279
 20
-148.7085801494548
 30
0.0
 10
105.230958361279
 20
-148.7085801494548
 30
0.0
 10
105.230958361279
 20
-148.7085801494548
 30
0.0
 10
105.3029608569208
 20
-148.7085801494548
 30
0.0
 10
105.3029608569208
 20
-148.7085801494548
 30
0.0
 10
105.3684176711405
 20
-148.7085801494548
 30
0.0
 10
105.5143174649408
 20
-148.7042737800982
 30
0.0
 10
105.620081896338
 20
-148.6958332961594
 30
0.0
 10
105.620081896338
 20
-148.6958332961594
 30
0.0
 10
105.620081896338
 20
-148.8736002231983
 30
0.0
 10
105.620081896338
 20
-148.8736002231983
 30
0.0
 10
105.5225856941054
 20
-148.8672267965506
 30
0.0
 10
105.3642835565582
 20
-148.862920427194
 30
0.0
 10
105.3029608569208
 20
-148.862920427194
 30
0.0
 10
105.3029608569208
 20
-148.862920427194
 30
0.0
 10
105.230958361279
 20
-148.862920427194
 30
0.0
 10
105.230958361279
 20
-148.862920427194
 30
0.0
 10
105.2330254185702
 20
-148.9518038907134
 30
0.0
 10
105.2371595331525
 20
-149.1908935173898
 30
0.0
 10
105.2392265904436
 20
-149.2649630703226
 30
0.0
 10
105.2392265904436
 20
-149.2649630703226
 30
0.0
 10
105.0383775236536
 20
-149.2649630703226
 30
0.0
 10
105.0383775236536
 20
-149.2649630703226
 30
0.0
 10
105.051124376949
 20
-149.0510226406886
 30
0.0
 10
105.051124376949
 20
-149.0213948195155
 30
0.0
 10
105.0552584915313
 20
-148.862920427194
 30
0.0
 10
105.0552584915313
 20
-148.862920427194
 30
0.0
 10
104.9856675627292
 20
-148.862920427194
 30
0.0
 10
104.9856675627292
 20
-148.862920427194
 30
0.0
 10
104.9284789776741
 20
-148.862920427194
 30
0.0
 10
104.7762057572261
 20
-148.8672267965506
 30
0.0
 10
104.6659627016981
 20
-148.8736002231983
 30
0.0
 10
104.6659627016981
 20
-148.8736002231983
 30
0.0
 10
104.6659627016981
 20
-148.6958332961594
 30
0.0
 10
104.6659627016981
 20
-148.6958332961594
 30
0.0
 10
104.7717271330952
 20
-148.7042737800982
 30
0.0
 10
104.9157321243787
 20
-148.7085801494548
 30
0.0
 10
104.9856675627292
 20
-148.7085801494548
 30
0.0
 10
104.9856675627292
 20
-148.7085801494548
 30
0.0
 10
105.0593926061136
 20
-148.7085801494548
 30
0.0
 10
105.0593926061136
 20
-148.7085801494548
 30
0.0
 10
105.0593926061136
 20
-148.7085801494548
 30
0.0
 10
105.0593926061136
 20
-148.5731878968845
 30
0.0
 10
105.0593926061136
 20
-148.5731878968845
 30
0.0
 10
105.0593926061136
 20
-148.5731878968845
 30
0.0
 10
105.0152953839024
 20
-148.5731878968845
 30
0.0
 10
105.0152953839024
 20
-148.5731878968845
 30
0.0
 10
104.9388142641299
 20
-148.5731878968845
 30
0.0
 10
104.7465779360529
 20
-148.5752549541756
 30
0.0
 10
104.7124714907489
 20
-148.5752549541756
 30
0.0
 10
104.7190171721709
 20
-148.5034247133082
 30
0.0
 10
104.7272854013355
 20
-148.4229817337276
 30
0.0
 10
104.7272854013355
 20
-148.3024033917438
 30
0.0
 10
104.7272854013355
 20
-148.3024033917438
 30
0.0
 10
104.7272854013355
 20
-148.1289428340615
 30
0.0
 10
104.7272854013355
 20
-148.1289428340615
 30
0.0
 10
104.7272854013355
 20
-148.0569403384198
 30
0.0
 10
104.7190171721709
 20
-147.936361996436
 30
0.0
 10
104.7124714907489
 20
-147.8560912716297
 30
0.0
 10
104.7910196678126
 20
-147.860225386212
 30
0.0
 10
104.8289157181504
 20
-147.8622924435032
 30
0.0
 10
104.9560397415561
 20
-147.8622924435032
 30
0.0
 10
104.9560397415561
 20
-147.8622924435032
 30
0.0
 10
105.0593926061136
 20
-147.8622924435032
 30
0.0
 10
105.0593926061136
 20
-147.8622924435032
 30
0.0
 10
105.0593926061136
 20
-147.8622924435032
 30
0.0
 10
105.0593926061136
 20
-147.7163926497028
 30
0.0
 10
105.0593926061136
 20
-147.7163926497028
 30
0.0
 10
105.0593926061136
 20
-147.7163926497028
 30
0.0
 10
104.9811889385984
 20
-147.7163926497028
 30
0.0
 10
104.9811889385984
 20
-147.7163926497028
 30
0.0
 10
104.926411920383
 20
-147.7163926497028
 30
0.0
 10
104.7548461652175
 20
-147.7206990190594
 30
0.0
 10
104.6704413258289
 20
-147.7269001909328
 30
0.0
 10
104.6704413258289
 20
-147.7269001909328
 30
0.0
 10
104.6704413258289
 20
-147.5493055186682
 30
0.0
 10
104.6704413258289
 20
-147.5493055186682
 30
0.0
 10
104.7527791079264
 20
-147.5556789453159
 30
0.0
 10
104.9157321243787
 20
-147.5598130598982
 30
0.0
 10
104.9811889385984
 20
-147.5598130598982
 30
0.0
 10
104.9811889385984
 20
-147.5598130598982
 30
0.0
 10
105.0593926061136
 20
-147.5598130598982
 30
0.0
 10
105.0593926061136
 20
-147.5598130598982
 30
0.0
 10
105.0593926061136
 20
-147.5260511241428
 30
0.0
 10
105.0552584915313
 20
-147.3715385916293
 30
0.0
 10
105.0552584915313
 20
-147.339843713165
 30
0.0
 10
105.0552584915313
 20
-147.339843713165
 30
0.0
 10
105.2519734437391
 20
-147.3567246810427
 30
0.0
 10
105.2519734437391
 20
-147.3567246810427
 30
0.0
 10
105.2688544116168
 20
-147.3587917383339
 30
0.0
 10
105.2902140036253
 20
-147.3610310503993
 30
0.0
 10
105.2902140036253
 20
-147.3820461328593
 30
0.0
 10
105.2902140036253
 20
-147.405472782159
 30
0.0
 10
105.2688544116168
 20
-147.4139132660979
 30
0.0
 10
105.2416381572833
 20
-147.426487864619
 30
0.0
 10
105.2416381572833
 20
-147.4476752018533
 30
0.0
 10
105.2392265904436
 20
-147.5429320920205
 30
0.0
 10
105.2392265904436
 20
-147.5598130598982
 30
0.0
 10
105.2392265904436
 20
-147.5598130598982
 30
0.0
 10
105.2984822327899
 20
-147.5598130598982
 30
0.0
 10
105.2984822327899
 20
-147.5598130598982
 30
0.0
 10
105.3663506138494
 20
-147.5598130598982
 30
0.0
 10
105.50983884081
 20
-147.5556789453159
 30
0.0
 10
105.6156032722072
 20
-147.5493055186682
 30
0.0
 10
105.6156032722072
 20
-147.5493055186682
 30
0.0
 10
105.6156032722072
 20
-147.7269001909328
 30
0.0
 10
105.6156032722072
 20
-147.7269001909328
 30
0.0
 10
105.5184515795231
 20
-147.7206990190594
 30
0.0
 10
105.3622164992671
 20
-147.7163926497028
 30
0.0
 10
105.2984822327899
 20
-147.7163926497028
 30
0.0
 10
105.2984822327899
 20
-147.7163926497028
 30
0.0
 10
105.230958361279
 20
-147.7163926497028
 30
0.0
 10
105.230958361279
 20
-147.7163926497028
 30
0.0
 10
105.230958361279
 20
-147.7163926497028
 30
0.0
 10
105.230958361279
 20
-147.8622924435032
 30
0.0
 10
105.230958361279
 20
-147.8622924435032
 30
0.0
 10
105.230958361279
 20
-147.8622924435032
 30
0.0
 10
105.3008937996296
 20
-147.8622924435032
 30
0.0
 10
105.3008937996296
 20
-147.8622924435032
 30
0.0
 10
105.4510999627865
 20
-147.8622924435032
 30
0.0
 10
105.5225856941054
 20
-147.8581583289209
 30
0.0
 10
105.5839083937429
 20
-147.8560912716297
 30
0.0
 10
105.5756401645783
 20
-147.9511759070226
 30
0.0
 10
105.5735731072871
 20
-148.029551829312
 30
0.0
 10
105.571506049996
 20
-148.067620134424
 30
0.0
 10
105.7258463277352
 20
-147.8560912716297
 30
0.0
 10
105.8316107591323
 20
-147.6085611610145
 30
0.0
 10
105.8484917270101
 20
-147.3462171398127
 30
0.0
 10
105.8484917270101
 20
-147.3462171398127
 30
0.0
 10
106.0641547043867
 20
-147.3968600434459
 30
0.0
 10
106.0641547043867
 20
-147.3968600434459
 30
0.0
 10
106.0789686149733
 20
-147.4011664128025
 30
0.0
 10
106.0937825255599
 20
-147.4075398394502
 30
0.0
 10
106.0937825255599
 20
-147.4244208073279
 30
0.0
 10
106.0937825255599
 20
-147.4413017752056
 30
0.0
 10
106.0896484109776
 20
-147.443541087271
 30
0.0
 10
106.0390055073444
 20
-147.4645561697311
 30
0.0
 10
106.0217800299182
 20
-147.5408650347293
 30
0.0
 10
105.9966308328758
 20
-147.6318155555399
 30
0.0
 10
105.9480549865338
 20
-147.7587673241714
 30
0.0
 10
105.9480549865338
 20
-147.7587673241714
 30
0.0
 10
106.2863633631853
 20
-147.7587673241714
 30
0.0
 10
106.2863633631853
 20
-147.7587673241714
 30
0.0
 10
106.3246039230716
 20
-147.7587673241714
 30
0.0
 10
106.4534504942199
 20
-147.7544609548148
 30
0.0
 10
106.502026340562
 20
-147.7480875281671
 30
0.0
 10
106.502026340562
 20
-147.7480875281671
 30
0.0
 10
106.5953884282123
 20
-147.8178507117434
 30
0.0
 10
106.5953884282123
 20
-147.8178507117434
 30
0.0
 10
106.5867756894991
 20
-147.8390380489777
 30
0.0
 10
106.5805745176257
 20
-147.8581583289209
 30
0.0
 10
106.5657606070391
 20
-147.8941595767417
 30
0.0
  0
HATCH
  5
DD
330
D3
100
AcDbEntity
  8
レイヤー 1
 62
   250
420
  2299925
440
 33554687
100
AcDbHatch
 10
0.0
 20
0.0
 30
0.0
210
0.0
220
0.0
230
1.0
  2
SOLID
 70
     1
 71
     1
 91
        6
 92
        1
 93
        1
 72
     4
 94
        3
 73
     0
 74
     0
 95
       41
 96
       37
 40
0.0
 40
0.0
 40
0.0
 40
0.0
 40
1.0
 40
1.0
 40
1.0
 40
2.0
 40
2.0
 40
2.0
 40
3.0
 40
3.0
 40
3.0
 40
4.0
 40
4.0
 40
4.0
 40
5.0
 40
5.0
 40
5.0
 40
6.0
 40
6.0
 40
6.0
 40
7.0
 40
7.0
 40
7.0
 40
8.0
 40
8.0
 40
8.0
 40
9.0
 40
9.0
 40
9.0
 40
10.0
 40
10.0
 40
10.0
 40
11.0
 40
11.0
 40
11.0
 40
12.0
 40
12.0
 40
12.0
 40
12.0
 10
106.4810112581019
 20
-149.2501491597361
 10
106.2398545741345
 20
-149.1147569071658
 10
106.0620876470956
 20
-148.8184786954342
 10
106.0217800299182
 20
-148.6894598695116
 10
105.9012016879344
 20
-148.9538709480046
 10
105.7385931810306
 20
-149.1316378750435
 10
105.5566921394094
 20
-149.2456705356052
 10
105.5566921394094
 20
-149.2456705356052
 10
105.3598049324274
 20
-149.1082112257438
 10
105.3598049324274
 20
-149.1082112257438
 10
105.429740370778
 20
-149.0830620287014
 10
105.5756401645783
 20
-149.0213948195155
 10
105.6982855638532
 20
-148.8672267965506
 10
105.8229980204192
 20
-148.7106472067459
 10
105.9118814839387
 20
-148.4779310067173
 10
105.9118814839387
 20
-148.2178262975809
 10
105.9118814839387
 20
-148.1161959807661
 10
105.8991346306432
 20
-148.0443657398986
 10
105.8887993441875
 20
-147.9976846960735
 10
105.8887993441875
 20
-147.9976846960735
 10
106.0937825255599
 20
-148.0188720333078
 10
106.0937825255599
 20
-148.0188720333078
 10
106.1151421175684
 20
-148.0209390905989
 10
106.1361572000284
 20
-148.0231784026643
 10
106.1361572000284
 20
-148.0443657398986
 10
106.1361572000284
 20
-148.0633137650675
 10
106.1254774040242
 20
-148.0717542490063
 10
106.0917154682687
 20
-148.0929415862406
 10
106.0834472391041
 20
-148.293962907805
 10
106.1402913146107
 20
-148.5371866490636
 10
106.2016140142482
 20
-148.6577649910473
 10
106.2925645350588
 20
-148.8332926060208
 10
106.4872124299754
 20
-149.0131265903509
 10
106.6226046825457
 20
-149.070315175406
 10
106.6226046825457
 20
-149.070315175406
 10
106.4810112581019
 20
-149.2501491597361
 10
106.4810112581019
 20
-149.2501491597361
 97
        0
 97
        1
330
D7
 92
        1
 93
        1
 72
     4
 94
        3
 73
     0
 74
     0
 95
       17
 96
       13
 40
0.0
 40
0.0
 40
0.0
 40
0.0
 40
1.0
 40
1.0
 40
1.0
 40
2.0
 40
2.0
 40
2.0
 40
3.0
 40
3.0
 40
3.0
 40
4.0
 40
4.0
 40
4.0
 40
4.0
 10
105.3918443204402
 20
-148.2917235957395
 10
105.3918443204402
 20
-148.2917235957395
 10
105.230958361279
 20
-148.2917235957395
 10
105.230958361279
 20
-148.2917235957395
 10
105.230958361279
 20
-148.2917235957395
 10
105.230958361279
 20
-148.4209146764364
 10
105.230958361279
 20
-148.4209146764364
 10
105.230958361279
 20
-148.4209146764364
 10
105.3918443204402
 20
-148.4209146764364
 10
105.3918443204402
 20
-148.4209146764364
 10
105.3918443204402
 20
-148.4209146764364
 10
105.3918443204402
 20
-148.2917235957395
 10
105.3918443204402
 20
-148.2917235957395
 97
        0
 97
        1
330
D8
 92
        1
 93
        1
 72
     4
 94
        3
 73
     0
 74
     0
 95
       17
 96
       13
 40
0.0
 40
0.0
 40
0.0
 40
0.0
 40
1.0
 40
1.0
 40
1.0
 40
2.0
 40
2.0
 40
2.0
 40
3.0
 40
3.0
 40
3.0
 40
4.0
 40
4.0
 40
4.0
 40
4.0
 10
105.3918443204402
 20
-148.0188720333078
 10
105.3918443204402
 20
-148.0188720333078
 10
105.230958361279
 20
-148.0188720333078
 10
105.230958361279
 20
-148.0188720333078
 10
105.230958361279
 20
-148.0188720333078
 10
105.230958361279
 20
-148.1478908592304
 10
105.230958361279
 20
-148.1478908592304
 10
105.230958361279
 20
-148.1478908592304
 10
105.3918443204402
 20
-148.1478908592304
 10
105.3918443204402
 20
-148.1478908592304
 10
105.3918443204402
 20
-148.1478908592304
 10
105.3918443204402
 20
-148.0188720333078
 10
105.3918443204402
 20
-148.0188720333078
 97
        0
 97
        1
330
D9
 92
        1
 93
        1
 72
     4
 94
        3
 73
     0
 74
     0
 95
       17
 96
       13
 40
0.0
 40
0.0
 40
0.0
 40
0.0
 40
1.0
 40
1.0
 40
1.0
 40
2.0
 40
2.0
 40
2.0
 40
3.0
 40
3.0
 40
3.0
 40
4.0
 40
4.0
 40
4.0
 40
4.0
 10
105.0593926061136
 20
-148.2917235957395
 10
105.0593926061136
 20
-148.2917235957395
 10
104.9009182137921
 20
-148.2917235957395
 10
104.9009182137921
 20
-148.2917235957395
 10
104.9009182137921
 20
-148.2917235957395
 10
104.9009182137921
 20
-148.4209146764364
 10
104.9009182137921
 20
-148.4209146764364
 10
104.9009182137921
 20
-148.4209146764364
 10
105.0593926061136
 20
-148.4209146764364
 10
105.0593926061136
 20
-148.4209146764364
 10
105.0593926061136
 20
-148.4209146764364
 10
105.0593926061136
 20
-148.2917235957395
 10
105.0593926061136
 20
-148.2917235957395
 97
        0
 97
        1
330
DA
 92
        1
 93
        1
 72
     4
 94
        3
 73
     0
 74
     0
 95
       17
 96
       13
 40
0.0
 40
0.0
 40
0.0
 40
0.0
 40
1.0
 40
1.0
 40
1.0
 40
2.0
 40
2.0
 40
2.0
 40
3.0
 40
3.0
 40
3.0
 40
4.0
 40
4.0
 40
4.0
 40
4.0
 10
105.0593926061136
 20
-148.0188720333078
 10
105.0593926061136
 20
-148.0188720333078
 10
104.9009182137921
 20
-148.0188720333078
 10
104.9009182137921
 20
-148.0188720333078
 10
104.9009182137921
 20
-148.0188720333078
 10
104.9009182137921
 20
-148.1478908592304
 10
104.9009182137921
 20
-148.1478908592304
 10
104.9009182137921
 20
-148.1478908592304
 10
105.0593926061136
 20
-148.1478908592304
 10
105.0593926061136
 20
-148.1478908592304
 10
105.0593926061136
 20
-148.1478908592304
 10
105.0593926061136
 20
-148.0188720333078
 10
105.0593926061136
 20
-148.0188720333078
 97
        0
 97
        1
330
DB
 92
        1
 93
        1
 72
     4
 94
        3
 73
     0
 74
     0
 95
      197
 96
      193
 40
0.0
 40
0.0
 40
0.0
 40
0.0
 40
1.0
 40
1.0
 40
1.0
 40
2.0
 40
2.0
 40
2.0
 40
3.0
 40
3.0
 40
3.0
 40
4.0
 40
4.0
 40
4.0
 40
5.0
 40
5.0
 40
5.0
 40
6.0
 40
6.0
 40
6.0
 40
7.0
 40
7.0
 40
7.0
 40
8.0
 40
8.0
 40
8.0
 40
9.0
 40
9.0
 40
9.0
 40
10.0
 40
10.0
 40
10.0
 40
11.0
 40
11.0
 40
11.0
 40
12.0
 40
12.0
 40
12.0
 40
13.0
 40
13.0
 40
13.0
 40
14.0
 40
14.0
 40
14.0
 40
15.0
 40
15.0
 40
15.0
 40
16.0
 40
16.0
 40
16.0
 40
17.0
 40
17.0
 40
17.0
 40
18.0
 40
18.0
 40
18.0
 40
19.0
 40
19.0
 40
19.0
 40
20.0
 40
20.0
 40
20.0
 40
21.0
 40
21.0
 40
21.0
 40
22.0
 40
22.0
 40
22.0
 40
23.0
 40
23.0
 40
23.0
 40
24.0
 40
24.0
 40
24.0
 40
25.0
 40
25.0
 40
25.0
 40
26.0
 40
26.0
 40
26.0
 40
27.0
 40
27.0
 40
27.0
 40
28.0
 40
28.0
 40
28.0
 40
29.0
 40
29.0
 40
29.0
 40
30.0
 40
30.0
 40
30.0
 40
31.0
 40
31.0
 40
31.0
 40
32.0
 40
32.0
 40
32.0
 40
33.0
 40
33.0
 40
33.0
 40
34.0
 40
34.0
 40
34.0
 40
35.0
 40
35.0
 40
35.0
 40
36.0
 40
36.0
 40
36.0
 40
37.0
 40
37.0
 40
37.0
 40
38.0
 40
38.0
 40
38.0
 40
39.0
 40
39.0
 40
39.0
 40
40.0
 40
40.0
 40
40.0
 40
41.0
 40
41.0
 40
41.0
 40
42.0
 40
42.0
 40
42.0
 40
43.0
 40
43.0
 40
43.0
 40
44.0
 40
44.0
 40
44.0
 40
45.0
 40
45.0
 40
45.0
 40
46.0
 40
46.0
 40
46.0
 40
47.0
 40
47.0
 40
47.0
 40
48.0
 40
48.0
 40
48.0
 40
49.0
 40
49.0
 40
49.0
 40
50.0
 40
50.0
 40
50.0
 40
51.0
 40
51.0
 40
51.0
 40
52.0
 40
52.0
 40
52.0
 40
53.0
 40
53.0
 40
53.0
 40
54.0
 40
54.0
 40
54.0
 40
55.0
 40
55.0
 40
55.0
 40
56.0
 40
56.0
 40
56.0
 40
57.0
 40
57.0
 40
57.0
 40
58.0
 40
58.0
 40
58.0
 40
59.0
 40
59.0
 40
59.0
 40
60.0
 40
60.0
 40
60.0
 40
61.0
 40
61.0
 40
61.0
 40
62.0
 40
62.0
 40
62.0
 40
63.0
 40
63.0
 40
63.0
 40
64.0
 40
64.0
 40
64.0
 40
64.0
 10
106.5657606070391
 20
-147.8941595767417
 10
106.5550808110348
 20
-147.9236151431406
 10
106.5316541617351
 20
-147.9702961869657
 10
106.5213188752794
 20
-147.9976846960735
 10
106.5213188752794
 20
-147.9976846960735
 10
106.4599961756419
 20
-148.1501301712958
 10
106.4599961756419
 20
-148.1501301712958
 10
106.4493163796377
 20
-148.1754516231124
 10
106.4007405332956
 20
-148.2875894811573
 10
106.3879936800002
 20
-148.3108438756827
 10
106.385926622709
 20
-148.3172173023304
 10
106.3814479985782
 20
-148.3256577862693
 10
106.3793809412871
 20
-148.332031212917
 10
106.3793809412871
 20
-148.332031212917
 10
106.1699191357839
 20
-148.2791489972184
 10
106.1699191357839
 20
-148.2791489972184
 10
106.2484673128476
 20
-148.1690781964647
 10
106.309790012485
 20
-148.0336859438943
 10
106.3414848909493
 20
-147.9236151431406
 10
106.3414848909493
 20
-147.9236151431406
 10
105.8760524908921
 20
-147.9236151431406
 10
105.8760524908921
 20
-147.9236151431406
 10
105.7954372565372
 20
-148.0886352168841
 10
105.7279133850263
 20
-148.1670111391735
 10
105.6941514492709
 20
-148.2071465015767
 10
105.6941514492709
 20
-148.2071465015767
 10
105.571506049996
 20
-148.1415174325826
 10
105.571506049996
 20
-148.1415174325826
 10
105.571506049996
 20
-148.1415174325826
 10
105.571506049996
 20
-148.3129109329738
 10
105.571506049996
 20
-148.3129109329738
 10
105.571506049996
 20
-148.4209146764364
 10
105.5735731072871
 20
-148.4694905227784
 10
105.5839083937429
 20
-148.5752549541756
 10
105.5122504076497
 20
-148.5731878968845
 10
105.4908908156411
 20
-148.5731878968845
 10
105.286079889043
 20
-148.5731878968845
 10
105.286079889043
 20
-148.5731878968845
 10
105.230958361279
 20
-148.5731878968845
 10
105.230958361279
 20
-148.5731878968845
 10
105.230958361279
 20
-148.5731878968845
 10
105.230958361279
 20
-148.7085801494548
 10
105.230958361279
 20
-148.7085801494548
 10
105.230958361279
 20
-148.7085801494548
 10
105.3029608569208
 20
-148.7085801494548
 10
105.3029608569208
 20
-148.7085801494548
 10
105.3684176711405
 20
-148.7085801494548
 10
105.5143174649408
 20
-148.7042737800982
 10
105.620081896338
 20
-148.6958332961594
 10
105.620081896338
 20
-148.6958332961594
 10
105.620081896338
 20
-148.8736002231983
 10
105.620081896338
 20
-148.8736002231983
 10
105.5225856941054
 20
-148.8672267965506
 10
105.3642835565582
 20
-148.862920427194
 10
105.3029608569208
 20
-148.862920427194
 10
105.3029608569208
 20
-148.862920427194
 10
105.230958361279
 20
-148.862920427194
 10
105.230958361279
 20
-148.862920427194
 10
105.2330254185702
 20
-148.9518038907134
 10
105.2371595331525
 20
-149.1908935173898
 10
105.2392265904436
 20
-149.2649630703226
 10
105.2392265904436
 20
-149.2649630703226
 10
105.0383775236536
 20
-149.2649630703226
 10
105.0383775236536
 20
-149.2649630703226
 10
105.051124376949
 20
-149.0510226406886
 10
105.051124376949
 20
-149.0213948195155
 10
105.0552584915313
 20
-148.862920427194
 10
105.0552584915313
 20
-148.862920427194
 10
104.9856675627292
 20
-148.862920427194
 10
104.9856675627292
 20
-148.862920427194
 10
104.9284789776741
 20
-148.862920427194
 10
104.7762057572261
 20
-148.8672267965506
 10
104.6659627016981
 20
-148.8736002231983
 10
104.6659627016981
 20
-148.8736002231983
 10
104.6659627016981
 20
-148.6958332961594
 10
104.6659627016981
 20
-148.6958332961594
 10
104.7717271330952
 20
-148.7042737800982
 10
104.9157321243787
 20
-148.7085801494548
 10
104.9856675627292
 20
-148.7085801494548
 10
104.9856675627292
 20
-148.7085801494548
 10
105.0593926061136
 20
-148.7085801494548
 10
105.0593926061136
 20
-148.7085801494548
 10
105.0593926061136
 20
-148.7085801494548
 10
105.0593926061136
 20
-148.5731878968845
 10
105.0593926061136
 20
-148.5731878968845
 10
105.0593926061136
 20
-148.5731878968845
 10
105.0152953839024
 20
-148.5731878968845
 10
105.0152953839024
 20
-148.5731878968845
 10
104.9388142641299
 20
-148.5731878968845
 10
104.7465779360529
 20
-148.5752549541756
 10
104.7124714907489
 20
-148.5752549541756
 10
104.7190171721709
 20
-148.5034247133082
 10
104.7272854013355
 20
-148.4229817337276
 10
104.7272854013355
 20
-148.3024033917438
 10
104.7272854013355
 20
-148.3024033917438
 10
104.7272854013355
 20
-148.1289428340615
 10
104.7272854013355
 20
-148.1289428340615
 10
104.7272854013355
 20
-148.0569403384198
 10
104.7190171721709
 20
-147.936361996436
 10
104.7124714907489
 20
-147.8560912716297
 10
104.7910196678126
 20
-147.860225386212
 10
104.8289157181504
 20
-147.8622924435032
 10
104.9560397415561
 20
-147.8622924435032
 10
104.9560397415561
 20
-147.8622924435032
 10
105.0593926061136
 20
-147.8622924435032
 10
105.0593926061136
 20
-147.8622924435032
 10
105.0593926061136
 20
-147.8622924435032
 10
105.0593926061136
 20
-147.7163926497028
 10
105.0593926061136
 20
-147.7163926497028
 10
105.0593926061136
 20
-147.7163926497028
 10
104.9811889385984
 20
-147.7163926497028
 10
104.9811889385984
 20
-147.7163926497028
 10
104.926411920383
 20
-147.7163926497028
 10
104.7548461652175
 20
-147.7206990190594
 10
104.6704413258289
 20
-147.7269001909328
 10
104.6704413258289
 20
-147.7269001909328
 10
104.6704413258289
 20
-147.5493055186682
 10
104.6704413258289
 20
-147.5493055186682
 10
104.7527791079264
 20
-147.5556789453159
 10
104.9157321243787
 20
-147.5598130598982
 10
104.9811889385984
 20
-147.5598130598982
 10
104.9811889385984
 20
-147.5598130598982
 10
105.0593926061136
 20
-147.5598130598982
 10
105.0593926061136
 20
-147.5598130598982
 10
105.0593926061136
 20
-147.5260511241428
 10
105.0552584915313
 20
-147.3715385916293
 10
105.0552584915313
 20
-147.339843713165
 10
105.0552584915313
 20
-147.339843713165
 10
105.2519734437391
 20
-147.3567246810427
 10
105.2519734437391
 20
-147.3567246810427
 10
105.2688544116168
 20
-147.3587917383339
 10
105.2902140036253
 20
-147.3610310503993
 10
105.2902140036253
 20
-147.3820461328593
 10
105.2902140036253
 20
-147.405472782159
 10
105.2688544116168
 20
-147.4139132660979
 10
105.2416381572833
 20
-147.426487864619
 10
105.2416381572833
 20
-147.4476752018533
 10
105.2392265904436
 20
-147.5429320920205
 10
105.2392265904436
 20
-147.5598130598982
 10
105.2392265904436
 20
-147.5598130598982
 10
105.2984822327899
 20
-147.5598130598982
 10
105.2984822327899
 20
-147.5598130598982
 10
105.3663506138494
 20
-147.5598130598982
 10
105.50983884081
 20
-147.5556789453159
 10
105.6156032722072
 20
-147.5493055186682
 10
105.6156032722072
 20
-147.5493055186682
 10
105.6156032722072
 20
-147.7269001909328
 10
105.6156032722072
 20
-147.7269001909328
 10
105.5184515795231
 20
-147.7206990190594
 10
105.3622164992671
 20
-147.7163926497028
 10
105.2984822327899
 20
-147.7163926497028
 10
105.2984822327899
 20
-147.7163926497028
 10
105.230958361279
 20
-147.7163926497028
 10
105.230958361279
 20
-147.7163926497028
 10
105.230958361279
 20
-147.7163926497028
 10
105.230958361279
 20
-147.8622924435032
 10
105.230958361279
 20
-147.8622924435032
 10
105.230958361279
 20
-147.8622924435032
 10
105.3008937996296
 20
-147.8622924435032
 10
105.3008937996296
 20
-147.8622924435032
 10
105.4510999627865
 20
-147.8622924435032
 10
105.5225856941054
 20
-147.8581583289209
 10
105.5839083937429
 20
-147.8560912716297
 10
105.5756401645783
 20
-147.9511759070226
 10
105.5735731072871
 20
-148.029551829312
 10
105.571506049996
 20
-148.067620134424
 10
105.7258463277352
 20
-147.8560912716297
 10
105.8316107591323
 20
-147.6085611610145
 10
105.8484917270101
 20
-147.3462171398127
 10
105.8484917270101
 20
-147.3462171398127
 10
106.0641547043867
 20
-147.3968600434459
 10
106.0641547043867
 20
-147.3968600434459
 10
106.0789686149733
 20
-147.4011664128025
 10
106.0937825255599
 20
-147.4075398394502
 10
106.0937825255599
 20
-147.4244208073279
 10
106.0937825255599
 20
-147.4413017752056
 10
106.0896484109776
 20
-147.443541087271
 10
106.0390055073444
 20
-147.4645561697311
 10
106.0217800299182
 20
-147.5408650347293
 10
105.9966308328758
 20
-147.6318155555399
 10
105.9480549865338
 20
-147.7587673241714
 10
105.9480549865338
 20
-147.7587673241714
 10
106.2863633631853
 20
-147.7587673241714
 10
106.2863633631853
 20
-147.7587673241714
 10
106.3246039230716
 20
-147.7587673241714
 10
106.4534504942199
 20
-147.7544609548148
 10
106.502026340562
 20
-147.7480875281671
 10
106.502026340562
 20
-147.7480875281671
 10
106.5953884282123
 20
-147.8178507117434
 10
106.5953884282123
 20
-147.8178507117434
 10
106.5867756894991
 20
-147.8390380489777
 10
106.5805745176257
 20
-147.8581583289209
 10
106.5657606070391
 20
-147.8941595767417
 97
        0
 97
        1
330
DC
 75
     2
 76
     1
 98
        1
 10
0.0
 20
0.0
450
        0
451
        0
460
0.0
461
0.0
452
        0
462
0.0
453
        0
470

  0
SPLINE
  5
DE
330
D3
100
AcDbEntity
  8
レイヤー 1
100
AcDbSpline
210
0.0
220
0.0
230
1.0
 70
     9
 71
     3
 72
    74
 73
    70
 74
     0
 42
0.0000000001
 43
0.0000000001
 40
0.0
 40
0.0
 40
0.0
 40
0.0
 40
1.0
 40
1.0
 40
1.0
 40
2.0
 40
2.0
 40
2.0
 40
3.0
 40
3.0
 40
3.0
 40
4.0
 40
4.0
 40
4.0
 40
5.0
 40
5.0
 40
5.0
 40
6.0
 40
6.0
 40
6.0
 40
7.0
 40
7.0
 40
7.0
 40
8.0
 40
8.0
 40
8.0
 40
9.0
 40
9.0
 40
9.0
 40
10.0
 40
10.0
 40
10.0
 40
11.0
 40
11.0
 40
11.0
 40
12.0
 40
12.0
 40
12.0
 40
13.0
 40
13.0
 40
13.0
 40
14.0
 40
14.0
 40
14.0
 40
15.0
 40
15.0
 40
15.0
 40
16.0
 40
16.0
 40
16.0
 40
17.0
 40
17.0
 40
17.0
 40
18.0
 40
18.0
 40
18.0
 40
19.0
 40
19.0
 40
19.0
 40
20.0
 40
20.0
 40
20.0
 40
21.0
 40
21.0
 40
21.0
 40
22.0
 40
22.0
 40
22.0
 40
23.0
 40
23.0
 40
23.0
 40
23.0
 10
108.5263644476948
 20
-147.7968356292834
 30
0.0
 10
108.5263644476948
 20
-147.7968356292834
 30
0.0
 10
108.3658229980821
 20
-147.7968356292834
 30
0.0
 10
108.3658229980821
 20
-147.7968356292834
 30
0.0
 10
108.3658229980821
 20
-147.7968356292834
 30
0.0
 10
108.3658229980821
 20
-147.9110405446195
 30
0.0
 10
108.3658229980821
 20
-147.9110405446195
 30
0.0
 10
108.3658229980821
 20
-147.9511759070226
 30
0.0
 10
108.3720241699556
 20
-148.0252454599555
 30
0.0
 10
108.3761582845379
 20
-148.0505669117721
 30
0.0
 10
108.3761582845379
 20
-148.0505669117721
 30
0.0
 10
108.1646294217435
 20
-148.0505669117721
 30
0.0
 10
108.1646294217435
 20
-148.0505669117721
 30
0.0
 10
108.1753092177478
 20
-147.9851100975523
 30
0.0
 10
108.177376275039
 20
-147.925854455206
 30
0.0
 10
108.177376275039
 20
-147.9236151431406
 30
0.0
 10
108.177376275039
 20
-147.9236151431406
 30
0.0
 10
108.177376275039
 20
-147.8009697438657
 30
0.0
 10
108.177376275039
 20
-147.8009697438657
 30
0.0
 10
108.177376275039
 20
-147.8009697438657
 30
0.0
 10
107.9975422907089
 20
-147.8009697438657
 30
0.0
 10
107.9975422907089
 20
-147.8009697438657
 30
0.0
 10
107.9785942655401
 20
-147.860225386212
 30
0.0
 10
107.9320854764892
 20
-148.0061251800123
 30
0.0
 10
107.8177083063789
 20
-148.0886352168841
 30
0.0
 10
107.8177083063789
 20
-148.0886352168841
 30
0.0
 10
107.6613009713485
 20
-147.9828707854869
 30
0.0
 10
107.6613009713485
 20
-147.9828707854869
 30
0.0
 10
107.7353705242814
 20
-147.936361996436
 30
0.0
 10
107.8514702421343
 20
-147.8622924435032
 30
0.0
 10
107.8514702421343
 20
-147.5408650347293
 30
0.0
 10
107.8514702421343
 20
-147.4857435069653
 30
0.0
 10
107.847336127552
 20
-147.4413017752056
 30
0.0
 10
107.8452690702609
 20
-147.4032334700936
 30
0.0
 10
107.9214056804849
 20
-147.4116739540325
 30
0.0
 10
107.9954752334178
 20
-147.4180473806802
 30
0.0
 10
108.0588649903464
 20
-147.4180473806802
 30
0.0
 10
108.2366319173853
 20
-147.4180473806802
 30
0.0
 10
108.4354139268842
 20
-147.3587917383339
 30
0.0
 10
108.4967366265216
 20
-147.3291639171607
 30
0.0
 10
108.4967366265216
 20
-147.3291639171607
 30
0.0
 10
108.6238606499273
 20
-147.4645561697311
 30
0.0
 10
108.6238606499273
 20
-147.4645561697311
 30
0.0
 10
108.6279947645097
 20
-147.4688625390876
 30
0.0
 10
108.6300618218008
 20
-147.4773030230265
 30
0.0
 10
108.6300618218008
 20
-147.4836764496742
 30
0.0
 10
108.6300618218008
 20
-147.5048637869085
 30
0.0
 10
108.6152479112142
 20
-147.5112372135562
 30
0.0
 10
108.5983669433365
 20
-147.5112372135562
 30
0.0
 10
108.5773518608765
 20
-147.5112372135562
 30
0.0
 10
108.5625379502899
 20
-147.5027967296173
 30
0.0
 10
108.5432454155725
 20
-147.4921169336131
 30
0.0
 10
108.3699571126644
 20
-147.5493055186682
 30
0.0
 10
108.1518825684481
 20
-147.5746269704848
 30
0.0
 10
108.0185573731689
 20
-147.5766940277759
 30
0.0
 10
108.0185573731689
 20
-147.5766940277759
 30
0.0
 10
108.0144232585866
 20
-147.6592040646477
 30
0.0
 10
108.0144232585866
 20
-147.6592040646477
 30
0.0
 10
108.0144232585866
 20
-147.6592040646477
 30
0.0
 10
108.2872748210184
 20
-147.6592040646477
 30
0.0
 10
108.2872748210184
 20
-147.6592040646477
 30
0.0
 10
108.3444634060736
 20
-147.6592040646477
 30
0.0
 10
108.6069796820496
 20
-147.6402560394788
 30
0.0
 10
108.6514214138093
 20
-147.6338826128311
 30
0.0
 10
108.6514214138093
 20
-147.6338826128311
 30
0.0
 10
108.6514214138093
 20
-147.8030368011568
 30
0.0
 10
108.6514214138093
 20
-147.8030368011568
 30
0.0
 10
108.6173149685054
 20
-147.7989026865746
 30
0.0
 10
108.6045681152099
 20
-147.7968356292834
 30
0.0
 10
108.5263644476948
 20
-147.7968356292834
 30
0.0
  0
SPLINE
  5
DF
330
D3
100
AcDbEntity
  8
レイヤー 1
100
AcDbSpline
210
0.0
220
0.0
230
1.0
 70
    11
 71
     3
 72
    17
 73
    13
 74
     0
 42
0.0000000001
 43
0.0000000001
 40
0.0
 40
0.0
 40
0.0
 40
0.0
 40
1.0
 40
1.0
 40
1.0
 40
2.0
 40
2.0
 40
2.0
 40
3.0
 40
3.0
 40
3.0
 40
4.0
 40
4.0
 40
4.0
 40
4.0
 10
108.2090711535033
 20
-148.7402750279191
 30
0.0
 10
108.2090711535033
 20
-148.7402750279191
 30
0.0
 10
107.2974988881062
 20
-148.7402750279191
 30
0.0
 10
107.2974988881062
 20
-148.7402750279191
 30
0.0
 10
107.2974988881062
 20
-148.7402750279191
 30
0.0
 10
107.2974988881062
 20
-148.8481065166074
 30
0.0
 10
107.2974988881062
 20
-148.8481065166074
 30
0.0
 10
107.2974988881062
 20
-148.8481065166074
 30
0.0
 10
108.2090711535033
 20
-148.8481065166074
 30
0.0
 10
108.2090711535033
 20
-148.8481065166074
 30
0.0
 10
108.2090711535033
 20
-148.8481065166074
 30
0.0
 10
108.2090711535033
 20
-148.7402750279191
 30
0.0
 10
108.2090711535033
 20
-148.7402750279191
 30
0.0
  0
SPLINE
  5
E0
330
D3
100
AcDbEntity
  8
レイヤー 1
100
AcDbSpline
210
0.0
220
0.0
230
1.0
 70
    11
 71
     3
 72
    17
 73
    13
 74
     0
 42
0.0000000001
 43
0.0000000001
 40
0.0
 40
0.0
 40
0.0
 40
0.0
 40
1.0
 40
1.0
 40
1.0
 40
2.0
 40
2.0
 40
2.0
 40
3.0
 40
3.0
 40
3.0
 40
4.0
 40
4.0
 40
4.0
 40
4.0
 10
108.2090711535033
 20
-148.494811974595
 30
0.0
 10
108.2090711535033
 20
-148.494811974595
 30
0.0
 10
107.2974988881062
 20
-148.494811974595
 30
0.0
 10
107.2974988881062
 20
-148.494811974595
 30
0.0
 10
107.2974988881062
 20
-148.494811974595
 30
0.0
 10
107.2974988881062
 20
-148.6048827753488
 30
0.0
 10
107.2974988881062
 20
-148.6048827753488
 30
0.0
 10
107.2974988881062
 20
-148.6048827753488
 30
0.0
 10
108.2090711535033
 20
-148.6048827753488
 30
0.0
 10
108.2090711535033
 20
-148.6048827753488
 30
0.0
 10
108.2090711535033
 20
-148.6048827753488
 30
0.0
 10
108.2090711535033
 20
-148.494811974595
 30
0.0
 10
108.2090711535033
 20
-148.494811974595
 30
0.0
  0
SPLINE
  5
E1
330
D3
100
AcDbEntity
  8
レイヤー 1
100
AcDbSpline
210
0.0
220
0.0
230
1.0
 70
    11
 71
     3
 72
    17
 73
    13
 74
     0
 42
0.0000000001
 43
0.0000000001
 40
0.0
 40
0.0
 40
0.0
 40
0.0
 40
1.0
 40
1.0
 40
1.0
 40
2.0
 40
2.0
 40
2.0
 40
3.0
 40
3.0
 40
3.0
 40
4.0
 40
4.0
 40
4.0
 40
4.0
 10
108.2090711535033
 20
-148.2495211760453
 30
0.0
 10
108.2090711535033
 20
-148.2495211760453
 30
0.0
 10
107.2974988881062
 20
-148.2495211760453
 30
0.0
 10
107.2974988881062
 20
-148.2495211760453
 30
0.0
 10
107.2974988881062
 20
-148.2495211760453
 30
0.0
 10
107.2974988881062
 20
-148.3616590340901
 30
0.0
 10
107.2974988881062
 20
-148.3616590340901
 30
0.0
 10
107.2974988881062
 20
-148.3616590340901
 30
0.0
 10
108.2090711535033
 20
-148.3616590340901
 30
0.0
 10
108.2090711535033
 20
-148.3616590340901
 30
0.0
 10
108.2090711535033
 20
-148.3616590340901
 30
0.0
 10
108.2090711535033
 20
-148.2495211760453
 30
0.0
 10
108.2090711535033
 20
-148.2495211760453
 30
0.0
  0
SPLINE
  5
E2
330
D3
100
AcDbEntity
  8
レイヤー 1
100
AcDbSpline
210
0.0
220
0.0
230
1.0
 70
     9
 71
     3
 72
    74
 73
    70
 74
     0
 42
0.0000000001
 43
0.0000000001
 40
0.0
 40
0.0
 40
0.0
 40
0.0
 40
1.0
 40
1.0
 40
1.0
 40
2.0
 40
2.0
 40
2.0
 40
3.0
 40
3.0
 40
3.0
 40
4.0
 40
4.0
 40
4.0
 40
5.0
 40
5.0
 40
5.0
 40
6.0
 40
6.0
 40
6.0
 40
7.0
 40
7.0
 40
7.0
 40
8.0
 40
8.0
 40
8.0
 40
9.0
 40
9.0
 40
9.0
 40
10.0
 40
10.0
 40
10.0
 40
11.0
 40
11.0
 40
11.0
 40
12.0
 40
12.0
 40
12.0
 40
13.0
 40
13.0
 40
13.0
 40
14.0
 40
14.0
 40
14.0
 40
15.0
 40
15.0
 40
15.0
 40
16.0
 40
16.0
 40
16.0
 40
17.0
 40
17.0
 40
17.0
 40
18.0
 40
18.0
 40
18.0
 40
19.0
 40
19.0
 40
19.0
 40
20.0
 40
20.0
 40
20.0
 40
21.0
 40
21.0
 40
21.0
 40
22.0
 40
22.0
 40
22.0
 40
23.0
 40
23.0
 40
23.0
 40
23.0
 10
108.5136175943993
 20
-149.2839110954915
 30
0.0
 10
108.3000216743139
 20
-149.2732312994872
 30
0.0
 10
108.0991726075238
 20
-149.1864148932589
 30
0.0
 10
107.9234727377761
 20
-149.0658365512752
 30
0.0
 10
107.9234727377761
 20
-149.0658365512752
 30
0.0
 10
108.0209689400086
 20
-148.9793646545954
 30
0.0
 10
108.0209689400086
 20
-148.9793646545954
 30
0.0
 10
108.0209689400086
 20
-148.9793646545954
 30
0.0
 10
107.4687201337231
 20
-148.9793646545954
 30
0.0
 10
107.4687201337231
 20
-148.9793646545954
 30
0.0
 10
107.4687201337231
 20
-148.9793646545954
 30
0.0
 10
107.5489908585294
 20
-149.042754411524
 30
0.0
 10
107.5489908585294
 20
-149.042754411524
 30
0.0
 10
107.5555365399514
 20
-149.0468885261063
 30
0.0
 10
107.5658718264071
 20
-149.0575683221106
 30
0.0
 10
107.5658718264071
 20
-149.0723822326972
 30
0.0
 10
107.5658718264071
 20
-149.1126898498746
 30
0.0
 10
107.4918022734743
 20
-149.1061441684526
 30
0.0
 10
107.4769883628877
 20
-149.1040771111615
 30
0.0
 10
107.2465114749245
 20
-149.2436034783141
 30
0.0
 10
107.1028509931895
 20
-149.2752983567784
 30
0.0
 10
106.9991536190835
 20
-149.2921793246561
 30
0.0
 10
106.9991536190835
 20
-149.2921793246561
 30
0.0
 10
106.8699625383867
 20
-149.1147569071658
 30
0.0
 10
106.8699625383867
 20
-149.1147569071658
 30
0.0
 10
107.1176649037761
 20
-149.0830620287014
 30
0.0
 10
107.2189507110425
 20
-149.036208730102
 30
0.0
 10
107.3078341745619
 20
-148.9834987691777
 30
0.0
 10
107.233764621629
 20
-148.9855658264689
 30
0.0
 10
107.1197319610673
 20
-148.98763288376
 30
0.0
 10
107.088037082603
 20
-148.9896999410512
 30
0.0
 10
107.1028509931895
 20
-148.9008164775317
 30
0.0
 10
107.1049180504807
 20
-148.7719699063834
 30
0.0
 10
107.1049180504807
 20
-148.6979003534505
 30
0.0
 10
107.1049180504807
 20
-148.6979003534505
 30
0.0
 10
107.1049180504807
 20
-148.397660281911
 30
0.0
 10
107.1049180504807
 20
-148.397660281911
 30
0.0
 10
107.1049180504807
 20
-148.2980970223873
 30
0.0
 10
107.0983723690587
 20
-148.1987060176378
 30
0.0
 10
107.088037082603
 20
-148.1013820701795
 30
0.0
 10
107.1893228898693
 20
-148.1077554968272
 30
0.0
 10
107.420144287381
 20
-148.1141289234749
 30
0.0
 10
107.5279757760694
 20
-148.1141289234749
 30
0.0
 10
107.5279757760694
 20
-148.1141289234749
 30
0.0
 10
107.951033501658
 20
-148.1141289234749
 30
0.0
 10
107.951033501658
 20
-148.1141289234749
 30
0.0
 10
108.0695447863506
 20
-148.1141289234749
 30
0.0
 10
108.1119194608192
 20
-148.1141289234749
 30
0.0
 10
108.1942572429167
 20
-148.1098225541184
 30
0.0
 10
108.3423963487824
 20
-148.1034491274706
 30
0.0
 10
108.3592773166602
 20
-148.1034491274706
 30
0.0
 10
108.405786105711
 20
-148.1013820701795
 30
0.0
 10
108.3975178765464
 20
-148.1818250497601
 30
0.0
 10
108.3930392524156
 20
-148.3404716968558
 30
0.0
 10
108.3930392524156
 20
-148.4229817337276
 30
0.0
 10
108.3930392524156
 20
-148.4229817337276
 30
0.0
 10
108.3930392524156
 20
-148.7085801494548
 30
0.0
 10
108.3930392524156
 20
-148.7085801494548
 30
0.0
 10
108.3930392524156
 20
-148.7804103903222
 30
0.0
 10
108.3951063097068
 20
-148.911496273536
 30
0.0
 10
108.405786105711
 20
-148.9896999410512
 30
0.0
 10
108.3337836100693
 20
-148.9855658264689
 30
0.0
 10
108.2111382107944
 20
-148.9834987691777
 30
0.0
 10
108.1329345432793
 20
-148.9814317118866
 30
0.0
 10
108.2428330892587
 20
-149.0489555833975
 30
0.0
 10
108.3951063097068
 20
-149.0999429965792
 30
0.0
 10
108.6069796820496
 20
-149.1040771111615
 30
0.0
 10
108.6069796820496
 20
-149.1040771111615
 30
0.0
 10
108.5136175943993
 20
-149.2839110954915
 30
0.0
 10
108.5136175943993
 20
-149.2839110954915
 30
0.0
  0
SPLINE
  5
E3
330
D3
100
AcDbEntity
  8
レイヤー 1
100
AcDbSpline
210
0.0
220
0.0
230
1.0
 70
    11
 71
     3
 72
    71
 73
    67
 74
     0
 42
0.0000000001
 43
0.0000000001
 40
0.0
 40
0.0
 40
0.0
 40
0.0
 40
1.0
 40
1.0
 40
1.0
 40
2.0
 40
2.0
 40
2.0
 40
3.0
 40
3.0
 40
3.0
 40
4.0
 40
4.0
 40
4.0
 40
5.0
 40
5.0
 40
5.0
 40
6.0
 40
6.0
 40
6.0
 40
7.0
 40
7.0
 40
7.0
 40
8.0
 40
8.0
 40
8.0
 40
9.0
 40
9.0
 40
9.0
 40
10.0
 40
10.0
 40
10.0
 40
11.0
 40
11.0
 40
11.0
 40
12.0
 40
12.0
 40
12.0
 40
13.0
 40
13.0
 40
13.0
 40
14.0
 40
14.0
 40
14.0
 40
15.0
 40
15.0
 40
15.0
 40
16.0
 40
16.0
 40
16.0
 40
17.0
 40
17.0
 40
17.0
 40
18.0
 40
18.0
 40
18.0
 40
19.0
 40
19.0
 40
19.0
 40
20.0
 40
20.0
 40
20.0
 40
21.0
 40
21.0
 40
21.0
 40
22.0
 40
22.0
 40
22.0
 40
22.0
 10
107.6761148819351
 20
-147.5174383854296
 30
0.0
 10
107.6613009713485
 20
-147.5174383854296
 30
0.0
 10
107.6485541180531
 20
-147.5133042708474
 30
0.0
 10
107.6230604114623
 20
-147.5048637869085
 30
0.0
 10
107.4814669870185
 20
-147.5513725759594
 30
0.0
 10
107.3078341745619
 20
-147.5682535438371
 30
0.0
 10
107.1683078074093
 20
-147.5725599131937
 30
0.0
 10
107.1683078074093
 20
-147.5725599131937
 30
0.0
 10
107.1662407501181
 20
-147.6614433767131
 30
0.0
 10
107.1662407501181
 20
-147.6614433767131
 30
0.0
 10
107.1662407501181
 20
-147.6614433767131
 30
0.0
 10
107.4263454592545
 20
-147.6614433767131
 30
0.0
 10
107.4263454592545
 20
-147.6614433767131
 30
0.0
 10
107.4793999297273
 20
-147.6614433767131
 30
0.0
 10
107.6613009713485
 20
-147.652830638
 30
0.0
 10
107.7057427031083
 20
-147.6466294661265
 30
0.0
 10
107.7057427031083
 20
-147.6466294661265
 30
0.0
 10
107.7057427031083
 20
-147.8073431705134
 30
0.0
 10
107.7057427031083
 20
-147.8073431705134
 30
0.0
 10
107.6506211753443
 20
-147.8009697438657
 30
0.0
 10
107.5259087187782
 20
-147.7989026865746
 30
0.0
 10
107.487668158892
 20
-147.8009697438657
 30
0.0
 10
107.487668158892
 20
-147.8009697438657
 30
0.0
 10
107.487668158892
 20
-147.9110405446195
 30
0.0
 10
107.487668158892
 20
-147.9110405446195
 30
0.0
 10
107.487668158892
 20
-147.9575493336703
 30
0.0
 10
107.4897352161831
 20
-148.0209390905989
 30
0.0
 10
107.4962808976051
 20
-148.0590073957109
 30
0.0
 10
107.4962808976051
 20
-148.0590073957109
 30
0.0
 10
107.3037000599796
 20
-148.0590073957109
 30
0.0
 10
107.3037000599796
 20
-148.0590073957109
 30
0.0
 10
107.3099012318531
 20
-148.0188720333078
 30
0.0
 10
107.316446913275
 20
-147.936361996436
 30
0.0
 10
107.316446913275
 20
-147.9215480858495
 30
0.0
 10
107.316446913275
 20
-147.9215480858495
 30
0.0
 10
107.316446913275
 20
-147.8009697438657
 30
0.0
 10
107.316446913275
 20
-147.8009697438657
 30
0.0
 10
107.316446913275
 20
-147.8009697438657
 30
0.0
 10
107.1514268395316
 20
-147.8009697438657
 30
0.0
 10
107.1514268395316
 20
-147.8009697438657
 30
0.0
 10
107.109052165063
 20
-148.0209390905989
 30
0.0
 10
107.053930637299
 20
-148.1013820701795
 30
0.0
 10
106.9481662059018
 20
-148.2007730749289
 30
0.0
 10
106.9481662059018
 20
-148.2007730749289
 30
0.0
 10
106.7810790748672
 20
-148.0865681595929
 30
0.0
 10
106.7810790748672
 20
-148.0865681595929
 30
0.0
 10
106.8444688317958
 20
-148.0379923132509
 30
0.0
 10
106.9946749949527
 20
-147.925854455206
 30
0.0
 10
106.9946749949527
 20
-147.5766940277759
 30
0.0
 10
106.9946749949527
 20
-147.4941839909042
 30
0.0
 10
106.9864067657881
 20
-147.4476752018533
 30
0.0
 10
106.977794027075
 20
-147.3990993555113
 30
0.0
 10
107.1238660756496
 20
-147.4139132660979
 30
0.0
 10
107.1386799862361
 20
-147.4139132660979
 30
0.0
 10
107.1745089792827
 20
-147.4139132660979
 30
0.0
 10
107.2826849775196
 20
-147.4139132660979
 30
0.0
 10
107.4242784019634
 20
-147.3968600434459
 30
0.0
 10
107.5851643611245
 20
-147.3355373438085
 30
0.0
 10
107.5851643611245
 20
-147.3355373438085
 30
0.0
 10
107.6991970216863
 20
-147.4667954817965
 30
0.0
 10
107.6991970216863
 20
-147.4667954817965
 30
0.0
 10
107.7057427031083
 20
-147.4731689084442
 30
0.0
 10
107.7098768176906
 20
-147.481609392383
 30
0.0
 10
107.7098768176906
 20
-147.4900498763219
 30
0.0
 10
107.7098768176906
 20
-147.5133042708474
 30
0.0
 10
107.6909287925217
 20
-147.5174383854296
 30
0.0
 10
107.6761148819351
 20
-147.5174383854296
 30
0.0
  0
HATCH
  5
E4
330
D3
100
AcDbEntity
  8
レイヤー 1
 62
   250
420
  2299925
440
 33554687
100
AcDbHatch
 10
0.0
 20
0.0
 30
0.0
210
0.0
220
0.0
230
1.0
  2
SOLID
 70
     1
 71
     1
 91
        6
 92
        1
 93
        1
 72
     4
 94
        3
 73
     0
 74
     0
 95
       74
 96
       70
 40
0.0
 40
0.0
 40
0.0
 40
0.0
 40
1.0
 40
1.0
 40
1.0
 40
2.0
 40
2.0
 40
2.0
 40
3.0
 40
3.0
 40
3.0
 40
4.0
 40
4.0
 40
4.0
 40
5.0
 40
5.0
 40
5.0
 40
6.0
 40
6.0
 40
6.0
 40
7.0
 40
7.0
 40
7.0
 40
8.0
 40
8.0
 40
8.0
 40
9.0
 40
9.0
 40
9.0
 40
10.0
 40
10.0
 40
10.0
 40
11.0
 40
11.0
 40
11.0
 40
12.0
 40
12.0
 40
12.0
 40
13.0
 40
13.0
 40
13.0
 40
14.0
 40
14.0
 40
14.0
 40
15.0
 40
15.0
 40
15.0
 40
16.0
 40
16.0
 40
16.0
 40
17.0
 40
17.0
 40
17.0
 40
18.0
 40
18.0
 40
18.0
 40
19.0
 40
19.0
 40
19.0
 40
20.0
 40
20.0
 40
20.0
 40
21.0
 40
21.0
 40
21.0
 40
22.0
 40
22.0
 40
22.0
 40
23.0
 40
23.0
 40
23.0
 40
23.0
 10
108.5263644476948
 20
-147.7968356292834
 10
108.5263644476948
 20
-147.7968356292834
 10
108.3658229980821
 20
-147.7968356292834
 10
108.3658229980821
 20
-147.7968356292834
 10
108.3658229980821
 20
-147.7968356292834
 10
108.3658229980821
 20
-147.9110405446195
 10
108.3658229980821
 20
-147.9110405446195
 10
108.3658229980821
 20
-147.9511759070226
 10
108.3720241699556
 20
-148.0252454599555
 10
108.3761582845379
 20
-148.0505669117721
 10
108.3761582845379
 20
-148.0505669117721
 10
108.1646294217435
 20
-148.0505669117721
 10
108.1646294217435
 20
-148.0505669117721
 10
108.1753092177478
 20
-147.9851100975523
 10
108.177376275039
 20
-147.925854455206
 10
108.177376275039
 20
-147.9236151431406
 10
108.177376275039
 20
-147.9236151431406
 10
108.177376275039
 20
-147.8009697438657
 10
108.177376275039
 20
-147.8009697438657
 10
108.177376275039
 20
-147.8009697438657
 10
107.9975422907089
 20
-147.8009697438657
 10
107.9975422907089
 20
-147.8009697438657
 10
107.9785942655401
 20
-147.860225386212
 10
107.9320854764892
 20
-148.0061251800123
 10
107.8177083063789
 20
-148.0886352168841
 10
107.8177083063789
 20
-148.0886352168841
 10
107.6613009713485
 20
-147.9828707854869
 10
107.6613009713485
 20
-147.9828707854869
 10
107.7353705242814
 20
-147.936361996436
 10
107.8514702421343
 20
-147.8622924435032
 10
107.8514702421343
 20
-147.5408650347293
 10
107.8514702421343
 20
-147.4857435069653
 10
107.847336127552
 20
-147.4413017752056
 10
107.8452690702609
 20
-147.4032334700936
 10
107.9214056804849
 20
-147.4116739540325
 10
107.9954752334178
 20
-147.4180473806802
 10
108.0588649903464
 20
-147.4180473806802
 10
108.2366319173853
 20
-147.4180473806802
 10
108.4354139268842
 20
-147.3587917383339
 10
108.4967366265216
 20
-147.3291639171607
 10
108.4967366265216
 20
-147.3291639171607
 10
108.6238606499273
 20
-147.4645561697311
 10
108.6238606499273
 20
-147.4645561697311
 10
108.6279947645097
 20
-147.4688625390876
 10
108.6300618218008
 20
-147.4773030230265
 10
108.6300618218008
 20
-147.4836764496742
 10
108.6300618218008
 20
-147.5048637869085
 10
108.6152479112142
 20
-147.5112372135562
 10
108.5983669433365
 20
-147.5112372135562
 10
108.5773518608765
 20
-147.5112372135562
 10
108.5625379502899
 20
-147.5027967296173
 10
108.5432454155725
 20
-147.4921169336131
 10
108.3699571126644
 20
-147.5493055186682
 10
108.1518825684481
 20
-147.5746269704848
 10
108.0185573731689
 20
-147.5766940277759
 10
108.0185573731689
 20
-147.5766940277759
 10
108.0144232585866
 20
-147.6592040646477
 10
108.0144232585866
 20
-147.6592040646477
 10
108.0144232585866
 20
-147.6592040646477
 10
108.2872748210184
 20
-147.6592040646477
 10
108.2872748210184
 20
-147.6592040646477
 10
108.3444634060736
 20
-147.6592040646477
 10
108.6069796820496
 20
-147.6402560394788
 10
108.6514214138093
 20
-147.6338826128311
 10
108.6514214138093
 20
-147.6338826128311
 10
108.6514214138093
 20
-147.8030368011568
 10
108.6514214138093
 20
-147.8030368011568
 10
108.6173149685054
 20
-147.7989026865746
 10
108.6045681152099
 20
-147.7968356292834
 10
108.5263644476948
 20
-147.7968356292834
 97
        0
 97
        1
330
DE
 92
        1
 93
        1
 72
     4
 94
        3
 73
     0
 74
     0
 95
       17
 96
       13
 40
0.0
 40
0.0
 40
0.0
 40
0.0
 40
1.0
 40
1.0
 40
1.0
 40
2.0
 40
2.0
 40
2.0
 40
3.0
 40
3.0
 40
3.0
 40
4.0
 40
4.0
 40
4.0
 40
4.0
 10
108.2090711535033
 20
-148.7402750279191
 10
108.2090711535033
 20
-148.7402750279191
 10
107.2974988881062
 20
-148.7402750279191
 10
107.2974988881062
 20
-148.7402750279191
 10
107.2974988881062
 20
-148.7402750279191
 10
107.2974988881062
 20
-148.8481065166074
 10
107.2974988881062
 20
-148.8481065166074
 10
107.2974988881062
 20
-148.8481065166074
 10
108.2090711535033
 20
-148.8481065166074
 10
108.2090711535033
 20
-148.8481065166074
 10
108.2090711535033
 20
-148.8481065166074
 10
108.2090711535033
 20
-148.7402750279191
 10
108.2090711535033
 20
-148.7402750279191
 97
        0
 97
        1
330
DF
 92
        1
 93
        1
 72
     4
 94
        3
 73
     0
 74
     0
 95
       17
 96
       13
 40
0.0
 40
0.0
 40
0.0
 40
0.0
 40
1.0
 40
1.0
 40
1.0
 40
2.0
 40
2.0
 40
2.0
 40
3.0
 40
3.0
 40
3.0
 40
4.0
 40
4.0
 40
4.0
 40
4.0
 10
108.2090711535033
 20
-148.494811974595
 10
108.2090711535033
 20
-148.494811974595
 10
107.2974988881062
 20
-148.494811974595
 10
107.2974988881062
 20
-148.494811974595
 10
107.2974988881062
 20
-148.494811974595
 10
107.2974988881062
 20
-148.6048827753488
 10
107.2974988881062
 20
-148.6048827753488
 10
107.2974988881062
 20
-148.6048827753488
 10
108.2090711535033
 20
-148.6048827753488
 10
108.2090711535033
 20
-148.6048827753488
 10
108.2090711535033
 20
-148.6048827753488
 10
108.2090711535033
 20
-148.494811974595
 10
108.2090711535033
 20
-148.494811974595
 97
        0
 97
        1
330
E0
 92
        1
 93
        1
 72
     4
 94
        3
 73
     0
 74
     0
 95
       17
 96
       13
 40
0.0
 40
0.0
 40
0.0
 40
0.0
 40
1.0
 40
1.0
 40
1.0
 40
2.0
 40
2.0
 40
2.0
 40
3.0
 40
3.0
 40
3.0
 40
4.0
 40
4.0
 40
4.0
 40
4.0
 10
108.2090711535033
 20
-148.2495211760453
 10
108.2090711535033
 20
-148.2495211760453
 10
107.2974988881062
 20
-148.2495211760453
 10
107.2974988881062
 20
-148.2495211760453
 10
107.2974988881062
 20
-148.2495211760453
 10
107.2974988881062
 20
-148.3616590340901
 10
107.2974988881062
 20
-148.3616590340901
 10
107.2974988881062
 20
-148.3616590340901
 10
108.2090711535033
 20
-148.3616590340901
 10
108.2090711535033
 20
-148.3616590340901
 10
108.2090711535033
 20
-148.3616590340901
 10
108.2090711535033
 20
-148.2495211760453
 10
108.2090711535033
 20
-148.2495211760453
 97
        0
 97
        1
330
E1
 92
        1
 93
        1
 72
     4
 94
        3
 73
     0
 74
     0
 95
       74
 96
       70
 40
0.0
 40
0.0
 40
0.0
 40
0.0
 40
1.0
 40
1.0
 40
1.0
 40
2.0
 40
2.0
 40
2.0
 40
3.0
 40
3.0
 40
3.0
 40
4.0
 40
4.0
 40
4.0
 40
5.0
 40
5.0
 40
5.0
 40
6.0
 40
6.0
 40
6.0
 40
7.0
 40
7.0
 40
7.0
 40
8.0
 40
8.0
 40
8.0
 40
9.0
 40
9.0
 40
9.0
 40
10.0
 40
10.0
 40
10.0
 40
11.0
 40
11.0
 40
11.0
 40
12.0
 40
12.0
 40
12.0
 40
13.0
 40
13.0
 40
13.0
 40
14.0
 40
14.0
 40
14.0
 40
15.0
 40
15.0
 40
15.0
 40
16.0
 40
16.0
 40
16.0
 40
17.0
 40
17.0
 40
17.0
 40
18.0
 40
18.0
 40
18.0
 40
19.0
 40
19.0
 40
19.0
 40
20.0
 40
20.0
 40
20.0
 40
21.0
 40
21.0
 40
21.0
 40
22.0
 40
22.0
 40
22.0
 40
23.0
 40
23.0
 40
23.0
 40
23.0
 10
108.5136175943993
 20
-149.2839110954915
 10
108.3000216743139
 20
-149.2732312994872
 10
108.0991726075238
 20
-149.1864148932589
 10
107.9234727377761
 20
-149.0658365512752
 10
107.9234727377761
 20
-149.0658365512752
 10
108.0209689400086
 20
-148.9793646545954
 10
108.0209689400086
 20
-148.9793646545954
 10
108.0209689400086
 20
-148.9793646545954
 10
107.4687201337231
 20
-148.9793646545954
 10
107.4687201337231
 20
-148.9793646545954
 10
107.4687201337231
 20
-148.9793646545954
 10
107.5489908585294
 20
-149.042754411524
 10
107.5489908585294
 20
-149.042754411524
 10
107.5555365399514
 20
-149.0468885261063
 10
107.5658718264071
 20
-149.0575683221106
 10
107.5658718264071
 20
-149.0723822326972
 10
107.5658718264071
 20
-149.1126898498746
 10
107.4918022734743
 20
-149.1061441684526
 10
107.4769883628877
 20
-149.1040771111615
 10
107.2465114749245
 20
-149.2436034783141
 10
107.1028509931895
 20
-149.2752983567784
 10
106.9991536190835
 20
-149.2921793246561
 10
106.9991536190835
 20
-149.2921793246561
 10
106.8699625383867
 20
-149.1147569071658
 10
106.8699625383867
 20
-149.1147569071658
 10
107.1176649037761
 20
-149.0830620287014
 10
107.2189507110425
 20
-149.036208730102
 10
107.3078341745619
 20
-148.9834987691777
 10
107.233764621629
 20
-148.9855658264689
 10
107.1197319610673
 20
-148.98763288376
 10
107.088037082603
 20
-148.9896999410512
 10
107.1028509931895
 20
-148.9008164775317
 10
107.1049180504807
 20
-148.7719699063834
 10
107.1049180504807
 20
-148.6979003534505
 10
107.1049180504807
 20
-148.6979003534505
 10
107.1049180504807
 20
-148.397660281911
 10
107.1049180504807
 20
-148.397660281911
 10
107.1049180504807
 20
-148.2980970223873
 10
107.0983723690587
 20
-148.1987060176378
 10
107.088037082603
 20
-148.1013820701795
 10
107.1893228898693
 20
-148.1077554968272
 10
107.420144287381
 20
-148.1141289234749
 10
107.5279757760694
 20
-148.1141289234749
 10
107.5279757760694
 20
-148.1141289234749
 10
107.951033501658
 20
-148.1141289234749
 10
107.951033501658
 20
-148.1141289234749
 10
108.0695447863506
 20
-148.1141289234749
 10
108.1119194608192
 20
-148.1141289234749
 10
108.1942572429167
 20
-148.1098225541184
 10
108.3423963487824
 20
-148.1034491274706
 10
108.3592773166602
 20
-148.1034491274706
 10
108.405786105711
 20
-148.1013820701795
 10
108.3975178765464
 20
-148.1818250497601
 10
108.3930392524156
 20
-148.3404716968558
 10
108.3930392524156
 20
-148.4229817337276
 10
108.3930392524156
 20
-148.4229817337276
 10
108.3930392524156
 20
-148.7085801494548
 10
108.3930392524156
 20
-148.7085801494548
 10
108.3930392524156
 20
-148.7804103903222
 10
108.3951063097068
 20
-148.911496273536
 10
108.405786105711
 20
-148.9896999410512
 10
108.3337836100693
 20
-148.9855658264689
 10
108.2111382107944
 20
-148.9834987691777
 10
108.1329345432793
 20
-148.9814317118866
 10
108.2428330892587
 20
-149.0489555833975
 10
108.3951063097068
 20
-149.0999429965792
 10
108.6069796820496
 20
-149.1040771111615
 10
108.6069796820496
 20
-149.1040771111615
 10
108.5136175943993
 20
-149.2839110954915
 10
108.5136175943993
 20
-149.2839110954915
 97
        0
 97
        1
330
E2
 92
        1
 93
        1
 72
     4
 94
        3
 73
     0
 74
     0
 95
       71
 96
       67
 40
0.0
 40
0.0
 40
0.0
 40
0.0
 40
1.0
 40
1.0
 40
1.0
 40
2.0
 40
2.0
 40
2.0
 40
3.0
 40
3.0
 40
3.0
 40
4.0
 40
4.0
 40
4.0
 40
5.0
 40
5.0
 40
5.0
 40
6.0
 40
6.0
 40
6.0
 40
7.0
 40
7.0
 40
7.0
 40
8.0
 40
8.0
 40
8.0
 40
9.0
 40
9.0
 40
9.0
 40
10.0
 40
10.0
 40
10.0
 40
11.0
 40
11.0
 40
11.0
 40
12.0
 40
12.0
 40
12.0
 40
13.0
 40
13.0
 40
13.0
 40
14.0
 40
14.0
 40
14.0
 40
15.0
 40
15.0
 40
15.0
 40
16.0
 40
16.0
 40
16.0
 40
17.0
 40
17.0
 40
17.0
 40
18.0
 40
18.0
 40
18.0
 40
19.0
 40
19.0
 40
19.0
 40
20.0
 40
20.0
 40
20.0
 40
21.0
 40
21.0
 40
21.0
 40
22.0
 40
22.0
 40
22.0
 40
22.0
 10
107.6761148819351
 20
-147.5174383854296
 10
107.6613009713485
 20
-147.5174383854296
 10
107.6485541180531
 20
-147.5133042708474
 10
107.6230604114623
 20
-147.5048637869085
 10
107.4814669870185
 20
-147.5513725759594
 10
107.3078341745619
 20
-147.5682535438371
 10
107.1683078074093
 20
-147.5725599131937
 10
107.1683078074093
 20
-147.5725599131937
 10
107.1662407501181
 20
-147.6614433767131
 10
107.1662407501181
 20
-147.6614433767131
 10
107.1662407501181
 20
-147.6614433767131
 10
107.4263454592545
 20
-147.6614433767131
 10
107.4263454592545
 20
-147.6614433767131
 10
107.4793999297273
 20
-147.6614433767131
 10
107.6613009713485
 20
-147.652830638
 10
107.7057427031083
 20
-147.6466294661265
 10
107.7057427031083
 20
-147.6466294661265
 10
107.7057427031083
 20
-147.8073431705134
 10
107.7057427031083
 20
-147.8073431705134
 10
107.6506211753443
 20
-147.8009697438657
 10
107.5259087187782
 20
-147.7989026865746
 10
107.487668158892
 20
-147.8009697438657
 10
107.487668158892
 20
-147.8009697438657
 10
107.487668158892
 20
-147.9110405446195
 10
107.487668158892
 20
-147.9110405446195
 10
107.487668158892
 20
-147.9575493336703
 10
107.4897352161831
 20
-148.0209390905989
 10
107.4962808976051
 20
-148.0590073957109
 10
107.4962808976051
 20
-148.0590073957109
 10
107.3037000599796
 20
-148.0590073957109
 10
107.3037000599796
 20
-148.0590073957109
 10
107.3099012318531
 20
-148.0188720333078
 10
107.316446913275
 20
-147.936361996436
 10
107.316446913275
 20
-147.9215480858495
 10
107.316446913275
 20
-147.9215480858495
 10
107.316446913275
 20
-147.8009697438657
 10
107.316446913275
 20
-147.8009697438657
 10
107.316446913275
 20
-147.8009697438657
 10
107.1514268395316
 20
-147.8009697438657
 10
107.1514268395316
 20
-147.8009697438657
 10
107.109052165063
 20
-148.0209390905989
 10
107.053930637299
 20
-148.1013820701795
 10
106.9481662059018
 20
-148.2007730749289
 10
106.9481662059018
 20
-148.2007730749289
 10
106.7810790748672
 20
-148.0865681595929
 10
106.7810790748672
 20
-148.0865681595929
 10
106.8444688317958
 20
-148.0379923132509
 10
106.9946749949527
 20
-147.925854455206
 10
106.9946749949527
 20
-147.5766940277759
 10
106.9946749949527
 20
-147.4941839909042
 10
106.9864067657881
 20
-147.4476752018533
 10
106.977794027075
 20
-147.3990993555113
 10
107.1238660756496
 20
-147.4139132660979
 10
107.1386799862361
 20
-147.4139132660979
 10
107.1745089792827
 20
-147.4139132660979
 10
107.2826849775196
 20
-147.4139132660979
 10
107.4242784019634
 20
-147.3968600434459
 10
107.5851643611245
 20
-147.3355373438085
 10
107.5851643611245
 20
-147.3355373438085
 10
107.6991970216863
 20
-147.4667954817965
 10
107.6991970216863
 20
-147.4667954817965
 10
107.7057427031083
 20
-147.4731689084442
 10
107.7098768176906
 20
-147.481609392383
 10
107.7098768176906
 20
-147.4900498763219
 10
107.7098768176906
 20
-147.5133042708474
 10
107.6909287925217
 20
-147.5174383854296
 10
107.6761148819351
 20
-147.5174383854296
 97
        0
 97
        1
330
E3
 75
     2
 76
     1
 98
        1
 10
0.0
 20
0.0
450
        0
451
        0
460
0.0
461
0.0
452
        0
462
0.0
453
        0
470

  0
SPLINE
  5
E5
330
D3
100
AcDbEntity
  8
レイヤー 1
100
AcDbSpline
210
0.0
220
0.0
230
1.0
 70
     9
 71
     3
 72
    53
 73
    49
 74
     0
 42
0.0000000001
 43
0.0000000001
 40
0.0
 40
0.0
 40
0.0
 40
0.0
 40
1.0
 40
1.0
 40
1.0
 40
2.0
 40
2.0
 40
2.0
 40
3.0
 40
3.0
 40
3.0
 40
4.0
 40
4.0
 40
4.0
 40
5.0
 40
5.0
 40
5.0
 40
6.0
 40
6.0
 40
6.0
 40
7.0
 40
7.0
 40
7.0
 40
8.0
 40
8.0
 40
8.0
 40
9.0
 40
9.0
 40
9.0
 40
10.0
 40
10.0
 40
10.0
 40
11.0
 40
11.0
 40
11.0
 40
12.0
 40
12.0
 40
12.0
 40
13.0
 40
13.0
 40
13.0
 40
14.0
 40
14.0
 40
14.0
 40
15.0
 40
15.0
 40
15.0
 40
16.0
 40
16.0
 40
16.0
 40
16.0
 10
109.2753282061881
 20
-149.1591986389255
 30
0.0
 10
109.0851589354023
 20
-149.1591986389255
 30
0.0
 10
109.025903293056
 20
-149.0341416728109
 30
0.0
 10
109.025903293056
 20
-148.8860025669452
 30
0.0
 10
109.025903293056
 20
-148.8860025669452
 30
0.0
 10
109.025903293056
 20
-148.1923325909901
 30
0.0
 10
109.025903293056
 20
-148.1923325909901
 30
0.0
 10
109.025903293056
 20
-148.1923325909901
 30
0.0
 10
108.8440022514348
 20
-148.1923325909901
 30
0.0
 10
108.8440022514348
 20
-148.1923325909901
 30
0.0
 10
108.8440022514348
 20
-148.1923325909901
 30
0.0
 10
108.8440022514348
 20
-147.9999240081389
 30
0.0
 10
108.8440022514348
 20
-147.9999240081389
 30
0.0
 10
108.8440022514348
 20
-147.9999240081389
 30
0.0
 10
109.025903293056
 20
-147.9999240081389
 30
0.0
 10
109.025903293056
 20
-147.9999240081389
 30
0.0
 10
109.025903293056
 20
-147.9999240081389
 30
0.0
 10
109.025903293056
 20
-147.6846977712385
 30
0.0
 10
109.025903293056
 20
-147.6846977712385
 30
0.0
 10
109.025903293056
 20
-147.6846977712385
 30
0.0
 10
109.2436333277238
 20
-147.6846977712385
 30
0.0
 10
109.2436333277238
 20
-147.6846977712385
 30
0.0
 10
109.2436333277238
 20
-147.6846977712385
 30
0.0
 10
109.2436333277238
 20
-147.9999240081389
 30
0.0
 10
109.2436333277238
 20
-147.9999240081389
 30
0.0
 10
109.2436333277238
 20
-147.9999240081389
 30
0.0
 10
109.4341471080581
 20
-147.9999240081389
 30
0.0
 10
109.4341471080581
 20
-147.9999240081389
 30
0.0
 10
109.4341471080581
 20
-147.9999240081389
 30
0.0
 10
109.4341471080581
 20
-148.1923325909901
 30
0.0
 10
109.4341471080581
 20
-148.1923325909901
 30
0.0
 10
109.4341471080581
 20
-148.1923325909901
 30
0.0
 10
109.2436333277238
 20
-148.1923325909901
 30
0.0
 10
109.2436333277238
 20
-148.1923325909901
 30
0.0
 10
109.2436333277238
 20
-148.1923325909901
 30
0.0
 10
109.2436333277238
 20
-148.8608533699028
 30
0.0
 10
109.2436333277238
 20
-148.8608533699028
 30
0.0
 10
109.2436333277238
 20
-148.9452582092915
 30
0.0
 10
109.2966877981967
 20
-148.9686848585911
 30
0.0
 10
109.3683457842898
 20
-148.9686848585911
 30
0.0
 10
109.3790255802941
 20
-148.9686848585911
 30
0.0
 10
109.4024522295938
 20
-148.9686848585911
 30
0.0
 10
109.4341471080581
 20
-148.9645507440088
 30
0.0
 10
109.4341471080581
 20
-148.9645507440088
 30
0.0
 10
109.4341471080581
 20
-149.1357719896258
 30
0.0
 10
109.4341471080581
 20
-149.1357719896258
 30
0.0
 10
109.4003851723027
 20
-149.1485188429212
 30
0.0
 10
109.3263156193698
 20
-149.1591986389255
 30
0.0
 10
109.2753282061881
 20
-149.1591986389255
 30
0.0
  0
HATCH
  5
E6
330
D3
100
AcDbEntity
  8
レイヤー 1
 62
   250
420
  2299925
440
 33554687
100
AcDbHatch
 10
0.0
 20
0.0
 30
0.0
210
0.0
220
0.0
230
1.0
  2
SOLID
 70
     1
 71
     1
 91
        1
 92
        1
 93
        1
 72
     4
 94
        3
 73
     0
 74
     0
 95
       53
 96
       49
 40
0.0
 40
0.0
 40
0.0
 40
0.0
 40
1.0
 40
1.0
 40
1.0
 40
2.0
 40
2.0
 40
2.0
 40
3.0
 40
3.0
 40
3.0
 40
4.0
 40
4.0
 40
4.0
 40
5.0
 40
5.0
 40
5.0
 40
6.0
 40
6.0
 40
6.0
 40
7.0
 40
7.0
 40
7.0
 40
8.0
 40
8.0
 40
8.0
 40
9.0
 40
9.0
 40
9.0
 40
10.0
 40
10.0
 40
10.0
 40
11.0
 40
11.0
 40
11.0
 40
12.0
 40
12.0
 40
12.0
 40
13.0
 40
13.0
 40
13.0
 40
14.0
 40
14.0
 40
14.0
 40
15.0
 40
15.0
 40
15.0
 40
16.0
 40
16.0
 40
16.0
 40
16.0
 10
109.2753282061881
 20
-149.1591986389255
 10
109.0851589354023
 20
-149.1591986389255
 10
109.025903293056
 20
-149.0341416728109
 10
109.025903293056
 20
-148.8860025669452
 10
109.025903293056
 20
-148.8860025669452
 10
109.025903293056
 20
-148.1923325909901
 10
109.025903293056
 20
-148.1923325909901
 10
109.025903293056
 20
-148.1923325909901
 10
108.8440022514348
 20
-148.1923325909901
 10
108.8440022514348
 20
-148.1923325909901
 10
108.8440022514348
 20
-148.1923325909901
 10
108.8440022514348
 20
-147.9999240081389
 10
108.8440022514348
 20
-147.9999240081389
 10
108.8440022514348
 20
-147.9999240081389
 10
109.025903293056
 20
-147.9999240081389
 10
109.025903293056
 20
-147.9999240081389
 10
109.025903293056
 20
-147.9999240081389
 10
109.025903293056
 20
-147.6846977712385
 10
109.025903293056
 20
-147.6846977712385
 10
109.025903293056
 20
-147.6846977712385
 10
109.2436333277238
 20
-147.6846977712385
 10
109.2436333277238
 20
-147.6846977712385
 10
109.2436333277238
 20
-147.6846977712385
 10
109.2436333277238
 20
-147.9999240081389
 10
109.2436333277238
 20
-147.9999240081389
 10
109.2436333277238
 20
-147.9999240081389
 10
109.4341471080581
 20
-147.9999240081389
 10
109.4341471080581
 20
-147.9999240081389
 10
109.4341471080581
 20
-147.9999240081389
 10
109.4341471080581
 20
-148.1923325909901
 10
109.4341471080581
 20
-148.1923325909901
 10
109.4341471080581
 20
-148.1923325909901
 10
109.2436333277238
 20
-148.1923325909901
 10
109.2436333277238
 20
-148.1923325909901
 10
109.2436333277238
 20
-148.1923325909901
 10
109.2436333277238
 20
-148.8608533699028
 10
109.2436333277238
 20
-148.8608533699028
 10
109.2436333277238
 20
-148.9452582092915
 10
109.2966877981967
 20
-148.9686848585911
 10
109.3683457842898
 20
-148.9686848585911
 10
109.3790255802941
 20
-148.9686848585911
 10
109.4024522295938
 20
-148.9686848585911
 10
109.4341471080581
 20
-148.9645507440088
 10
109.4341471080581
 20
-148.9645507440088
 10
109.4341471080581
 20
-149.1357719896258
 10
109.4341471080581
 20
-149.1357719896258
 10
109.4003851723027
 20
-149.1485188429212
 10
109.3263156193698
 20
-149.1591986389255
 10
109.2753282061881
 20
-149.1591986389255
 97
        0
 97
        1
330
E5
 75
     2
 76
     1
 98
        1
 10
0.0
 20
0.0
450
        0
451
        0
460
0.0
461
0.0
452
        0
462
0.0
453
        0
470

  0
SPLINE
  5
E7
330
D3
100
AcDbEntity
  8
レイヤー 1
100
AcDbSpline
210
0.0
220
0.0
230
1.0
 70
    11
 71
     3
 72
    17
 73
    13
 74
     0
 42
0.0000000001
 43
0.0000000001
 40
0.0
 40
0.0
 40
0.0
 40
0.0
 40
1.0
 40
1.0
 40
1.0
 40
2.0
 40
2.0
 40
2.0
 40
3.0
 40
3.0
 40
3.0
 40
4.0
 40
4.0
 40
4.0
 40
4.0
 10
109.6081244300632
 20
-148.6556979337562
 30
0.0
 10
109.6081244300632
 20
-148.6556979337562
 30
0.0
 10
109.6081244300632
 20
-148.4505424976096
 30
0.0
 10
109.6081244300632
 20
-148.4505424976096
 30
0.0
 10
109.6081244300632
 20
-148.4505424976096
 30
0.0
 10
110.7863470860187
 20
-148.4505424976096
 30
0.0
 10
110.7863470860187
 20
-148.4505424976096
 30
0.0
 10
110.7863470860187
 20
-148.4505424976096
 30
0.0
 10
110.7863470860187
 20
-148.6556979337562
 30
0.0
 10
110.7863470860187
 20
-148.6556979337562
 30
0.0
 10
110.7863470860187
 20
-148.6556979337562
 30
0.0
 10
109.6081244300632
 20
-148.6556979337562
 30
0.0
 10
109.6081244300632
 20
-148.6556979337562
 30
0.0
  0
SPLINE
  5
E8
330
D3
100
AcDbEntity
  8
レイヤー 1
100
AcDbSpline
210
0.0
220
0.0
230
1.0
 70
    11
 71
     3
 72
    17
 73
    13
 74
     0
 42
0.0000000001
 43
0.0000000001
 40
0.0
 40
0.0
 40
0.0
 40
0.0
 40
1.0
 40
1.0
 40
1.0
 40
2.0
 40
2.0
 40
2.0
 40
3.0
 40
3.0
 40
3.0
 40
4.0
 40
4.0
 40
4.0
 40
4.0
 10
109.6081244300632
 20
-148.2219604121632
 30
0.0
 10
109.6081244300632
 20
-148.2219604121632
 30
0.0
 10
109.6081244300632
 20
-148.0168049760166
 30
0.0
 10
109.6081244300632
 20
-148.0168049760166
 30
0.0
 10
109.6081244300632
 20
-148.0168049760166
 30
0.0
 10
110.7863470860187
 20
-148.0168049760166
 30
0.0
 10
110.7863470860187
 20
-148.0168049760166
 30
0.0
 10
110.7863470860187
 20
-148.0168049760166
 30
0.0
 10
110.7863470860187
 20
-148.2219604121632
 30
0.0
 10
110.7863470860187
 20
-148.2219604121632
 30
0.0
 10
110.7863470860187
 20
-148.2219604121632
 30
0.0
 10
109.6081244300632
 20
-148.2219604121632
 30
0.0
 10
109.6081244300632
 20
-148.2219604121632
 30
0.0
  0
HATCH
  5
E9
330
D3
100
AcDbEntity
  8
レイヤー 1
 62
   250
420
  2299925
440
 33554687
100
AcDbHatch
 10
0.0
 20
0.0
 30
0.0
210
0.0
220
0.0
230
1.0
  2
SOLID
 70
     1
 71
     1
 91
        2
 92
        1
 93
        1
 72
     4
 94
        3
 73
     0
 74
     0
 95
       17
 96
       13
 40
0.0
 40
0.0
 40
0.0
 40
0.0
 40
1.0
 40
1.0
 40
1.0
 40
2.0
 40
2.0
 40
2.0
 40
3.0
 40
3.0
 40
3.0
 40
4.0
 40
4.0
 40
4.0
 40
4.0
 10
109.6081244300632
 20
-148.6556979337562
 10
109.6081244300632
 20
-148.6556979337562
 10
109.6081244300632
 20
-148.4505424976096
 10
109.6081244300632
 20
-148.4505424976096
 10
109.6081244300632
 20
-148.4505424976096
 10
110.7863470860187
 20
-148.4505424976096
 10
110.7863470860187
 20
-148.4505424976096
 10
110.7863470860187
 20
-148.4505424976096
 10
110.7863470860187
 20
-148.6556979337562
 10
110.7863470860187
 20
-148.6556979337562
 10
110.7863470860187
 20
-148.6556979337562
 10
109.6081244300632
 20
-148.6556979337562
 10
109.6081244300632
 20
-148.6556979337562
 97
        0
 97
        1
330
E7
 92
        1
 93
        1
 72
     4
 94
        3
 73
     0
 74
     0
 95
       17
 96
       13
 40
0.0
 40
0.0
 40
0.0
 40
0.0
 40
1.0
 40
1.0
 40
1.0
 40
2.0
 40
2.0
 40
2.0
 40
3.0
 40
3.0
 40
3.0
 40
4.0
 40
4.0
 40
4.0
 40
4.0
 10
109.6081244300632
 20
-148.2219604121632
 10
109.6081244300632
 20
-148.2219604121632
 10
109.6081244300632
 20
-148.0168049760166
 10
109.6081244300632
 20
-148.0168049760166
 10
109.6081244300632
 20
-148.0168049760166
 10
110.7863470860187
 20
-148.0168049760166
 10
110.7863470860187
 20
-148.0168049760166
 10
110.7863470860187
 20
-148.0168049760166
 10
110.7863470860187
 20
-148.2219604121632
 10
110.7863470860187
 20
-148.2219604121632
 10
110.7863470860187
 20
-148.2219604121632
 10
109.6081244300632
 20
-148.2219604121632
 10
109.6081244300632
 20
-148.2219604121632
 97
        0
 97
        1
330
E8
 75
     2
 76
     1
 98
        1
 10
0.0
 20
0.0
450
        0
451
        0
460
0.0
461
0.0
452
        0
462
0.0
453
        0
470

  0
SPLINE
  5
EA
330
D3
100
AcDbEntity
  8
レイヤー 1
100
AcDbSpline
210
0.0
220
0.0
230
1.0
 70
    11
 71
     3
 72
    26
 73
    22
 74
     0
 42
0.0000000001
 43
0.0000000001
 40
0.0
 40
0.0
 40
0.0
 40
0.0
 40
1.0
 40
1.0
 40
1.0
 40
2.0
 40
2.0
 40
2.0
 40
3.0
 40
3.0
 40
3.0
 40
4.0
 40
4.0
 40
4.0
 40
5.0
 40
5.0
 40
5.0
 40
6.0
 40
6.0
 40
6.0
 40
7.0
 40
7.0
 40
7.0
 40
7.0
 10
111.4626193297732
 20
-149.1082112257438
 30
0.0
 10
111.4626193297732
 20
-149.1082112257438
 30
0.0
 10
111.4626193297732
 20
-148.0040581227212
 30
0.0
 10
111.4626193297732
 20
-148.0040581227212
 30
0.0
 10
111.4626193297732
 20
-148.0040581227212
 30
0.0
 10
111.1325791822863
 20
-148.0040581227212
 30
0.0
 10
111.1325791822863
 20
-148.0040581227212
 30
0.0
 10
111.1325791822863
 20
-148.0040581227212
 30
0.0
 10
111.1325791822863
 20
-147.8560912716297
 30
0.0
 10
111.1325791822863
 20
-147.8560912716297
 30
0.0
 10
111.4646863870644
 20
-147.8412773610431
 30
0.0
 10
111.5111951761152
 20
-147.6783243445908
 30
0.0
 10
111.5408229972884
 20
-147.5641194292548
 30
0.0
 10
111.5408229972884
 20
-147.5641194292548
 30
0.0
 10
111.686895045863
 20
-147.5641194292548
 30
0.0
 10
111.686895045863
 20
-147.5641194292548
 30
0.0
 10
111.686895045863
 20
-147.5641194292548
 30
0.0
 10
111.686895045863
 20
-149.1082112257438
 30
0.0
 10
111.686895045863
 20
-149.1082112257438
 30
0.0
 10
111.686895045863
 20
-149.1082112257438
 30
0.0
 10
111.4626193297732
 20
-149.1082112257438
 30
0.0
 10
111.4626193297732
 20
-149.1082112257438
 30
0.0
  0
HATCH
  5
EB
330
D3
100
AcDbEntity
  8
レイヤー 1
 62
   250
420
  2299925
440
 33554687
100
AcDbHatch
 10
0.0
 20
0.0
 30
0.0
210
0.0
220
0.0
230
1.0
  2
SOLID
 70
     1
 71
     1
 91
        1
 92
        1
 93
        1
 72
     4
 94
        3
 73
     0
 74
     0
 95
       26
 96
       22
 40
0.0
 40
0.0
 40
0.0
 40
0.0
 40
1.0
 40
1.0
 40
1.0
 40
2.0
 40
2.0
 40
2.0
 40
3.0
 40
3.0
 40
3.0
 40
4.0
 40
4.0
 40
4.0
 40
5.0
 40
5.0
 40
5.0
 40
6.0
 40
6.0
 40
6.0
 40
7.0
 40
7.0
 40
7.0
 40
7.0
 10
111.4626193297732
 20
-149.1082112257438
 10
111.4626193297732
 20
-149.1082112257438
 10
111.4626193297732
 20
-148.0040581227212
 10
111.4626193297732
 20
-148.0040581227212
 10
111.4626193297732
 20
-148.0040581227212
 10
111.1325791822863
 20
-148.0040581227212
 10
111.1325791822863
 20
-148.0040581227212
 10
111.1325791822863
 20
-148.0040581227212
 10
111.1325791822863
 20
-147.8560912716297
 10
111.1325791822863
 20
-147.8560912716297
 10
111.4646863870644
 20
-147.8412773610431
 10
111.5111951761152
 20
-147.6783243445908
 10
111.5408229972884
 20
-147.5641194292548
 10
111.5408229972884
 20
-147.5641194292548
 10
111.686895045863
 20
-147.5641194292548
 10
111.686895045863
 20
-147.5641194292548
 10
111.686895045863
 20
-147.5641194292548
 10
111.686895045863
 20
-149.1082112257438
 10
111.686895045863
 20
-149.1082112257438
 10
111.686895045863
 20
-149.1082112257438
 10
111.4626193297732
 20
-149.1082112257438
 10
111.4626193297732
 20
-149.1082112257438
 97
        0
 97
        1
330
EA
 75
     2
 76
     1
 98
        1
 10
0.0
 20
0.0
450
        0
451
        0
460
0.0
461
0.0
452
        0
462
0.0
453
        0
470

  0
SPLINE
  5
EC
330
D3
100
AcDbEntity
  8
レイヤー 1
100
AcDbSpline
210
0.0
220
0.0
230
1.0
 70
    11
 71
     3
 72
    17
 73
    13
 74
     0
 42
0.0000000001
 43
0.0000000001
 40
0.0
 40
0.0
 40
0.0
 40
0.0
 40
1.0
 40
1.0
 40
1.0
 40
2.0
 40
2.0
 40
2.0
 40
3.0
 40
3.0
 40
3.0
 40
4.0
 40
4.0
 40
4.0
 40
4.0
 10
112.2487901195072
 20
-149.1082112257438
 30
0.0
 10
112.2487901195072
 20
-149.1082112257438
 30
0.0
 10
112.2487901195072
 20
-148.8567192553205
 30
0.0
 10
112.2487901195072
 20
-148.8567192553205
 30
0.0
 10
112.2487901195072
 20
-148.8567192553205
 30
0.0
 10
112.500626599479
 20
-148.8567192553205
 30
0.0
 10
112.500626599479
 20
-148.8567192553205
 30
0.0
 10
112.500626599479
 20
-148.8567192553205
 30
0.0
 10
112.500626599479
 20
-149.1082112257438
 30
0.0
 10
112.500626599479
 20
-149.1082112257438
 30
0.0
 10
112.500626599479
 20
-149.1082112257438
 30
0.0
 10
112.2487901195072
 20
-149.1082112257438
 30
0.0
 10
112.2487901195072
 20
-149.1082112257438
 30
0.0
  0
HATCH
  5
ED
330
D3
100
AcDbEntity
  8
レイヤー 1
 62
   250
420
  2299925
440
 33554687
100
AcDbHatch
 10
0.0
 20
0.0
 30
0.0
210
0.0
220
0.0
230
1.0
  2
SOLID
 70
     1
 71
     1
 91
        1
 92
        1
 93
        1
 72
     4
 94
        3
 73
     0
 74
     0
 95
       17
 96
       13
 40
0.0
 40
0.0
 40
0.0
 40
0.0
 40
1.0
 40
1.0
 40
1.0
 40
2.0
 40
2.0
 40
2.0
 40
3.0
 40
3.0
 40
3.0
 40
4.0
 40
4.0
 40
4.0
 40
4.0
 10
112.2487901195072
 20
-149.1082112257438
 10
112.2487901195072
 20
-149.1082112257438
 10
112.2487901195072
 20
-148.8567192553205
 10
112.2487901195072
 20
-148.8567192553205
 10
112.2487901195072
 20
-148.8567192553205
 10
112.500626599479
 20
-148.8567192553205
 10
112.500626599479
 20
-148.8567192553205
 10
112.500626599479
 20
-148.8567192553205
 10
112.500626599479
 20
-149.1082112257438
 10
112.500626599479
 20
-149.1082112257438
 10
112.500626599479
 20
-149.1082112257438
 10
112.2487901195072
 20
-149.1082112257438
 10
112.2487901195072
 20
-149.1082112257438
 97
        0
 97
        1
330
EC
 75
     2
 76
     1
 98
        1
 10
0.0
 20
0.0
450
        0
451
        0
460
0.0
461
0.0
452
        0
462
0.0
453
        0
470

  0
SPLINE
  5
EE
330
D3
100
AcDbEntity
  8
レイヤー 1
100
AcDbSpline
210
0.0
220
0.0
230
1.0
 70
     9
 71
     3
 72
    17
 73
    13
 74
     0
 42
0.0000000001
 43
0.0000000001
 40
0.0
 40
0.0
 40
0.0
 40
0.0
 40
1.0
 40
1.0
 40
1.0
 40
2.0
 40
2.0
 40
2.0
 40
3.0
 40
3.0
 40
3.0
 40
4.0
 40
4.0
 40
4.0
 40
4.0
 10
113.2368435046769
 20
-147.707952165764
 30
0.0
 10
112.9874185915448
 20
-147.707952165764
 30
0.0
 10
112.9405652929454
 20
-147.9914835242
 30
0.0
 10
112.9405652929454
 20
-148.3361653274993
 30
0.0
 10
112.9405652929454
 20
-148.6556979337562
 30
0.0
 10
112.9767387955405
 20
-148.9645507440088
 30
0.0
 10
113.2368435046769
 20
-148.9645507440088
 30
0.0
 10
113.4845458700664
 20
-148.9645507440088
 30
0.0
 10
113.5331217164084
 20
-148.6830864428639
 30
0.0
 10
113.5331217164084
 20
-148.3361653274993
 30
0.0
 10
113.5331217164084
 20
-148.0168049760166
 30
0.0
 10
113.4948811565221
 20
-147.707952165764
 30
0.0
 10
113.2368435046769
 20
-147.707952165764
 30
0.0
  0
SPLINE
  5
EF
330
D3
100
AcDbEntity
  8
レイヤー 1
100
AcDbSpline
210
0.0
220
0.0
230
1.0
 70
     9
 71
     3
 72
    29
 73
    25
 74
     0
 42
0.0000000001
 43
0.0000000001
 40
0.0
 40
0.0
 40
0.0
 40
0.0
 40
1.0
 40
1.0
 40
1.0
 40
2.0
 40
2.0
 40
2.0
 40
3.0
 40
3.0
 40
3.0
 40
4.0
 40
4.0
 40
4.0
 40
5.0
 40
5.0
 40
5.0
 40
6.0
 40
6.0
 40
6.0
 40
7.0
 40
7.0
 40
7.0
 40
8.0
 40
8.0
 40
8.0
 40
8.0
 10
113.6347520332232
 20
-148.9304442987049
 30
0.0
 10
113.5265760349864
 20
-149.1399061042081
 30
0.0
 10
113.3532877320783
 20
-149.1591986389255
 30
0.0
 10
113.2368435046769
 20
-149.1591986389255
 30
0.0
 10
113.0759575455157
 20
-149.1591986389255
 30
0.0
 10
112.9343641210719
 20
-149.1126898498746
 30
0.0
 10
112.839279485679
 20
-148.9304442987049
 30
0.0
 10
112.735582111573
 20
-148.7359686585625
 30
0.0
 10
112.7166340864041
 20
-148.4991183439516
 30
0.0
 10
112.7166340864041
 20
-148.3361653274993
 30
0.0
 10
112.7166340864041
 20
-148.1923325909901
 30
0.0
 10
112.7335150542819
 20
-147.9406683657926
 30
0.0
 10
112.839279485679
 20
-147.7417141015194
 30
0.0
 10
112.9471109743674
 20
-147.5386257226639
 30
0.0
 10
113.1079969335285
 20
-147.5153713281385
 30
0.0
 10
113.2368435046769
 20
-147.5153713281385
 30
0.0
 10
113.3956624065469
 20
-147.5153713281385
 30
0.0
 10
113.5393228882818
 20
-147.5598130598982
 30
0.0
 10
113.6347520332232
 20
-147.7417141015194
 30
0.0
 10
113.7339707831984
 20
-147.9342949391449
 30
0.0
 10
113.7573974324981
 20
-148.1627047698169
 30
0.0
 10
113.7573974324981
 20
-148.3361653274993
 30
0.0
 10
113.7573974324981
 20
-148.5075588278905
 30
0.0
 10
113.7360378404896
 20
-148.738207970628
 30
0.0
 10
113.6347520332232
 20
-148.9304442987049
 30
0.0
  0
HATCH
  5
F0
330
D3
100
AcDbEntity
  8
レイヤー 1
 62
   250
420
  2299925
440
 33554687
100
AcDbHatch
 10
0.0
 20
0.0
 30
0.0
210
0.0
220
0.0
230
1.0
  2
SOLID
 70
     1
 71
     1
 91
        2
 92
        1
 93
        1
 72
     4
 94
        3
 73
     0
 74
     0
 95
       17
 96
       13
 40
0.0
 40
0.0
 40
0.0
 40
0.0
 40
1.0
 40
1.0
 40
1.0
 40
2.0
 40
2.0
 40
2.0
 40
3.0
 40
3.0
 40
3.0
 40
4.0
 40
4.0
 40
4.0
 40
4.0
 10
113.2368435046769
 20
-147.707952165764
 10
112.9874185915448
 20
-147.707952165764
 10
112.9405652929454
 20
-147.9914835242
 10
112.9405652929454
 20
-148.3361653274993
 10
112.9405652929454
 20
-148.6556979337562
 10
112.9767387955405
 20
-148.9645507440088
 10
113.2368435046769
 20
-148.9645507440088
 10
113.4845458700664
 20
-148.9645507440088
 10
113.5331217164084
 20
-148.6830864428639
 10
113.5331217164084
 20
-148.3361653274993
 10
113.5331217164084
 20
-148.0168049760166
 10
113.4948811565221
 20
-147.707952165764
 10
113.2368435046769
 20
-147.707952165764
 97
        0
 97
        1
330
EE
 92
        1
 93
        1
 72
     4
 94
        3
 73
     0
 74
     0
 95
       29
 96
       25
 40
0.0
 40
0.0
 40
0.0
 40
0.0
 40
1.0
 40
1.0
 40
1.0
 40
2.0
 40
2.0
 40
2.0
 40
3.0
 40
3.0
 40
3.0
 40
4.0
 40
4.0
 40
4.0
 40
5.0
 40
5.0
 40
5.0
 40
6.0
 40
6.0
 40
6.0
 40
7.0
 40
7.0
 40
7.0
 40
8.0
 40
8.0
 40
8.0
 40
8.0
 10
113.6347520332232
 20
-148.9304442987049
 10
113.5265760349864
 20
-149.1399061042081
 10
113.3532877320783
 20
-149.1591986389255
 10
113.2368435046769
 20
-149.1591986389255
 10
113.0759575455157
 20
-149.1591986389255
 10
112.9343641210719
 20
-149.1126898498746
 10
112.839279485679
 20
-148.9304442987049
 10
112.735582111573
 20
-148.7359686585625
 10
112.7166340864041
 20
-148.4991183439516
 10
112.7166340864041
 20
-148.3361653274993
 10
112.7166340864041
 20
-148.1923325909901
 10
112.7335150542819
 20
-147.9406683657926
 10
112.839279485679
 20
-147.7417141015194
 10
112.9471109743674
 20
-147.5386257226639
 10
113.1079969335285
 20
-147.5153713281385
 10
113.2368435046769
 20
-147.5153713281385
 10
113.3956624065469
 20
-147.5153713281385
 10
113.5393228882818
 20
-147.5598130598982
 10
113.6347520332232
 20
-147.7417141015194
 10
113.7339707831984
 20
-147.9342949391449
 10
113.7573974324981
 20
-148.1627047698169
 10
113.7573974324981
 20
-148.3361653274993
 10
113.7573974324981
 20
-148.5075588278905
 10
113.7360378404896
 20
-148.738207970628
 10
113.6347520332232
 20
-148.9304442987049
 97
        0
 97
        1
330
EF
 75
     2
 76
     1
 98
        1
 10
0.0
 20
0.0
450
        0
451
        0
460
0.0
461
0.0
452
        0
462
0.0
453
        0
470

  0
ENDBLK
  5
D6
330
D3
100
AcDbEntity
  8
0
100
AcDbBlockEnd
  0
BLOCK
  5
F9
330
F7
100
AcDbEntity
  8
0
100
AcDbBlockBegin
  2
Block_16
 70
     0
 10
0.0
 20
0.0
 30
0.0
  3
Block_16
  1

  0
LWPOLYLINE
  5
FB
330
F7
100
AcDbEntity
  8
レイヤー 1
 62
   250
420
  2299925
370
    25
100
AcDbPolyline
 90
        4
 70
     1
 43
0.0
 10
92.44353721143067
 20
-147.9114278723933
 10
91.44353721168057
 20
-147.9114278723933
 10
91.84353721158016
 20
-129.0963488666424
 10
92.44353721143067
 20
-129.0963488666424
  0
LWPOLYLINE
  5
FC
330
F7
100
AcDbEntity
  8
レイヤー 1
 62
   250
420
  2299925
370
    25
100
AcDbPolyline
 90
        4
 70
     1
 43
0.0
 10
125.5946053660611
 20
-162.8474170449654
 10
106.7823699764106
 20
-163.2474170448653
 10
106.7823699764106
 20
-162.2474170451149
 10
125.5946053660611
 20
-162.2474170451149
  0
LWPOLYLINE
  5
FD
330
F7
100
AcDbEntity
  8
レイヤー 1
 62
   250
420
  2299925
370
    25
100
AcDbPolyline
 90
        4
 70
     1
 43
0.0
 10
104.7365984413362
 20
-162.389410107215
 10
92.30633666618032
 20
-149.9591483323774
 10
93.01344344717453
 20
-149.2520415513511
 10
105.4437052223304
 20
-161.68230332619
  0
SPLINE
  5
FE
330
F7
100
AcDbEntity
  8
レイヤー 1
 62
   250
420
  2299925
370
    25
100
AcDbSpline
210
0.0
220
0.0
230
1.0
 70
    11
 71
     3
 72
    29
 73
    25
 74
     0
 42
0.0000000001
 43
0.0000000001
 40
0.0
 40
0.0
 40
0.0
 40
0.0
 40
1.0
 40
1.0
 40
1.0
 40
2.0
 40
2.0
 40
2.0
 40
3.0
 40
3.0
 40
3.0
 40
4.0
 40
4.0
 40
4.0
 40
5.0
 40
5.0
 40
5.0
 40
6.0
 40
6.0
 40
6.0
 40
7.0
 40
7.0
 40
7.0
 40
8.0
 40
8.0
 40
8.0
 40
8.0
 10
106.7824231562386
 20
-163.2513431021497
 30
0.0
 10
106.7824231562386
 20
-163.2513431021497
 30
0.0
 10
106.3888209970488
 20
-163.2513431021497
 30
0.0
 10
106.3888209970488
 20
-163.2513431021497
 30
0.0
 10
105.8500080631557
 20
-163.2513431021497
 30
0.0
 10
105.4936129352066
 20
-163.1684885557294
 30
0.0
 10
105.0414441527679
 20
-162.7164920280646
 30
0.0
 10
105.0414441527679
 20
-162.7164920280646
 30
0.0
 10
104.7232895847051
 20
-162.3983374600018
 30
0.0
 10
104.7232895847051
 20
-162.3983374600018
 30
0.0
 10
104.7232895847051
 20
-162.3983374600018
 30
0.0
 10
105.4302231782783
 20
-161.69105935688
 30
0.0
 10
105.4302231782783
 20
-161.69105935688
 30
0.0
 10
105.4302231782783
 20
-161.69105935688
 30
0.0
 10
105.7485500011151
 20
-162.0092139249429
 30
0.0
 10
105.7485500011151
 20
-162.0092139249429
 30
0.0
 10
105.9726534624306
 20
-162.2333173862583
 30
0.0
 10
106.0508571299458
 20
-162.2512318827816
 30
0.0
 10
106.3888209970488
 20
-162.2512318827816
 30
0.0
 10
106.3888209970488
 20
-162.2512318827816
 30
0.0
 10
106.7824231562386
 20
-162.2512318827816
 30
0.0
 10
106.7824231562386
 20
-162.2512318827816
 30
0.0
 10
106.7824231562386
 20
-162.2512318827816
 30
0.0
 10
106.7824231562386
 20
-163.2513431021497
 30
0.0
 10
106.7824231562386
 20
-163.2513431021497
 30
0.0
  0
SPLINE
  5
FF
330
F7
100
AcDbEntity
  8
レイヤー 1
 62
   250
420
  2299925
370
    25
100
AcDbSpline
210
0.0
220
0.0
230
1.0
 70
    11
 71
     3
 72
    29
 73
    25
 74
     0
 42
0.0000000001
 43
0.0000000001
 40
0.0
 40
0.0
 40
0.0
 40
0.0
 40
1.0
 40
1.0
 40
1.0
 40
2.0
 40
2.0
 40
2.0
 40
3.0
 40
3.0
 40
3.0
 40
4.0
 40
4.0
 40
4.0
 40
5.0
 40
5.0
 40
5.0
 40
6.0
 40
6.0
 40
6.0
 40
7.0
 40
7.0
 40
7.0
 40
8.0
 40
8.0
 40
8.0
 40
8.0
 10
92.29684564542381
 20
-149.9718935207205
 30
0.0
 10
92.29684564542381
 20
-149.9718935207205
 30
0.0
 10
91.97834656781246
 20
-149.6535666978834
 30
0.0
 10
91.97834656781246
 20
-149.6535666978834
 30
0.0
 10
91.52083788737128
 20
-149.195885762668
 30
0.0
 10
91.44349549372744
 20
-148.8835878569301
 30
0.0
 10
91.44349549372744
 20
-148.3570050120094
 30
0.0
 10
91.44349549372744
 20
-148.3570050120094
 30
0.0
 10
91.44349549372744
 20
-147.9113819109923
 30
0.0
 10
91.44349549372744
 20
-147.9113819109923
 30
0.0
 10
91.44349549372744
 20
-147.9113819109923
 30
0.0
 10
92.44360671309546
 20
-147.9113819109923
 30
0.0
 10
92.44360671309546
 20
-147.9113819109923
 30
0.0
 10
92.44360671309546
 20
-147.9113819109923
 30
0.0
 10
92.44360671309546
 20
-148.3570050120094
 30
0.0
 10
92.44360671309546
 20
-148.3570050120094
 30
0.0
 10
92.44360671309546
 20
-148.6581063574202
 30
0.0
 10
92.44360671309546
 20
-148.7044428916968
 30
0.0
 10
92.68562467093426
 20
-148.9462885947617
 30
0.0
 10
92.68562467093426
 20
-148.9462885947617
 30
0.0
 10
93.00395149377136
 20
-149.2649599271473
 30
0.0
 10
93.00395149377136
 20
-149.2649599271473
 30
0.0
 10
93.00395149377136
 20
-149.2649599271473
 30
0.0
 10
92.29684564542381
 20
-149.9718935207205
 30
0.0
 10
92.29684564542381
 20
-149.9718935207205
 30
0.0
  0
ENDBLK
  5
FA
330
F7
100
AcDbEntity
  8
0
100
AcDbBlockEnd
  0
ENDSEC
  0
SECTION
  2
ENTITIES
  0
INSERT
  5
7A
330
70
100
AcDbEntity
  8
レイヤー 1
100
AcDbBlockReference
  2
Block_0
 10
0.0
 20
0.0
 30
0.0
  0
ENDSEC
  0
SECTION
  2
OBJECTS
  0
DICTIONARY
  5
C
330
0
100
AcDbDictionary
281
     1
  3
ACAD_COLOR
350
63
  3
ACAD_DETAILVIEWSTYLE
350
6A
  3
ACAD_GROUP
350
D
  3
ACAD_LAYOUT
350
62
  3
ACAD_MATERIAL
350
10
  3
ACAD_MLEADERSTYLE
350
66
  3
ACAD_MLINESTYLE
350
5F
  3
ACAD_PLOTSETTINGS
350
61
  3
ACAD_PLOTSTYLENAME
350
E
  3
ACAD_SCALELIST
350
42
  3
ACAD_SECTIONVIEWSTYLE
350
68
  3
ACAD_TABLESTYLE
350
64
  3
ACAD_VISUALSTYLE
350
29
  3
ACDB_RECOMPOSE_DATA
350
108
  3
AcDbVariableDictionary
350
100
  0
DICTIONARY
  5
63
102
{ACAD_REACTORS
330
C
102
}
330
C
100
AcDbDictionary
281
     1
  0
DICTIONARY
  5
6A
102
{ACAD_REACTORS
330
C
102
}
330
C
100
AcDbDictionary
281
     1
  3
Imperial24
350
6B
  0
DICTIONARY
  5
D
102
{ACAD_REACTORS
330
C
102
}
330
C
100
AcDbDictionary
281
     1
  0
DICTIONARY
  5
62
102
{ACAD_REACTORS
330
C
102
}
330
C
100
AcDbDictionary
281
     1
  3
Layout1
350
6F
  3
Layout2
350
77
  3
Model
350
73
  0
DICTIONARY
  5
10
102
{ACAD_REACTORS
330
C
102
}
330
C
100
AcDbDictionary
281
     1
  3
ByBlock
350
19
  3
ByLayer
350
11
  3
Global
350
21
  0
DICTIONARY
  5
66
102
{ACAD_REACTORS
330
C
102
}
330
C
100
AcDbDictionary
281
     1
  3
Standard
350
67
  0
DICTIONARY
  5
5F
102
{ACAD_REACTORS
330
C
102
}
330
C
100
AcDbDictionary
281
     1
  3
Standard
350
60
  0
DICTIONARY
  5
61
102
{ACAD_REACTORS
330
C
102
}
330
C
100
AcDbDictionary
281
     1
  0
ACDBDICTIONARYWDFLT
  5
E
102
{ACAD_REACTORS
330
C
102
}
330
C
100
AcDbDictionary
281
     1
  3
Normal
350
F
100
AcDbDictionaryWithDefault
340
F
  0
DICTIONARY
  5
42
102
{ACAD_REACTORS
330
C
102
}
330
C
100
AcDbDictionary
281
     1
  3
A0
350
43
  3
A1
350
44
  3
A2
350
45
  3
A3
350
46
  3
A4
350
47
  3
A5
350
48
  3
A6
350
49
  3
A7
350
4A
  3
A8
350
4B
  3
A9
350
4C
  3
B0
350
4D
  3
B1
350
4E
  3
B2
350
4F
  3
B3
350
50
  3
B4
350
51
  3
B5
350
52
  3
B6
350
53
  0
DICTIONARY
  5
68
102
{ACAD_REACTORS
330
C
102
}
330
C
100
AcDbDictionary
281
     1
  3
Imperial24
350
69
  0
DICTIONARY
  5
64
102
{ACAD_REACTORS
330
C
102
}
330
C
100
AcDbDictionary
281
     1
  3
Standard
350
65
  0
DICTIONARY
  5
29
102
{ACAD_REACTORS
330
C
102
}
330
C
100
AcDbDictionary
281
     1
  3
2dWireframe
350
2F
  3
Basic
350
2E
  3
Brighten
350
35
  3
ColorChange
350
39
  3
Conceptual
350
32
  3
Dim
350
34
  3
EdgeColorOff
350
41
  3
Facepattern
350
38
  3
Flat
350
2A
  3
FlatWithEdges
350
2B
  3
Gouraud
350
2C
  3
GouraudWithEdges
350
2D
  3
Hidden
350
31
  3
JitterOff
350
3F
  3
Linepattern
350
37
  3
OverhangOff
350
40
  3
Realistic
350
33
  3
Shaded
350
3E
  3
Shaded with edges
350
3D
  3
Shades of Gray
350
3A
  3
Sketchy
350
3B
  3
Thicken
350
36
  3
Wireframe
350
30
  3
X-Ray
350
3C
  0
XRECORD
  5
108
102
{ACAD_REACTORS
330
C
102
}
330
C
100
AcDbXrecord
280
     1
 90
        1
330
65
  0
DICTIONARY
  5
100
102
{ACAD_REACTORS
330
C
102
}
330
C
100
AcDbDictionary
281
     1
  3
CANNOSCALE
350
105
  3
CMLEADERSTYLE
350
102
  3
CTABLESTYLE
350
101
  3
CVIEWDETAILSTYLE
350
103
  3
CVIEWSECTIONSTYLE
350
104
  0
ACDBDETAILVIEWSTYLE
  5
6B
102
{ACAD_XDICTIONARY
360
13D
102
}
102
{ACAD_REACTORS
330
6A
102
}
330
6A
100
AcDbModelDocViewStyle
 70
     0
  3
Imperial24
290
     0
100
AcDbDetailViewStyle
 70
     0
 71
     0
 90
        3
 71
     1
340
55
 62
   256
 40
0.24
340
0
 62
   256
 40
0.24
300

 40
0.36
280
     3
 71
     2
340
5D
 90
       25
 62
   256
 71
     3
340
55
 62
   256
 40
0.24
 90
        1
 40
0.75
 90
        1
300
%<\AcVar ViewType \f "%tc1">% %<\AcVar ViewDetailId>%\PSCALE %<\AcVar ViewScale \f "%sn">%
 71
     4
340
5D
 90
       25
 62
   256
340
5D
 90
       25
 62
   256
280
     0
  0
LAYOUT
  5
6F
102
{ACAD_REACTORS
330
62
102
}
330
62
100
AcDbPlotSettings
  1

  2

  4

  6

 40
0.0
 41
0.0
 42
0.0
 43
0.0
 44
0.0
 45
0.0
 46
0.0
 47
0.0
 48
0.0
 49
0.0
140
0.0
141
0.0
142
1.0
143
1.0
 70
   688
 72
     0
 73
     0
 74
     5
  7

 75
    16
147
1.0
 76
     0
 77
     2
 78
   300
148
0.0
149
0.0
100
AcDbLayout
  1
Layout1
 70
     1
 71
     1
 10
0.0
 20
0.0
 11
12.0
 21
9.0
 12
0.0
 22
0.0
 32
0.0
 14
0.0
 24
0.0
 34
0.0
 15
0.0
 25
0.0
 35
0.0
146
0.0
 13
0.0
 23
0.0
 33
0.0
 16
1.0
 26
0.0
 36
0.0
 17
0.0
 27
1.0
 37
0.0
 76
     0
330
6C
  0
LAYOUT
  5
77
102
{ACAD_REACTORS
330
62
102
}
330
62
100
AcDbPlotSettings
  1

  2

  4

  6

 40
0.0
 41
0.0
 42
0.0
 43
0.0
 44
0.0
 45
0.0
 46
0.0
 47
0.0
 48
0.0
 49
0.0
140
0.0
141
0.0
142
1.0
143
1.0
 70
   688
 72
     0
 73
     0
 74
     5
  7

 75
    16
147
1.0
 76
     0
 77
     2
 78
   300
148
0.0
149
0.0
100
AcDbLayout
  1
Layout2
 70
     1
 71
     2
 10
0.0
 20
0.0
 11
12.0
 21
9.0
 12
0.0
 22
0.0
 32
0.0
 14
0.0
 24
0.0
 34
0.0
 15
0.0
 25
0.0
 35
0.0
146
0.0
 13
0.0
 23
0.0
 33
0.0
 16
1.0
 26
0.0
 36
0.0
 17
0.0
 27
1.0
 37
0.0
 76
     0
330
74
  0
LAYOUT
  5
73
102
{ACAD_REACTORS
330
62
102
}
330
62
100
AcDbPlotSettings
  1

  2

  4

  6

 40
0.0
 41
0.0
 42
0.0
 43
0.0
 44
0.0
 45
0.0
 46
0.0
 47
0.0
 48
0.0
 49
0.0
140
0.0
141
0.0
142
1.0
143
1.0
 70
  1712
 72
     0
 73
     0
 74
     0
  7

 75
     0
147
1.0
 76
     0
 77
     2
 78
   300
148
0.0
149
0.0
100
AcDbLayout
  1
Model
 70
     1
 71
     0
 10
0.0
 20
0.0
 11
12.0
 21
9.0
 12
0.0
 22
0.0
 32
0.0
 14
0.0
 24
0.0
 34
0.0
 15
0.0
 25
0.0
 35
0.0
146
0.0
 13
0.0
 23
0.0
 33
0.0
 16
1.0
 26
0.0
 36
0.0
 17
0.0
 27
1.0
 37
0.0
 76
     0
330
70
  0
MATERIAL
  5
19
102
{ACAD_XDICTIONARY
360
1A
102
}
102
{ACAD_REACTORS
330
10
102
}
330
10
100
AcDbMaterial
  1
ByBlock
 72
     0
 43
0.0208333333333333
 43
0.0
 43
0.0
 43
0.0
 43
0.0
 43
0.0208333333333333
 43
0.0
 43
0.0
 43
0.0
 43
0.0
 43
1.0
 43
0.0
 43
0.0
 43
0.0
 43
0.0
 43
1.0
 77
     0
 47
0.0208333333333333
 47
0.0
 47
0.0
 47
0.0
 47
0.0
 47
0.0208333333333333
 47
0.0
 47
0.0
 47
0.0
 47
0.0
 47
1.0
 47
0.0
 47
0.0
 47
0.0
 47
0.0
 47
1.0
171
     0
 49
0.0208333333333333
 49
0.0
 49
0.0
 49
0.0
 49
0.0
 49
0.0208333333333333
 49
0.0
 49
0.0
 49
0.0
 49
0.0
 49
1.0
 49
0.0
 49
0.0
 49
0.0
 49
0.0
 49
1.0
175
     0
142
0.0208333333333333
142
0.0
142
0.0
142
0.0
142
0.0
142
0.0208333333333333
142
0.0
142
0.0
142
0.0
142
0.0
142
1.0
142
0.0
142
0.0
142
0.0
142
0.0
142
1.0
179
     0
144
0.0208333333333333
144
0.0
144
0.0
144
0.0
144
0.0
144
0.0208333333333333
144
0.0
144
0.0
144
0.0
144
0.0
144
1.0
144
0.0
144
0.0
144
0.0
144
0.0
144
1.0
147
0.0208333333333333
147
0.0
147
0.0
147
0.0
147
0.0
147
0.0208333333333333
147
0.0
147
0.0
147
0.0
147
0.0
147
1.0
147
0.0
147
0.0
147
0.0
147
0.0
147
1.0
  0
MATERIAL
  5
11
102
{ACAD_XDICTIONARY
360
12
102
}
102
{ACAD_REACTORS
330
10
102
}
330
10
100
AcDbMaterial
  1
ByLayer
 72
     0
 43
0.0208333333333333
 43
0.0
 43
0.0
 43
0.0
 43
0.0
 43
0.0208333333333333
 43
0.0
 43
0.0
 43
0.0
 43
0.0
 43
1.0
 43
0.0
 43
0.0
 43
0.0
 43
0.0
 43
1.0
 77
     0
 47
0.0208333333333333
 47
0.0
 47
0.0
 47
0.0
 47
0.0
 47
0.0208333333333333
 47
0.0
 47
0.0
 47
0.0
 47
0.0
 47
1.0
 47
0.0
 47
0.0
 47
0.0
 47
0.0
 47
1.0
171
     0
 49
0.0208333333333333
 49
0.0
 49
0.0
 49
0.0
 49
0.0
 49
0.0208333333333333
 49
0.0
 49
0.0
 49
0.0
 49
0.0
 49
1.0
 49
0.0
 49
0.0
 49
0.0
 49
0.0
 49
1.0
175
     0
142
0.0208333333333333
142
0.0
142
0.0
142
0.0
142
0.0
142
0.0208333333333333
142
0.0
142
0.0
142
0.0
142
0.0
142
1.0
142
0.0
142
0.0
142
0.0
142
0.0
142
1.0
179
     0
144
0.0208333333333333
144
0.0
144
0.0
144
0.0
144
0.0
144
0.0208333333333333
144
0.0
144
0.0
144
0.0
144
0.0
144
1.0
144
0.0
144
0.0
144
0.0
144
0.0
144
1.0
147
0.0208333333333333
147
0.0
147
0.0
147
0.0
147
0.0
147
0.0208333333333333
147
0.0
147
0.0
147
0.0
147
0.0
147
1.0
147
0.0
147
0.0
147
0.0
147
0.0
147
1.0
  0
MATERIAL
  5
21
102
{ACAD_XDICTIONARY
360
22
102
}
102
{ACAD_REACTORS
330
10
102
}
330
10
100
AcDbMaterial
  1
Global
 72
     0
 43
0.0208333333333333
 43
0.0
 43
0.0
 43
0.0
 43
0.0
 43
0.0208333333333333
 43
0.0
 43
0.0
 43
0.0
 43
0.0
 43
1.0
 43
0.0
 43
0.0
 43
0.0
 43
0.0
 43
1.0
 77
     0
 47
0.0208333333333333
 47
0.0
 47
0.0
 47
0.0
 47
0.0
 47
0.0208333333333333
 47
0.0
 47
0.0
 47
0.0
 47
0.0
 47
1.0
 47
0.0
 47
0.0
 47
0.0
 47
0.0
 47
1.0
171
     0
 49
0.0208333333333333
 49
0.0
 49
0.0
 49
0.0
 49
0.0
 49
0.0208333333333333
 49
0.0
 49
0.0
 49
0.0
 49
0.0
 49
1.0
 49
0.0
 49
0.0
 49
0.0
 49
0.0
 49
1.0
175
     0
142
0.0208333333333333
142
0.0
142
0.0
142
0.0
142
0.0
142
0.0208333333333333
142
0.0
142
0.0
142
0.0
142
0.0
142
1.0
142
0.0
142
0.0
142
0.0
142
0.0
142
1.0
179
     0
144
0.0208333333333333
144
0.0
144
0.0
144
0.0
144
0.0
144
0.0208333333333333
144
0.0
144
0.0
144
0.0
144
0.0
144
1.0
144
0.0
144
0.0
144
0.0
144
0.0
144
1.0
147
0.0208333333333333
147
0.0
147
0.0
147
0.0
147
0.0
147
0.0208333333333333
147
0.0
147
0.0
147
0.0
147
0.0
147
1.0
147
0.0
147
0.0
147
0.0
147
0.0
147
1.0
  0
MLEADERSTYLE
  5
67
102
{ACAD_XDICTIONARY
360
139
102
}
102
{ACAD_REACTORS
330
66
102
}
330
66
100
AcDbMLeaderStyle
179
     2
170
     2
171
     1
172
     0
 90
        2
 40
0.0
 41
0.0
173
     1
 91
-1056964608
340
5B
 92
       -2
290
     1
 42
0.09
291
     1
 43
0.36
  3
Standard
 44
0.18
300

342
55
174
     1
178
     6
175
     1
176
     0
 93
-1056964608
 45
0.18
292
     0
297
     0
 46
0.18
 94
-1056964608
 47
1.0
 49
1.0
140
1.0
293
     1
141
0.0
294
     1
177
     0
142
1.0
295
     0
296
     0
143
0.125
271
     0
272
     9
273
     9
  0
MLINESTYLE
  5
60
102
{ACAD_REACTORS
330
5F
102
}
330
5F
100
AcDbMlineStyle
  2
STANDARD
 70
     0
  3

 62
   256
 51
90.0
 52
90.0
 71
     2
 49
0.5
 62
   256
  6
BYLAYER
 49
-0.5
 62
   256
  6
BYLAYER
  0
ACDBPLACEHOLDER
  5
F
102
{ACAD_REACTORS
330
E
102
}
330
E
  0
SCALE
  5
43
102
{ACAD_REACTORS
330
42
102
}
330
42
100
AcDbScale
 70
     0
300
1:1
140
1.0
141
1.0
290
     1
  0
SCALE
  5
44
102
{ACAD_REACTORS
330
42
102
}
330
42
100
AcDbScale
 70
     0
300
1/128" = 1'-0"
140
0.0078125
141
12.0
290
     0
  0
SCALE
  5
45
102
{ACAD_REACTORS
330
42
102
}
330
42
100
AcDbScale
 70
     0
300
1/64" = 1'-0"
140
0.015625
141
12.0
290
     0
  0
SCALE
  5
46
102
{ACAD_REACTORS
330
42
102
}
330
42
100
AcDbScale
 70
     0
300
1/32" = 1'-0"
140
0.03125
141
12.0
290
     0
  0
SCALE
  5
47
102
{ACAD_REACTORS
330
42
102
}
330
42
100
AcDbScale
 70
     0
300
1/16" = 1'-0"
140
0.0625
141
12.0
290
     0
  0
SCALE
  5
48
102
{ACAD_REACTORS
330
42
102
}
330
42
100
AcDbScale
 70
     0
300
3/32" = 1'-0"
140
0.09375
141
12.0
290
     0
  0
SCALE
  5
49
102
{ACAD_REACTORS
330
42
102
}
330
42
100
AcDbScale
 70
     0
300
1/8" = 1'-0"
140
0.125
141
12.0
290
     0
  0
SCALE
  5
4A
102
{ACAD_REACTORS
330
42
102
}
330
42
100
AcDbScale
 70
     0
300
3/16" = 1'-0"
140
0.1875
141
12.0
290
     0
  0
SCALE
  5
4B
102
{ACAD_REACTORS
330
42
102
}
330
42
100
AcDbScale
 70
     0
300
1/4" = 1'-0"
140
0.25
141
12.0
290
     0
  0
SCALE
  5
4C
102
{ACAD_REACTORS
330
42
102
}
330
42
100
AcDbScale
 70
     0
300
3/8" = 1'-0"
140
0.375
141
12.0
290
     0
  0
SCALE
  5
4D
102
{ACAD_REACTORS
330
42
102
}
330
42
100
AcDbScale
 70
     0
300
1/2" = 1'-0"
140
0.5
141
12.0
290
     0
  0
SCALE
  5
4E
102
{ACAD_REACTORS
330
42
102
}
330
42
100
AcDbScale
 70
     0
300
3/4" = 1'-0"
140
0.75
141
12.0
290
     0
  0
SCALE
  5
4F
102
{ACAD_REACTORS
330
42
102
}
330
42
100
AcDbScale
 70
     0
300
1" = 1'-0"
140
1.0
141
12.0
290
     0
  0
SCALE
  5
50
102
{ACAD_REACTORS
330
42
102
}
330
42
100
AcDbScale
 70
     0
300
1-1/2" = 1'-0"
140
1.5
141
12.0
290
     0
  0
SCALE
  5
51
102
{ACAD_REACTORS
330
42
102
}
330
42
100
AcDbScale
 70
     0
300
3" = 1'-0"
140
3.0
141
12.0
290
     0
  0
SCALE
  5
52
102
{ACAD_REACTORS
330
42
102
}
330
42
100
AcDbScale
 70
     0
300
6" = 1'-0"
140
6.0
141
12.0
290
     0
  0
SCALE
  5
53
102
{ACAD_REACTORS
330
42
102
}
330
42
100
AcDbScale
 70
     0
300
1'-0" = 1'-0"
140
12.0
141
12.0
290
     0
  0
ACDBSECTIONVIEWSTYLE
  5
69
102
{ACAD_XDICTIONARY
360
13B
102
}
102
{ACAD_REACTORS
330
68
102
}
330
68
100
AcDbModelDocViewStyle
 70
     0
  3
Imperial24
290
     0
100
AcDbSectionViewStyle
 70
     0
 71
     0
 90
       78
 71
     1
340
55
 62
   256
 40
0.24
340
0
340
0
 62
   256
 40
0.24
300
I, O, Q, S, X, Z
 40
0.48
 90
        3
 40
0.18
 90
        1
 71
     2
340
5D
 90
       25
 62
   256
340
5D
 90
       50
 62
   256
 40
0.24
 40
0.0
 40
0.24
 71
     3
340
55
 62
   256
 40
0.24
 90
        1
 40
0.75
 90
        1
300
%<\AcVar ViewType \f "%tc1">% %<\AcVar ViewSectionStartId>%-%<\AcVar ViewSectionEndId>%\PSCALE %<\AcVar ViewScale \f "%sn">%
 71
     4
 62
   256
 62
   257
300
ANSI31
 40
1.0
 90
        0
290
     0
290
     0
 90
        6
 40
0.0
 40
1.570796326794896
 40
0.2617993877991494
 40
1.308996938995747
 40
-0.2617993877991494
 40
1.832595714594046
  0
TABLESTYLE
  5
65
102
{ACAD_XDICTIONARY
360
106
102
}
102
{ACAD_REACTORS
330
64
102
}
330
64
100
AcDbTableStyle
280
     0
  3
Standard
 70
     0
 71
     0
 40
0.06
 41
0.06
280
     0
281
     0
  7
Standard
140
0.18
170
     2
 62
     0
 63
     7
283
     0
 90
      512
 91
        0
  1

274
    -2
284
     1
 64
     0
275
    -2
285
     1
 65
     0
276
    -2
286
     1
 66
     0
277
    -2
287
     1
 67
     0
278
    -2
288
     1
 68
     0
279
    -2
289
     1
 69
     0
  7
Standard
140
0.25
170
     5
 62
     0
 63
     7
283
     0
 90
      512
 91
        0
  1

274
    -2
284
     1
 64
     0
275
    -2
285
     1
 65
     0
276
    -2
286
     1
 66
     0
277
    -2
287
     1
 67
     0
278
    -2
288
     1
 68
     0
279
    -2
289
     1
 69
     0
  7
Standard
140
0.18
170
     5
 62
     0
 63
     7
283
     0
 90
      512
 91
        0
  1

274
    -2
284
     1
 64
     0
275
    -2
285
     1
 65
     0
276
    -2
286
     1
 66
     0
277
    -2
287
     1
 67
     0
278
    -2
288
     1
 68
     0
279
    -2
289
     1
 69
     0
  0
VISUALSTYLE
  5
2F
102
{ACAD_XDICTIONARY
360
113
102
}
102
{ACAD_REACTORS
330
29
102
}
330
29
100
AcDbVisualStyle
  2
2dWireframe
 70
     4
177
     2
291
     0
 71
     0
176
     1
 72
     2
176
     1
 73
     0
176
     1
 90
        0
176
     1
 40
0.6
176
     1
 41
30.0
176
     1
 63
     7
421
 16777215
176
     1
 74
     1
176
     1
 91
        4
176
     1
 64
     7
176
     1
 65
   257
176
     1
 75
     1
176
     1
175
     1
176
     1
 42
1.0
176
     1
 92
        0
176
     1
 66
   257
176
     1
 43
1.0
176
     1
 76
     1
176
     1
 77
     6
176
     1
 78
     2
176
     1
 67
     7
176
     1
 79
     5
176
     1
170
     0
176
     1
171
     0
176
     1
290
     0
176
     1
 93
        1
176
     1
 44
0.0
176
     1
173
     0
176
     1
1001
ACAD
1000
AcDbSavedByObjectVersion
1070
     0
  0
VISUALSTYLE
  5
2E
102
{ACAD_XDICTIONARY
360
111
102
}
102
{ACAD_REACTORS
330
29
102
}
330
29
100
AcDbVisualStyle
  2
Basic
 70
     7
177
     2
291
     1
 71
     1
176
     1
 72
     0
176
     1
 73
     1
176
     1
 90
        0
176
     1
 40
0.6
176
     1
 41
30.0
176
     1
 63
     7
421
 16777215
176
     1
 74
     0
176
     1
 91
        4
176
     1
 64
     7
176
     1
 65
   257
176
     1
 75
     1
176
     1
175
     1
176
     1
 42
1.0
176
     1
 92
        8
176
     1
 66
     7
176
     1
 43
1.0
176
     1
 76
     1
176
     1
 77
     6
176
     1
 78
     2
176
     1
 67
     7
176
     1
 79
     5
176
     1
170
     0
176
     1
171
     0
176
     1
290
     0
176
     1
 93
        1
176
     1
 44
0.0
176
     1
173
     0
176
     1
1001
ACAD
1000
AcDbSavedByObjectVersion
1070
     0
  0
VISUALSTYLE
  5
35
102
{ACAD_XDICTIONARY
360
11F
102
}
102
{ACAD_REACTORS
330
29
102
}
330
29
100
AcDbVisualStyle
  2
Brighten
 70
    12
177
     2
291
     1
 71
     2
176
     1
 72
     2
176
     1
 73
     0
176
     1
 90
        0
176
     1
 40
0.6
176
     1
 41
30.0
176
     1
 63
     7
421
 16777215
176
     1
 74
     1
176
     1
 91
        4
176
     1
 64
     7
176
     1
 65
   257
176
     1
 75
     1
176
     1
175
     1
176
     1
 42
1.0
176
     1
 92
        8
176
     1
 66
     7
176
     1
 43
1.0
176
     1
 76
     1
176
     1
 77
     6
176
     1
 78
     2
176
     1
 67
     7
176
     1
 79
     5
176
     1
170
     0
176
     1
171
     0
176
     1
290
     0
176
     1
 93
        1
176
     1
 44
50.0
176
     1
173
     0
176
     1
1001
ACAD
1000
AcDbSavedByObjectVersion
1070
     0
  0
VISUALSTYLE
  5
39
102
{ACAD_XDICTIONARY
360
127
102
}
102
{ACAD_REACTORS
330
29
102
}
330
29
100
AcDbVisualStyle
  2
ColorChange
 70
    16
177
     2
291
     1
 71
     2
176
     1
 72
     2
176
     1
 73
     3
176
     1
 90
        0
176
     1
 40
0.6
176
     1
 41
30.0
176
     1
 63
     8
421
  8421504
176
     1
 74
     1
176
     1
 91
        4
176
     1
 64
     7
176
     1
 65
   257
176
     1
 75
     1
176
     1
175
     1
176
     1
 42
1.0
176
     1
 92
        8
176
     1
 66
     8
424
  8421504
176
     1
 43
1.0
176
     1
 76
     1
176
     1
 77
     6
176
     1
 78
     2
176
     1
 67
     7
176
     1
 79
     5
176
     1
170
     0
176
     1
171
     0
176
     1
290
     0
176
     1
 93
        1
176
     1
 44
0.0
176
     1
173
     0
176
     1
1001
ACAD
1000
AcDbSavedByObjectVersion
1070
     0
  0
VISUALSTYLE
  5
32
102
{ACAD_XDICTIONARY
360
119
102
}
102
{ACAD_REACTORS
330
29
102
}
330
29
100
AcDbVisualStyle
  2
Conceptual
 70
     9
177
     2
291
     0
 71
     3
176
     1
 72
     2
176
     1
 73
     0
176
     1
 90
        0
176
     1
 40
0.6
176
     1
 41
30.0
176
     1
 63
     7
421
 16777215
176
     1
 74
     2
176
     1
 91
        2
176
     1
 64
     7
176
     1
 65
   257
176
     1
 75
     1
176
     1
175
     1
176
     1
 42
179.0
176
     1
 92
        8
176
     1
 66
     7
176
     1
 43
1.0
176
     1
 76
     1
176
     1
 77
     6
176
     1
 78
     2
176
     1
 67
     7
176
     1
 79
     3
176
     1
170
     0
176
     1
171
     0
176
     1
290
     0
176
     1
 93
        1
176
     1
 44
0.0
176
     1
173
     0
176
     1
1001
ACAD
1000
AcDbSavedByObjectVersion
1070
     0
  0
VISUALSTYLE
  5
34
102
{ACAD_XDICTIONARY
360
11D
102
}
102
{ACAD_REACTORS
330
29
102
}
330
29
100
AcDbVisualStyle
  2
Dim
 70
    11
177
     2
291
     1
 71
     2
176
     1
 72
     2
176
     1
 73
     0
176
     1
 90
        0
176
     1
 40
0.6
176
     1
 41
30.0
176
     1
 63
     7
421
 16777215
176
     1
 74
     1
176
     1
 91
        4
176
     1
 64
     7
176
     1
 65
   257
176
     1
 75
     1
176
     1
175
     1
176
     1
 42
1.0
176
     1
 92
        8
176
     1
 66
     7
176
     1
 43
1.0
176
     1
 76
     1
176
     1
 77
     6
176
     1
 78
     2
176
     1
 67
     7
176
     1
 79
     5
176
     1
170
     0
176
     1
171
     0
176
     1
290
     0
176
     1
 93
        1
176
     1
 44
-50.0
176
     1
173
     0
176
     1
1001
ACAD
1000
AcDbSavedByObjectVersion
1070
     0
  0
VISUALSTYLE
  5
41
102
{ACAD_XDICTIONARY
360
137
102
}
102
{ACAD_REACTORS
330
29
102
}
330
29
100
AcDbVisualStyle
  2
EdgeColorOff
 70
    22
177
     2
291
     1
 71
     2
176
     0
 72
     2
176
     0
 73
     0
176
     0
 90
        0
176
     0
 40
0.6
176
     0
 41
30.0
176
     0
 63
     7
421
 16777215
176
     0
 74
     1
176
     0
 91
        4
176
     0
 64
     7
176
     0
 65
   257
176
     0
 75
     1
176
     0
175
     1
176
     0
 42
1.0
176
     0
 92
        8
176
     2
 66
     7
176
     0
 43
1.0
176
     0
 76
     1
176
     0
 77
     6
176
     0
 78
     2
176
     0
 67
     7
176
     0
 79
     5
176
     0
170
     0
176
     0
171
     0
176
     0
290
     0
176
     0
 93
        1
176
     0
 44
0.0
176
     0
173
     0
176
     0
1001
ACAD
1000
AcDbSavedByObjectVersion
1070
     0
  0
VISUALSTYLE
  5
38
102
{ACAD_XDICTIONARY
360
125
102
}
102
{ACAD_REACTORS
330
29
102
}
330
29
100
AcDbVisualStyle
  2
Facepattern
 70
    15
177
     2
291
     1
 71
     2
176
     1
 72
     2
176
     1
 73
     0
176
     1
 90
        0
176
     1
 40
0.6
176
     1
 41
30.0
176
     1
 63
     7
421
 16777215
176
     1
 74
     1
176
     1
 91
        4
176
     1
 64
     7
176
     1
 65
   257
176
     1
 75
     1
176
     1
175
     1
176
     1
 42
1.0
176
     1
 92
        8
176
     1
 66
     7
176
     1
 43
1.0
176
     1
 76
     1
176
     1
 77
     6
176
     1
 78
     2
176
     1
 67
     7
176
     1
 79
     5
176
     1
170
     0
176
     1
171
     0
176
     1
290
     0
176
     1
 93
        1
176
     1
 44
0.0
176
     1
173
     0
176
     1
1001
ACAD
1000
AcDbSavedByObjectVersion
1070
     0
  0
VISUALSTYLE
  5
2A
102
{ACAD_XDICTIONARY
360
109
102
}
102
{ACAD_REACTORS
330
29
102
}
330
29
100
AcDbVisualStyle
  2
Flat
 70
     0
177
     2
291
     1
 71
     2
176
     1
 72
     1
176
     1
 73
     1
176
     1
 90
        2
176
     1
 40
0.6
176
     1
 41
30.0
176
     1
 63
     7
421
 16777215
176
     1
 74
     0
176
     1
 91
        0
176
     1
 64
     7
176
     1
 65
   257
176
     1
 75
     1
176
     1
175
     1
176
     1
 42
1.0
176
     1
 92
        8
176
     1
 66
     7
176
     1
 43
1.0
176
     1
 76
     1
176
     1
 77
     6
176
     1
 78
     2
176
     1
 67
     7
176
     1
 79
     5
176
     1
170
     0
176
     1
171
     0
176
     1
290
     0
176
     1
 93
       13
176
     1
 44
0.0
176
     1
173
     0
176
     1
1001
ACAD
1000
AcDbSavedByObjectVersion
1070
     0
  0
VISUALSTYLE
  5
2B
102
{ACAD_XDICTIONARY
360
10B
102
}
102
{ACAD_REACTORS
330
29
102
}
330
29
100
AcDbVisualStyle
  2
FlatWithEdges
 70
     1
177
     2
291
     1
 71
     2
176
     1
 72
     1
176
     1
 73
     1
176
     1
 90
        2
176
     1
 40
0.6
176
     1
 41
30.0
176
     1
 63
     7
421
 16777215
176
     1
 74
     1
176
     1
 91
        0
176
     1
 64
     7
176
     1
 65
   257
176
     1
 75
     1
176
     1
175
     1
176
     1
 42
1.0
176
     1
 92
        0
176
     1
 66
   257
176
     1
 43
1.0
176
     1
 76
     1
176
     1
 77
     6
176
     1
 78
     2
176
     1
 67
     7
176
     1
 79
     5
176
     1
170
     0
176
     1
171
     0
176
     1
290
     0
176
     1
 93
       13
176
     1
 44
0.0
176
     1
173
     0
176
     1
1001
ACAD
1000
AcDbSavedByObjectVersion
1070
     0
  0
VISUALSTYLE
  5
2C
102
{ACAD_XDICTIONARY
360
10D
102
}
102
{ACAD_REACTORS
330
29
102
}
330
29
100
AcDbVisualStyle
  2
Gouraud
 70
     2
177
     2
291
     1
 71
     2
176
     1
 72
     2
176
     1
 73
     1
176
     1
 90
        2
176
     1
 40
0.6
176
     1
 41
30.0
176
     1
 63
     7
421
 16777215
176
     1
 74
     0
176
     1
 91
        0
176
     1
 64
     7
176
     1
 65
   257
176
     1
 75
     1
176
     1
175
     1
176
     1
 42
1.0
176
     1
 92
        0
176
     1
 66
     7
176
     1
 43
1.0
176
     1
 76
     1
176
     1
 77
     6
176
     1
 78
     2
176
     1
 67
     7
176
     1
 79
     5
176
     1
170
     0
176
     1
171
     0
176
     1
290
     0
176
     1
 93
       13
176
     1
 44
0.0
176
     1
173
     0
176
     1
1001
ACAD
1000
AcDbSavedByObjectVersion
1070
     0
  0
VISUALSTYLE
  5
2D
102
{ACAD_XDICTIONARY
360
10F
102
}
102
{ACAD_REACTORS
330
29
102
}
330
29
100
AcDbVisualStyle
  2
GouraudWithEdges
 70
     3
177
     2
291
     1
 71
     2
176
     1
 72
     2
176
     1
 73
     1
176
     1
 90
        2
176
     1
 40
0.6
176
     1
 41
30.0
176
     1
 63
     7
421
 16777215
176
     1
 74
     1
176
     1
 91
        0
176
     1
 64
     7
176
     1
 65
   257
176
     1
 75
     1
176
     1
175
     1
176
     1
 42
1.0
176
     1
 92
        0
176
     1
 66
   257
176
     1
 43
1.0
176
     1
 76
     1
176
     1
 77
     6
176
     1
 78
     2
176
     1
 67
     7
176
     1
 79
     5
176
     1
170
     0
176
     1
171
     0
176
     1
290
     0
176
     1
 93
       13
176
     1
 44
0.0
176
     1
173
     0
176
     1
1001
ACAD
1000
AcDbSavedByObjectVersion
1070
     0
  0
VISUALSTYLE
  5
31
102
{ACAD_XDICTIONARY
360
117
102
}
102
{ACAD_REACTORS
330
29
102
}
330
29
100
AcDbVisualStyle
  2
Hidden
 70
     6
177
     2
291
     0
 71
     1
176
     1
 72
     2
176
     1
 73
     2
176
     1
 90
        0
176
     1
 40
0.6
176
     1
 41
30.0
176
     1
 63
     7
421
 16777215
176
     1
 74
     2
176
     1
 91
        2
176
     1
 64
     7
176
     1
 65
   257
176
     1
 75
     2
176
     1
175
     1
176
     1
 42
40.0
176
     1
 92
        0
176
     1
 66
   257
176
     1
 43
1.0
176
     1
 76
     1
176
     1
 77
     6
176
     1
 78
     2
176
     1
 67
     7
176
     1
 79
     3
176
     1
170
     0
176
     1
171
     0
176
     1
290
     0
176
     1
 93
        1
176
     1
 44
0.0
176
     1
173
     0
176
     1
1001
ACAD
1000
AcDbSavedByObjectVersion
1070
     0
  0
VISUALSTYLE
  5
3F
102
{ACAD_XDICTIONARY
360
133
102
}
102
{ACAD_REACTORS
330
29
102
}
330
29
100
AcDbVisualStyle
  2
JitterOff
 70
    20
177
     2
291
     1
 71
     2
176
     0
 72
     2
176
     0
 73
     0
176
     0
 90
        0
176
     0
 40
0.6
176
     0
 41
30.0
176
     0
 63
     7
421
 16777215
176
     0
 74
     1
176
     0
 91
        4
176
     0
 64
     7
176
     0
 65
   257
176
     0
 75
     1
176
     0
175
     1
176
     0
 42
1.0
176
     0
 92
       10
176
     2
 66
     7
176
     0
 43
1.0
176
     0
 76
     1
176
     0
 77
     6
176
     0
 78
     2
176
     0
 67
     7
176
     0
 79
     5
176
     0
170
     0
176
     0
171
     0
176
     0
290
     0
176
     0
 93
        1
176
     0
 44
0.0
176
     0
173
     0
176
     0
1001
ACAD
1000
AcDbSavedByObjectVersion
1070
     0
  0
VISUALSTYLE
  5
37
102
{ACAD_XDICTIONARY
360
123
102
}
102
{ACAD_REACTORS
330
29
102
}
330
29
100
AcDbVisualStyle
  2
Linepattern
 70
    14
177
     2
291
     1
 71
     2
176
     1
 72
     2
176
     1
 73
     0
176
     1
 90
        0
176
     1
 40
0.6
176
     1
 41
30.0
176
     1
 63
     7
421
 16777215
176
     1
 74
     1
176
     1
 91
        4
176
     1
 64
     7
176
     1
 65
   257
176
     1
 75
     7
176
     1
175
     7
176
     1
 42
1.0
176
     1
 92
        8
176
     1
 66
     7
176
     1
 43
1.0
176
     1
 76
     1
176
     1
 77
     6
176
     1
 78
     2
176
     1
 67
     7
176
     1
 79
     5
176
     1
170
     0
176
     1
171
     0
176
     1
290
     0
176
     1
 93
        1
176
     1
 44
0.0
176
     1
173
     0
176
     1
1001
ACAD
1000
AcDbSavedByObjectVersion
1070
     0
  0
VISUALSTYLE
  5
40
102
{ACAD_XDICTIONARY
360
135
102
}
102
{ACAD_REACTORS
330
29
102
}
330
29
100
AcDbVisualStyle
  2
OverhangOff
 70
    21
177
     2
291
     1
 71
     2
176
     0
 72
     2
176
     0
 73
     0
176
     0
 90
        0
176
     0
 40
0.6
176
     0
 41
30.0
176
     0
 63
     7
421
 16777215
176
     0
 74
     1
176
     0
 91
        4
176
     0
 64
     7
176
     0
 65
   257
176
     0
 75
     1
176
     0
175
     1
176
     0
 42
1.0
176
     0
 92
        9
176
     2
 66
     7
176
     0
 43
1.0
176
     0
 76
     1
176
     0
 77
     6
176
     0
 78
     2
176
     0
 67
     7
176
     0
 79
     5
176
     0
170
     0
176
     0
171
     0
176
     0
290
     0
176
     0
 93
        1
176
     0
 44
0.0
176
     0
173
     0
176
     0
1001
ACAD
1000
AcDbSavedByObjectVersion
1070
     0
  0
VISUALSTYLE
  5
33
102
{ACAD_XDICTIONARY
360
11B
102
}
102
{ACAD_REACTORS
330
29
102
}
330
29
100
AcDbVisualStyle
  2
Realistic
 70
     8
177
     2
291
     0
 71
     2
176
     1
 72
     3
176
     1
 73
     0
176
     1
 90
        2
176
     1
 40
0.6
176
     1
 41
30.0
176
     1
 63
     7
421
 16777215
176
     1
 74
     0
176
     1
 91
        0
176
     1
 64
     7
176
     1
 65
   257
176
     1
 75
     1
176
     1
175
     1
176
     1
 42
1.0
176
     1
 92
        8
176
     1
 66
   257
176
     1
 43
1.0
176
     1
 76
     1
176
     1
 77
     6
176
     1
 78
     2
176
     1
 67
     7
176
     1
 79
     3
176
     1
170
     0
176
     1
171
     0
176
     1
290
     0
176
     1
 93
       13
176
     1
 44
0.0
176
     1
173
     0
176
     1
1001
ACAD
1000
AcDbSavedByObjectVersion
1070
     0
  0
VISUALSTYLE
  5
3E
102
{ACAD_XDICTIONARY
360
131
102
}
102
{ACAD_REACTORS
330
29
102
}
330
29
100
AcDbVisualStyle
  2
Shaded
 70
    27
177
     2
291
     0
 71
     2
176
     1
 72
     2
176
     1
 73
     1
176
     1
 90
        2
176
     1
 40
0.6
176
     1
 41
30.0
176
     1
 63
     7
421
 16777215
176
     1
 74
     0
176
     1
 91
        4
176
     1
 64
     7
176
     1
 65
   257
176
     1
 75
     1
176
     1
175
     1
176
     1
 42
1.0
176
     1
 92
        8
176
     1
 66
   257
176
     1
 43
1.0
176
     1
 76
     1
176
     1
 77
     6
176
     1
 78
     2
176
     1
 67
     8
425
  7895160
176
     1
 79
     3
176
     1
170
     0
176
     1
171
     0
176
     1
290
     0
176
     1
 93
        5
176
     1
 44
0.0
176
     1
173
     0
176
     1
1001
ACAD
1000
AcDbSavedByObjectVersion
1070
     0
  0
VISUALSTYLE
  5
3D
102
{ACAD_XDICTIONARY
360
12F
102
}
102
{ACAD_REACTORS
330
29
102
}
330
29
100
AcDbVisualStyle
  2
Shaded with edges
 70
    26
177
     2
291
     0
 71
     2
176
     1
 72
     2
176
     1
 73
     1
176
     1
 90
        2
176
     1
 40
0.6
176
     1
 41
30.0
176
     1
 63
     7
421
 16777215
176
     1
 74
     1
176
     1
 91
        2
176
     1
 64
     7
176
     1
 65
   257
176
     1
 75
     2
176
     1
175
     1
176
     1
 42
1.0
176
     1
 92
        8
176
     1
 66
   257
176
     1
 43
1.0
176
     1
 76
     1
176
     1
 77
     6
176
     1
 78
     2
176
     1
 67
     7
176
     1
 79
     3
176
     1
170
     0
176
     1
171
     0
176
     1
290
     0
176
     1
 93
        5
176
     1
 44
0.0
176
     1
173
     0
176
     1
1001
ACAD
1000
AcDbSavedByObjectVersion
1070
     0
  0
VISUALSTYLE
  5
3A
102
{ACAD_XDICTIONARY
360
129
102
}
102
{ACAD_REACTORS
330
29
102
}
330
29
100
AcDbVisualStyle
  2
Shades of Gray
 70
    23
177
     2
291
     0
 71
     2
176
     1
 72
     2
176
     1
 73
     3
176
     1
 90
        0
176
     1
 40
0.6
176
     1
 41
30.0
176
     1
 63
     7
421
 16777215
176
     1
 74
     2
176
     1
 91
        2
176
     1
 64
     7
176
     1
 65
     7
176
     1
 75
     1
176
     1
175
     1
176
     1
 42
40.0
176
     1
 92
        8
176
     1
 66
     7
176
     1
 43
1.0
176
     1
 76
     1
176
     1
 77
     6
176
     1
 78
     2
176
     1
 67
     7
176
     1
 79
     3
176
     1
170
     0
176
     1
171
     0
176
     1
290
     0
176
     1
 93
        1
176
     1
 44
0.0
176
     1
173
     0
176
     1
1001
ACAD
1000
AcDbSavedByObjectVersion
1070
     0
  0
VISUALSTYLE
  5
3B
102
{ACAD_XDICTIONARY
360
12B
102
}
102
{ACAD_REACTORS
330
29
102
}
330
29
100
AcDbVisualStyle
  2
Sketchy
 70
    24
177
     2
291
     0
 71
     1
176
     1
 72
     2
176
     1
 73
     2
176
     1
 90
        0
176
     1
 40
0.6
176
     1
 41
30.0
176
     1
 63
     7
421
 16777215
176
     1
 74
     2
176
     1
 91
        2
176
     1
 64
     7
176
     1
 65
     7
176
     1
 75
     1
176
     1
175
     1
176
     1
 42
40.0
176
     1
 92
       11
176
     1
 66
     7
176
     1
 43
1.0
176
     1
 76
     1
176
     1
 77
     6
176
     1
 78
     2
176
     1
 67
     7
176
     1
 79
     6
176
     1
170
     0
176
     1
171
     0
176
     1
290
     0
176
     1
 93
        1
176
     1
 44
0.0
176
     1
173
     0
176
     1
1001
ACAD
1000
AcDbSavedByObjectVersion
1070
     0
  0
VISUALSTYLE
  5
36
102
{ACAD_XDICTIONARY
360
121
102
}
102
{ACAD_REACTORS
330
29
102
}
330
29
100
AcDbVisualStyle
  2
Thicken
 70
    13
177
     2
291
     1
 71
     2
176
     1
 72
     2
176
     1
 73
     0
176
     1
 90
        0
176
     1
 40
0.6
176
     1
 41
30.0
176
     1
 63
     7
421
 16777215
176
     1
 74
     1
176
     1
 91
        4
176
     1
 64
     7
176
     1
 65
   257
176
     1
 75
     1
176
     1
175
     1
176
     1
 42
1.0
176
     1
 92
       12
176
     1
 66
     7
176
     1
 43
1.0
176
     1
 76
     1
176
     1
 77
     6
176
     1
 78
     2
176
     1
 67
     7
176
     1
 79
     5
176
     1
170
     0
176
     1
171
     0
176
     1
290
     0
176
     1
 93
        1
176
     1
 44
0.0
176
     1
173
     0
176
     1
1001
ACAD
1000
AcDbSavedByObjectVersion
1070
     0
  0
VISUALSTYLE
  5
30
102
{ACAD_XDICTIONARY
360
115
102
}
102
{ACAD_REACTORS
330
29
102
}
330
29
100
AcDbVisualStyle
  2
Wireframe
 70
     5
177
     2
291
     0
 71
     0
176
     1
 72
     2
176
     1
 73
     0
176
     1
 90
        0
176
     1
 40
0.6
176
     1
 41
30.0
176
     1
 63
     7
421
 16777215
176
     1
 74
     1
176
     1
 91
        4
176
     1
 64
     7
176
     1
 65
   257
176
     1
 75
     1
176
     1
175
     1
176
     1
 42
1.0
176
     1
 92
        0
176
     1
 66
   257
176
     1
 43
1.0
176
     1
 76
     1
176
     1
 77
     6
176
     1
 78
     2
176
     1
 67
     7
176
     1
 79
     3
176
     1
170
     0
176
     1
171
     0
176
     1
290
     0
176
     1
 93
        1
176
     1
 44
0.0
176
     1
173
     0
176
     1
1001
ACAD
1000
AcDbSavedByObjectVersion
1070
     0
  0
VISUALSTYLE
  5
3C
102
{ACAD_XDICTIONARY
360
12D
102
}
102
{ACAD_REACTORS
330
29
102
}
330
29
100
AcDbVisualStyle
  2
X-Ray
 70
    25
177
     2
291
     0
 71
     2
176
     1
 72
     2
176
     1
 73
     1
176
     1
 90
        1
176
     1
 40
0.5
176
     1
 41
30.0
176
     1
 63
     7
421
 16777215
176
     1
 74
     1
176
     1
 91
        0
176
     1
 64
     7
176
     1
 65
   257
176
     1
 75
     1
176
     1
175
     1
176
     1
 42
1.0
176
     1
 92
        8
176
     1
 66
     7
176
     1
 43
1.0
176
     1
 76
     1
176
     1
 77
     6
176
     1
 78
     2
176
     1
 67
     7
176
     1
 79
     3
176
     1
170
     0
176
     1
171
     0
176
     1
290
     0
176
     1
 93
       13
176
     1
 44
0.0
176
     1
173
     0
176
     1
1001
ACAD
1000
AcDbSavedByObjectVersion
1070
     0
  0
DICTIONARYVAR
  5
105
102
{ACAD_REACTORS
330
100
102
}
330
100
100
DictionaryVariables
280
     0
  1
1:1
  0
DICTIONARYVAR
  5
102
102
{ACAD_REACTORS
330
100
102
}
330
100
100
DictionaryVariables
280
     0
  1
STANDARD
  0
DICTIONARYVAR
  5
101
102
{ACAD_REACTORS
330
100
102
}
330
100
100
DictionaryVariables
280
     0
  1
STANDARD
  0
DICTIONARYVAR
  5
103
102
{ACAD_REACTORS
330
100
102
}
330
100
100
DictionaryVariables
280
     0
  1
Imperial24
  0
DICTIONARYVAR
  5
104
102
{ACAD_REACTORS
330
100
102
}
330
100
100
DictionaryVariables
280
     0
  1
Imperial24
  0
DICTIONARY
  5
13D
330
6B
100
AcDbDictionary
280
     1
281
     1
  3
ACAD_XREC_ROUNDTRIP
360
13E
  0
DICTIONARY
  5
1A
330
19
100
AcDbDictionary
280
     1
281
     1
  3
BUMPTILE
360
1C
  3
DIFFUSETILE
360
1B
  3
OPACITYTILE
360
1F
  3
REFLECTIONTILE
360
1E
  3
REFRACTIONTILE
360
20
  3
SPECULARTILE
360
1D
  0
DICTIONARY
  5
12
330
11
100
AcDbDictionary
280
     1
281
     1
  3
BUMPTILE
360
14
  3
DIFFUSETILE
360
13
  3
OPACITYTILE
360
17
  3
REFLECTIONTILE
360
16
  3
REFRACTIONTILE
360
18
  3
SPECULARTILE
360
15
  0
DICTIONARY
  5
22
330
21
100
AcDbDictionary
280
     1
281
     1
  3
BUMPTILE
360
24
  3
DIFFUSETILE
360
23
  3
OPACITYTILE
360
27
  3
REFLECTIONTILE
360
26
  3
REFRACTIONTILE
360
28
  3
SPECULARTILE
360
25
  0
DICTIONARY
  5
139
330
67
100
AcDbDictionary
280
     1
281
     1
  3
ACAD_XREC_ROUNDTRIP
360
13A
  0
DICTIONARY
  5
13B
330
69
100
AcDbDictionary
280
     1
281
     1
  3
ACAD_XREC_ROUNDTRIP
360
13C
  0
DICTIONARY
  5
106
330
65
100
AcDbDictionary
280
     1
281
     1
  3
ACAD_ROUNDTRIP_2008_TABLESTYLE_CELLSTYLEMAP
360
107
  0
DICTIONARY
  5
113
330
2F
100
AcDbDictionary
280
     1
281
     1
  3
ACAD_XREC_ROUNDTRIP
360
114
  0
DICTIONARY
  5
111
330
2E
100
AcDbDictionary
280
     1
281
     1
  3
ACAD_XREC_ROUNDTRIP
360
112
  0
DICTIONARY
  5
11F
330
35
100
AcDbDictionary
280
     1
281
     1
  3
ACAD_XREC_ROUNDTRIP
360
120
  0
DICTIONARY
  5
127
330
39
100
AcDbDictionary
280
     1
281
     1
  3
ACAD_XREC_ROUNDTRIP
360
128
  0
DICTIONARY
  5
119
330
32
100
AcDbDictionary
280
     1
281
     1
  3
ACAD_XREC_ROUNDTRIP
360
11A
  0
DICTIONARY
  5
11D
330
34
100
AcDbDictionary
280
     1
281
     1
  3
ACAD_XREC_ROUNDTRIP
360
11E
  0
DICTIONARY
  5
137
330
41
100
AcDbDictionary
280
     1
281
     1
  3
ACAD_XREC_ROUNDTRIP
360
138
  0
DICTIONARY
  5
125
330
38
100
AcDbDictionary
280
     1
281
     1
  3
ACAD_XREC_ROUNDTRIP
360
126
  0
DICTIONARY
  5
109
330
2A
100
AcDbDictionary
280
     1
281
     1
  3
ACAD_XREC_ROUNDTRIP
360
10A
  0
DICTIONARY
  5
10B
330
2B
100
AcDbDictionary
280
     1
281
     1
  3
ACAD_XREC_ROUNDTRIP
360
10C
  0
DICTIONARY
  5
10D
330
2C
100
AcDbDictionary
280
     1
281
     1
  3
ACAD_XREC_ROUNDTRIP
360
10E
  0
DICTIONARY
  5
10F
330
2D
100
AcDbDictionary
280
     1
281
     1
  3
ACAD_XREC_ROUNDTRIP
360
110
  0
DICTIONARY
  5
117
330
31
100
AcDbDictionary
280
     1
281
     1
  3
ACAD_XREC_ROUNDTRIP
360
118
  0
DICTIONARY
  5
133
330
3F
100
AcDbDictionary
280
     1
281
     1
  3
ACAD_XREC_ROUNDTRIP
360
134
  0
DICTIONARY
  5
123
330
37
100
AcDbDictionary
280
     1
281
     1
  3
ACAD_XREC_ROUNDTRIP
360
124
  0
DICTIONARY
  5
135
330
40
100
AcDbDictionary
280
     1
281
     1
  3
ACAD_XREC_ROUNDTRIP
360
136
  0
DICTIONARY
  5
11B
330
33
100
AcDbDictionary
280
     1
281
     1
  3
ACAD_XREC_ROUNDTRIP
360
11C
  0
DICTIONARY
  5
131
330
3E
100
AcDbDictionary
280
     1
281
     1
  3
ACAD_XREC_ROUNDTRIP
360
132
  0
DICTIONARY
  5
12F
330
3D
100
AcDbDictionary
280
     1
281
     1
  3
ACAD_XREC_ROUNDTRIP
360
130
  0
DICTIONARY
  5
129
330
3A
100
AcDbDictionary
280
     1
281
     1
  3
ACAD_XREC_ROUNDTRIP
360
12A
  0
DICTIONARY
  5
12B
330
3B
100
AcDbDictionary
280
     1
281
     1
  3
ACAD_XREC_ROUNDTRIP
360
12C
  0
DICTIONARY
  5
121
330
36
100
AcDbDictionary
280
     1
281
     1
  3
ACAD_XREC_ROUNDTRIP
360
122
  0
DICTIONARY
  5
115
330
30
100
AcDbDictionary
280
     1
281
     1
  3
ACAD_XREC_ROUNDTRIP
360
116
  0
DICTIONARY
  5
12D
330
3C
100
AcDbDictionary
280
     1
281
     1
  3
ACAD_XREC_ROUNDTRIP
360
12E
  0
XRECORD
  5
13E
102
{ACAD_REACTORS
330
13D
102
}
330
13D
100
AcDbXrecord
280
     1
102
DISPLAYNAME
  1
Imperial24
102
FLAGS
 90
        0
  0
XRECORD
  5
1C
102
{ACAD_REACTORS
330
1A
102
}
330
1A
100
AcDbXrecord
280
     1
270
     1
271
     1
  0
XRECORD
  5
1B
102
{ACAD_REACTORS
330
1A
102
}
330
1A
100
AcDbXrecord
280
     1
270
     1
271
     1
  0
XRECORD
  5
1F
102
{ACAD_REACTORS
330
1A
102
}
330
1A
100
AcDbXrecord
280
     1
270
     1
271
     1
  0
XRECORD
  5
1E
102
{ACAD_REACTORS
330
1A
102
}
330
1A
100
AcDbXrecord
280
     1
270
     1
271
     1
  0
XRECORD
  5
20
102
{ACAD_REACTORS
330
1A
102
}
330
1A
100
AcDbXrecord
280
     1
270
     1
271
     1
  0
XRECORD
  5
1D
102
{ACAD_REACTORS
330
1A
102
}
330
1A
100
AcDbXrecord
280
     1
270
     1
271
     1
  0
XRECORD
  5
14
102
{ACAD_REACTORS
330
12
102
}
330
12
100
AcDbXrecord
280
     1
270
     1
271
     1
  0
XRECORD
  5
13
102
{ACAD_REACTORS
330
12
102
}
330
12
100
AcDbXrecord
280
     1
270
     1
271
     1
  0
XRECORD
  5
17
102
{ACAD_REACTORS
330
12
102
}
330
12
100
AcDbXrecord
280
     1
270
     1
271
     1
  0
XRECORD
  5
16
102
{ACAD_REACTORS
330
12
102
}
330
12
100
AcDbXrecord
280
     1
270
     1
271
     1
  0
XRECORD
  5
18
102
{ACAD_REACTORS
330
12
102
}
330
12
100
AcDbXrecord
280
     1
270
     1
271
     1
  0
XRECORD
  5
15
102
{ACAD_REACTORS
330
12
102
}
330
12
100
AcDbXrecord
280
     1
270
     1
271
     1
  0
XRECORD
  5
24
102
{ACAD_REACTORS
330
22
102
}
330
22
100
AcDbXrecord
280
     1
270
     1
271
     1
  0
XRECORD
  5
23
102
{ACAD_REACTORS
330
22
102
}
330
22
100
AcDbXrecord
280
     1
270
     1
271
     1
  0
XRECORD
  5
27
102
{ACAD_REACTORS
330
22
102
}
330
22
100
AcDbXrecord
280
     1
270
     1
271
     1
  0
XRECORD
  5
26
102
{ACAD_REACTORS
330
22
102
}
330
22
100
AcDbXrecord
280
     1
270
     1
271
     1
  0
XRECORD
  5
28
102
{ACAD_REACTORS
330
22
102
}
330
22
100
AcDbXrecord
280
     1
270
     1
271
     1
  0
XRECORD
  5
25
102
{ACAD_REACTORS
330
22
102
}
330
22
100
AcDbXrecord
280
     1
270
     1
271
     1
  0
XRECORD
  5
13A
102
{ACAD_REACTORS
330
139
102
}
330
139
100
AcDbXrecord
280
     1
102
ACAD_ROUNDTRIP_2012_MLEADER_STYLE
298
     1
  0
XRECORD
  5
13C
102
{ACAD_REACTORS
330
13B
102
}
330
13B
100
AcDbXrecord
280
     1
102
DISPLAYNAME
  1
Imperial24
102
FLAGS
 90
        0
  0
CELLSTYLEMAP
  5
107
102
{ACAD_REACTORS
330
106
102
}
330
106
100
AcDbCellStyleMap
 90
        3
300
CELLSTYLE
  1
TABLEFORMAT_BEGIN
 90
        5
170
     1
 91
        0
 92
    32768
 62
   257
 93
        1
300
CONTENTFORMAT
  1
CONTENTFORMAT_BEGIN
 90
        0
 91
        0
 92
      512
 93
        0
300

 40
0.0
140
1.0
 94
        5
 62
     0
340
55
144
0.25
309
CONTENTFORMAT_END
171
     0
 94
        0
309
TABLEFORMAT_END
  1
CELLSTYLE_BEGIN
 90
        1
 91
        1
300
_TITLE
309
CELLSTYLE_END
300
CELLSTYLE
  1
TABLEFORMAT_BEGIN
 90
        5
170
     1
 91
        0
 92
        0
 62
   257
 93
        1
300
CONTENTFORMAT
  1
CONTENTFORMAT_BEGIN
 90
        0
 91
        0
 92
      512
 93
        0
300

 40
0.0
140
1.0
 94
        5
 62
     0
340
55
144
0.18
309
CONTENTFORMAT_END
171
     0
 94
        0
309
TABLEFORMAT_END
  1
CELLSTYLE_BEGIN
 90
        2
 91
        1
300
_HEADER
309
CELLSTYLE_END
300
CELLSTYLE
  1
TABLEFORMAT_BEGIN
 90
        5
170
     1
 91
        0
 92
        0
 62
   257
 93
        1
300
CONTENTFORMAT
  1
CONTENTFORMAT_BEGIN
 90
        0
 91
        0
 92
      512
 93
        0
300

 40
0.0
140
1.0
 94
        2
 62
     0
340
55
144
0.18
309
CONTENTFORMAT_END
171
     0
 94
        0
309
TABLEFORMAT_END
  1
CELLSTYLE_BEGIN
 90
        3
 91
        2
300
_DATA
309
CELLSTYLE_END
  0
XRECORD
  5
114
102
{ACAD_REACTORS
330
113
102
}
330
113
100
AcDbXrecord
280
     1
102
RTVSPost2010Prop28
280
     1
102
RTVSPost2010PropOp28
 70
     1
102
RTVSPost2010Prop29
280
     1
102
RTVSPost2010PropOp29
 70
     1
102
RTVSPost2010Prop30
280
     0
102
RTVSPost2010PropOp30
 70
     1
102
RTVSPost2010Prop31
280
     0
102
RTVSPost2010PropOp31
 70
     1
102
RTVSPost2010Prop32
280
     0
102
RTVSPost2010PropOp32
 70
     1
102
RTVSPost2010Prop33
280
     0
102
RTVSPost2010PropOp33
 70
     1
102
RTVSPost2010Prop34
280
     0
102
RTVSPost2010PropOp34
 70
     1
102
RTVSPost2010Prop35
280
     0
102
RTVSPost2010PropOp35
 70
     1
102
RTVSPost2010Prop36
280
     0
102
RTVSPost2010PropOp36
 70
     1
102
RTVSPost2010Prop37
 90
       50
102
RTVSPost2010PropOp37
 70
     1
102
RTVSPost2010Prop38
140
0.0
102
RTVSPost2010PropOp38
 70
     1
102
RTVSPost2010Prop39
140
1.0
102
RTVSPost2010PropOp39
 70
     1
102
RTVSPost2010Prop40
 90
        0
102
RTVSPost2010PropOp40
 70
     1
102
RTVSPost2010Prop41ColorIndex
 90
       18
102
RTVSPost2010Prop41ColorRGB
 90
        0
102
RTVSPost2010PropOp41
 70
     1
102
RTVSPost2010Prop42
 90
       50
102
RTVSPost2010PropOp42
 70
     1
102
RTVSPost2010Prop43
 90
        3
102
RTVSPost2010PropOp43
 70
     1
102
RTVSPost2010Prop44ColorIndex
 90
        5
102
RTVSPost2010Prop44ColorRGB
 90
      255
102
RTVSPost2010PropOp44
 70
     1
102
RTVSPost2010Prop45
280
     0
102
RTVSPost2010PropOp45
 70
     1
102
RTVSPost2010Prop46
 90
       50
102
RTVSPost2010PropOp46
 70
     1
102
RTVSPost2010Prop47
 90
       50
102
RTVSPost2010PropOp47
 70
     1
102
RTVSPost2010Prop48
 90
       50
102
RTVSPost2010PropOp48
 70
     1
102
RTVSPost2010Prop49
280
     0
102
RTVSPost2010PropOp49
 70
     1
102
RTVSPost2010Prop50
 90
       50
102
RTVSPost2010PropOp50
 70
     1
102
RTVSPost2010Prop51ColorIndex
 90
      256
102
RTVSPost2010Prop51ColorRGB
 90
-16777216
102
RTVSPost2010PropOp51
 70
     0
102
RTVSPost2010Prop52
140
1.0
102
RTVSPost2010PropOp52
 70
     0
102
RTVSPost2010Prop53
 90
        2
102
RTVSPost2010PropOp53
 70
     1
102
RTVSPost2010Prop54
  1
strokes_ogs.tif
102
RTVSPost2010PropOp54
 70
     1
102
RTVSPost2010Prop55
280
     0
102
RTVSPost2010PropOp55
 70
     1
102
RTVSPost2010Prop56
140
1.0
102
RTVSPost2010PropOp56
 70
     1
102
RTVSPost2010Prop57
140
1.0
102
RTVSPost2010PropOp57
 70
     1
  0
XRECORD
  5
112
102
{ACAD_REACTORS
330
111
102
}
330
111
100
AcDbXrecord
280
     1
102
RTVSPost2010Prop28
280
     0
102
RTVSPost2010PropOp28
 70
     1
102
RTVSPost2010Prop29
280
     1
102
RTVSPost2010PropOp29
 70
     1
102
RTVSPost2010Prop30
280
     1
102
RTVSPost2010PropOp30
 70
     1
102
RTVSPost2010Prop31
280
     0
102
RTVSPost2010PropOp31
 70
     1
102
RTVSPost2010Prop32
280
     0
102
RTVSPost2010PropOp32
 70
     1
102
RTVSPost2010Prop33
280
     0
102
RTVSPost2010PropOp33
 70
     1
102
RTVSPost2010Prop34
280
     0
102
RTVSPost2010PropOp34
 70
     1
102
RTVSPost2010Prop35
280
     0
102
RTVSPost2010PropOp35
 70
     1
102
RTVSPost2010Prop36
280
     0
102
RTVSPost2010PropOp36
 70
     1
102
RTVSPost2010Prop37
 90
       50
102
RTVSPost2010PropOp37
 70
     1
102
RTVSPost2010Prop38
140
0.0
102
RTVSPost2010PropOp38
 70
     1
102
RTVSPost2010Prop39
140
1.0
102
RTVSPost2010PropOp39
 70
     1
102
RTVSPost2010Prop40
 90
        0
102
RTVSPost2010PropOp40
 70
     1
102
RTVSPost2010Prop41ColorIndex
 90
       18
102
RTVSPost2010Prop41ColorRGB
 90
        0
102
RTVSPost2010PropOp41
 70
     1
102
RTVSPost2010Prop42
 90
       50
102
RTVSPost2010PropOp42
 70
     1
102
RTVSPost2010Prop43
 90
        3
102
RTVSPost2010PropOp43
 70
     1
102
RTVSPost2010Prop44ColorIndex
 90
        5
102
RTVSPost2010Prop44ColorRGB
 90
      255
102
RTVSPost2010PropOp44
 70
     1
102
RTVSPost2010Prop45
280
     0
102
RTVSPost2010PropOp45
 70
     1
102
RTVSPost2010Prop46
 90
       50
102
RTVSPost2010PropOp46
 70
     1
102
RTVSPost2010Prop47
 90
       50
102
RTVSPost2010PropOp47
 70
     1
102
RTVSPost2010Prop48
 90
       50
102
RTVSPost2010PropOp48
 70
     1
102
RTVSPost2010Prop49
280
     0
102
RTVSPost2010PropOp49
 70
     1
102
RTVSPost2010Prop50
 90
       50
102
RTVSPost2010PropOp50
 70
     1
102
RTVSPost2010Prop51ColorIndex
 90
      256
102
RTVSPost2010Prop51ColorRGB
 90
-16777216
102
RTVSPost2010PropOp51
 70
     0
102
RTVSPost2010Prop52
140
1.0
102
RTVSPost2010PropOp52
 70
     0
102
RTVSPost2010Prop53
 90
        2
102
RTVSPost2010PropOp53
 70
     1
102
RTVSPost2010Prop54
  1
strokes_ogs.tif
102
RTVSPost2010PropOp54
 70
     1
102
RTVSPost2010Prop55
280
     0
102
RTVSPost2010PropOp55
 70
     1
102
RTVSPost2010Prop56
140
1.0
102
RTVSPost2010PropOp56
 70
     1
102
RTVSPost2010Prop57
140
1.0
102
RTVSPost2010PropOp57
 70
     1
  0
XRECORD
  5
120
102
{ACAD_REACTORS
330
11F
102
}
330
11F
100
AcDbXrecord
280
     1
102
RTVSPost2010Prop28
280
     0
102
RTVSPost2010PropOp28
 70
     1
102
RTVSPost2010Prop29
280
     1
102
RTVSPost2010PropOp29
 70
     1
102
RTVSPost2010Prop30
280
     1
102
RTVSPost2010PropOp30
 70
     1
102
RTVSPost2010Prop31
280
     0
102
RTVSPost2010PropOp31
 70
     1
102
RTVSPost2010Prop32
280
     0
102
RTVSPost2010PropOp32
 70
     1
102
RTVSPost2010Prop33
280
     0
102
RTVSPost2010PropOp33
 70
     1
102
RTVSPost2010Prop34
280
     0
102
RTVSPost2010PropOp34
 70
     1
102
RTVSPost2010Prop35
280
     0
102
RTVSPost2010PropOp35
 70
     1
102
RTVSPost2010Prop36
280
     0
102
RTVSPost2010PropOp36
 70
     1
102
RTVSPost2010Prop37
 90
       50
102
RTVSPost2010PropOp37
 70
     1
102
RTVSPost2010Prop38
140
0.0
102
RTVSPost2010PropOp38
 70
     1
102
RTVSPost2010Prop39
140
1.0
102
RTVSPost2010PropOp39
 70
     1
102
RTVSPost2010Prop40
 90
        0
102
RTVSPost2010PropOp40
 70
     1
102
RTVSPost2010Prop41ColorIndex
 90
       18
102
RTVSPost2010Prop41ColorRGB
 90
        0
102
RTVSPost2010PropOp41
 70
     1
102
RTVSPost2010Prop42
 90
       50
102
RTVSPost2010PropOp42
 70
     1
102
RTVSPost2010Prop43
 90
        3
102
RTVSPost2010PropOp43
 70
     1
102
RTVSPost2010Prop44ColorIndex
 90
        5
102
RTVSPost2010Prop44ColorRGB
 90
      255
102
RTVSPost2010PropOp44
 70
     1
102
RTVSPost2010Prop45
280
     0
102
RTVSPost2010PropOp45
 70
     1
102
RTVSPost2010Prop46
 90
       50
102
RTVSPost2010PropOp46
 70
     1
102
RTVSPost2010Prop47
 90
       50
102
RTVSPost2010PropOp47
 70
     1
102
RTVSPost2010Prop48
 90
       50
102
RTVSPost2010PropOp48
 70
     1
102
RTVSPost2010Prop49
280
     0
102
RTVSPost2010PropOp49
 70
     1
102
RTVSPost2010Prop50
 90
       50
102
RTVSPost2010PropOp50
 70
     1
102
RTVSPost2010Prop51ColorIndex
 90
      256
102
RTVSPost2010Prop51ColorRGB
 90
-16777216
102
RTVSPost2010PropOp51
 70
     0
102
RTVSPost2010Prop52
140
1.0
102
RTVSPost2010PropOp52
 70
     0
102
RTVSPost2010Prop53
 90
        2
102
RTVSPost2010PropOp53
 70
     1
102
RTVSPost2010Prop54
  1
strokes_ogs.tif
102
RTVSPost2010PropOp54
 70
     1
102
RTVSPost2010Prop55
280
     0
102
RTVSPost2010PropOp55
 70
     1
102
RTVSPost2010Prop56
140
1.0
102
RTVSPost2010PropOp56
 70
     1
102
RTVSPost2010Prop57
140
1.0
102
RTVSPost2010PropOp57
 70
     1
  0
XRECORD
  5
128
102
{ACAD_REACTORS
330
127
102
}
330
127
100
AcDbXrecord
280
     1
102
RTVSPost2010Prop28
280
     0
102
RTVSPost2010PropOp28
 70
     1
102
RTVSPost2010Prop29
280
     1
102
RTVSPost2010PropOp29
 70
     1
102
RTVSPost2010Prop30
280
     1
102
RTVSPost2010PropOp30
 70
     1
102
RTVSPost2010Prop31
280
     0
102
RTVSPost2010PropOp31
 70
     1
102
RTVSPost2010Prop32
280
     0
102
RTVSPost2010PropOp32
 70
     1
102
RTVSPost2010Prop33
280
     0
102
RTVSPost2010PropOp33
 70
     1
102
RTVSPost2010Prop34
280
     0
102
RTVSPost2010PropOp34
 70
     1
102
RTVSPost2010Prop35
280
     0
102
RTVSPost2010PropOp35
 70
     1
102
RTVSPost2010Prop36
280
     0
102
RTVSPost2010PropOp36
 70
     1
102
RTVSPost2010Prop37
 90
       50
102
RTVSPost2010PropOp37
 70
     1
102
RTVSPost2010Prop38
140
0.0
102
RTVSPost2010PropOp38
 70
     1
102
RTVSPost2010Prop39
140
1.0
102
RTVSPost2010PropOp39
 70
     1
102
RTVSPost2010Prop40
 90
        0
102
RTVSPost2010PropOp40
 70
     1
102
RTVSPost2010Prop41ColorIndex
 90
       18
102
RTVSPost2010Prop41ColorRGB
 90
        0
102
RTVSPost2010PropOp41
 70
     1
102
RTVSPost2010Prop42
 90
       50
102
RTVSPost2010PropOp42
 70
     1
102
RTVSPost2010Prop43
 90
        3
102
RTVSPost2010PropOp43
 70
     1
102
RTVSPost2010Prop44ColorIndex
 90
        5
102
RTVSPost2010Prop44ColorRGB
 90
      255
102
RTVSPost2010PropOp44
 70
     1
102
RTVSPost2010Prop45
280
     0
102
RTVSPost2010PropOp45
 70
     1
102
RTVSPost2010Prop46
 90
       50
102
RTVSPost2010PropOp46
 70
     1
102
RTVSPost2010Prop47
 90
       50
102
RTVSPost2010PropOp47
 70
     1
102
RTVSPost2010Prop48
 90
       50
102
RTVSPost2010PropOp48
 70
     1
102
RTVSPost2010Prop49
280
     0
102
RTVSPost2010PropOp49
 70
     1
102
RTVSPost2010Prop50
 90
       50
102
RTVSPost2010PropOp50
 70
     1
102
RTVSPost2010Prop51ColorIndex
 90
      256
102
RTVSPost2010Prop51ColorRGB
 90
-16777216
102
RTVSPost2010PropOp51
 70
     0
102
RTVSPost2010Prop52
140
1.0
102
RTVSPost2010PropOp52
 70
     0
102
RTVSPost2010Prop53
 90
        2
102
RTVSPost2010PropOp53
 70
     1
102
RTVSPost2010Prop54
  1
strokes_ogs.tif
102
RTVSPost2010PropOp54
 70
     1
102
RTVSPost2010Prop55
280
     0
102
RTVSPost2010PropOp55
 70
     1
102
RTVSPost2010Prop56
140
1.0
102
RTVSPost2010PropOp56
 70
     1
102
RTVSPost2010Prop57
140
1.0
102
RTVSPost2010PropOp57
 70
     1
  0
XRECORD
  5
11A
102
{ACAD_REACTORS
330
119
102
}
330
119
100
AcDbXrecord
280
     1
102
RTVSPost2010Prop28
280
     0
102
RTVSPost2010PropOp28
 70
     1
102
RTVSPost2010Prop29
280
     1
102
RTVSPost2010PropOp29
 70
     1
102
RTVSPost2010Prop30
280
     1
102
RTVSPost2010PropOp30
 70
     1
102
RTVSPost2010Prop31
280
     0
102
RTVSPost2010PropOp31
 70
     1
102
RTVSPost2010Prop32
280
     0
102
RTVSPost2010PropOp32
 70
     1
102
RTVSPost2010Prop33
280
     0
102
RTVSPost2010PropOp33
 70
     1
102
RTVSPost2010Prop34
280
     0
102
RTVSPost2010PropOp34
 70
     1
102
RTVSPost2010Prop35
280
     0
102
RTVSPost2010PropOp35
 70
     1
102
RTVSPost2010Prop36
280
     0
102
RTVSPost2010PropOp36
 70
     1
102
RTVSPost2010Prop37
 90
       50
102
RTVSPost2010PropOp37
 70
     1
102
RTVSPost2010Prop38
140
0.0
102
RTVSPost2010PropOp38
 70
     1
102
RTVSPost2010Prop39
140
1.0
102
RTVSPost2010PropOp39
 70
     1
102
RTVSPost2010Prop40
 90
        0
102
RTVSPost2010PropOp40
 70
     1
102
RTVSPost2010Prop41ColorIndex
 90
       18
102
RTVSPost2010Prop41ColorRGB
 90
        0
102
RTVSPost2010PropOp41
 70
     1
102
RTVSPost2010Prop42
 90
       50
102
RTVSPost2010PropOp42
 70
     1
102
RTVSPost2010Prop43
 90
        3
102
RTVSPost2010PropOp43
 70
     1
102
RTVSPost2010Prop44ColorIndex
 90
        5
102
RTVSPost2010Prop44ColorRGB
 90
      255
102
RTVSPost2010PropOp44
 70
     1
102
RTVSPost2010Prop45
280
     0
102
RTVSPost2010PropOp45
 70
     1
102
RTVSPost2010Prop46
 90
       50
102
RTVSPost2010PropOp46
 70
     1
102
RTVSPost2010Prop47
 90
       50
102
RTVSPost2010PropOp47
 70
     1
102
RTVSPost2010Prop48
 90
       50
102
RTVSPost2010PropOp48
 70
     1
102
RTVSPost2010Prop49
280
     0
102
RTVSPost2010PropOp49
 70
     1
102
RTVSPost2010Prop50
 90
       50
102
RTVSPost2010PropOp50
 70
     1
102
RTVSPost2010Prop51ColorIndex
 90
      256
102
RTVSPost2010Prop51ColorRGB
 90
-16777216
102
RTVSPost2010PropOp51
 70
     0
102
RTVSPost2010Prop52
140
1.0
102
RTVSPost2010PropOp52
 70
     0
102
RTVSPost2010Prop53
 90
        2
102
RTVSPost2010PropOp53
 70
     1
102
RTVSPost2010Prop54
  1
strokes_ogs.tif
102
RTVSPost2010PropOp54
 70
     1
102
RTVSPost2010Prop55
280
     0
102
RTVSPost2010PropOp55
 70
     1
102
RTVSPost2010Prop56
140
1.0
102
RTVSPost2010PropOp56
 70
     1
102
RTVSPost2010Prop57
140
1.0
102
RTVSPost2010PropOp57
 70
     1
  0
XRECORD
  5
11E
102
{ACAD_REACTORS
330
11D
102
}
330
11D
100
AcDbXrecord
280
     1
102
RTVSPost2010Prop28
280
     0
102
RTVSPost2010PropOp28
 70
     1
102
RTVSPost2010Prop29
280
     1
102
RTVSPost2010PropOp29
 70
     1
102
RTVSPost2010Prop30
280
     1
102
RTVSPost2010PropOp30
 70
     1
102
RTVSPost2010Prop31
280
     0
102
RTVSPost2010PropOp31
 70
     1
102
RTVSPost2010Prop32
280
     0
102
RTVSPost2010PropOp32
 70
     1
102
RTVSPost2010Prop33
280
     0
102
RTVSPost2010PropOp33
 70
     1
102
RTVSPost2010Prop34
280
     0
102
RTVSPost2010PropOp34
 70
     1
102
RTVSPost2010Prop35
280
     0
102
RTVSPost2010PropOp35
 70
     1
102
RTVSPost2010Prop36
280
     0
102
RTVSPost2010PropOp36
 70
     1
102
RTVSPost2010Prop37
 90
       50
102
RTVSPost2010PropOp37
 70
     1
102
RTVSPost2010Prop38
140
0.0
102
RTVSPost2010PropOp38
 70
     1
102
RTVSPost2010Prop39
140
1.0
102
RTVSPost2010PropOp39
 70
     1
102
RTVSPost2010Prop40
 90
        0
102
RTVSPost2010PropOp40
 70
     1
102
RTVSPost2010Prop41ColorIndex
 90
       18
102
RTVSPost2010Prop41ColorRGB
 90
        0
102
RTVSPost2010PropOp41
 70
     1
102
RTVSPost2010Prop42
 90
       50
102
RTVSPost2010PropOp42
 70
     1
102
RTVSPost2010Prop43
 90
        3
102
RTVSPost2010PropOp43
 70
     1
102
RTVSPost2010Prop44ColorIndex
 90
        5
102
RTVSPost2010Prop44ColorRGB
 90
      255
102
RTVSPost2010PropOp44
 70
     1
102
RTVSPost2010Prop45
280
     0
102
RTVSPost2010PropOp45
 70
     1
102
RTVSPost2010Prop46
 90
       50
102
RTVSPost2010PropOp46
 70
     1
102
RTVSPost2010Prop47
 90
       50
102
RTVSPost2010PropOp47
 70
     1
102
RTVSPost2010Prop48
 90
       50
102
RTVSPost2010PropOp48
 70
     1
102
RTVSPost2010Prop49
280
     0
102
RTVSPost2010PropOp49
 70
     1
102
RTVSPost2010Prop50
 90
       50
102
RTVSPost2010PropOp50
 70
     1
102
RTVSPost2010Prop51ColorIndex
 90
      256
102
RTVSPost2010Prop51ColorRGB
 90
-16777216
102
RTVSPost2010PropOp51
 70
     0
102
RTVSPost2010Prop52
140
1.0
102
RTVSPost2010PropOp52
 70
     0
102
RTVSPost2010Prop53
 90
        2
102
RTVSPost2010PropOp53
 70
     1
102
RTVSPost2010Prop54
  1
strokes_ogs.tif
102
RTVSPost2010PropOp54
 70
     1
102
RTVSPost2010Prop55
280
     0
102
RTVSPost2010PropOp55
 70
     1
102
RTVSPost2010Prop56
140
1.0
102
RTVSPost2010PropOp56
 70
     1
102
RTVSPost2010Prop57
140
1.0
102
RTVSPost2010PropOp57
 70
     1
  0
XRECORD
  5
138
102
{ACAD_REACTORS
330
137
102
}
330
137
100
AcDbXrecord
280
     1
102
RTVSPost2010Prop28
280
     0
102
RTVSPost2010PropOp28
 70
     0
102
RTVSPost2010Prop29
280
     1
102
RTVSPost2010PropOp29
 70
     0
102
RTVSPost2010Prop30
280
     1
102
RTVSPost2010PropOp30
 70
     0
102
RTVSPost2010Prop31
280
     0
102
RTVSPost2010PropOp31
 70
     0
102
RTVSPost2010Prop32
280
     0
102
RTVSPost2010PropOp32
 70
     0
102
RTVSPost2010Prop33
280
     0
102
RTVSPost2010PropOp33
 70
     0
102
RTVSPost2010Prop34
280
     0
102
RTVSPost2010PropOp34
 70
     0
102
RTVSPost2010Prop35
280
     0
102
RTVSPost2010PropOp35
 70
     0
102
RTVSPost2010Prop36
280
     0
102
RTVSPost2010PropOp36
 70
     0
102
RTVSPost2010Prop37
 90
       50
102
RTVSPost2010PropOp37
 70
     0
102
RTVSPost2010Prop38
140
0.0
102
RTVSPost2010PropOp38
 70
     0
102
RTVSPost2010Prop39
140
1.0
102
RTVSPost2010PropOp39
 70
     0
102
RTVSPost2010Prop40
 90
        0
102
RTVSPost2010PropOp40
 70
     0
102
RTVSPost2010Prop41ColorIndex
 90
       18
102
RTVSPost2010Prop41ColorRGB
 90
        0
102
RTVSPost2010PropOp41
 70
     0
102
RTVSPost2010Prop42
 90
       50
102
RTVSPost2010PropOp42
 70
     0
102
RTVSPost2010Prop43
 90
        3
102
RTVSPost2010PropOp43
 70
     0
102
RTVSPost2010Prop44ColorIndex
 90
        5
102
RTVSPost2010Prop44ColorRGB
 90
      255
102
RTVSPost2010PropOp44
 70
     0
102
RTVSPost2010Prop45
280
     0
102
RTVSPost2010PropOp45
 70
     0
102
RTVSPost2010Prop46
 90
       50
102
RTVSPost2010PropOp46
 70
     0
102
RTVSPost2010Prop47
 90
       50
102
RTVSPost2010PropOp47
 70
     0
102
RTVSPost2010Prop48
 90
       50
102
RTVSPost2010PropOp48
 70
     0
102
RTVSPost2010Prop49
280
     0
102
RTVSPost2010PropOp49
 70
     0
102
RTVSPost2010Prop50
 90
       50
102
RTVSPost2010PropOp50
 70
     0
102
RTVSPost2010Prop51ColorIndex
 90
      256
102
RTVSPost2010Prop51ColorRGB
 90
-16777216
102
RTVSPost2010PropOp51
 70
     0
102
RTVSPost2010Prop52
140
1.0
102
RTVSPost2010PropOp52
 70
     0
102
RTVSPost2010Prop53
 90
        2
102
RTVSPost2010PropOp53
 70
     0
102
RTVSPost2010Prop54
  1
strokes_ogs.tif
102
RTVSPost2010PropOp54
 70
     0
102
RTVSPost2010Prop55
280
     0
102
RTVSPost2010PropOp55
 70
     0
102
RTVSPost2010Prop56
140
1.0
102
RTVSPost2010PropOp56
 70
     0
102
RTVSPost2010Prop57
140
1.0
102
RTVSPost2010PropOp57
 70
     0
  0
XRECORD
  5
126
102
{ACAD_REACTORS
330
125
102
}
330
125
100
AcDbXrecord
280
     1
102
RTVSPost2010Prop28
280
     0
102
RTVSPost2010PropOp28
 70
     1
102
RTVSPost2010Prop29
280
     1
102
RTVSPost2010PropOp29
 70
     1
102
RTVSPost2010Prop30
280
     1
102
RTVSPost2010PropOp30
 70
     1
102
RTVSPost2010Prop31
280
     0
102
RTVSPost2010PropOp31
 70
     1
102
RTVSPost2010Prop32
280
     0
102
RTVSPost2010PropOp32
 70
     1
102
RTVSPost2010Prop33
280
     0
102
RTVSPost2010PropOp33
 70
     1
102
RTVSPost2010Prop34
280
     0
102
RTVSPost2010PropOp34
 70
     1
102
RTVSPost2010Prop35
280
     0
102
RTVSPost2010PropOp35
 70
     1
102
RTVSPost2010Prop36
280
     0
102
RTVSPost2010PropOp36
 70
     1
102
RTVSPost2010Prop37
 90
       50
102
RTVSPost2010PropOp37
 70
     1
102
RTVSPost2010Prop38
140
0.0
102
RTVSPost2010PropOp38
 70
     1
102
RTVSPost2010Prop39
140
1.0
102
RTVSPost2010PropOp39
 70
     1
102
RTVSPost2010Prop40
 90
        0
102
RTVSPost2010PropOp40
 70
     1
102
RTVSPost2010Prop41ColorIndex
 90
       18
102
RTVSPost2010Prop41ColorRGB
 90
        0
102
RTVSPost2010PropOp41
 70
     1
102
RTVSPost2010Prop42
 90
       50
102
RTVSPost2010PropOp42
 70
     1
102
RTVSPost2010Prop43
 90
        3
102
RTVSPost2010PropOp43
 70
     1
102
RTVSPost2010Prop44ColorIndex
 90
        5
102
RTVSPost2010Prop44ColorRGB
 90
      255
102
RTVSPost2010PropOp44
 70
     1
102
RTVSPost2010Prop45
280
     0
102
RTVSPost2010PropOp45
 70
     1
102
RTVSPost2010Prop46
 90
       50
102
RTVSPost2010PropOp46
 70
     1
102
RTVSPost2010Prop47
 90
       50
102
RTVSPost2010PropOp47
 70
     1
102
RTVSPost2010Prop48
 90
       50
102
RTVSPost2010PropOp48
 70
     1
102
RTVSPost2010Prop49
280
     0
102
RTVSPost2010PropOp49
 70
     1
102
RTVSPost2010Prop50
 90
       50
102
RTVSPost2010PropOp50
 70
     1
102
RTVSPost2010Prop51ColorIndex
 90
      256
102
RTVSPost2010Prop51ColorRGB
 90
-16777216
102
RTVSPost2010PropOp51
 70
     0
102
RTVSPost2010Prop52
140
1.0
102
RTVSPost2010PropOp52
 70
     0
102
RTVSPost2010Prop53
 90
        2
102
RTVSPost2010PropOp53
 70
     1
102
RTVSPost2010Prop54
  1
strokes_ogs.tif
102
RTVSPost2010PropOp54
 70
     1
102
RTVSPost2010Prop55
280
     0
102
RTVSPost2010PropOp55
 70
     1
102
RTVSPost2010Prop56
140
1.0
102
RTVSPost2010PropOp56
 70
     1
102
RTVSPost2010Prop57
140
1.0
102
RTVSPost2010PropOp57
 70
     1
  0
XRECORD
  5
10A
102
{ACAD_REACTORS
330
109
102
}
330
109
100
AcDbXrecord
280
     1
102
RTVSPost2010Prop28
280
     0
102
RTVSPost2010PropOp28
 70
     1
102
RTVSPost2010Prop29
280
     1
102
RTVSPost2010PropOp29
 70
     1
102
RTVSPost2010Prop30
280
     1
102
RTVSPost2010PropOp30
 70
     1
102
RTVSPost2010Prop31
280
     0
102
RTVSPost2010PropOp31
 70
     1
102
RTVSPost2010Prop32
280
     0
102
RTVSPost2010PropOp32
 70
     1
102
RTVSPost2010Prop33
280
     0
102
RTVSPost2010PropOp33
 70
     1
102
RTVSPost2010Prop34
280
     0
102
RTVSPost2010PropOp34
 70
     1
102
RTVSPost2010Prop35
280
     0
102
RTVSPost2010PropOp35
 70
     1
102
RTVSPost2010Prop36
280
     0
102
RTVSPost2010PropOp36
 70
     1
102
RTVSPost2010Prop37
 90
       50
102
RTVSPost2010PropOp37
 70
     1
102
RTVSPost2010Prop38
140
0.0
102
RTVSPost2010PropOp38
 70
     1
102
RTVSPost2010Prop39
140
1.0
102
RTVSPost2010PropOp39
 70
     1
102
RTVSPost2010Prop40
 90
        0
102
RTVSPost2010PropOp40
 70
     1
102
RTVSPost2010Prop41ColorIndex
 90
       18
102
RTVSPost2010Prop41ColorRGB
 90
        0
102
RTVSPost2010PropOp41
 70
     1
102
RTVSPost2010Prop42
 90
       50
102
RTVSPost2010PropOp42
 70
     1
102
RTVSPost2010Prop43
 90
        3
102
RTVSPost2010PropOp43
 70
     1
102
RTVSPost2010Prop44ColorIndex
 90
        5
102
RTVSPost2010Prop44ColorRGB
 90
      255
102
RTVSPost2010PropOp44
 70
     1
102
RTVSPost2010Prop45
280
     0
102
RTVSPost2010PropOp45
 70
     1
102
RTVSPost2010Prop46
 90
       50
102
RTVSPost2010PropOp46
 70
     1
102
RTVSPost2010Prop47
 90
       50
102
RTVSPost2010PropOp47
 70
     1
102
RTVSPost2010Prop48
 90
       50
102
RTVSPost2010PropOp48
 70
     1
102
RTVSPost2010Prop49
280
     0
102
RTVSPost2010PropOp49
 70
     1
102
RTVSPost2010Prop50
 90
       50
102
RTVSPost2010PropOp50
 70
     1
102
RTVSPost2010Prop51ColorIndex
 90
      256
102
RTVSPost2010Prop51ColorRGB
 90
-16777216
102
RTVSPost2010PropOp51
 70
     0
102
RTVSPost2010Prop52
140
1.0
102
RTVSPost2010PropOp52
 70
     0
102
RTVSPost2010Prop53
 90
        2
102
RTVSPost2010PropOp53
 70
     1
102
RTVSPost2010Prop54
  1
strokes_ogs.tif
102
RTVSPost2010PropOp54
 70
     1
102
RTVSPost2010Prop55
280
     0
102
RTVSPost2010PropOp55
 70
     1
102
RTVSPost2010Prop56
140
1.0
102
RTVSPost2010PropOp56
 70
     1
102
RTVSPost2010Prop57
140
1.0
102
RTVSPost2010PropOp57
 70
     1
  0
XRECORD
  5
10C
102
{ACAD_REACTORS
330
10B
102
}
330
10B
100
AcDbXrecord
280
     1
102
RTVSPost2010Prop28
280
     0
102
RTVSPost2010PropOp28
 70
     1
102
RTVSPost2010Prop29
280
     1
102
RTVSPost2010PropOp29
 70
     1
102
RTVSPost2010Prop30
280
     1
102
RTVSPost2010PropOp30
 70
     1
102
RTVSPost2010Prop31
280
     0
102
RTVSPost2010PropOp31
 70
     1
102
RTVSPost2010Prop32
280
     0
102
RTVSPost2010PropOp32
 70
     1
102
RTVSPost2010Prop33
280
     0
102
RTVSPost2010PropOp33
 70
     1
102
RTVSPost2010Prop34
280
     0
102
RTVSPost2010PropOp34
 70
     1
102
RTVSPost2010Prop35
280
     0
102
RTVSPost2010PropOp35
 70
     1
102
RTVSPost2010Prop36
280
     0
102
RTVSPost2010PropOp36
 70
     1
102
RTVSPost2010Prop37
 90
       50
102
RTVSPost2010PropOp37
 70
     1
102
RTVSPost2010Prop38
140
0.0
102
RTVSPost2010PropOp38
 70
     1
102
RTVSPost2010Prop39
140
1.0
102
RTVSPost2010PropOp39
 70
     1
102
RTVSPost2010Prop40
 90
        0
102
RTVSPost2010PropOp40
 70
     1
102
RTVSPost2010Prop41ColorIndex
 90
       18
102
RTVSPost2010Prop41ColorRGB
 90
        0
102
RTVSPost2010PropOp41
 70
     1
102
RTVSPost2010Prop42
 90
       50
102
RTVSPost2010PropOp42
 70
     1
102
RTVSPost2010Prop43
 90
        3
102
RTVSPost2010PropOp43
 70
     1
102
RTVSPost2010Prop44ColorIndex
 90
        5
102
RTVSPost2010Prop44ColorRGB
 90
      255
102
RTVSPost2010PropOp44
 70
     1
102
RTVSPost2010Prop45
280
     0
102
RTVSPost2010PropOp45
 70
     1
102
RTVSPost2010Prop46
 90
       50
102
RTVSPost2010PropOp46
 70
     1
102
RTVSPost2010Prop47
 90
       50
102
RTVSPost2010PropOp47
 70
     1
102
RTVSPost2010Prop48
 90
       50
102
RTVSPost2010PropOp48
 70
     1
102
RTVSPost2010Prop49
280
     0
102
RTVSPost2010PropOp49
 70
     1
102
RTVSPost2010Prop50
 90
       50
102
RTVSPost2010PropOp50
 70
     1
102
RTVSPost2010Prop51ColorIndex
 90
      256
102
RTVSPost2010Prop51ColorRGB
 90
-16777216
102
RTVSPost2010PropOp51
 70
     0
102
RTVSPost2010Prop52
140
1.0
102
RTVSPost2010PropOp52
 70
     0
102
RTVSPost2010Prop53
 90
        2
102
RTVSPost2010PropOp53
 70
     1
102
RTVSPost2010Prop54
  1
strokes_ogs.tif
102
RTVSPost2010PropOp54
 70
     1
102
RTVSPost2010Prop55
280
     0
102
RTVSPost2010PropOp55
 70
     1
102
RTVSPost2010Prop56
140
1.0
102
RTVSPost2010PropOp56
 70
     1
102
RTVSPost2010Prop57
140
1.0
102
RTVSPost2010PropOp57
 70
     1
  0
XRECORD
  5
10E
102
{ACAD_REACTORS
330
10D
102
}
330
10D
100
AcDbXrecord
280
     1
102
RTVSPost2010Prop28
280
     0
102
RTVSPost2010PropOp28
 70
     1
102
RTVSPost2010Prop29
280
     1
102
RTVSPost2010PropOp29
 70
     1
102
RTVSPost2010Prop30
280
     1
102
RTVSPost2010PropOp30
 70
     1
102
RTVSPost2010Prop31
280
     0
102
RTVSPost2010PropOp31
 70
     1
102
RTVSPost2010Prop32
280
     0
102
RTVSPost2010PropOp32
 70
     1
102
RTVSPost2010Prop33
280
     0
102
RTVSPost2010PropOp33
 70
     1
102
RTVSPost2010Prop34
280
     0
102
RTVSPost2010PropOp34
 70
     1
102
RTVSPost2010Prop35
280
     0
102
RTVSPost2010PropOp35
 70
     1
102
RTVSPost2010Prop36
280
     0
102
RTVSPost2010PropOp36
 70
     1
102
RTVSPost2010Prop37
 90
       50
102
RTVSPost2010PropOp37
 70
     1
102
RTVSPost2010Prop38
140
0.0
102
RTVSPost2010PropOp38
 70
     1
102
RTVSPost2010Prop39
140
1.0
102
RTVSPost2010PropOp39
 70
     1
102
RTVSPost2010Prop40
 90
        0
102
RTVSPost2010PropOp40
 70
     1
102
RTVSPost2010Prop41ColorIndex
 90
       18
102
RTVSPost2010Prop41ColorRGB
 90
        0
102
RTVSPost2010PropOp41
 70
     1
102
RTVSPost2010Prop42
 90
       50
102
RTVSPost2010PropOp42
 70
     1
102
RTVSPost2010Prop43
 90
        3
102
RTVSPost2010PropOp43
 70
     1
102
RTVSPost2010Prop44ColorIndex
 90
        5
102
RTVSPost2010Prop44ColorRGB
 90
      255
102
RTVSPost2010PropOp44
 70
     1
102
RTVSPost2010Prop45
280
     0
102
RTVSPost2010PropOp45
 70
     1
102
RTVSPost2010Prop46
 90
       50
102
RTVSPost2010PropOp46
 70
     1
102
RTVSPost2010Prop47
 90
       50
102
RTVSPost2010PropOp47
 70
     1
102
RTVSPost2010Prop48
 90
       50
102
RTVSPost2010PropOp48
 70
     1
102
RTVSPost2010Prop49
280
     0
102
RTVSPost2010PropOp49
 70
     1
102
RTVSPost2010Prop50
 90
       50
102
RTVSPost2010PropOp50
 70
     1
102
RTVSPost2010Prop51ColorIndex
 90
      256
102
RTVSPost2010Prop51ColorRGB
 90
-16777216
102
RTVSPost2010PropOp51
 70
     0
102
RTVSPost2010Prop52
140
1.0
102
RTVSPost2010PropOp52
 70
     0
102
RTVSPost2010Prop53
 90
        2
102
RTVSPost2010PropOp53
 70
     1
102
RTVSPost2010Prop54
  1
strokes_ogs.tif
102
RTVSPost2010PropOp54
 70
     1
102
RTVSPost2010Prop55
280
     0
102
RTVSPost2010PropOp55
 70
     1
102
RTVSPost2010Prop56
140
1.0
102
RTVSPost2010PropOp56
 70
     1
102
RTVSPost2010Prop57
140
1.0
102
RTVSPost2010PropOp57
 70
     1
  0
XRECORD
  5
110
102
{ACAD_REACTORS
330
10F
102
}
330
10F
100
AcDbXrecord
280
     1
102
RTVSPost2010Prop28
280
     0
102
RTVSPost2010PropOp28
 70
     1
102
RTVSPost2010Prop29
280
     1
102
RTVSPost2010PropOp29
 70
     1
102
RTVSPost2010Prop30
280
     1
102
RTVSPost2010PropOp30
 70
     1
102
RTVSPost2010Prop31
280
     0
102
RTVSPost2010PropOp31
 70
     1
102
RTVSPost2010Prop32
280
     0
102
RTVSPost2010PropOp32
 70
     1
102
RTVSPost2010Prop33
280
     0
102
RTVSPost2010PropOp33
 70
     1
102
RTVSPost2010Prop34
280
     0
102
RTVSPost2010PropOp34
 70
     1
102
RTVSPost2010Prop35
280
     0
102
RTVSPost2010PropOp35
 70
     1
102
RTVSPost2010Prop36
280
     0
102
RTVSPost2010PropOp36
 70
     1
102
RTVSPost2010Prop37
 90
       50
102
RTVSPost2010PropOp37
 70
     1
102
RTVSPost2010Prop38
140
0.0
102
RTVSPost2010PropOp38
 70
     1
102
RTVSPost2010Prop39
140
1.0
102
RTVSPost2010PropOp39
 70
     1
102
RTVSPost2010Prop40
 90
        0
102
RTVSPost2010PropOp40
 70
     1
102
RTVSPost2010Prop41ColorIndex
 90
       18
102
RTVSPost2010Prop41ColorRGB
 90
        0
102
RTVSPost2010PropOp41
 70
     1
102
RTVSPost2010Prop42
 90
       50
102
RTVSPost2010PropOp42
 70
     1
102
RTVSPost2010Prop43
 90
        3
102
RTVSPost2010PropOp43
 70
     1
102
RTVSPost2010Prop44ColorIndex
 90
        5
102
RTVSPost2010Prop44ColorRGB
 90
      255
102
RTVSPost2010PropOp44
 70
     1
102
RTVSPost2010Prop45
280
     0
102
RTVSPost2010PropOp45
 70
     1
102
RTVSPost2010Prop46
 90
       50
102
RTVSPost2010PropOp46
 70
     1
102
RTVSPost2010Prop47
 90
       50
102
RTVSPost2010PropOp47
 70
     1
102
RTVSPost2010Prop48
 90
       50
102
RTVSPost2010PropOp48
 70
     1
102
RTVSPost2010Prop49
280
     0
102
RTVSPost2010PropOp49
 70
     1
102
RTVSPost2010Prop50
 90
       50
102
RTVSPost2010PropOp50
 70
     1
102
RTVSPost2010Prop51ColorIndex
 90
      256
102
RTVSPost2010Prop51ColorRGB
 90
-16777216
102
RTVSPost2010PropOp51
 70
     0
102
RTVSPost2010Prop52
140
1.0
102
RTVSPost2010PropOp52
 70
     0
102
RTVSPost2010Prop53
 90
        2
102
RTVSPost2010PropOp53
 70
     1
102
RTVSPost2010Prop54
  1
strokes_ogs.tif
102
RTVSPost2010PropOp54
 70
     1
102
RTVSPost2010Prop55
280
     0
102
RTVSPost2010PropOp55
 70
     1
102
RTVSPost2010Prop56
140
1.0
102
RTVSPost2010PropOp56
 70
     1
102
RTVSPost2010Prop57
140
1.0
102
RTVSPost2010PropOp57
 70
     1
  0
XRECORD
  5
118
102
{ACAD_REACTORS
330
117
102
}
330
117
100
AcDbXrecord
280
     1
102
RTVSPost2010Prop28
280
     0
102
RTVSPost2010PropOp28
 70
     1
102
RTVSPost2010Prop29
280
     1
102
RTVSPost2010PropOp29
 70
     1
102
RTVSPost2010Prop30
280
     1
102
RTVSPost2010PropOp30
 70
     1
102
RTVSPost2010Prop31
280
     0
102
RTVSPost2010PropOp31
 70
     1
102
RTVSPost2010Prop32
280
     0
102
RTVSPost2010PropOp32
 70
     1
102
RTVSPost2010Prop33
280
     0
102
RTVSPost2010PropOp33
 70
     1
102
RTVSPost2010Prop34
280
     0
102
RTVSPost2010PropOp34
 70
     1
102
RTVSPost2010Prop35
280
     0
102
RTVSPost2010PropOp35
 70
     1
102
RTVSPost2010Prop36
280
     0
102
RTVSPost2010PropOp36
 70
     1
102
RTVSPost2010Prop37
 90
       50
102
RTVSPost2010PropOp37
 70
     1
102
RTVSPost2010Prop38
140
0.0
102
RTVSPost2010PropOp38
 70
     1
102
RTVSPost2010Prop39
140
1.0
102
RTVSPost2010PropOp39
 70
     1
102
RTVSPost2010Prop40
 90
        0
102
RTVSPost2010PropOp40
 70
     1
102
RTVSPost2010Prop41ColorIndex
 90
       18
102
RTVSPost2010Prop41ColorRGB
 90
        0
102
RTVSPost2010PropOp41
 70
     1
102
RTVSPost2010Prop42
 90
       50
102
RTVSPost2010PropOp42
 70
     1
102
RTVSPost2010Prop43
 90
        3
102
RTVSPost2010PropOp43
 70
     1
102
RTVSPost2010Prop44ColorIndex
 90
        5
102
RTVSPost2010Prop44ColorRGB
 90
      255
102
RTVSPost2010PropOp44
 70
     1
102
RTVSPost2010Prop45
280
     0
102
RTVSPost2010PropOp45
 70
     1
102
RTVSPost2010Prop46
 90
       50
102
RTVSPost2010PropOp46
 70
     1
102
RTVSPost2010Prop47
 90
       50
102
RTVSPost2010PropOp47
 70
     1
102
RTVSPost2010Prop48
 90
       50
102
RTVSPost2010PropOp48
 70
     1
102
RTVSPost2010Prop49
280
     0
102
RTVSPost2010PropOp49
 70
     1
102
RTVSPost2010Prop50
 90
       50
102
RTVSPost2010PropOp50
 70
     1
102
RTVSPost2010Prop51ColorIndex
 90
      256
102
RTVSPost2010Prop51ColorRGB
 90
-16777216
102
RTVSPost2010PropOp51
 70
     0
102
RTVSPost2010Prop52
140
1.0
102
RTVSPost2010PropOp52
 70
     0
102
RTVSPost2010Prop53
 90
        2
102
RTVSPost2010PropOp53
 70
     1
102
RTVSPost2010Prop54
  1
strokes_ogs.tif
102
RTVSPost2010PropOp54
 70
     1
102
RTVSPost2010Prop55
280
     0
102
RTVSPost2010PropOp55
 70
     1
102
RTVSPost2010Prop56
140
1.0
102
RTVSPost2010PropOp56
 70
     1
102
RTVSPost2010Prop57
140
1.0
102
RTVSPost2010PropOp57
 70
     1
  0
XRECORD
  5
134
102
{ACAD_REACTORS
330
133
102
}
330
133
100
AcDbXrecord
280
     1
102
RTVSPost2010Prop28
280
     0
102
RTVSPost2010PropOp28
 70
     0
102
RTVSPost2010Prop29
280
     1
102
RTVSPost2010PropOp29
 70
     0
102
RTVSPost2010Prop30
280
     1
102
RTVSPost2010PropOp30
 70
     0
102
RTVSPost2010Prop31
280
     0
102
RTVSPost2010PropOp31
 70
     0
102
RTVSPost2010Prop32
280
     0
102
RTVSPost2010PropOp32
 70
     0
102
RTVSPost2010Prop33
280
     0
102
RTVSPost2010PropOp33
 70
     0
102
RTVSPost2010Prop34
280
     0
102
RTVSPost2010PropOp34
 70
     0
102
RTVSPost2010Prop35
280
     0
102
RTVSPost2010PropOp35
 70
     0
102
RTVSPost2010Prop36
280
     0
102
RTVSPost2010PropOp36
 70
     0
102
RTVSPost2010Prop37
 90
       50
102
RTVSPost2010PropOp37
 70
     0
102
RTVSPost2010Prop38
140
0.0
102
RTVSPost2010PropOp38
 70
     0
102
RTVSPost2010Prop39
140
1.0
102
RTVSPost2010PropOp39
 70
     0
102
RTVSPost2010Prop40
 90
        0
102
RTVSPost2010PropOp40
 70
     0
102
RTVSPost2010Prop41ColorIndex
 90
       18
102
RTVSPost2010Prop41ColorRGB
 90
        0
102
RTVSPost2010PropOp41
 70
     0
102
RTVSPost2010Prop42
 90
       50
102
RTVSPost2010PropOp42
 70
     0
102
RTVSPost2010Prop43
 90
        3
102
RTVSPost2010PropOp43
 70
     0
102
RTVSPost2010Prop44ColorIndex
 90
        5
102
RTVSPost2010Prop44ColorRGB
 90
      255
102
RTVSPost2010PropOp44
 70
     0
102
RTVSPost2010Prop45
280
     0
102
RTVSPost2010PropOp45
 70
     0
102
RTVSPost2010Prop46
 90
       50
102
RTVSPost2010PropOp46
 70
     0
102
RTVSPost2010Prop47
 90
       50
102
RTVSPost2010PropOp47
 70
     0
102
RTVSPost2010Prop48
 90
       50
102
RTVSPost2010PropOp48
 70
     0
102
RTVSPost2010Prop49
280
     0
102
RTVSPost2010PropOp49
 70
     0
102
RTVSPost2010Prop50
 90
       50
102
RTVSPost2010PropOp50
 70
     0
102
RTVSPost2010Prop51ColorIndex
 90
      256
102
RTVSPost2010Prop51ColorRGB
 90
-16777216
102
RTVSPost2010PropOp51
 70
     0
102
RTVSPost2010Prop52
140
1.0
102
RTVSPost2010PropOp52
 70
     0
102
RTVSPost2010Prop53
 90
        2
102
RTVSPost2010PropOp53
 70
     0
102
RTVSPost2010Prop54
  1
strokes_ogs.tif
102
RTVSPost2010PropOp54
 70
     0
102
RTVSPost2010Prop55
280
     0
102
RTVSPost2010PropOp55
 70
     0
102
RTVSPost2010Prop56
140
1.0
102
RTVSPost2010PropOp56
 70
     0
102
RTVSPost2010Prop57
140
1.0
102
RTVSPost2010PropOp57
 70
     0
  0
XRECORD
  5
124
102
{ACAD_REACTORS
330
123
102
}
330
123
100
AcDbXrecord
280
     1
102
RTVSPost2010Prop28
280
     0
102
RTVSPost2010PropOp28
 70
     1
102
RTVSPost2010Prop29
280
     1
102
RTVSPost2010PropOp29
 70
     1
102
RTVSPost2010Prop30
280
     1
102
RTVSPost2010PropOp30
 70
     1
102
RTVSPost2010Prop31
280
     0
102
RTVSPost2010PropOp31
 70
     1
102
RTVSPost2010Prop32
280
     0
102
RTVSPost2010PropOp32
 70
     1
102
RTVSPost2010Prop33
280
     0
102
RTVSPost2010PropOp33
 70
     1
102
RTVSPost2010Prop34
280
     0
102
RTVSPost2010PropOp34
 70
     1
102
RTVSPost2010Prop35
280
     0
102
RTVSPost2010PropOp35
 70
     1
102
RTVSPost2010Prop36
280
     0
102
RTVSPost2010PropOp36
 70
     1
102
RTVSPost2010Prop37
 90
       50
102
RTVSPost2010PropOp37
 70
     1
102
RTVSPost2010Prop38
140
0.0
102
RTVSPost2010PropOp38
 70
     1
102
RTVSPost2010Prop39
140
1.0
102
RTVSPost2010PropOp39
 70
     1
102
RTVSPost2010Prop40
 90
        0
102
RTVSPost2010PropOp40
 70
     1
102
RTVSPost2010Prop41ColorIndex
 90
       18
102
RTVSPost2010Prop41ColorRGB
 90
        0
102
RTVSPost2010PropOp41
 70
     1
102
RTVSPost2010Prop42
 90
       50
102
RTVSPost2010PropOp42
 70
     1
102
RTVSPost2010Prop43
 90
        3
102
RTVSPost2010PropOp43
 70
     1
102
RTVSPost2010Prop44ColorIndex
 90
        5
102
RTVSPost2010Prop44ColorRGB
 90
      255
102
RTVSPost2010PropOp44
 70
     1
102
RTVSPost2010Prop45
280
     0
102
RTVSPost2010PropOp45
 70
     1
102
RTVSPost2010Prop46
 90
       50
102
RTVSPost2010PropOp46
 70
     1
102
RTVSPost2010Prop47
 90
       50
102
RTVSPost2010PropOp47
 70
     1
102
RTVSPost2010Prop48
 90
       50
102
RTVSPost2010PropOp48
 70
     1
102
RTVSPost2010Prop49
280
     0
102
RTVSPost2010PropOp49
 70
     1
102
RTVSPost2010Prop50
 90
       50
102
RTVSPost2010PropOp50
 70
     1
102
RTVSPost2010Prop51ColorIndex
 90
      256
102
RTVSPost2010Prop51ColorRGB
 90
-16777216
102
RTVSPost2010PropOp51
 70
     0
102
RTVSPost2010Prop52
140
1.0
102
RTVSPost2010PropOp52
 70
     0
102
RTVSPost2010Prop53
 90
        2
102
RTVSPost2010PropOp53
 70
     1
102
RTVSPost2010Prop54
  1
strokes_ogs.tif
102
RTVSPost2010PropOp54
 70
     1
102
RTVSPost2010Prop55
280
     0
102
RTVSPost2010PropOp55
 70
     1
102
RTVSPost2010Prop56
140
1.0
102
RTVSPost2010PropOp56
 70
     1
102
RTVSPost2010Prop57
140
1.0
102
RTVSPost2010PropOp57
 70
     1
  0
XRECORD
  5
136
102
{ACAD_REACTORS
330
135
102
}
330
135
100
AcDbXrecord
280
     1
102
RTVSPost2010Prop28
280
     0
102
RTVSPost2010PropOp28
 70
     0
102
RTVSPost2010Prop29
280
     1
102
RTVSPost2010PropOp29
 70
     0
102
RTVSPost2010Prop30
280
     1
102
RTVSPost2010PropOp30
 70
     0
102
RTVSPost2010Prop31
280
     0
102
RTVSPost2010PropOp31
 70
     0
102
RTVSPost2010Prop32
280
     0
102
RTVSPost2010PropOp32
 70
     0
102
RTVSPost2010Prop33
280
     0
102
RTVSPost2010PropOp33
 70
     0
102
RTVSPost2010Prop34
280
     0
102
RTVSPost2010PropOp34
 70
     0
102
RTVSPost2010Prop35
280
     0
102
RTVSPost2010PropOp35
 70
     0
102
RTVSPost2010Prop36
280
     0
102
RTVSPost2010PropOp36
 70
     0
102
RTVSPost2010Prop37
 90
       50
102
RTVSPost2010PropOp37
 70
     0
102
RTVSPost2010Prop38
140
0.0
102
RTVSPost2010PropOp38
 70
     0
102
RTVSPost2010Prop39
140
1.0
102
RTVSPost2010PropOp39
 70
     0
102
RTVSPost2010Prop40
 90
        0
102
RTVSPost2010PropOp40
 70
     0
102
RTVSPost2010Prop41ColorIndex
 90
       18
102
RTVSPost2010Prop41ColorRGB
 90
        0
102
RTVSPost2010PropOp41
 70
     0
102
RTVSPost2010Prop42
 90
       50
102
RTVSPost2010PropOp42
 70
     0
102
RTVSPost2010Prop43
 90
        3
102
RTVSPost2010PropOp43
 70
     0
102
RTVSPost2010Prop44ColorIndex
 90
        5
102
RTVSPost2010Prop44ColorRGB
 90
      255
102
RTVSPost2010PropOp44
 70
     0
102
RTVSPost2010Prop45
280
     0
102
RTVSPost2010PropOp45
 70
     0
102
RTVSPost2010Prop46
 90
       50
102
RTVSPost2010PropOp46
 70
     0
102
RTVSPost2010Prop47
 90
       50
102
RTVSPost2010PropOp47
 70
     0
102
RTVSPost2010Prop48
 90
       50
102
RTVSPost2010PropOp48
 70
     0
102
RTVSPost2010Prop49
280
     0
102
RTVSPost2010PropOp49
 70
     0
102
RTVSPost2010Prop50
 90
       50
102
RTVSPost2010PropOp50
 70
     0
102
RTVSPost2010Prop51ColorIndex
 90
      256
102
RTVSPost2010Prop51ColorRGB
 90
-16777216
102
RTVSPost2010PropOp51
 70
     0
102
RTVSPost2010Prop52
140
1.0
102
RTVSPost2010PropOp52
 70
     0
102
RTVSPost2010Prop53
 90
        2
102
RTVSPost2010PropOp53
 70
     0
102
RTVSPost2010Prop54
  1
strokes_ogs.tif
102
RTVSPost2010PropOp54
 70
     0
102
RTVSPost2010Prop55
280
     0
102
RTVSPost2010PropOp55
 70
     0
102
RTVSPost2010Prop56
140
1.0
102
RTVSPost2010PropOp56
 70
     0
102
RTVSPost2010Prop57
140
1.0
102
RTVSPost2010PropOp57
 70
     0
  0
XRECORD
  5
11C
102
{ACAD_REACTORS
330
11B
102
}
330
11B
100
AcDbXrecord
280
     1
102
RTVSPost2010Prop28
280
     0
102
RTVSPost2010PropOp28
 70
     1
102
RTVSPost2010Prop29
280
     1
102
RTVSPost2010PropOp29
 70
     1
102
RTVSPost2010Prop30
280
     1
102
RTVSPost2010PropOp30
 70
     1
102
RTVSPost2010Prop31
280
     0
102
RTVSPost2010PropOp31
 70
     1
102
RTVSPost2010Prop32
280
     0
102
RTVSPost2010PropOp32
 70
     1
102
RTVSPost2010Prop33
280
     0
102
RTVSPost2010PropOp33
 70
     1
102
RTVSPost2010Prop34
280
     0
102
RTVSPost2010PropOp34
 70
     1
102
RTVSPost2010Prop35
280
     0
102
RTVSPost2010PropOp35
 70
     1
102
RTVSPost2010Prop36
280
     0
102
RTVSPost2010PropOp36
 70
     1
102
RTVSPost2010Prop37
 90
       50
102
RTVSPost2010PropOp37
 70
     1
102
RTVSPost2010Prop38
140
0.0
102
RTVSPost2010PropOp38
 70
     1
102
RTVSPost2010Prop39
140
1.0
102
RTVSPost2010PropOp39
 70
     1
102
RTVSPost2010Prop40
 90
        0
102
RTVSPost2010PropOp40
 70
     1
102
RTVSPost2010Prop41ColorIndex
 90
       18
102
RTVSPost2010Prop41ColorRGB
 90
        0
102
RTVSPost2010PropOp41
 70
     1
102
RTVSPost2010Prop42
 90
       50
102
RTVSPost2010PropOp42
 70
     1
102
RTVSPost2010Prop43
 90
        3
102
RTVSPost2010PropOp43
 70
     1
102
RTVSPost2010Prop44ColorIndex
 90
        5
102
RTVSPost2010Prop44ColorRGB
 90
      255
102
RTVSPost2010PropOp44
 70
     1
102
RTVSPost2010Prop45
280
     0
102
RTVSPost2010PropOp45
 70
     1
102
RTVSPost2010Prop46
 90
       50
102
RTVSPost2010PropOp46
 70
     1
102
RTVSPost2010Prop47
 90
       50
102
RTVSPost2010PropOp47
 70
     1
102
RTVSPost2010Prop48
 90
       50
102
RTVSPost2010PropOp48
 70
     1
102
RTVSPost2010Prop49
280
     0
102
RTVSPost2010PropOp49
 70
     1
102
RTVSPost2010Prop50
 90
       50
102
RTVSPost2010PropOp50
 70
     1
102
RTVSPost2010Prop51ColorIndex
 90
      256
102
RTVSPost2010Prop51ColorRGB
 90
-16777216
102
RTVSPost2010PropOp51
 70
     0
102
RTVSPost2010Prop52
140
1.0
102
RTVSPost2010PropOp52
 70
     0
102
RTVSPost2010Prop53
 90
        2
102
RTVSPost2010PropOp53
 70
     1
102
RTVSPost2010Prop54
  1
strokes_ogs.tif
102
RTVSPost2010PropOp54
 70
     1
102
RTVSPost2010Prop55
280
     0
102
RTVSPost2010PropOp55
 70
     1
102
RTVSPost2010Prop56
140
1.0
102
RTVSPost2010PropOp56
 70
     1
102
RTVSPost2010Prop57
140
1.0
102
RTVSPost2010PropOp57
 70
     1
  0
XRECORD
  5
132
102
{ACAD_REACTORS
330
131
102
}
330
131
100
AcDbXrecord
280
     1
102
RTVSPost2010Prop28
280
     0
102
RTVSPost2010PropOp28
 70
     1
102
RTVSPost2010Prop29
280
     1
102
RTVSPost2010PropOp29
 70
     1
102
RTVSPost2010Prop30
280
     1
102
RTVSPost2010PropOp30
 70
     1
102
RTVSPost2010Prop31
280
     0
102
RTVSPost2010PropOp31
 70
     1
102
RTVSPost2010Prop32
280
     0
102
RTVSPost2010PropOp32
 70
     1
102
RTVSPost2010Prop33
280
     0
102
RTVSPost2010PropOp33
 70
     1
102
RTVSPost2010Prop34
280
     0
102
RTVSPost2010PropOp34
 70
     1
102
RTVSPost2010Prop35
280
     0
102
RTVSPost2010PropOp35
 70
     1
102
RTVSPost2010Prop36
280
     0
102
RTVSPost2010PropOp36
 70
     1
102
RTVSPost2010Prop37
 90
       50
102
RTVSPost2010PropOp37
 70
     1
102
RTVSPost2010Prop38
140
0.0
102
RTVSPost2010PropOp38
 70
     1
102
RTVSPost2010Prop39
140
1.0
102
RTVSPost2010PropOp39
 70
     1
102
RTVSPost2010Prop40
 90
        0
102
RTVSPost2010PropOp40
 70
     1
102
RTVSPost2010Prop41ColorIndex
 90
       18
102
RTVSPost2010Prop41ColorRGB
 90
        0
102
RTVSPost2010PropOp41
 70
     1
102
RTVSPost2010Prop42
 90
       50
102
RTVSPost2010PropOp42
 70
     1
102
RTVSPost2010Prop43
 90
        3
102
RTVSPost2010PropOp43
 70
     1
102
RTVSPost2010Prop44ColorIndex
 90
        5
102
RTVSPost2010Prop44ColorRGB
 90
      255
102
RTVSPost2010PropOp44
 70
     1
102
RTVSPost2010Prop45
280
     0
102
RTVSPost2010PropOp45
 70
     1
102
RTVSPost2010Prop46
 90
       50
102
RTVSPost2010PropOp46
 70
     1
102
RTVSPost2010Prop47
 90
       50
102
RTVSPost2010PropOp47
 70
     1
102
RTVSPost2010Prop48
 90
       50
102
RTVSPost2010PropOp48
 70
     1
102
RTVSPost2010Prop49
280
     0
102
RTVSPost2010PropOp49
 70
     1
102
RTVSPost2010Prop50
 90
       50
102
RTVSPost2010PropOp50
 70
     1
102
RTVSPost2010Prop51ColorIndex
 90
      256
102
RTVSPost2010Prop51ColorRGB
 90
-16777216
102
RTVSPost2010PropOp51
 70
     0
102
RTVSPost2010Prop52
140
1.0
102
RTVSPost2010PropOp52
 70
     0
102
RTVSPost2010Prop53
 90
        2
102
RTVSPost2010PropOp53
 70
     1
102
RTVSPost2010Prop54
  1
strokes_ogs.tif
102
RTVSPost2010PropOp54
 70
     1
102
RTVSPost2010Prop55
280
     0
102
RTVSPost2010PropOp55
 70
     1
102
RTVSPost2010Prop56
140
1.0
102
RTVSPost2010PropOp56
 70
     1
102
RTVSPost2010Prop57
140
1.0
102
RTVSPost2010PropOp57
 70
     1
  0
XRECORD
  5
130
102
{ACAD_REACTORS
330
12F
102
}
330
12F
100
AcDbXrecord
280
     1
102
RTVSPost2010Prop28
280
     0
102
RTVSPost2010PropOp28
 70
     1
102
RTVSPost2010Prop29
280
     1
102
RTVSPost2010PropOp29
 70
     1
102
RTVSPost2010Prop30
280
     1
102
RTVSPost2010PropOp30
 70
     1
102
RTVSPost2010Prop31
280
     0
102
RTVSPost2010PropOp31
 70
     1
102
RTVSPost2010Prop32
280
     0
102
RTVSPost2010PropOp32
 70
     1
102
RTVSPost2010Prop33
280
     0
102
RTVSPost2010PropOp33
 70
     1
102
RTVSPost2010Prop34
280
     0
102
RTVSPost2010PropOp34
 70
     1
102
RTVSPost2010Prop35
280
     0
102
RTVSPost2010PropOp35
 70
     1
102
RTVSPost2010Prop36
280
     0
102
RTVSPost2010PropOp36
 70
     1
102
RTVSPost2010Prop37
 90
       50
102
RTVSPost2010PropOp37
 70
     1
102
RTVSPost2010Prop38
140
0.0
102
RTVSPost2010PropOp38
 70
     1
102
RTVSPost2010Prop39
140
1.0
102
RTVSPost2010PropOp39
 70
     1
102
RTVSPost2010Prop40
 90
        0
102
RTVSPost2010PropOp40
 70
     1
102
RTVSPost2010Prop41ColorIndex
 90
       18
102
RTVSPost2010Prop41ColorRGB
 90
        0
102
RTVSPost2010PropOp41
 70
     1
102
RTVSPost2010Prop42
 90
       50
102
RTVSPost2010PropOp42
 70
     1
102
RTVSPost2010Prop43
 90
        3
102
RTVSPost2010PropOp43
 70
     1
102
RTVSPost2010Prop44ColorIndex
 90
        5
102
RTVSPost2010Prop44ColorRGB
 90
      255
102
RTVSPost2010PropOp44
 70
     1
102
RTVSPost2010Prop45
280
     0
102
RTVSPost2010PropOp45
 70
     1
102
RTVSPost2010Prop46
 90
       50
102
RTVSPost2010PropOp46
 70
     1
102
RTVSPost2010Prop47
 90
       50
102
RTVSPost2010PropOp47
 70
     1
102
RTVSPost2010Prop48
 90
       50
102
RTVSPost2010PropOp48
 70
     1
102
RTVSPost2010Prop49
280
     0
102
RTVSPost2010PropOp49
 70
     1
102
RTVSPost2010Prop50
 90
       50
102
RTVSPost2010PropOp50
 70
     1
102
RTVSPost2010Prop51ColorIndex
 90
      256
102
RTVSPost2010Prop51ColorRGB
 90
-16777216
102
RTVSPost2010PropOp51
 70
     0
102
RTVSPost2010Prop52
140
1.0
102
RTVSPost2010PropOp52
 70
     0
102
RTVSPost2010Prop53
 90
        2
102
RTVSPost2010PropOp53
 70
     1
102
RTVSPost2010Prop54
  1
strokes_ogs.tif
102
RTVSPost2010PropOp54
 70
     1
102
RTVSPost2010Prop55
280
     0
102
RTVSPost2010PropOp55
 70
     1
102
RTVSPost2010Prop56
140
1.0
102
RTVSPost2010PropOp56
 70
     1
102
RTVSPost2010Prop57
140
1.0
102
RTVSPost2010PropOp57
 70
     1
  0
XRECORD
  5
12A
102
{ACAD_REACTORS
330
129
102
}
330
129
100
AcDbXrecord
280
     1
102
RTVSPost2010Prop28
280
     0
102
RTVSPost2010PropOp28
 70
     1
102
RTVSPost2010Prop29
280
     1
102
RTVSPost2010PropOp29
 70
     1
102
RTVSPost2010Prop30
280
     1
102
RTVSPost2010PropOp30
 70
     1
102
RTVSPost2010Prop31
280
     0
102
RTVSPost2010PropOp31
 70
     1
102
RTVSPost2010Prop32
280
     0
102
RTVSPost2010PropOp32
 70
     1
102
RTVSPost2010Prop33
280
     0
102
RTVSPost2010PropOp33
 70
     1
102
RTVSPost2010Prop34
280
     0
102
RTVSPost2010PropOp34
 70
     1
102
RTVSPost2010Prop35
280
     0
102
RTVSPost2010PropOp35
 70
     1
102
RTVSPost2010Prop36
280
     0
102
RTVSPost2010PropOp36
 70
     1
102
RTVSPost2010Prop37
 90
       50
102
RTVSPost2010PropOp37
 70
     1
102
RTVSPost2010Prop38
140
0.0
102
RTVSPost2010PropOp38
 70
     1
102
RTVSPost2010Prop39
140
1.0
102
RTVSPost2010PropOp39
 70
     1
102
RTVSPost2010Prop40
 90
        0
102
RTVSPost2010PropOp40
 70
     1
102
RTVSPost2010Prop41ColorIndex
 90
       18
102
RTVSPost2010Prop41ColorRGB
 90
        0
102
RTVSPost2010PropOp41
 70
     1
102
RTVSPost2010Prop42
 90
       50
102
RTVSPost2010PropOp42
 70
     1
102
RTVSPost2010Prop43
 90
        3
102
RTVSPost2010PropOp43
 70
     1
102
RTVSPost2010Prop44ColorIndex
 90
        5
102
RTVSPost2010Prop44ColorRGB
 90
      255
102
RTVSPost2010PropOp44
 70
     1
102
RTVSPost2010Prop45
280
     0
102
RTVSPost2010PropOp45
 70
     1
102
RTVSPost2010Prop46
 90
       50
102
RTVSPost2010PropOp46
 70
     1
102
RTVSPost2010Prop47
 90
       50
102
RTVSPost2010PropOp47
 70
     1
102
RTVSPost2010Prop48
 90
       50
102
RTVSPost2010PropOp48
 70
     1
102
RTVSPost2010Prop49
280
     0
102
RTVSPost2010PropOp49
 70
     1
102
RTVSPost2010Prop50
 90
       50
102
RTVSPost2010PropOp50
 70
     1
102
RTVSPost2010Prop51ColorIndex
 90
      256
102
RTVSPost2010Prop51ColorRGB
 90
-16777216
102
RTVSPost2010PropOp51
 70
     0
102
RTVSPost2010Prop52
140
1.0
102
RTVSPost2010PropOp52
 70
     0
102
RTVSPost2010Prop53
 90
        2
102
RTVSPost2010PropOp53
 70
     1
102
RTVSPost2010Prop54
  1
strokes_ogs.tif
102
RTVSPost2010PropOp54
 70
     1
102
RTVSPost2010Prop55
280
     0
102
RTVSPost2010PropOp55
 70
     1
102
RTVSPost2010Prop56
140
1.0
102
RTVSPost2010PropOp56
 70
     1
102
RTVSPost2010Prop57
140
1.0
102
RTVSPost2010PropOp57
 70
     1
  0
XRECORD
  5
12C
102
{ACAD_REACTORS
330
12B
102
}
330
12B
100
AcDbXrecord
280
     1
102
RTVSPost2010Prop28
280
     0
102
RTVSPost2010PropOp28
 70
     1
102
RTVSPost2010Prop29
280
     1
102
RTVSPost2010PropOp29
 70
     1
102
RTVSPost2010Prop30
280
     1
102
RTVSPost2010PropOp30
 70
     1
102
RTVSPost2010Prop31
280
     0
102
RTVSPost2010PropOp31
 70
     1
102
RTVSPost2010Prop32
280
     0
102
RTVSPost2010PropOp32
 70
     1
102
RTVSPost2010Prop33
280
     0
102
RTVSPost2010PropOp33
 70
     1
102
RTVSPost2010Prop34
280
     0
102
RTVSPost2010PropOp34
 70
     1
102
RTVSPost2010Prop35
280
     0
102
RTVSPost2010PropOp35
 70
     1
102
RTVSPost2010Prop36
280
     0
102
RTVSPost2010PropOp36
 70
     1
102
RTVSPost2010Prop37
 90
       50
102
RTVSPost2010PropOp37
 70
     1
102
RTVSPost2010Prop38
140
0.0
102
RTVSPost2010PropOp38
 70
     1
102
RTVSPost2010Prop39
140
1.0
102
RTVSPost2010PropOp39
 70
     1
102
RTVSPost2010Prop40
 90
        0
102
RTVSPost2010PropOp40
 70
     1
102
RTVSPost2010Prop41ColorIndex
 90
       18
102
RTVSPost2010Prop41ColorRGB
 90
        0
102
RTVSPost2010PropOp41
 70
     1
102
RTVSPost2010Prop42
 90
       50
102
RTVSPost2010PropOp42
 70
     1
102
RTVSPost2010Prop43
 90
        3
102
RTVSPost2010PropOp43
 70
     1
102
RTVSPost2010Prop44ColorIndex
 90
        5
102
RTVSPost2010Prop44ColorRGB
 90
      255
102
RTVSPost2010PropOp44
 70
     1
102
RTVSPost2010Prop45
280
     0
102
RTVSPost2010PropOp45
 70
     1
102
RTVSPost2010Prop46
 90
       50
102
RTVSPost2010PropOp46
 70
     1
102
RTVSPost2010Prop47
 90
       50
102
RTVSPost2010PropOp47
 70
     1
102
RTVSPost2010Prop48
 90
       50
102
RTVSPost2010PropOp48
 70
     1
102
RTVSPost2010Prop49
280
     0
102
RTVSPost2010PropOp49
 70
     1
102
RTVSPost2010Prop50
 90
       50
102
RTVSPost2010PropOp50
 70
     1
102
RTVSPost2010Prop51ColorIndex
 90
      256
102
RTVSPost2010Prop51ColorRGB
 90
-16777216
102
RTVSPost2010PropOp51
 70
     0
102
RTVSPost2010Prop52
140
1.0
102
RTVSPost2010PropOp52
 70
     0
102
RTVSPost2010Prop53
 90
        2
102
RTVSPost2010PropOp53
 70
     1
102
RTVSPost2010Prop54
  1
strokes_ogs.tif
102
RTVSPost2010PropOp54
 70
     1
102
RTVSPost2010Prop55
280
     0
102
RTVSPost2010PropOp55
 70
     1
102
RTVSPost2010Prop56
140
1.0
102
RTVSPost2010PropOp56
 70
     1
102
RTVSPost2010Prop57
140
1.0
102
RTVSPost2010PropOp57
 70
     1
  0
XRECORD
  5
122
102
{ACAD_REACTORS
330
121
102
}
330
121
100
AcDbXrecord
280
     1
102
RTVSPost2010Prop28
280
     0
102
RTVSPost2010PropOp28
 70
     1
102
RTVSPost2010Prop29
280
     1
102
RTVSPost2010PropOp29
 70
     1
102
RTVSPost2010Prop30
280
     1
102
RTVSPost2010PropOp30
 70
     1
102
RTVSPost2010Prop31
280
     0
102
RTVSPost2010PropOp31
 70
     1
102
RTVSPost2010Prop32
280
     0
102
RTVSPost2010PropOp32
 70
     1
102
RTVSPost2010Prop33
280
     0
102
RTVSPost2010PropOp33
 70
     1
102
RTVSPost2010Prop34
280
     0
102
RTVSPost2010PropOp34
 70
     1
102
RTVSPost2010Prop35
280
     0
102
RTVSPost2010PropOp35
 70
     1
102
RTVSPost2010Prop36
280
     0
102
RTVSPost2010PropOp36
 70
     1
102
RTVSPost2010Prop37
 90
       50
102
RTVSPost2010PropOp37
 70
     1
102
RTVSPost2010Prop38
140
0.0
102
RTVSPost2010PropOp38
 70
     1
102
RTVSPost2010Prop39
140
1.0
102
RTVSPost2010PropOp39
 70
     1
102
RTVSPost2010Prop40
 90
        0
102
RTVSPost2010PropOp40
 70
     1
102
RTVSPost2010Prop41ColorIndex
 90
       18
102
RTVSPost2010Prop41ColorRGB
 90
        0
102
RTVSPost2010PropOp41
 70
     1
102
RTVSPost2010Prop42
 90
       50
102
RTVSPost2010PropOp42
 70
     1
102
RTVSPost2010Prop43
 90
        3
102
RTVSPost2010PropOp43
 70
     1
102
RTVSPost2010Prop44ColorIndex
 90
        5
102
RTVSPost2010Prop44ColorRGB
 90
      255
102
RTVSPost2010PropOp44
 70
     1
102
RTVSPost2010Prop45
280
     0
102
RTVSPost2010PropOp45
 70
     1
102
RTVSPost2010Prop46
 90
       50
102
RTVSPost2010PropOp46
 70
     1
102
RTVSPost2010Prop47
 90
       50
102
RTVSPost2010PropOp47
 70
     1
102
RTVSPost2010Prop48
 90
       50
102
RTVSPost2010PropOp48
 70
     1
102
RTVSPost2010Prop49
280
     0
102
RTVSPost2010PropOp49
 70
     1
102
RTVSPost2010Prop50
 90
       50
102
RTVSPost2010PropOp50
 70
     1
102
RTVSPost2010Prop51ColorIndex
 90
      256
102
RTVSPost2010Prop51ColorRGB
 90
-16777216
102
RTVSPost2010PropOp51
 70
     0
102
RTVSPost2010Prop52
140
1.0
102
RTVSPost2010PropOp52
 70
     0
102
RTVSPost2010Prop53
 90
        2
102
RTVSPost2010PropOp53
 70
     1
102
RTVSPost2010Prop54
  1
strokes_ogs.tif
102
RTVSPost2010PropOp54
 70
     1
102
RTVSPost2010Prop55
280
     0
102
RTVSPost2010PropOp55
 70
     1
102
RTVSPost2010Prop56
140
1.0
102
RTVSPost2010PropOp56
 70
     1
102
RTVSPost2010Prop57
140
1.0
102
RTVSPost2010PropOp57
 70
     1
  0
XRECORD
  5
116
102
{ACAD_REACTORS
330
115
102
}
330
115
100
AcDbXrecord
280
     1
102
RTVSPost2010Prop28
280
     0
102
RTVSPost2010PropOp28
 70
     1
102
RTVSPost2010Prop29
280
     1
102
RTVSPost2010PropOp29
 70
     1
102
RTVSPost2010Prop30
280
     1
102
RTVSPost2010PropOp30
 70
     1
102
RTVSPost2010Prop31
280
     0
102
RTVSPost2010PropOp31
 70
     1
102
RTVSPost2010Prop32
280
     0
102
RTVSPost2010PropOp32
 70
     1
102
RTVSPost2010Prop33
280
     0
102
RTVSPost2010PropOp33
 70
     1
102
RTVSPost2010Prop34
280
     0
102
RTVSPost2010PropOp34
 70
     1
102
RTVSPost2010Prop35
280
     0
102
RTVSPost2010PropOp35
 70
     1
102
RTVSPost2010Prop36
280
     0
102
RTVSPost2010PropOp36
 70
     1
102
RTVSPost2010Prop37
 90
       50
102
RTVSPost2010PropOp37
 70
     1
102
RTVSPost2010Prop38
140
0.0
102
RTVSPost2010PropOp38
 70
     1
102
RTVSPost2010Prop39
140
1.0
102
RTVSPost2010PropOp39
 70
     1
102
RTVSPost2010Prop40
 90
        0
102
RTVSPost2010PropOp40
 70
     1
102
RTVSPost2010Prop41ColorIndex
 90
       18
102
RTVSPost2010Prop41ColorRGB
 90
        0
102
RTVSPost2010PropOp41
 70
     1
102
RTVSPost2010Prop42
 90
       50
102
RTVSPost2010PropOp42
 70
     1
102
RTVSPost2010Prop43
 90
        3
102
RTVSPost2010PropOp43
 70
     1
102
RTVSPost2010Prop44ColorIndex
 90
        5
102
RTVSPost2010Prop44ColorRGB
 90
      255
102
RTVSPost2010PropOp44
 70
     1
102
RTVSPost2010Prop45
280
     0
102
RTVSPost2010PropOp45
 70
     1
102
RTVSPost2010Prop46
 90
       50
102
RTVSPost2010PropOp46
 70
     1
102
RTVSPost2010Prop47
 90
       50
102
RTVSPost2010PropOp47
 70
     1
102
RTVSPost2010Prop48
 90
       50
102
RTVSPost2010PropOp48
 70
     1
102
RTVSPost2010Prop49
280
     0
102
RTVSPost2010PropOp49
 70
     1
102
RTVSPost2010Prop50
 90
       50
102
RTVSPost2010PropOp50
 70
     1
102
RTVSPost2010Prop51ColorIndex
 90
      256
102
RTVSPost2010Prop51ColorRGB
 90
-16777216
102
RTVSPost2010PropOp51
 70
     0
102
RTVSPost2010Prop52
140
1.0
102
RTVSPost2010PropOp52
 70
     0
102
RTVSPost2010Prop53
 90
        2
102
RTVSPost2010PropOp53
 70
     1
102
RTVSPost2010Prop54
  1
strokes_ogs.tif
102
RTVSPost2010PropOp54
 70
     1
102
RTVSPost2010Prop55
280
     0
102
RTVSPost2010PropOp55
 70
     1
102
RTVSPost2010Prop56
140
1.0
102
RTVSPost2010PropOp56
 70
     1
102
RTVSPost2010Prop57
140
1.0
102
RTVSPost2010PropOp57
 70
     1
  0
XRECORD
  5
12E
102
{ACAD_REACTORS
330
12D
102
}
330
12D
100
AcDbXrecord
280
     1
102
RTVSPost2010Prop28
280
     0
102
RTVSPost2010PropOp28
 70
     1
102
RTVSPost2010Prop29
280
     1
102
RTVSPost2010PropOp29
 70
     1
102
RTVSPost2010Prop30
280
     1
102
RTVSPost2010PropOp30
 70
     1
102
RTVSPost2010Prop31
280
     0
102
RTVSPost2010PropOp31
 70
     1
102
RTVSPost2010Prop32
280
     0
102
RTVSPost2010PropOp32
 70
     1
102
RTVSPost2010Prop33
280
     0
102
RTVSPost2010PropOp33
 70
     1
102
RTVSPost2010Prop34
280
     0
102
RTVSPost2010PropOp34
 70
     1
102
RTVSPost2010Prop35
280
     0
102
RTVSPost2010PropOp35
 70
     1
102
RTVSPost2010Prop36
280
     0
102
RTVSPost2010PropOp36
 70
     1
102
RTVSPost2010Prop37
 90
       50
102
RTVSPost2010PropOp37
 70
     1
102
RTVSPost2010Prop38
140
0.0
102
RTVSPost2010PropOp38
 70
     1
102
RTVSPost2010Prop39
140
1.0
102
RTVSPost2010PropOp39
 70
     1
102
RTVSPost2010Prop40
 90
        0
102
RTVSPost2010PropOp40
 70
     1
102
RTVSPost2010Prop41ColorIndex
 90
       18
102
RTVSPost2010Prop41ColorRGB
 90
        0
102
RTVSPost2010PropOp41
 70
     1
102
RTVSPost2010Prop42
 90
       50
102
RTVSPost2010PropOp42
 70
     1
102
RTVSPost2010Prop43
 90
        3
102
RTVSPost2010PropOp43
 70
     1
102
RTVSPost2010Prop44ColorIndex
 90
        5
102
RTVSPost2010Prop44ColorRGB
 90
      255
102
RTVSPost2010PropOp44
 70
     1
102
RTVSPost2010Prop45
280
     0
102
RTVSPost2010PropOp45
 70
     1
102
RTVSPost2010Prop46
 90
       50
102
RTVSPost2010PropOp46
 70
     1
102
RTVSPost2010Prop47
 90
       50
102
RTVSPost2010PropOp47
 70
     1
102
RTVSPost2010Prop48
 90
       50
102
RTVSPost2010PropOp48
 70
     1
102
RTVSPost2010Prop49
280
     0
102
RTVSPost2010PropOp49
 70
     1
102
RTVSPost2010Prop50
 90
       50
102
RTVSPost2010PropOp50
 70
     1
102
RTVSPost2010Prop51ColorIndex
 90
      256
102
RTVSPost2010Prop51ColorRGB
 90
-16777216
102
RTVSPost2010PropOp51
 70
     0
102
RTVSPost2010Prop52
140
1.0
102
RTVSPost2010PropOp52
 70
     0
102
RTVSPost2010Prop53
 90
        2
102
RTVSPost2010PropOp53
 70
     1
102
RTVSPost2010Prop54
  1
strokes_ogs.tif
102
RTVSPost2010PropOp54
 70
     1
102
RTVSPost2010Prop55
280
     0
102
RTVSPost2010PropOp55
 70
     1
102
RTVSPost2010Prop56
140
1.0
102
RTVSPost2010PropOp56
 70
     1
102
RTVSPost2010Prop57
140
1.0
102
RTVSPost2010PropOp57
 70
     1
  0
ENDSEC
  0
EOF
