  0
SECTION
  2
HEADER
  9
$ACADVER
  1
AC1024
  9
$ACADMAINTVER
 70
   226
  9
$DWGCODEPAGE
  3
ANSI_932
  9
$INSBASE
 10
0.0
 20
0.0
 30
0.0
  9
$EXTMIN
 10
1.000000000000000E+20
 20
1.000000000000000E+20
 30
1.000000000000000E+20
  9
$EXTMAX
 10
-1.000000000000000E+20
 20
-1.000000000000000E+20
 30
-1.000000000000000E+20
  9
$LIMMIN
 10
0.0
 20
0.0
  9
$LIMMAX
 10
12.0
 20
9.0
  9
$ORTHOMODE
 70
     0
  9
$REGENMODE
 70
     1
  9
$FILLMODE
 70
     1
  9
$QTEXTMODE
 70
     0
  9
$MIRRTEXT
 70
     0
  9
$LTSCALE
 40
1.0
  9
$ATTMODE
 70
     1
  9
$TEXTSIZE
 40
0.2
  9
$TRACEWID
 40
0.05
  9
$TEXTSTYLE
  7
Standard
  9
$CLAYER
  8
0
  9
$CELTYPE
  6
ByLayer
  9
$CECOLOR
 62
   256
  9
$CELTSCALE
 40
1.0
  9
$DISPSILH
 70
     0
  9
$DIMSCALE
 40
1.0
  9
$DIMASZ
 40
0.18
  9
$DIMEXO
 40
0.0625
  9
$DIMDLI
 40
0.38
  9
$DIMRND
 40
0.0
  9
$DIMDLE
 40
0.0
  9
$DIMEXE
 40
0.18
  9
$DIMTP
 40
0.0
  9
$DIMTM
 40
0.0
  9
$DIMTXT
 40
0.18
  9
$DIMCEN
 40
0.09
  9
$DIMTSZ
 40
0.0
  9
$DIMTOL
 70
     0
  9
$DIMLIM
 70
     0
  9
$DIMTIH
 70
     1
  9
$DIMTOH
 70
     1
  9
$DIMSE1
 70
     0
  9
$DIMSE2
 70
     0
  9
$DIMTAD
 70
     0
  9
$DIMZIN
 70
     0
  9
$DIMBLK
  1

  9
$DIMASO
 70
     1
  9
$DIMSHO
 70
     1
  9
$DIMPOST
  1

  9
$DIMAPOST
  1

  9
$DIMALT
 70
     0
  9
$DIMALTD
 70
     2
  9
$DIMALTF
 40
25.4
  9
$DIMLFAC
 40
1.0
  9
$DIMTOFL
 70
     0
  9
$DIMTVP
 40
0.0
  9
$DIMTIX
 70
     0
  9
$DIMSOXD
 70
     0
  9
$DIMSAH
 70
     0
  9
$DIMBLK1
  1

  9
$DIMBLK2
  1

  9
$DIMSTYLE
  2
Standard
  9
$DIMCLRD
 70
     0
  9
$DIMCLRE
 70
     0
  9
$DIMCLRT
 70
     0
  9
$DIMTFAC
 40
1.0
  9
$DIMGAP
 40
0.09
  9
$DIMJUST
 70
     0
  9
$DIMSD1
 70
     0
  9
$DIMSD2
 70
     0
  9
$DIMTOLJ
 70
     1
  9
$DIMTZIN
 70
     0
  9
$DIMALTZ
 70
     0
  9
$DIMALTTZ
 70
     0
  9
$DIMUPT
 70
     0
  9
$DIMDEC
 70
     4
  9
$DIMTDEC
 70
     4
  9
$DIMALTU
 70
     2
  9
$DIMALTTD
 70
     2
  9
$DIMTXSTY
  7
Standard
  9
$DIMAUNIT
 70
     0
  9
$DIMADEC
 70
     0
  9
$DIMALTRND
 40
0.0
  9
$DIMAZIN
 70
     0
  9
$DIMDSEP
 70
    46
  9
$DIMATFIT
 70
     3
  9
$DIMFRAC
 70
     0
  9
$DIMLDRBLK
  1

  9
$DIMLUNIT
 70
     2
  9
$DIMLWD
 70
    -2
  9
$DIMLWE
 70
    -2
  9
$DIMTMOVE
 70
     0
  9
$DIMFXL
 40
1.0
  9
$DIMFXLON
 70
     0
  9
$DIMJOGANG
 40
0.7853981633974483
  9
$DIMTFILL
 70
     0
  9
$DIMTFILLCLR
 70
     0
  9
$DIMARCSYM
 70
     0
  9
$DIMLTYPE
  6

  9
$DIMLTEX1
  6

  9
$DIMLTEX2
  6

  9
$DIMTXTDIRECTION
 70
     0
  9
$LUNITS
 70
     2
  9
$LUPREC
 70
     4
  9
$SKETCHINC
 40
0.1
  9
$FILLETRAD
 40
0.0
  9
$AUNITS
 70
     0
  9
$AUPREC
 70
     0
  9
$MENU
  1
.
  9
$ELEVATION
 40
0.0
  9
$PELEVATION
 40
0.0
  9
$THICKNESS
 40
0.0
  9
$LIMCHECK
 70
     0
  9
$CHAMFERA
 40
0.0
  9
$CHAMFERB
 40
0.0
  9
$CHAMFERC
 40
0.0
  9
$CHAMFERD
 40
0.0
  9
$SKPOLY
 70
     0
  9
$TDCREATE
 40
2459569.488599537
  9
$TDUCREATE
 40
2459569.113599537
  9
$TDUPDATE
 40
2459569.488599537
  9
$TDUUPDATE
 40
2459569.113599537
  9
$TDINDWG
 40
0.0000000000
  9
$TDUSRTIMER
 40
0.0000000000
  9
$USRTIMER
 70
     1
  9
$ANGBASE
 50
0.0
  9
$ANGDIR
 70
     0
  9
$PDMODE
 70
     0
  9
$PDSIZE
 40
0.0
  9
$PLINEWID
 40
0.0
  9
$SPLFRAME
 70
     0
  9
$SPLINETYPE
 70
     6
  9
$SPLINESEGS
 70
     8
  9
$HANDSEED
  5
162
  9
$SURFTAB1
 70
     6
  9
$SURFTAB2
 70
     6
  9
$SURFTYPE
 70
     6
  9
$SURFU
 70
     6
  9
$SURFV
 70
     6
  9
$UCSBASE
  2

  9
$UCSNAME
  2

  9
$UCSORG
 10
0.0
 20
0.0
 30
0.0
  9
$UCSXDIR
 10
1.0
 20
0.0
 30
0.0
  9
$UCSYDIR
 10
0.0
 20
1.0
 30
0.0
  9
$UCSORTHOREF
  2

  9
$UCSORTHOVIEW
 70
     0
  9
$UCSORGTOP
 10
0.0
 20
0.0
 30
0.0
  9
$UCSORGBOTTOM
 10
0.0
 20
0.0
 30
0.0
  9
$UCSORGLEFT
 10
0.0
 20
0.0
 30
0.0
  9
$UCSORGRIGHT
 10
0.0
 20
0.0
 30
0.0
  9
$UCSORGFRONT
 10
0.0
 20
0.0
 30
0.0
  9
$UCSORGBACK
 10
0.0
 20
0.0
 30
0.0
  9
$PUCSBASE
  2

  9
$PUCSNAME
  2

  9
$PUCSORG
 10
0.0
 20
0.0
 30
0.0
  9
$PUCSXDIR
 10
1.0
 20
0.0
 30
0.0
  9
$PUCSYDIR
 10
0.0
 20
1.0
 30
0.0
  9
$PUCSORTHOREF
  2

  9
$PUCSORTHOVIEW
 70
     0
  9
$PUCSORGTOP
 10
0.0
 20
0.0
 30
0.0
  9
$PUCSORGBOTTOM
 10
0.0
 20
0.0
 30
0.0
  9
$PUCSORGLEFT
 10
0.0
 20
0.0
 30
0.0
  9
$PUCSORGRIGHT
 10
0.0
 20
0.0
 30
0.0
  9
$PUCSORGFRONT
 10
0.0
 20
0.0
 30
0.0
  9
$PUCSORGBACK
 10
0.0
 20
0.0
 30
0.0
  9
$USERI1
 70
     0
  9
$USERI2
 70
     0
  9
$USERI3
 70
     0
  9
$USERI4
 70
     0
  9
$USERI5
 70
     0
  9
$USERR1
 40
0.0
  9
$USERR2
 40
0.0
  9
$USERR3
 40
0.0
  9
$USERR4
 40
0.0
  9
$USERR5
 40
0.0
  9
$WORLDVIEW
 70
     1
  9
$SHADEDGE
 70
     3
  9
$SHADEDIF
 70
    70
  9
$TILEMODE
 70
     1
  9
$MAXACTVP
 70
    64
  9
$PINSBASE
 10
0.0
 20
0.0
 30
0.0
  9
$PLIMCHECK
 70
     0
  9
$PEXTMIN
 10
1.000000000000000E+20
 20
1.000000000000000E+20
 30
1.000000000000000E+20
  9
$PEXTMAX
 10
-1.000000000000000E+20
 20
-1.000000000000000E+20
 30
-1.000000000000000E+20
  9
$PLIMMIN
 10
0.0
 20
0.0
  9
$PLIMMAX
 10
12.0
 20
9.0
  9
$UNITMODE
 70
     0
  9
$VISRETAIN
 70
     1
  9
$PLINEGEN
 70
     0
  9
$PSLTSCALE
 70
     1
  9
$TREEDEPTH
 70
  3020
  9
$CMLSTYLE
  2
Standard
  9
$CMLJUST
 70
     0
  9
$CMLSCALE
 40
1.0
  9
$PROXYGRAPHICS
 70
     1
  9
$MEASUREMENT
 70
     0
  9
$CELWEIGHT
370
    -1
  9
$ENDCAPS
280
     0
  9
$JOINSTYLE
280
     0
  9
$LWDISPLAY
290
     1
  9
$INSUNITS
 70
     4
  9
$HYPERLINKBASE
  1

  9
$STYLESHEET
  1

  9
$XEDIT
290
     1
  9
$CEPSNTYPE
380
     0
  9
$PSTYLEMODE
290
     1
  9
$FINGERPRINTGUID
  2
{68D2E9F6-397C-6B49-A099-85BEB0A1F0A2}
  9
$VERSIONGUID
  2
{CDEA9953-0E08-C24C-9831-3B9D6270E686}
  9
$EXTNAMES
290
     1
  9
$PSVPSCALE
 40
0.0
  9
$OLESTARTUP
290
     0
  9
$SORTENTS
280
   127
  9
$INDEXCTL
280
     0
  9
$HIDETEXT
280
     1
  9
$XCLIPFRAME
280
     2
  9
$HALOGAP
280
     0
  9
$OBSCOLOR
 70
   257
  9
$OBSLTYPE
280
     0
  9
$INTERSECTIONDISPLAY
280
     0
  9
$INTERSECTIONCOLOR
 70
   257
  9
$DIMASSOC
280
     2
  9
$PROJECTNAME
  1

  9
$CAMERADISPLAY
290
     0
  9
$LENSLENGTH
 40
50.0
  9
$CAMERAHEIGHT
 40
0.0
  9
$STEPSPERSEC
 40
2.0
  9
$STEPSIZE
 40
6.0
  9
$3DDWFPREC
 40
2.0
  9
$PSOLWIDTH
 40
0.25
  9
$PSOLHEIGHT
 40
4.0
  9
$LOFTANG1
 40
1.570796326794896
  9
$LOFTANG2
 40
1.570796326794896
  9
$LOFTMAG1
 40
0.0
  9
$LOFTMAG2
 40
0.0
  9
$LOFTPARAM
 70
     7
  9
$LOFTNORMALS
280
     1
  9
$LATITUDE
 40
37.795
  9
$LONGITUDE
 40
-122.394
  9
$NORTHDIRECTION
 40
0.0
  9
$TIMEZONE
 70
 -8000
  9
$LIGHTGLYPHDISPLAY
280
     1
  9
$TILEMODELIGHTSYNCH
280
     1
  9
$CMATERIAL
347
11
  9
$SOLIDHIST
280
     0
  9
$SHOWHIST
280
     1
  9
$DWFFRAME
280
     2
  9
$DGNFRAME
280
     0
  9
$REALWORLDSCALE
290
     1
  9
$INTERFERECOLOR
 62
     1
  9
$INTERFEREOBJVS
345
33
  9
$INTERFEREVPVS
346
30
  9
$CSHADOW
280
     0
  9
$SHADOWPLANELOCATION
 40
0.0
  0
ENDSEC
  0
SECTION
  2
CLASSES
  0
CLASS
  1
ACDBDICTIONARYWDFLT
  2
AcDbDictionaryWithDefault
  3
ObjectDBX Classes
 90
        0
 91
        1
280
     0
281
     0
  0
CLASS
  1
MATERIAL
  2
AcDbMaterial
  3
ObjectDBX Classes
 90
     1153
 91
        3
280
     0
281
     0
  0
CLASS
  1
VISUALSTYLE
  2
AcDbVisualStyle
  3
ObjectDBX Classes
 90
     4095
 91
       24
280
     0
281
     0
  0
CLASS
  1
SCALE
  2
AcDbScale
  3
ObjectDBX Classes
 90
     1153
 91
       17
280
     0
281
     0
  0
CLASS
  1
TABLESTYLE
  2
AcDbTableStyle
  3
ObjectDBX Classes
 90
     4095
 91
        1
280
     0
281
     0
  0
CLASS
  1
MLEADERSTYLE
  2
AcDbMLeaderStyle
  3
ACDB_MLEADERSTYLE_CLASS
 90
     4095
 91
        1
280
     0
281
     0
  0
CLASS
  1
ACDBSECTIONVIEWSTYLE
  2
AcDbSectionViewStyle
  3
ObjectDBX Classes
 90
     1025
 91
        1
280
     0
281
     0
  0
CLASS
  1
ACDBDETAILVIEWSTYLE
  2
AcDbDetailViewStyle
  3
ObjectDBX Classes
 90
     1025
 91
        1
280
     0
281
     0
  0
CLASS
  1
DICTIONARYVAR
  2
AcDbDictionaryVar
  3
ObjectDBX Classes
 90
        0
 91
        5
280
     0
281
     0
  0
CLASS
  1
CELLSTYLEMAP
  2
AcDbCellStyleMap
  3
ObjectDBX Classes
 90
     1152
 91
        1
280
     0
281
     0
  0
ENDSEC
  0
SECTION
  2
TABLES
  0
TABLE
  2
VPORT
  5
8
330
0
100
AcDbSymbolTable
 70
     1
  0
VPORT
  5
57
330
8
100
AcDbSymbolTableRecord
100
AcDbViewportTableRecord
  2
*Active
 70
     0
 10
0.0
 20
0.0
 11
1.0
 21
1.0
 12
0.0
 22
0.0
 13
0.0
 23
0.0
 14
1.0
 24
1.0
 15
0.0
 25
0.0
 16
0.0
 26
0.0
 36
1.0
 17
104.9999999737534
 27
-148.4999999628701
 37
0.0
 40
302.939999924255
 41
0.7070707070707534
 42
50.0
 43
0.0
 44
0.0
 50
0.0
 51
0.0
 71
     0
 72
   100
 73
     1
 74
     0
 75
     1
 76
     0
 77
     0
 78
     0
281
     0
 65
     1
110
0.0
120
0.0
130
0.0
111
1.0
121
0.0
131
0.0
112
0.0
122
1.0
132
0.0
 79
     0
146
0.0
 60
     3
 61
     5
292
     1
282
     1
141
0.0
142
0.0
 63
   250
421
  3355443
  0
ENDTAB
  0
TABLE
  2
LTYPE
  5
5
330
0
100
AcDbSymbolTable
 70
     3
  0
LTYPE
  5
5B
330
5
100
AcDbSymbolTableRecord
100
AcDbLinetypeTableRecord
  2
ByBlock
 70
     0
  3

 72
    65
 73
     0
 40
0.0
  0
LTYPE
  5
5C
330
5
100
AcDbSymbolTableRecord
100
AcDbLinetypeTableRecord
  2
ByLayer
 70
     0
  3

 72
    65
 73
     0
 40
0.0
  0
LTYPE
  5
5D
330
5
100
AcDbSymbolTableRecord
100
AcDbLinetypeTableRecord
  2
Continuous
 70
     0
  3
Solid line
 72
    65
 73
     0
 40
0.0
  0
LTYPE
  5
7A
330
5
100
AcDbSymbolTableRecord
100
AcDbLinetypeTableRecord
  2
AI-Linetype-0
 70
     0
  3
Adobe Illustrator Linetype No. 0
 72
    65
 73
     2
 40
1.411111110758333
 49
0.7055555553791667
 74
     0
 49
-0.7055555553791667
 74
     0
  0
LTYPE
  5
7C
330
5
100
AcDbSymbolTableRecord
100
AcDbLinetypeTableRecord
  2
AI-Linetype-1
 70
     0
  3
Adobe Illustrator Linetype No. 1
 72
    65
 73
     2
 40
1.411111110758333
 49
0.7055555553791667
 74
     0
 49
-0.7055555553791667
 74
     0
  0
ENDTAB
  0
TABLE
  2
LAYER
  5
2
330
0
100
AcDbSymbolTable
 70
     2
  0
LAYER
  5
54
330
2
100
AcDbSymbolTableRecord
100
AcDbLayerTableRecord
  2
0
 70
     0
 62
     7
  6
Continuous
370
    -3
390
F
347
21
  0
LAYER
  5
78
330
2
100
AcDbSymbolTableRecord
100
AcDbLayerTableRecord
  2
レイヤー 1
 70
     0
 62
     7
  6
Continuous
370
     0
390
F
347
21
  0
ENDTAB
  0
TABLE
  2
STYLE
  5
3
330
0
100
AcDbSymbolTable
 70
     2
  0
STYLE
  5
55
330
3
100
AcDbSymbolTableRecord
100
AcDbTextStyleTableRecord
  2
Standard
 70
     0
 40
0.0
 41
1.0
 50
0.0
 71
     0
 42
0.2
  3
txt
  4

  0
STYLE
  5
5A
330
3
100
AcDbSymbolTableRecord
100
AcDbTextStyleTableRecord
  2
Annotative
 70
     0
 40
0.0
 41
1.0
 50
0.0
 71
     0
 42
0.2
  3
txt
  4

1001
AcadAnnotative
1000
AnnotativeData
1002
{
1070
     1
1070
     1
1002
}
  0
ENDTAB
  0
TABLE
  2
VIEW
  5
6
330
0
100
AcDbSymbolTable
 70
     0
  0
ENDTAB
  0
TABLE
  2
UCS
  5
7
330
0
100
AcDbSymbolTable
 70
     0
  0
ENDTAB
  0
TABLE
  2
APPID
  5
9
330
0
100
AcDbSymbolTable
 70
     2
  0
APPID
  5
56
330
9
100
AcDbSymbolTableRecord
100
AcDbRegAppTableRecord
  2
ACAD
 70
     0
  0
APPID
  5
5E
330
9
100
AcDbSymbolTableRecord
100
AcDbRegAppTableRecord
  2
AcadAnnotative
 70
     0
  0
ENDTAB
  0
TABLE
  2
DIMSTYLE
  5
A
330
0
100
AcDbSymbolTable
 70
     2
100
AcDbDimStyleTable
 71
     0
  0
DIMSTYLE
105
58
330
A
100
AcDbSymbolTableRecord
100
AcDbDimStyleTableRecord
  2
Standard
 70
     0
340
55
  0
DIMSTYLE
105
59
330
A
100
AcDbSymbolTableRecord
100
AcDbDimStyleTableRecord
  2
Annotative
 70
     0
340
55
1001
AcadAnnotative
1000
AnnotativeData
1002
{
1070
     1
1070
     1
1002
}
  0
ENDTAB
  0
TABLE
  2
BLOCK_RECORD
  5
1
330
0
100
AcDbSymbolTable
 70
    20
  0
BLOCK_RECORD
  5
70
330
1
100
AcDbSymbolTableRecord
100
AcDbBlockTableRecord
  2
*Model_Space
340
73
 70
     0
280
     1
281
     0
  0
BLOCK_RECORD
  5
6C
330
1
100
AcDbSymbolTableRecord
100
AcDbBlockTableRecord
  2
*Paper_Space
340
6F
 70
     0
280
     1
281
     0
  0
BLOCK_RECORD
  5
74
330
1
100
AcDbSymbolTableRecord
100
AcDbBlockTableRecord
  2
*Paper_Space0
340
77
 70
     0
280
     1
281
     0
  0
BLOCK_RECORD
  5
83
330
1
100
AcDbSymbolTableRecord
100
AcDbBlockTableRecord
  2
Block_0
340
0
102
{BLKREFS
331
84
102
}
 70
     0
280
     1
281
     0
  0
BLOCK_RECORD
  5
87
330
1
100
AcDbSymbolTableRecord
100
AcDbBlockTableRecord
  2
Block_1
340
0
102
{BLKREFS
331
88
102
}
 70
     0
280
     1
281
     0
  0
BLOCK_RECORD
  5
9D
330
1
100
AcDbSymbolTableRecord
100
AcDbBlockTableRecord
  2
Block_2
340
0
102
{BLKREFS
331
9E
102
}
 70
     0
280
     1
281
     0
  0
BLOCK_RECORD
  5
A1
330
1
100
AcDbSymbolTableRecord
100
AcDbBlockTableRecord
  2
Block_3
340
0
102
{BLKREFS
331
A2
102
}
 70
     0
280
     1
281
     0
  0
BLOCK_RECORD
  5
A5
330
1
100
AcDbSymbolTableRecord
100
AcDbBlockTableRecord
  2
Block_4
340
0
102
{BLKREFS
331
A6
102
}
 70
     0
280
     1
281
     0
  0
BLOCK_RECORD
  5
AE
330
1
100
AcDbSymbolTableRecord
100
AcDbBlockTableRecord
  2
Block_5
340
0
102
{BLKREFS
331
AF
102
}
 70
     0
280
     1
281
     0
  0
BLOCK_RECORD
  5
B2
330
1
100
AcDbSymbolTableRecord
100
AcDbBlockTableRecord
  2
Block_6
340
0
102
{BLKREFS
331
B3
102
}
 70
     0
280
     1
281
     0
  0
BLOCK_RECORD
  5
BB
330
1
100
AcDbSymbolTableRecord
100
AcDbBlockTableRecord
  2
Block_7
340
0
102
{BLKREFS
331
BC
102
}
 70
     0
280
     1
281
     0
  0
BLOCK_RECORD
  5
C0
330
1
100
AcDbSymbolTableRecord
100
AcDbBlockTableRecord
  2
Block_8
340
0
102
{BLKREFS
331
C1
102
}
 70
     0
280
     1
281
     0
  0
BLOCK_RECORD
  5
C8
330
1
100
AcDbSymbolTableRecord
100
AcDbBlockTableRecord
  2
Block_9
340
0
102
{BLKREFS
331
C9
102
}
 70
     0
280
     1
281
     0
  0
BLOCK_RECORD
  5
CC
330
1
100
AcDbSymbolTableRecord
100
AcDbBlockTableRecord
  2
Block_10
340
0
102
{BLKREFS
331
CD
102
}
 70
     0
280
     1
281
     0
  0
BLOCK_RECORD
  5
D4
330
1
100
AcDbSymbolTableRecord
100
AcDbBlockTableRecord
  2
Block_11
340
0
102
{BLKREFS
331
D5
102
}
 70
     0
280
     1
281
     0
  0
BLOCK_RECORD
  5
D8
330
1
100
AcDbSymbolTableRecord
100
AcDbBlockTableRecord
  2
Block_12
340
0
102
{BLKREFS
331
D9
102
}
 70
     0
280
     1
281
     0
  0
BLOCK_RECORD
  5
E1
330
1
100
AcDbSymbolTableRecord
100
AcDbBlockTableRecord
  2
Block_13
340
0
102
{BLKREFS
331
E2
102
}
 70
     0
280
     1
281
     0
  0
BLOCK_RECORD
  5
E5
330
1
100
AcDbSymbolTableRecord
100
AcDbBlockTableRecord
  2
Block_14
340
0
102
{BLKREFS
331
E6
102
}
 70
     0
280
     1
281
     0
  0
BLOCK_RECORD
  5
EE
330
1
100
AcDbSymbolTableRecord
100
AcDbBlockTableRecord
  2
Block_15
340
0
102
{BLKREFS
331
EF
102
}
 70
     0
280
     1
281
     0
  0
BLOCK_RECORD
  5
F2
330
1
100
AcDbSymbolTableRecord
100
AcDbBlockTableRecord
  2
Block_16
340
0
102
{BLKREFS
331
F3
102
}
 70
     0
280
     1
281
     0
  0
BLOCK_RECORD
  5
F6
330
1
100
AcDbSymbolTableRecord
100
AcDbBlockTableRecord
  2
Block_17
340
0
102
{BLKREFS
331
F7
102
}
 70
     0
280
     1
281
     0
  0
BLOCK_RECORD
  5
11A
330
1
100
AcDbSymbolTableRecord
100
AcDbBlockTableRecord
  2
Block_18
340
0
102
{BLKREFS
331
11B
102
}
 70
     0
280
     1
281
     0
  0
ENDTAB
  0
ENDSEC
  0
SECTION
  2
BLOCKS
  0
BLOCK
  5
71
330
70
100
AcDbEntity
  8
0
100
AcDbBlockBegin
  2
*Model_Space
 70
     0
 10
0.0
 20
0.0
 30
0.0
  3
*Model_Space
  1

  0
ENDBLK
  5
72
330
70
100
AcDbEntity
  8
0
100
AcDbBlockEnd
  0
BLOCK
  5
6D
330
6C
100
AcDbEntity
 67
     1
  8
0
100
AcDbBlockBegin
  2
*Paper_Space
 70
     0
 10
0.0
 20
0.0
 30
0.0
  3
*Paper_Space
  1

  0
ENDBLK
  5
6E
330
6C
100
AcDbEntity
 67
     1
  8
0
100
AcDbBlockEnd
  0
BLOCK
  5
75
330
74
100
AcDbEntity
 67
     1
  8
0
100
AcDbBlockBegin
  2
*Paper_Space0
 70
     0
 10
0.0
 20
0.0
 30
0.0
  3
*Paper_Space0
  1

  0
ENDBLK
  5
76
330
74
100
AcDbEntity
 67
     1
  8
0
100
AcDbBlockEnd
  0
BLOCK
  5
85
330
83
100
AcDbEntity
  8
0
100
AcDbBlockBegin
  2
Block_0
 70
     0
 10
0.0
 20
0.0
 30
0.0
  3
Block_0
  1

  0
INSERT
  5
88
330
83
100
AcDbEntity
  8
レイヤー 1
100
AcDbBlockReference
  2
Block_1
 10
0.0
 20
0.0
 30
0.0
  0
ENDBLK
  5
86
330
83
100
AcDbEntity
  8
0
100
AcDbBlockEnd
  0
BLOCK
  5
89
330
87
100
AcDbEntity
  8
0
100
AcDbBlockBegin
  2
Block_1
 70
     0
 10
0.0
 20
0.0
 30
0.0
  3
Block_1
  1

  0
SPLINE
  5
8B
330
87
100
AcDbEntity
  8
レイヤー 1
100
AcDbSpline
210
0.0
220
0.0
230
1.0
 70
     9
 71
     3
 72
    17
 73
    13
 74
     0
 42
0.0000000001
 43
0.0000000001
 40
0.0
 40
0.0
 40
0.0
 40
0.0
 40
1.0
 40
1.0
 40
1.0
 40
2.0
 40
2.0
 40
2.0
 40
3.0
 40
3.0
 40
3.0
 40
4.0
 40
4.0
 40
4.0
 40
4.0
 10
112.4913248416688
 20
-138.8099595464607
 30
0.0
 10
112.4744438737911
 20
-138.8394151128596
 30
0.0
 10
112.4238009701579
 20
-138.9326049457356
 30
0.0
 10
112.4131211741536
 20
-138.9515529709045
 30
0.0
 10
112.603634954488
 20
-139.0108086132508
 30
0.0
 10
112.624650036948
 20
-139.0171820398985
 30
0.0
 10
112.6966525325897
 20
-139.0447428037804
 30
0.0
 10
112.7517740603537
 20
-138.9579263975522
 30
0.0
 10
112.7748562001049
 20
-138.8838568446193
 30
0.0
 10
112.7896701106914
 20
-138.8099595464607
 30
0.0
 10
112.7896701106914
 20
-138.8099595464607
 30
0.0
 10
112.4913248416688
 20
-138.8099595464607
 30
0.0
 10
112.4913248416688
 20
-138.8099595464607
 30
0.0
  0
SPLINE
  5
8C
330
87
100
AcDbEntity
  8
レイヤー 1
100
AcDbSpline
210
0.0
220
0.0
230
1.0
 70
    11
 71
     3
 72
    20
 73
    16
 74
     0
 42
0.0000000001
 43
0.0000000001
 40
0.0
 40
0.0
 40
0.0
 40
0.0
 40
1.0
 40
1.0
 40
1.0
 40
2.0
 40
2.0
 40
2.0
 40
3.0
 40
3.0
 40
3.0
 40
4.0
 40
4.0
 40
4.0
 40
5.0
 40
5.0
 40
5.0
 40
5.0
 10
112.4279350847402
 20
-137.9595377259268
 30
0.0
 10
112.4279350847402
 20
-137.9595377259268
 30
0.0
 10
112.3962402062759
 20
-137.9595377259268
 30
0.0
 10
112.3962402062759
 20
-137.9595377259268
 30
0.0
 10
112.4427489953268
 20
-138.0589287306762
 30
0.0
 10
112.4744438737911
 20
-138.1391994554825
 30
0.0
 10
112.5082058095465
 20
-138.266151224114
 30
0.0
 10
112.5082058095465
 20
-138.266151224114
 30
0.0
 10
112.7156005577586
 20
-138.266151224114
 30
0.0
 10
112.7156005577586
 20
-138.266151224114
 30
0.0
 10
112.7472954362229
 20
-138.1731336460122
 30
0.0
 10
112.7707220855226
 20
-138.0885565518494
 30
0.0
 10
112.7938042252738
 20
-137.9595377259268
 30
0.0
 10
112.7938042252738
 20
-137.9595377259268
 30
0.0
 10
112.4279350847402
 20
-137.9595377259268
 30
0.0
 10
112.4279350847402
 20
-137.9595377259268
 30
0.0
  0
SPLINE
  5
8D
330
87
100
AcDbEntity
  8
レイヤー 1
100
AcDbSpline
210
0.0
220
0.0
230
1.0
 70
     9
 71
     3
 72
   242
 73
   238
 74
     0
 42
0.0000000001
 43
0.0000000001
 40
0.0
 40
0.0
 40
0.0
 40
0.0
 40
1.0
 40
1.0
 40
1.0
 40
2.0
 40
2.0
 40
2.0
 40
3.0
 40
3.0
 40
3.0
 40
4.0
 40
4.0
 40
4.0
 40
5.0
 40
5.0
 40
5.0
 40
6.0
 40
6.0
 40
6.0
 40
7.0
 40
7.0
 40
7.0
 40
8.0
 40
8.0
 40
8.0
 40
9.0
 40
9.0
 40
9.0
 40
10.0
 40
10.0
 40
10.0
 40
11.0
 40
11.0
 40
11.0
 40
12.0
 40
12.0
 40
12.0
 40
13.0
 40
13.0
 40
13.0
 40
14.0
 40
14.0
 40
14.0
 40
15.0
 40
15.0
 40
15.0
 40
16.0
 40
16.0
 40
16.0
 40
17.0
 40
17.0
 40
17.0
 40
18.0
 40
18.0
 40
18.0
 40
19.0
 40
19.0
 40
19.0
 40
20.0
 40
20.0
 40
20.0
 40
21.0
 40
21.0
 40
21.0
 40
22.0
 40
22.0
 40
22.0
 40
23.0
 40
23.0
 40
23.0
 40
24.0
 40
24.0
 40
24.0
 40
25.0
 40
25.0
 40
25.0
 40
26.0
 40
26.0
 40
26.0
 40
27.0
 40
27.0
 40
27.0
 40
28.0
 40
28.0
 40
28.0
 40
29.0
 40
29.0
 40
29.0
 40
30.0
 40
30.0
 40
30.0
 40
31.0
 40
31.0
 40
31.0
 40
32.0
 40
32.0
 40
32.0
 40
33.0
 40
33.0
 40
33.0
 40
34.0
 40
34.0
 40
34.0
 40
35.0
 40
35.0
 40
35.0
 40
36.0
 40
36.0
 40
36.0
 40
37.0
 40
37.0
 40
37.0
 40
38.0
 40
38.0
 40
38.0
 40
39.0
 40
39.0
 40
39.0
 40
40.0
 40
40.0
 40
40.0
 40
41.0
 40
41.0
 40
41.0
 40
42.0
 40
42.0
 40
42.0
 40
43.0
 40
43.0
 40
43.0
 40
44.0
 40
44.0
 40
44.0
 40
45.0
 40
45.0
 40
45.0
 40
46.0
 40
46.0
 40
46.0
 40
47.0
 40
47.0
 40
47.0
 40
48.0
 40
48.0
 40
48.0
 40
49.0
 40
49.0
 40
49.0
 40
50.0
 40
50.0
 40
50.0
 40
51.0
 40
51.0
 40
51.0
 40
52.0
 40
52.0
 40
52.0
 40
53.0
 40
53.0
 40
53.0
 40
54.0
 40
54.0
 40
54.0
 40
55.0
 40
55.0
 40
55.0
 40
56.0
 40
56.0
 40
56.0
 40
57.0
 40
57.0
 40
57.0
 40
58.0
 40
58.0
 40
58.0
 40
59.0
 40
59.0
 40
59.0
 40
60.0
 40
60.0
 40
60.0
 40
61.0
 40
61.0
 40
61.0
 40
62.0
 40
62.0
 40
62.0
 40
63.0
 40
63.0
 40
63.0
 40
64.0
 40
64.0
 40
64.0
 40
65.0
 40
65.0
 40
65.0
 40
66.0
 40
66.0
 40
66.0
 40
67.0
 40
67.0
 40
67.0
 40
68.0
 40
68.0
 40
68.0
 40
69.0
 40
69.0
 40
69.0
 40
70.0
 40
70.0
 40
70.0
 40
71.0
 40
71.0
 40
71.0
 40
72.0
 40
72.0
 40
72.0
 40
73.0
 40
73.0
 40
73.0
 40
74.0
 40
74.0
 40
74.0
 40
75.0
 40
75.0
 40
75.0
 40
76.0
 40
76.0
 40
76.0
 40
77.0
 40
77.0
 40
77.0
 40
78.0
 40
78.0
 40
78.0
 40
79.0
 40
79.0
 40
79.0
 40
79.0
 10
113.0563205012498
 20
-138.4247978712098
 30
0.0
 10
113.0563205012498
 20
-138.4247978712098
 30
0.0
 10
112.8024169639869
 20
-138.4247978712098
 30
0.0
 10
112.8024169639869
 20
-138.4247978712098
 30
0.0
 10
112.8024169639869
 20
-138.4247978712098
 30
0.0
 10
112.5254312869728
 20
-138.4247978712098
 30
0.0
 10
112.5254312869728
 20
-138.4247978712098
 30
0.0
 10
112.5254312869728
 20
-138.4247978712098
 30
0.0
 10
112.65221080083
 20
-138.4671725456783
 30
0.0
 10
112.65221080083
 20
-138.4671725456783
 30
0.0
 10
112.6628905968343
 20
-138.4714789150349
 30
0.0
 10
112.6756374501297
 20
-138.4776800869083
 30
0.0
 10
112.6756374501297
 20
-138.4904269402037
 30
0.0
 10
112.6756374501297
 20
-138.511614277438
 30
0.0
 10
112.6435980621169
 20
-138.5179877040858
 30
0.0
 10
112.6225829796568
 20
-138.5221218186681
 30
0.0
 10
112.6119031836526
 20
-138.5453762131935
 30
0.0
 10
112.5822753624794
 20
-138.6110052821875
 30
0.0
 10
112.5633273373106
 20
-138.6554470139472
 30
0.0
 10
112.5633273373106
 20
-138.6554470139472
 30
0.0
 10
112.8341118424512
 20
-138.6554470139472
 30
0.0
 10
112.8341118424512
 20
-138.6554470139472
 30
0.0
 10
112.9250623632618
 20
-138.6554470139472
 30
0.0
 10
113.1217773154695
 20
-138.6511406445907
 30
0.0
 10
113.2637152494618
 20
-138.6427001606518
 30
0.0
 10
113.2637152494618
 20
-138.6427001606518
 30
0.0
 10
113.2637152494618
 20
-138.8204670876907
 30
0.0
 10
113.2637152494618
 20
-138.8204670876907
 30
0.0
 10
113.1810329578158
 20
-138.8161607183342
 30
0.0
 10
113.1600178753558
 20
-138.8161607183342
 30
0.0
 10
112.9801838910258
 20
-138.8120266037518
 30
0.0
 10
112.9484890125615
 20
-138.966366881491
 30
0.0
 10
112.9040472808018
 20
-139.0468098610716
 30
0.0
 10
112.859605549042
 20
-139.1165730446479
 30
0.0
 10
112.9801838910258
 20
-139.1758286869942
 30
0.0
 10
113.0859483224229
 20
-139.2435248132794
 30
0.0
 10
113.189645696529
 20
-139.3260348501511
 30
0.0
 10
113.189645696529
 20
-139.3260348501511
 30
0.0
 10
113.0711344118364
 20
-139.4931219811857
 30
0.0
 10
113.0711344118364
 20
-139.4931219811857
 30
0.0
 10
113.0477077625367
 20
-139.4741739560168
 30
0.0
 10
113.0349609092412
 20
-139.465733472078
 30
0.0
 10
112.9229953059706
 20
-139.3809841231409
 30
0.0
 10
112.8744194596286
 20
-139.3429158180288
 30
0.0
 10
112.8151638172823
 20
-139.3070868249822
 30
0.0
 10
112.7345485829275
 20
-139.2626450932225
 30
0.0
 10
112.5230197201331
 20
-139.4488525042003
 30
0.0
 10
112.3180365387608
 20
-139.4721068987257
 30
0.0
 10
112.0279594989027
 20
-139.5017347198989
 30
0.0
 10
112.0279594989027
 20
-139.5017347198989
 30
0.0
 10
111.9246066343452
 20
-139.3219007355688
 30
0.0
 10
111.9246066343452
 20
-139.3219007355688
 30
0.0
 10
112.2418999285367
 20
-139.3175943662122
 30
0.0
 10
112.417255288736
 20
-139.2922729143956
 30
0.0
 10
112.569528509184
 20
-139.1822021136419
 30
0.0
 10
112.4513617340399
 20
-139.1313869552345
 30
0.0
 10
112.3624782705205
 20
-139.1039984461267
 30
0.0
 10
112.3263047679254
 20
-139.0912515928313
 30
0.0
 10
112.3073567427565
 20
-139.1188123567133
 30
0.0
 10
112.2925428321699
 20
-139.1377603818822
 30
0.0
 10
112.2649820682879
 20
-139.1716945724119
 30
0.0
 10
112.2649820682879
 20
-139.1716945724119
 30
0.0
 10
112.0682671160802
 20
-139.0891845355402
 30
0.0
 10
112.0682671160802
 20
-139.0891845355402
 30
0.0
 10
112.1509494077261
 20
-139.0087415559596
 30
0.0
 10
112.2122721073636
 20
-138.9134846657924
 30
0.0
 10
112.2691161828702
 20
-138.8120266037518
 30
0.0
 10
112.0789469120844
 20
-138.8161607183342
 30
0.0
 10
112.0575873200759
 20
-138.8161607183342
 30
0.0
 10
111.9752495379784
 20
-138.8204670876907
 30
0.0
 10
111.9752495379784
 20
-138.8204670876907
 30
0.0
 10
111.9752495379784
 20
-138.6427001606518
 30
0.0
 10
111.9752495379784
 20
-138.6427001606518
 30
0.0
 10
112.114775905131
 20
-138.6490735872995
 30
0.0
 10
112.3242377106342
 20
-138.6533799566561
 30
0.0
 10
112.3497314172251
 20
-138.6533799566561
 30
0.0
 10
112.3666123851028
 20
-138.6194457661264
 30
0.0
 10
112.4217339128668
 20
-138.4988674241426
 30
0.0
 10
112.4406819380356
 20
-138.4247978712098
 30
0.0
 10
112.4217339128668
 20
-138.4247978712098
 30
0.0
 10
112.2439669858279
 20
-138.4311712978575
 30
0.0
 10
112.0493190909113
 20
-138.4439181511529
 30
0.0
 10
112.0493190909113
 20
-138.4439181511529
 30
0.0
 10
112.0493190909113
 20
-138.5772433464321
 30
0.0
 10
112.0493190909113
 20
-138.5772433464321
 30
0.0
 10
112.0007432445692
 20
-138.6025647982486
 30
0.0
 10
111.9414876022229
 20
-138.6342596767129
 30
0.0
 10
111.8081624069438
 20
-138.6998887457069
 30
0.0
 10
111.8081624069438
 20
-138.6998887457069
 30
0.0
 10
111.8081624069438
 20
-138.8457885395073
 30
0.0
 10
111.8081624069438
 20
-138.8457885395073
 30
0.0
 10
111.8081624069438
 20
-138.8457885395073
 30
0.0
 10
111.8081624069438
 20
-139.31346025163
 30
0.0
 10
111.8081624069438
 20
-139.31346025163
 30
0.0
 10
111.8081624069438
 20
-139.4402397654872
 30
0.0
 10
111.7719889043486
 20
-139.4994954078335
 30
0.0
 10
111.4888020554611
 20
-139.4910549238946
 30
0.0
 10
111.4888020554611
 20
-139.4910549238946
 30
0.0
 10
111.3851046813551
 20
-139.2838324304568
 30
0.0
 10
111.3851046813551
 20
-139.2838324304568
 30
0.0
 10
111.4484944382837
 20
-139.296407028978
 30
0.0
 10
111.4970702846257
 20
-139.3007133983345
 30
0.0
 10
111.5373779018031
 20
-139.3007133983345
 30
0.0
 10
111.6135145120272
 20
-139.3007133983345
 30
0.0
 10
111.6241943080314
 20
-139.2774590038091
 30
0.0
 10
111.6241943080314
 20
-139.2118299348151
 30
0.0
 10
111.6241943080314
 20
-139.2118299348151
 30
0.0
 10
111.6241943080314
 20
-138.7823987825787
 30
0.0
 10
111.6241943080314
 20
-138.7823987825787
 30
0.0
 10
111.5266981057989
 20
-138.8225341449818
 30
0.0
 10
111.5098171379211
 20
-138.8289075716295
 30
0.0
 10
111.4633083488703
 20
-138.8480278515727
 30
0.0
 10
111.459174234288
 20
-138.8690429340327
 30
0.0
 10
111.4546956101571
 20
-138.8986707552059
 30
0.0
 10
111.4357475849883
 20
-138.8986707552059
 30
0.0
 10
111.4274793558237
 20
-138.8986707552059
 30
0.0
 10
111.4167995598194
 20
-138.8945366406236
 30
0.0
 10
111.4102538783974
 20
-138.8712822460981
 30
0.0
 10
111.4102538783974
 20
-138.8712822460981
 30
0.0
 10
111.3575439174731
 20
-138.6787014084727
 30
0.0
 10
111.3575439174731
 20
-138.6787014084727
 30
0.0
 10
111.5036159660477
 20
-138.6321926194218
 30
0.0
 10
111.5690727802674
 20
-138.6089382248963
 30
0.0
 10
111.6241943080314
 20
-138.5877508876621
 30
0.0
 10
111.6241943080314
 20
-138.5877508876621
 30
0.0
 10
111.6241943080314
 20
-138.1752007033034
 30
0.0
 10
111.6241943080314
 20
-138.1752007033034
 30
0.0
 10
111.6241943080314
 20
-138.1752007033034
 30
0.0
 10
111.5711398375586
 20
-138.1752007033034
 30
0.0
 10
111.5711398375586
 20
-138.1752007033034
 30
0.0
 10
111.5711398375586
 20
-138.1752007033034
 30
0.0
 10
111.4929361700434
 20
-138.1752007033034
 30
0.0
 10
111.4929361700434
 20
-138.1752007033034
 30
0.0
 10
111.425067788984
 20
-138.1752007033034
 30
0.0
 10
111.4167995598194
 20
-138.1752007033034
 30
0.0
 10
111.3806260572243
 20
-138.1815741299511
 30
0.0
 10
111.3806260572243
 20
-138.1815741299511
 30
0.0
 10
111.3806260572243
 20
-137.9869262350345
 30
0.0
 10
111.3806260572243
 20
-137.9869262350345
 30
0.0
 10
111.4081868211063
 20
-137.9932996616822
 30
0.0
 10
111.4167995598194
 20
-137.9932996616822
 30
0.0
 10
111.4863904886215
 20
-137.9932996616822
 30
0.0
 10
111.4863904886215
 20
-137.9932996616822
 30
0.0
 10
111.6197156839006
 20
-137.9932996616822
 30
0.0
 10
111.6197156839006
 20
-137.9932996616822
 30
0.0
 10
111.6197156839006
 20
-137.9235364781059
 30
0.0
 10
111.6197156839006
 20
-137.8410264412342
 30
0.0
 10
111.6176486266095
 20
-137.8367200718776
 30
0.0
 10
111.6093803974449
 20
-137.6568860875476
 30
0.0
 10
111.6093803974449
 20
-137.6379380623787
 30
0.0
 10
111.6069688306052
 20
-137.5914292733278
 30
0.0
 10
111.6069688306052
 20
-137.5914292733278
 30
0.0
 10
111.8229763175303
 20
-137.5998697572667
 30
0.0
 10
111.8229763175303
 20
-137.5998697572667
 30
0.0
 10
111.8336561135346
 20
-137.5998697572667
 30
0.0
 10
111.8546711959947
 20
-137.6019368145578
 30
0.0
 10
111.8546711959947
 20
-137.6188177824355
 30
0.0
 10
111.8546711959947
 20
-137.6379380623787
 30
0.0
 10
111.8398572854081
 20
-137.6484456036087
 30
0.0
 10
111.8143635788172
 20
-137.6675658835518
 30
0.0
 10
111.8143635788172
 20
-137.718208787185
 30
0.0
 10
111.8081624069438
 20
-137.9467908726313
 30
0.0
 10
111.8102294642349
 20
-137.9932996616822
 30
0.0
 10
111.9394205449318
 20
-137.9932996616822
 30
0.0
 10
111.9518228886787
 20
-137.9932996616822
 30
0.0
 10
112.0493190909113
 20
-137.9848591777433
 30
0.0
 10
112.0493190909113
 20
-137.9848591777433
 30
0.0
 10
112.0493190909113
 20
-138.17950707266
 30
0.0
 10
112.0493190909113
 20
-138.17950707266
 30
0.0
 10
112.011078531025
 20
-138.1772677605946
 30
0.0
 10
111.9435546595141
 20
-138.1731336460122
 30
0.0
 10
111.8081624069438
 20
-138.1752007033034
 30
0.0
 10
111.8081624069438
 20
-138.1752007033034
 30
0.0
 10
111.8081624069438
 20
-138.5136813347292
 30
0.0
 10
111.8081624069438
 20
-138.5136813347292
 30
0.0
 10
111.8632839347078
 20
-138.4904269402037
 30
0.0
 10
111.9287407489275
 20
-138.4628661763218
 30
0.0
 10
111.9773165952695
 20
-138.4396117817963
 30
0.0
 10
111.9773165952695
 20
-138.4396117817963
 30
0.0
 10
111.9773165952695
 20
-138.2620171095317
 30
0.0
 10
111.9773165952695
 20
-138.2620171095317
 30
0.0
 10
112.0916937653798
 20
-138.2745917080529
 30
0.0
 10
112.2102050500724
 20
-138.2745917080529
 30
0.0
 10
112.3263047679254
 20
-138.2745917080529
 30
0.0
 10
112.3032226281742
 20
-138.17950707266
 30
0.0
 10
112.2756618642922
 20
-138.0969970357882
 30
0.0
 10
112.2122721073636
 20
-137.9636718405091
 30
0.0
 10
112.1678303756039
 20
-137.9657388978002
 30
0.0
 10
112.0851480839579
 20
-137.9700452671568
 30
0.0
 10
112.0472520336201
 20
-137.9721123244479
 30
0.0
 10
112.0472520336201
 20
-137.9721123244479
 30
0.0
 10
112.0472520336201
 20
-137.7922783401179
 30
0.0
 10
112.0472520336201
 20
-137.7922783401179
 30
0.0
 10
112.1719644901862
 20
-137.8007188240567
 30
0.0
 10
112.3455973026427
 20
-137.8050251934133
 30
0.0
 10
112.4279350847402
 20
-137.8050251934133
 30
0.0
 10
112.4279350847402
 20
-137.8050251934133
 30
0.0
 10
112.5106173763862
 20
-137.8050251934133
 30
0.0
 10
112.5106173763862
 20
-137.8050251934133
 30
0.0
 10
112.5106173763862
 20
-137.642072176961
 30
0.0
 10
112.5106173763862
 20
-137.631564635731
 30
0.0
 10
112.5082058095465
 20
-137.5766153627413
 30
0.0
 10
112.5082058095465
 20
-137.5766153627413
 30
0.0
 10
112.7324815256363
 20
-137.6019368145578
 30
0.0
 10
112.7324815256363
 20
-137.6019368145578
 30
0.0
 10
112.7369601497671
 20
-137.6019368145578
 30
0.0
 10
112.7579752322272
 20
-137.604003871849
 30
0.0
 10
112.7579752322272
 20
-137.6208848397267
 30
0.0
 10
112.7579752322272
 20
-137.6356987503133
 30
0.0
 10
112.7472954362229
 20
-137.6443114890264
 30
0.0
 10
112.7197346723409
 20
-137.659125399613
 30
0.0
 10
112.7135335004674
 20
-137.7245822138327
 30
0.0
 10
112.7114664431763
 20
-137.745769551067
 30
0.0
 10
112.7114664431763
 20
-137.8050251934133
 30
0.0
 10
112.7114664431763
 20
-137.8050251934133
 30
0.0
 10
112.8065510785692
 20
-137.8050251934133
 30
0.0
 10
112.8065510785692
 20
-137.8050251934133
 30
0.0
 10
112.8892333702152
 20
-137.8050251934133
 30
0.0
 10
113.0625216731232
 20
-137.8007188240567
 30
0.0
 10
113.1875786392378
 20
-137.7922783401179
 30
0.0
 10
113.1875786392378
 20
-137.7922783401179
 30
0.0
 10
113.1875786392378
 20
-137.9721123244479
 30
0.0
 10
113.1875786392378
 20
-137.9721123244479
 30
0.0
 10
113.1579508180647
 20
-137.9700452671568
 30
0.0
 10
113.0394395333721
 20
-137.9657388978002
 30
0.0
 10
112.9991319161947
 20
-137.9636718405091
 30
0.0
 10
112.9843180056081
 20
-138.0144869989165
 30
0.0
 10
112.9505560698526
 20
-138.1266248569614
 30
0.0
 10
112.8847547460843
 20
-138.266151224114
 30
0.0
 10
112.9271294205529
 20
-138.266151224114
 30
0.0
 10
113.2044596071155
 20
-138.2472031989451
 30
0.0
 10
113.265782306753
 20
-138.2449638868797
 30
0.0
 10
113.265782306753
 20
-138.2449638868797
 30
0.0
 10
113.265782306753
 20
-138.4291042405663
 30
0.0
 10
113.265782306753
 20
-138.4291042405663
 30
0.0
 10
113.2361544855798
 20
-138.4291042405663
 30
0.0
 10
113.2192735177021
 20
-138.4247978712098
 30
0.0
 10
113.0563205012498
 20
-138.4247978712098
 30
0.0
  0
HATCH
  5
8E
330
87
100
AcDbEntity
  8
レイヤー 1
 62
   250
420
  2299925
440
 33554687
100
AcDbHatch
 10
0.0
 20
0.0
 30
0.0
210
0.0
220
0.0
230
1.0
  2
SOLID
 70
     1
 71
     1
 91
        3
 92
        1
 93
        1
 72
     4
 94
        3
 73
     0
 74
     0
 95
       17
 96
       13
 40
0.0
 40
0.0
 40
0.0
 40
0.0
 40
1.0
 40
1.0
 40
1.0
 40
2.0
 40
2.0
 40
2.0
 40
3.0
 40
3.0
 40
3.0
 40
4.0
 40
4.0
 40
4.0
 40
4.0
 10
112.4913248416688
 20
-138.8099595464607
 10
112.4744438737911
 20
-138.8394151128596
 10
112.4238009701579
 20
-138.9326049457356
 10
112.4131211741536
 20
-138.9515529709045
 10
112.603634954488
 20
-139.0108086132508
 10
112.624650036948
 20
-139.0171820398985
 10
112.6966525325897
 20
-139.0447428037804
 10
112.7517740603537
 20
-138.9579263975522
 10
112.7748562001049
 20
-138.8838568446193
 10
112.7896701106914
 20
-138.8099595464607
 10
112.7896701106914
 20
-138.8099595464607
 10
112.4913248416688
 20
-138.8099595464607
 10
112.4913248416688
 20
-138.8099595464607
 97
        0
 97
        1
330
8B
 92
        1
 93
        1
 72
     4
 94
        3
 73
     0
 74
     0
 95
       20
 96
       16
 40
0.0
 40
0.0
 40
0.0
 40
0.0
 40
1.0
 40
1.0
 40
1.0
 40
2.0
 40
2.0
 40
2.0
 40
3.0
 40
3.0
 40
3.0
 40
4.0
 40
4.0
 40
4.0
 40
5.0
 40
5.0
 40
5.0
 40
5.0
 10
112.4279350847402
 20
-137.9595377259268
 10
112.4279350847402
 20
-137.9595377259268
 10
112.3962402062759
 20
-137.9595377259268
 10
112.3962402062759
 20
-137.9595377259268
 10
112.4427489953268
 20
-138.0589287306762
 10
112.4744438737911
 20
-138.1391994554825
 10
112.5082058095465
 20
-138.266151224114
 10
112.5082058095465
 20
-138.266151224114
 10
112.7156005577586
 20
-138.266151224114
 10
112.7156005577586
 20
-138.266151224114
 10
112.7472954362229
 20
-138.1731336460122
 10
112.7707220855226
 20
-138.0885565518494
 10
112.7938042252738
 20
-137.9595377259268
 10
112.7938042252738
 20
-137.9595377259268
 10
112.4279350847402
 20
-137.9595377259268
 10
112.4279350847402
 20
-137.9595377259268
 97
        0
 97
        1
330
8C
 92
        1
 93
        1
 72
     4
 94
        3
 73
     0
 74
     0
 95
      242
 96
      238
 40
0.0
 40
0.0
 40
0.0
 40
0.0
 40
1.0
 40
1.0
 40
1.0
 40
2.0
 40
2.0
 40
2.0
 40
3.0
 40
3.0
 40
3.0
 40
4.0
 40
4.0
 40
4.0
 40
5.0
 40
5.0
 40
5.0
 40
6.0
 40
6.0
 40
6.0
 40
7.0
 40
7.0
 40
7.0
 40
8.0
 40
8.0
 40
8.0
 40
9.0
 40
9.0
 40
9.0
 40
10.0
 40
10.0
 40
10.0
 40
11.0
 40
11.0
 40
11.0
 40
12.0
 40
12.0
 40
12.0
 40
13.0
 40
13.0
 40
13.0
 40
14.0
 40
14.0
 40
14.0
 40
15.0
 40
15.0
 40
15.0
 40
16.0
 40
16.0
 40
16.0
 40
17.0
 40
17.0
 40
17.0
 40
18.0
 40
18.0
 40
18.0
 40
19.0
 40
19.0
 40
19.0
 40
20.0
 40
20.0
 40
20.0
 40
21.0
 40
21.0
 40
21.0
 40
22.0
 40
22.0
 40
22.0
 40
23.0
 40
23.0
 40
23.0
 40
24.0
 40
24.0
 40
24.0
 40
25.0
 40
25.0
 40
25.0
 40
26.0
 40
26.0
 40
26.0
 40
27.0
 40
27.0
 40
27.0
 40
28.0
 40
28.0
 40
28.0
 40
29.0
 40
29.0
 40
29.0
 40
30.0
 40
30.0
 40
30.0
 40
31.0
 40
31.0
 40
31.0
 40
32.0
 40
32.0
 40
32.0
 40
33.0
 40
33.0
 40
33.0
 40
34.0
 40
34.0
 40
34.0
 40
35.0
 40
35.0
 40
35.0
 40
36.0
 40
36.0
 40
36.0
 40
37.0
 40
37.0
 40
37.0
 40
38.0
 40
38.0
 40
38.0
 40
39.0
 40
39.0
 40
39.0
 40
40.0
 40
40.0
 40
40.0
 40
41.0
 40
41.0
 40
41.0
 40
42.0
 40
42.0
 40
42.0
 40
43.0
 40
43.0
 40
43.0
 40
44.0
 40
44.0
 40
44.0
 40
45.0
 40
45.0
 40
45.0
 40
46.0
 40
46.0
 40
46.0
 40
47.0
 40
47.0
 40
47.0
 40
48.0
 40
48.0
 40
48.0
 40
49.0
 40
49.0
 40
49.0
 40
50.0
 40
50.0
 40
50.0
 40
51.0
 40
51.0
 40
51.0
 40
52.0
 40
52.0
 40
52.0
 40
53.0
 40
53.0
 40
53.0
 40
54.0
 40
54.0
 40
54.0
 40
55.0
 40
55.0
 40
55.0
 40
56.0
 40
56.0
 40
56.0
 40
57.0
 40
57.0
 40
57.0
 40
58.0
 40
58.0
 40
58.0
 40
59.0
 40
59.0
 40
59.0
 40
60.0
 40
60.0
 40
60.0
 40
61.0
 40
61.0
 40
61.0
 40
62.0
 40
62.0
 40
62.0
 40
63.0
 40
63.0
 40
63.0
 40
64.0
 40
64.0
 40
64.0
 40
65.0
 40
65.0
 40
65.0
 40
66.0
 40
66.0
 40
66.0
 40
67.0
 40
67.0
 40
67.0
 40
68.0
 40
68.0
 40
68.0
 40
69.0
 40
69.0
 40
69.0
 40
70.0
 40
70.0
 40
70.0
 40
71.0
 40
71.0
 40
71.0
 40
72.0
 40
72.0
 40
72.0
 40
73.0
 40
73.0
 40
73.0
 40
74.0
 40
74.0
 40
74.0
 40
75.0
 40
75.0
 40
75.0
 40
76.0
 40
76.0
 40
76.0
 40
77.0
 40
77.0
 40
77.0
 40
78.0
 40
78.0
 40
78.0
 40
79.0
 40
79.0
 40
79.0
 40
79.0
 10
113.0563205012498
 20
-138.4247978712098
 10
113.0563205012498
 20
-138.4247978712098
 10
112.8024169639869
 20
-138.4247978712098
 10
112.8024169639869
 20
-138.4247978712098
 10
112.8024169639869
 20
-138.4247978712098
 10
112.5254312869728
 20
-138.4247978712098
 10
112.5254312869728
 20
-138.4247978712098
 10
112.5254312869728
 20
-138.4247978712098
 10
112.65221080083
 20
-138.4671725456783
 10
112.65221080083
 20
-138.4671725456783
 10
112.6628905968343
 20
-138.4714789150349
 10
112.6756374501297
 20
-138.4776800869083
 10
112.6756374501297
 20
-138.4904269402037
 10
112.6756374501297
 20
-138.511614277438
 10
112.6435980621169
 20
-138.5179877040858
 10
112.6225829796568
 20
-138.5221218186681
 10
112.6119031836526
 20
-138.5453762131935
 10
112.5822753624794
 20
-138.6110052821875
 10
112.5633273373106
 20
-138.6554470139472
 10
112.5633273373106
 20
-138.6554470139472
 10
112.8341118424512
 20
-138.6554470139472
 10
112.8341118424512
 20
-138.6554470139472
 10
112.9250623632618
 20
-138.6554470139472
 10
113.1217773154695
 20
-138.6511406445907
 10
113.2637152494618
 20
-138.6427001606518
 10
113.2637152494618
 20
-138.6427001606518
 10
113.2637152494618
 20
-138.8204670876907
 10
113.2637152494618
 20
-138.8204670876907
 10
113.1810329578158
 20
-138.8161607183342
 10
113.1600178753558
 20
-138.8161607183342
 10
112.9801838910258
 20
-138.8120266037518
 10
112.9484890125615
 20
-138.966366881491
 10
112.9040472808018
 20
-139.0468098610716
 10
112.859605549042
 20
-139.1165730446479
 10
112.9801838910258
 20
-139.1758286869942
 10
113.0859483224229
 20
-139.2435248132794
 10
113.189645696529
 20
-139.3260348501511
 10
113.189645696529
 20
-139.3260348501511
 10
113.0711344118364
 20
-139.4931219811857
 10
113.0711344118364
 20
-139.4931219811857
 10
113.0477077625367
 20
-139.4741739560168
 10
113.0349609092412
 20
-139.465733472078
 10
112.9229953059706
 20
-139.3809841231409
 10
112.8744194596286
 20
-139.3429158180288
 10
112.8151638172823
 20
-139.3070868249822
 10
112.7345485829275
 20
-139.2626450932225
 10
112.5230197201331
 20
-139.4488525042003
 10
112.3180365387608
 20
-139.4721068987257
 10
112.0279594989027
 20
-139.5017347198989
 10
112.0279594989027
 20
-139.5017347198989
 10
111.9246066343452
 20
-139.3219007355688
 10
111.9246066343452
 20
-139.3219007355688
 10
112.2418999285367
 20
-139.3175943662122
 10
112.417255288736
 20
-139.2922729143956
 10
112.569528509184
 20
-139.1822021136419
 10
112.4513617340399
 20
-139.1313869552345
 10
112.3624782705205
 20
-139.1039984461267
 10
112.3263047679254
 20
-139.0912515928313
 10
112.3073567427565
 20
-139.1188123567133
 10
112.2925428321699
 20
-139.1377603818822
 10
112.2649820682879
 20
-139.1716945724119
 10
112.2649820682879
 20
-139.1716945724119
 10
112.0682671160802
 20
-139.0891845355402
 10
112.0682671160802
 20
-139.0891845355402
 10
112.1509494077261
 20
-139.0087415559596
 10
112.2122721073636
 20
-138.9134846657924
 10
112.2691161828702
 20
-138.8120266037518
 10
112.0789469120844
 20
-138.8161607183342
 10
112.0575873200759
 20
-138.8161607183342
 10
111.9752495379784
 20
-138.8204670876907
 10
111.9752495379784
 20
-138.8204670876907
 10
111.9752495379784
 20
-138.6427001606518
 10
111.9752495379784
 20
-138.6427001606518
 10
112.114775905131
 20
-138.6490735872995
 10
112.3242377106342
 20
-138.6533799566561
 10
112.3497314172251
 20
-138.6533799566561
 10
112.3666123851028
 20
-138.6194457661264
 10
112.4217339128668
 20
-138.4988674241426
 10
112.4406819380356
 20
-138.4247978712098
 10
112.4217339128668
 20
-138.4247978712098
 10
112.2439669858279
 20
-138.4311712978575
 10
112.0493190909113
 20
-138.4439181511529
 10
112.0493190909113
 20
-138.4439181511529
 10
112.0493190909113
 20
-138.5772433464321
 10
112.0493190909113
 20
-138.5772433464321
 10
112.0007432445692
 20
-138.6025647982486
 10
111.9414876022229
 20
-138.6342596767129
 10
111.8081624069438
 20
-138.6998887457069
 10
111.8081624069438
 20
-138.6998887457069
 10
111.8081624069438
 20
-138.8457885395073
 10
111.8081624069438
 20
-138.8457885395073
 10
111.8081624069438
 20
-138.8457885395073
 10
111.8081624069438
 20
-139.31346025163
 10
111.8081624069438
 20
-139.31346025163
 10
111.8081624069438
 20
-139.4402397654872
 10
111.7719889043486
 20
-139.4994954078335
 10
111.4888020554611
 20
-139.4910549238946
 10
111.4888020554611
 20
-139.4910549238946
 10
111.3851046813551
 20
-139.2838324304568
 10
111.3851046813551
 20
-139.2838324304568
 10
111.4484944382837
 20
-139.296407028978
 10
111.4970702846257
 20
-139.3007133983345
 10
111.5373779018031
 20
-139.3007133983345
 10
111.6135145120272
 20
-139.3007133983345
 10
111.6241943080314
 20
-139.2774590038091
 10
111.6241943080314
 20
-139.2118299348151
 10
111.6241943080314
 20
-139.2118299348151
 10
111.6241943080314
 20
-138.7823987825787
 10
111.6241943080314
 20
-138.7823987825787
 10
111.5266981057989
 20
-138.8225341449818
 10
111.5098171379211
 20
-138.8289075716295
 10
111.4633083488703
 20
-138.8480278515727
 10
111.459174234288
 20
-138.8690429340327
 10
111.4546956101571
 20
-138.8986707552059
 10
111.4357475849883
 20
-138.8986707552059
 10
111.4274793558237
 20
-138.8986707552059
 10
111.4167995598194
 20
-138.8945366406236
 10
111.4102538783974
 20
-138.8712822460981
 10
111.4102538783974
 20
-138.8712822460981
 10
111.3575439174731
 20
-138.6787014084727
 10
111.3575439174731
 20
-138.6787014084727
 10
111.5036159660477
 20
-138.6321926194218
 10
111.5690727802674
 20
-138.6089382248963
 10
111.6241943080314
 20
-138.5877508876621
 10
111.6241943080314
 20
-138.5877508876621
 10
111.6241943080314
 20
-138.1752007033034
 10
111.6241943080314
 20
-138.1752007033034
 10
111.6241943080314
 20
-138.1752007033034
 10
111.5711398375586
 20
-138.1752007033034
 10
111.5711398375586
 20
-138.1752007033034
 10
111.5711398375586
 20
-138.1752007033034
 10
111.4929361700434
 20
-138.1752007033034
 10
111.4929361700434
 20
-138.1752007033034
 10
111.425067788984
 20
-138.1752007033034
 10
111.4167995598194
 20
-138.1752007033034
 10
111.3806260572243
 20
-138.1815741299511
 10
111.3806260572243
 20
-138.1815741299511
 10
111.3806260572243
 20
-137.9869262350345
 10
111.3806260572243
 20
-137.9869262350345
 10
111.4081868211063
 20
-137.9932996616822
 10
111.4167995598194
 20
-137.9932996616822
 10
111.4863904886215
 20
-137.9932996616822
 10
111.4863904886215
 20
-137.9932996616822
 10
111.6197156839006
 20
-137.9932996616822
 10
111.6197156839006
 20
-137.9932996616822
 10
111.6197156839006
 20
-137.9235364781059
 10
111.6197156839006
 20
-137.8410264412342
 10
111.6176486266095
 20
-137.8367200718776
 10
111.6093803974449
 20
-137.6568860875476
 10
111.6093803974449
 20
-137.6379380623787
 10
111.6069688306052
 20
-137.5914292733278
 10
111.6069688306052
 20
-137.5914292733278
 10
111.8229763175303
 20
-137.5998697572667
 10
111.8229763175303
 20
-137.5998697572667
 10
111.8336561135346
 20
-137.5998697572667
 10
111.8546711959947
 20
-137.6019368145578
 10
111.8546711959947
 20
-137.6188177824355
 10
111.8546711959947
 20
-137.6379380623787
 10
111.8398572854081
 20
-137.6484456036087
 10
111.8143635788172
 20
-137.6675658835518
 10
111.8143635788172
 20
-137.718208787185
 10
111.8081624069438
 20
-137.9467908726313
 10
111.8102294642349
 20
-137.9932996616822
 10
111.9394205449318
 20
-137.9932996616822
 10
111.9518228886787
 20
-137.9932996616822
 10
112.0493190909113
 20
-137.9848591777433
 10
112.0493190909113
 20
-137.9848591777433
 10
112.0493190909113
 20
-138.17950707266
 10
112.0493190909113
 20
-138.17950707266
 10
112.011078531025
 20
-138.1772677605946
 10
111.9435546595141
 20
-138.1731336460122
 10
111.8081624069438
 20
-138.1752007033034
 10
111.8081624069438
 20
-138.1752007033034
 10
111.8081624069438
 20
-138.5136813347292
 10
111.8081624069438
 20
-138.5136813347292
 10
111.8632839347078
 20
-138.4904269402037
 10
111.9287407489275
 20
-138.4628661763218
 10
111.9773165952695
 20
-138.4396117817963
 10
111.9773165952695
 20
-138.4396117817963
 10
111.9773165952695
 20
-138.2620171095317
 10
111.9773165952695
 20
-138.2620171095317
 10
112.0916937653798
 20
-138.2745917080529
 10
112.2102050500724
 20
-138.2745917080529
 10
112.3263047679254
 20
-138.2745917080529
 10
112.3032226281742
 20
-138.17950707266
 10
112.2756618642922
 20
-138.0969970357882
 10
112.2122721073636
 20
-137.9636718405091
 10
112.1678303756039
 20
-137.9657388978002
 10
112.0851480839579
 20
-137.9700452671568
 10
112.0472520336201
 20
-137.9721123244479
 10
112.0472520336201
 20
-137.9721123244479
 10
112.0472520336201
 20
-137.7922783401179
 10
112.0472520336201
 20
-137.7922783401179
 10
112.1719644901862
 20
-137.8007188240567
 10
112.3455973026427
 20
-137.8050251934133
 10
112.4279350847402
 20
-137.8050251934133
 10
112.4279350847402
 20
-137.8050251934133
 10
112.5106173763862
 20
-137.8050251934133
 10
112.5106173763862
 20
-137.8050251934133
 10
112.5106173763862
 20
-137.642072176961
 10
112.5106173763862
 20
-137.631564635731
 10
112.5082058095465
 20
-137.5766153627413
 10
112.5082058095465
 20
-137.5766153627413
 10
112.7324815256363
 20
-137.6019368145578
 10
112.7324815256363
 20
-137.6019368145578
 10
112.7369601497671
 20
-137.6019368145578
 10
112.7579752322272
 20
-137.604003871849
 10
112.7579752322272
 20
-137.6208848397267
 10
112.7579752322272
 20
-137.6356987503133
 10
112.7472954362229
 20
-137.6443114890264
 10
112.7197346723409
 20
-137.659125399613
 10
112.7135335004674
 20
-137.7245822138327
 10
112.7114664431763
 20
-137.745769551067
 10
112.7114664431763
 20
-137.8050251934133
 10
112.7114664431763
 20
-137.8050251934133
 10
112.8065510785692
 20
-137.8050251934133
 10
112.8065510785692
 20
-137.8050251934133
 10
112.8892333702152
 20
-137.8050251934133
 10
113.0625216731232
 20
-137.8007188240567
 10
113.1875786392378
 20
-137.7922783401179
 10
113.1875786392378
 20
-137.7922783401179
 10
113.1875786392378
 20
-137.9721123244479
 10
113.1875786392378
 20
-137.9721123244479
 10
113.1579508180647
 20
-137.9700452671568
 10
113.0394395333721
 20
-137.9657388978002
 10
112.9991319161947
 20
-137.9636718405091
 10
112.9843180056081
 20
-138.0144869989165
 10
112.9505560698526
 20
-138.1266248569614
 10
112.8847547460843
 20
-138.266151224114
 10
112.9271294205529
 20
-138.266151224114
 10
113.2044596071155
 20
-138.2472031989451
 10
113.265782306753
 20
-138.2449638868797
 10
113.265782306753
 20
-138.2449638868797
 10
113.265782306753
 20
-138.4291042405663
 10
113.265782306753
 20
-138.4291042405663
 10
113.2361544855798
 20
-138.4291042405663
 10
113.2192735177021
 20
-138.4247978712098
 10
113.0563205012498
 20
-138.4247978712098
 97
        0
 97
        1
330
8D
 75
     2
 76
     1
 98
        1
 10
0.0
 20
0.0
450
        0
451
        0
460
0.0
461
0.0
452
        0
462
0.0
453
        0
470

  0
SPLINE
  5
8F
330
87
100
AcDbEntity
  8
レイヤー 1
100
AcDbSpline
210
0.0
220
0.0
230
1.0
 70
    11
 71
     3
 72
    17
 73
    13
 74
     0
 42
0.0000000001
 43
0.0000000001
 40
0.0
 40
0.0
 40
0.0
 40
0.0
 40
1.0
 40
1.0
 40
1.0
 40
2.0
 40
2.0
 40
2.0
 40
3.0
 40
3.0
 40
3.0
 40
4.0
 40
4.0
 40
4.0
 40
4.0
 10
114.9128824582509
 20
-139.2245767881105
 30
0.0
 10
114.9128824582509
 20
-139.2245767881105
 30
0.0
 10
114.2062933742262
 20
-139.2245767881105
 30
0.0
 10
114.2062933742262
 20
-139.2245767881105
 30
0.0
 10
114.2062933742262
 20
-139.2245767881105
 30
0.0
 10
114.2062933742262
 20
-139.3387817034465
 30
0.0
 10
114.2062933742262
 20
-139.3387817034465
 30
0.0
 10
114.2062933742262
 20
-139.3387817034465
 30
0.0
 10
114.9128824582509
 20
-139.3387817034465
 30
0.0
 10
114.9128824582509
 20
-139.3387817034465
 30
0.0
 10
114.9128824582509
 20
-139.3387817034465
 30
0.0
 10
114.9128824582509
 20
-139.2245767881105
 30
0.0
 10
114.9128824582509
 20
-139.2245767881105
 30
0.0
  0
SPLINE
  5
90
330
87
100
AcDbEntity
  8
レイヤー 1
100
AcDbSpline
210
0.0
220
0.0
230
1.0
 70
    11
 71
     3
 72
    17
 73
    13
 74
     0
 42
0.0000000001
 43
0.0000000001
 40
0.0
 40
0.0
 40
0.0
 40
0.0
 40
1.0
 40
1.0
 40
1.0
 40
2.0
 40
2.0
 40
2.0
 40
3.0
 40
3.0
 40
3.0
 40
4.0
 40
4.0
 40
4.0
 40
4.0
 10
114.9128824582509
 20
-138.9811807920776
 30
0.0
 10
114.9128824582509
 20
-138.9811807920776
 30
0.0
 10
114.2062933742262
 20
-138.9811807920776
 30
0.0
 10
114.2062933742262
 20
-138.9811807920776
 30
0.0
 10
114.2062933742262
 20
-138.9811807920776
 30
0.0
 10
114.2062933742262
 20
-139.0955579621879
 30
0.0
 10
114.2062933742262
 20
-139.0955579621879
 30
0.0
 10
114.2062933742262
 20
-139.0955579621879
 30
0.0
 10
114.9128824582509
 20
-139.0955579621879
 30
0.0
 10
114.9128824582509
 20
-139.0955579621879
 30
0.0
 10
114.9128824582509
 20
-139.0955579621879
 30
0.0
 10
114.9128824582509
 20
-138.9811807920776
 30
0.0
 10
114.9128824582509
 20
-138.9811807920776
 30
0.0
  0
SPLINE
  5
91
330
87
100
AcDbEntity
  8
レイヤー 1
100
AcDbSpline
210
0.0
220
0.0
230
1.0
 70
    11
 71
     3
 72
    17
 73
    13
 74
     0
 42
0.0000000001
 43
0.0000000001
 40
0.0
 40
0.0
 40
0.0
 40
0.0
 40
1.0
 40
1.0
 40
1.0
 40
2.0
 40
2.0
 40
2.0
 40
3.0
 40
3.0
 40
3.0
 40
4.0
 40
4.0
 40
4.0
 40
4.0
 10
114.9128824582509
 20
-138.748464592049
 30
0.0
 10
114.9128824582509
 20
-138.748464592049
 30
0.0
 10
114.2062933742262
 20
-138.748464592049
 30
0.0
 10
114.2062933742262
 20
-138.748464592049
 30
0.0
 10
114.2062933742262
 20
-138.748464592049
 30
0.0
 10
114.2062933742262
 20
-138.8564683355115
 30
0.0
 10
114.2062933742262
 20
-138.8564683355115
 30
0.0
 10
114.2062933742262
 20
-138.8564683355115
 30
0.0
 10
114.9128824582509
 20
-138.8564683355115
 30
0.0
 10
114.9128824582509
 20
-138.8564683355115
 30
0.0
 10
114.9128824582509
 20
-138.8564683355115
 30
0.0
 10
114.9128824582509
 20
-138.748464592049
 30
0.0
 10
114.9128824582509
 20
-138.748464592049
 30
0.0
  0
SPLINE
  5
92
330
87
100
AcDbEntity
  8
レイヤー 1
100
AcDbSpline
210
0.0
220
0.0
230
1.0
 70
     9
 71
     3
 72
   203
 73
   199
 74
     0
 42
0.0000000001
 43
0.0000000001
 40
0.0
 40
0.0
 40
0.0
 40
0.0
 40
1.0
 40
1.0
 40
1.0
 40
2.0
 40
2.0
 40
2.0
 40
3.0
 40
3.0
 40
3.0
 40
4.0
 40
4.0
 40
4.0
 40
5.0
 40
5.0
 40
5.0
 40
6.0
 40
6.0
 40
6.0
 40
7.0
 40
7.0
 40
7.0
 40
8.0
 40
8.0
 40
8.0
 40
9.0
 40
9.0
 40
9.0
 40
10.0
 40
10.0
 40
10.0
 40
11.0
 40
11.0
 40
11.0
 40
12.0
 40
12.0
 40
12.0
 40
13.0
 40
13.0
 40
13.0
 40
14.0
 40
14.0
 40
14.0
 40
15.0
 40
15.0
 40
15.0
 40
16.0
 40
16.0
 40
16.0
 40
17.0
 40
17.0
 40
17.0
 40
18.0
 40
18.0
 40
18.0
 40
19.0
 40
19.0
 40
19.0
 40
20.0
 40
20.0
 40
20.0
 40
21.0
 40
21.0
 40
21.0
 40
22.0
 40
22.0
 40
22.0
 40
23.0
 40
23.0
 40
23.0
 40
24.0
 40
24.0
 40
24.0
 40
25.0
 40
25.0
 40
25.0
 40
26.0
 40
26.0
 40
26.0
 40
27.0
 40
27.0
 40
27.0
 40
28.0
 40
28.0
 40
28.0
 40
29.0
 40
29.0
 40
29.0
 40
30.0
 40
30.0
 40
30.0
 40
31.0
 40
31.0
 40
31.0
 40
32.0
 40
32.0
 40
32.0
 40
33.0
 40
33.0
 40
33.0
 40
34.0
 40
34.0
 40
34.0
 40
35.0
 40
35.0
 40
35.0
 40
36.0
 40
36.0
 40
36.0
 40
37.0
 40
37.0
 40
37.0
 40
38.0
 40
38.0
 40
38.0
 40
39.0
 40
39.0
 40
39.0
 40
40.0
 40
40.0
 40
40.0
 40
41.0
 40
41.0
 40
41.0
 40
42.0
 40
42.0
 40
42.0
 40
43.0
 40
43.0
 40
43.0
 40
44.0
 40
44.0
 40
44.0
 40
45.0
 40
45.0
 40
45.0
 40
46.0
 40
46.0
 40
46.0
 40
47.0
 40
47.0
 40
47.0
 40
48.0
 40
48.0
 40
48.0
 40
49.0
 40
49.0
 40
49.0
 40
50.0
 40
50.0
 40
50.0
 40
51.0
 40
51.0
 40
51.0
 40
52.0
 40
52.0
 40
52.0
 40
53.0
 40
53.0
 40
53.0
 40
54.0
 40
54.0
 40
54.0
 40
55.0
 40
55.0
 40
55.0
 40
56.0
 40
56.0
 40
56.0
 40
57.0
 40
57.0
 40
57.0
 40
58.0
 40
58.0
 40
58.0
 40
59.0
 40
59.0
 40
59.0
 40
60.0
 40
60.0
 40
60.0
 40
61.0
 40
61.0
 40
61.0
 40
62.0
 40
62.0
 40
62.0
 40
63.0
 40
63.0
 40
63.0
 40
64.0
 40
64.0
 40
64.0
 40
65.0
 40
65.0
 40
65.0
 40
66.0
 40
66.0
 40
66.0
 40
66.0
 10
114.7478623845075
 20
-138.4924939974949
 30
0.0
 10
114.7478623845075
 20
-138.4924939974949
 30
0.0
 10
114.1890678967999
 20
-138.4924939974949
 30
0.0
 10
114.1890678967999
 20
-138.4924939974949
 30
0.0
 10
114.1787326103442
 20
-138.5369357292546
 30
0.0
 10
114.1701198716311
 20
-138.568630607719
 30
0.0
 10
114.1573730183356
 20
-138.6068711676052
 30
0.0
 10
114.1828667249265
 20
-138.6068711676052
 30
0.0
 10
114.197680635513
 20
-138.6089382248963
 30
0.0
 10
114.2038818073865
 20
-138.6089382248963
 30
0.0
 10
114.2038818073865
 20
-138.6089382248963
 30
0.0
 10
114.3923285304297
 20
-138.6089382248963
 30
0.0
 10
114.3923285304297
 20
-138.6089382248963
 30
0.0
 10
114.3923285304297
 20
-138.6089382248963
 30
0.0
 10
114.7668104096763
 20
-138.6089382248963
 30
0.0
 10
114.7668104096763
 20
-138.6089382248963
 30
0.0
 10
114.8174533133095
 20
-138.6089382248963
 30
0.0
 10
115.1009846717456
 20
-138.5961913716009
 30
0.0
 10
115.1326795502099
 20
-138.5961913716009
 30
0.0
 10
115.1306124929187
 20
-138.6237521354829
 30
0.0
 10
115.1285454356276
 20
-138.6427001606518
 30
0.0
 10
115.1285454356276
 20
-138.672327981825
 30
0.0
 10
115.1264783783364
 20
-138.7040228602893
 30
0.0
 10
115.1264783783364
 20
-138.8394151128596
 30
0.0
 10
115.1264783783364
 20
-138.8669758767416
 30
0.0
 10
115.1264783783364
 20
-138.8669758767416
 30
0.0
 10
115.1264783783364
 20
-139.1124389300656
 30
0.0
 10
115.1264783783364
 20
-139.1124389300656
 30
0.0
 10
115.1264783783364
 20
-139.1568806618253
 30
0.0
 10
115.1306124929187
 20
-139.3535956140331
 30
0.0
 10
115.134746607501
 20
-139.5058688344812
 30
0.0
 10
115.134746607501
 20
-139.5058688344812
 30
0.0
 10
114.9084038341201
 20
-139.5058688344812
 30
0.0
 10
114.9084038341201
 20
-139.5058688344812
 30
0.0
 10
114.9084038341201
 20
-139.5058688344812
 30
0.0
 10
114.9104708914113
 20
-139.4721068987257
 30
0.0
 10
114.9104708914113
 20
-139.4721068987257
 30
0.0
 10
114.9104708914113
 20
-139.4721068987257
 30
0.0
 10
114.2083604315173
 20
-139.4721068987257
 30
0.0
 10
114.2083604315173
 20
-139.4721068987257
 30
0.0
 10
114.2083604315173
 20
-139.4721068987257
 30
0.0
 10
114.2104274888085
 20
-139.5058688344812
 30
0.0
 10
114.2104274888085
 20
-139.5058688344812
 30
0.0
 10
114.2104274888085
 20
-139.5058688344812
 30
0.0
 10
113.9923529445922
 20
-139.5058688344812
 30
0.0
 10
113.9923529445922
 20
-139.5058688344812
 30
0.0
 10
113.996831568723
 20
-139.4509195614914
 30
0.0
 10
113.996831568723
 20
-139.438172708196
 30
0.0
 10
114.0030327405964
 20
-139.32396779286
 30
0.0
 10
114.0050997978876
 20
-139.296407028978
 30
0.0
 10
114.0071668551787
 20
-139.163254088473
 30
0.0
 10
114.0071668551787
 20
-139.1441338085299
 30
0.0
 10
114.0071668551787
 20
-139.1441338085299
 30
0.0
 10
114.0071668551787
 20
-138.9410454296744
 30
0.0
 10
114.0071668551787
 20
-138.9410454296744
 30
0.0
 10
113.8676404880261
 20
-139.1906425975808
 30
0.0
 10
113.6984862997004
 20
-139.3219007355688
 30
0.0
 10
113.5927218683032
 20
-139.3873575497886
 30
0.0
 10
113.5927218683032
 20
-139.3873575497886
 30
0.0
 10
113.4190890558466
 20
-139.2478311826359
 30
0.0
 10
113.4190890558466
 20
-139.2478311826359
 30
0.0
 10
113.507972519366
 20
-139.1970160242285
 30
0.0
 10
113.6519775106495
 20
-139.1101996180002
 30
0.0
 10
113.789436820511
 20
-138.9157239778578
 30
0.0
 10
113.8803873413215
 20
-138.7887722092264
 30
0.0
 10
113.9458441555413
 20
-138.6449394727172
 30
0.0
 10
113.9799506008453
 20
-138.4924939974949
 30
0.0
 10
113.7511962606247
 20
-138.4947333095603
 30
0.0
 10
113.5713622762946
 20
-138.5011067362081
 30
0.0
 10
113.4762776409018
 20
-138.5031737934992
 30
0.0
 10
113.4762776409018
 20
-138.5031737934992
 30
0.0
 10
113.4762776409018
 20
-138.3254068664603
 30
0.0
 10
113.4762776409018
 20
-138.3254068664603
 30
0.0
 10
113.6729925931095
 20
-138.331780293108
 30
0.0
 10
113.9565239515456
 20
-138.3360866624646
 30
0.0
 10
114.1067301147025
 20
-138.3360866624646
 30
0.0
 10
114.1067301147025
 20
-138.3360866624646
 30
0.0
 10
114.320326034788
 20
-138.3360866624646
 30
0.0
 10
114.320326034788
 20
-138.3360866624646
 30
0.0
 10
114.320326034788
 20
-138.3360866624646
 30
0.0
 10
114.320326034788
 20
-138.228082919002
 30
0.0
 10
114.320326034788
 20
-138.228082919002
 30
0.0
 10
114.320326034788
 20
-138.228082919002
 30
0.0
 10
114.1742539862134
 20
-138.228082919002
 30
0.0
 10
114.1742539862134
 20
-138.228082919002
 30
0.0
 10
114.0050997978876
 20
-138.228082919002
 30
0.0
 10
113.8359456095618
 20
-138.2323892883585
 30
0.0
 10
113.6688584785272
 20
-138.2387627150063
 30
0.0
 10
113.6688584785272
 20
-138.2387627150063
 30
0.0
 10
113.6688584785272
 20
-138.0673692146151
 30
0.0
 10
113.6688584785272
 20
-138.0673692146151
 30
0.0
 10
113.8231987562664
 20
-138.0778767558451
 30
0.0
 10
114.0092339124699
 20
-138.0778767558451
 30
0.0
 10
114.1742539862134
 20
-138.0778767558451
 30
0.0
 10
114.1742539862134
 20
-138.0778767558451
 30
0.0
 10
114.320326034788
 20
-138.0778767558451
 30
0.0
 10
114.320326034788
 20
-138.0778767558451
 30
0.0
 10
114.320326034788
 20
-138.0778767558451
 30
0.0
 10
114.320326034788
 20
-137.9595377259268
 30
0.0
 10
114.320326034788
 20
-137.9595377259268
 30
0.0
 10
114.320326034788
 20
-137.9595377259268
 30
0.0
 10
114.1890678967999
 20
-137.9595377259268
 30
0.0
 10
114.1890678967999
 20
-137.9595377259268
 30
0.0
 10
114.1425591077491
 20
-137.9595377259268
 30
0.0
 10
113.9396429836678
 20
-137.9679782098656
 30
0.0
 10
113.8972683091993
 20
-137.9679782098656
 30
0.0
 10
113.694352185118
 20
-137.9721123244479
 30
0.0
 10
113.6178710653455
 20
-137.9741793817391
 30
0.0
 10
113.5396673978303
 20
-137.9764186938045
 30
0.0
 10
113.5396673978303
 20
-137.9764186938045
 30
0.0
 10
113.5396673978303
 20
-137.7922783401179
 30
0.0
 10
113.5396673978303
 20
-137.7922783401179
 30
0.0
 10
113.6540445679406
 20
-137.8007188240567
 30
0.0
 10
113.6984862997004
 20
-137.8007188240567
 30
0.0
 10
114.0812364081116
 20
-137.8093315627699
 30
0.0
 10
114.017846651183
 20
-137.7140746726027
 30
0.0
 10
113.990285887301
 20
-137.6865139087207
 30
0.0
 10
113.9544568942544
 20
-137.6505126608999
 30
0.0
 10
113.9544568942544
 20
-137.6505126608999
 30
0.0
 10
114.1298122544536
 20
-137.5680026240281
 30
0.0
 10
114.1298122544536
 20
-137.5680026240281
 30
0.0
 10
114.1701198716311
 20
-137.604003871849
 30
0.0
 10
114.2145616033908
 20
-137.6463785463176
 30
0.0
 10
114.2886311563237
 20
-137.756277092297
 30
0.0
 10
114.2886311563237
 20
-137.756277092297
 30
0.0
 10
114.1742539862134
 20
-137.811398620061
 30
0.0
 10
114.1742539862134
 20
-137.811398620061
 30
0.0
 10
114.1742539862134
 20
-137.811398620061
 30
0.0
 10
114.1849337822176
 20
-137.811398620061
 30
0.0
 10
114.1849337822176
 20
-137.811398620061
 30
0.0
 10
114.1849337822176
 20
-137.811398620061
 30
0.0
 10
114.70755476733
 20
-137.811398620061
 30
0.0
 10
114.70755476733
 20
-137.811398620061
 30
0.0
 10
114.70755476733
 20
-137.811398620061
 30
0.0
 10
114.6124701319372
 20
-137.7669568883013
 30
0.0
 10
114.6124701319372
 20
-137.7669568883013
 30
0.0
 10
114.6396863862706
 20
-137.7288885831893
 30
0.0
 10
114.6968749713258
 20
-137.6484456036087
 30
0.0
 10
114.7116888819123
 20
-137.5743760506758
 30
0.0
 10
114.7116888819123
 20
-137.5743760506758
 30
0.0
 10
114.9252848019978
 20
-137.6379380623787
 30
0.0
 10
114.9252848019978
 20
-137.6379380623787
 30
0.0
 10
114.9338975407109
 20
-137.6400051196698
 30
0.0
 10
114.954912623171
 20
-137.6505126608999
 30
0.0
 10
114.954912623171
 20
-137.6716999981341
 30
0.0
 10
114.954912623171
 20
-137.7097683032461
 30
0.0
 10
114.8894558089512
 20
-137.7097683032461
 30
0.0
 10
114.8705077837824
 20
-137.7097683032461
 30
0.0
 10
114.8598279877781
 20
-137.7288885831893
 30
0.0
 10
114.8364013384784
 20
-137.7690239455924
 30
0.0
 10
114.8067735173052
 20
-137.8093315627699
 30
0.0
 10
115.2067491031427
 20
-137.8029581361222
 30
0.0
 10
115.2363769243159
 20
-137.8007188240567
 30
0.0
 10
115.3125135345399
 20
-137.7945176521833
 30
0.0
 10
115.3125135345399
 20
-137.7945176521833
 30
0.0
 10
115.3125135345399
 20
-137.9764186938045
 30
0.0
 10
115.3125135345399
 20
-137.9764186938045
 30
0.0
 10
115.293565509371
 20
-137.9764186938045
 30
0.0
 10
115.2680718027802
 20
-137.9741793817391
 30
0.0
 10
115.0482747108213
 20
-137.9657388978002
 30
0.0
 10
114.9972872976396
 20
-137.9636718405091
 30
0.0
 10
114.7774902056806
 20
-137.9595377259268
 30
0.0
 10
114.7330484739209
 20
-137.9595377259268
 30
0.0
 10
114.7330484739209
 20
-137.9595377259268
 30
0.0
 10
114.5170409869957
 20
-137.9595377259268
 30
0.0
 10
114.5170409869957
 20
-137.9595377259268
 30
0.0
 10
114.5170409869957
 20
-137.9595377259268
 30
0.0
 10
114.5170409869957
 20
-138.0778767558451
 30
0.0
 10
114.5170409869957
 20
-138.0778767558451
 30
0.0
 10
114.5170409869957
 20
-138.0778767558451
 30
0.0
 10
114.6906737994523
 20
-138.0778767558451
 30
0.0
 10
114.6906737994523
 20
-138.0778767558451
 30
0.0
 10
114.8536268159046
 20
-138.0778767558451
 30
0.0
 10
115.0437960866904
 20
-138.0778767558451
 30
0.0
 10
115.2005479312693
 20
-138.0673692146151
 30
0.0
 10
115.2005479312693
 20
-138.0673692146151
 30
0.0
 10
115.2005479312693
 20
-138.2387627150063
 30
0.0
 10
115.2005479312693
 20
-138.2387627150063
 30
0.0
 10
114.9910861257661
 20
-138.2303222310674
 30
0.0
 10
114.7943711735583
 20
-138.228082919002
 30
0.0
 10
114.6906737994523
 20
-138.228082919002
 30
0.0
 10
114.6906737994523
 20
-138.228082919002
 30
0.0
 10
114.5170409869957
 20
-138.228082919002
 30
0.0
 10
114.5170409869957
 20
-138.228082919002
 30
0.0
 10
114.5170409869957
 20
-138.228082919002
 30
0.0
 10
114.5170409869957
 20
-138.3360866624646
 30
0.0
 10
114.5170409869957
 20
-138.3360866624646
 30
0.0
 10
114.5170409869957
 20
-138.3360866624646
 30
0.0
 10
114.7478623845075
 20
-138.3360866624646
 30
0.0
 10
114.7478623845075
 20
-138.3360866624646
 30
0.0
 10
114.8808430702381
 20
-138.3360866624646
 30
0.0
 10
115.168853052805
 20
-138.331780293108
 30
0.0
 10
115.3779703487596
 20
-138.3254068664603
 30
0.0
 10
115.3779703487596
 20
-138.3254068664603
 30
0.0
 10
115.3779703487596
 20
-138.5031737934992
 30
0.0
 10
115.3779703487596
 20
-138.5031737934992
 30
0.0
 10
115.1857340206827
 20
-138.4968003668515
 30
0.0
 10
114.8725748410735
 20
-138.4924939974949
 30
0.0
 10
114.7478623845075
 20
-138.4924939974949
 30
0.0
  0
HATCH
  5
93
330
87
100
AcDbEntity
  8
レイヤー 1
 62
   250
420
  2299925
440
 33554687
100
AcDbHatch
 10
0.0
 20
0.0
 30
0.0
210
0.0
220
0.0
230
1.0
  2
SOLID
 70
     1
 71
     1
 91
        4
 92
        1
 93
        1
 72
     4
 94
        3
 73
     0
 74
     0
 95
       17
 96
       13
 40
0.0
 40
0.0
 40
0.0
 40
0.0
 40
1.0
 40
1.0
 40
1.0
 40
2.0
 40
2.0
 40
2.0
 40
3.0
 40
3.0
 40
3.0
 40
4.0
 40
4.0
 40
4.0
 40
4.0
 10
114.9128824582509
 20
-139.2245767881105
 10
114.9128824582509
 20
-139.2245767881105
 10
114.2062933742262
 20
-139.2245767881105
 10
114.2062933742262
 20
-139.2245767881105
 10
114.2062933742262
 20
-139.2245767881105
 10
114.2062933742262
 20
-139.3387817034465
 10
114.2062933742262
 20
-139.3387817034465
 10
114.2062933742262
 20
-139.3387817034465
 10
114.9128824582509
 20
-139.3387817034465
 10
114.9128824582509
 20
-139.3387817034465
 10
114.9128824582509
 20
-139.3387817034465
 10
114.9128824582509
 20
-139.2245767881105
 10
114.9128824582509
 20
-139.2245767881105
 97
        0
 97
        1
330
8F
 92
        1
 93
        1
 72
     4
 94
        3
 73
     0
 74
     0
 95
       17
 96
       13
 40
0.0
 40
0.0
 40
0.0
 40
0.0
 40
1.0
 40
1.0
 40
1.0
 40
2.0
 40
2.0
 40
2.0
 40
3.0
 40
3.0
 40
3.0
 40
4.0
 40
4.0
 40
4.0
 40
4.0
 10
114.9128824582509
 20
-138.9811807920776
 10
114.9128824582509
 20
-138.9811807920776
 10
114.2062933742262
 20
-138.9811807920776
 10
114.2062933742262
 20
-138.9811807920776
 10
114.2062933742262
 20
-138.9811807920776
 10
114.2062933742262
 20
-139.0955579621879
 10
114.2062933742262
 20
-139.0955579621879
 10
114.2062933742262
 20
-139.0955579621879
 10
114.9128824582509
 20
-139.0955579621879
 10
114.9128824582509
 20
-139.0955579621879
 10
114.9128824582509
 20
-139.0955579621879
 10
114.9128824582509
 20
-138.9811807920776
 10
114.9128824582509
 20
-138.9811807920776
 97
        0
 97
        1
330
90
 92
        1
 93
        1
 72
     4
 94
        3
 73
     0
 74
     0
 95
       17
 96
       13
 40
0.0
 40
0.0
 40
0.0
 40
0.0
 40
1.0
 40
1.0
 40
1.0
 40
2.0
 40
2.0
 40
2.0
 40
3.0
 40
3.0
 40
3.0
 40
4.0
 40
4.0
 40
4.0
 40
4.0
 10
114.9128824582509
 20
-138.748464592049
 10
114.9128824582509
 20
-138.748464592049
 10
114.2062933742262
 20
-138.748464592049
 10
114.2062933742262
 20
-138.748464592049
 10
114.2062933742262
 20
-138.748464592049
 10
114.2062933742262
 20
-138.8564683355115
 10
114.2062933742262
 20
-138.8564683355115
 10
114.2062933742262
 20
-138.8564683355115
 10
114.9128824582509
 20
-138.8564683355115
 10
114.9128824582509
 20
-138.8564683355115
 10
114.9128824582509
 20
-138.8564683355115
 10
114.9128824582509
 20
-138.748464592049
 10
114.9128824582509
 20
-138.748464592049
 97
        0
 97
        1
330
91
 92
        1
 93
        1
 72
     4
 94
        3
 73
     0
 74
     0
 95
      203
 96
      199
 40
0.0
 40
0.0
 40
0.0
 40
0.0
 40
1.0
 40
1.0
 40
1.0
 40
2.0
 40
2.0
 40
2.0
 40
3.0
 40
3.0
 40
3.0
 40
4.0
 40
4.0
 40
4.0
 40
5.0
 40
5.0
 40
5.0
 40
6.0
 40
6.0
 40
6.0
 40
7.0
 40
7.0
 40
7.0
 40
8.0
 40
8.0
 40
8.0
 40
9.0
 40
9.0
 40
9.0
 40
10.0
 40
10.0
 40
10.0
 40
11.0
 40
11.0
 40
11.0
 40
12.0
 40
12.0
 40
12.0
 40
13.0
 40
13.0
 40
13.0
 40
14.0
 40
14.0
 40
14.0
 40
15.0
 40
15.0
 40
15.0
 40
16.0
 40
16.0
 40
16.0
 40
17.0
 40
17.0
 40
17.0
 40
18.0
 40
18.0
 40
18.0
 40
19.0
 40
19.0
 40
19.0
 40
20.0
 40
20.0
 40
20.0
 40
21.0
 40
21.0
 40
21.0
 40
22.0
 40
22.0
 40
22.0
 40
23.0
 40
23.0
 40
23.0
 40
24.0
 40
24.0
 40
24.0
 40
25.0
 40
25.0
 40
25.0
 40
26.0
 40
26.0
 40
26.0
 40
27.0
 40
27.0
 40
27.0
 40
28.0
 40
28.0
 40
28.0
 40
29.0
 40
29.0
 40
29.0
 40
30.0
 40
30.0
 40
30.0
 40
31.0
 40
31.0
 40
31.0
 40
32.0
 40
32.0
 40
32.0
 40
33.0
 40
33.0
 40
33.0
 40
34.0
 40
34.0
 40
34.0
 40
35.0
 40
35.0
 40
35.0
 40
36.0
 40
36.0
 40
36.0
 40
37.0
 40
37.0
 40
37.0
 40
38.0
 40
38.0
 40
38.0
 40
39.0
 40
39.0
 40
39.0
 40
40.0
 40
40.0
 40
40.0
 40
41.0
 40
41.0
 40
41.0
 40
42.0
 40
42.0
 40
42.0
 40
43.0
 40
43.0
 40
43.0
 40
44.0
 40
44.0
 40
44.0
 40
45.0
 40
45.0
 40
45.0
 40
46.0
 40
46.0
 40
46.0
 40
47.0
 40
47.0
 40
47.0
 40
48.0
 40
48.0
 40
48.0
 40
49.0
 40
49.0
 40
49.0
 40
50.0
 40
50.0
 40
50.0
 40
51.0
 40
51.0
 40
51.0
 40
52.0
 40
52.0
 40
52.0
 40
53.0
 40
53.0
 40
53.0
 40
54.0
 40
54.0
 40
54.0
 40
55.0
 40
55.0
 40
55.0
 40
56.0
 40
56.0
 40
56.0
 40
57.0
 40
57.0
 40
57.0
 40
58.0
 40
58.0
 40
58.0
 40
59.0
 40
59.0
 40
59.0
 40
60.0
 40
60.0
 40
60.0
 40
61.0
 40
61.0
 40
61.0
 40
62.0
 40
62.0
 40
62.0
 40
63.0
 40
63.0
 40
63.0
 40
64.0
 40
64.0
 40
64.0
 40
65.0
 40
65.0
 40
65.0
 40
66.0
 40
66.0
 40
66.0
 40
66.0
 10
114.7478623845075
 20
-138.4924939974949
 10
114.7478623845075
 20
-138.4924939974949
 10
114.1890678967999
 20
-138.4924939974949
 10
114.1890678967999
 20
-138.4924939974949
 10
114.1787326103442
 20
-138.5369357292546
 10
114.1701198716311
 20
-138.568630607719
 10
114.1573730183356
 20
-138.6068711676052
 10
114.1828667249265
 20
-138.6068711676052
 10
114.197680635513
 20
-138.6089382248963
 10
114.2038818073865
 20
-138.6089382248963
 10
114.2038818073865
 20
-138.6089382248963
 10
114.3923285304297
 20
-138.6089382248963
 10
114.3923285304297
 20
-138.6089382248963
 10
114.3923285304297
 20
-138.6089382248963
 10
114.7668104096763
 20
-138.6089382248963
 10
114.7668104096763
 20
-138.6089382248963
 10
114.8174533133095
 20
-138.6089382248963
 10
115.1009846717456
 20
-138.5961913716009
 10
115.1326795502099
 20
-138.5961913716009
 10
115.1306124929187
 20
-138.6237521354829
 10
115.1285454356276
 20
-138.6427001606518
 10
115.1285454356276
 20
-138.672327981825
 10
115.1264783783364
 20
-138.7040228602893
 10
115.1264783783364
 20
-138.8394151128596
 10
115.1264783783364
 20
-138.8669758767416
 10
115.1264783783364
 20
-138.8669758767416
 10
115.1264783783364
 20
-139.1124389300656
 10
115.1264783783364
 20
-139.1124389300656
 10
115.1264783783364
 20
-139.1568806618253
 10
115.1306124929187
 20
-139.3535956140331
 10
115.134746607501
 20
-139.5058688344812
 10
115.134746607501
 20
-139.5058688344812
 10
114.9084038341201
 20
-139.5058688344812
 10
114.9084038341201
 20
-139.5058688344812
 10
114.9084038341201
 20
-139.5058688344812
 10
114.9104708914113
 20
-139.4721068987257
 10
114.9104708914113
 20
-139.4721068987257
 10
114.9104708914113
 20
-139.4721068987257
 10
114.2083604315173
 20
-139.4721068987257
 10
114.2083604315173
 20
-139.4721068987257
 10
114.2083604315173
 20
-139.4721068987257
 10
114.2104274888085
 20
-139.5058688344812
 10
114.2104274888085
 20
-139.5058688344812
 10
114.2104274888085
 20
-139.5058688344812
 10
113.9923529445922
 20
-139.5058688344812
 10
113.9923529445922
 20
-139.5058688344812
 10
113.996831568723
 20
-139.4509195614914
 10
113.996831568723
 20
-139.438172708196
 10
114.0030327405964
 20
-139.32396779286
 10
114.0050997978876
 20
-139.296407028978
 10
114.0071668551787
 20
-139.163254088473
 10
114.0071668551787
 20
-139.1441338085299
 10
114.0071668551787
 20
-139.1441338085299
 10
114.0071668551787
 20
-138.9410454296744
 10
114.0071668551787
 20
-138.9410454296744
 10
113.8676404880261
 20
-139.1906425975808
 10
113.6984862997004
 20
-139.3219007355688
 10
113.5927218683032
 20
-139.3873575497886
 10
113.5927218683032
 20
-139.3873575497886
 10
113.4190890558466
 20
-139.2478311826359
 10
113.4190890558466
 20
-139.2478311826359
 10
113.507972519366
 20
-139.1970160242285
 10
113.6519775106495
 20
-139.1101996180002
 10
113.789436820511
 20
-138.9157239778578
 10
113.8803873413215
 20
-138.7887722092264
 10
113.9458441555413
 20
-138.6449394727172
 10
113.9799506008453
 20
-138.4924939974949
 10
113.7511962606247
 20
-138.4947333095603
 10
113.5713622762946
 20
-138.5011067362081
 10
113.4762776409018
 20
-138.5031737934992
 10
113.4762776409018
 20
-138.5031737934992
 10
113.4762776409018
 20
-138.3254068664603
 10
113.4762776409018
 20
-138.3254068664603
 10
113.6729925931095
 20
-138.331780293108
 10
113.9565239515456
 20
-138.3360866624646
 10
114.1067301147025
 20
-138.3360866624646
 10
114.1067301147025
 20
-138.3360866624646
 10
114.320326034788
 20
-138.3360866624646
 10
114.320326034788
 20
-138.3360866624646
 10
114.320326034788
 20
-138.3360866624646
 10
114.320326034788
 20
-138.228082919002
 10
114.320326034788
 20
-138.228082919002
 10
114.320326034788
 20
-138.228082919002
 10
114.1742539862134
 20
-138.228082919002
 10
114.1742539862134
 20
-138.228082919002
 10
114.0050997978876
 20
-138.228082919002
 10
113.8359456095618
 20
-138.2323892883585
 10
113.6688584785272
 20
-138.2387627150063
 10
113.6688584785272
 20
-138.2387627150063
 10
113.6688584785272
 20
-138.0673692146151
 10
113.6688584785272
 20
-138.0673692146151
 10
113.8231987562664
 20
-138.0778767558451
 10
114.0092339124699
 20
-138.0778767558451
 10
114.1742539862134
 20
-138.0778767558451
 10
114.1742539862134
 20
-138.0778767558451
 10
114.320326034788
 20
-138.0778767558451
 10
114.320326034788
 20
-138.0778767558451
 10
114.320326034788
 20
-138.0778767558451
 10
114.320326034788
 20
-137.9595377259268
 10
114.320326034788
 20
-137.9595377259268
 10
114.320326034788
 20
-137.9595377259268
 10
114.1890678967999
 20
-137.9595377259268
 10
114.1890678967999
 20
-137.9595377259268
 10
114.1425591077491
 20
-137.9595377259268
 10
113.9396429836678
 20
-137.9679782098656
 10
113.8972683091993
 20
-137.9679782098656
 10
113.694352185118
 20
-137.9721123244479
 10
113.6178710653455
 20
-137.9741793817391
 10
113.5396673978303
 20
-137.9764186938045
 10
113.5396673978303
 20
-137.9764186938045
 10
113.5396673978303
 20
-137.7922783401179
 10
113.5396673978303
 20
-137.7922783401179
 10
113.6540445679406
 20
-137.8007188240567
 10
113.6984862997004
 20
-137.8007188240567
 10
114.0812364081116
 20
-137.8093315627699
 10
114.017846651183
 20
-137.7140746726027
 10
113.990285887301
 20
-137.6865139087207
 10
113.9544568942544
 20
-137.6505126608999
 10
113.9544568942544
 20
-137.6505126608999
 10
114.1298122544536
 20
-137.5680026240281
 10
114.1298122544536
 20
-137.5680026240281
 10
114.1701198716311
 20
-137.604003871849
 10
114.2145616033908
 20
-137.6463785463176
 10
114.2886311563237
 20
-137.756277092297
 10
114.2886311563237
 20
-137.756277092297
 10
114.1742539862134
 20
-137.811398620061
 10
114.1742539862134
 20
-137.811398620061
 10
114.1742539862134
 20
-137.811398620061
 10
114.1849337822176
 20
-137.811398620061
 10
114.1849337822176
 20
-137.811398620061
 10
114.1849337822176
 20
-137.811398620061
 10
114.70755476733
 20
-137.811398620061
 10
114.70755476733
 20
-137.811398620061
 10
114.70755476733
 20
-137.811398620061
 10
114.6124701319372
 20
-137.7669568883013
 10
114.6124701319372
 20
-137.7669568883013
 10
114.6396863862706
 20
-137.7288885831893
 10
114.6968749713258
 20
-137.6484456036087
 10
114.7116888819123
 20
-137.5743760506758
 10
114.7116888819123
 20
-137.5743760506758
 10
114.9252848019978
 20
-137.6379380623787
 10
114.9252848019978
 20
-137.6379380623787
 10
114.9338975407109
 20
-137.6400051196698
 10
114.954912623171
 20
-137.6505126608999
 10
114.954912623171
 20
-137.6716999981341
 10
114.954912623171
 20
-137.7097683032461
 10
114.8894558089512
 20
-137.7097683032461
 10
114.8705077837824
 20
-137.7097683032461
 10
114.8598279877781
 20
-137.7288885831893
 10
114.8364013384784
 20
-137.7690239455924
 10
114.8067735173052
 20
-137.8093315627699
 10
115.2067491031427
 20
-137.8029581361222
 10
115.2363769243159
 20
-137.8007188240567
 10
115.3125135345399
 20
-137.7945176521833
 10
115.3125135345399
 20
-137.7945176521833
 10
115.3125135345399
 20
-137.9764186938045
 10
115.3125135345399
 20
-137.9764186938045
 10
115.293565509371
 20
-137.9764186938045
 10
115.2680718027802
 20
-137.9741793817391
 10
115.0482747108213
 20
-137.9657388978002
 10
114.9972872976396
 20
-137.9636718405091
 10
114.7774902056806
 20
-137.9595377259268
 10
114.7330484739209
 20
-137.9595377259268
 10
114.7330484739209
 20
-137.9595377259268
 10
114.5170409869957
 20
-137.9595377259268
 10
114.5170409869957
 20
-137.9595377259268
 10
114.5170409869957
 20
-137.9595377259268
 10
114.5170409869957
 20
-138.0778767558451
 10
114.5170409869957
 20
-138.0778767558451
 10
114.5170409869957
 20
-138.0778767558451
 10
114.6906737994523
 20
-138.0778767558451
 10
114.6906737994523
 20
-138.0778767558451
 10
114.8536268159046
 20
-138.0778767558451
 10
115.0437960866904
 20
-138.0778767558451
 10
115.2005479312693
 20
-138.0673692146151
 10
115.2005479312693
 20
-138.0673692146151
 10
115.2005479312693
 20
-138.2387627150063
 10
115.2005479312693
 20
-138.2387627150063
 10
114.9910861257661
 20
-138.2303222310674
 10
114.7943711735583
 20
-138.228082919002
 10
114.6906737994523
 20
-138.228082919002
 10
114.6906737994523
 20
-138.228082919002
 10
114.5170409869957
 20
-138.228082919002
 10
114.5170409869957
 20
-138.228082919002
 10
114.5170409869957
 20
-138.228082919002
 10
114.5170409869957
 20
-138.3360866624646
 10
114.5170409869957
 20
-138.3360866624646
 10
114.5170409869957
 20
-138.3360866624646
 10
114.7478623845075
 20
-138.3360866624646
 10
114.7478623845075
 20
-138.3360866624646
 10
114.8808430702381
 20
-138.3360866624646
 10
115.168853052805
 20
-138.331780293108
 10
115.3779703487596
 20
-138.3254068664603
 10
115.3779703487596
 20
-138.3254068664603
 10
115.3779703487596
 20
-138.5031737934992
 10
115.3779703487596
 20
-138.5031737934992
 10
115.1857340206827
 20
-138.4968003668515
 10
114.8725748410735
 20
-138.4924939974949
 10
114.7478623845075
 20
-138.4924939974949
 97
        0
 97
        1
330
92
 75
     2
 76
     1
 98
        1
 10
0.0
 20
0.0
450
        0
451
        0
460
0.0
461
0.0
452
        0
462
0.0
453
        0
470

  0
SPLINE
  5
94
330
87
100
AcDbEntity
  8
レイヤー 1
100
AcDbSpline
210
0.0
220
0.0
230
1.0
 70
     9
 71
     3
 72
    29
 73
    25
 74
     0
 42
0.0000000001
 43
0.0000000001
 40
0.0
 40
0.0
 40
0.0
 40
0.0
 40
1.0
 40
1.0
 40
1.0
 40
2.0
 40
2.0
 40
2.0
 40
3.0
 40
3.0
 40
3.0
 40
4.0
 40
4.0
 40
4.0
 40
5.0
 40
5.0
 40
5.0
 40
6.0
 40
6.0
 40
6.0
 40
7.0
 40
7.0
 40
7.0
 40
8.0
 40
8.0
 40
8.0
 40
8.0
 10
116.6230278571289
 20
-137.9404174459836
 30
0.0
 10
116.6230278571289
 20
-137.9404174459836
 30
0.0
 10
116.2695610603423
 20
-137.9404174459836
 30
0.0
 10
116.2695610603423
 20
-137.9404174459836
 30
0.0
 10
116.1575954570717
 20
-137.9404174459836
 30
0.0
 10
116.0180690899191
 20
-137.9467908726313
 30
0.0
 10
115.9102376012308
 20
-137.9595377259268
 30
0.0
 10
115.9102376012308
 20
-137.9595377259268
 30
0.0
 10
115.9102376012308
 20
-137.7245822138327
 30
0.0
 10
115.9102376012308
 20
-137.7245822138327
 30
0.0
 10
116.0284043763748
 20
-137.7393961244193
 30
0.0
 10
116.2127169848357
 20
-137.7437024937758
 30
0.0
 10
116.2695610603423
 20
-137.7437024937758
 30
0.0
 10
116.2695610603423
 20
-137.7437024937758
 30
0.0
 10
116.6230278571289
 20
-137.7437024937758
 30
0.0
 10
116.6230278571289
 20
-137.7437024937758
 30
0.0
 10
116.6419758822978
 20
-137.7437024937758
 30
0.0
 10
116.8452365159275
 20
-137.7437024937758
 30
0.0
 10
116.9868299403713
 20
-137.7245822138327
 30
0.0
 10
116.9868299403713
 20
-137.7245822138327
 30
0.0
 10
116.9868299403713
 20
-137.9595377259268
 30
0.0
 10
116.9868299403713
 20
-137.9595377259268
 30
0.0
 10
116.830422605341
 20
-137.9404174459836
 30
0.0
 10
116.6399088250067
 20
-137.9404174459836
 30
0.0
 10
116.6230278571289
 20
-137.9404174459836
 30
0.0
  0
SPLINE
  5
95
330
87
100
AcDbEntity
  8
レイヤー 1
100
AcDbSpline
210
0.0
220
0.0
230
1.0
 70
     9
 71
     3
 72
    47
 73
    43
 74
     0
 42
0.0000000001
 43
0.0000000001
 40
0.0
 40
0.0
 40
0.0
 40
0.0
 40
1.0
 40
1.0
 40
1.0
 40
2.0
 40
2.0
 40
2.0
 40
3.0
 40
3.0
 40
3.0
 40
4.0
 40
4.0
 40
4.0
 40
5.0
 40
5.0
 40
5.0
 40
6.0
 40
6.0
 40
6.0
 40
7.0
 40
7.0
 40
7.0
 40
8.0
 40
8.0
 40
8.0
 40
9.0
 40
9.0
 40
9.0
 40
10.0
 40
10.0
 40
10.0
 40
11.0
 40
11.0
 40
11.0
 40
12.0
 40
12.0
 40
12.0
 40
13.0
 40
13.0
 40
13.0
 40
14.0
 40
14.0
 40
14.0
 40
14.0
 10
116.7246581739438
 20
-138.4692396029695
 30
0.0
 10
116.7246581739438
 20
-138.4692396029695
 30
0.0
 10
116.6230278571289
 20
-138.4692396029695
 30
0.0
 10
116.6230278571289
 20
-138.4692396029695
 30
0.0
 10
116.6230278571289
 20
-138.5560560091978
 30
0.0
 10
116.6020127746689
 20
-138.945351799031
 30
0.0
 10
116.4052978224612
 20
-139.1653211457642
 30
0.0
 10
116.2526800924646
 20
-139.33447533409
 30
0.0
 10
116.0456298538011
 20
-139.4044107724405
 30
0.0
 10
115.9608805048639
 20
-139.4317992815483
 30
0.0
 10
115.9608805048639
 20
-139.4317992815483
 30
0.0
 10
115.7662326099473
 20
-139.2647121505137
 30
0.0
 10
115.7662326099473
 20
-139.2647121505137
 30
0.0
 10
115.8637288121799
 20
-139.2519652972183
 30
0.0
 10
116.0390841723791
 20
-139.2287109026928
 30
0.0
 10
116.2275308954223
 20
-139.0404364344239
 30
0.0
 10
116.3016004483551
 20
-138.9686061935564
 30
0.0
 10
116.4052978224612
 20
-138.8289075716295
 30
0.0
 10
116.4052978224612
 20
-138.4692396029695
 30
0.0
 10
116.4052978224612
 20
-138.4692396029695
 30
0.0
 10
116.1744764249494
 20
-138.4692396029695
 30
0.0
 10
116.1744764249494
 20
-138.4692396029695
 30
0.0
 10
115.9884412687459
 20
-138.4692396029695
 30
0.0
 10
115.8020616029939
 20
-138.473545972326
 30
0.0
 10
115.6160264467904
 20
-138.4883598829126
 30
0.0
 10
115.6160264467904
 20
-138.4883598829126
 30
0.0
 10
115.6160264467904
 20
-138.2683905361794
 30
0.0
 10
115.6160264467904
 20
-138.2683905361794
 30
0.0
 10
115.8044731698336
 20
-138.283204446766
 30
0.0
 10
116.0900715855608
 20
-138.2873385613483
 30
0.0
 10
116.1744764249494
 20
-138.2873385613483
 30
0.0
 10
116.1744764249494
 20
-138.2873385613483
 30
0.0
 10
116.7246581739438
 20
-138.2873385613483
 30
0.0
 10
116.7246581739438
 20
-138.2873385613483
 30
0.0
 10
116.7436061991127
 20
-138.2873385613483
 30
0.0
 10
117.0608994933042
 20
-138.2873385613483
 30
0.0
 10
117.2893093239762
 20
-138.2683905361794
 30
0.0
 10
117.2893093239762
 20
-138.2683905361794
 30
0.0
 10
117.2893093239762
 20
-138.4883598829126
 30
0.0
 10
117.2893093239762
 20
-138.4883598829126
 30
0.0
 10
117.1012071104816
 20
-138.473545972326
 30
0.0
 10
116.9127603874384
 20
-138.4692396029695
 30
0.0
 10
116.7246581739438
 20
-138.4692396029695
 30
0.0
  0
HATCH
  5
96
330
87
100
AcDbEntity
  8
レイヤー 1
 62
   250
420
  2299925
440
 33554687
100
AcDbHatch
 10
0.0
 20
0.0
 30
0.0
210
0.0
220
0.0
230
1.0
  2
SOLID
 70
     1
 71
     1
 91
        2
 92
        1
 93
        1
 72
     4
 94
        3
 73
     0
 74
     0
 95
       29
 96
       25
 40
0.0
 40
0.0
 40
0.0
 40
0.0
 40
1.0
 40
1.0
 40
1.0
 40
2.0
 40
2.0
 40
2.0
 40
3.0
 40
3.0
 40
3.0
 40
4.0
 40
4.0
 40
4.0
 40
5.0
 40
5.0
 40
5.0
 40
6.0
 40
6.0
 40
6.0
 40
7.0
 40
7.0
 40
7.0
 40
8.0
 40
8.0
 40
8.0
 40
8.0
 10
116.6230278571289
 20
-137.9404174459836
 10
116.6230278571289
 20
-137.9404174459836
 10
116.2695610603423
 20
-137.9404174459836
 10
116.2695610603423
 20
-137.9404174459836
 10
116.1575954570717
 20
-137.9404174459836
 10
116.0180690899191
 20
-137.9467908726313
 10
115.9102376012308
 20
-137.9595377259268
 10
115.9102376012308
 20
-137.9595377259268
 10
115.9102376012308
 20
-137.7245822138327
 10
115.9102376012308
 20
-137.7245822138327
 10
116.0284043763748
 20
-137.7393961244193
 10
116.2127169848357
 20
-137.7437024937758
 10
116.2695610603423
 20
-137.7437024937758
 10
116.2695610603423
 20
-137.7437024937758
 10
116.6230278571289
 20
-137.7437024937758
 10
116.6230278571289
 20
-137.7437024937758
 10
116.6419758822978
 20
-137.7437024937758
 10
116.8452365159275
 20
-137.7437024937758
 10
116.9868299403713
 20
-137.7245822138327
 10
116.9868299403713
 20
-137.7245822138327
 10
116.9868299403713
 20
-137.9595377259268
 10
116.9868299403713
 20
-137.9595377259268
 10
116.830422605341
 20
-137.9404174459836
 10
116.6399088250067
 20
-137.9404174459836
 10
116.6230278571289
 20
-137.9404174459836
 97
        0
 97
        1
330
94
 92
        1
 93
        1
 72
     4
 94
        3
 73
     0
 74
     0
 95
       47
 96
       43
 40
0.0
 40
0.0
 40
0.0
 40
0.0
 40
1.0
 40
1.0
 40
1.0
 40
2.0
 40
2.0
 40
2.0
 40
3.0
 40
3.0
 40
3.0
 40
4.0
 40
4.0
 40
4.0
 40
5.0
 40
5.0
 40
5.0
 40
6.0
 40
6.0
 40
6.0
 40
7.0
 40
7.0
 40
7.0
 40
8.0
 40
8.0
 40
8.0
 40
9.0
 40
9.0
 40
9.0
 40
10.0
 40
10.0
 40
10.0
 40
11.0
 40
11.0
 40
11.0
 40
12.0
 40
12.0
 40
12.0
 40
13.0
 40
13.0
 40
13.0
 40
14.0
 40
14.0
 40
14.0
 40
14.0
 10
116.7246581739438
 20
-138.4692396029695
 10
116.7246581739438
 20
-138.4692396029695
 10
116.6230278571289
 20
-138.4692396029695
 10
116.6230278571289
 20
-138.4692396029695
 10
116.6230278571289
 20
-138.5560560091978
 10
116.6020127746689
 20
-138.945351799031
 10
116.4052978224612
 20
-139.1653211457642
 10
116.2526800924646
 20
-139.33447533409
 10
116.0456298538011
 20
-139.4044107724405
 10
115.9608805048639
 20
-139.4317992815483
 10
115.9608805048639
 20
-139.4317992815483
 10
115.7662326099473
 20
-139.2647121505137
 10
115.7662326099473
 20
-139.2647121505137
 10
115.8637288121799
 20
-139.2519652972183
 10
116.0390841723791
 20
-139.2287109026928
 10
116.2275308954223
 20
-139.0404364344239
 10
116.3016004483551
 20
-138.9686061935564
 10
116.4052978224612
 20
-138.8289075716295
 10
116.4052978224612
 20
-138.4692396029695
 10
116.4052978224612
 20
-138.4692396029695
 10
116.1744764249494
 20
-138.4692396029695
 10
116.1744764249494
 20
-138.4692396029695
 10
115.9884412687459
 20
-138.4692396029695
 10
115.8020616029939
 20
-138.473545972326
 10
115.6160264467904
 20
-138.4883598829126
 10
115.6160264467904
 20
-138.4883598829126
 10
115.6160264467904
 20
-138.2683905361794
 10
115.6160264467904
 20
-138.2683905361794
 10
115.8044731698336
 20
-138.283204446766
 10
116.0900715855608
 20
-138.2873385613483
 10
116.1744764249494
 20
-138.2873385613483
 10
116.1744764249494
 20
-138.2873385613483
 10
116.7246581739438
 20
-138.2873385613483
 10
116.7246581739438
 20
-138.2873385613483
 10
116.7436061991127
 20
-138.2873385613483
 10
117.0608994933042
 20
-138.2873385613483
 10
117.2893093239762
 20
-138.2683905361794
 10
117.2893093239762
 20
-138.2683905361794
 10
117.2893093239762
 20
-138.4883598829126
 10
117.2893093239762
 20
-138.4883598829126
 10
117.1012071104816
 20
-138.473545972326
 10
116.9127603874384
 20
-138.4692396029695
 10
116.7246581739438
 20
-138.4692396029695
 97
        0
 97
        1
330
95
 75
     2
 76
     1
 98
        1
 10
0.0
 20
0.0
450
        0
451
        0
460
0.0
461
0.0
452
        0
462
0.0
453
        0
470

  0
SPLINE
  5
97
330
87
100
AcDbEntity
  8
レイヤー 1
100
AcDbSpline
210
0.0
220
0.0
230
1.0
 70
     9
 71
     3
 72
    29
 73
    25
 74
     0
 42
0.0000000001
 43
0.0000000001
 40
0.0
 40
0.0
 40
0.0
 40
0.0
 40
1.0
 40
1.0
 40
1.0
 40
2.0
 40
2.0
 40
2.0
 40
3.0
 40
3.0
 40
3.0
 40
4.0
 40
4.0
 40
4.0
 40
5.0
 40
5.0
 40
5.0
 40
6.0
 40
6.0
 40
6.0
 40
7.0
 40
7.0
 40
7.0
 40
8.0
 40
8.0
 40
8.0
 40
8.0
 10
118.5705403349407
 20
-138.6321926194218
 30
0.0
 10
118.5705403349407
 20
-138.6321926194218
 30
0.0
 10
118.0861599097146
 20
-138.6321926194218
 30
0.0
 10
118.0861599097146
 20
-138.6321926194218
 30
0.0
 10
118.0585991458325
 20
-138.6321926194218
 30
0.0
 10
117.741305851641
 20
-138.6321926194218
 30
0.0
 10
117.5297769888467
 20
-138.6575140712384
 30
0.0
 10
117.5297769888467
 20
-138.6575140712384
 30
0.0
 10
117.5297769888467
 20
-138.4270371832752
 30
0.0
 10
117.5297769888467
 20
-138.4270371832752
 30
0.0
 10
117.6882513811682
 20
-138.4502915778006
 30
0.0
 10
117.8787651615025
 20
-138.4523586350917
 30
0.0
 10
118.0861599097146
 20
-138.4523586350917
 30
0.0
 10
118.0861599097146
 20
-138.4523586350917
 30
0.0
 10
118.5705403349407
 20
-138.4523586350917
 30
0.0
 10
118.5705403349407
 20
-138.4523586350917
 30
0.0
 10
118.7565754911442
 20
-138.4523586350917
 30
0.0
 10
118.9429551568962
 20
-138.4502915778006
 30
0.0
 10
119.1269232558085
 20
-138.4270371832752
 30
0.0
 10
119.1269232558085
 20
-138.4270371832752
 30
0.0
 10
119.1269232558085
 20
-138.6575140712384
 30
0.0
 10
119.1269232558085
 20
-138.6575140712384
 30
0.0
 10
118.9429551568962
 20
-138.6342596767129
 30
0.0
 10
118.6952527915067
 20
-138.6321926194218
 30
0.0
 10
118.5705403349407
 20
-138.6321926194218
 30
0.0
  0
HATCH
  5
98
330
87
100
AcDbEntity
  8
レイヤー 1
 62
   250
420
  2299925
440
 33554687
100
AcDbHatch
 10
0.0
 20
0.0
 30
0.0
210
0.0
220
0.0
230
1.0
  2
SOLID
 70
     1
 71
     1
 91
        1
 92
        1
 93
        1
 72
     4
 94
        3
 73
     0
 74
     0
 95
       29
 96
       25
 40
0.0
 40
0.0
 40
0.0
 40
0.0
 40
1.0
 40
1.0
 40
1.0
 40
2.0
 40
2.0
 40
2.0
 40
3.0
 40
3.0
 40
3.0
 40
4.0
 40
4.0
 40
4.0
 40
5.0
 40
5.0
 40
5.0
 40
6.0
 40
6.0
 40
6.0
 40
7.0
 40
7.0
 40
7.0
 40
8.0
 40
8.0
 40
8.0
 40
8.0
 10
118.5705403349407
 20
-138.6321926194218
 10
118.5705403349407
 20
-138.6321926194218
 10
118.0861599097146
 20
-138.6321926194218
 10
118.0861599097146
 20
-138.6321926194218
 10
118.0585991458325
 20
-138.6321926194218
 10
117.741305851641
 20
-138.6321926194218
 10
117.5297769888467
 20
-138.6575140712384
 10
117.5297769888467
 20
-138.6575140712384
 10
117.5297769888467
 20
-138.4270371832752
 10
117.5297769888467
 20
-138.4270371832752
 10
117.6882513811682
 20
-138.4502915778006
 10
117.8787651615025
 20
-138.4523586350917
 10
118.0861599097146
 20
-138.4523586350917
 10
118.0861599097146
 20
-138.4523586350917
 10
118.5705403349407
 20
-138.4523586350917
 10
118.5705403349407
 20
-138.4523586350917
 10
118.7565754911442
 20
-138.4523586350917
 10
118.9429551568962
 20
-138.4502915778006
 10
119.1269232558085
 20
-138.4270371832752
 10
119.1269232558085
 20
-138.4270371832752
 10
119.1269232558085
 20
-138.6575140712384
 10
119.1269232558085
 20
-138.6575140712384
 10
118.9429551568962
 20
-138.6342596767129
 10
118.6952527915067
 20
-138.6321926194218
 10
118.5705403349407
 20
-138.6321926194218
 97
        0
 97
        1
330
97
 75
     2
 76
     1
 98
        1
 10
0.0
 20
0.0
450
        0
451
        0
460
0.0
461
0.0
452
        0
462
0.0
453
        0
470

  0
SPLINE
  5
99
330
87
100
AcDbEntity
  8
レイヤー 1
100
AcDbSpline
210
0.0
220
0.0
230
1.0
 70
     9
 71
     3
 72
    17
 73
    13
 74
     0
 42
0.0000000001
 43
0.0000000001
 40
0.0
 40
0.0
 40
0.0
 40
0.0
 40
1.0
 40
1.0
 40
1.0
 40
2.0
 40
2.0
 40
2.0
 40
3.0
 40
3.0
 40
3.0
 40
4.0
 40
4.0
 40
4.0
 40
4.0
 10
120.9893418751346
 20
-137.6653265714864
 30
0.0
 10
120.9345648569191
 20
-137.6653265714864
 30
0.0
 10
120.8901231251594
 20
-137.7097683032461
 30
0.0
 10
120.8901231251594
 20
-137.7648898310102
 30
0.0
 10
120.8901231251594
 20
-137.821906161291
 30
0.0
 10
120.9345648569191
 20
-137.8706542624073
 30
0.0
 10
120.9934759897169
 20
-137.8706542624073
 30
0.0
 10
121.0527316320632
 20
-137.8706542624073
 30
0.0
 10
121.0930392492406
 20
-137.8198391039999
 30
0.0
 10
121.0930392492406
 20
-137.7669568883013
 30
0.0
 10
121.0930392492406
 20
-137.7097683032461
 30
0.0
 10
121.0465304601897
 20
-137.6653265714864
 30
0.0
 10
120.9893418751346
 20
-137.6653265714864
 30
0.0
  0
SPLINE
  5
9A
330
87
100
AcDbEntity
  8
レイヤー 1
100
AcDbSpline
210
0.0
220
0.0
230
1.0
 70
     9
 71
     3
 72
    17
 73
    13
 74
     0
 42
0.0000000001
 43
0.0000000001
 40
0.0
 40
0.0
 40
0.0
 40
0.0
 40
1.0
 40
1.0
 40
1.0
 40
2.0
 40
2.0
 40
2.0
 40
3.0
 40
3.0
 40
3.0
 40
4.0
 40
4.0
 40
4.0
 40
4.0
 10
120.9914089324257
 20
-137.9953667189734
 30
0.0
 10
120.8646294185685
 20
-137.9953667189734
 30
0.0
 10
120.7629991017537
 20
-137.8939086569328
 30
0.0
 10
120.7629991017537
 20
-137.7669568883013
 30
0.0
 10
120.7629991017537
 20
-137.6400051196698
 30
0.0
 10
120.8646294185685
 20
-137.5363077455638
 30
0.0
 10
120.9914089324257
 20
-137.5363077455638
 30
0.0
 10
121.1185329558315
 20
-137.5363077455638
 30
0.0
 10
121.2222303299375
 20
-137.6400051196698
 30
0.0
 10
121.2222303299375
 20
-137.7669568883013
 30
0.0
 10
121.2222303299375
 20
-137.8939086569328
 30
0.0
 10
121.1185329558315
 20
-137.9953667189734
 30
0.0
 10
120.9914089324257
 20
-137.9953667189734
 30
0.0
  0
SPLINE
  5
9B
330
87
100
AcDbEntity
  8
レイヤー 1
100
AcDbSpline
210
0.0
220
0.0
230
1.0
 70
     9
 71
     3
 72
    44
 73
    40
 74
     0
 42
0.0000000001
 43
0.0000000001
 40
0.0
 40
0.0
 40
0.0
 40
0.0
 40
1.0
 40
1.0
 40
1.0
 40
2.0
 40
2.0
 40
2.0
 40
3.0
 40
3.0
 40
3.0
 40
4.0
 40
4.0
 40
4.0
 40
5.0
 40
5.0
 40
5.0
 40
6.0
 40
6.0
 40
6.0
 40
7.0
 40
7.0
 40
7.0
 40
8.0
 40
8.0
 40
8.0
 40
9.0
 40
9.0
 40
9.0
 40
10.0
 40
10.0
 40
10.0
 40
11.0
 40
11.0
 40
11.0
 40
12.0
 40
12.0
 40
12.0
 40
13.0
 40
13.0
 40
13.0
 40
13.0
 10
120.7819471269226
 20
-138.1943209832465
 30
0.0
 10
120.6699815236519
 20
-138.5624294358455
 30
0.0
 10
120.6193386200188
 20
-138.7210760829412
 30
0.0
 10
120.422623667811
 20
-138.9706732508476
 30
0.0
 10
120.2383110593501
 20
-139.2013223935851
 30
0.0
 10
120.0016329995135
 20
-139.3873575497886
 30
0.0
 10
119.7222357556597
 20
-139.4805473826646
 30
0.0
 10
119.7222357556597
 20
-139.4805473826646
 30
0.0
 10
119.5296549180342
 20
-139.3007133983345
 30
0.0
 10
119.5296549180342
 20
-139.3007133983345
 30
0.0
 10
120.1707871878392
 20
-139.1484401778865
 30
0.0
 10
120.5008273353262
 20
-138.5920572570186
 30
0.0
 10
120.5642170922547
 20
-138.151946308778
 30
0.0
 10
120.5642170922547
 20
-138.151946308778
 30
0.0
 10
119.7983723658837
 20
-138.151946308778
 30
0.0
 10
119.7983723658837
 20
-138.151946308778
 30
0.0
 10
119.705354787782
 20
-138.151946308778
 30
0.0
 10
119.5213866888696
 20
-138.1562526781345
 30
0.0
 10
119.3646348442908
 20
-138.1752007033034
 30
0.0
 10
119.3646348442908
 20
-138.1752007033034
 30
0.0
 10
119.3646348442908
 20
-137.9552313565702
 30
0.0
 10
119.3646348442908
 20
-137.9552313565702
 30
0.0
 10
119.4514512505191
 20
-137.9764186938045
 30
0.0
 10
119.7032877304908
 20
-137.9764186938045
 30
0.0
 10
119.802506480466
 20
-137.9764186938045
 30
0.0
 10
119.802506480466
 20
-137.9764186938045
 30
0.0
 10
120.2341769447678
 20
-137.9764186938045
 30
0.0
 10
120.2341769447678
 20
-137.9764186938045
 30
0.0
 10
120.2765516192364
 20
-137.9764186938045
 30
0.0
 10
120.5111626217819
 20
-137.9741793817391
 30
0.0
 10
120.5494031816682
 20
-137.9679782098656
 30
0.0
 10
120.5917778561368
 20
-137.9616047832179
 30
0.0
 10
120.5938449134279
 20
-137.9595377259268
 30
0.0
 10
120.6551676130654
 20
-137.9192301087493
 30
0.0
 10
120.6551676130654
 20
-137.9192301087493
 30
0.0
 10
120.84326982656
 20
-138.0737426412628
 30
0.0
 10
120.84326982656
 20
-138.0737426412628
 30
0.0
 10
120.8139865149354
 20
-138.1033704624359
 30
0.0
 10
120.7991726043488
 20
-138.1350653409002
 30
0.0
 10
120.7819471269226
 20
-138.1943209832465
 30
0.0
  0
HATCH
  5
9C
330
87
100
AcDbEntity
  8
レイヤー 1
 62
   250
420
  2299925
440
 33554687
100
AcDbHatch
 10
0.0
 20
0.0
 30
0.0
210
0.0
220
0.0
230
1.0
  2
SOLID
 70
     1
 71
     1
 91
        3
 92
        1
 93
        1
 72
     4
 94
        3
 73
     0
 74
     0
 95
       17
 96
       13
 40
0.0
 40
0.0
 40
0.0
 40
0.0
 40
1.0
 40
1.0
 40
1.0
 40
2.0
 40
2.0
 40
2.0
 40
3.0
 40
3.0
 40
3.0
 40
4.0
 40
4.0
 40
4.0
 40
4.0
 10
120.9893418751346
 20
-137.6653265714864
 10
120.9345648569191
 20
-137.6653265714864
 10
120.8901231251594
 20
-137.7097683032461
 10
120.8901231251594
 20
-137.7648898310102
 10
120.8901231251594
 20
-137.821906161291
 10
120.9345648569191
 20
-137.8706542624073
 10
120.9934759897169
 20
-137.8706542624073
 10
121.0527316320632
 20
-137.8706542624073
 10
121.0930392492406
 20
-137.8198391039999
 10
121.0930392492406
 20
-137.7669568883013
 10
121.0930392492406
 20
-137.7097683032461
 10
121.0465304601897
 20
-137.6653265714864
 10
120.9893418751346
 20
-137.6653265714864
 97
        0
 97
        1
330
99
 92
        1
 93
        1
 72
     4
 94
        3
 73
     0
 74
     0
 95
       17
 96
       13
 40
0.0
 40
0.0
 40
0.0
 40
0.0
 40
1.0
 40
1.0
 40
1.0
 40
2.0
 40
2.0
 40
2.0
 40
3.0
 40
3.0
 40
3.0
 40
4.0
 40
4.0
 40
4.0
 40
4.0
 10
120.9914089324257
 20
-137.9953667189734
 10
120.8646294185685
 20
-137.9953667189734
 10
120.7629991017537
 20
-137.8939086569328
 10
120.7629991017537
 20
-137.7669568883013
 10
120.7629991017537
 20
-137.6400051196698
 10
120.8646294185685
 20
-137.5363077455638
 10
120.9914089324257
 20
-137.5363077455638
 10
121.1185329558315
 20
-137.5363077455638
 10
121.2222303299375
 20
-137.6400051196698
 10
121.2222303299375
 20
-137.7669568883013
 10
121.2222303299375
 20
-137.8939086569328
 10
121.1185329558315
 20
-137.9953667189734
 10
120.9914089324257
 20
-137.9953667189734
 97
        0
 97
        1
330
9A
 92
        1
 93
        1
 72
     4
 94
        3
 73
     0
 74
     0
 95
       44
 96
       40
 40
0.0
 40
0.0
 40
0.0
 40
0.0
 40
1.0
 40
1.0
 40
1.0
 40
2.0
 40
2.0
 40
2.0
 40
3.0
 40
3.0
 40
3.0
 40
4.0
 40
4.0
 40
4.0
 40
5.0
 40
5.0
 40
5.0
 40
6.0
 40
6.0
 40
6.0
 40
7.0
 40
7.0
 40
7.0
 40
8.0
 40
8.0
 40
8.0
 40
9.0
 40
9.0
 40
9.0
 40
10.0
 40
10.0
 40
10.0
 40
11.0
 40
11.0
 40
11.0
 40
12.0
 40
12.0
 40
12.0
 40
13.0
 40
13.0
 40
13.0
 40
13.0
 10
120.7819471269226
 20
-138.1943209832465
 10
120.6699815236519
 20
-138.5624294358455
 10
120.6193386200188
 20
-138.7210760829412
 10
120.422623667811
 20
-138.9706732508476
 10
120.2383110593501
 20
-139.2013223935851
 10
120.0016329995135
 20
-139.3873575497886
 10
119.7222357556597
 20
-139.4805473826646
 10
119.7222357556597
 20
-139.4805473826646
 10
119.5296549180342
 20
-139.3007133983345
 10
119.5296549180342
 20
-139.3007133983345
 10
120.1707871878392
 20
-139.1484401778865
 10
120.5008273353262
 20
-138.5920572570186
 10
120.5642170922547
 20
-138.151946308778
 10
120.5642170922547
 20
-138.151946308778
 10
119.7983723658837
 20
-138.151946308778
 10
119.7983723658837
 20
-138.151946308778
 10
119.705354787782
 20
-138.151946308778
 10
119.5213866888696
 20
-138.1562526781345
 10
119.3646348442908
 20
-138.1752007033034
 10
119.3646348442908
 20
-138.1752007033034
 10
119.3646348442908
 20
-137.9552313565702
 10
119.3646348442908
 20
-137.9552313565702
 10
119.4514512505191
 20
-137.9764186938045
 10
119.7032877304908
 20
-137.9764186938045
 10
119.802506480466
 20
-137.9764186938045
 10
119.802506480466
 20
-137.9764186938045
 10
120.2341769447678
 20
-137.9764186938045
 10
120.2341769447678
 20
-137.9764186938045
 10
120.2765516192364
 20
-137.9764186938045
 10
120.5111626217819
 20
-137.9741793817391
 10
120.5494031816682
 20
-137.9679782098656
 10
120.5917778561368
 20
-137.9616047832179
 10
120.5938449134279
 20
-137.9595377259268
 10
120.6551676130654
 20
-137.9192301087493
 10
120.6551676130654
 20
-137.9192301087493
 10
120.84326982656
 20
-138.0737426412628
 10
120.84326982656
 20
-138.0737426412628
 10
120.8139865149354
 20
-138.1033704624359
 10
120.7991726043488
 20
-138.1350653409002
 10
120.7819471269226
 20
-138.1943209832465
 97
        0
 97
        1
330
9B
 75
     2
 76
     1
 98
        1
 10
0.0
 20
0.0
450
        0
451
        0
460
0.0
461
0.0
452
        0
462
0.0
453
        0
470

  0
ENDBLK
  5
8A
330
87
100
AcDbEntity
  8
0
100
AcDbBlockEnd
  0
BLOCK
  5
9F
330
9D
100
AcDbEntity
  8
0
100
AcDbBlockBegin
  2
Block_2
 70
     0
 10
0.0
 20
0.0
 30
0.0
  3
Block_2
  1

  0
INSERT
  5
A2
330
9D
100
AcDbEntity
  8
レイヤー 1
100
AcDbBlockReference
  2
Block_3
 10
0.0
 20
0.0
 30
0.0
  0
INSERT
  5
BC
330
9D
100
AcDbEntity
  8
レイヤー 1
100
AcDbBlockReference
  2
Block_7
 10
0.0
 20
0.0
 30
0.0
  0
INSERT
  5
C9
330
9D
100
AcDbEntity
  8
レイヤー 1
100
AcDbBlockReference
  2
Block_9
 10
0.0
 20
0.0
 30
0.0
  0
INSERT
  5
D5
330
9D
100
AcDbEntity
  8
レイヤー 1
100
AcDbBlockReference
  2
Block_11
 10
0.0
 20
0.0
 30
0.0
  0
INSERT
  5
EF
330
9D
100
AcDbEntity
  8
レイヤー 1
100
AcDbBlockReference
  2
Block_15
 10
0.0
 20
0.0
 30
0.0
  0
INSERT
  5
11B
330
9D
100
AcDbEntity
  8
レイヤー 1
100
AcDbBlockReference
  2
Block_18
 10
0.0
 20
0.0
 30
0.0
  0
ENDBLK
  5
A0
330
9D
100
AcDbEntity
  8
0
100
AcDbBlockEnd
  0
BLOCK
  5
A3
330
A1
100
AcDbEntity
  8
0
100
AcDbBlockBegin
  2
Block_3
 70
     0
 10
0.0
 20
0.0
 30
0.0
  3
Block_3
  1

  0
INSERT
  5
A6
330
A1
100
AcDbEntity
  8
レイヤー 1
100
AcDbBlockReference
  2
Block_4
 10
0.0
 20
0.0
 30
0.0
  0
INSERT
  5
AF
330
A1
100
AcDbEntity
  8
レイヤー 1
100
AcDbBlockReference
  2
Block_5
 10
0.0
 20
0.0
 30
0.0
  0
ENDBLK
  5
A4
330
A1
100
AcDbEntity
  8
0
100
AcDbBlockEnd
  0
BLOCK
  5
A7
330
A5
100
AcDbEntity
  8
0
100
AcDbBlockBegin
  2
Block_4
 70
     0
 10
0.0
 20
0.0
 30
0.0
  3
Block_4
  1

  0
SPLINE
  5
A9
330
A5
100
AcDbEntity
  8
レイヤー 1
 62
   250
420
  2299925
370
     9
100
AcDbSpline
210
0.0
220
0.0
230
1.0
 70
     9
 71
     3
 72
    17
 73
    13
 74
     0
 42
0.0000000001
 43
0.0000000001
 40
0.0
 40
0.0
 40
0.0
 40
0.0
 40
1.0
 40
1.0
 40
1.0
 40
2.0
 40
2.0
 40
2.0
 40
3.0
 40
3.0
 40
3.0
 40
4.0
 40
4.0
 40
4.0
 40
4.0
 10
103.8980628013036
 20
-165.0658009156772
 30
0.0
 10
103.8980628013036
 20
-165.0099914726566
 30
0.0
 10
103.8532600235369
 20
-164.9651886960219
 30
0.0
 10
103.798156134662
 20
-164.9651886960219
 30
0.0
 10
103.7430169680089
 20
-164.9651886960219
 30
0.0
 10
103.6982494680203
 20
-165.0099914726566
 30
0.0
 10
103.6982494680203
 20
-165.0658009156772
 30
0.0
 10
103.6982494680203
 20
-165.1209048031603
 30
0.0
 10
103.7430169680089
 20
-165.1657075797951
 30
0.0
 10
103.798156134662
 20
-165.1657075797951
 30
0.0
 10
103.8532600235369
 20
-165.1657075797951
 30
0.0
 10
103.8980628013036
 20
-165.1209048031603
 30
0.0
 10
103.8980628013036
 20
-165.0658009156772
 30
0.0
  0
SPLINE
  5
AA
330
A5
100
AcDbEntity
  8
レイヤー 1
 62
   250
420
  2299925
370
     9
100
AcDbSpline
210
0.0
220
0.0
230
1.0
 70
     9
 71
     3
 72
    17
 73
    13
 74
     0
 42
0.0000000001
 43
0.0000000001
 40
0.0
 40
0.0
 40
0.0
 40
0.0
 40
1.0
 40
1.0
 40
1.0
 40
2.0
 40
2.0
 40
2.0
 40
3.0
 40
3.0
 40
3.0
 40
4.0
 40
4.0
 40
4.0
 40
4.0
 10
123.924473118592
 20
-165.0658009156772
 30
0.0
 10
123.924473118592
 20
-165.0099914726566
 30
0.0
 10
123.8796703419573
 20
-164.9651886960219
 30
0.0
 10
123.8245664544742
 20
-164.9651886960219
 30
0.0
 10
123.7694272892142
 20
-164.9651886960219
 30
0.0
 10
123.7246609260732
 20
-165.0099914726566
 30
0.0
 10
123.7246609260732
 20
-165.0658009156772
 30
0.0
 10
123.7246609260732
 20
-165.1209048031603
 30
0.0
 10
123.7694272892142
 20
-165.1657075797951
 30
0.0
 10
123.8245664544742
 20
-165.1657075797951
 30
0.0
 10
123.8796703419573
 20
-165.1657075797951
 30
0.0
 10
123.924473118592
 20
-165.1209048031603
 30
0.0
 10
123.924473118592
 20
-165.0658009156772
 30
0.0
  0
LINE
  5
AB
330
A5
100
AcDbEntity
  8
レイヤー 1
 62
   250
420
  2299925
370
     9
100
AcDbLine
 10
103.8245670478481
 20
-165.0658009156772
 30
0.0
 11
123.824567042848
 21
-165.0658009156772
 31
0.0
  0
LINE
  5
AC
330
A5
100
AcDbEntity
  8
レイヤー 1
 62
   250
420
  2299925
370
     9
100
AcDbLine
 10
103.798156134662
 20
-162.8058006955568
 30
0.0
 11
103.798156134662
 21
-166.0655731123925
 31
0.0
  0
LINE
  5
AD
330
A5
100
AcDbEntity
  8
レイヤー 1
 62
   250
420
  2299925
370
     9
100
AcDbLine
 10
123.8245664544742
 20
-163.305334016146
 30
0.0
 11
123.8245664544742
 21
-166.0655731123925
 31
0.0
  0
ENDBLK
  5
A8
330
A5
100
AcDbEntity
  8
0
100
AcDbBlockEnd
  0
BLOCK
  5
B0
330
AE
100
AcDbEntity
  8
0
100
AcDbBlockBegin
  2
Block_5
 70
     0
 10
0.0
 20
0.0
 30
0.0
  3
Block_5
  1

  0
INSERT
  5
B3
330
AE
100
AcDbEntity
  8
レイヤー 1
100
AcDbBlockReference
  2
Block_6
 10
0.0
 20
0.0
 30
0.0
  0
ENDBLK
  5
B1
330
AE
100
AcDbEntity
  8
0
100
AcDbBlockEnd
  0
BLOCK
  5
B4
330
B2
100
AcDbEntity
  8
0
100
AcDbBlockBegin
  2
Block_6
 70
     0
 10
0.0
 20
0.0
 30
0.0
  3
Block_6
  1

  0
SPLINE
  5
B6
330
B2
100
AcDbEntity
  8
レイヤー 1
100
AcDbSpline
210
0.0
220
0.0
230
1.0
 70
     9
 71
     3
 72
    44
 73
    40
 74
     0
 42
0.0000000001
 43
0.0000000001
 40
0.0
 40
0.0
 40
0.0
 40
0.0
 40
1.0
 40
1.0
 40
1.0
 40
2.0
 40
2.0
 40
2.0
 40
3.0
 40
3.0
 40
3.0
 40
4.0
 40
4.0
 40
4.0
 40
5.0
 40
5.0
 40
5.0
 40
6.0
 40
6.0
 40
6.0
 40
7.0
 40
7.0
 40
7.0
 40
8.0
 40
8.0
 40
8.0
 40
9.0
 40
9.0
 40
9.0
 40
10.0
 40
10.0
 40
10.0
 40
11.0
 40
11.0
 40
11.0
 40
12.0
 40
12.0
 40
12.0
 40
13.0
 40
13.0
 40
13.0
 40
13.0
 10
113.3157361912891
 20
-163.7705376109671
 30
0.0
 10
113.0980061566213
 20
-163.9293565128371
 30
0.0
 10
113.0049885785196
 20
-164.00342606577
 30
0.0
 10
112.956068222629
 20
-164.1470865475049
 30
0.0
 10
112.956068222629
 20
-164.1470865475049
 30
0.0
 10
113.7346598022955
 20
-164.1470865475049
 30
0.0
 10
113.7346598022955
 20
-164.1470865475049
 30
0.0
 10
113.7346598022955
 20
-164.1470865475049
 30
0.0
 10
113.7346598022955
 20
-164.3524142384258
 30
0.0
 10
113.7346598022955
 20
-164.3524142384258
 30
0.0
 10
113.7346598022955
 20
-164.3524142384258
 30
0.0
 10
112.7066433094969
 20
-164.3524142384258
 30
0.0
 10
112.7066433094969
 20
-164.3524142384258
 30
0.0
 10
112.7383381879612
 20
-163.9948133270568
 30
0.0
 10
112.803795002181
 20
-163.9166096595417
 30
0.0
 10
113.1889566774319
 20
-163.618264390519
 30
0.0
 10
113.444927271986
 20
-163.4194823810201
 30
0.0
 10
113.5103840862057
 20
-163.3516139999607
 30
0.0
 10
113.5103840862057
 20
-163.2141546900992
 30
0.0
 10
113.5103840862057
 20
-163.0956434054066
 30
0.0
 10
113.438381590564
 20
-162.9647297769671
 30
0.0
 10
113.2416666383562
 20
-162.9647297769671
 30
0.0
 10
112.9815619292199
 20
-162.9647297769671
 30
0.0
 10
112.9732937000553
 20
-163.1952066649303
 30
0.0
 10
112.9688150759244
 20
-163.3116508923318
 30
0.0
 10
112.9688150759244
 20
-163.3116508923318
 30
0.0
 10
112.7445393598347
 20
-163.3116508923318
 30
0.0
 10
112.7445393598347
 20
-163.3116508923318
 30
0.0
 10
112.7531520985478
 20
-163.1845268689261
 30
0.0
 10
112.7638318945521
 20
-163.0725612656554
 30
0.0
 10
112.8441026193584
 20
-162.9540499809628
 30
0.0
 10
112.9540011653379
 20
-162.7931640218017
 30
0.0
 10
113.1403808310899
 20
-162.7594020860462
 30
0.0
 10
113.2564805489428
 20
-162.7594020860462
 30
0.0
 10
113.5338107355054
 20
-162.7594020860462
 30
0.0
 10
113.7412054837175
 20
-162.9433701849586
 30
0.0
 10
113.7412054837175
 20
-163.2162217473904
 30
0.0
 10
113.7412054837175
 20
-163.444976087611
 30
0.0
 10
113.624761256316
 20
-163.5441948375862
 30
0.0
 10
113.3157361912891
 20
-163.7705376109671
 30
0.0
  0
HATCH
  5
B7
330
B2
100
AcDbEntity
  8
レイヤー 1
 62
   250
420
  2299925
440
 33554687
100
AcDbHatch
 10
0.0
 20
0.0
 30
0.0
210
0.0
220
0.0
230
1.0
  2
SOLID
 70
     1
 71
     1
 91
        1
 92
        1
 93
        1
 72
     4
 94
        3
 73
     0
 74
     0
 95
       44
 96
       40
 40
0.0
 40
0.0
 40
0.0
 40
0.0
 40
1.0
 40
1.0
 40
1.0
 40
2.0
 40
2.0
 40
2.0
 40
3.0
 40
3.0
 40
3.0
 40
4.0
 40
4.0
 40
4.0
 40
5.0
 40
5.0
 40
5.0
 40
6.0
 40
6.0
 40
6.0
 40
7.0
 40
7.0
 40
7.0
 40
8.0
 40
8.0
 40
8.0
 40
9.0
 40
9.0
 40
9.0
 40
10.0
 40
10.0
 40
10.0
 40
11.0
 40
11.0
 40
11.0
 40
12.0
 40
12.0
 40
12.0
 40
13.0
 40
13.0
 40
13.0
 40
13.0
 10
113.3157361912891
 20
-163.7705376109671
 10
113.0980061566213
 20
-163.9293565128371
 10
113.0049885785196
 20
-164.00342606577
 10
112.956068222629
 20
-164.1470865475049
 10
112.956068222629
 20
-164.1470865475049
 10
113.7346598022955
 20
-164.1470865475049
 10
113.7346598022955
 20
-164.1470865475049
 10
113.7346598022955
 20
-164.1470865475049
 10
113.7346598022955
 20
-164.3524142384258
 10
113.7346598022955
 20
-164.3524142384258
 10
113.7346598022955
 20
-164.3524142384258
 10
112.7066433094969
 20
-164.3524142384258
 10
112.7066433094969
 20
-164.3524142384258
 10
112.7383381879612
 20
-163.9948133270568
 10
112.803795002181
 20
-163.9166096595417
 10
113.1889566774319
 20
-163.618264390519
 10
113.444927271986
 20
-163.4194823810201
 10
113.5103840862057
 20
-163.3516139999607
 10
113.5103840862057
 20
-163.2141546900992
 10
113.5103840862057
 20
-163.0956434054066
 10
113.438381590564
 20
-162.9647297769671
 10
113.2416666383562
 20
-162.9647297769671
 10
112.9815619292199
 20
-162.9647297769671
 10
112.9732937000553
 20
-163.1952066649303
 10
112.9688150759244
 20
-163.3116508923318
 10
112.9688150759244
 20
-163.3116508923318
 10
112.7445393598347
 20
-163.3116508923318
 10
112.7445393598347
 20
-163.3116508923318
 10
112.7531520985478
 20
-163.1845268689261
 10
112.7638318945521
 20
-163.0725612656554
 10
112.8441026193584
 20
-162.9540499809628
 10
112.9540011653379
 20
-162.7931640218017
 10
113.1403808310899
 20
-162.7594020860462
 10
113.2564805489428
 20
-162.7594020860462
 10
113.5338107355054
 20
-162.7594020860462
 10
113.7412054837175
 20
-162.9433701849586
 10
113.7412054837175
 20
-163.2162217473904
 10
113.7412054837175
 20
-163.444976087611
 10
113.624761256316
 20
-163.5441948375862
 10
113.3157361912891
 20
-163.7705376109671
 97
        0
 97
        1
330
B6
 75
     2
 76
     1
 98
        1
 10
0.0
 20
0.0
450
        0
451
        0
460
0.0
461
0.0
452
        0
462
0.0
453
        0
470

  0
SPLINE
  5
B8
330
B2
100
AcDbEntity
  8
レイヤー 1
100
AcDbSpline
210
0.0
220
0.0
230
1.0
 70
     9
 71
     3
 72
    17
 73
    13
 74
     0
 42
0.0000000001
 43
0.0000000001
 40
0.0
 40
0.0
 40
0.0
 40
0.0
 40
1.0
 40
1.0
 40
1.0
 40
2.0
 40
2.0
 40
2.0
 40
3.0
 40
3.0
 40
3.0
 40
4.0
 40
4.0
 40
4.0
 40
4.0
 10
114.3995632309487
 20
-162.9519829236717
 30
0.0
 10
114.1501383178166
 20
-162.9519829236717
 30
0.0
 10
114.1032850192172
 20
-163.2355142821078
 30
0.0
 10
114.1032850192172
 20
-163.5803683401813
 30
0.0
 10
114.1032850192172
 20
-163.8997286916639
 30
0.0
 10
114.1394585218123
 20
-164.2084092471423
 30
0.0
 10
114.3995632309487
 20
-164.2084092471423
 30
0.0
 10
114.6472655963382
 20
-164.2084092471423
 30
0.0
 10
114.6958414426802
 20
-163.9272894555459
 30
0.0
 10
114.6958414426802
 20
-163.5803683401813
 30
0.0
 10
114.6958414426802
 20
-163.2606634791501
 30
0.0
 10
114.6576008827939
 20
-162.9519829236717
 30
0.0
 10
114.3995632309487
 20
-162.9519829236717
 30
0.0
  0
SPLINE
  5
B9
330
B2
100
AcDbEntity
  8
レイヤー 1
100
AcDbSpline
210
0.0
220
0.0
230
1.0
 70
     9
 71
     3
 72
    29
 73
    25
 74
     0
 42
0.0000000001
 43
0.0000000001
 40
0.0
 40
0.0
 40
0.0
 40
0.0
 40
1.0
 40
1.0
 40
1.0
 40
2.0
 40
2.0
 40
2.0
 40
3.0
 40
3.0
 40
3.0
 40
4.0
 40
4.0
 40
4.0
 40
5.0
 40
5.0
 40
5.0
 40
6.0
 40
6.0
 40
6.0
 40
7.0
 40
7.0
 40
7.0
 40
8.0
 40
8.0
 40
8.0
 40
8.0
 10
114.7974717594951
 20
-164.1746473113869
 30
0.0
 10
114.6892957612582
 20
-164.3841091168901
 30
0.0
 10
114.5160074583501
 20
-164.403057142059
 30
0.0
 10
114.3995632309487
 20
-164.403057142059
 30
0.0
 10
114.2386772717875
 20
-164.403057142059
 30
0.0
 10
114.0970838473438
 20
-164.3565483530081
 30
0.0
 10
114.0019992119509
 20
-164.1746473113869
 30
0.0
 10
113.8983018378448
 20
-163.9799994164703
 30
0.0
 10
113.879353812676
 20
-163.7429768470851
 30
0.0
 10
113.879353812676
 20
-163.5803683401813
 30
0.0
 10
113.879353812676
 20
-163.4363633488978
 30
0.0
 10
113.8962347805537
 20
-163.1845268689261
 30
0.0
 10
114.0019992119509
 20
-162.9857448594272
 30
0.0
 10
114.1098307006392
 20
-162.7828287353459
 30
0.0
 10
114.2707166598004
 20
-162.7594020860462
 30
0.0
 10
114.3995632309487
 20
-162.7594020860462
 30
0.0
 10
114.5583821328187
 20
-162.7594020860462
 30
0.0
 10
114.7020426145536
 20
-162.803843817806
 30
0.0
 10
114.7974717594951
 20
-162.9857448594272
 30
0.0
 10
114.8966905094702
 20
-163.1783256970526
 30
0.0
 10
114.9201171587699
 20
-163.4067355277247
 30
0.0
 10
114.9201171587699
 20
-163.5803683401813
 30
0.0
 10
114.9201171587699
 20
-163.7515895857982
 30
0.0
 10
114.8987575667614
 20
-163.9820664737614
 30
0.0
 10
114.7974717594951
 20
-164.1746473113869
 30
0.0
  0
HATCH
  5
BA
330
B2
100
AcDbEntity
  8
レイヤー 1
 62
   250
420
  2299925
440
 33554687
100
AcDbHatch
 10
0.0
 20
0.0
 30
0.0
210
0.0
220
0.0
230
1.0
  2
SOLID
 70
     1
 71
     1
 91
        2
 92
        1
 93
        1
 72
     4
 94
        3
 73
     0
 74
     0
 95
       17
 96
       13
 40
0.0
 40
0.0
 40
0.0
 40
0.0
 40
1.0
 40
1.0
 40
1.0
 40
2.0
 40
2.0
 40
2.0
 40
3.0
 40
3.0
 40
3.0
 40
4.0
 40
4.0
 40
4.0
 40
4.0
 10
114.3995632309487
 20
-162.9519829236717
 10
114.1501383178166
 20
-162.9519829236717
 10
114.1032850192172
 20
-163.2355142821078
 10
114.1032850192172
 20
-163.5803683401813
 10
114.1032850192172
 20
-163.8997286916639
 10
114.1394585218123
 20
-164.2084092471423
 10
114.3995632309487
 20
-164.2084092471423
 10
114.6472655963382
 20
-164.2084092471423
 10
114.6958414426802
 20
-163.9272894555459
 10
114.6958414426802
 20
-163.5803683401813
 10
114.6958414426802
 20
-163.2606634791501
 10
114.6576008827939
 20
-162.9519829236717
 10
114.3995632309487
 20
-162.9519829236717
 97
        0
 97
        1
330
B8
 92
        1
 93
        1
 72
     4
 94
        3
 73
     0
 74
     0
 95
       29
 96
       25
 40
0.0
 40
0.0
 40
0.0
 40
0.0
 40
1.0
 40
1.0
 40
1.0
 40
2.0
 40
2.0
 40
2.0
 40
3.0
 40
3.0
 40
3.0
 40
4.0
 40
4.0
 40
4.0
 40
5.0
 40
5.0
 40
5.0
 40
6.0
 40
6.0
 40
6.0
 40
7.0
 40
7.0
 40
7.0
 40
8.0
 40
8.0
 40
8.0
 40
8.0
 10
114.7974717594951
 20
-164.1746473113869
 10
114.6892957612582
 20
-164.3841091168901
 10
114.5160074583501
 20
-164.403057142059
 10
114.3995632309487
 20
-164.403057142059
 10
114.2386772717875
 20
-164.403057142059
 10
114.0970838473438
 20
-164.3565483530081
 10
114.0019992119509
 20
-164.1746473113869
 10
113.8983018378448
 20
-163.9799994164703
 10
113.879353812676
 20
-163.7429768470851
 10
113.879353812676
 20
-163.5803683401813
 10
113.879353812676
 20
-163.4363633488978
 10
113.8962347805537
 20
-163.1845268689261
 10
114.0019992119509
 20
-162.9857448594272
 10
114.1098307006392
 20
-162.7828287353459
 10
114.2707166598004
 20
-162.7594020860462
 10
114.3995632309487
 20
-162.7594020860462
 10
114.5583821328187
 20
-162.7594020860462
 10
114.7020426145536
 20
-162.803843817806
 10
114.7974717594951
 20
-162.9857448594272
 10
114.8966905094702
 20
-163.1783256970526
 10
114.9201171587699
 20
-163.4067355277247
 10
114.9201171587699
 20
-163.5803683401813
 10
114.9201171587699
 20
-163.7515895857982
 10
114.8987575667614
 20
-163.9820664737614
 10
114.7974717594951
 20
-164.1746473113869
 97
        0
 97
        1
330
B9
 75
     2
 76
     1
 98
        1
 10
0.0
 20
0.0
450
        0
451
        0
460
0.0
461
0.0
452
        0
462
0.0
453
        0
470

  0
ENDBLK
  5
B5
330
B2
100
AcDbEntity
  8
0
100
AcDbBlockEnd
  0
BLOCK
  5
BD
330
BB
100
AcDbEntity
  8
0
100
AcDbBlockBegin
  2
Block_7
 70
     0
 10
0.0
 20
0.0
 30
0.0
  3
Block_7
  1

  0
LINE
  5
BF
330
BB
100
AcDbEntity
  8
レイヤー 1
 62
   250
420
  2299925
370
     9
100
AcDbLine
 10
90.77358032739804
 20
-153.2770107219561
 30
0.0
 11
101.3842700469671
 21
-163.8877355406819
 31
0.0
  0
INSERT
  5
C1
330
BB
100
AcDbEntity
  8
レイヤー 1
100
AcDbBlockReference
  2
Block_8
 10
0.0
 20
0.0
 30
0.0
  0
ENDBLK
  5
BE
330
BB
100
AcDbEntity
  8
0
100
AcDbBlockEnd
  0
BLOCK
  5
C2
330
C0
100
AcDbEntity
  8
0
100
AcDbBlockBegin
  2
Block_8
 70
     0
 10
0.0
 20
0.0
 30
0.0
  3
Block_8
  1

  0
SPLINE
  5
C4
330
C0
100
AcDbEntity
  8
レイヤー 1
 62
   250
420
  2299925
370
     9
100
AcDbSpline
210
0.0
220
0.0
230
1.0
 70
     9
 71
     3
 72
    17
 73
    13
 74
     0
 42
0.0000000001
 43
0.0000000001
 40
0.0
 40
0.0
 40
0.0
 40
0.0
 40
1.0
 40
1.0
 40
1.0
 40
2.0
 40
2.0
 40
2.0
 40
3.0
 40
3.0
 40
3.0
 40
4.0
 40
4.0
 40
4.0
 40
4.0
 10
90.87348699403968
 20
-153.2770107219561
 30
0.0
 10
90.87348699404032
 20
-153.221906834473
 30
0.0
 10
90.8286842162736
 20
-153.1771040578383
 30
0.0
 10
90.77358032739804
 20
-153.1771040578383
 30
0.0
 10
90.7177708829676
 20
-153.1771040578383
 30
0.0
 10
90.67296810520089
 20
-153.2219068344724
 30
0.0
 10
90.67296810520153
 20
-153.2770107219561
 30
0.0
 10
90.67296810520153
 20
-153.332149887216
 30
0.0
 10
90.7177708829676
 20
-153.3769526638508
 30
0.0
 10
90.77358032739804
 20
-153.3769526638508
 30
0.0
 10
90.8286842162736
 20
-153.3769526638508
 30
0.0
 10
90.87348699404032
 20
-153.332149887216
 30
0.0
 10
90.87348699403968
 20
-153.2770107219561
 30
0.0
  0
CIRCLE
  5
C5
330
C0
100
AcDbEntity
  8
レイヤー 1
 62
   250
420
  2299925
370
     9
100
AcDbCircle
 10
101.3842701757136
 20
-163.8877356694279
 30
0.0
 40
0.0999066653796563
  0
LINE
  5
C6
330
C0
100
AcDbEntity
  8
レイヤー 1
 62
   250
420
  2299925
370
     9
100
AcDbLine
 10
91.80570227158439
 20
-152.2448888038426
 30
0.0
 11
90.0659433831311
 21
-153.9839773705859
 31
0.0
  0
LINE
  5
C7
330
C0
100
AcDbEntity
  8
レイヤー 1
 62
   250
420
  2299925
370
     9
100
AcDbLine
 10
102.4164273976782
 20
-162.8555784735382
 30
0.0
 11
100.6773387870017
 21
-164.595372595819
 31
0.0
  0
ENDBLK
  5
C3
330
C0
100
AcDbEntity
  8
0
100
AcDbBlockEnd
  0
BLOCK
  5
CA
330
C8
100
AcDbEntity
  8
0
100
AcDbBlockBegin
  2
Block_9
 70
     0
 10
0.0
 20
0.0
 30
0.0
  3
Block_9
  1

  0
INSERT
  5
CD
330
C8
100
AcDbEntity
  8
レイヤー 1
100
AcDbBlockReference
  2
Block_10
 10
0.0
 20
0.0
 30
0.0
  0
ENDBLK
  5
CB
330
C8
100
AcDbEntity
  8
0
100
AcDbBlockEnd
  0
BLOCK
  5
CE
330
CC
100
AcDbEntity
  8
0
100
AcDbBlockBegin
  2
Block_10
 70
     0
 10
0.0
 20
0.0
 30
0.0
  3
Block_10
  1

  0
SPLINE
  5
D0
330
CC
100
AcDbEntity
  8
レイヤー 1
100
AcDbSpline
210
0.0
220
0.0
230
1.0
 70
    11
 71
     3
 72
    26
 73
    22
 74
     0
 42
0.0000000001
 43
0.0000000001
 40
0.0
 40
0.0
 40
0.0
 40
0.0
 40
1.0
 40
1.0
 40
1.0
 40
2.0
 40
2.0
 40
2.0
 40
3.0
 40
3.0
 40
3.0
 40
4.0
 40
4.0
 40
4.0
 40
5.0
 40
5.0
 40
5.0
 40
6.0
 40
6.0
 40
6.0
 40
7.0
 40
7.0
 40
7.0
 40
7.0
 10
96.07062172077402
 20
-157.7157822956405
 30
0.0
 10
96.07062172077402
 20
-157.7157822956405
 30
0.0
 10
96.85145261250589
 20
-156.9347791491343
 30
0.0
 10
96.85145261250589
 20
-156.9347791491343
 30
0.0
 10
96.85145261250589
 20
-156.9347791491343
 30
0.0
 10
96.61821964815448
 20
-156.7015461847829
 30
0.0
 10
96.61821964815448
 20
-156.7015461847829
 30
0.0
 10
96.61821964815448
 20
-156.7015461847829
 30
0.0
 10
96.72295055090607
 20
-156.5968152820313
 30
0.0
 10
96.72295055090607
 20
-156.5968152820313
 30
0.0
 10
96.96806909468159
 20
-156.8210909981211
 30
0.0
 10
97.11638045532161
 20
-156.7390977255722
 30
0.0
 10
97.21818302691074
 20
-156.6791530641288
 30
0.0
 10
97.21818302691074
 20
-156.6791530641288
 30
0.0
 10
97.3211913819197
 20
-156.7821614191378
 30
0.0
 10
97.3211913819197
 20
-156.7821614191378
 30
0.0
 10
97.3211913819197
 20
-156.7821614191378
 30
0.0
 10
96.22909611309552
 20
-157.874256687962
 30
0.0
 10
96.22909611309552
 20
-157.874256687962
 30
0.0
 10
96.22909611309552
 20
-157.874256687962
 30
0.0
 10
96.07062172077402
 20
-157.7157822956405
 30
0.0
 10
96.07062172077402
 20
-157.7157822956405
 30
0.0
  0
HATCH
  5
D1
330
CC
100
AcDbEntity
  8
レイヤー 1
 62
   250
420
  2299925
440
 33554687
100
AcDbHatch
 10
0.0
 20
0.0
 30
0.0
210
0.0
220
0.0
230
1.0
  2
SOLID
 70
     1
 71
     1
 91
        1
 92
        1
 93
        1
 72
     4
 94
        3
 73
     0
 74
     0
 95
       26
 96
       22
 40
0.0
 40
0.0
 40
0.0
 40
0.0
 40
1.0
 40
1.0
 40
1.0
 40
2.0
 40
2.0
 40
2.0
 40
3.0
 40
3.0
 40
3.0
 40
4.0
 40
4.0
 40
4.0
 40
5.0
 40
5.0
 40
5.0
 40
6.0
 40
6.0
 40
6.0
 40
7.0
 40
7.0
 40
7.0
 40
7.0
 10
96.07062172077402
 20
-157.7157822956405
 10
96.07062172077402
 20
-157.7157822956405
 10
96.85145261250589
 20
-156.9347791491343
 10
96.85145261250589
 20
-156.9347791491343
 10
96.85145261250589
 20
-156.9347791491343
 10
96.61821964815448
 20
-156.7015461847829
 10
96.61821964815448
 20
-156.7015461847829
 10
96.61821964815448
 20
-156.7015461847829
 10
96.72295055090607
 20
-156.5968152820313
 10
96.72295055090607
 20
-156.5968152820313
 10
96.96806909468159
 20
-156.8210909981211
 10
97.11638045532161
 20
-156.7390977255722
 10
97.21818302691074
 20
-156.6791530641288
 10
97.21818302691074
 20
-156.6791530641288
 10
97.3211913819197
 20
-156.7821614191378
 10
97.3211913819197
 20
-156.7821614191378
 10
97.3211913819197
 20
-156.7821614191378
 10
96.22909611309552
 20
-157.874256687962
 10
96.22909611309552
 20
-157.874256687962
 10
96.22909611309552
 20
-157.874256687962
 10
96.07062172077402
 20
-157.7157822956405
 10
96.07062172077402
 20
-157.7157822956405
 97
        0
 97
        1
330
D0
 75
     2
 76
     1
 98
        1
 10
0.0
 20
0.0
450
        0
451
        0
460
0.0
461
0.0
452
        0
462
0.0
453
        0
470

  0
SPLINE
  5
D2
330
CC
100
AcDbEntity
  8
レイヤー 1
100
AcDbSpline
210
0.0
220
0.0
230
1.0
 70
     9
 71
     3
 72
    53
 73
    49
 74
     0
 42
0.0000000001
 43
0.0000000001
 40
0.0
 40
0.0
 40
0.0
 40
0.0
 40
1.0
 40
1.0
 40
1.0
 40
2.0
 40
2.0
 40
2.0
 40
3.0
 40
3.0
 40
3.0
 40
4.0
 40
4.0
 40
4.0
 40
5.0
 40
5.0
 40
5.0
 40
6.0
 40
6.0
 40
6.0
 40
7.0
 40
7.0
 40
7.0
 40
8.0
 40
8.0
 40
8.0
 40
9.0
 40
9.0
 40
9.0
 40
10.0
 40
10.0
 40
10.0
 40
11.0
 40
11.0
 40
11.0
 40
12.0
 40
12.0
 40
12.0
 40
13.0
 40
13.0
 40
13.0
 40
14.0
 40
14.0
 40
14.0
 40
15.0
 40
15.0
 40
15.0
 40
16.0
 40
16.0
 40
16.0
 40
16.0
 10
96.88779836987528
 20
-158.6046169308349
 30
0.0
 10
96.83267684211129
 20
-158.5494954030709
 30
0.0
 10
96.77255992589367
 20
-158.4654350732308
 30
0.0
 10
96.74586043588298
 20
-158.3489908458294
 30
0.0
 10
96.70090193980048
 20
-158.1484862885879
 30
0.0
 10
96.77858884299286
 20
-158.0406547998995
 30
0.0
 10
96.84146183559867
 20
-157.9510823172831
 30
0.0
 10
96.84146183559867
 20
-157.9510823172831
 30
0.0
 10
96.99855818972606
 20
-158.1081786714104
 30
0.0
 10
96.99855818972606
 20
-158.1081786714104
 30
0.0
 10
96.89675561813693
 20
-158.2876681461919
 30
0.0
 10
96.96582978261618
 20
-158.398600220817
 30
0.0
 10
97.03163110638445
 20
-158.4644015445853
 30
0.0
 10
97.13016083726261
 20
-158.5629312754634
 30
0.0
 10
97.30792776430149
 20
-158.5997937971556
 30
0.0
 10
97.47243107372218
 20
-158.4354627425092
 30
0.0
 10
97.65364309624631
 20
-158.254250719985
 30
0.0
 10
97.57578393827968
 20
-158.0778618311402
 30
0.0
 10
97.490690079794
 20
-157.9927679726546
 30
0.0
 10
97.46829695913987
 20
-157.9703748520004
 30
0.0
 10
97.36804468051911
 20
-157.8701225733797
 30
0.0
 10
97.21404891232843
 20
-157.8987168659072
 30
0.0
 10
97.21404891232843
 20
-157.8987168659072
 30
0.0
 10
97.1031168377034
 20
-157.7609130464973
 30
0.0
 10
97.1031168377034
 20
-157.7609130464973
 30
0.0
 10
97.1031168377034
 20
-157.7609130464973
 30
0.0
 10
97.78696829152549
 20
-157.2479383287435
 30
0.0
 10
97.78696829152549
 20
-157.2479383287435
 30
0.0
 10
97.78696829152549
 20
-157.2479383287435
 30
0.0
 10
98.33749455006842
 20
-157.7984645872865
 30
0.0
 10
98.33749455006842
 20
-157.7984645872865
 30
0.0
 10
98.33749455006842
 20
-157.7984645872865
 30
0.0
 10
98.19969073065841
 20
-157.9362684066965
 30
0.0
 10
98.19969073065841
 20
-157.9362684066965
 30
0.0
 10
98.19969073065841
 20
-157.9362684066965
 30
0.0
 10
97.76423066132284
 20
-157.5008083373609
 30
0.0
 10
97.76423066132284
 20
-157.5008083373609
 30
0.0
 10
97.76423066132284
 20
-157.5008083373609
 30
0.0
 10
97.41903209370081
 20
-157.7536783459782
 30
0.0
 10
97.41903209370081
 20
-157.7536783459782
 30
0.0
 10
97.48621145566318
 20
-157.7733153902441
 30
0.0
 10
97.57302786189148
 20
-157.8029432114173
 30
0.0
 10
97.65674368218304
 20
-157.8866590317089
 30
0.0
 10
97.83623315696456
 20
-158.0661485064904
 30
0.0
 10
97.87206215001116
 20
-158.3651827946101
 30
0.0
 10
97.6505425103096
 20
-158.5867024343116
 30
0.0
 10
97.42626679421983
 20
-158.8109781504014
 30
0.0
 10
97.10173879950929
 20
-158.818557360469
 30
0.0
 10
96.88779836987528
 20
-158.6046169308349
 30
0.0
  0
HATCH
  5
D3
330
CC
100
AcDbEntity
  8
レイヤー 1
 62
   250
420
  2299925
440
 33554687
100
AcDbHatch
 10
0.0
 20
0.0
 30
0.0
210
0.0
220
0.0
230
1.0
  2
SOLID
 70
     1
 71
     1
 91
        1
 92
        1
 93
        1
 72
     4
 94
        3
 73
     0
 74
     0
 95
       53
 96
       49
 40
0.0
 40
0.0
 40
0.0
 40
0.0
 40
1.0
 40
1.0
 40
1.0
 40
2.0
 40
2.0
 40
2.0
 40
3.0
 40
3.0
 40
3.0
 40
4.0
 40
4.0
 40
4.0
 40
5.0
 40
5.0
 40
5.0
 40
6.0
 40
6.0
 40
6.0
 40
7.0
 40
7.0
 40
7.0
 40
8.0
 40
8.0
 40
8.0
 40
9.0
 40
9.0
 40
9.0
 40
10.0
 40
10.0
 40
10.0
 40
11.0
 40
11.0
 40
11.0
 40
12.0
 40
12.0
 40
12.0
 40
13.0
 40
13.0
 40
13.0
 40
14.0
 40
14.0
 40
14.0
 40
15.0
 40
15.0
 40
15.0
 40
16.0
 40
16.0
 40
16.0
 40
16.0
 10
96.88779836987528
 20
-158.6046169308349
 10
96.83267684211129
 20
-158.5494954030709
 10
96.77255992589367
 20
-158.4654350732308
 10
96.74586043588298
 20
-158.3489908458294
 10
96.70090193980048
 20
-158.1484862885879
 10
96.77858884299286
 20
-158.0406547998995
 10
96.84146183559867
 20
-157.9510823172831
 10
96.84146183559867
 20
-157.9510823172831
 10
96.99855818972606
 20
-158.1081786714104
 10
96.99855818972606
 20
-158.1081786714104
 10
96.89675561813693
 20
-158.2876681461919
 10
96.96582978261618
 20
-158.398600220817
 10
97.03163110638445
 20
-158.4644015445853
 10
97.13016083726261
 20
-158.5629312754634
 10
97.30792776430149
 20
-158.5997937971556
 10
97.47243107372218
 20
-158.4354627425092
 10
97.65364309624631
 20
-158.254250719985
 10
97.57578393827968
 20
-158.0778618311402
 10
97.490690079794
 20
-157.9927679726546
 10
97.46829695913987
 20
-157.9703748520004
 10
97.36804468051911
 20
-157.8701225733797
 10
97.21404891232843
 20
-157.8987168659072
 10
97.21404891232843
 20
-157.8987168659072
 10
97.1031168377034
 20
-157.7609130464973
 10
97.1031168377034
 20
-157.7609130464973
 10
97.1031168377034
 20
-157.7609130464973
 10
97.78696829152549
 20
-157.2479383287435
 10
97.78696829152549
 20
-157.2479383287435
 10
97.78696829152549
 20
-157.2479383287435
 10
98.33749455006842
 20
-157.7984645872865
 10
98.33749455006842
 20
-157.7984645872865
 10
98.33749455006842
 20
-157.7984645872865
 10
98.19969073065841
 20
-157.9362684066965
 10
98.19969073065841
 20
-157.9362684066965
 10
98.19969073065841
 20
-157.9362684066965
 10
97.76423066132284
 20
-157.5008083373609
 10
97.76423066132284
 20
-157.5008083373609
 10
97.76423066132284
 20
-157.5008083373609
 10
97.41903209370081
 20
-157.7536783459782
 10
97.41903209370081
 20
-157.7536783459782
 10
97.48621145566318
 20
-157.7733153902441
 10
97.57302786189148
 20
-157.8029432114173
 10
97.65674368218304
 20
-157.8866590317089
 10
97.83623315696456
 20
-158.0661485064904
 10
97.87206215001116
 20
-158.3651827946101
 10
97.6505425103096
 20
-158.5867024343116
 10
97.42626679421983
 20
-158.8109781504014
 10
97.10173879950929
 20
-158.818557360469
 10
96.88779836987528
 20
-158.6046169308349
 97
        0
 97
        1
330
D2
 75
     2
 76
     1
 98
        1
 10
0.0
 20
0.0
450
        0
451
        0
460
0.0
461
0.0
452
        0
462
0.0
453
        0
470

  0
ENDBLK
  5
CF
330
CC
100
AcDbEntity
  8
0
100
AcDbBlockEnd
  0
BLOCK
  5
D6
330
D4
100
AcDbEntity
  8
0
100
AcDbBlockBegin
  2
Block_11
 70
     0
 10
0.0
 20
0.0
 30
0.0
  3
Block_11
  1

  0
INSERT
  5
D9
330
D4
100
AcDbEntity
  8
レイヤー 1
100
AcDbBlockReference
  2
Block_12
 10
0.0
 20
0.0
 30
0.0
  0
INSERT
  5
E2
330
D4
100
AcDbEntity
  8
レイヤー 1
100
AcDbBlockReference
  2
Block_13
 10
0.0
 20
0.0
 30
0.0
  0
ENDBLK
  5
D7
330
D4
100
AcDbEntity
  8
0
100
AcDbBlockEnd
  0
BLOCK
  5
DA
330
D8
100
AcDbEntity
  8
0
100
AcDbBlockBegin
  2
Block_12
 70
     0
 10
0.0
 20
0.0
 30
0.0
  3
Block_12
  1

  0
SPLINE
  5
DC
330
D8
100
AcDbEntity
  8
レイヤー 1
 62
   250
420
  2299925
370
     9
100
AcDbSpline
210
0.0
220
0.0
230
1.0
 70
     9
 71
     3
 72
    17
 73
    13
 74
     0
 42
0.0000000001
 43
0.0000000001
 40
0.0
 40
0.0
 40
0.0
 40
0.0
 40
1.0
 40
1.0
 40
1.0
 40
2.0
 40
2.0
 40
2.0
 40
3.0
 40
3.0
 40
3.0
 40
4.0
 40
4.0
 40
4.0
 40
4.0
 10
89.02032743213649
 20
-130.8663490369487
 30
0.0
 10
89.02032743213649
 20
-130.8108923716972
 30
0.0
 10
88.97552465436975
 20
-130.7660895950621
 30
0.0
 10
88.92042076549484
 20
-130.7660895950621
 30
0.0
 10
88.86528159884177
 20
-130.7660895950621
 30
0.0
 10
88.82051409885319
 20
-130.8108923716972
 30
0.0
 10
88.82051409885319
 20
-130.8663490369487
 30
0.0
 10
88.82051409885319
 20
-130.9214464003386
 30
0.0
 10
88.86528159884177
 20
-130.9662491781053
 30
0.0
 10
88.92042076549484
 20
-130.9662491781053
 30
0.0
 10
88.97552465436975
 20
-130.9662491781053
 30
0.0
 10
89.02032743213649
 20
-130.9214464003386
 30
0.0
 10
89.02032743213649
 20
-130.8663490369487
 30
0.0
  0
CIRCLE
  5
DD
330
D8
100
AcDbEntity
  8
レイヤー 1
 62
   250
420
  2299925
370
     9
100
AcDbCircle
 10
88.92042076549484
 20
-150.8661696310351
 30
0.0
 40
0.0999066653797365
  0
LINE
  5
DE
330
D8
100
AcDbEntity
  8
レイヤー 1
 62
   250
420
  2299925
370
    13
100
AcDbLine
 10
88.92042076549484
 20
-150.8661693853337
 30
0.0
 11
88.92042076549484
 21
-130.8661693903334
 31
0.0
  0
LINE
  5
DF
330
D8
100
AcDbEntity
  8
レイヤー 1
 62
   250
420
  2299925
370
     9
100
AcDbLine
 10
91.18038576492965
 20
-150.8661696310351
 30
0.0
 11
87.92064854352231
 21
-150.8661696310351
 31
0.0
  0
LINE
  5
E0
330
D8
100
AcDbEntity
  8
レイヤー 1
 62
   250
420
  2299925
370
     9
100
AcDbLine
 10
90.68085243172147
 20
-130.8663490369487
 30
0.0
 11
87.92064854352231
 21
-130.8663490369487
 31
0.0
  0
ENDBLK
  5
DB
330
D8
100
AcDbEntity
  8
0
100
AcDbBlockEnd
  0
BLOCK
  5
E3
330
E1
100
AcDbEntity
  8
0
100
AcDbBlockBegin
  2
Block_13
 70
     0
 10
0.0
 20
0.0
 30
0.0
  3
Block_13
  1

  0
INSERT
  5
E6
330
E1
100
AcDbEntity
  8
レイヤー 1
100
AcDbBlockReference
  2
Block_14
 10
0.0
 20
0.0
 30
0.0
  0
ENDBLK
  5
E4
330
E1
100
AcDbEntity
  8
0
100
AcDbBlockEnd
  0
BLOCK
  5
E7
330
E5
100
AcDbEntity
  8
0
100
AcDbBlockBegin
  2
Block_14
 70
     0
 10
0.0
 20
0.0
 30
0.0
  3
Block_14
  1

  0
SPLINE
  5
E9
330
E5
100
AcDbEntity
  8
レイヤー 1
100
AcDbSpline
210
0.0
220
0.0
230
1.0
 70
     9
 71
     3
 72
    44
 73
    40
 74
     0
 42
0.0000000001
 43
0.0000000001
 40
0.0
 40
0.0
 40
0.0
 40
0.0
 40
1.0
 40
1.0
 40
1.0
 40
2.0
 40
2.0
 40
2.0
 40
3.0
 40
3.0
 40
3.0
 40
4.0
 40
4.0
 40
4.0
 40
5.0
 40
5.0
 40
5.0
 40
6.0
 40
6.0
 40
6.0
 40
7.0
 40
7.0
 40
7.0
 40
8.0
 40
8.0
 40
8.0
 40
9.0
 40
9.0
 40
9.0
 40
10.0
 40
10.0
 40
10.0
 40
11.0
 40
11.0
 40
11.0
 40
12.0
 40
12.0
 40
12.0
 40
13.0
 40
13.0
 40
13.0
 40
13.0
 10
87.62565915778109
 20
-141.3619140271595
 30
0.0
 10
87.78430580487684
 20
-141.5796440618273
 30
0.0
 10
87.85837535780972
 20
-141.672661639929
 30
0.0
 10
88.00220809431889
 20
-141.7215819958196
 30
0.0
 10
88.00220809431889
 20
-141.7215819958196
 30
0.0
 10
88.00220809431889
 20
-140.9429904161531
 30
0.0
 10
88.00220809431889
 20
-140.9429904161531
 30
0.0
 10
88.00220809431889
 20
-140.9429904161531
 30
0.0
 10
88.20736353046553
 20
-140.9429904161531
 30
0.0
 10
88.20736353046553
 20
-140.9429904161531
 30
0.0
 10
88.20736353046553
 20
-140.9429904161531
 30
0.0
 10
88.20736353046553
 20
-141.9710069089517
 30
0.0
 10
88.20736353046553
 20
-141.9710069089517
 30
0.0
 10
87.8497626190966
 20
-141.9393120304874
 30
0.0
 10
87.77155895158143
 20
-141.8738552162676
 30
0.0
 10
87.47321368255878
 20
-141.4886935410167
 30
0.0
 10
87.27443167305986
 20
-141.2327229464627
 30
0.0
 10
87.20673554677471
 20
-141.1672661322429
 30
0.0
 10
87.06927623691324
 20
-141.1672661322429
 30
0.0
 10
86.95076495222066
 20
-141.1672661322429
 30
0.0
 10
86.81950681423263
 20
-141.2392686278846
 30
0.0
 10
86.81950681423263
 20
-141.4359835800924
 30
0.0
 10
86.81950681423263
 20
-141.6960882892287
 30
0.0
 10
87.05015595697011
 20
-141.7047010279419
 30
0.0
 10
87.16660018437154
 20
-141.7088351425242
 30
0.0
 10
87.16660018437154
 20
-141.7088351425242
 30
0.0
 10
87.16660018437154
 20
-141.9331108586139
 30
0.0
 10
87.16660018437154
 20
-141.9331108586139
 30
0.0
 10
87.03964841574009
 20
-141.9244981199008
 30
0.0
 10
86.92751055769521
 20
-141.9138183238965
 30
0.0
 10
86.80899927300261
 20
-141.8335475990902
 30
0.0
 10
86.6482855686157
 20
-141.7236490531107
 30
0.0
 10
86.614351378086
 20
-141.5372693873587
 30
0.0
 10
86.614351378086
 20
-141.4211696695058
 30
0.0
 10
86.614351378086
 20
-141.1438394829432
 30
0.0
 10
86.7984917317726
 20
-140.9364447347311
 30
0.0
 10
87.07134329420439
 20
-140.9364447347311
 30
0.0
 10
87.29975312487646
 20
-140.9364447347311
 30
0.0
 10
87.39931638440017
 20
-141.0528889621326
 30
0.0
 10
87.62565915778109
 20
-141.3619140271595
 30
0.0
  0
HATCH
  5
EA
330
E5
100
AcDbEntity
  8
レイヤー 1
 62
   250
420
  2299925
440
 33554687
100
AcDbHatch
 10
0.0
 20
0.0
 30
0.0
210
0.0
220
0.0
230
1.0
  2
SOLID
 70
     1
 71
     1
 91
        1
 92
        1
 93
        1
 72
     4
 94
        3
 73
     0
 74
     0
 95
       44
 96
       40
 40
0.0
 40
0.0
 40
0.0
 40
0.0
 40
1.0
 40
1.0
 40
1.0
 40
2.0
 40
2.0
 40
2.0
 40
3.0
 40
3.0
 40
3.0
 40
4.0
 40
4.0
 40
4.0
 40
5.0
 40
5.0
 40
5.0
 40
6.0
 40
6.0
 40
6.0
 40
7.0
 40
7.0
 40
7.0
 40
8.0
 40
8.0
 40
8.0
 40
9.0
 40
9.0
 40
9.0
 40
10.0
 40
10.0
 40
10.0
 40
11.0
 40
11.0
 40
11.0
 40
12.0
 40
12.0
 40
12.0
 40
13.0
 40
13.0
 40
13.0
 40
13.0
 10
87.62565915778109
 20
-141.3619140271595
 10
87.78430580487684
 20
-141.5796440618273
 10
87.85837535780972
 20
-141.672661639929
 10
88.00220809431889
 20
-141.7215819958196
 10
88.00220809431889
 20
-141.7215819958196
 10
88.00220809431889
 20
-140.9429904161531
 10
88.00220809431889
 20
-140.9429904161531
 10
88.00220809431889
 20
-140.9429904161531
 10
88.20736353046553
 20
-140.9429904161531
 10
88.20736353046553
 20
-140.9429904161531
 10
88.20736353046553
 20
-140.9429904161531
 10
88.20736353046553
 20
-141.9710069089517
 10
88.20736353046553
 20
-141.9710069089517
 10
87.8497626190966
 20
-141.9393120304874
 10
87.77155895158143
 20
-141.8738552162676
 10
87.47321368255878
 20
-141.4886935410167
 10
87.27443167305986
 20
-141.2327229464627
 10
87.20673554677471
 20
-141.1672661322429
 10
87.06927623691324
 20
-141.1672661322429
 10
86.95076495222066
 20
-141.1672661322429
 10
86.81950681423263
 20
-141.2392686278846
 10
86.81950681423263
 20
-141.4359835800924
 10
86.81950681423263
 20
-141.6960882892287
 10
87.05015595697011
 20
-141.7047010279419
 10
87.16660018437154
 20
-141.7088351425242
 10
87.16660018437154
 20
-141.7088351425242
 10
87.16660018437154
 20
-141.9331108586139
 10
87.16660018437154
 20
-141.9331108586139
 10
87.03964841574009
 20
-141.9244981199008
 10
86.92751055769521
 20
-141.9138183238965
 10
86.80899927300261
 20
-141.8335475990902
 10
86.6482855686157
 20
-141.7236490531107
 10
86.614351378086
 20
-141.5372693873587
 10
86.614351378086
 20
-141.4211696695058
 10
86.614351378086
 20
-141.1438394829432
 10
86.7984917317726
 20
-140.9364447347311
 10
87.07134329420439
 20
-140.9364447347311
 10
87.29975312487646
 20
-140.9364447347311
 10
87.39931638440017
 20
-141.0528889621326
 10
87.62565915778109
 20
-141.3619140271595
 97
        0
 97
        1
330
E9
 75
     2
 76
     1
 98
        1
 10
0.0
 20
0.0
450
        0
451
        0
460
0.0
461
0.0
452
        0
462
0.0
453
        0
470

  0
SPLINE
  5
EB
330
E5
100
AcDbEntity
  8
レイヤー 1
100
AcDbSpline
210
0.0
220
0.0
230
1.0
 70
     9
 71
     3
 72
    17
 73
    13
 74
     0
 42
0.0000000001
 43
0.0000000001
 40
0.0
 40
0.0
 40
0.0
 40
0.0
 40
1.0
 40
1.0
 40
1.0
 40
2.0
 40
2.0
 40
2.0
 40
3.0
 40
3.0
 40
3.0
 40
4.0
 40
4.0
 40
4.0
 40
4.0
 10
86.80693221571146
 20
-140.2780869874999
 30
0.0
 10
86.80693221571146
 20
-140.5276841554063
 30
0.0
 10
87.09029131937326
 20
-140.5743651992314
 30
0.0
 10
87.43514537744678
 20
-140.5743651992314
 30
0.0
 10
87.75467798370369
 20
-140.5743651992314
 30
0.0
 10
88.06353079395634
 20
-140.5381916966363
 30
0.0
 10
88.06353079395634
 20
-140.2780869874999
 30
0.0
 10
88.06353079395634
 20
-140.0305568768847
 30
0.0
 10
87.78206649281143
 20
-139.9818087757684
 30
0.0
 10
87.43514537744678
 20
-139.9818087757684
 30
0.0
 10
87.11578502596411
 20
-139.9818087757684
 30
0.0
 10
86.80693221571146
 20
-140.0200493356547
 30
0.0
 10
86.80693221571146
 20
-140.2780869874999
 30
0.0
  0
SPLINE
  5
EC
330
E5
100
AcDbEntity
  8
レイヤー 1
100
AcDbSpline
210
0.0
220
0.0
230
1.0
 70
     9
 71
     3
 72
    29
 73
    25
 74
     0
 42
0.0000000001
 43
0.0000000001
 40
0.0
 40
0.0
 40
0.0
 40
0.0
 40
1.0
 40
1.0
 40
1.0
 40
2.0
 40
2.0
 40
2.0
 40
3.0
 40
3.0
 40
3.0
 40
4.0
 40
4.0
 40
4.0
 40
5.0
 40
5.0
 40
5.0
 40
6.0
 40
6.0
 40
6.0
 40
7.0
 40
7.0
 40
7.0
 40
8.0
 40
8.0
 40
8.0
 40
8.0
 10
88.02959660342663
 20
-139.8803507137278
 30
0.0
 10
88.23905840892981
 20
-139.9881822024162
 30
0.0
 10
88.25817868887297
 20
-140.1616427600985
 30
0.0
 10
88.25817868887297
 20
-140.2780869874999
 30
0.0
 10
88.25817868887297
 20
-140.4388006918868
 30
0.0
 10
88.21166989982208
 20
-140.5805663711048
 30
0.0
 10
88.02959660342663
 20
-140.6756510064977
 30
0.0
 10
87.83512096328427
 20
-140.7793483806037
 30
0.0
 10
87.59809839389909
 20
-140.7986409153212
 30
0.0
 10
87.43514537744678
 20
-140.7986409153212
 30
0.0
 10
87.29131264093759
 20
-140.7986409153212
 30
0.0
 10
87.03964841574009
 20
-140.7814154378949
 30
0.0
 10
86.84069415146693
 20
-140.6756510064977
 30
0.0
 10
86.63760577261143
 20
-140.5678195178094
 30
0.0
 10
86.614351378086
 20
-140.4071058134225
 30
0.0
 10
86.614351378086
 20
-140.2780869874999
 30
0.0
 10
86.614351378086
 20
-140.1194403404041
 30
0.0
 10
86.65879310984571
 20
-139.975607603895
 30
0.0
 10
86.84069415146693
 20
-139.8803507137278
 30
0.0
 10
87.03327498909237
 20
-139.7809597089783
 30
0.0
 10
87.26168481976444
 20
-139.7577053144529
 30
0.0
 10
87.43514537744678
 20
-139.7577053144529
 30
0.0
 10
87.60653887783794
 20
-139.7577053144529
 30
0.0
 10
87.83718802057542
 20
-139.7787203969129
 30
0.0
 10
88.02959660342663
 20
-139.8803507137278
 30
0.0
  0
HATCH
  5
ED
330
E5
100
AcDbEntity
  8
レイヤー 1
 62
   250
420
  2299925
440
 33554687
100
AcDbHatch
 10
0.0
 20
0.0
 30
0.0
210
0.0
220
0.0
230
1.0
  2
SOLID
 70
     1
 71
     1
 91
        2
 92
        1
 93
        1
 72
     4
 94
        3
 73
     0
 74
     0
 95
       17
 96
       13
 40
0.0
 40
0.0
 40
0.0
 40
0.0
 40
1.0
 40
1.0
 40
1.0
 40
2.0
 40
2.0
 40
2.0
 40
3.0
 40
3.0
 40
3.0
 40
4.0
 40
4.0
 40
4.0
 40
4.0
 10
86.80693221571146
 20
-140.2780869874999
 10
86.80693221571146
 20
-140.5276841554063
 10
87.09029131937326
 20
-140.5743651992314
 10
87.43514537744678
 20
-140.5743651992314
 10
87.75467798370369
 20
-140.5743651992314
 10
88.06353079395634
 20
-140.5381916966363
 10
88.06353079395634
 20
-140.2780869874999
 10
88.06353079395634
 20
-140.0305568768847
 10
87.78206649281143
 20
-139.9818087757684
 10
87.43514537744678
 20
-139.9818087757684
 10
87.11578502596411
 20
-139.9818087757684
 10
86.80693221571146
 20
-140.0200493356547
 10
86.80693221571146
 20
-140.2780869874999
 97
        0
 97
        1
330
EB
 92
        1
 93
        1
 72
     4
 94
        3
 73
     0
 74
     0
 95
       29
 96
       25
 40
0.0
 40
0.0
 40
0.0
 40
0.0
 40
1.0
 40
1.0
 40
1.0
 40
2.0
 40
2.0
 40
2.0
 40
3.0
 40
3.0
 40
3.0
 40
4.0
 40
4.0
 40
4.0
 40
5.0
 40
5.0
 40
5.0
 40
6.0
 40
6.0
 40
6.0
 40
7.0
 40
7.0
 40
7.0
 40
8.0
 40
8.0
 40
8.0
 40
8.0
 10
88.02959660342663
 20
-139.8803507137278
 10
88.23905840892981
 20
-139.9881822024162
 10
88.25817868887297
 20
-140.1616427600985
 10
88.25817868887297
 20
-140.2780869874999
 10
88.25817868887297
 20
-140.4388006918868
 10
88.21166989982208
 20
-140.5805663711048
 10
88.02959660342663
 20
-140.6756510064977
 10
87.83512096328427
 20
-140.7793483806037
 10
87.59809839389909
 20
-140.7986409153212
 10
87.43514537744678
 20
-140.7986409153212
 10
87.29131264093759
 20
-140.7986409153212
 10
87.03964841574009
 20
-140.7814154378949
 10
86.84069415146693
 20
-140.6756510064977
 10
86.63760577261143
 20
-140.5678195178094
 10
86.614351378086
 20
-140.4071058134225
 10
86.614351378086
 20
-140.2780869874999
 10
86.614351378086
 20
-140.1194403404041
 10
86.65879310984571
 20
-139.975607603895
 10
86.84069415146693
 20
-139.8803507137278
 10
87.03327498909237
 20
-139.7809597089783
 10
87.26168481976444
 20
-139.7577053144529
 10
87.43514537744678
 20
-139.7577053144529
 10
87.60653887783794
 20
-139.7577053144529
 10
87.83718802057542
 20
-139.7787203969129
 10
88.02959660342663
 20
-139.8803507137278
 97
        0
 97
        1
330
EC
 75
     2
 76
     1
 98
        1
 10
0.0
 20
0.0
450
        0
451
        0
460
0.0
461
0.0
452
        0
462
0.0
453
        0
470

  0
ENDBLK
  5
E8
330
E5
100
AcDbEntity
  8
0
100
AcDbBlockEnd
  0
BLOCK
  5
F0
330
EE
100
AcDbEntity
  8
0
100
AcDbBlockBegin
  2
Block_15
 70
     0
 10
0.0
 20
0.0
 30
0.0
  3
Block_15
  1

  0
INSERT
  5
F3
330
EE
100
AcDbEntity
  8
レイヤー 1
100
AcDbBlockReference
  2
Block_16
 10
0.0
 20
0.0
 30
0.0
  0
LINE
  5
114
330
EE
100
AcDbEntity
  8
レイヤー 1
 62
   250
420
  2299925
370
     9
100
AcDbLine
 10
104.3653399053518
 20
-159.9210594900384
 30
0.0
 11
104.6237143432046
 21
-158.9550481257939
 31
0.0
  0
LINE
  5
115
330
EE
100
AcDbEntity
  8
レイヤー 1
 62
   250
420
  2299925
370
     9
100
AcDbLine
 10
104.3653399053518
 20
-159.921059366347
 30
0.0
 11
104.3653399053518
 21
-151.4038882970956
 31
0.0
  0
LINE
  5
116
330
EE
100
AcDbEntity
  8
レイヤー 1
 62
   250
420
  2299925
370
     9
100
AcDbLine
 10
104.3653399053518
 20
-159.9210594900384
 30
0.0
 11
104.1062599119615
 21
-158.9550481257939
 31
0.0
  0
LINE
  5
117
330
EE
100
AcDbEntity
  8
レイヤー 1
 62
   250
420
  2299925
370
     9
100
AcDbLine
 10
94.95078435772478
 20
-150.2494468098825
 30
0.0
 11
95.91679572198023
 21
-150.5078212476916
 31
0.0
  0
LINE
  5
118
330
EE
100
AcDbEntity
  8
レイヤー 1
 62
   250
420
  2299925
370
     9
100
AcDbLine
 10
94.9508028747668
 20
-150.2494449928506
 30
0.0
 11
102.8047734825669
 21
-150.2494449926087
 31
0.0
  0
LINE
  5
119
330
EE
100
AcDbEntity
  8
レイヤー 1
 62
   250
420
  2299925
370
     9
100
AcDbLine
 10
94.95078435772478
 20
-150.2494468098825
 30
0.0
 11
95.91679572195713
 21
-149.9903668164485
 31
0.0
  0
ENDBLK
  5
F1
330
EE
100
AcDbEntity
  8
0
100
AcDbBlockEnd
  0
BLOCK
  5
F4
330
F2
100
AcDbEntity
  8
0
100
AcDbBlockBegin
  2
Block_16
 70
     0
 10
0.0
 20
0.0
 30
0.0
  3
Block_16
  1

  0
INSERT
  5
F7
330
F2
100
AcDbEntity
  8
レイヤー 1
100
AcDbBlockReference
  2
Block_17
 10
0.0
 20
0.0
 30
0.0
  0
ENDBLK
  5
F5
330
F2
100
AcDbEntity
  8
0
100
AcDbBlockEnd
  0
BLOCK
  5
F8
330
F6
100
AcDbEntity
  8
0
100
AcDbBlockBegin
  2
Block_17
 70
     0
 10
0.0
 20
0.0
 30
0.0
  3
Block_17
  1

  0
SPLINE
  5
FA
330
F6
100
AcDbEntity
  8
レイヤー 1
100
AcDbSpline
210
0.0
220
0.0
230
1.0
 70
     9
 71
     3
 72
    41
 73
    37
 74
     0
 42
0.0000000001
 43
0.0000000001
 40
0.0
 40
0.0
 40
0.0
 40
0.0
 40
1.0
 40
1.0
 40
1.0
 40
2.0
 40
2.0
 40
2.0
 40
3.0
 40
3.0
 40
3.0
 40
4.0
 40
4.0
 40
4.0
 40
5.0
 40
5.0
 40
5.0
 40
6.0
 40
6.0
 40
6.0
 40
7.0
 40
7.0
 40
7.0
 40
8.0
 40
8.0
 40
8.0
 40
9.0
 40
9.0
 40
9.0
 40
10.0
 40
10.0
 40
10.0
 40
11.0
 40
11.0
 40
11.0
 40
12.0
 40
12.0
 40
12.0
 40
12.0
 10
105.2521456985133
 20
-151.0198947105089
 30
0.0
 10
105.0109890145458
 20
-150.8848469674871
 30
0.0
 10
104.833222087507
 20
-150.5885687557556
 30
0.0
 10
104.7929144703295
 20
-150.4593776750587
 30
0.0
 10
104.6723361283458
 20
-150.7236164987774
 30
0.0
 10
104.509727621442
 20
-150.9013834258163
 30
0.0
 10
104.3278265798208
 20
-151.0157605959266
 30
0.0
 10
104.3278265798208
 20
-151.0157605959266
 30
0.0
 10
104.1307671180645
 20
-150.8783012860651
 30
0.0
 10
104.1307671180645
 20
-150.8783012860651
 30
0.0
 10
104.2007025564151
 20
-150.8531520890228
 30
0.0
 10
104.3467746049897
 20
-150.7914848798368
 30
0.0
 10
104.4694200042646
 20
-150.6371446020976
 30
0.0
 10
104.5941324608306
 20
-150.4803927575188
 30
0.0
 10
104.6830159243501
 20
-150.2478488122644
 30
0.0
 10
104.6830159243501
 20
-149.987744103128
 30
0.0
 10
104.6830159243501
 20
-149.8861137863132
 30
0.0
 10
104.6702690710546
 20
-149.8141112906715
 30
0.0
 10
104.6599337845989
 20
-149.7676025016206
 30
0.0
 10
104.6599337845989
 20
-149.7676025016206
 30
0.0
 10
104.8649169659712
 20
-149.7886175840806
 30
0.0
 10
104.8649169659712
 20
-149.7886175840806
 30
0.0
 10
104.8862765579798
 20
-149.7906846413718
 30
0.0
 10
104.9072916404398
 20
-149.7930962082114
 30
0.0
 10
104.9072916404398
 20
-149.8141112906715
 30
0.0
 10
104.9072916404398
 20
-149.8334038253888
 30
0.0
 10
104.8966118444355
 20
-149.8416720545534
 30
0.0
 10
104.8628499086801
 20
-149.863031646562
 30
0.0
 10
104.8545816795155
 20
-150.0638807133521
 30
0.0
 10
104.9114257550221
 20
-150.3071044546107
 30
0.0
 10
104.9727484546596
 20
-150.4276827965944
 30
0.0
 10
105.0636989754702
 20
-150.6030381567937
 30
0.0
 10
105.2583468703868
 20
-150.7828721411237
 30
0.0
 10
105.3937391229571
 20
-150.8400607261789
 30
0.0
 10
105.3937391229571
 20
-150.8400607261789
 30
0.0
 10
105.2521456985133
 20
-151.0198947105089
 30
0.0
 10
105.2521456985133
 20
-151.0198947105089
 30
0.0
  0
SPLINE
  5
FB
330
F6
100
AcDbEntity
  8
レイヤー 1
100
AcDbSpline
210
0.0
220
0.0
230
1.0
 70
    11
 71
     3
 72
    17
 73
    13
 74
     0
 42
0.0000000001
 43
0.0000000001
 40
0.0
 40
0.0
 40
0.0
 40
0.0
 40
1.0
 40
1.0
 40
1.0
 40
2.0
 40
2.0
 40
2.0
 40
3.0
 40
3.0
 40
3.0
 40
4.0
 40
4.0
 40
4.0
 40
4.0
 10
104.1628065060773
 20
-150.0614691465124
 30
0.0
 10
104.1628065060773
 20
-150.0614691465124
 30
0.0
 10
104.0019205469162
 20
-150.0614691465124
 30
0.0
 10
104.0019205469162
 20
-150.0614691465124
 30
0.0
 10
104.0019205469162
 20
-150.0614691465124
 30
0.0
 10
104.0019205469162
 20
-150.1910047367578
 30
0.0
 10
104.0019205469162
 20
-150.1910047367578
 30
0.0
 10
104.0019205469162
 20
-150.1910047367578
 30
0.0
 10
104.1628065060773
 20
-150.1910047367578
 30
0.0
 10
104.1628065060773
 20
-150.1910047367578
 30
0.0
 10
104.1628065060773
 20
-150.1910047367578
 30
0.0
 10
104.1628065060773
 20
-150.0614691465124
 30
0.0
 10
104.1628065060773
 20
-150.0614691465124
 30
0.0
  0
SPLINE
  5
FC
330
F6
100
AcDbEntity
  8
レイヤー 1
100
AcDbSpline
210
0.0
220
0.0
230
1.0
 70
    11
 71
     3
 72
    17
 73
    13
 74
     0
 42
0.0000000001
 43
0.0000000001
 40
0.0
 40
0.0
 40
0.0
 40
0.0
 40
1.0
 40
1.0
 40
1.0
 40
2.0
 40
2.0
 40
2.0
 40
3.0
 40
3.0
 40
3.0
 40
4.0
 40
4.0
 40
4.0
 40
4.0
 10
104.1628065060773
 20
-149.7886175840806
 30
0.0
 10
104.1628065060773
 20
-149.7886175840806
 30
0.0
 10
104.0019205469162
 20
-149.7886175840806
 30
0.0
 10
104.0019205469162
 20
-149.7886175840806
 30
0.0
 10
104.0019205469162
 20
-149.7886175840806
 30
0.0
 10
104.0019205469162
 20
-149.9178086647775
 30
0.0
 10
104.0019205469162
 20
-149.9178086647775
 30
0.0
 10
104.0019205469162
 20
-149.9178086647775
 30
0.0
 10
104.1628065060773
 20
-149.9178086647775
 30
0.0
 10
104.1628065060773
 20
-149.9178086647775
 30
0.0
 10
104.1628065060773
 20
-149.9178086647775
 30
0.0
 10
104.1628065060773
 20
-149.7886175840806
 30
0.0
 10
104.1628065060773
 20
-149.7886175840806
 30
0.0
  0
SPLINE
  5
FD
330
F6
100
AcDbEntity
  8
レイヤー 1
100
AcDbSpline
210
0.0
220
0.0
230
1.0
 70
    11
 71
     3
 72
    17
 73
    13
 74
     0
 42
0.0000000001
 43
0.0000000001
 40
0.0
 40
0.0
 40
0.0
 40
0.0
 40
1.0
 40
1.0
 40
1.0
 40
2.0
 40
2.0
 40
2.0
 40
3.0
 40
3.0
 40
3.0
 40
4.0
 40
4.0
 40
4.0
 40
4.0
 10
103.8303547917507
 20
-150.0614691465124
 30
0.0
 10
103.8303547917507
 20
-150.0614691465124
 30
0.0
 10
103.6718803994292
 20
-150.0614691465124
 30
0.0
 10
103.6718803994292
 20
-150.0614691465124
 30
0.0
 10
103.6718803994292
 20
-150.0614691465124
 30
0.0
 10
103.6718803994292
 20
-150.1910047367578
 30
0.0
 10
103.6718803994292
 20
-150.1910047367578
 30
0.0
 10
103.6718803994292
 20
-150.1910047367578
 30
0.0
 10
103.8303547917507
 20
-150.1910047367578
 30
0.0
 10
103.8303547917507
 20
-150.1910047367578
 30
0.0
 10
103.8303547917507
 20
-150.1910047367578
 30
0.0
 10
103.8303547917507
 20
-150.0614691465124
 30
0.0
 10
103.8303547917507
 20
-150.0614691465124
 30
0.0
  0
SPLINE
  5
FE
330
F6
100
AcDbEntity
  8
レイヤー 1
100
AcDbSpline
210
0.0
220
0.0
230
1.0
 70
    11
 71
     3
 72
    17
 73
    13
 74
     0
 42
0.0000000001
 43
0.0000000001
 40
0.0
 40
0.0
 40
0.0
 40
0.0
 40
1.0
 40
1.0
 40
1.0
 40
2.0
 40
2.0
 40
2.0
 40
3.0
 40
3.0
 40
3.0
 40
4.0
 40
4.0
 40
4.0
 40
4.0
 10
103.8303547917507
 20
-149.7886175840806
 30
0.0
 10
103.8303547917507
 20
-149.7886175840806
 30
0.0
 10
103.6718803994292
 20
-149.7886175840806
 30
0.0
 10
103.6718803994292
 20
-149.7886175840806
 30
0.0
 10
103.6718803994292
 20
-149.7886175840806
 30
0.0
 10
103.6718803994292
 20
-149.9178086647775
 30
0.0
 10
103.6718803994292
 20
-149.9178086647775
 30
0.0
 10
103.6718803994292
 20
-149.9178086647775
 30
0.0
 10
103.8303547917507
 20
-149.9178086647775
 30
0.0
 10
103.8303547917507
 20
-149.9178086647775
 30
0.0
 10
103.8303547917507
 20
-149.9178086647775
 30
0.0
 10
103.8303547917507
 20
-149.7886175840806
 30
0.0
 10
103.8303547917507
 20
-149.7886175840806
 30
0.0
  0
SPLINE
  5
FF
330
F6
100
AcDbEntity
  8
レイヤー 1
100
AcDbSpline
210
0.0
220
0.0
230
1.0
 70
     9
 71
     3
 72
   197
 73
   193
 74
     0
 42
0.0000000001
 43
0.0000000001
 40
0.0
 40
0.0
 40
0.0
 40
0.0
 40
1.0
 40
1.0
 40
1.0
 40
2.0
 40
2.0
 40
2.0
 40
3.0
 40
3.0
 40
3.0
 40
4.0
 40
4.0
 40
4.0
 40
5.0
 40
5.0
 40
5.0
 40
6.0
 40
6.0
 40
6.0
 40
7.0
 40
7.0
 40
7.0
 40
8.0
 40
8.0
 40
8.0
 40
9.0
 40
9.0
 40
9.0
 40
10.0
 40
10.0
 40
10.0
 40
11.0
 40
11.0
 40
11.0
 40
12.0
 40
12.0
 40
12.0
 40
13.0
 40
13.0
 40
13.0
 40
14.0
 40
14.0
 40
14.0
 40
15.0
 40
15.0
 40
15.0
 40
16.0
 40
16.0
 40
16.0
 40
17.0
 40
17.0
 40
17.0
 40
18.0
 40
18.0
 40
18.0
 40
19.0
 40
19.0
 40
19.0
 40
20.0
 40
20.0
 40
20.0
 40
21.0
 40
21.0
 40
21.0
 40
22.0
 40
22.0
 40
22.0
 40
23.0
 40
23.0
 40
23.0
 40
24.0
 40
24.0
 40
24.0
 40
25.0
 40
25.0
 40
25.0
 40
26.0
 40
26.0
 40
26.0
 40
27.0
 40
27.0
 40
27.0
 40
28.0
 40
28.0
 40
28.0
 40
29.0
 40
29.0
 40
29.0
 40
30.0
 40
30.0
 40
30.0
 40
31.0
 40
31.0
 40
31.0
 40
32.0
 40
32.0
 40
32.0
 40
33.0
 40
33.0
 40
33.0
 40
34.0
 40
34.0
 40
34.0
 40
35.0
 40
35.0
 40
35.0
 40
36.0
 40
36.0
 40
36.0
 40
37.0
 40
37.0
 40
37.0
 40
38.0
 40
38.0
 40
38.0
 40
39.0
 40
39.0
 40
39.0
 40
40.0
 40
40.0
 40
40.0
 40
41.0
 40
41.0
 40
41.0
 40
42.0
 40
42.0
 40
42.0
 40
43.0
 40
43.0
 40
43.0
 40
44.0
 40
44.0
 40
44.0
 40
45.0
 40
45.0
 40
45.0
 40
46.0
 40
46.0
 40
46.0
 40
47.0
 40
47.0
 40
47.0
 40
48.0
 40
48.0
 40
48.0
 40
49.0
 40
49.0
 40
49.0
 40
50.0
 40
50.0
 40
50.0
 40
51.0
 40
51.0
 40
51.0
 40
52.0
 40
52.0
 40
52.0
 40
53.0
 40
53.0
 40
53.0
 40
54.0
 40
54.0
 40
54.0
 40
55.0
 40
55.0
 40
55.0
 40
56.0
 40
56.0
 40
56.0
 40
57.0
 40
57.0
 40
57.0
 40
58.0
 40
58.0
 40
58.0
 40
59.0
 40
59.0
 40
59.0
 40
60.0
 40
60.0
 40
60.0
 40
61.0
 40
61.0
 40
61.0
 40
62.0
 40
62.0
 40
62.0
 40
63.0
 40
63.0
 40
63.0
 40
64.0
 40
64.0
 40
64.0
 40
64.0
 10
105.3368950474505
 20
-149.6639051275146
 30
0.0
 10
105.3262152514462
 20
-149.6935329486877
 30
0.0
 10
105.3027886021465
 20
-149.7403862472871
 30
0.0
 10
105.2924533156907
 20
-149.7676025016206
 30
0.0
 10
105.2924533156907
 20
-149.7676025016206
 30
0.0
 10
105.2311306160533
 20
-149.9202202316172
 30
0.0
 10
105.2311306160533
 20
-149.9202202316172
 30
0.0
 10
105.220450820049
 20
-149.9453694286595
 30
0.0
 10
105.171874973707
 20
-150.0573350319301
 30
0.0
 10
105.1591281204116
 20
-150.0807616812298
 30
0.0
 10
105.1570610631204
 20
-150.0869628531033
 30
0.0
 10
105.1525824389896
 20
-150.0955755918164
 30
0.0
 10
105.1505153816985
 20
-150.1021212732383
 30
0.0
 10
105.1505153816985
 20
-150.1021212732383
 30
0.0
 10
104.9410535761953
 20
-150.0490668027655
 30
0.0
 10
104.9410535761953
 20
-150.0490668027655
 30
0.0
 10
105.019601753259
 20
-149.9388237472375
 30
0.0
 10
105.0809244528964
 20
-149.8037760042157
 30
0.0
 10
105.1126193313607
 20
-149.6935329486877
 30
0.0
 10
105.1126193313607
 20
-149.6935329486877
 30
0.0
 10
104.6471869313035
 20
-149.6935329486877
 30
0.0
 10
104.6471869313035
 20
-149.6935329486877
 30
0.0
 10
104.5665716969486
 20
-149.8585530224312
 30
0.0
 10
104.4990478254377
 20
-149.9367566899463
 30
0.0
 10
104.4652858896823
 20
-149.9770643071238
 30
0.0
 10
104.4652858896823
 20
-149.9770643071238
 30
0.0
 10
104.3426404904074
 20
-149.9112629833555
 30
0.0
 10
104.3426404904074
 20
-149.9112629833555
 30
0.0
 10
104.3426404904074
 20
-149.9112629833555
 30
0.0
 10
104.3426404904074
 20
-150.0828287385209
 30
0.0
 10
104.3426404904074
 20
-150.0828287385209
 30
0.0
 10
104.3426404904074
 20
-150.1910047367578
 30
0.0
 10
104.3447075476985
 20
-150.2392360735513
 30
0.0
 10
104.3550428341543
 20
-150.345345014497
 30
0.0
 10
104.2833848480611
 20
-150.3432779572058
 30
0.0
 10
104.2620252560525
 20
-150.3432779572058
 30
0.0
 10
104.0570420746802
 20
-150.3432779572058
 30
0.0
 10
104.0570420746802
 20
-150.3432779572058
 30
0.0
 10
104.0019205469162
 20
-150.3432779572058
 30
0.0
 10
104.0019205469162
 20
-150.3432779572058
 30
0.0
 10
104.0019205469162
 20
-150.3432779572058
 30
0.0
 10
104.0019205469162
 20
-150.4783257002276
 30
0.0
 10
104.0019205469162
 20
-150.4783257002276
 30
0.0
 10
104.0019205469162
 20
-150.4783257002276
 30
0.0
 10
104.0739230425579
 20
-150.4783257002276
 30
0.0
 10
104.0739230425579
 20
-150.4783257002276
 30
0.0
 10
104.1393798567776
 20
-150.4783257002276
 30
0.0
 10
104.2854519053522
 20
-150.4741915856453
 30
0.0
 10
104.3912163367494
 20
-150.4659233564807
 30
0.0
 10
104.3912163367494
 20
-150.4659233564807
 30
0.0
 10
104.3912163367494
 20
-150.6436902835196
 30
0.0
 10
104.3912163367494
 20
-150.6436902835196
 30
0.0
 10
104.2937201345168
 20
-150.6371446020976
 30
0.0
 10
104.1352457421953
 20
-150.6326659779668
 30
0.0
 10
104.0739230425579
 20
-150.6326659779668
 30
0.0
 10
104.0739230425579
 20
-150.6326659779668
 30
0.0
 10
104.0019205469162
 20
-150.6326659779668
 30
0.0
 10
104.0019205469162
 20
-150.6326659779668
 30
0.0
 10
104.0039876042073
 20
-150.7215494414863
 30
0.0
 10
104.0081217187896
 20
-150.9606390681626
 30
0.0
 10
104.0101887760808
 20
-151.035053130644
 30
0.0
 10
104.0101887760808
 20
-151.035053130644
 30
0.0
 10
103.8093397092907
 20
-151.035053130644
 30
0.0
 10
103.8093397092907
 20
-151.035053130644
 30
0.0
 10
103.8220865625861
 20
-150.82111270101
 30
0.0
 10
103.8220865625861
 20
-150.7914848798368
 30
0.0
 10
103.8262206771684
 20
-150.6326659779668
 30
0.0
 10
103.8262206771684
 20
-150.6326659779668
 30
0.0
 10
103.7566297483664
 20
-150.6326659779668
 30
0.0
 10
103.7566297483664
 20
-150.6326659779668
 30
0.0
 10
103.6994411633112
 20
-150.6326659779668
 30
0.0
 10
103.5471679428632
 20
-150.6371446020976
 30
0.0
 10
103.4369248873352
 20
-150.6436902835196
 30
0.0
 10
103.4369248873352
 20
-150.6436902835196
 30
0.0
 10
103.4369248873352
 20
-150.4659233564807
 30
0.0
 10
103.4369248873352
 20
-150.4659233564807
 30
0.0
 10
103.5426893187324
 20
-150.4741915856453
 30
0.0
 10
103.6866943100158
 20
-150.4783257002276
 30
0.0
 10
103.7566297483664
 20
-150.4783257002276
 30
0.0
 10
103.7566297483664
 20
-150.4783257002276
 30
0.0
 10
103.8303547917507
 20
-150.4783257002276
 30
0.0
 10
103.8303547917507
 20
-150.4783257002276
 30
0.0
 10
103.8303547917507
 20
-150.4783257002276
 30
0.0
 10
103.8303547917507
 20
-150.3432779572058
 30
0.0
 10
103.8303547917507
 20
-150.3432779572058
 30
0.0
 10
103.8303547917507
 20
-150.3432779572058
 30
0.0
 10
103.7862575695395
 20
-150.3432779572058
 30
0.0
 10
103.7862575695395
 20
-150.3432779572058
 30
0.0
 10
103.709776449767
 20
-150.3432779572058
 30
0.0
 10
103.51754012169
 20
-150.345345014497
 30
0.0
 10
103.4834336763861
 20
-150.345345014497
 30
0.0
 10
103.489979357808
 20
-150.2733425188553
 30
0.0
 10
103.4982475869726
 20
-150.1930717940489
 30
0.0
 10
103.4982475869726
 20
-150.0724934520652
 30
0.0
 10
103.4982475869726
 20
-150.0724934520652
 30
0.0
 10
103.4982475869726
 20
-149.8988606396086
 30
0.0
 10
103.4982475869726
 20
-149.8988606396086
 30
0.0
 10
103.4982475869726
 20
-149.8268581439669
 30
0.0
 10
103.489979357808
 20
-149.7062798019831
 30
0.0
 10
103.4834336763861
 20
-149.6260090771768
 30
0.0
 10
103.5619818534498
 20
-149.6301431917591
 30
0.0
 10
103.5998779037875
 20
-149.6322102490502
 30
0.0
 10
103.7270019271932
 20
-149.6322102490502
 30
0.0
 10
103.7270019271932
 20
-149.6322102490502
 30
0.0
 10
103.8303547917507
 20
-149.6322102490502
 30
0.0
 10
103.8303547917507
 20
-149.6322102490502
 30
0.0
 10
103.8303547917507
 20
-149.6322102490502
 30
0.0
 10
103.8303547917507
 20
-149.4861382004757
 30
0.0
 10
103.8303547917507
 20
-149.4861382004757
 30
0.0
 10
103.8303547917507
 20
-149.4861382004757
 30
0.0
 10
103.7521511242356
 20
-149.4861382004757
 30
0.0
 10
103.7521511242356
 20
-149.4861382004757
 30
0.0
 10
103.6973741060201
 20
-149.4861382004757
 30
0.0
 10
103.5258083508546
 20
-149.4906168246065
 30
0.0
 10
103.441403511466
 20
-149.4968179964799
 30
0.0
 10
103.441403511466
 20
-149.4968179964799
 30
0.0
 10
103.441403511466
 20
-149.3193955789896
 30
0.0
 10
103.441403511466
 20
-149.3193955789896
 30
0.0
 10
103.5237412935635
 20
-149.325596750863
 30
0.0
 10
103.6866943100158
 20
-149.3297308654453
 30
0.0
 10
103.7521511242356
 20
-149.3297308654453
 30
0.0
 10
103.7521511242356
 20
-149.3297308654453
 30
0.0
 10
103.8303547917507
 20
-149.3297308654453
 30
0.0
 10
103.8303547917507
 20
-149.3297308654453
 30
0.0
 10
103.8303547917507
 20
-149.2959689296899
 30
0.0
 10
103.8262206771684
 20
-149.1416286519507
 30
0.0
 10
103.8262206771684
 20
-149.1099337734864
 30
0.0
 10
103.8262206771684
 20
-149.1099337734864
 30
0.0
 10
104.0229356293762
 20
-149.1264702318156
 30
0.0
 10
104.0229356293762
 20
-149.1264702318156
 30
0.0
 10
104.0398165972539
 20
-149.1285372891067
 30
0.0
 10
104.0611761892625
 20
-149.1309488559464
 30
0.0
 10
104.0611761892625
 20
-149.1519639384064
 30
0.0
 10
104.0611761892625
 20
-149.1753905877061
 30
0.0
 10
104.0398165972539
 20
-149.1836588168707
 30
0.0
 10
104.0126003429204
 20
-149.1964056701661
 30
0.0
 10
104.0126003429204
 20
-149.2174207526262
 30
0.0
 10
104.0101887760808
 20
-149.3128498975676
 30
0.0
 10
104.0101887760808
 20
-149.3297308654453
 30
0.0
 10
104.0101887760808
 20
-149.3297308654453
 30
0.0
 10
104.0694444184271
 20
-149.3297308654453
 30
0.0
 10
104.0694444184271
 20
-149.3297308654453
 30
0.0
 10
104.1373127994865
 20
-149.3297308654453
 30
0.0
 10
104.2809732812214
 20
-149.325596750863
 30
0.0
 10
104.3867377126186
 20
-149.3193955789896
 30
0.0
 10
104.3867377126186
 20
-149.3193955789896
 30
0.0
 10
104.3867377126186
 20
-149.4968179964799
 30
0.0
 10
104.3867377126186
 20
-149.4968179964799
 30
0.0
 10
104.2895860199345
 20
-149.4906168246065
 30
0.0
 10
104.1331786849042
 20
-149.4861382004757
 30
0.0
 10
104.0694444184271
 20
-149.4861382004757
 30
0.0
 10
104.0694444184271
 20
-149.4861382004757
 30
0.0
 10
104.0019205469162
 20
-149.4861382004757
 30
0.0
 10
104.0019205469162
 20
-149.4861382004757
 30
0.0
 10
104.0019205469162
 20
-149.4861382004757
 30
0.0
 10
104.0019205469162
 20
-149.6322102490502
 30
0.0
 10
104.0019205469162
 20
-149.6322102490502
 30
0.0
 10
104.0019205469162
 20
-149.6322102490502
 30
0.0
 10
104.0718559852667
 20
-149.6322102490502
 30
0.0
 10
104.0718559852667
 20
-149.6322102490502
 30
0.0
 10
104.2220621484236
 20
-149.6322102490502
 30
0.0
 10
104.2937201345168
 20
-149.628076134468
 30
0.0
 10
104.3550428341543
 20
-149.6260090771768
 30
0.0
 10
104.3467746049897
 20
-149.7210937125697
 30
0.0
 10
104.3447075476985
 20
-149.7996418896334
 30
0.0
 10
104.3426404904074
 20
-149.8375379399712
 30
0.0
 10
104.4969807681466
 20
-149.6260090771768
 30
0.0
 10
104.6027451995437
 20
-149.3786512213359
 30
0.0
 10
104.6196261674215
 20
-149.1161349453598
 30
0.0
 10
104.6196261674215
 20
-149.1161349453598
 30
0.0
 10
104.8352891447981
 20
-149.166777848993
 30
0.0
 10
104.8352891447981
 20
-149.166777848993
 30
0.0
 10
104.8501030553847
 20
-149.1712564731238
 30
0.0
 10
104.8649169659712
 20
-149.1774576449973
 30
0.0
 10
104.8649169659712
 20
-149.194338612875
 30
0.0
 10
104.8649169659712
 20
-149.2112195807527
 30
0.0
 10
104.860782851389
 20
-149.2132866380439
 30
0.0
 10
104.8101399477558
 20
-149.2346462300524
 30
0.0
 10
104.7929144703295
 20
-149.3107828402765
 30
0.0
 10
104.7677652732872
 20
-149.4017333610871
 30
0.0
 10
104.7191894269452
 20
-149.5288573844928
 30
0.0
 10
104.7191894269452
 20
-149.5288573844928
 30
0.0
 10
105.0574978035967
 20
-149.5288573844928
 30
0.0
 10
105.0574978035967
 20
-149.5288573844928
 30
0.0
 10
105.095738363483
 20
-149.5288573844928
 30
0.0
 10
105.2245849346313
 20
-149.5243787603619
 30
0.0
 10
105.2731607809734
 20
-149.51783307894
 30
0.0
 10
105.2731607809734
 20
-149.51783307894
 30
0.0
 10
105.3665228686236
 20
-149.5877685172905
 30
0.0
 10
105.3665228686236
 20
-149.5877685172905
 30
0.0
 10
105.3579101299105
 20
-149.6087835997506
 30
0.0
 10
105.351708958037
 20
-149.628076134468
 30
0.0
 10
105.3368950474505
 20
-149.6639051275146
 30
0.0
  0
HATCH
  5
100
330
F6
100
AcDbEntity
  8
レイヤー 1
 62
   250
420
  2299925
440
 33554687
100
AcDbHatch
 10
0.0
 20
0.0
 30
0.0
210
0.0
220
0.0
230
1.0
  2
SOLID
 70
     1
 71
     1
 91
        6
 92
        1
 93
        1
 72
     4
 94
        3
 73
     0
 74
     0
 95
       41
 96
       37
 40
0.0
 40
0.0
 40
0.0
 40
0.0
 40
1.0
 40
1.0
 40
1.0
 40
2.0
 40
2.0
 40
2.0
 40
3.0
 40
3.0
 40
3.0
 40
4.0
 40
4.0
 40
4.0
 40
5.0
 40
5.0
 40
5.0
 40
6.0
 40
6.0
 40
6.0
 40
7.0
 40
7.0
 40
7.0
 40
8.0
 40
8.0
 40
8.0
 40
9.0
 40
9.0
 40
9.0
 40
10.0
 40
10.0
 40
10.0
 40
11.0
 40
11.0
 40
11.0
 40
12.0
 40
12.0
 40
12.0
 40
12.0
 10
105.2521456985133
 20
-151.0198947105089
 10
105.0109890145458
 20
-150.8848469674871
 10
104.833222087507
 20
-150.5885687557556
 10
104.7929144703295
 20
-150.4593776750587
 10
104.6723361283458
 20
-150.7236164987774
 10
104.509727621442
 20
-150.9013834258163
 10
104.3278265798208
 20
-151.0157605959266
 10
104.3278265798208
 20
-151.0157605959266
 10
104.1307671180645
 20
-150.8783012860651
 10
104.1307671180645
 20
-150.8783012860651
 10
104.2007025564151
 20
-150.8531520890228
 10
104.3467746049897
 20
-150.7914848798368
 10
104.4694200042646
 20
-150.6371446020976
 10
104.5941324608306
 20
-150.4803927575188
 10
104.6830159243501
 20
-150.2478488122644
 10
104.6830159243501
 20
-149.987744103128
 10
104.6830159243501
 20
-149.8861137863132
 10
104.6702690710546
 20
-149.8141112906715
 10
104.6599337845989
 20
-149.7676025016206
 10
104.6599337845989
 20
-149.7676025016206
 10
104.8649169659712
 20
-149.7886175840806
 10
104.8649169659712
 20
-149.7886175840806
 10
104.8862765579798
 20
-149.7906846413718
 10
104.9072916404398
 20
-149.7930962082114
 10
104.9072916404398
 20
-149.8141112906715
 10
104.9072916404398
 20
-149.8334038253888
 10
104.8966118444355
 20
-149.8416720545534
 10
104.8628499086801
 20
-149.863031646562
 10
104.8545816795155
 20
-150.0638807133521
 10
104.9114257550221
 20
-150.3071044546107
 10
104.9727484546596
 20
-150.4276827965944
 10
105.0636989754702
 20
-150.6030381567937
 10
105.2583468703868
 20
-150.7828721411237
 10
105.3937391229571
 20
-150.8400607261789
 10
105.3937391229571
 20
-150.8400607261789
 10
105.2521456985133
 20
-151.0198947105089
 10
105.2521456985133
 20
-151.0198947105089
 97
        0
 97
        1
330
FA
 92
        1
 93
        1
 72
     4
 94
        3
 73
     0
 74
     0
 95
       17
 96
       13
 40
0.0
 40
0.0
 40
0.0
 40
0.0
 40
1.0
 40
1.0
 40
1.0
 40
2.0
 40
2.0
 40
2.0
 40
3.0
 40
3.0
 40
3.0
 40
4.0
 40
4.0
 40
4.0
 40
4.0
 10
104.1628065060773
 20
-150.0614691465124
 10
104.1628065060773
 20
-150.0614691465124
 10
104.0019205469162
 20
-150.0614691465124
 10
104.0019205469162
 20
-150.0614691465124
 10
104.0019205469162
 20
-150.0614691465124
 10
104.0019205469162
 20
-150.1910047367578
 10
104.0019205469162
 20
-150.1910047367578
 10
104.0019205469162
 20
-150.1910047367578
 10
104.1628065060773
 20
-150.1910047367578
 10
104.1628065060773
 20
-150.1910047367578
 10
104.1628065060773
 20
-150.1910047367578
 10
104.1628065060773
 20
-150.0614691465124
 10
104.1628065060773
 20
-150.0614691465124
 97
        0
 97
        1
330
FB
 92
        1
 93
        1
 72
     4
 94
        3
 73
     0
 74
     0
 95
       17
 96
       13
 40
0.0
 40
0.0
 40
0.0
 40
0.0
 40
1.0
 40
1.0
 40
1.0
 40
2.0
 40
2.0
 40
2.0
 40
3.0
 40
3.0
 40
3.0
 40
4.0
 40
4.0
 40
4.0
 40
4.0
 10
104.1628065060773
 20
-149.7886175840806
 10
104.1628065060773
 20
-149.7886175840806
 10
104.0019205469162
 20
-149.7886175840806
 10
104.0019205469162
 20
-149.7886175840806
 10
104.0019205469162
 20
-149.7886175840806
 10
104.0019205469162
 20
-149.9178086647775
 10
104.0019205469162
 20
-149.9178086647775
 10
104.0019205469162
 20
-149.9178086647775
 10
104.1628065060773
 20
-149.9178086647775
 10
104.1628065060773
 20
-149.9178086647775
 10
104.1628065060773
 20
-149.9178086647775
 10
104.1628065060773
 20
-149.7886175840806
 10
104.1628065060773
 20
-149.7886175840806
 97
        0
 97
        1
330
FC
 92
        1
 93
        1
 72
     4
 94
        3
 73
     0
 74
     0
 95
       17
 96
       13
 40
0.0
 40
0.0
 40
0.0
 40
0.0
 40
1.0
 40
1.0
 40
1.0
 40
2.0
 40
2.0
 40
2.0
 40
3.0
 40
3.0
 40
3.0
 40
4.0
 40
4.0
 40
4.0
 40
4.0
 10
103.8303547917507
 20
-150.0614691465124
 10
103.8303547917507
 20
-150.0614691465124
 10
103.6718803994292
 20
-150.0614691465124
 10
103.6718803994292
 20
-150.0614691465124
 10
103.6718803994292
 20
-150.0614691465124
 10
103.6718803994292
 20
-150.1910047367578
 10
103.6718803994292
 20
-150.1910047367578
 10
103.6718803994292
 20
-150.1910047367578
 10
103.8303547917507
 20
-150.1910047367578
 10
103.8303547917507
 20
-150.1910047367578
 10
103.8303547917507
 20
-150.1910047367578
 10
103.8303547917507
 20
-150.0614691465124
 10
103.8303547917507
 20
-150.0614691465124
 97
        0
 97
        1
330
FD
 92
        1
 93
        1
 72
     4
 94
        3
 73
     0
 74
     0
 95
       17
 96
       13
 40
0.0
 40
0.0
 40
0.0
 40
0.0
 40
1.0
 40
1.0
 40
1.0
 40
2.0
 40
2.0
 40
2.0
 40
3.0
 40
3.0
 40
3.0
 40
4.0
 40
4.0
 40
4.0
 40
4.0
 10
103.8303547917507
 20
-149.7886175840806
 10
103.8303547917507
 20
-149.7886175840806
 10
103.6718803994292
 20
-149.7886175840806
 10
103.6718803994292
 20
-149.7886175840806
 10
103.6718803994292
 20
-149.7886175840806
 10
103.6718803994292
 20
-149.9178086647775
 10
103.6718803994292
 20
-149.9178086647775
 10
103.6718803994292
 20
-149.9178086647775
 10
103.8303547917507
 20
-149.9178086647775
 10
103.8303547917507
 20
-149.9178086647775
 10
103.8303547917507
 20
-149.9178086647775
 10
103.8303547917507
 20
-149.7886175840806
 10
103.8303547917507
 20
-149.7886175840806
 97
        0
 97
        1
330
FE
 92
        1
 93
        1
 72
     4
 94
        3
 73
     0
 74
     0
 95
      197
 96
      193
 40
0.0
 40
0.0
 40
0.0
 40
0.0
 40
1.0
 40
1.0
 40
1.0
 40
2.0
 40
2.0
 40
2.0
 40
3.0
 40
3.0
 40
3.0
 40
4.0
 40
4.0
 40
4.0
 40
5.0
 40
5.0
 40
5.0
 40
6.0
 40
6.0
 40
6.0
 40
7.0
 40
7.0
 40
7.0
 40
8.0
 40
8.0
 40
8.0
 40
9.0
 40
9.0
 40
9.0
 40
10.0
 40
10.0
 40
10.0
 40
11.0
 40
11.0
 40
11.0
 40
12.0
 40
12.0
 40
12.0
 40
13.0
 40
13.0
 40
13.0
 40
14.0
 40
14.0
 40
14.0
 40
15.0
 40
15.0
 40
15.0
 40
16.0
 40
16.0
 40
16.0
 40
17.0
 40
17.0
 40
17.0
 40
18.0
 40
18.0
 40
18.0
 40
19.0
 40
19.0
 40
19.0
 40
20.0
 40
20.0
 40
20.0
 40
21.0
 40
21.0
 40
21.0
 40
22.0
 40
22.0
 40
22.0
 40
23.0
 40
23.0
 40
23.0
 40
24.0
 40
24.0
 40
24.0
 40
25.0
 40
25.0
 40
25.0
 40
26.0
 40
26.0
 40
26.0
 40
27.0
 40
27.0
 40
27.0
 40
28.0
 40
28.0
 40
28.0
 40
29.0
 40
29.0
 40
29.0
 40
30.0
 40
30.0
 40
30.0
 40
31.0
 40
31.0
 40
31.0
 40
32.0
 40
32.0
 40
32.0
 40
33.0
 40
33.0
 40
33.0
 40
34.0
 40
34.0
 40
34.0
 40
35.0
 40
35.0
 40
35.0
 40
36.0
 40
36.0
 40
36.0
 40
37.0
 40
37.0
 40
37.0
 40
38.0
 40
38.0
 40
38.0
 40
39.0
 40
39.0
 40
39.0
 40
40.0
 40
40.0
 40
40.0
 40
41.0
 40
41.0
 40
41.0
 40
42.0
 40
42.0
 40
42.0
 40
43.0
 40
43.0
 40
43.0
 40
44.0
 40
44.0
 40
44.0
 40
45.0
 40
45.0
 40
45.0
 40
46.0
 40
46.0
 40
46.0
 40
47.0
 40
47.0
 40
47.0
 40
48.0
 40
48.0
 40
48.0
 40
49.0
 40
49.0
 40
49.0
 40
50.0
 40
50.0
 40
50.0
 40
51.0
 40
51.0
 40
51.0
 40
52.0
 40
52.0
 40
52.0
 40
53.0
 40
53.0
 40
53.0
 40
54.0
 40
54.0
 40
54.0
 40
55.0
 40
55.0
 40
55.0
 40
56.0
 40
56.0
 40
56.0
 40
57.0
 40
57.0
 40
57.0
 40
58.0
 40
58.0
 40
58.0
 40
59.0
 40
59.0
 40
59.0
 40
60.0
 40
60.0
 40
60.0
 40
61.0
 40
61.0
 40
61.0
 40
62.0
 40
62.0
 40
62.0
 40
63.0
 40
63.0
 40
63.0
 40
64.0
 40
64.0
 40
64.0
 40
64.0
 10
105.3368950474505
 20
-149.6639051275146
 10
105.3262152514462
 20
-149.6935329486877
 10
105.3027886021465
 20
-149.7403862472871
 10
105.2924533156907
 20
-149.7676025016206
 10
105.2924533156907
 20
-149.7676025016206
 10
105.2311306160533
 20
-149.9202202316172
 10
105.2311306160533
 20
-149.9202202316172
 10
105.220450820049
 20
-149.9453694286595
 10
105.171874973707
 20
-150.0573350319301
 10
105.1591281204116
 20
-150.0807616812298
 10
105.1570610631204
 20
-150.0869628531033
 10
105.1525824389896
 20
-150.0955755918164
 10
105.1505153816985
 20
-150.1021212732383
 10
105.1505153816985
 20
-150.1021212732383
 10
104.9410535761953
 20
-150.0490668027655
 10
104.9410535761953
 20
-150.0490668027655
 10
105.019601753259
 20
-149.9388237472375
 10
105.0809244528964
 20
-149.8037760042157
 10
105.1126193313607
 20
-149.6935329486877
 10
105.1126193313607
 20
-149.6935329486877
 10
104.6471869313035
 20
-149.6935329486877
 10
104.6471869313035
 20
-149.6935329486877
 10
104.5665716969486
 20
-149.8585530224312
 10
104.4990478254377
 20
-149.9367566899463
 10
104.4652858896823
 20
-149.9770643071238
 10
104.4652858896823
 20
-149.9770643071238
 10
104.3426404904074
 20
-149.9112629833555
 10
104.3426404904074
 20
-149.9112629833555
 10
104.3426404904074
 20
-149.9112629833555
 10
104.3426404904074
 20
-150.0828287385209
 10
104.3426404904074
 20
-150.0828287385209
 10
104.3426404904074
 20
-150.1910047367578
 10
104.3447075476985
 20
-150.2392360735513
 10
104.3550428341543
 20
-150.345345014497
 10
104.2833848480611
 20
-150.3432779572058
 10
104.2620252560525
 20
-150.3432779572058
 10
104.0570420746802
 20
-150.3432779572058
 10
104.0570420746802
 20
-150.3432779572058
 10
104.0019205469162
 20
-150.3432779572058
 10
104.0019205469162
 20
-150.3432779572058
 10
104.0019205469162
 20
-150.3432779572058
 10
104.0019205469162
 20
-150.4783257002276
 10
104.0019205469162
 20
-150.4783257002276
 10
104.0019205469162
 20
-150.4783257002276
 10
104.0739230425579
 20
-150.4783257002276
 10
104.0739230425579
 20
-150.4783257002276
 10
104.1393798567776
 20
-150.4783257002276
 10
104.2854519053522
 20
-150.4741915856453
 10
104.3912163367494
 20
-150.4659233564807
 10
104.3912163367494
 20
-150.4659233564807
 10
104.3912163367494
 20
-150.6436902835196
 10
104.3912163367494
 20
-150.6436902835196
 10
104.2937201345168
 20
-150.6371446020976
 10
104.1352457421953
 20
-150.6326659779668
 10
104.0739230425579
 20
-150.6326659779668
 10
104.0739230425579
 20
-150.6326659779668
 10
104.0019205469162
 20
-150.6326659779668
 10
104.0019205469162
 20
-150.6326659779668
 10
104.0039876042073
 20
-150.7215494414863
 10
104.0081217187896
 20
-150.9606390681626
 10
104.0101887760808
 20
-151.035053130644
 10
104.0101887760808
 20
-151.035053130644
 10
103.8093397092907
 20
-151.035053130644
 10
103.8093397092907
 20
-151.035053130644
 10
103.8220865625861
 20
-150.82111270101
 10
103.8220865625861
 20
-150.7914848798368
 10
103.8262206771684
 20
-150.6326659779668
 10
103.8262206771684
 20
-150.6326659779668
 10
103.7566297483664
 20
-150.6326659779668
 10
103.7566297483664
 20
-150.6326659779668
 10
103.6994411633112
 20
-150.6326659779668
 10
103.5471679428632
 20
-150.6371446020976
 10
103.4369248873352
 20
-150.6436902835196
 10
103.4369248873352
 20
-150.6436902835196
 10
103.4369248873352
 20
-150.4659233564807
 10
103.4369248873352
 20
-150.4659233564807
 10
103.5426893187324
 20
-150.4741915856453
 10
103.6866943100158
 20
-150.4783257002276
 10
103.7566297483664
 20
-150.4783257002276
 10
103.7566297483664
 20
-150.4783257002276
 10
103.8303547917507
 20
-150.4783257002276
 10
103.8303547917507
 20
-150.4783257002276
 10
103.8303547917507
 20
-150.4783257002276
 10
103.8303547917507
 20
-150.3432779572058
 10
103.8303547917507
 20
-150.3432779572058
 10
103.8303547917507
 20
-150.3432779572058
 10
103.7862575695395
 20
-150.3432779572058
 10
103.7862575695395
 20
-150.3432779572058
 10
103.709776449767
 20
-150.3432779572058
 10
103.51754012169
 20
-150.345345014497
 10
103.4834336763861
 20
-150.345345014497
 10
103.489979357808
 20
-150.2733425188553
 10
103.4982475869726
 20
-150.1930717940489
 10
103.4982475869726
 20
-150.0724934520652
 10
103.4982475869726
 20
-150.0724934520652
 10
103.4982475869726
 20
-149.8988606396086
 10
103.4982475869726
 20
-149.8988606396086
 10
103.4982475869726
 20
-149.8268581439669
 10
103.489979357808
 20
-149.7062798019831
 10
103.4834336763861
 20
-149.6260090771768
 10
103.5619818534498
 20
-149.6301431917591
 10
103.5998779037875
 20
-149.6322102490502
 10
103.7270019271932
 20
-149.6322102490502
 10
103.7270019271932
 20
-149.6322102490502
 10
103.8303547917507
 20
-149.6322102490502
 10
103.8303547917507
 20
-149.6322102490502
 10
103.8303547917507
 20
-149.6322102490502
 10
103.8303547917507
 20
-149.4861382004757
 10
103.8303547917507
 20
-149.4861382004757
 10
103.8303547917507
 20
-149.4861382004757
 10
103.7521511242356
 20
-149.4861382004757
 10
103.7521511242356
 20
-149.4861382004757
 10
103.6973741060201
 20
-149.4861382004757
 10
103.5258083508546
 20
-149.4906168246065
 10
103.441403511466
 20
-149.4968179964799
 10
103.441403511466
 20
-149.4968179964799
 10
103.441403511466
 20
-149.3193955789896
 10
103.441403511466
 20
-149.3193955789896
 10
103.5237412935635
 20
-149.325596750863
 10
103.6866943100158
 20
-149.3297308654453
 10
103.7521511242356
 20
-149.3297308654453
 10
103.7521511242356
 20
-149.3297308654453
 10
103.8303547917507
 20
-149.3297308654453
 10
103.8303547917507
 20
-149.3297308654453
 10
103.8303547917507
 20
-149.2959689296899
 10
103.8262206771684
 20
-149.1416286519507
 10
103.8262206771684
 20
-149.1099337734864
 10
103.8262206771684
 20
-149.1099337734864
 10
104.0229356293762
 20
-149.1264702318156
 10
104.0229356293762
 20
-149.1264702318156
 10
104.0398165972539
 20
-149.1285372891067
 10
104.0611761892625
 20
-149.1309488559464
 10
104.0611761892625
 20
-149.1519639384064
 10
104.0611761892625
 20
-149.1753905877061
 10
104.0398165972539
 20
-149.1836588168707
 10
104.0126003429204
 20
-149.1964056701661
 10
104.0126003429204
 20
-149.2174207526262
 10
104.0101887760808
 20
-149.3128498975676
 10
104.0101887760808
 20
-149.3297308654453
 10
104.0101887760808
 20
-149.3297308654453
 10
104.0694444184271
 20
-149.3297308654453
 10
104.0694444184271
 20
-149.3297308654453
 10
104.1373127994865
 20
-149.3297308654453
 10
104.2809732812214
 20
-149.325596750863
 10
104.3867377126186
 20
-149.3193955789896
 10
104.3867377126186
 20
-149.3193955789896
 10
104.3867377126186
 20
-149.4968179964799
 10
104.3867377126186
 20
-149.4968179964799
 10
104.2895860199345
 20
-149.4906168246065
 10
104.1331786849042
 20
-149.4861382004757
 10
104.0694444184271
 20
-149.4861382004757
 10
104.0694444184271
 20
-149.4861382004757
 10
104.0019205469162
 20
-149.4861382004757
 10
104.0019205469162
 20
-149.4861382004757
 10
104.0019205469162
 20
-149.4861382004757
 10
104.0019205469162
 20
-149.6322102490502
 10
104.0019205469162
 20
-149.6322102490502
 10
104.0019205469162
 20
-149.6322102490502
 10
104.0718559852667
 20
-149.6322102490502
 10
104.0718559852667
 20
-149.6322102490502
 10
104.2220621484236
 20
-149.6322102490502
 10
104.2937201345168
 20
-149.628076134468
 10
104.3550428341543
 20
-149.6260090771768
 10
104.3467746049897
 20
-149.7210937125697
 10
104.3447075476985
 20
-149.7996418896334
 10
104.3426404904074
 20
-149.8375379399712
 10
104.4969807681466
 20
-149.6260090771768
 10
104.6027451995437
 20
-149.3786512213359
 10
104.6196261674215
 20
-149.1161349453598
 10
104.6196261674215
 20
-149.1161349453598
 10
104.8352891447981
 20
-149.166777848993
 10
104.8352891447981
 20
-149.166777848993
 10
104.8501030553847
 20
-149.1712564731238
 10
104.8649169659712
 20
-149.1774576449973
 10
104.8649169659712
 20
-149.194338612875
 10
104.8649169659712
 20
-149.2112195807527
 10
104.860782851389
 20
-149.2132866380439
 10
104.8101399477558
 20
-149.2346462300524
 10
104.7929144703295
 20
-149.3107828402765
 10
104.7677652732872
 20
-149.4017333610871
 10
104.7191894269452
 20
-149.5288573844928
 10
104.7191894269452
 20
-149.5288573844928
 10
105.0574978035967
 20
-149.5288573844928
 10
105.0574978035967
 20
-149.5288573844928
 10
105.095738363483
 20
-149.5288573844928
 10
105.2245849346313
 20
-149.5243787603619
 10
105.2731607809734
 20
-149.51783307894
 10
105.2731607809734
 20
-149.51783307894
 10
105.3665228686236
 20
-149.5877685172905
 10
105.3665228686236
 20
-149.5877685172905
 10
105.3579101299105
 20
-149.6087835997506
 10
105.351708958037
 20
-149.628076134468
 10
105.3368950474505
 20
-149.6639051275146
 97
        0
 97
        1
330
FF
 75
     2
 76
     1
 98
        1
 10
0.0
 20
0.0
450
        0
451
        0
460
0.0
461
0.0
452
        0
462
0.0
453
        0
470

  0
SPLINE
  5
101
330
F6
100
AcDbEntity
  8
レイヤー 1
100
AcDbSpline
210
0.0
220
0.0
230
1.0
 70
     9
 71
     3
 72
    74
 73
    70
 74
     0
 42
0.0000000001
 43
0.0000000001
 40
0.0
 40
0.0
 40
0.0
 40
0.0
 40
1.0
 40
1.0
 40
1.0
 40
2.0
 40
2.0
 40
2.0
 40
3.0
 40
3.0
 40
3.0
 40
4.0
 40
4.0
 40
4.0
 40
5.0
 40
5.0
 40
5.0
 40
6.0
 40
6.0
 40
6.0
 40
7.0
 40
7.0
 40
7.0
 40
8.0
 40
8.0
 40
8.0
 40
9.0
 40
9.0
 40
9.0
 40
10.0
 40
10.0
 40
10.0
 40
11.0
 40
11.0
 40
11.0
 40
12.0
 40
12.0
 40
12.0
 40
13.0
 40
13.0
 40
13.0
 40
14.0
 40
14.0
 40
14.0
 40
15.0
 40
15.0
 40
15.0
 40
16.0
 40
16.0
 40
16.0
 40
17.0
 40
17.0
 40
17.0
 40
18.0
 40
18.0
 40
18.0
 40
19.0
 40
19.0
 40
19.0
 40
20.0
 40
20.0
 40
20.0
 40
21.0
 40
21.0
 40
21.0
 40
22.0
 40
22.0
 40
22.0
 40
23.0
 40
23.0
 40
23.0
 40
23.0
 10
107.2974988881062
 20
-149.5667534348305
 30
0.0
 10
107.2974988881062
 20
-149.5667534348305
 30
0.0
 10
107.1369574384935
 20
-149.5667534348305
 30
0.0
 10
107.1369574384935
 20
-149.5667534348305
 30
0.0
 10
107.1369574384935
 20
-149.5667534348305
 30
0.0
 10
107.1369574384935
 20
-149.6811306049408
 30
0.0
 10
107.1369574384935
 20
-149.6811306049408
 30
0.0
 10
107.1369574384935
 20
-149.7210937125697
 30
0.0
 10
107.143158610367
 20
-149.7951632655026
 30
0.0
 10
107.1472927249493
 20
-149.8203124625449
 30
0.0
 10
107.1472927249493
 20
-149.8203124625449
 30
0.0
 10
106.9357638621549
 20
-149.8203124625449
 30
0.0
 10
106.9357638621549
 20
-149.8203124625449
 30
0.0
 10
106.9464436581592
 20
-149.7548556483252
 30
0.0
 10
106.9485107154504
 20
-149.6956000059789
 30
0.0
 10
106.9485107154504
 20
-149.6935329486877
 30
0.0
 10
106.9485107154504
 20
-149.6935329486877
 30
0.0
 10
106.9485107154504
 20
-149.5708875494128
 30
0.0
 10
106.9485107154504
 20
-149.5708875494128
 30
0.0
 10
106.9485107154504
 20
-149.5708875494128
 30
0.0
 10
106.7686767311203
 20
-149.5708875494128
 30
0.0
 10
106.7686767311203
 20
-149.5708875494128
 30
0.0
 10
106.7497287059514
 20
-149.6301431917591
 30
0.0
 10
106.7032199169006
 20
-149.7762152403337
 30
0.0
 10
106.5888427467903
 20
-149.8585530224312
 30
0.0
 10
106.5888427467903
 20
-149.8585530224312
 30
0.0
 10
106.4324354117599
 20
-149.752788591034
 30
0.0
 10
106.4324354117599
 20
-149.752788591034
 30
0.0
 10
106.5065049646928
 20
-149.7062798019831
 30
0.0
 10
106.6226046825457
 20
-149.6322102490502
 30
0.0
 10
106.6226046825457
 20
-149.3107828402765
 30
0.0
 10
106.6226046825457
 20
-149.2556613125124
 30
0.0
 10
106.6184705679634
 20
-149.2112195807527
 30
0.0
 10
106.6164035106723
 20
-149.173323530415
 30
0.0
 10
106.6925401208963
 20
-149.1815917595796
 30
0.0
 10
106.7666096738292
 20
-149.187792931453
 30
0.0
 10
106.8299994307578
 20
-149.187792931453
 30
0.0
 10
107.0077663577966
 20
-149.187792931453
 30
0.0
 10
107.2065483672956
 20
-149.1285372891067
 30
0.0
 10
107.267871066933
 20
-149.0989094679336
 30
0.0
 10
107.267871066933
 20
-149.0989094679336
 30
0.0
 10
107.3949950903387
 20
-149.2346462300524
 30
0.0
 10
107.3949950903387
 20
-149.2346462300524
 30
0.0
 10
107.399129204921
 20
-149.2387803446347
 30
0.0
 10
107.4011962622122
 20
-149.2470485737993
 30
0.0
 10
107.4011962622122
 20
-149.2535942552213
 30
0.0
 10
107.4011962622122
 20
-149.2746093376813
 30
0.0
 10
107.3863823516256
 20
-149.2811550191033
 30
0.0
 10
107.3695013837479
 20
-149.2811550191033
 30
0.0
 10
107.3484863012879
 20
-149.2811550191033
 30
0.0
 10
107.3336723907013
 20
-149.2725422803902
 30
0.0
 10
107.3143798559839
 20
-149.2622069939344
 30
0.0
 10
107.1410915530758
 20
-149.3193955789896
 30
0.0
 10
106.9230170088595
 20
-149.3445447760319
 30
0.0
 10
106.7896918135803
 20
-149.346611833323
 30
0.0
 10
106.7896918135803
 20
-149.346611833323
 30
0.0
 10
106.785557698998
 20
-149.4289496154205
 30
0.0
 10
106.785557698998
 20
-149.4289496154205
 30
0.0
 10
106.785557698998
 20
-149.4289496154205
 30
0.0
 10
107.0584092614298
 20
-149.4289496154205
 30
0.0
 10
107.0584092614298
 20
-149.4289496154205
 30
0.0
 10
107.115597846485
 20
-149.4289496154205
 30
0.0
 10
107.378114122461
 20
-149.4103460998002
 30
0.0
 10
107.4225558542207
 20
-149.4038004183782
 30
0.0
 10
107.4225558542207
 20
-149.4038004183782
 30
0.0
 10
107.4225558542207
 20
-149.572954606704
 30
0.0
 10
107.4225558542207
 20
-149.572954606704
 30
0.0
 10
107.3884494089168
 20
-149.5688204921217
 30
0.0
 10
107.3757025556213
 20
-149.5667534348305
 30
0.0
 10
107.2974988881062
 20
-149.5667534348305
 30
0.0
  0
SPLINE
  5
102
330
F6
100
AcDbEntity
  8
レイヤー 1
100
AcDbSpline
210
0.0
220
0.0
230
1.0
 70
    11
 71
     3
 72
    17
 73
    13
 74
     0
 42
0.0000000001
 43
0.0000000001
 40
0.0
 40
0.0
 40
0.0
 40
0.0
 40
1.0
 40
1.0
 40
1.0
 40
2.0
 40
2.0
 40
2.0
 40
3.0
 40
3.0
 40
3.0
 40
4.0
 40
4.0
 40
4.0
 40
4.0
 10
106.9802055939147
 20
-150.5100205786919
 30
0.0
 10
106.9802055939147
 20
-150.5100205786919
 30
0.0
 10
106.0686333285175
 20
-150.5100205786919
 30
0.0
 10
106.0686333285175
 20
-150.5100205786919
 30
0.0
 10
106.0686333285175
 20
-150.5100205786919
 30
0.0
 10
106.0686333285175
 20
-150.6181965769288
 30
0.0
 10
106.0686333285175
 20
-150.6181965769288
 30
0.0
 10
106.0686333285175
 20
-150.6181965769288
 30
0.0
 10
106.9802055939147
 20
-150.6181965769288
 30
0.0
 10
106.9802055939147
 20
-150.6181965769288
 30
0.0
 10
106.9802055939147
 20
-150.6181965769288
 30
0.0
 10
106.9802055939147
 20
-150.5100205786919
 30
0.0
 10
106.9802055939147
 20
-150.5100205786919
 30
0.0
  0
SPLINE
  5
103
330
F6
100
AcDbEntity
  8
レイヤー 1
100
AcDbSpline
210
0.0
220
0.0
230
1.0
 70
    11
 71
     3
 72
    17
 73
    13
 74
     0
 42
0.0000000001
 43
0.0000000001
 40
0.0
 40
0.0
 40
0.0
 40
0.0
 40
1.0
 40
1.0
 40
1.0
 40
2.0
 40
2.0
 40
2.0
 40
3.0
 40
3.0
 40
3.0
 40
4.0
 40
4.0
 40
4.0
 40
4.0
 10
106.9802055939147
 20
-150.2647297801421
 30
0.0
 10
106.9802055939147
 20
-150.2647297801421
 30
0.0
 10
106.0686333285175
 20
-150.2647297801421
 30
0.0
 10
106.0686333285175
 20
-150.2647297801421
 30
0.0
 10
106.0686333285175
 20
-150.2647297801421
 30
0.0
 10
106.0686333285175
 20
-150.3749728356701
 30
0.0
 10
106.0686333285175
 20
-150.3749728356701
 30
0.0
 10
106.0686333285175
 20
-150.3749728356701
 30
0.0
 10
106.9802055939147
 20
-150.3749728356701
 30
0.0
 10
106.9802055939147
 20
-150.3749728356701
 30
0.0
 10
106.9802055939147
 20
-150.3749728356701
 30
0.0
 10
106.9802055939147
 20
-150.2647297801421
 30
0.0
 10
106.9802055939147
 20
-150.2647297801421
 30
0.0
  0
SPLINE
  5
104
330
F6
100
AcDbEntity
  8
レイヤー 1
100
AcDbSpline
210
0.0
220
0.0
230
1.0
 70
    11
 71
     3
 72
    17
 73
    13
 74
     0
 42
0.0000000001
 43
0.0000000001
 40
0.0
 40
0.0
 40
0.0
 40
0.0
 40
1.0
 40
1.0
 40
1.0
 40
2.0
 40
2.0
 40
2.0
 40
3.0
 40
3.0
 40
3.0
 40
4.0
 40
4.0
 40
4.0
 40
4.0
 10
106.9802055939147
 20
-150.0194389815924
 30
0.0
 10
106.9802055939147
 20
-150.0194389815924
 30
0.0
 10
106.0686333285175
 20
-150.0194389815924
 30
0.0
 10
106.0686333285175
 20
-150.0194389815924
 30
0.0
 10
106.0686333285175
 20
-150.0194389815924
 30
0.0
 10
106.0686333285175
 20
-150.1317490944115
 30
0.0
 10
106.0686333285175
 20
-150.1317490944115
 30
0.0
 10
106.0686333285175
 20
-150.1317490944115
 30
0.0
 10
106.9802055939147
 20
-150.1317490944115
 30
0.0
 10
106.9802055939147
 20
-150.1317490944115
 30
0.0
 10
106.9802055939147
 20
-150.1317490944115
 30
0.0
 10
106.9802055939147
 20
-150.0194389815924
 30
0.0
 10
106.9802055939147
 20
-150.0194389815924
 30
0.0
  0
SPLINE
  5
105
330
F6
100
AcDbEntity
  8
レイヤー 1
100
AcDbSpline
210
0.0
220
0.0
230
1.0
 70
     9
 71
     3
 72
    74
 73
    70
 74
     0
 42
0.0000000001
 43
0.0000000001
 40
0.0
 40
0.0
 40
0.0
 40
0.0
 40
1.0
 40
1.0
 40
1.0
 40
2.0
 40
2.0
 40
2.0
 40
3.0
 40
3.0
 40
3.0
 40
4.0
 40
4.0
 40
4.0
 40
5.0
 40
5.0
 40
5.0
 40
6.0
 40
6.0
 40
6.0
 40
7.0
 40
7.0
 40
7.0
 40
8.0
 40
8.0
 40
8.0
 40
9.0
 40
9.0
 40
9.0
 40
10.0
 40
10.0
 40
10.0
 40
11.0
 40
11.0
 40
11.0
 40
12.0
 40
12.0
 40
12.0
 40
13.0
 40
13.0
 40
13.0
 40
14.0
 40
14.0
 40
14.0
 40
15.0
 40
15.0
 40
15.0
 40
16.0
 40
16.0
 40
16.0
 40
17.0
 40
17.0
 40
17.0
 40
18.0
 40
18.0
 40
18.0
 40
19.0
 40
19.0
 40
19.0
 40
20.0
 40
20.0
 40
20.0
 40
21.0
 40
21.0
 40
21.0
 40
22.0
 40
22.0
 40
22.0
 40
23.0
 40
23.0
 40
23.0
 40
23.0
 10
107.2847520348107
 20
-151.0536566462643
 30
0.0
 10
107.0711561147252
 20
-151.0433213598086
 30
0.0
 10
106.8703070479352
 20
-150.9565049535803
 30
0.0
 10
106.6946071781874
 20
-150.8359266115966
 30
0.0
 10
106.6946071781874
 20
-150.8359266115966
 30
0.0
 10
106.79210338042
 20
-150.7491102053682
 30
0.0
 10
106.79210338042
 20
-150.7491102053682
 30
0.0
 10
106.79210338042
 20
-150.7491102053682
 30
0.0
 10
106.2398545741345
 20
-150.7491102053682
 30
0.0
 10
106.2398545741345
 20
-150.7491102053682
 30
0.0
 10
106.2398545741345
 20
-150.7491102053682
 30
0.0
 10
106.3201252989408
 20
-150.8124999622968
 30
0.0
 10
106.3201252989408
 20
-150.8124999622968
 30
0.0
 10
106.3266709803627
 20
-150.8169785864277
 30
0.0
 10
106.3370062668185
 20
-150.827658382432
 30
0.0
 10
106.3370062668185
 20
-150.84212778347
 30
0.0
 10
106.3370062668185
 20
-150.882779910196
 30
0.0
 10
106.2629367138856
 20
-150.876234228774
 30
0.0
 10
106.2481228032991
 20
-150.8738226619343
 30
0.0
 10
106.0176459153358
 20
-151.0136935386355
 30
0.0
 10
105.8739854336009
 20
-151.0453884170997
 30
0.0
 10
105.7702880594949
 20
-151.0622693849775
 30
0.0
 10
105.7702880594949
 20
-151.0622693849775
 30
0.0
 10
105.641096978798
 20
-150.8848469674871
 30
0.0
 10
105.641096978798
 20
-150.8848469674871
 30
0.0
 10
105.8887993441875
 20
-150.8531520890228
 30
0.0
 10
105.9900851514538
 20
-150.8062987904234
 30
0.0
 10
106.0789686149733
 20
-150.7532443199506
 30
0.0
 10
106.0048990620404
 20
-150.7556558867903
 30
0.0
 10
105.8908664014786
 20
-150.7577229440814
 30
0.0
 10
105.8591715230144
 20
-150.7597900013725
 30
0.0
 10
105.8739854336009
 20
-150.6709065378531
 30
0.0
 10
105.8760524908921
 20
-150.5417154571562
 30
0.0
 10
105.8760524908921
 20
-150.4679904137719
 30
0.0
 10
105.8760524908921
 20
-150.4679904137719
 30
0.0
 10
105.8760524908921
 20
-150.1675780874581
 30
0.0
 10
105.8760524908921
 20
-150.1675780874581
 30
0.0
 10
105.8760524908921
 20
-150.0680148279344
 30
0.0
 10
105.8695068094701
 20
-149.9684515684107
 30
0.0
 10
105.8591715230144
 20
-149.8712998757266
 30
0.0
 10
105.9604573302807
 20
-149.8775010476
 30
0.0
 10
106.1912787277924
 20
-149.884046729022
 30
0.0
 10
106.2991102164808
 20
-149.884046729022
 30
0.0
 10
106.2991102164808
 20
-149.884046729022
 30
0.0
 10
106.7221679420694
 20
-149.884046729022
 30
0.0
 10
106.7221679420694
 20
-149.884046729022
 30
0.0
 10
106.840679226762
 20
-149.884046729022
 30
0.0
 10
106.8830539012306
 20
-149.884046729022
 30
0.0
 10
106.9653916833281
 20
-149.8795681048912
 30
0.0
 10
107.1135307891938
 20
-149.8733669330177
 30
0.0
 10
107.1304117570715
 20
-149.8733669330177
 30
0.0
 10
107.1769205461224
 20
-149.8712998757266
 30
0.0
 10
107.1686523169578
 20
-149.9519151100814
 30
0.0
 10
107.164173692827
 20
-150.1103895024029
 30
0.0
 10
107.164173692827
 20
-150.1930717940489
 30
0.0
 10
107.164173692827
 20
-150.1930717940489
 30
0.0
 10
107.164173692827
 20
-150.4783257002276
 30
0.0
 10
107.164173692827
 20
-150.4783257002276
 30
0.0
 10
107.164173692827
 20
-150.5503281958693
 30
0.0
 10
107.1662407501181
 20
-150.6815863338573
 30
0.0
 10
107.1769205461224
 20
-150.7597900013725
 30
0.0
 10
107.1049180504807
 20
-150.7556558867903
 30
0.0
 10
106.9822726512058
 20
-150.7532443199506
 30
0.0
 10
106.9040689836906
 20
-150.7511772626594
 30
0.0
 10
107.0139675296701
 20
-150.8190456437188
 30
0.0
 10
107.1662407501181
 20
-150.869688547352
 30
0.0
 10
107.378114122461
 20
-150.8738226619343
 30
0.0
 10
107.378114122461
 20
-150.8738226619343
 30
0.0
 10
107.2847520348107
 20
-151.0536566462643
 30
0.0
 10
107.2847520348107
 20
-151.0536566462643
 30
0.0
  0
SPLINE
  5
106
330
F6
100
AcDbEntity
  8
レイヤー 1
100
AcDbSpline
210
0.0
220
0.0
230
1.0
 70
    11
 71
     3
 72
    71
 73
    67
 74
     0
 42
0.0000000001
 43
0.0000000001
 40
0.0
 40
0.0
 40
0.0
 40
0.0
 40
1.0
 40
1.0
 40
1.0
 40
2.0
 40
2.0
 40
2.0
 40
3.0
 40
3.0
 40
3.0
 40
4.0
 40
4.0
 40
4.0
 40
5.0
 40
5.0
 40
5.0
 40
6.0
 40
6.0
 40
6.0
 40
7.0
 40
7.0
 40
7.0
 40
8.0
 40
8.0
 40
8.0
 40
9.0
 40
9.0
 40
9.0
 40
10.0
 40
10.0
 40
10.0
 40
11.0
 40
11.0
 40
11.0
 40
12.0
 40
12.0
 40
12.0
 40
13.0
 40
13.0
 40
13.0
 40
14.0
 40
14.0
 40
14.0
 40
15.0
 40
15.0
 40
15.0
 40
16.0
 40
16.0
 40
16.0
 40
17.0
 40
17.0
 40
17.0
 40
18.0
 40
18.0
 40
18.0
 40
19.0
 40
19.0
 40
19.0
 40
20.0
 40
20.0
 40
20.0
 40
21.0
 40
21.0
 40
21.0
 40
22.0
 40
22.0
 40
22.0
 40
22.0
 10
106.4472493223465
 20
-149.2873561909767
 30
0.0
 10
106.4324354117599
 20
-149.2873561909767
 30
0.0
 10
106.4196885584645
 20
-149.2832220763945
 30
0.0
 10
106.3941948518736
 20
-149.2746093376813
 30
0.0
 10
106.2526014274299
 20
-149.3214626362807
 30
0.0
 10
106.0789686149733
 20
-149.3379990946099
 30
0.0
 10
105.9394422478207
 20
-149.3424777187408
 30
0.0
 10
105.9394422478207
 20
-149.3424777187408
 30
0.0
 10
105.9373751905295
 20
-149.4313611822602
 30
0.0
 10
105.9373751905295
 20
-149.4313611822602
 30
0.0
 10
105.9373751905295
 20
-149.4313611822602
 30
0.0
 10
106.1974798996659
 20
-149.4313611822602
 30
0.0
 10
106.1974798996659
 20
-149.4313611822602
 30
0.0
 10
106.2505343701387
 20
-149.4313611822602
 30
0.0
 10
106.4324354117599
 20
-149.4227484435471
 30
0.0
 10
106.4768771435196
 20
-149.4165472716736
 30
0.0
 10
106.4768771435196
 20
-149.4165472716736
 30
0.0
 10
106.4768771435196
 20
-149.5770887212863
 30
0.0
 10
106.4768771435196
 20
-149.5770887212863
 30
0.0
 10
106.4217556157556
 20
-149.5708875494128
 30
0.0
 10
106.2970431591896
 20
-149.5688204921217
 30
0.0
 10
106.2588025993033
 20
-149.5708875494128
 30
0.0
 10
106.2588025993033
 20
-149.5708875494128
 30
0.0
 10
106.2588025993033
 20
-149.6811306049408
 30
0.0
 10
106.2588025993033
 20
-149.6811306049408
 30
0.0
 10
106.2588025993033
 20
-149.7272948844432
 30
0.0
 10
106.2608696565945
 20
-149.7906846413718
 30
0.0
 10
106.2674153380165
 20
-149.828925201258
 30
0.0
 10
106.2674153380165
 20
-149.828925201258
 30
0.0
 10
106.074834500391
 20
-149.828925201258
 30
0.0
 10
106.074834500391
 20
-149.828925201258
 30
0.0
 10
106.0810356722644
 20
-149.7886175840806
 30
0.0
 10
106.0875813536864
 20
-149.7062798019831
 30
0.0
 10
106.0875813536864
 20
-149.6914658913965
 30
0.0
 10
106.0875813536864
 20
-149.6914658913965
 30
0.0
 10
106.0875813536864
 20
-149.5708875494128
 30
0.0
 10
106.0875813536864
 20
-149.5708875494128
 30
0.0
 10
106.0875813536864
 20
-149.5708875494128
 30
0.0
 10
105.922561279943
 20
-149.5708875494128
 30
0.0
 10
105.922561279943
 20
-149.5708875494128
 30
0.0
 10
105.8801866054744
 20
-149.7906846413718
 30
0.0
 10
105.8250650777104
 20
-149.8712998757266
 30
0.0
 10
105.7193006463132
 20
-149.9705186257018
 30
0.0
 10
105.7193006463132
 20
-149.9705186257018
 30
0.0
 10
105.5522135152786
 20
-149.85648596514
 30
0.0
 10
105.5522135152786
 20
-149.85648596514
 30
0.0
 10
105.6156032722072
 20
-149.807910118798
 30
0.0
 10
105.7658094353641
 20
-149.6956000059789
 30
0.0
 10
105.7658094353641
 20
-149.346611833323
 30
0.0
 10
105.7658094353641
 20
-149.2642740512256
 30
0.0
 10
105.7575412061995
 20
-149.2174207526262
 30
0.0
 10
105.7489284674864
 20
-149.1691894158327
 30
0.0
 10
105.8950005160609
 20
-149.1836588168707
 30
0.0
 10
105.9098144266475
 20
-149.1836588168707
 30
0.0
 10
105.9456434196941
 20
-149.1836588168707
 30
0.0
 10
106.053819417931
 20
-149.1836588168707
 30
0.0
 10
106.1954128423747
 20
-149.166777848993
 30
0.0
 10
106.3562988015359
 20
-149.1054551493555
 30
0.0
 10
106.3562988015359
 20
-149.1054551493555
 30
0.0
 10
106.4703314620977
 20
-149.2367132873436
 30
0.0
 10
106.4703314620977
 20
-149.2367132873436
 30
0.0
 10
106.4768771435196
 20
-149.242914459217
 30
0.0
 10
106.4810112581019
 20
-149.2515271979302
 30
0.0
 10
106.4810112581019
 20
-149.2601399366433
 30
0.0
 10
106.4810112581019
 20
-149.2832220763945
 30
0.0
 10
106.4620632329331
 20
-149.2873561909767
 30
0.0
 10
106.4472493223465
 20
-149.2873561909767
 30
0.0
  0
HATCH
  5
107
330
F6
100
AcDbEntity
  8
レイヤー 1
 62
   250
420
  2299925
440
 33554687
100
AcDbHatch
 10
0.0
 20
0.0
 30
0.0
210
0.0
220
0.0
230
1.0
  2
SOLID
 70
     1
 71
     1
 91
        6
 92
        1
 93
        1
 72
     4
 94
        3
 73
     0
 74
     0
 95
       74
 96
       70
 40
0.0
 40
0.0
 40
0.0
 40
0.0
 40
1.0
 40
1.0
 40
1.0
 40
2.0
 40
2.0
 40
2.0
 40
3.0
 40
3.0
 40
3.0
 40
4.0
 40
4.0
 40
4.0
 40
5.0
 40
5.0
 40
5.0
 40
6.0
 40
6.0
 40
6.0
 40
7.0
 40
7.0
 40
7.0
 40
8.0
 40
8.0
 40
8.0
 40
9.0
 40
9.0
 40
9.0
 40
10.0
 40
10.0
 40
10.0
 40
11.0
 40
11.0
 40
11.0
 40
12.0
 40
12.0
 40
12.0
 40
13.0
 40
13.0
 40
13.0
 40
14.0
 40
14.0
 40
14.0
 40
15.0
 40
15.0
 40
15.0
 40
16.0
 40
16.0
 40
16.0
 40
17.0
 40
17.0
 40
17.0
 40
18.0
 40
18.0
 40
18.0
 40
19.0
 40
19.0
 40
19.0
 40
20.0
 40
20.0
 40
20.0
 40
21.0
 40
21.0
 40
21.0
 40
22.0
 40
22.0
 40
22.0
 40
23.0
 40
23.0
 40
23.0
 40
23.0
 10
107.2974988881062
 20
-149.5667534348305
 10
107.2974988881062
 20
-149.5667534348305
 10
107.1369574384935
 20
-149.5667534348305
 10
107.1369574384935
 20
-149.5667534348305
 10
107.1369574384935
 20
-149.5667534348305
 10
107.1369574384935
 20
-149.6811306049408
 10
107.1369574384935
 20
-149.6811306049408
 10
107.1369574384935
 20
-149.7210937125697
 10
107.143158610367
 20
-149.7951632655026
 10
107.1472927249493
 20
-149.8203124625449
 10
107.1472927249493
 20
-149.8203124625449
 10
106.9357638621549
 20
-149.8203124625449
 10
106.9357638621549
 20
-149.8203124625449
 10
106.9464436581592
 20
-149.7548556483252
 10
106.9485107154504
 20
-149.6956000059789
 10
106.9485107154504
 20
-149.6935329486877
 10
106.9485107154504
 20
-149.6935329486877
 10
106.9485107154504
 20
-149.5708875494128
 10
106.9485107154504
 20
-149.5708875494128
 10
106.9485107154504
 20
-149.5708875494128
 10
106.7686767311203
 20
-149.5708875494128
 10
106.7686767311203
 20
-149.5708875494128
 10
106.7497287059514
 20
-149.6301431917591
 10
106.7032199169006
 20
-149.7762152403337
 10
106.5888427467903
 20
-149.8585530224312
 10
106.5888427467903
 20
-149.8585530224312
 10
106.4324354117599
 20
-149.752788591034
 10
106.4324354117599
 20
-149.752788591034
 10
106.5065049646928
 20
-149.7062798019831
 10
106.6226046825457
 20
-149.6322102490502
 10
106.6226046825457
 20
-149.3107828402765
 10
106.6226046825457
 20
-149.2556613125124
 10
106.6184705679634
 20
-149.2112195807527
 10
106.6164035106723
 20
-149.173323530415
 10
106.6925401208963
 20
-149.1815917595796
 10
106.7666096738292
 20
-149.187792931453
 10
106.8299994307578
 20
-149.187792931453
 10
107.0077663577966
 20
-149.187792931453
 10
107.2065483672956
 20
-149.1285372891067
 10
107.267871066933
 20
-149.0989094679336
 10
107.267871066933
 20
-149.0989094679336
 10
107.3949950903387
 20
-149.2346462300524
 10
107.3949950903387
 20
-149.2346462300524
 10
107.399129204921
 20
-149.2387803446347
 10
107.4011962622122
 20
-149.2470485737993
 10
107.4011962622122
 20
-149.2535942552213
 10
107.4011962622122
 20
-149.2746093376813
 10
107.3863823516256
 20
-149.2811550191033
 10
107.3695013837479
 20
-149.2811550191033
 10
107.3484863012879
 20
-149.2811550191033
 10
107.3336723907013
 20
-149.2725422803902
 10
107.3143798559839
 20
-149.2622069939344
 10
107.1410915530758
 20
-149.3193955789896
 10
106.9230170088595
 20
-149.3445447760319
 10
106.7896918135803
 20
-149.346611833323
 10
106.7896918135803
 20
-149.346611833323
 10
106.785557698998
 20
-149.4289496154205
 10
106.785557698998
 20
-149.4289496154205
 10
106.785557698998
 20
-149.4289496154205
 10
107.0584092614298
 20
-149.4289496154205
 10
107.0584092614298
 20
-149.4289496154205
 10
107.115597846485
 20
-149.4289496154205
 10
107.378114122461
 20
-149.4103460998002
 10
107.4225558542207
 20
-149.4038004183782
 10
107.4225558542207
 20
-149.4038004183782
 10
107.4225558542207
 20
-149.572954606704
 10
107.4225558542207
 20
-149.572954606704
 10
107.3884494089168
 20
-149.5688204921217
 10
107.3757025556213
 20
-149.5667534348305
 10
107.2974988881062
 20
-149.5667534348305
 97
        0
 97
        1
330
101
 92
        1
 93
        1
 72
     4
 94
        3
 73
     0
 74
     0
 95
       17
 96
       13
 40
0.0
 40
0.0
 40
0.0
 40
0.0
 40
1.0
 40
1.0
 40
1.0
 40
2.0
 40
2.0
 40
2.0
 40
3.0
 40
3.0
 40
3.0
 40
4.0
 40
4.0
 40
4.0
 40
4.0
 10
106.9802055939147
 20
-150.5100205786919
 10
106.9802055939147
 20
-150.5100205786919
 10
106.0686333285175
 20
-150.5100205786919
 10
106.0686333285175
 20
-150.5100205786919
 10
106.0686333285175
 20
-150.5100205786919
 10
106.0686333285175
 20
-150.6181965769288
 10
106.0686333285175
 20
-150.6181965769288
 10
106.0686333285175
 20
-150.6181965769288
 10
106.9802055939147
 20
-150.6181965769288
 10
106.9802055939147
 20
-150.6181965769288
 10
106.9802055939147
 20
-150.6181965769288
 10
106.9802055939147
 20
-150.5100205786919
 10
106.9802055939147
 20
-150.5100205786919
 97
        0
 97
        1
330
102
 92
        1
 93
        1
 72
     4
 94
        3
 73
     0
 74
     0
 95
       17
 96
       13
 40
0.0
 40
0.0
 40
0.0
 40
0.0
 40
1.0
 40
1.0
 40
1.0
 40
2.0
 40
2.0
 40
2.0
 40
3.0
 40
3.0
 40
3.0
 40
4.0
 40
4.0
 40
4.0
 40
4.0
 10
106.9802055939147
 20
-150.2647297801421
 10
106.9802055939147
 20
-150.2647297801421
 10
106.0686333285175
 20
-150.2647297801421
 10
106.0686333285175
 20
-150.2647297801421
 10
106.0686333285175
 20
-150.2647297801421
 10
106.0686333285175
 20
-150.3749728356701
 10
106.0686333285175
 20
-150.3749728356701
 10
106.0686333285175
 20
-150.3749728356701
 10
106.9802055939147
 20
-150.3749728356701
 10
106.9802055939147
 20
-150.3749728356701
 10
106.9802055939147
 20
-150.3749728356701
 10
106.9802055939147
 20
-150.2647297801421
 10
106.9802055939147
 20
-150.2647297801421
 97
        0
 97
        1
330
103
 92
        1
 93
        1
 72
     4
 94
        3
 73
     0
 74
     0
 95
       17
 96
       13
 40
0.0
 40
0.0
 40
0.0
 40
0.0
 40
1.0
 40
1.0
 40
1.0
 40
2.0
 40
2.0
 40
2.0
 40
3.0
 40
3.0
 40
3.0
 40
4.0
 40
4.0
 40
4.0
 40
4.0
 10
106.9802055939147
 20
-150.0194389815924
 10
106.9802055939147
 20
-150.0194389815924
 10
106.0686333285175
 20
-150.0194389815924
 10
106.0686333285175
 20
-150.0194389815924
 10
106.0686333285175
 20
-150.0194389815924
 10
106.0686333285175
 20
-150.1317490944115
 10
106.0686333285175
 20
-150.1317490944115
 10
106.0686333285175
 20
-150.1317490944115
 10
106.9802055939147
 20
-150.1317490944115
 10
106.9802055939147
 20
-150.1317490944115
 10
106.9802055939147
 20
-150.1317490944115
 10
106.9802055939147
 20
-150.0194389815924
 10
106.9802055939147
 20
-150.0194389815924
 97
        0
 97
        1
330
104
 92
        1
 93
        1
 72
     4
 94
        3
 73
     0
 74
     0
 95
       74
 96
       70
 40
0.0
 40
0.0
 40
0.0
 40
0.0
 40
1.0
 40
1.0
 40
1.0
 40
2.0
 40
2.0
 40
2.0
 40
3.0
 40
3.0
 40
3.0
 40
4.0
 40
4.0
 40
4.0
 40
5.0
 40
5.0
 40
5.0
 40
6.0
 40
6.0
 40
6.0
 40
7.0
 40
7.0
 40
7.0
 40
8.0
 40
8.0
 40
8.0
 40
9.0
 40
9.0
 40
9.0
 40
10.0
 40
10.0
 40
10.0
 40
11.0
 40
11.0
 40
11.0
 40
12.0
 40
12.0
 40
12.0
 40
13.0
 40
13.0
 40
13.0
 40
14.0
 40
14.0
 40
14.0
 40
15.0
 40
15.0
 40
15.0
 40
16.0
 40
16.0
 40
16.0
 40
17.0
 40
17.0
 40
17.0
 40
18.0
 40
18.0
 40
18.0
 40
19.0
 40
19.0
 40
19.0
 40
20.0
 40
20.0
 40
20.0
 40
21.0
 40
21.0
 40
21.0
 40
22.0
 40
22.0
 40
22.0
 40
23.0
 40
23.0
 40
23.0
 40
23.0
 10
107.2847520348107
 20
-151.0536566462643
 10
107.0711561147252
 20
-151.0433213598086
 10
106.8703070479352
 20
-150.9565049535803
 10
106.6946071781874
 20
-150.8359266115966
 10
106.6946071781874
 20
-150.8359266115966
 10
106.79210338042
 20
-150.7491102053682
 10
106.79210338042
 20
-150.7491102053682
 10
106.79210338042
 20
-150.7491102053682
 10
106.2398545741345
 20
-150.7491102053682
 10
106.2398545741345
 20
-150.7491102053682
 10
106.2398545741345
 20
-150.7491102053682
 10
106.3201252989408
 20
-150.8124999622968
 10
106.3201252989408
 20
-150.8124999622968
 10
106.3266709803627
 20
-150.8169785864277
 10
106.3370062668185
 20
-150.827658382432
 10
106.3370062668185
 20
-150.84212778347
 10
106.3370062668185
 20
-150.882779910196
 10
106.2629367138856
 20
-150.876234228774
 10
106.2481228032991
 20
-150.8738226619343
 10
106.0176459153358
 20
-151.0136935386355
 10
105.8739854336009
 20
-151.0453884170997
 10
105.7702880594949
 20
-151.0622693849775
 10
105.7702880594949
 20
-151.0622693849775
 10
105.641096978798
 20
-150.8848469674871
 10
105.641096978798
 20
-150.8848469674871
 10
105.8887993441875
 20
-150.8531520890228
 10
105.9900851514538
 20
-150.8062987904234
 10
106.0789686149733
 20
-150.7532443199506
 10
106.0048990620404
 20
-150.7556558867903
 10
105.8908664014786
 20
-150.7577229440814
 10
105.8591715230144
 20
-150.7597900013725
 10
105.8739854336009
 20
-150.6709065378531
 10
105.8760524908921
 20
-150.5417154571562
 10
105.8760524908921
 20
-150.4679904137719
 10
105.8760524908921
 20
-150.4679904137719
 10
105.8760524908921
 20
-150.1675780874581
 10
105.8760524908921
 20
-150.1675780874581
 10
105.8760524908921
 20
-150.0680148279344
 10
105.8695068094701
 20
-149.9684515684107
 10
105.8591715230144
 20
-149.8712998757266
 10
105.9604573302807
 20
-149.8775010476
 10
106.1912787277924
 20
-149.884046729022
 10
106.2991102164808
 20
-149.884046729022
 10
106.2991102164808
 20
-149.884046729022
 10
106.7221679420694
 20
-149.884046729022
 10
106.7221679420694
 20
-149.884046729022
 10
106.840679226762
 20
-149.884046729022
 10
106.8830539012306
 20
-149.884046729022
 10
106.9653916833281
 20
-149.8795681048912
 10
107.1135307891938
 20
-149.8733669330177
 10
107.1304117570715
 20
-149.8733669330177
 10
107.1769205461224
 20
-149.8712998757266
 10
107.1686523169578
 20
-149.9519151100814
 10
107.164173692827
 20
-150.1103895024029
 10
107.164173692827
 20
-150.1930717940489
 10
107.164173692827
 20
-150.1930717940489
 10
107.164173692827
 20
-150.4783257002276
 10
107.164173692827
 20
-150.4783257002276
 10
107.164173692827
 20
-150.5503281958693
 10
107.1662407501181
 20
-150.6815863338573
 10
107.1769205461224
 20
-150.7597900013725
 10
107.1049180504807
 20
-150.7556558867903
 10
106.9822726512058
 20
-150.7532443199506
 10
106.9040689836906
 20
-150.7511772626594
 10
107.0139675296701
 20
-150.8190456437188
 10
107.1662407501181
 20
-150.869688547352
 10
107.378114122461
 20
-150.8738226619343
 10
107.378114122461
 20
-150.8738226619343
 10
107.2847520348107
 20
-151.0536566462643
 10
107.2847520348107
 20
-151.0536566462643
 97
        0
 97
        1
330
105
 92
        1
 93
        1
 72
     4
 94
        3
 73
     0
 74
     0
 95
       71
 96
       67
 40
0.0
 40
0.0
 40
0.0
 40
0.0
 40
1.0
 40
1.0
 40
1.0
 40
2.0
 40
2.0
 40
2.0
 40
3.0
 40
3.0
 40
3.0
 40
4.0
 40
4.0
 40
4.0
 40
5.0
 40
5.0
 40
5.0
 40
6.0
 40
6.0
 40
6.0
 40
7.0
 40
7.0
 40
7.0
 40
8.0
 40
8.0
 40
8.0
 40
9.0
 40
9.0
 40
9.0
 40
10.0
 40
10.0
 40
10.0
 40
11.0
 40
11.0
 40
11.0
 40
12.0
 40
12.0
 40
12.0
 40
13.0
 40
13.0
 40
13.0
 40
14.0
 40
14.0
 40
14.0
 40
15.0
 40
15.0
 40
15.0
 40
16.0
 40
16.0
 40
16.0
 40
17.0
 40
17.0
 40
17.0
 40
18.0
 40
18.0
 40
18.0
 40
19.0
 40
19.0
 40
19.0
 40
20.0
 40
20.0
 40
20.0
 40
21.0
 40
21.0
 40
21.0
 40
22.0
 40
22.0
 40
22.0
 40
22.0
 10
106.4472493223465
 20
-149.2873561909767
 10
106.4324354117599
 20
-149.2873561909767
 10
106.4196885584645
 20
-149.2832220763945
 10
106.3941948518736
 20
-149.2746093376813
 10
106.2526014274299
 20
-149.3214626362807
 10
106.0789686149733
 20
-149.3379990946099
 10
105.9394422478207
 20
-149.3424777187408
 10
105.9394422478207
 20
-149.3424777187408
 10
105.9373751905295
 20
-149.4313611822602
 10
105.9373751905295
 20
-149.4313611822602
 10
105.9373751905295
 20
-149.4313611822602
 10
106.1974798996659
 20
-149.4313611822602
 10
106.1974798996659
 20
-149.4313611822602
 10
106.2505343701387
 20
-149.4313611822602
 10
106.4324354117599
 20
-149.4227484435471
 10
106.4768771435196
 20
-149.4165472716736
 10
106.4768771435196
 20
-149.4165472716736
 10
106.4768771435196
 20
-149.5770887212863
 10
106.4768771435196
 20
-149.5770887212863
 10
106.4217556157556
 20
-149.5708875494128
 10
106.2970431591896
 20
-149.5688204921217
 10
106.2588025993033
 20
-149.5708875494128
 10
106.2588025993033
 20
-149.5708875494128
 10
106.2588025993033
 20
-149.6811306049408
 10
106.2588025993033
 20
-149.6811306049408
 10
106.2588025993033
 20
-149.7272948844432
 10
106.2608696565945
 20
-149.7906846413718
 10
106.2674153380165
 20
-149.828925201258
 10
106.2674153380165
 20
-149.828925201258
 10
106.074834500391
 20
-149.828925201258
 10
106.074834500391
 20
-149.828925201258
 10
106.0810356722644
 20
-149.7886175840806
 10
106.0875813536864
 20
-149.7062798019831
 10
106.0875813536864
 20
-149.6914658913965
 10
106.0875813536864
 20
-149.6914658913965
 10
106.0875813536864
 20
-149.5708875494128
 10
106.0875813536864
 20
-149.5708875494128
 10
106.0875813536864
 20
-149.5708875494128
 10
105.922561279943
 20
-149.5708875494128
 10
105.922561279943
 20
-149.5708875494128
 10
105.8801866054744
 20
-149.7906846413718
 10
105.8250650777104
 20
-149.8712998757266
 10
105.7193006463132
 20
-149.9705186257018
 10
105.7193006463132
 20
-149.9705186257018
 10
105.5522135152786
 20
-149.85648596514
 10
105.5522135152786
 20
-149.85648596514
 10
105.6156032722072
 20
-149.807910118798
 10
105.7658094353641
 20
-149.6956000059789
 10
105.7658094353641
 20
-149.346611833323
 10
105.7658094353641
 20
-149.2642740512256
 10
105.7575412061995
 20
-149.2174207526262
 10
105.7489284674864
 20
-149.1691894158327
 10
105.8950005160609
 20
-149.1836588168707
 10
105.9098144266475
 20
-149.1836588168707
 10
105.9456434196941
 20
-149.1836588168707
 10
106.053819417931
 20
-149.1836588168707
 10
106.1954128423747
 20
-149.166777848993
 10
106.3562988015359
 20
-149.1054551493555
 10
106.3562988015359
 20
-149.1054551493555
 10
106.4703314620977
 20
-149.2367132873436
 10
106.4703314620977
 20
-149.2367132873436
 10
106.4768771435196
 20
-149.242914459217
 10
106.4810112581019
 20
-149.2515271979302
 10
106.4810112581019
 20
-149.2601399366433
 10
106.4810112581019
 20
-149.2832220763945
 10
106.4620632329331
 20
-149.2873561909767
 10
106.4472493223465
 20
-149.2873561909767
 97
        0
 97
        1
330
106
 75
     2
 76
     1
 98
        1
 10
0.0
 20
0.0
450
        0
451
        0
460
0.0
461
0.0
452
        0
462
0.0
453
        0
470

  0
SPLINE
  5
108
330
F6
100
AcDbEntity
  8
レイヤー 1
100
AcDbSpline
210
0.0
220
0.0
230
1.0
 70
     9
 71
     3
 72
    53
 73
    49
 74
     0
 42
0.0000000001
 43
0.0000000001
 40
0.0
 40
0.0
 40
0.0
 40
0.0
 40
1.0
 40
1.0
 40
1.0
 40
2.0
 40
2.0
 40
2.0
 40
3.0
 40
3.0
 40
3.0
 40
4.0
 40
4.0
 40
4.0
 40
5.0
 40
5.0
 40
5.0
 40
6.0
 40
6.0
 40
6.0
 40
7.0
 40
7.0
 40
7.0
 40
8.0
 40
8.0
 40
8.0
 40
9.0
 40
9.0
 40
9.0
 40
10.0
 40
10.0
 40
10.0
 40
11.0
 40
11.0
 40
11.0
 40
12.0
 40
12.0
 40
12.0
 40
13.0
 40
13.0
 40
13.0
 40
14.0
 40
14.0
 40
14.0
 40
15.0
 40
15.0
 40
15.0
 40
16.0
 40
16.0
 40
16.0
 40
16.0
 10
108.0464626465995
 20
-150.9289441896983
 30
0.0
 10
107.8562933758137
 20
-150.9289441896983
 30
0.0
 10
107.7970377334674
 20
-150.8042317331322
 30
0.0
 10
107.7970377334674
 20
-150.6560926272665
 30
0.0
 10
107.7970377334674
 20
-150.6560926272665
 30
0.0
 10
107.7970377334674
 20
-149.9622503965372
 30
0.0
 10
107.7970377334674
 20
-149.9622503965372
 30
0.0
 10
107.7970377334674
 20
-149.9622503965372
 30
0.0
 10
107.6151366918462
 20
-149.9622503965372
 30
0.0
 10
107.6151366918462
 20
-149.9622503965372
 30
0.0
 10
107.6151366918462
 20
-149.9622503965372
 30
0.0
 10
107.6151366918462
 20
-149.7700140684603
 30
0.0
 10
107.6151366918462
 20
-149.7700140684603
 30
0.0
 10
107.6151366918462
 20
-149.7700140684603
 30
0.0
 10
107.7970377334674
 20
-149.7700140684603
 30
0.0
 10
107.7970377334674
 20
-149.7700140684603
 30
0.0
 10
107.7970377334674
 20
-149.7700140684603
 30
0.0
 10
107.7970377334674
 20
-149.4544433220114
 30
0.0
 10
107.7970377334674
 20
-149.4544433220114
 30
0.0
 10
107.7970377334674
 20
-149.4544433220114
 30
0.0
 10
108.0147677681352
 20
-149.4544433220114
 30
0.0
 10
108.0147677681352
 20
-149.4544433220114
 30
0.0
 10
108.0147677681352
 20
-149.4544433220114
 30
0.0
 10
108.0147677681352
 20
-149.7700140684603
 30
0.0
 10
108.0147677681352
 20
-149.7700140684603
 30
0.0
 10
108.0147677681352
 20
-149.7700140684603
 30
0.0
 10
108.2052815484695
 20
-149.7700140684603
 30
0.0
 10
108.2052815484695
 20
-149.7700140684603
 30
0.0
 10
108.2052815484695
 20
-149.7700140684603
 30
0.0
 10
108.2052815484695
 20
-149.9622503965372
 30
0.0
 10
108.2052815484695
 20
-149.9622503965372
 30
0.0
 10
108.2052815484695
 20
-149.9622503965372
 30
0.0
 10
108.0147677681352
 20
-149.9622503965372
 30
0.0
 10
108.0147677681352
 20
-149.9622503965372
 30
0.0
 10
108.0147677681352
 20
-149.9622503965372
 30
0.0
 10
108.0147677681352
 20
-150.6305989206756
 30
0.0
 10
108.0147677681352
 20
-150.6305989206756
 30
0.0
 10
108.0147677681352
 20
-150.7153482696128
 30
0.0
 10
108.067822238608
 20
-150.7387749189125
 30
0.0
 10
108.1394802247012
 20
-150.7387749189125
 30
0.0
 10
108.1501600207055
 20
-150.7387749189125
 30
0.0
 10
108.1735866700052
 20
-150.7387749189125
 30
0.0
 10
108.2052815484695
 20
-150.7346408043302
 30
0.0
 10
108.2052815484695
 20
-150.7346408043302
 30
0.0
 10
108.2052815484695
 20
-150.9058620499471
 30
0.0
 10
108.2052815484695
 20
-150.9058620499471
 30
0.0
 10
108.171519612714
 20
-150.9186089032426
 30
0.0
 10
108.0974500597812
 20
-150.9289441896983
 30
0.0
 10
108.0464626465995
 20
-150.9289441896983
 30
0.0
  0
HATCH
  5
109
330
F6
100
AcDbEntity
  8
レイヤー 1
 62
   250
420
  2299925
440
 33554687
100
AcDbHatch
 10
0.0
 20
0.0
 30
0.0
210
0.0
220
0.0
230
1.0
  2
SOLID
 70
     1
 71
     1
 91
        1
 92
        1
 93
        1
 72
     4
 94
        3
 73
     0
 74
     0
 95
       53
 96
       49
 40
0.0
 40
0.0
 40
0.0
 40
0.0
 40
1.0
 40
1.0
 40
1.0
 40
2.0
 40
2.0
 40
2.0
 40
3.0
 40
3.0
 40
3.0
 40
4.0
 40
4.0
 40
4.0
 40
5.0
 40
5.0
 40
5.0
 40
6.0
 40
6.0
 40
6.0
 40
7.0
 40
7.0
 40
7.0
 40
8.0
 40
8.0
 40
8.0
 40
9.0
 40
9.0
 40
9.0
 40
10.0
 40
10.0
 40
10.0
 40
11.0
 40
11.0
 40
11.0
 40
12.0
 40
12.0
 40
12.0
 40
13.0
 40
13.0
 40
13.0
 40
14.0
 40
14.0
 40
14.0
 40
15.0
 40
15.0
 40
15.0
 40
16.0
 40
16.0
 40
16.0
 40
16.0
 10
108.0464626465995
 20
-150.9289441896983
 10
107.8562933758137
 20
-150.9289441896983
 10
107.7970377334674
 20
-150.8042317331322
 10
107.7970377334674
 20
-150.6560926272665
 10
107.7970377334674
 20
-150.6560926272665
 10
107.7970377334674
 20
-149.9622503965372
 10
107.7970377334674
 20
-149.9622503965372
 10
107.7970377334674
 20
-149.9622503965372
 10
107.6151366918462
 20
-149.9622503965372
 10
107.6151366918462
 20
-149.9622503965372
 10
107.6151366918462
 20
-149.9622503965372
 10
107.6151366918462
 20
-149.7700140684603
 10
107.6151366918462
 20
-149.7700140684603
 10
107.6151366918462
 20
-149.7700140684603
 10
107.7970377334674
 20
-149.7700140684603
 10
107.7970377334674
 20
-149.7700140684603
 10
107.7970377334674
 20
-149.7700140684603
 10
107.7970377334674
 20
-149.4544433220114
 10
107.7970377334674
 20
-149.4544433220114
 10
107.7970377334674
 20
-149.4544433220114
 10
108.0147677681352
 20
-149.4544433220114
 10
108.0147677681352
 20
-149.4544433220114
 10
108.0147677681352
 20
-149.4544433220114
 10
108.0147677681352
 20
-149.7700140684603
 10
108.0147677681352
 20
-149.7700140684603
 10
108.0147677681352
 20
-149.7700140684603
 10
108.2052815484695
 20
-149.7700140684603
 10
108.2052815484695
 20
-149.7700140684603
 10
108.2052815484695
 20
-149.7700140684603
 10
108.2052815484695
 20
-149.9622503965372
 10
108.2052815484695
 20
-149.9622503965372
 10
108.2052815484695
 20
-149.9622503965372
 10
108.0147677681352
 20
-149.9622503965372
 10
108.0147677681352
 20
-149.9622503965372
 10
108.0147677681352
 20
-149.9622503965372
 10
108.0147677681352
 20
-150.6305989206756
 10
108.0147677681352
 20
-150.6305989206756
 10
108.0147677681352
 20
-150.7153482696128
 10
108.067822238608
 20
-150.7387749189125
 10
108.1394802247012
 20
-150.7387749189125
 10
108.1501600207055
 20
-150.7387749189125
 10
108.1735866700052
 20
-150.7387749189125
 10
108.2052815484695
 20
-150.7346408043302
 10
108.2052815484695
 20
-150.7346408043302
 10
108.2052815484695
 20
-150.9058620499471
 10
108.2052815484695
 20
-150.9058620499471
 10
108.171519612714
 20
-150.9186089032426
 10
108.0974500597812
 20
-150.9289441896983
 10
108.0464626465995
 20
-150.9289441896983
 97
        0
 97
        1
330
108
 75
     2
 76
     1
 98
        1
 10
0.0
 20
0.0
450
        0
451
        0
460
0.0
461
0.0
452
        0
462
0.0
453
        0
470

  0
SPLINE
  5
10A
330
F6
100
AcDbEntity
  8
レイヤー 1
100
AcDbSpline
210
0.0
220
0.0
230
1.0
 70
    11
 71
     3
 72
    17
 73
    13
 74
     0
 42
0.0000000001
 43
0.0000000001
 40
0.0
 40
0.0
 40
0.0
 40
0.0
 40
1.0
 40
1.0
 40
1.0
 40
2.0
 40
2.0
 40
2.0
 40
3.0
 40
3.0
 40
3.0
 40
4.0
 40
4.0
 40
4.0
 40
4.0
 10
108.3792588704746
 20
-150.4256157393033
 30
0.0
 10
108.3792588704746
 20
-150.4256157393033
 30
0.0
 10
108.3792588704746
 20
-150.2206325579309
 30
0.0
 10
108.3792588704746
 20
-150.2206325579309
 30
0.0
 10
108.3792588704746
 20
-150.2206325579309
 30
0.0
 10
109.5574815264301
 20
-150.2206325579309
 30
0.0
 10
109.5574815264301
 20
-150.2206325579309
 30
0.0
 10
109.5574815264301
 20
-150.2206325579309
 30
0.0
 10
109.5574815264301
 20
-150.4256157393033
 30
0.0
 10
109.5574815264301
 20
-150.4256157393033
 30
0.0
 10
109.5574815264301
 20
-150.4256157393033
 30
0.0
 10
108.3792588704746
 20
-150.4256157393033
 30
0.0
 10
108.3792588704746
 20
-150.4256157393033
 30
0.0
  0
SPLINE
  5
10B
330
F6
100
AcDbEntity
  8
レイヤー 1
100
AcDbSpline
210
0.0
220
0.0
230
1.0
 70
    11
 71
     3
 72
    17
 73
    13
 74
     0
 42
0.0000000001
 43
0.0000000001
 40
0.0
 40
0.0
 40
0.0
 40
0.0
 40
1.0
 40
1.0
 40
1.0
 40
2.0
 40
2.0
 40
2.0
 40
3.0
 40
3.0
 40
3.0
 40
4.0
 40
4.0
 40
4.0
 40
4.0
 10
108.3792588704746
 20
-149.9918782177103
 30
0.0
 10
108.3792588704746
 20
-149.9918782177103
 30
0.0
 10
108.3792588704746
 20
-149.7865505267895
 30
0.0
 10
108.3792588704746
 20
-149.7865505267895
 30
0.0
 10
108.3792588704746
 20
-149.7865505267895
 30
0.0
 10
109.5574815264301
 20
-149.7865505267895
 30
0.0
 10
109.5574815264301
 20
-149.7865505267895
 30
0.0
 10
109.5574815264301
 20
-149.7865505267895
 30
0.0
 10
109.5574815264301
 20
-149.9918782177103
 30
0.0
 10
109.5574815264301
 20
-149.9918782177103
 30
0.0
 10
109.5574815264301
 20
-149.9918782177103
 30
0.0
 10
108.3792588704746
 20
-149.9918782177103
 30
0.0
 10
108.3792588704746
 20
-149.9918782177103
 30
0.0
  0
HATCH
  5
10C
330
F6
100
AcDbEntity
  8
レイヤー 1
 62
   250
420
  2299925
440
 33554687
100
AcDbHatch
 10
0.0
 20
0.0
 30
0.0
210
0.0
220
0.0
230
1.0
  2
SOLID
 70
     1
 71
     1
 91
        2
 92
        1
 93
        1
 72
     4
 94
        3
 73
     0
 74
     0
 95
       17
 96
       13
 40
0.0
 40
0.0
 40
0.0
 40
0.0
 40
1.0
 40
1.0
 40
1.0
 40
2.0
 40
2.0
 40
2.0
 40
3.0
 40
3.0
 40
3.0
 40
4.0
 40
4.0
 40
4.0
 40
4.0
 10
108.3792588704746
 20
-150.4256157393033
 10
108.3792588704746
 20
-150.4256157393033
 10
108.3792588704746
 20
-150.2206325579309
 10
108.3792588704746
 20
-150.2206325579309
 10
108.3792588704746
 20
-150.2206325579309
 10
109.5574815264301
 20
-150.2206325579309
 10
109.5574815264301
 20
-150.2206325579309
 10
109.5574815264301
 20
-150.2206325579309
 10
109.5574815264301
 20
-150.4256157393033
 10
109.5574815264301
 20
-150.4256157393033
 10
109.5574815264301
 20
-150.4256157393033
 10
108.3792588704746
 20
-150.4256157393033
 10
108.3792588704746
 20
-150.4256157393033
 97
        0
 97
        1
330
10A
 92
        1
 93
        1
 72
     4
 94
        3
 73
     0
 74
     0
 95
       17
 96
       13
 40
0.0
 40
0.0
 40
0.0
 40
0.0
 40
1.0
 40
1.0
 40
1.0
 40
2.0
 40
2.0
 40
2.0
 40
3.0
 40
3.0
 40
3.0
 40
4.0
 40
4.0
 40
4.0
 40
4.0
 10
108.3792588704746
 20
-149.9918782177103
 10
108.3792588704746
 20
-149.9918782177103
 10
108.3792588704746
 20
-149.7865505267895
 10
108.3792588704746
 20
-149.7865505267895
 10
108.3792588704746
 20
-149.7865505267895
 10
109.5574815264301
 20
-149.7865505267895
 10
109.5574815264301
 20
-149.7865505267895
 10
109.5574815264301
 20
-149.7865505267895
 10
109.5574815264301
 20
-149.9918782177103
 10
109.5574815264301
 20
-149.9918782177103
 10
109.5574815264301
 20
-149.9918782177103
 10
108.3792588704746
 20
-149.9918782177103
 10
108.3792588704746
 20
-149.9918782177103
 97
        0
 97
        1
330
10B
 75
     2
 76
     1
 98
        1
 10
0.0
 20
0.0
450
        0
451
        0
460
0.0
461
0.0
452
        0
462
0.0
453
        0
470

  0
SPLINE
  5
10D
330
F6
100
AcDbEntity
  8
レイヤー 1
100
AcDbSpline
210
0.0
220
0.0
230
1.0
 70
    11
 71
     3
 72
    26
 73
    22
 74
     0
 42
0.0000000001
 43
0.0000000001
 40
0.0
 40
0.0
 40
0.0
 40
0.0
 40
1.0
 40
1.0
 40
1.0
 40
2.0
 40
2.0
 40
2.0
 40
3.0
 40
3.0
 40
3.0
 40
4.0
 40
4.0
 40
4.0
 40
5.0
 40
5.0
 40
5.0
 40
6.0
 40
6.0
 40
6.0
 40
7.0
 40
7.0
 40
7.0
 40
7.0
 10
110.2337537701846
 20
-150.8783012860651
 30
0.0
 10
110.2337537701846
 20
-150.8783012860651
 30
0.0
 10
110.2337537701846
 20
-149.7741481830425
 30
0.0
 10
110.2337537701846
 20
-149.7741481830425
 30
0.0
 10
110.2337537701846
 20
-149.7741481830425
 30
0.0
 10
109.9037136226977
 20
-149.7741481830425
 30
0.0
 10
109.9037136226977
 20
-149.7741481830425
 30
0.0
 10
109.9037136226977
 20
-149.7741481830425
 30
0.0
 10
109.9037136226977
 20
-149.6260090771768
 30
0.0
 10
109.9037136226977
 20
-149.6260090771768
 30
0.0
 10
110.2358208274758
 20
-149.6111951665902
 30
0.0
 10
110.2823296165266
 20
-149.4482421501379
 30
0.0
 10
110.3119574376998
 20
-149.3338649800276
 30
0.0
 10
110.3119574376998
 20
-149.3338649800276
 30
0.0
 10
110.4580294862744
 20
-149.3338649800276
 30
0.0
 10
110.4580294862744
 20
-149.3338649800276
 30
0.0
 10
110.4580294862744
 20
-149.3338649800276
 30
0.0
 10
110.4580294862744
 20
-150.8783012860651
 30
0.0
 10
110.4580294862744
 20
-150.8783012860651
 30
0.0
 10
110.4580294862744
 20
-150.8783012860651
 30
0.0
 10
110.2337537701846
 20
-150.8783012860651
 30
0.0
 10
110.2337537701846
 20
-150.8783012860651
 30
0.0
  0
HATCH
  5
10E
330
F6
100
AcDbEntity
  8
レイヤー 1
 62
   250
420
  2299925
440
 33554687
100
AcDbHatch
 10
0.0
 20
0.0
 30
0.0
210
0.0
220
0.0
230
1.0
  2
SOLID
 70
     1
 71
     1
 91
        1
 92
        1
 93
        1
 72
     4
 94
        3
 73
     0
 74
     0
 95
       26
 96
       22
 40
0.0
 40
0.0
 40
0.0
 40
0.0
 40
1.0
 40
1.0
 40
1.0
 40
2.0
 40
2.0
 40
2.0
 40
3.0
 40
3.0
 40
3.0
 40
4.0
 40
4.0
 40
4.0
 40
5.0
 40
5.0
 40
5.0
 40
6.0
 40
6.0
 40
6.0
 40
7.0
 40
7.0
 40
7.0
 40
7.0
 10
110.2337537701846
 20
-150.8783012860651
 10
110.2337537701846
 20
-150.8783012860651
 10
110.2337537701846
 20
-149.7741481830425
 10
110.2337537701846
 20
-149.7741481830425
 10
110.2337537701846
 20
-149.7741481830425
 10
109.9037136226977
 20
-149.7741481830425
 10
109.9037136226977
 20
-149.7741481830425
 10
109.9037136226977
 20
-149.7741481830425
 10
109.9037136226977
 20
-149.6260090771768
 10
109.9037136226977
 20
-149.6260090771768
 10
110.2358208274758
 20
-149.6111951665902
 10
110.2823296165266
 20
-149.4482421501379
 10
110.3119574376998
 20
-149.3338649800276
 10
110.3119574376998
 20
-149.3338649800276
 10
110.4580294862744
 20
-149.3338649800276
 10
110.4580294862744
 20
-149.3338649800276
 10
110.4580294862744
 20
-149.3338649800276
 10
110.4580294862744
 20
-150.8783012860651
 10
110.4580294862744
 20
-150.8783012860651
 10
110.4580294862744
 20
-150.8783012860651
 10
110.2337537701846
 20
-150.8783012860651
 10
110.2337537701846
 20
-150.8783012860651
 97
        0
 97
        1
330
10D
 75
     2
 76
     1
 98
        1
 10
0.0
 20
0.0
450
        0
451
        0
460
0.0
461
0.0
452
        0
462
0.0
453
        0
470

  0
SPLINE
  5
10F
330
F6
100
AcDbEntity
  8
レイヤー 1
100
AcDbSpline
210
0.0
220
0.0
230
1.0
 70
    11
 71
     3
 72
    17
 73
    13
 74
     0
 42
0.0000000001
 43
0.0000000001
 40
0.0
 40
0.0
 40
0.0
 40
0.0
 40
1.0
 40
1.0
 40
1.0
 40
2.0
 40
2.0
 40
2.0
 40
3.0
 40
3.0
 40
3.0
 40
4.0
 40
4.0
 40
4.0
 40
4.0
 10
111.0199245599186
 20
-150.8783012860651
 30
0.0
 10
111.0199245599186
 20
-150.8783012860651
 30
0.0
 10
111.0199245599186
 20
-150.6264648060934
 30
0.0
 10
111.0199245599186
 20
-150.6264648060934
 30
0.0
 10
111.0199245599186
 20
-150.6264648060934
 30
0.0
 10
111.2717610398904
 20
-150.6264648060934
 30
0.0
 10
111.2717610398904
 20
-150.6264648060934
 30
0.0
 10
111.2717610398904
 20
-150.6264648060934
 30
0.0
 10
111.2717610398904
 20
-150.8783012860651
 30
0.0
 10
111.2717610398904
 20
-150.8783012860651
 30
0.0
 10
111.2717610398904
 20
-150.8783012860651
 30
0.0
 10
111.0199245599186
 20
-150.8783012860651
 30
0.0
 10
111.0199245599186
 20
-150.8783012860651
 30
0.0
  0
HATCH
  5
110
330
F6
100
AcDbEntity
  8
レイヤー 1
 62
   250
420
  2299925
440
 33554687
100
AcDbHatch
 10
0.0
 20
0.0
 30
0.0
210
0.0
220
0.0
230
1.0
  2
SOLID
 70
     1
 71
     1
 91
        1
 92
        1
 93
        1
 72
     4
 94
        3
 73
     0
 74
     0
 95
       17
 96
       13
 40
0.0
 40
0.0
 40
0.0
 40
0.0
 40
1.0
 40
1.0
 40
1.0
 40
2.0
 40
2.0
 40
2.0
 40
3.0
 40
3.0
 40
3.0
 40
4.0
 40
4.0
 40
4.0
 40
4.0
 10
111.0199245599186
 20
-150.8783012860651
 10
111.0199245599186
 20
-150.8783012860651
 10
111.0199245599186
 20
-150.6264648060934
 10
111.0199245599186
 20
-150.6264648060934
 10
111.0199245599186
 20
-150.6264648060934
 10
111.2717610398904
 20
-150.6264648060934
 10
111.2717610398904
 20
-150.6264648060934
 10
111.2717610398904
 20
-150.6264648060934
 10
111.2717610398904
 20
-150.8783012860651
 10
111.2717610398904
 20
-150.8783012860651
 10
111.2717610398904
 20
-150.8783012860651
 10
111.0199245599186
 20
-150.8783012860651
 10
111.0199245599186
 20
-150.8783012860651
 97
        0
 97
        1
330
10F
 75
     2
 76
     1
 98
        1
 10
0.0
 20
0.0
450
        0
451
        0
460
0.0
461
0.0
452
        0
462
0.0
453
        0
470

  0
SPLINE
  5
111
330
F6
100
AcDbEntity
  8
レイヤー 1
100
AcDbSpline
210
0.0
220
0.0
230
1.0
 70
     9
 71
     3
 72
    17
 73
    13
 74
     0
 42
0.0000000001
 43
0.0000000001
 40
0.0
 40
0.0
 40
0.0
 40
0.0
 40
1.0
 40
1.0
 40
1.0
 40
2.0
 40
2.0
 40
2.0
 40
3.0
 40
3.0
 40
3.0
 40
4.0
 40
4.0
 40
4.0
 40
4.0
 10
112.0079779450882
 20
-149.4778699713111
 30
0.0
 10
111.7585530319562
 20
-149.4778699713111
 30
0.0
 10
111.7116997333568
 20
-149.7614013297471
 30
0.0
 10
111.7116997333568
 20
-150.1062553878206
 30
0.0
 10
111.7116997333568
 20
-150.4256157393033
 30
0.0
 10
111.7478732359519
 20
-150.7346408043302
 30
0.0
 10
112.0079779450882
 20
-150.7346408043302
 30
0.0
 10
112.2556803104777
 20
-150.7346408043302
 30
0.0
 10
112.3042561568198
 20
-150.4528319936368
 30
0.0
 10
112.3042561568198
 20
-150.1062553878206
 30
0.0
 10
112.3042561568198
 20
-149.7865505267895
 30
0.0
 10
112.2660155969335
 20
-149.4778699713111
 30
0.0
 10
112.0079779450882
 20
-149.4778699713111
 30
0.0
  0
SPLINE
  5
112
330
F6
100
AcDbEntity
  8
レイヤー 1
100
AcDbSpline
210
0.0
220
0.0
230
1.0
 70
     9
 71
     3
 72
    29
 73
    25
 74
     0
 42
0.0000000001
 43
0.0000000001
 40
0.0
 40
0.0
 40
0.0
 40
0.0
 40
1.0
 40
1.0
 40
1.0
 40
2.0
 40
2.0
 40
2.0
 40
3.0
 40
3.0
 40
3.0
 40
4.0
 40
4.0
 40
4.0
 40
5.0
 40
5.0
 40
5.0
 40
6.0
 40
6.0
 40
6.0
 40
7.0
 40
7.0
 40
7.0
 40
8.0
 40
8.0
 40
8.0
 40
8.0
 10
112.4058864736346
 20
-150.7005343590262
 30
0.0
 10
112.2977104753978
 20
-150.9099961645294
 30
0.0
 10
112.1244221724897
 20
-150.9289441896983
 30
0.0
 10
112.0079779450882
 20
-150.9289441896983
 30
0.0
 10
111.8470919859271
 20
-150.9289441896983
 30
0.0
 10
111.7054985614833
 20
-150.882779910196
 30
0.0
 10
111.6104139260904
 20
-150.7005343590262
 30
0.0
 10
111.5067165519844
 20
-150.5058864641096
 30
0.0
 10
111.4877685268155
 20
-150.2688638947244
 30
0.0
 10
111.4877685268155
 20
-150.1062553878206
 30
0.0
 10
111.4877685268155
 20
-149.9622503965372
 30
0.0
 10
111.5046494946932
 20
-149.710758426114
 30
0.0
 10
111.6104139260904
 20
-149.5116319070665
 30
0.0
 10
111.7182454147787
 20
-149.3083712734368
 30
0.0
 10
111.8791313739399
 20
-149.2852891336856
 30
0.0
 10
112.0079779450882
 20
-149.2852891336856
 30
0.0
 10
112.1667968469583
 20
-149.2852891336856
 30
0.0
 10
112.3104573286932
 20
-149.3297308654453
 30
0.0
 10
112.4058864736346
 20
-149.5116319070665
 30
0.0
 10
112.5051052236098
 20
-149.704212744692
 30
0.0
 10
112.5285318729095
 20
-149.932622575364
 30
0.0
 10
112.5285318729095
 20
-150.1062553878206
 30
0.0
 10
112.5285318729095
 20
-150.2774766334376
 30
0.0
 10
112.507172280901
 20
-150.5079535214008
 30
0.0
 10
112.4058864736346
 20
-150.7005343590262
 30
0.0
  0
HATCH
  5
113
330
F6
100
AcDbEntity
  8
レイヤー 1
 62
   250
420
  2299925
440
 33554687
100
AcDbHatch
 10
0.0
 20
0.0
 30
0.0
210
0.0
220
0.0
230
1.0
  2
SOLID
 70
     1
 71
     1
 91
        2
 92
        1
 93
        1
 72
     4
 94
        3
 73
     0
 74
     0
 95
       17
 96
       13
 40
0.0
 40
0.0
 40
0.0
 40
0.0
 40
1.0
 40
1.0
 40
1.0
 40
2.0
 40
2.0
 40
2.0
 40
3.0
 40
3.0
 40
3.0
 40
4.0
 40
4.0
 40
4.0
 40
4.0
 10
112.0079779450882
 20
-149.4778699713111
 10
111.7585530319562
 20
-149.4778699713111
 10
111.7116997333568
 20
-149.7614013297471
 10
111.7116997333568
 20
-150.1062553878206
 10
111.7116997333568
 20
-150.4256157393033
 10
111.7478732359519
 20
-150.7346408043302
 10
112.0079779450882
 20
-150.7346408043302
 10
112.2556803104777
 20
-150.7346408043302
 10
112.3042561568198
 20
-150.4528319936368
 10
112.3042561568198
 20
-150.1062553878206
 10
112.3042561568198
 20
-149.7865505267895
 10
112.2660155969335
 20
-149.4778699713111
 10
112.0079779450882
 20
-149.4778699713111
 97
        0
 97
        1
330
111
 92
        1
 93
        1
 72
     4
 94
        3
 73
     0
 74
     0
 95
       29
 96
       25
 40
0.0
 40
0.0
 40
0.0
 40
0.0
 40
1.0
 40
1.0
 40
1.0
 40
2.0
 40
2.0
 40
2.0
 40
3.0
 40
3.0
 40
3.0
 40
4.0
 40
4.0
 40
4.0
 40
5.0
 40
5.0
 40
5.0
 40
6.0
 40
6.0
 40
6.0
 40
7.0
 40
7.0
 40
7.0
 40
8.0
 40
8.0
 40
8.0
 40
8.0
 10
112.4058864736346
 20
-150.7005343590262
 10
112.2977104753978
 20
-150.9099961645294
 10
112.1244221724897
 20
-150.9289441896983
 10
112.0079779450882
 20
-150.9289441896983
 10
111.8470919859271
 20
-150.9289441896983
 10
111.7054985614833
 20
-150.882779910196
 10
111.6104139260904
 20
-150.7005343590262
 10
111.5067165519844
 20
-150.5058864641096
 10
111.4877685268155
 20
-150.2688638947244
 10
111.4877685268155
 20
-150.1062553878206
 10
111.4877685268155
 20
-149.9622503965372
 10
111.5046494946932
 20
-149.710758426114
 10
111.6104139260904
 20
-149.5116319070665
 10
111.7182454147787
 20
-149.3083712734368
 10
111.8791313739399
 20
-149.2852891336856
 10
112.0079779450882
 20
-149.2852891336856
 10
112.1667968469583
 20
-149.2852891336856
 10
112.3104573286932
 20
-149.3297308654453
 10
112.4058864736346
 20
-149.5116319070665
 10
112.5051052236098
 20
-149.704212744692
 10
112.5285318729095
 20
-149.932622575364
 10
112.5285318729095
 20
-150.1062553878206
 10
112.5285318729095
 20
-150.2774766334376
 10
112.507172280901
 20
-150.5079535214008
 10
112.4058864736346
 20
-150.7005343590262
 97
        0
 97
        1
330
112
 75
     2
 76
     1
 98
        1
 10
0.0
 20
0.0
450
        0
451
        0
460
0.0
461
0.0
452
        0
462
0.0
453
        0
470

  0
ENDBLK
  5
F9
330
F6
100
AcDbEntity
  8
0
100
AcDbBlockEnd
  0
BLOCK
  5
11C
330
11A
100
AcDbEntity
  8
0
100
AcDbBlockBegin
  2
Block_18
 70
     0
 10
0.0
 20
0.0
 30
0.0
  3
Block_18
  1

  0
LWPOLYLINE
  5
11E
330
11A
100
AcDbEntity
  8
レイヤー 1
 62
   250
420
  2299925
370
    25
100
AcDbPolyline
 90
        4
 70
     1
 43
0.0
 10
94.21349681903969
 20
-149.6814279363236
 10
93.21349681928927
 20
-149.6814279363236
 10
93.61349681918918
 20
-130.8663489305729
 10
94.21349681903969
 20
-130.8663489305729
  0
LWPOLYLINE
  5
11F
330
11A
100
AcDbEntity
  8
レイヤー 1
 62
   250
420
  2299925
370
    25
100
AcDbPolyline
 90
        4
 70
     1
 43
0.0
 10
123.8245648458085
 20
-161.0774169810343
 10
105.0123294561579
 20
-161.4774169809342
 10
105.0123294561579
 20
-160.4774169811844
 10
123.8245648458085
 20
-160.4774169811844
  0
LWPOLYLINE
  5
120
330
11A
100
AcDbEntity
  8
レイヤー 1
 62
   250
420
  2299925
370
    25
100
AcDbPolyline
 90
        4
 70
     1
 43
0.0
 10
102.9665580498292
 20
-160.6194101720311
 10
94.07629627378904
 20
-151.729148396308
 10
94.78340305478324
 20
-151.0220416152817
 10
103.6736648308234
 20
-159.9123033910049
  0
SPLINE
  5
121
330
11A
100
AcDbEntity
  8
レイヤー 1
 62
   250
420
  2299925
370
    25
100
AcDbSpline
210
0.0
220
0.0
230
1.0
 70
    11
 71
     3
 72
    29
 73
    25
 74
     0
 42
0.0000000001
 43
0.0000000001
 40
0.0
 40
0.0
 40
0.0
 40
0.0
 40
1.0
 40
1.0
 40
1.0
 40
2.0
 40
2.0
 40
2.0
 40
3.0
 40
3.0
 40
3.0
 40
4.0
 40
4.0
 40
4.0
 40
5.0
 40
5.0
 40
5.0
 40
6.0
 40
6.0
 40
6.0
 40
7.0
 40
7.0
 40
7.0
 40
8.0
 40
8.0
 40
8.0
 40
8.0
 10
105.0123826359866
 20
-161.4813430382192
 30
0.0
 10
105.0123826359866
 20
-161.4813430382192
 30
0.0
 10
104.6187804767968
 20
-161.4813430382192
 30
0.0
 10
104.6187804767968
 20
-161.4813430382192
 30
0.0
 10
104.0799675429037
 20
-161.4813430382192
 30
0.0
 10
103.7235724149546
 20
-161.3984884917989
 30
0.0
 10
103.2714036325156
 20
-160.9464919641341
 30
0.0
 10
103.2714036325156
 20
-160.9464919641341
 30
0.0
 10
102.9532490644528
 20
-160.6283373960713
 30
0.0
 10
102.9532490644528
 20
-160.6283373960713
 30
0.0
 10
102.9532490644528
 20
-160.6283373960713
 30
0.0
 10
103.660182658026
 20
-159.9210592929495
 30
0.0
 10
103.660182658026
 20
-159.9210592929495
 30
0.0
 10
103.660182658026
 20
-159.9210592929495
 30
0.0
 10
103.9785094808631
 20
-160.2392138610123
 30
0.0
 10
103.9785094808631
 20
-160.2392138610123
 30
0.0
 10
104.2026129421786
 20
-160.4633173223279
 30
0.0
 10
104.2808166096938
 20
-160.4812318188511
 30
0.0
 10
104.6187804767968
 20
-160.4812318188511
 30
0.0
 10
104.6187804767968
 20
-160.4812318188511
 30
0.0
 10
105.0123826359866
 20
-160.4812318188511
 30
0.0
 10
105.0123826359866
 20
-160.4812318188511
 30
0.0
 10
105.0123826359866
 20
-160.4812318188511
 30
0.0
 10
105.0123826359866
 20
-161.4813430382192
 30
0.0
 10
105.0123826359866
 20
-161.4813430382192
 30
0.0
  0
SPLINE
  5
122
330
11A
100
AcDbEntity
  8
レイヤー 1
 62
   250
420
  2299925
370
    25
100
AcDbSpline
210
0.0
220
0.0
230
1.0
 70
    11
 71
     3
 72
    29
 73
    25
 74
     0
 42
0.0000000001
 43
0.0000000001
 40
0.0
 40
0.0
 40
0.0
 40
0.0
 40
1.0
 40
1.0
 40
1.0
 40
2.0
 40
2.0
 40
2.0
 40
3.0
 40
3.0
 40
3.0
 40
4.0
 40
4.0
 40
4.0
 40
5.0
 40
5.0
 40
5.0
 40
6.0
 40
6.0
 40
6.0
 40
7.0
 40
7.0
 40
7.0
 40
8.0
 40
8.0
 40
8.0
 40
8.0
 10
94.06680525303253
 20
-151.7418935846511
 30
0.0
 10
94.06680525303253
 20
-151.7418935846511
 30
0.0
 10
93.74830617542118
 20
-151.423566761814
 30
0.0
 10
93.74830617542118
 20
-151.423566761814
 30
0.0
 10
93.29079749497999
 20
-150.9658858265985
 30
0.0
 10
93.21345510133614
 20
-150.6535879208606
 30
0.0
 10
93.21345510133614
 20
-150.1270050759402
 30
0.0
 10
93.21345510133614
 20
-150.1270050759402
 30
0.0
 10
93.21345510133614
 20
-149.6813819749231
 30
0.0
 10
93.21345510133614
 20
-149.6813819749231
 30
0.0
 10
93.21345510133614
 20
-149.6813819749231
 30
0.0
 10
94.21356632070416
 20
-149.6813819749231
 30
0.0
 10
94.21356632070416
 20
-149.6813819749231
 30
0.0
 10
94.21356632070416
 20
-149.6813819749231
 30
0.0
 10
94.21356632070416
 20
-150.1270050759402
 30
0.0
 10
94.21356632070416
 20
-150.1270050759402
 30
0.0
 10
94.21356632070416
 20
-150.428106421351
 30
0.0
 10
94.21356632070416
 20
-150.4744429556276
 30
0.0
 10
94.45558427854296
 20
-150.7162886586922
 30
0.0
 10
94.45558427854296
 20
-150.7162886586922
 30
0.0
 10
94.77391110138006
 20
-151.0349599910778
 30
0.0
 10
94.77391110138006
 20
-151.0349599910778
 30
0.0
 10
94.77391110138006
 20
-151.0349599910778
 30
0.0
 10
94.06680525303253
 20
-151.7418935846511
 30
0.0
 10
94.06680525303253
 20
-151.7418935846511
 30
0.0
  0
ENDBLK
  5
11D
330
11A
100
AcDbEntity
  8
0
100
AcDbBlockEnd
  0
ENDSEC
  0
SECTION
  2
ENTITIES
  0
LINE
  5
79
330
70
100
AcDbEntity
  8
レイヤー 1
  6
AI-Linetype-0
 62
   154
420
    23468
370
    25
100
AcDbLine
 10
94.72447310620237
 20
-130.8720015971736
 30
0.0
 11
94.72447310620237
 21
-140.8717343976148
 31
0.0
  0
LINE
  5
7B
330
70
100
AcDbEntity
  8
レイヤー 1
  6
AI-Linetype-1
 62
   154
420
    23468
370
    25
100
AcDbLine
 10
113.7249281588907
 20
-160.0252071671612
 30
0.0
 11
123.7246609593318
 21
-160.0252071671612
 31
0.0
  0
LINE
  5
7D
330
70
100
AcDbEntity
  8
レイヤー 1
 62
    18
420
        0
370
     9
100
AcDbLine
 10
95.16544531717446
 20
-138.8019166726425
 30
0.0
 11
110.7035177424296
 21
-138.8019166726425
 31
0.0
  0
LINE
  5
7E
330
70
100
AcDbEntity
  8
レイヤー 1
 62
    18
420
        0
370
     9
100
AcDbLine
 10
95.16544531717446
 20
-138.8019166726425
 30
0.0
 11
96.13142140364146
 21
-138.5428366792521
 31
0.0
  0
LINE
  5
7F
330
70
100
AcDbEntity
  8
レイヤー 1
 62
    18
420
        0
370
     9
100
AcDbLine
 10
95.16544531717446
 20
-138.8019166726425
 30
0.0
 11
96.13142140364146
 21
-139.0609917845396
 31
0.0
  0
LINE
  5
80
330
70
100
AcDbEntity
  8
レイヤー 1
 62
    18
420
        0
370
     9
100
AcDbLine
 10
116.282741349286
 20
-159.4380561653403
 30
0.0
 11
116.5418179951378
 21
-158.4720404116029
 31
0.0
  0
LINE
  5
81
330
70
100
AcDbEntity
  8
レイヤー 1
 62
    18
420
        0
370
     9
100
AcDbLine
 10
116.282741349286
 20
-159.4380561289188
 30
0.0
 11
116.282741349286
 21
-140.1031973899315
 31
0.0
  0
LINE
  5
82
330
70
100
AcDbEntity
  8
レイヤー 1
 62
    18
420
        0
370
     9
100
AcDbLine
 10
116.282741349286
 20
-159.4380561653403
 30
0.0
 11
116.0236580083571
 21
-158.4720404116029
 31
0.0
  0
INSERT
  5
84
330
70
100
AcDbEntity
  8
レイヤー 1
100
AcDbBlockReference
  2
Block_0
 10
0.0
 20
0.0
 30
0.0
  0
INSERT
  5
9E
330
70
100
AcDbEntity
  8
レイヤー 1
100
AcDbBlockReference
  2
Block_2
 10
0.0
 20
0.0
 30
0.0
  0
ENDSEC
  0
SECTION
  2
OBJECTS
  0
DICTIONARY
  5
C
330
0
100
AcDbDictionary
281
     1
  3
ACAD_COLOR
350
63
  3
ACAD_DETAILVIEWSTYLE
350
6A
  3
ACAD_GROUP
350
D
  3
ACAD_LAYOUT
350
62
  3
ACAD_MATERIAL
350
10
  3
ACAD_MLEADERSTYLE
350
66
  3
ACAD_MLINESTYLE
350
5F
  3
ACAD_PLOTSETTINGS
350
61
  3
ACAD_PLOTSTYLENAME
350
E
  3
ACAD_SCALELIST
350
42
  3
ACAD_SECTIONVIEWSTYLE
350
68
  3
ACAD_TABLESTYLE
350
64
  3
ACAD_VISUALSTYLE
350
29
  3
ACDB_RECOMPOSE_DATA
350
12B
  3
AcDbVariableDictionary
350
123
  0
DICTIONARY
  5
63
102
{ACAD_REACTORS
330
C
102
}
330
C
100
AcDbDictionary
281
     1
  0
DICTIONARY
  5
6A
102
{ACAD_REACTORS
330
C
102
}
330
C
100
AcDbDictionary
281
     1
  3
Imperial24
350
6B
  0
DICTIONARY
  5
D
102
{ACAD_REACTORS
330
C
102
}
330
C
100
AcDbDictionary
281
     1
  0
DICTIONARY
  5
62
102
{ACAD_REACTORS
330
C
102
}
330
C
100
AcDbDictionary
281
     1
  3
Layout1
350
6F
  3
Layout2
350
77
  3
Model
350
73
  0
DICTIONARY
  5
10
102
{ACAD_REACTORS
330
C
102
}
330
C
100
AcDbDictionary
281
     1
  3
ByBlock
350
19
  3
ByLayer
350
11
  3
Global
350
21
  0
DICTIONARY
  5
66
102
{ACAD_REACTORS
330
C
102
}
330
C
100
AcDbDictionary
281
     1
  3
Standard
350
67
  0
DICTIONARY
  5
5F
102
{ACAD_REACTORS
330
C
102
}
330
C
100
AcDbDictionary
281
     1
  3
Standard
350
60
  0
DICTIONARY
  5
61
102
{ACAD_REACTORS
330
C
102
}
330
C
100
AcDbDictionary
281
     1
  0
ACDBDICTIONARYWDFLT
  5
E
102
{ACAD_REACTORS
330
C
102
}
330
C
100
AcDbDictionary
281
     1
  3
Normal
350
F
100
AcDbDictionaryWithDefault
340
F
  0
DICTIONARY
  5
42
102
{ACAD_REACTORS
330
C
102
}
330
C
100
AcDbDictionary
281
     1
  3
A0
350
43
  3
A1
350
44
  3
A2
350
45
  3
A3
350
46
  3
A4
350
47
  3
A5
350
48
  3
A6
350
49
  3
A7
350
4A
  3
A8
350
4B
  3
A9
350
4C
  3
B0
350
4D
  3
B1
350
4E
  3
B2
350
4F
  3
B3
350
50
  3
B4
350
51
  3
B5
350
52
  3
B6
350
53
  0
DICTIONARY
  5
68
102
{ACAD_REACTORS
330
C
102
}
330
C
100
AcDbDictionary
281
     1
  3
Imperial24
350
69
  0
DICTIONARY
  5
64
102
{ACAD_REACTORS
330
C
102
}
330
C
100
AcDbDictionary
281
     1
  3
Standard
350
65
  0
DICTIONARY
  5
29
102
{ACAD_REACTORS
330
C
102
}
330
C
100
AcDbDictionary
281
     1
  3
2dWireframe
350
2F
  3
Basic
350
2E
  3
Brighten
350
35
  3
ColorChange
350
39
  3
Conceptual
350
32
  3
Dim
350
34
  3
EdgeColorOff
350
41
  3
Facepattern
350
38
  3
Flat
350
2A
  3
FlatWithEdges
350
2B
  3
Gouraud
350
2C
  3
GouraudWithEdges
350
2D
  3
Hidden
350
31
  3
JitterOff
350
3F
  3
Linepattern
350
37
  3
OverhangOff
350
40
  3
Realistic
350
33
  3
Shaded
350
3E
  3
Shaded with edges
350
3D
  3
Shades of Gray
350
3A
  3
Sketchy
350
3B
  3
Thicken
350
36
  3
Wireframe
350
30
  3
X-Ray
350
3C
  0
XRECORD
  5
12B
102
{ACAD_REACTORS
330
C
102
}
330
C
100
AcDbXrecord
280
     1
 90
        1
330
65
  0
DICTIONARY
  5
123
102
{ACAD_REACTORS
330
C
102
}
330
C
100
AcDbDictionary
281
     1
  3
CANNOSCALE
350
128
  3
CMLEADERSTYLE
350
125
  3
CTABLESTYLE
350
124
  3
CVIEWDETAILSTYLE
350
126
  3
CVIEWSECTIONSTYLE
350
127
  0
ACDBDETAILVIEWSTYLE
  5
6B
102
{ACAD_XDICTIONARY
360
160
102
}
102
{ACAD_REACTORS
330
6A
102
}
330
6A
100
AcDbModelDocViewStyle
 70
     0
  3
Imperial24
290
     0
100
AcDbDetailViewStyle
 70
     0
 71
     0
 90
        3
 71
     1
340
55
 62
   256
 40
0.24
340
0
 62
   256
 40
0.24
300

 40
0.36
280
     3
 71
     2
340
5D
 90
       25
 62
   256
 71
     3
340
55
 62
   256
 40
0.24
 90
        1
 40
0.75
 90
        1
300
%<\AcVar ViewType \f "%tc1">% %<\AcVar ViewDetailId>%\PSCALE %<\AcVar ViewScale \f "%sn">%
 71
     4
340
5D
 90
       25
 62
   256
340
5D
 90
       25
 62
   256
280
     0
  0
LAYOUT
  5
6F
102
{ACAD_REACTORS
330
62
102
}
330
62
100
AcDbPlotSettings
  1

  2

  4

  6

 40
0.0
 41
0.0
 42
0.0
 43
0.0
 44
0.0
 45
0.0
 46
0.0
 47
0.0
 48
0.0
 49
0.0
140
0.0
141
0.0
142
1.0
143
1.0
 70
   688
 72
     0
 73
     0
 74
     5
  7

 75
    16
147
1.0
 76
     0
 77
     2
 78
   300
148
0.0
149
0.0
100
AcDbLayout
  1
Layout1
 70
     1
 71
     1
 10
0.0
 20
0.0
 11
12.0
 21
9.0
 12
0.0
 22
0.0
 32
0.0
 14
0.0
 24
0.0
 34
0.0
 15
0.0
 25
0.0
 35
0.0
146
0.0
 13
0.0
 23
0.0
 33
0.0
 16
1.0
 26
0.0
 36
0.0
 17
0.0
 27
1.0
 37
0.0
 76
     0
330
6C
  0
LAYOUT
  5
77
102
{ACAD_REACTORS
330
62
102
}
330
62
100
AcDbPlotSettings
  1

  2

  4

  6

 40
0.0
 41
0.0
 42
0.0
 43
0.0
 44
0.0
 45
0.0
 46
0.0
 47
0.0
 48
0.0
 49
0.0
140
0.0
141
0.0
142
1.0
143
1.0
 70
   688
 72
     0
 73
     0
 74
     5
  7

 75
    16
147
1.0
 76
     0
 77
     2
 78
   300
148
0.0
149
0.0
100
AcDbLayout
  1
Layout2
 70
     1
 71
     2
 10
0.0
 20
0.0
 11
12.0
 21
9.0
 12
0.0
 22
0.0
 32
0.0
 14
0.0
 24
0.0
 34
0.0
 15
0.0
 25
0.0
 35
0.0
146
0.0
 13
0.0
 23
0.0
 33
0.0
 16
1.0
 26
0.0
 36
0.0
 17
0.0
 27
1.0
 37
0.0
 76
     0
330
74
  0
LAYOUT
  5
73
102
{ACAD_REACTORS
330
62
102
}
330
62
100
AcDbPlotSettings
  1

  2

  4

  6

 40
0.0
 41
0.0
 42
0.0
 43
0.0
 44
0.0
 45
0.0
 46
0.0
 47
0.0
 48
0.0
 49
0.0
140
0.0
141
0.0
142
1.0
143
1.0
 70
  1712
 72
     0
 73
     0
 74
     0
  7

 75
     0
147
1.0
 76
     0
 77
     2
 78
   300
148
0.0
149
0.0
100
AcDbLayout
  1
Model
 70
     1
 71
     0
 10
0.0
 20
0.0
 11
12.0
 21
9.0
 12
0.0
 22
0.0
 32
0.0
 14
0.0
 24
0.0
 34
0.0
 15
0.0
 25
0.0
 35
0.0
146
0.0
 13
0.0
 23
0.0
 33
0.0
 16
1.0
 26
0.0
 36
0.0
 17
0.0
 27
1.0
 37
0.0
 76
     0
330
70
  0
MATERIAL
  5
19
102
{ACAD_XDICTIONARY
360
1A
102
}
102
{ACAD_REACTORS
330
10
102
}
330
10
100
AcDbMaterial
  1
ByBlock
 72
     0
 43
0.0208333333333333
 43
0.0
 43
0.0
 43
0.0
 43
0.0
 43
0.0208333333333333
 43
0.0
 43
0.0
 43
0.0
 43
0.0
 43
1.0
 43
0.0
 43
0.0
 43
0.0
 43
0.0
 43
1.0
 77
     0
 47
0.0208333333333333
 47
0.0
 47
0.0
 47
0.0
 47
0.0
 47
0.0208333333333333
 47
0.0
 47
0.0
 47
0.0
 47
0.0
 47
1.0
 47
0.0
 47
0.0
 47
0.0
 47
0.0
 47
1.0
171
     0
 49
0.0208333333333333
 49
0.0
 49
0.0
 49
0.0
 49
0.0
 49
0.0208333333333333
 49
0.0
 49
0.0
 49
0.0
 49
0.0
 49
1.0
 49
0.0
 49
0.0
 49
0.0
 49
0.0
 49
1.0
175
     0
142
0.0208333333333333
142
0.0
142
0.0
142
0.0
142
0.0
142
0.0208333333333333
142
0.0
142
0.0
142
0.0
142
0.0
142
1.0
142
0.0
142
0.0
142
0.0
142
0.0
142
1.0
179
     0
144
0.0208333333333333
144
0.0
144
0.0
144
0.0
144
0.0
144
0.0208333333333333
144
0.0
144
0.0
144
0.0
144
0.0
144
1.0
144
0.0
144
0.0
144
0.0
144
0.0
144
1.0
147
0.0208333333333333
147
0.0
147
0.0
147
0.0
147
0.0
147
0.0208333333333333
147
0.0
147
0.0
147
0.0
147
0.0
147
1.0
147
0.0
147
0.0
147
0.0
147
0.0
147
1.0
  0
MATERIAL
  5
11
102
{ACAD_XDICTIONARY
360
12
102
}
102
{ACAD_REACTORS
330
10
102
}
330
10
100
AcDbMaterial
  1
ByLayer
 72
     0
 43
0.0208333333333333
 43
0.0
 43
0.0
 43
0.0
 43
0.0
 43
0.0208333333333333
 43
0.0
 43
0.0
 43
0.0
 43
0.0
 43
1.0
 43
0.0
 43
0.0
 43
0.0
 43
0.0
 43
1.0
 77
     0
 47
0.0208333333333333
 47
0.0
 47
0.0
 47
0.0
 47
0.0
 47
0.0208333333333333
 47
0.0
 47
0.0
 47
0.0
 47
0.0
 47
1.0
 47
0.0
 47
0.0
 47
0.0
 47
0.0
 47
1.0
171
     0
 49
0.0208333333333333
 49
0.0
 49
0.0
 49
0.0
 49
0.0
 49
0.0208333333333333
 49
0.0
 49
0.0
 49
0.0
 49
0.0
 49
1.0
 49
0.0
 49
0.0
 49
0.0
 49
0.0
 49
1.0
175
     0
142
0.0208333333333333
142
0.0
142
0.0
142
0.0
142
0.0
142
0.0208333333333333
142
0.0
142
0.0
142
0.0
142
0.0
142
1.0
142
0.0
142
0.0
142
0.0
142
0.0
142
1.0
179
     0
144
0.0208333333333333
144
0.0
144
0.0
144
0.0
144
0.0
144
0.0208333333333333
144
0.0
144
0.0
144
0.0
144
0.0
144
1.0
144
0.0
144
0.0
144
0.0
144
0.0
144
1.0
147
0.0208333333333333
147
0.0
147
0.0
147
0.0
147
0.0
147
0.0208333333333333
147
0.0
147
0.0
147
0.0
147
0.0
147
1.0
147
0.0
147
0.0
147
0.0
147
0.0
147
1.0
  0
MATERIAL
  5
21
102
{ACAD_XDICTIONARY
360
22
102
}
102
{ACAD_REACTORS
330
10
102
}
330
10
100
AcDbMaterial
  1
Global
 72
     0
 43
0.0208333333333333
 43
0.0
 43
0.0
 43
0.0
 43
0.0
 43
0.0208333333333333
 43
0.0
 43
0.0
 43
0.0
 43
0.0
 43
1.0
 43
0.0
 43
0.0
 43
0.0
 43
0.0
 43
1.0
 77
     0
 47
0.0208333333333333
 47
0.0
 47
0.0
 47
0.0
 47
0.0
 47
0.0208333333333333
 47
0.0
 47
0.0
 47
0.0
 47
0.0
 47
1.0
 47
0.0
 47
0.0
 47
0.0
 47
0.0
 47
1.0
171
     0
 49
0.0208333333333333
 49
0.0
 49
0.0
 49
0.0
 49
0.0
 49
0.0208333333333333
 49
0.0
 49
0.0
 49
0.0
 49
0.0
 49
1.0
 49
0.0
 49
0.0
 49
0.0
 49
0.0
 49
1.0
175
     0
142
0.0208333333333333
142
0.0
142
0.0
142
0.0
142
0.0
142
0.0208333333333333
142
0.0
142
0.0
142
0.0
142
0.0
142
1.0
142
0.0
142
0.0
142
0.0
142
0.0
142
1.0
179
     0
144
0.0208333333333333
144
0.0
144
0.0
144
0.0
144
0.0
144
0.0208333333333333
144
0.0
144
0.0
144
0.0
144
0.0
144
1.0
144
0.0
144
0.0
144
0.0
144
0.0
144
1.0
147
0.0208333333333333
147
0.0
147
0.0
147
0.0
147
0.0
147
0.0208333333333333
147
0.0
147
0.0
147
0.0
147
0.0
147
1.0
147
0.0
147
0.0
147
0.0
147
0.0
147
1.0
  0
MLEADERSTYLE
  5
67
102
{ACAD_XDICTIONARY
360
15C
102
}
102
{ACAD_REACTORS
330
66
102
}
330
66
100
AcDbMLeaderStyle
179
     2
170
     2
171
     1
172
     0
 90
        2
 40
0.0
 41
0.0
173
     1
 91
-1056964608
340
5B
 92
       -2
290
     1
 42
0.09
291
     1
 43
0.36
  3
Standard
 44
0.18
300

342
55
174
     1
178
     6
175
     1
176
     0
 93
-1056964608
 45
0.18
292
     0
297
     0
 46
0.18
 94
-1056964608
 47
1.0
 49
1.0
140
1.0
293
     1
141
0.0
294
     1
177
     0
142
1.0
295
     0
296
     0
143
0.125
271
     0
272
     9
273
     9
  0
MLINESTYLE
  5
60
102
{ACAD_REACTORS
330
5F
102
}
330
5F
100
AcDbMlineStyle
  2
STANDARD
 70
     0
  3

 62
   256
 51
90.0
 52
90.0
 71
     2
 49
0.5
 62
   256
  6
BYLAYER
 49
-0.5
 62
   256
  6
BYLAYER
  0
ACDBPLACEHOLDER
  5
F
102
{ACAD_REACTORS
330
E
102
}
330
E
  0
SCALE
  5
43
102
{ACAD_REACTORS
330
42
102
}
330
42
100
AcDbScale
 70
     0
300
1:1
140
1.0
141
1.0
290
     1
  0
SCALE
  5
44
102
{ACAD_REACTORS
330
42
102
}
330
42
100
AcDbScale
 70
     0
300
1/128" = 1'-0"
140
0.0078125
141
12.0
290
     0
  0
SCALE
  5
45
102
{ACAD_REACTORS
330
42
102
}
330
42
100
AcDbScale
 70
     0
300
1/64" = 1'-0"
140
0.015625
141
12.0
290
     0
  0
SCALE
  5
46
102
{ACAD_REACTORS
330
42
102
}
330
42
100
AcDbScale
 70
     0
300
1/32" = 1'-0"
140
0.03125
141
12.0
290
     0
  0
SCALE
  5
47
102
{ACAD_REACTORS
330
42
102
}
330
42
100
AcDbScale
 70
     0
300
1/16" = 1'-0"
140
0.0625
141
12.0
290
     0
  0
SCALE
  5
48
102
{ACAD_REACTORS
330
42
102
}
330
42
100
AcDbScale
 70
     0
300
3/32" = 1'-0"
140
0.09375
141
12.0
290
     0
  0
SCALE
  5
49
102
{ACAD_REACTORS
330
42
102
}
330
42
100
AcDbScale
 70
     0
300
1/8" = 1'-0"
140
0.125
141
12.0
290
     0
  0
SCALE
  5
4A
102
{ACAD_REACTORS
330
42
102
}
330
42
100
AcDbScale
 70
     0
300
3/16" = 1'-0"
140
0.1875
141
12.0
290
     0
  0
SCALE
  5
4B
102
{ACAD_REACTORS
330
42
102
}
330
42
100
AcDbScale
 70
     0
300
1/4" = 1'-0"
140
0.25
141
12.0
290
     0
  0
SCALE
  5
4C
102
{ACAD_REACTORS
330
42
102
}
330
42
100
AcDbScale
 70
     0
300
3/8" = 1'-0"
140
0.375
141
12.0
290
     0
  0
SCALE
  5
4D
102
{ACAD_REACTORS
330
42
102
}
330
42
100
AcDbScale
 70
     0
300
1/2" = 1'-0"
140
0.5
141
12.0
290
     0
  0
SCALE
  5
4E
102
{ACAD_REACTORS
330
42
102
}
330
42
100
AcDbScale
 70
     0
300
3/4" = 1'-0"
140
0.75
141
12.0
290
     0
  0
SCALE
  5
4F
102
{ACAD_REACTORS
330
42
102
}
330
42
100
AcDbScale
 70
     0
300
1" = 1'-0"
140
1.0
141
12.0
290
     0
  0
SCALE
  5
50
102
{ACAD_REACTORS
330
42
102
}
330
42
100
AcDbScale
 70
     0
300
1-1/2" = 1'-0"
140
1.5
141
12.0
290
     0
  0
SCALE
  5
51
102
{ACAD_REACTORS
330
42
102
}
330
42
100
AcDbScale
 70
     0
300
3" = 1'-0"
140
3.0
141
12.0
290
     0
  0
SCALE
  5
52
102
{ACAD_REACTORS
330
42
102
}
330
42
100
AcDbScale
 70
     0
300
6" = 1'-0"
140
6.0
141
12.0
290
     0
  0
SCALE
  5
53
102
{ACAD_REACTORS
330
42
102
}
330
42
100
AcDbScale
 70
     0
300
1'-0" = 1'-0"
140
12.0
141
12.0
290
     0
  0
ACDBSECTIONVIEWSTYLE
  5
69
102
{ACAD_XDICTIONARY
360
15E
102
}
102
{ACAD_REACTORS
330
68
102
}
330
68
100
AcDbModelDocViewStyle
 70
     0
  3
Imperial24
290
     0
100
AcDbSectionViewStyle
 70
     0
 71
     0
 90
       78
 71
     1
340
55
 62
   256
 40
0.24
340
0
340
0
 62
   256
 40
0.24
300
I, O, Q, S, X, Z
 40
0.48
 90
        3
 40
0.18
 90
        1
 71
     2
340
5D
 90
       25
 62
   256
340
5D
 90
       50
 62
   256
 40
0.24
 40
0.0
 40
0.24
 71
     3
340
55
 62
   256
 40
0.24
 90
        1
 40
0.75
 90
        1
300
%<\AcVar ViewType \f "%tc1">% %<\AcVar ViewSectionStartId>%-%<\AcVar ViewSectionEndId>%\PSCALE %<\AcVar ViewScale \f "%sn">%
 71
     4
 62
   256
 62
   257
300
ANSI31
 40
1.0
 90
        0
290
     0
290
     0
 90
        6
 40
0.0
 40
1.570796326794896
 40
0.2617993877991494
 40
1.308996938995747
 40
-0.2617993877991494
 40
1.832595714594046
  0
TABLESTYLE
  5
65
102
{ACAD_XDICTIONARY
360
129
102
}
102
{ACAD_REACTORS
330
64
102
}
330
64
100
AcDbTableStyle
280
     0
  3
Standard
 70
     0
 71
     0
 40
0.06
 41
0.06
280
     0
281
     0
  7
Standard
140
0.18
170
     2
 62
     0
 63
     7
283
     0
 90
      512
 91
        0
  1

274
    -2
284
     1
 64
     0
275
    -2
285
     1
 65
     0
276
    -2
286
     1
 66
     0
277
    -2
287
     1
 67
     0
278
    -2
288
     1
 68
     0
279
    -2
289
     1
 69
     0
  7
Standard
140
0.25
170
     5
 62
     0
 63
     7
283
     0
 90
      512
 91
        0
  1

274
    -2
284
     1
 64
     0
275
    -2
285
     1
 65
     0
276
    -2
286
     1
 66
     0
277
    -2
287
     1
 67
     0
278
    -2
288
     1
 68
     0
279
    -2
289
     1
 69
     0
  7
Standard
140
0.18
170
     5
 62
     0
 63
     7
283
     0
 90
      512
 91
        0
  1

274
    -2
284
     1
 64
     0
275
    -2
285
     1
 65
     0
276
    -2
286
     1
 66
     0
277
    -2
287
     1
 67
     0
278
    -2
288
     1
 68
     0
279
    -2
289
     1
 69
     0
  0
VISUALSTYLE
  5
2F
102
{ACAD_XDICTIONARY
360
136
102
}
102
{ACAD_REACTORS
330
29
102
}
330
29
100
AcDbVisualStyle
  2
2dWireframe
 70
     4
177
     2
291
     0
 71
     0
176
     1
 72
     2
176
     1
 73
     0
176
     1
 90
        0
176
     1
 40
0.6
176
     1
 41
30.0
176
     1
 63
     7
421
 16777215
176
     1
 74
     1
176
     1
 91
        4
176
     1
 64
     7
176
     1
 65
   257
176
     1
 75
     1
176
     1
175
     1
176
     1
 42
1.0
176
     1
 92
        0
176
     1
 66
   257
176
     1
 43
1.0
176
     1
 76
     1
176
     1
 77
     6
176
     1
 78
     2
176
     1
 67
     7
176
     1
 79
     5
176
     1
170
     0
176
     1
171
     0
176
     1
290
     0
176
     1
 93
        1
176
     1
 44
0.0
176
     1
173
     0
176
     1
1001
ACAD
1000
AcDbSavedByObjectVersion
1070
     0
  0
VISUALSTYLE
  5
2E
102
{ACAD_XDICTIONARY
360
134
102
}
102
{ACAD_REACTORS
330
29
102
}
330
29
100
AcDbVisualStyle
  2
Basic
 70
     7
177
     2
291
     1
 71
     1
176
     1
 72
     0
176
     1
 73
     1
176
     1
 90
        0
176
     1
 40
0.6
176
     1
 41
30.0
176
     1
 63
     7
421
 16777215
176
     1
 74
     0
176
     1
 91
        4
176
     1
 64
     7
176
     1
 65
   257
176
     1
 75
     1
176
     1
175
     1
176
     1
 42
1.0
176
     1
 92
        8
176
     1
 66
     7
176
     1
 43
1.0
176
     1
 76
     1
176
     1
 77
     6
176
     1
 78
     2
176
     1
 67
     7
176
     1
 79
     5
176
     1
170
     0
176
     1
171
     0
176
     1
290
     0
176
     1
 93
        1
176
     1
 44
0.0
176
     1
173
     0
176
     1
1001
ACAD
1000
AcDbSavedByObjectVersion
1070
     0
  0
VISUALSTYLE
  5
35
102
{ACAD_XDICTIONARY
360
142
102
}
102
{ACAD_REACTORS
330
29
102
}
330
29
100
AcDbVisualStyle
  2
Brighten
 70
    12
177
     2
291
     1
 71
     2
176
     1
 72
     2
176
     1
 73
     0
176
     1
 90
        0
176
     1
 40
0.6
176
     1
 41
30.0
176
     1
 63
     7
421
 16777215
176
     1
 74
     1
176
     1
 91
        4
176
     1
 64
     7
176
     1
 65
   257
176
     1
 75
     1
176
     1
175
     1
176
     1
 42
1.0
176
     1
 92
        8
176
     1
 66
     7
176
     1
 43
1.0
176
     1
 76
     1
176
     1
 77
     6
176
     1
 78
     2
176
     1
 67
     7
176
     1
 79
     5
176
     1
170
     0
176
     1
171
     0
176
     1
290
     0
176
     1
 93
        1
176
     1
 44
50.0
176
     1
173
     0
176
     1
1001
ACAD
1000
AcDbSavedByObjectVersion
1070
     0
  0
VISUALSTYLE
  5
39
102
{ACAD_XDICTIONARY
360
14A
102
}
102
{ACAD_REACTORS
330
29
102
}
330
29
100
AcDbVisualStyle
  2
ColorChange
 70
    16
177
     2
291
     1
 71
     2
176
     1
 72
     2
176
     1
 73
     3
176
     1
 90
        0
176
     1
 40
0.6
176
     1
 41
30.0
176
     1
 63
     8
421
  8421504
176
     1
 74
     1
176
     1
 91
        4
176
     1
 64
     7
176
     1
 65
   257
176
     1
 75
     1
176
     1
175
     1
176
     1
 42
1.0
176
     1
 92
        8
176
     1
 66
     8
424
  8421504
176
     1
 43
1.0
176
     1
 76
     1
176
     1
 77
     6
176
     1
 78
     2
176
     1
 67
     7
176
     1
 79
     5
176
     1
170
     0
176
     1
171
     0
176
     1
290
     0
176
     1
 93
        1
176
     1
 44
0.0
176
     1
173
     0
176
     1
1001
ACAD
1000
AcDbSavedByObjectVersion
1070
     0
  0
VISUALSTYLE
  5
32
102
{ACAD_XDICTIONARY
360
13C
102
}
102
{ACAD_REACTORS
330
29
102
}
330
29
100
AcDbVisualStyle
  2
Conceptual
 70
     9
177
     2
291
     0
 71
     3
176
     1
 72
     2
176
     1
 73
     0
176
     1
 90
        0
176
     1
 40
0.6
176
     1
 41
30.0
176
     1
 63
     7
421
 16777215
176
     1
 74
     2
176
     1
 91
        2
176
     1
 64
     7
176
     1
 65
   257
176
     1
 75
     1
176
     1
175
     1
176
     1
 42
179.0
176
     1
 92
        8
176
     1
 66
     7
176
     1
 43
1.0
176
     1
 76
     1
176
     1
 77
     6
176
     1
 78
     2
176
     1
 67
     7
176
     1
 79
     3
176
     1
170
     0
176
     1
171
     0
176
     1
290
     0
176
     1
 93
        1
176
     1
 44
0.0
176
     1
173
     0
176
     1
1001
ACAD
1000
AcDbSavedByObjectVersion
1070
     0
  0
VISUALSTYLE
  5
34
102
{ACAD_XDICTIONARY
360
140
102
}
102
{ACAD_REACTORS
330
29
102
}
330
29
100
AcDbVisualStyle
  2
Dim
 70
    11
177
     2
291
     1
 71
     2
176
     1
 72
     2
176
     1
 73
     0
176
     1
 90
        0
176
     1
 40
0.6
176
     1
 41
30.0
176
     1
 63
     7
421
 16777215
176
     1
 74
     1
176
     1
 91
        4
176
     1
 64
     7
176
     1
 65
   257
176
     1
 75
     1
176
     1
175
     1
176
     1
 42
1.0
176
     1
 92
        8
176
     1
 66
     7
176
     1
 43
1.0
176
     1
 76
     1
176
     1
 77
     6
176
     1
 78
     2
176
     1
 67
     7
176
     1
 79
     5
176
     1
170
     0
176
     1
171
     0
176
     1
290
     0
176
     1
 93
        1
176
     1
 44
-50.0
176
     1
173
     0
176
     1
1001
ACAD
1000
AcDbSavedByObjectVersion
1070
     0
  0
VISUALSTYLE
  5
41
102
{ACAD_XDICTIONARY
360
15A
102
}
102
{ACAD_REACTORS
330
29
102
}
330
29
100
AcDbVisualStyle
  2
EdgeColorOff
 70
    22
177
     2
291
     1
 71
     2
176
     0
 72
     2
176
     0
 73
     0
176
     0
 90
        0
176
     0
 40
0.6
176
     0
 41
30.0
176
     0
 63
     7
421
 16777215
176
     0
 74
     1
176
     0
 91
        4
176
     0
 64
     7
176
     0
 65
   257
176
     0
 75
     1
176
     0
175
     1
176
     0
 42
1.0
176
     0
 92
        8
176
     2
 66
     7
176
     0
 43
1.0
176
     0
 76
     1
176
     0
 77
     6
176
     0
 78
     2
176
     0
 67
     7
176
     0
 79
     5
176
     0
170
     0
176
     0
171
     0
176
     0
290
     0
176
     0
 93
        1
176
     0
 44
0.0
176
     0
173
     0
176
     0
1001
ACAD
1000
AcDbSavedByObjectVersion
1070
     0
  0
VISUALSTYLE
  5
38
102
{ACAD_XDICTIONARY
360
148
102
}
102
{ACAD_REACTORS
330
29
102
}
330
29
100
AcDbVisualStyle
  2
Facepattern
 70
    15
177
     2
291
     1
 71
     2
176
     1
 72
     2
176
     1
 73
     0
176
     1
 90
        0
176
     1
 40
0.6
176
     1
 41
30.0
176
     1
 63
     7
421
 16777215
176
     1
 74
     1
176
     1
 91
        4
176
     1
 64
     7
176
     1
 65
   257
176
     1
 75
     1
176
     1
175
     1
176
     1
 42
1.0
176
     1
 92
        8
176
     1
 66
     7
176
     1
 43
1.0
176
     1
 76
     1
176
     1
 77
     6
176
     1
 78
     2
176
     1
 67
     7
176
     1
 79
     5
176
     1
170
     0
176
     1
171
     0
176
     1
290
     0
176
     1
 93
        1
176
     1
 44
0.0
176
     1
173
     0
176
     1
1001
ACAD
1000
AcDbSavedByObjectVersion
1070
     0
  0
VISUALSTYLE
  5
2A
102
{ACAD_XDICTIONARY
360
12C
102
}
102
{ACAD_REACTORS
330
29
102
}
330
29
100
AcDbVisualStyle
  2
Flat
 70
     0
177
     2
291
     1
 71
     2
176
     1
 72
     1
176
     1
 73
     1
176
     1
 90
        2
176
     1
 40
0.6
176
     1
 41
30.0
176
     1
 63
     7
421
 16777215
176
     1
 74
     0
176
     1
 91
        0
176
     1
 64
     7
176
     1
 65
   257
176
     1
 75
     1
176
     1
175
     1
176
     1
 42
1.0
176
     1
 92
        8
176
     1
 66
     7
176
     1
 43
1.0
176
     1
 76
     1
176
     1
 77
     6
176
     1
 78
     2
176
     1
 67
     7
176
     1
 79
     5
176
     1
170
     0
176
     1
171
     0
176
     1
290
     0
176
     1
 93
       13
176
     1
 44
0.0
176
     1
173
     0
176
     1
1001
ACAD
1000
AcDbSavedByObjectVersion
1070
     0
  0
VISUALSTYLE
  5
2B
102
{ACAD_XDICTIONARY
360
12E
102
}
102
{ACAD_REACTORS
330
29
102
}
330
29
100
AcDbVisualStyle
  2
FlatWithEdges
 70
     1
177
     2
291
     1
 71
     2
176
     1
 72
     1
176
     1
 73
     1
176
     1
 90
        2
176
     1
 40
0.6
176
     1
 41
30.0
176
     1
 63
     7
421
 16777215
176
     1
 74
     1
176
     1
 91
        0
176
     1
 64
     7
176
     1
 65
   257
176
     1
 75
     1
176
     1
175
     1
176
     1
 42
1.0
176
     1
 92
        0
176
     1
 66
   257
176
     1
 43
1.0
176
     1
 76
     1
176
     1
 77
     6
176
     1
 78
     2
176
     1
 67
     7
176
     1
 79
     5
176
     1
170
     0
176
     1
171
     0
176
     1
290
     0
176
     1
 93
       13
176
     1
 44
0.0
176
     1
173
     0
176
     1
1001
ACAD
1000
AcDbSavedByObjectVersion
1070
     0
  0
VISUALSTYLE
  5
2C
102
{ACAD_XDICTIONARY
360
130
102
}
102
{ACAD_REACTORS
330
29
102
}
330
29
100
AcDbVisualStyle
  2
Gouraud
 70
     2
177
     2
291
     1
 71
     2
176
     1
 72
     2
176
     1
 73
     1
176
     1
 90
        2
176
     1
 40
0.6
176
     1
 41
30.0
176
     1
 63
     7
421
 16777215
176
     1
 74
     0
176
     1
 91
        0
176
     1
 64
     7
176
     1
 65
   257
176
     1
 75
     1
176
     1
175
     1
176
     1
 42
1.0
176
     1
 92
        0
176
     1
 66
     7
176
     1
 43
1.0
176
     1
 76
     1
176
     1
 77
     6
176
     1
 78
     2
176
     1
 67
     7
176
     1
 79
     5
176
     1
170
     0
176
     1
171
     0
176
     1
290
     0
176
     1
 93
       13
176
     1
 44
0.0
176
     1
173
     0
176
     1
1001
ACAD
1000
AcDbSavedByObjectVersion
1070
     0
  0
VISUALSTYLE
  5
2D
102
{ACAD_XDICTIONARY
360
132
102
}
102
{ACAD_REACTORS
330
29
102
}
330
29
100
AcDbVisualStyle
  2
GouraudWithEdges
 70
     3
177
     2
291
     1
 71
     2
176
     1
 72
     2
176
     1
 73
     1
176
     1
 90
        2
176
     1
 40
0.6
176
     1
 41
30.0
176
     1
 63
     7
421
 16777215
176
     1
 74
     1
176
     1
 91
        0
176
     1
 64
     7
176
     1
 65
   257
176
     1
 75
     1
176
     1
175
     1
176
     1
 42
1.0
176
     1
 92
        0
176
     1
 66
   257
176
     1
 43
1.0
176
     1
 76
     1
176
     1
 77
     6
176
     1
 78
     2
176
     1
 67
     7
176
     1
 79
     5
176
     1
170
     0
176
     1
171
     0
176
     1
290
     0
176
     1
 93
       13
176
     1
 44
0.0
176
     1
173
     0
176
     1
1001
ACAD
1000
AcDbSavedByObjectVersion
1070
     0
  0
VISUALSTYLE
  5
31
102
{ACAD_XDICTIONARY
360
13A
102
}
102
{ACAD_REACTORS
330
29
102
}
330
29
100
AcDbVisualStyle
  2
Hidden
 70
     6
177
     2
291
     0
 71
     1
176
     1
 72
     2
176
     1
 73
     2
176
     1
 90
        0
176
     1
 40
0.6
176
     1
 41
30.0
176
     1
 63
     7
421
 16777215
176
     1
 74
     2
176
     1
 91
        2
176
     1
 64
     7
176
     1
 65
   257
176
     1
 75
     2
176
     1
175
     1
176
     1
 42
40.0
176
     1
 92
        0
176
     1
 66
   257
176
     1
 43
1.0
176
     1
 76
     1
176
     1
 77
     6
176
     1
 78
     2
176
     1
 67
     7
176
     1
 79
     3
176
     1
170
     0
176
     1
171
     0
176
     1
290
     0
176
     1
 93
        1
176
     1
 44
0.0
176
     1
173
     0
176
     1
1001
ACAD
1000
AcDbSavedByObjectVersion
1070
     0
  0
VISUALSTYLE
  5
3F
102
{ACAD_XDICTIONARY
360
156
102
}
102
{ACAD_REACTORS
330
29
102
}
330
29
100
AcDbVisualStyle
  2
JitterOff
 70
    20
177
     2
291
     1
 71
     2
176
     0
 72
     2
176
     0
 73
     0
176
     0
 90
        0
176
     0
 40
0.6
176
     0
 41
30.0
176
     0
 63
     7
421
 16777215
176
     0
 74
     1
176
     0
 91
        4
176
     0
 64
     7
176
     0
 65
   257
176
     0
 75
     1
176
     0
175
     1
176
     0
 42
1.0
176
     0
 92
       10
176
     2
 66
     7
176
     0
 43
1.0
176
     0
 76
     1
176
     0
 77
     6
176
     0
 78
     2
176
     0
 67
     7
176
     0
 79
     5
176
     0
170
     0
176
     0
171
     0
176
     0
290
     0
176
     0
 93
        1
176
     0
 44
0.0
176
     0
173
     0
176
     0
1001
ACAD
1000
AcDbSavedByObjectVersion
1070
     0
  0
VISUALSTYLE
  5
37
102
{ACAD_XDICTIONARY
360
146
102
}
102
{ACAD_REACTORS
330
29
102
}
330
29
100
AcDbVisualStyle
  2
Linepattern
 70
    14
177
     2
291
     1
 71
     2
176
     1
 72
     2
176
     1
 73
     0
176
     1
 90
        0
176
     1
 40
0.6
176
     1
 41
30.0
176
     1
 63
     7
421
 16777215
176
     1
 74
     1
176
     1
 91
        4
176
     1
 64
     7
176
     1
 65
   257
176
     1
 75
     7
176
     1
175
     7
176
     1
 42
1.0
176
     1
 92
        8
176
     1
 66
     7
176
     1
 43
1.0
176
     1
 76
     1
176
     1
 77
     6
176
     1
 78
     2
176
     1
 67
     7
176
     1
 79
     5
176
     1
170
     0
176
     1
171
     0
176
     1
290
     0
176
     1
 93
        1
176
     1
 44
0.0
176
     1
173
     0
176
     1
1001
ACAD
1000
AcDbSavedByObjectVersion
1070
     0
  0
VISUALSTYLE
  5
40
102
{ACAD_XDICTIONARY
360
158
102
}
102
{ACAD_REACTORS
330
29
102
}
330
29
100
AcDbVisualStyle
  2
OverhangOff
 70
    21
177
     2
291
     1
 71
     2
176
     0
 72
     2
176
     0
 73
     0
176
     0
 90
        0
176
     0
 40
0.6
176
     0
 41
30.0
176
     0
 63
     7
421
 16777215
176
     0
 74
     1
176
     0
 91
        4
176
     0
 64
     7
176
     0
 65
   257
176
     0
 75
     1
176
     0
175
     1
176
     0
 42
1.0
176
     0
 92
        9
176
     2
 66
     7
176
     0
 43
1.0
176
     0
 76
     1
176
     0
 77
     6
176
     0
 78
     2
176
     0
 67
     7
176
     0
 79
     5
176
     0
170
     0
176
     0
171
     0
176
     0
290
     0
176
     0
 93
        1
176
     0
 44
0.0
176
     0
173
     0
176
     0
1001
ACAD
1000
AcDbSavedByObjectVersion
1070
     0
  0
VISUALSTYLE
  5
33
102
{ACAD_XDICTIONARY
360
13E
102
}
102
{ACAD_REACTORS
330
29
102
}
330
29
100
AcDbVisualStyle
  2
Realistic
 70
     8
177
     2
291
     0
 71
     2
176
     1
 72
     3
176
     1
 73
     0
176
     1
 90
        2
176
     1
 40
0.6
176
     1
 41
30.0
176
     1
 63
     7
421
 16777215
176
     1
 74
     0
176
     1
 91
        0
176
     1
 64
     7
176
     1
 65
   257
176
     1
 75
     1
176
     1
175
     1
176
     1
 42
1.0
176
     1
 92
        8
176
     1
 66
   257
176
     1
 43
1.0
176
     1
 76
     1
176
     1
 77
     6
176
     1
 78
     2
176
     1
 67
     7
176
     1
 79
     3
176
     1
170
     0
176
     1
171
     0
176
     1
290
     0
176
     1
 93
       13
176
     1
 44
0.0
176
     1
173
     0
176
     1
1001
ACAD
1000
AcDbSavedByObjectVersion
1070
     0
  0
VISUALSTYLE
  5
3E
102
{ACAD_XDICTIONARY
360
154
102
}
102
{ACAD_REACTORS
330
29
102
}
330
29
100
AcDbVisualStyle
  2
Shaded
 70
    27
177
     2
291
     0
 71
     2
176
     1
 72
     2
176
     1
 73
     1
176
     1
 90
        2
176
     1
 40
0.6
176
     1
 41
30.0
176
     1
 63
     7
421
 16777215
176
     1
 74
     0
176
     1
 91
        4
176
     1
 64
     7
176
     1
 65
   257
176
     1
 75
     1
176
     1
175
     1
176
     1
 42
1.0
176
     1
 92
        8
176
     1
 66
   257
176
     1
 43
1.0
176
     1
 76
     1
176
     1
 77
     6
176
     1
 78
     2
176
     1
 67
     8
425
  7895160
176
     1
 79
     3
176
     1
170
     0
176
     1
171
     0
176
     1
290
     0
176
     1
 93
        5
176
     1
 44
0.0
176
     1
173
     0
176
     1
1001
ACAD
1000
AcDbSavedByObjectVersion
1070
     0
  0
VISUALSTYLE
  5
3D
102
{ACAD_XDICTIONARY
360
152
102
}
102
{ACAD_REACTORS
330
29
102
}
330
29
100
AcDbVisualStyle
  2
Shaded with edges
 70
    26
177
     2
291
     0
 71
     2
176
     1
 72
     2
176
     1
 73
     1
176
     1
 90
        2
176
     1
 40
0.6
176
     1
 41
30.0
176
     1
 63
     7
421
 16777215
176
     1
 74
     1
176
     1
 91
        2
176
     1
 64
     7
176
     1
 65
   257
176
     1
 75
     2
176
     1
175
     1
176
     1
 42
1.0
176
     1
 92
        8
176
     1
 66
   257
176
     1
 43
1.0
176
     1
 76
     1
176
     1
 77
     6
176
     1
 78
     2
176
     1
 67
     7
176
     1
 79
     3
176
     1
170
     0
176
     1
171
     0
176
     1
290
     0
176
     1
 93
        5
176
     1
 44
0.0
176
     1
173
     0
176
     1
1001
ACAD
1000
AcDbSavedByObjectVersion
1070
     0
  0
VISUALSTYLE
  5
3A
102
{ACAD_XDICTIONARY
360
14C
102
}
102
{ACAD_REACTORS
330
29
102
}
330
29
100
AcDbVisualStyle
  2
Shades of Gray
 70
    23
177
     2
291
     0
 71
     2
176
     1
 72
     2
176
     1
 73
     3
176
     1
 90
        0
176
     1
 40
0.6
176
     1
 41
30.0
176
     1
 63
     7
421
 16777215
176
     1
 74
     2
176
     1
 91
        2
176
     1
 64
     7
176
     1
 65
     7
176
     1
 75
     1
176
     1
175
     1
176
     1
 42
40.0
176
     1
 92
        8
176
     1
 66
     7
176
     1
 43
1.0
176
     1
 76
     1
176
     1
 77
     6
176
     1
 78
     2
176
     1
 67
     7
176
     1
 79
     3
176
     1
170
     0
176
     1
171
     0
176
     1
290
     0
176
     1
 93
        1
176
     1
 44
0.0
176
     1
173
     0
176
     1
1001
ACAD
1000
AcDbSavedByObjectVersion
1070
     0
  0
VISUALSTYLE
  5
3B
102
{ACAD_XDICTIONARY
360
14E
102
}
102
{ACAD_REACTORS
330
29
102
}
330
29
100
AcDbVisualStyle
  2
Sketchy
 70
    24
177
     2
291
     0
 71
     1
176
     1
 72
     2
176
     1
 73
     2
176
     1
 90
        0
176
     1
 40
0.6
176
     1
 41
30.0
176
     1
 63
     7
421
 16777215
176
     1
 74
     2
176
     1
 91
        2
176
     1
 64
     7
176
     1
 65
     7
176
     1
 75
     1
176
     1
175
     1
176
     1
 42
40.0
176
     1
 92
       11
176
     1
 66
     7
176
     1
 43
1.0
176
     1
 76
     1
176
     1
 77
     6
176
     1
 78
     2
176
     1
 67
     7
176
     1
 79
     6
176
     1
170
     0
176
     1
171
     0
176
     1
290
     0
176
     1
 93
        1
176
     1
 44
0.0
176
     1
173
     0
176
     1
1001
ACAD
1000
AcDbSavedByObjectVersion
1070
     0
  0
VISUALSTYLE
  5
36
102
{ACAD_XDICTIONARY
360
144
102
}
102
{ACAD_REACTORS
330
29
102
}
330
29
100
AcDbVisualStyle
  2
Thicken
 70
    13
177
     2
291
     1
 71
     2
176
     1
 72
     2
176
     1
 73
     0
176
     1
 90
        0
176
     1
 40
0.6
176
     1
 41
30.0
176
     1
 63
     7
421
 16777215
176
     1
 74
     1
176
     1
 91
        4
176
     1
 64
     7
176
     1
 65
   257
176
     1
 75
     1
176
     1
175
     1
176
     1
 42
1.0
176
     1
 92
       12
176
     1
 66
     7
176
     1
 43
1.0
176
     1
 76
     1
176
     1
 77
     6
176
     1
 78
     2
176
     1
 67
     7
176
     1
 79
     5
176
     1
170
     0
176
     1
171
     0
176
     1
290
     0
176
     1
 93
        1
176
     1
 44
0.0
176
     1
173
     0
176
     1
1001
ACAD
1000
AcDbSavedByObjectVersion
1070
     0
  0
VISUALSTYLE
  5
30
102
{ACAD_XDICTIONARY
360
138
102
}
102
{ACAD_REACTORS
330
29
102
}
330
29
100
AcDbVisualStyle
  2
Wireframe
 70
     5
177
     2
291
     0
 71
     0
176
     1
 72
     2
176
     1
 73
     0
176
     1
 90
        0
176
     1
 40
0.6
176
     1
 41
30.0
176
     1
 63
     7
421
 16777215
176
     1
 74
     1
176
     1
 91
        4
176
     1
 64
     7
176
     1
 65
   257
176
     1
 75
     1
176
     1
175
     1
176
     1
 42
1.0
176
     1
 92
        0
176
     1
 66
   257
176
     1
 43
1.0
176
     1
 76
     1
176
     1
 77
     6
176
     1
 78
     2
176
     1
 67
     7
176
     1
 79
     3
176
     1
170
     0
176
     1
171
     0
176
     1
290
     0
176
     1
 93
        1
176
     1
 44
0.0
176
     1
173
     0
176
     1
1001
ACAD
1000
AcDbSavedByObjectVersion
1070
     0
  0
VISUALSTYLE
  5
3C
102
{ACAD_XDICTIONARY
360
150
102
}
102
{ACAD_REACTORS
330
29
102
}
330
29
100
AcDbVisualStyle
  2
X-Ray
 70
    25
177
     2
291
     0
 71
     2
176
     1
 72
     2
176
     1
 73
     1
176
     1
 90
        1
176
     1
 40
0.5
176
     1
 41
30.0
176
     1
 63
     7
421
 16777215
176
     1
 74
     1
176
     1
 91
        0
176
     1
 64
     7
176
     1
 65
   257
176
     1
 75
     1
176
     1
175
     1
176
     1
 42
1.0
176
     1
 92
        8
176
     1
 66
     7
176
     1
 43
1.0
176
     1
 76
     1
176
     1
 77
     6
176
     1
 78
     2
176
     1
 67
     7
176
     1
 79
     3
176
     1
170
     0
176
     1
171
     0
176
     1
290
     0
176
     1
 93
       13
176
     1
 44
0.0
176
     1
173
     0
176
     1
1001
ACAD
1000
AcDbSavedByObjectVersion
1070
     0
  0
DICTIONARYVAR
  5
128
102
{ACAD_REACTORS
330
123
102
}
330
123
100
DictionaryVariables
280
     0
  1
1:1
  0
DICTIONARYVAR
  5
125
102
{ACAD_REACTORS
330
123
102
}
330
123
100
DictionaryVariables
280
     0
  1
STANDARD
  0
DICTIONARYVAR
  5
124
102
{ACAD_REACTORS
330
123
102
}
330
123
100
DictionaryVariables
280
     0
  1
STANDARD
  0
DICTIONARYVAR
  5
126
102
{ACAD_REACTORS
330
123
102
}
330
123
100
DictionaryVariables
280
     0
  1
Imperial24
  0
DICTIONARYVAR
  5
127
102
{ACAD_REACTORS
330
123
102
}
330
123
100
DictionaryVariables
280
     0
  1
Imperial24
  0
DICTIONARY
  5
160
330
6B
100
AcDbDictionary
280
     1
281
     1
  3
ACAD_XREC_ROUNDTRIP
360
161
  0
DICTIONARY
  5
1A
330
19
100
AcDbDictionary
280
     1
281
     1
  3
BUMPTILE
360
1C
  3
DIFFUSETILE
360
1B
  3
OPACITYTILE
360
1F
  3
REFLECTIONTILE
360
1E
  3
REFRACTIONTILE
360
20
  3
SPECULARTILE
360
1D
  0
DICTIONARY
  5
12
330
11
100
AcDbDictionary
280
     1
281
     1
  3
BUMPTILE
360
14
  3
DIFFUSETILE
360
13
  3
OPACITYTILE
360
17
  3
REFLECTIONTILE
360
16
  3
REFRACTIONTILE
360
18
  3
SPECULARTILE
360
15
  0
DICTIONARY
  5
22
330
21
100
AcDbDictionary
280
     1
281
     1
  3
BUMPTILE
360
24
  3
DIFFUSETILE
360
23
  3
OPACITYTILE
360
27
  3
REFLECTIONTILE
360
26
  3
REFRACTIONTILE
360
28
  3
SPECULARTILE
360
25
  0
DICTIONARY
  5
15C
330
67
100
AcDbDictionary
280
     1
281
     1
  3
ACAD_XREC_ROUNDTRIP
360
15D
  0
DICTIONARY
  5
15E
330
69
100
AcDbDictionary
280
     1
281
     1
  3
ACAD_XREC_ROUNDTRIP
360
15F
  0
DICTIONARY
  5
129
330
65
100
AcDbDictionary
280
     1
281
     1
  3
ACAD_ROUNDTRIP_2008_TABLESTYLE_CELLSTYLEMAP
360
12A
  0
DICTIONARY
  5
136
330
2F
100
AcDbDictionary
280
     1
281
     1
  3
ACAD_XREC_ROUNDTRIP
360
137
  0
DICTIONARY
  5
134
330
2E
100
AcDbDictionary
280
     1
281
     1
  3
ACAD_XREC_ROUNDTRIP
360
135
  0
DICTIONARY
  5
142
330
35
100
AcDbDictionary
280
     1
281
     1
  3
ACAD_XREC_ROUNDTRIP
360
143
  0
DICTIONARY
  5
14A
330
39
100
AcDbDictionary
280
     1
281
     1
  3
ACAD_XREC_ROUNDTRIP
360
14B
  0
DICTIONARY
  5
13C
330
32
100
AcDbDictionary
280
     1
281
     1
  3
ACAD_XREC_ROUNDTRIP
360
13D
  0
DICTIONARY
  5
140
330
34
100
AcDbDictionary
280
     1
281
     1
  3
ACAD_XREC_ROUNDTRIP
360
141
  0
DICTIONARY
  5
15A
330
41
100
AcDbDictionary
280
     1
281
     1
  3
ACAD_XREC_ROUNDTRIP
360
15B
  0
DICTIONARY
  5
148
330
38
100
AcDbDictionary
280
     1
281
     1
  3
ACAD_XREC_ROUNDTRIP
360
149
  0
DICTIONARY
  5
12C
330
2A
100
AcDbDictionary
280
     1
281
     1
  3
ACAD_XREC_ROUNDTRIP
360
12D
  0
DICTIONARY
  5
12E
330
2B
100
AcDbDictionary
280
     1
281
     1
  3
ACAD_XREC_ROUNDTRIP
360
12F
  0
DICTIONARY
  5
130
330
2C
100
AcDbDictionary
280
     1
281
     1
  3
ACAD_XREC_ROUNDTRIP
360
131
  0
DICTIONARY
  5
132
330
2D
100
AcDbDictionary
280
     1
281
     1
  3
ACAD_XREC_ROUNDTRIP
360
133
  0
DICTIONARY
  5
13A
330
31
100
AcDbDictionary
280
     1
281
     1
  3
ACAD_XREC_ROUNDTRIP
360
13B
  0
DICTIONARY
  5
156
330
3F
100
AcDbDictionary
280
     1
281
     1
  3
ACAD_XREC_ROUNDTRIP
360
157
  0
DICTIONARY
  5
146
330
37
100
AcDbDictionary
280
     1
281
     1
  3
ACAD_XREC_ROUNDTRIP
360
147
  0
DICTIONARY
  5
158
330
40
100
AcDbDictionary
280
     1
281
     1
  3
ACAD_XREC_ROUNDTRIP
360
159
  0
DICTIONARY
  5
13E
330
33
100
AcDbDictionary
280
     1
281
     1
  3
ACAD_XREC_ROUNDTRIP
360
13F
  0
DICTIONARY
  5
154
330
3E
100
AcDbDictionary
280
     1
281
     1
  3
ACAD_XREC_ROUNDTRIP
360
155
  0
DICTIONARY
  5
152
330
3D
100
AcDbDictionary
280
     1
281
     1
  3
ACAD_XREC_ROUNDTRIP
360
153
  0
DICTIONARY
  5
14C
330
3A
100
AcDbDictionary
280
     1
281
     1
  3
ACAD_XREC_ROUNDTRIP
360
14D
  0
DICTIONARY
  5
14E
330
3B
100
AcDbDictionary
280
     1
281
     1
  3
ACAD_XREC_ROUNDTRIP
360
14F
  0
DICTIONARY
  5
144
330
36
100
AcDbDictionary
280
     1
281
     1
  3
ACAD_XREC_ROUNDTRIP
360
145
  0
DICTIONARY
  5
138
330
30
100
AcDbDictionary
280
     1
281
     1
  3
ACAD_XREC_ROUNDTRIP
360
139
  0
DICTIONARY
  5
150
330
3C
100
AcDbDictionary
280
     1
281
     1
  3
ACAD_XREC_ROUNDTRIP
360
151
  0
XRECORD
  5
161
102
{ACAD_REACTORS
330
160
102
}
330
160
100
AcDbXrecord
280
     1
102
DISPLAYNAME
  1
Imperial24
102
FLAGS
 90
        0
  0
XRECORD
  5
1C
102
{ACAD_REACTORS
330
1A
102
}
330
1A
100
AcDbXrecord
280
     1
270
     1
271
     1
  0
XRECORD
  5
1B
102
{ACAD_REACTORS
330
1A
102
}
330
1A
100
AcDbXrecord
280
     1
270
     1
271
     1
  0
XRECORD
  5
1F
102
{ACAD_REACTORS
330
1A
102
}
330
1A
100
AcDbXrecord
280
     1
270
     1
271
     1
  0
XRECORD
  5
1E
102
{ACAD_REACTORS
330
1A
102
}
330
1A
100
AcDbXrecord
280
     1
270
     1
271
     1
  0
XRECORD
  5
20
102
{ACAD_REACTORS
330
1A
102
}
330
1A
100
AcDbXrecord
280
     1
270
     1
271
     1
  0
XRECORD
  5
1D
102
{ACAD_REACTORS
330
1A
102
}
330
1A
100
AcDbXrecord
280
     1
270
     1
271
     1
  0
XRECORD
  5
14
102
{ACAD_REACTORS
330
12
102
}
330
12
100
AcDbXrecord
280
     1
270
     1
271
     1
  0
XRECORD
  5
13
102
{ACAD_REACTORS
330
12
102
}
330
12
100
AcDbXrecord
280
     1
270
     1
271
     1
  0
XRECORD
  5
17
102
{ACAD_REACTORS
330
12
102
}
330
12
100
AcDbXrecord
280
     1
270
     1
271
     1
  0
XRECORD
  5
16
102
{ACAD_REACTORS
330
12
102
}
330
12
100
AcDbXrecord
280
     1
270
     1
271
     1
  0
XRECORD
  5
18
102
{ACAD_REACTORS
330
12
102
}
330
12
100
AcDbXrecord
280
     1
270
     1
271
     1
  0
XRECORD
  5
15
102
{ACAD_REACTORS
330
12
102
}
330
12
100
AcDbXrecord
280
     1
270
     1
271
     1
  0
XRECORD
  5
24
102
{ACAD_REACTORS
330
22
102
}
330
22
100
AcDbXrecord
280
     1
270
     1
271
     1
  0
XRECORD
  5
23
102
{ACAD_REACTORS
330
22
102
}
330
22
100
AcDbXrecord
280
     1
270
     1
271
     1
  0
XRECORD
  5
27
102
{ACAD_REACTORS
330
22
102
}
330
22
100
AcDbXrecord
280
     1
270
     1
271
     1
  0
XRECORD
  5
26
102
{ACAD_REACTORS
330
22
102
}
330
22
100
AcDbXrecord
280
     1
270
     1
271
     1
  0
XRECORD
  5
28
102
{ACAD_REACTORS
330
22
102
}
330
22
100
AcDbXrecord
280
     1
270
     1
271
     1
  0
XRECORD
  5
25
102
{ACAD_REACTORS
330
22
102
}
330
22
100
AcDbXrecord
280
     1
270
     1
271
     1
  0
XRECORD
  5
15D
102
{ACAD_REACTORS
330
15C
102
}
330
15C
100
AcDbXrecord
280
     1
102
ACAD_ROUNDTRIP_2012_MLEADER_STYLE
298
     1
  0
XRECORD
  5
15F
102
{ACAD_REACTORS
330
15E
102
}
330
15E
100
AcDbXrecord
280
     1
102
DISPLAYNAME
  1
Imperial24
102
FLAGS
 90
        0
  0
CELLSTYLEMAP
  5
12A
102
{ACAD_REACTORS
330
129
102
}
330
129
100
AcDbCellStyleMap
 90
        3
300
CELLSTYLE
  1
TABLEFORMAT_BEGIN
 90
        5
170
     1
 91
        0
 92
    32768
 62
   257
 93
        1
300
CONTENTFORMAT
  1
CONTENTFORMAT_BEGIN
 90
        0
 91
        0
 92
      512
 93
        0
300

 40
0.0
140
1.0
 94
        5
 62
     0
340
55
144
0.25
309
CONTENTFORMAT_END
171
     0
 94
        0
309
TABLEFORMAT_END
  1
CELLSTYLE_BEGIN
 90
        1
 91
        1
300
_TITLE
309
CELLSTYLE_END
300
CELLSTYLE
  1
TABLEFORMAT_BEGIN
 90
        5
170
     1
 91
        0
 92
        0
 62
   257
 93
        1
300
CONTENTFORMAT
  1
CONTENTFORMAT_BEGIN
 90
        0
 91
        0
 92
      512
 93
        0
300

 40
0.0
140
1.0
 94
        5
 62
     0
340
55
144
0.18
309
CONTENTFORMAT_END
171
     0
 94
        0
309
TABLEFORMAT_END
  1
CELLSTYLE_BEGIN
 90
        2
 91
        1
300
_HEADER
309
CELLSTYLE_END
300
CELLSTYLE
  1
TABLEFORMAT_BEGIN
 90
        5
170
     1
 91
        0
 92
        0
 62
   257
 93
        1
300
CONTENTFORMAT
  1
CONTENTFORMAT_BEGIN
 90
        0
 91
        0
 92
      512
 93
        0
300

 40
0.0
140
1.0
 94
        2
 62
     0
340
55
144
0.18
309
CONTENTFORMAT_END
171
     0
 94
        0
309
TABLEFORMAT_END
  1
CELLSTYLE_BEGIN
 90
        3
 91
        2
300
_DATA
309
CELLSTYLE_END
  0
XRECORD
  5
137
102
{ACAD_REACTORS
330
136
102
}
330
136
100
AcDbXrecord
280
     1
102
RTVSPost2010Prop28
280
     1
102
RTVSPost2010PropOp28
 70
     1
102
RTVSPost2010Prop29
280
     1
102
RTVSPost2010PropOp29
 70
     1
102
RTVSPost2010Prop30
280
     0
102
RTVSPost2010PropOp30
 70
     1
102
RTVSPost2010Prop31
280
     0
102
RTVSPost2010PropOp31
 70
     1
102
RTVSPost2010Prop32
280
     0
102
RTVSPost2010PropOp32
 70
     1
102
RTVSPost2010Prop33
280
     0
102
RTVSPost2010PropOp33
 70
     1
102
RTVSPost2010Prop34
280
     0
102
RTVSPost2010PropOp34
 70
     1
102
RTVSPost2010Prop35
280
     0
102
RTVSPost2010PropOp35
 70
     1
102
RTVSPost2010Prop36
280
     0
102
RTVSPost2010PropOp36
 70
     1
102
RTVSPost2010Prop37
 90
       50
102
RTVSPost2010PropOp37
 70
     1
102
RTVSPost2010Prop38
140
0.0
102
RTVSPost2010PropOp38
 70
     1
102
RTVSPost2010Prop39
140
1.0
102
RTVSPost2010PropOp39
 70
     1
102
RTVSPost2010Prop40
 90
        0
102
RTVSPost2010PropOp40
 70
     1
102
RTVSPost2010Prop41ColorIndex
 90
       18
102
RTVSPost2010Prop41ColorRGB
 90
        0
102
RTVSPost2010PropOp41
 70
     1
102
RTVSPost2010Prop42
 90
       50
102
RTVSPost2010PropOp42
 70
     1
102
RTVSPost2010Prop43
 90
        3
102
RTVSPost2010PropOp43
 70
     1
102
RTVSPost2010Prop44ColorIndex
 90
        5
102
RTVSPost2010Prop44ColorRGB
 90
      255
102
RTVSPost2010PropOp44
 70
     1
102
RTVSPost2010Prop45
280
     0
102
RTVSPost2010PropOp45
 70
     1
102
RTVSPost2010Prop46
 90
       50
102
RTVSPost2010PropOp46
 70
     1
102
RTVSPost2010Prop47
 90
       50
102
RTVSPost2010PropOp47
 70
     1
102
RTVSPost2010Prop48
 90
       50
102
RTVSPost2010PropOp48
 70
     1
102
RTVSPost2010Prop49
280
     0
102
RTVSPost2010PropOp49
 70
     1
102
RTVSPost2010Prop50
 90
       50
102
RTVSPost2010PropOp50
 70
     1
102
RTVSPost2010Prop51ColorIndex
 90
      256
102
RTVSPost2010Prop51ColorRGB
 90
-16777216
102
RTVSPost2010PropOp51
 70
     0
102
RTVSPost2010Prop52
140
1.0
102
RTVSPost2010PropOp52
 70
     0
102
RTVSPost2010Prop53
 90
        2
102
RTVSPost2010PropOp53
 70
     1
102
RTVSPost2010Prop54
  1
strokes_ogs.tif
102
RTVSPost2010PropOp54
 70
     1
102
RTVSPost2010Prop55
280
     0
102
RTVSPost2010PropOp55
 70
     1
102
RTVSPost2010Prop56
140
1.0
102
RTVSPost2010PropOp56
 70
     1
102
RTVSPost2010Prop57
140
1.0
102
RTVSPost2010PropOp57
 70
     1
  0
XRECORD
  5
135
102
{ACAD_REACTORS
330
134
102
}
330
134
100
AcDbXrecord
280
     1
102
RTVSPost2010Prop28
280
     0
102
RTVSPost2010PropOp28
 70
     1
102
RTVSPost2010Prop29
280
     1
102
RTVSPost2010PropOp29
 70
     1
102
RTVSPost2010Prop30
280
     1
102
RTVSPost2010PropOp30
 70
     1
102
RTVSPost2010Prop31
280
     0
102
RTVSPost2010PropOp31
 70
     1
102
RTVSPost2010Prop32
280
     0
102
RTVSPost2010PropOp32
 70
     1
102
RTVSPost2010Prop33
280
     0
102
RTVSPost2010PropOp33
 70
     1
102
RTVSPost2010Prop34
280
     0
102
RTVSPost2010PropOp34
 70
     1
102
RTVSPost2010Prop35
280
     0
102
RTVSPost2010PropOp35
 70
     1
102
RTVSPost2010Prop36
280
     0
102
RTVSPost2010PropOp36
 70
     1
102
RTVSPost2010Prop37
 90
       50
102
RTVSPost2010PropOp37
 70
     1
102
RTVSPost2010Prop38
140
0.0
102
RTVSPost2010PropOp38
 70
     1
102
RTVSPost2010Prop39
140
1.0
102
RTVSPost2010PropOp39
 70
     1
102
RTVSPost2010Prop40
 90
        0
102
RTVSPost2010PropOp40
 70
     1
102
RTVSPost2010Prop41ColorIndex
 90
       18
102
RTVSPost2010Prop41ColorRGB
 90
        0
102
RTVSPost2010PropOp41
 70
     1
102
RTVSPost2010Prop42
 90
       50
102
RTVSPost2010PropOp42
 70
     1
102
RTVSPost2010Prop43
 90
        3
102
RTVSPost2010PropOp43
 70
     1
102
RTVSPost2010Prop44ColorIndex
 90
        5
102
RTVSPost2010Prop44ColorRGB
 90
      255
102
RTVSPost2010PropOp44
 70
     1
102
RTVSPost2010Prop45
280
     0
102
RTVSPost2010PropOp45
 70
     1
102
RTVSPost2010Prop46
 90
       50
102
RTVSPost2010PropOp46
 70
     1
102
RTVSPost2010Prop47
 90
       50
102
RTVSPost2010PropOp47
 70
     1
102
RTVSPost2010Prop48
 90
       50
102
RTVSPost2010PropOp48
 70
     1
102
RTVSPost2010Prop49
280
     0
102
RTVSPost2010PropOp49
 70
     1
102
RTVSPost2010Prop50
 90
       50
102
RTVSPost2010PropOp50
 70
     1
102
RTVSPost2010Prop51ColorIndex
 90
      256
102
RTVSPost2010Prop51ColorRGB
 90
-16777216
102
RTVSPost2010PropOp51
 70
     0
102
RTVSPost2010Prop52
140
1.0
102
RTVSPost2010PropOp52
 70
     0
102
RTVSPost2010Prop53
 90
        2
102
RTVSPost2010PropOp53
 70
     1
102
RTVSPost2010Prop54
  1
strokes_ogs.tif
102
RTVSPost2010PropOp54
 70
     1
102
RTVSPost2010Prop55
280
     0
102
RTVSPost2010PropOp55
 70
     1
102
RTVSPost2010Prop56
140
1.0
102
RTVSPost2010PropOp56
 70
     1
102
RTVSPost2010Prop57
140
1.0
102
RTVSPost2010PropOp57
 70
     1
  0
XRECORD
  5
143
102
{ACAD_REACTORS
330
142
102
}
330
142
100
AcDbXrecord
280
     1
102
RTVSPost2010Prop28
280
     0
102
RTVSPost2010PropOp28
 70
     1
102
RTVSPost2010Prop29
280
     1
102
RTVSPost2010PropOp29
 70
     1
102
RTVSPost2010Prop30
280
     1
102
RTVSPost2010PropOp30
 70
     1
102
RTVSPost2010Prop31
280
     0
102
RTVSPost2010PropOp31
 70
     1
102
RTVSPost2010Prop32
280
     0
102
RTVSPost2010PropOp32
 70
     1
102
RTVSPost2010Prop33
280
     0
102
RTVSPost2010PropOp33
 70
     1
102
RTVSPost2010Prop34
280
     0
102
RTVSPost2010PropOp34
 70
     1
102
RTVSPost2010Prop35
280
     0
102
RTVSPost2010PropOp35
 70
     1
102
RTVSPost2010Prop36
280
     0
102
RTVSPost2010PropOp36
 70
     1
102
RTVSPost2010Prop37
 90
       50
102
RTVSPost2010PropOp37
 70
     1
102
RTVSPost2010Prop38
140
0.0
102
RTVSPost2010PropOp38
 70
     1
102
RTVSPost2010Prop39
140
1.0
102
RTVSPost2010PropOp39
 70
     1
102
RTVSPost2010Prop40
 90
        0
102
RTVSPost2010PropOp40
 70
     1
102
RTVSPost2010Prop41ColorIndex
 90
       18
102
RTVSPost2010Prop41ColorRGB
 90
        0
102
RTVSPost2010PropOp41
 70
     1
102
RTVSPost2010Prop42
 90
       50
102
RTVSPost2010PropOp42
 70
     1
102
RTVSPost2010Prop43
 90
        3
102
RTVSPost2010PropOp43
 70
     1
102
RTVSPost2010Prop44ColorIndex
 90
        5
102
RTVSPost2010Prop44ColorRGB
 90
      255
102
RTVSPost2010PropOp44
 70
     1
102
RTVSPost2010Prop45
280
     0
102
RTVSPost2010PropOp45
 70
     1
102
RTVSPost2010Prop46
 90
       50
102
RTVSPost2010PropOp46
 70
     1
102
RTVSPost2010Prop47
 90
       50
102
RTVSPost2010PropOp47
 70
     1
102
RTVSPost2010Prop48
 90
       50
102
RTVSPost2010PropOp48
 70
     1
102
RTVSPost2010Prop49
280
     0
102
RTVSPost2010PropOp49
 70
     1
102
RTVSPost2010Prop50
 90
       50
102
RTVSPost2010PropOp50
 70
     1
102
RTVSPost2010Prop51ColorIndex
 90
      256
102
RTVSPost2010Prop51ColorRGB
 90
-16777216
102
RTVSPost2010PropOp51
 70
     0
102
RTVSPost2010Prop52
140
1.0
102
RTVSPost2010PropOp52
 70
     0
102
RTVSPost2010Prop53
 90
        2
102
RTVSPost2010PropOp53
 70
     1
102
RTVSPost2010Prop54
  1
strokes_ogs.tif
102
RTVSPost2010PropOp54
 70
     1
102
RTVSPost2010Prop55
280
     0
102
RTVSPost2010PropOp55
 70
     1
102
RTVSPost2010Prop56
140
1.0
102
RTVSPost2010PropOp56
 70
     1
102
RTVSPost2010Prop57
140
1.0
102
RTVSPost2010PropOp57
 70
     1
  0
XRECORD
  5
14B
102
{ACAD_REACTORS
330
14A
102
}
330
14A
100
AcDbXrecord
280
     1
102
RTVSPost2010Prop28
280
     0
102
RTVSPost2010PropOp28
 70
     1
102
RTVSPost2010Prop29
280
     1
102
RTVSPost2010PropOp29
 70
     1
102
RTVSPost2010Prop30
280
     1
102
RTVSPost2010PropOp30
 70
     1
102
RTVSPost2010Prop31
280
     0
102
RTVSPost2010PropOp31
 70
     1
102
RTVSPost2010Prop32
280
     0
102
RTVSPost2010PropOp32
 70
     1
102
RTVSPost2010Prop33
280
     0
102
RTVSPost2010PropOp33
 70
     1
102
RTVSPost2010Prop34
280
     0
102
RTVSPost2010PropOp34
 70
     1
102
RTVSPost2010Prop35
280
     0
102
RTVSPost2010PropOp35
 70
     1
102
RTVSPost2010Prop36
280
     0
102
RTVSPost2010PropOp36
 70
     1
102
RTVSPost2010Prop37
 90
       50
102
RTVSPost2010PropOp37
 70
     1
102
RTVSPost2010Prop38
140
0.0
102
RTVSPost2010PropOp38
 70
     1
102
RTVSPost2010Prop39
140
1.0
102
RTVSPost2010PropOp39
 70
     1
102
RTVSPost2010Prop40
 90
        0
102
RTVSPost2010PropOp40
 70
     1
102
RTVSPost2010Prop41ColorIndex
 90
       18
102
RTVSPost2010Prop41ColorRGB
 90
        0
102
RTVSPost2010PropOp41
 70
     1
102
RTVSPost2010Prop42
 90
       50
102
RTVSPost2010PropOp42
 70
     1
102
RTVSPost2010Prop43
 90
        3
102
RTVSPost2010PropOp43
 70
     1
102
RTVSPost2010Prop44ColorIndex
 90
        5
102
RTVSPost2010Prop44ColorRGB
 90
      255
102
RTVSPost2010PropOp44
 70
     1
102
RTVSPost2010Prop45
280
     0
102
RTVSPost2010PropOp45
 70
     1
102
RTVSPost2010Prop46
 90
       50
102
RTVSPost2010PropOp46
 70
     1
102
RTVSPost2010Prop47
 90
       50
102
RTVSPost2010PropOp47
 70
     1
102
RTVSPost2010Prop48
 90
       50
102
RTVSPost2010PropOp48
 70
     1
102
RTVSPost2010Prop49
280
     0
102
RTVSPost2010PropOp49
 70
     1
102
RTVSPost2010Prop50
 90
       50
102
RTVSPost2010PropOp50
 70
     1
102
RTVSPost2010Prop51ColorIndex
 90
      256
102
RTVSPost2010Prop51ColorRGB
 90
-16777216
102
RTVSPost2010PropOp51
 70
     0
102
RTVSPost2010Prop52
140
1.0
102
RTVSPost2010PropOp52
 70
     0
102
RTVSPost2010Prop53
 90
        2
102
RTVSPost2010PropOp53
 70
     1
102
RTVSPost2010Prop54
  1
strokes_ogs.tif
102
RTVSPost2010PropOp54
 70
     1
102
RTVSPost2010Prop55
280
     0
102
RTVSPost2010PropOp55
 70
     1
102
RTVSPost2010Prop56
140
1.0
102
RTVSPost2010PropOp56
 70
     1
102
RTVSPost2010Prop57
140
1.0
102
RTVSPost2010PropOp57
 70
     1
  0
XRECORD
  5
13D
102
{ACAD_REACTORS
330
13C
102
}
330
13C
100
AcDbXrecord
280
     1
102
RTVSPost2010Prop28
280
     0
102
RTVSPost2010PropOp28
 70
     1
102
RTVSPost2010Prop29
280
     1
102
RTVSPost2010PropOp29
 70
     1
102
RTVSPost2010Prop30
280
     1
102
RTVSPost2010PropOp30
 70
     1
102
RTVSPost2010Prop31
280
     0
102
RTVSPost2010PropOp31
 70
     1
102
RTVSPost2010Prop32
280
     0
102
RTVSPost2010PropOp32
 70
     1
102
RTVSPost2010Prop33
280
     0
102
RTVSPost2010PropOp33
 70
     1
102
RTVSPost2010Prop34
280
     0
102
RTVSPost2010PropOp34
 70
     1
102
RTVSPost2010Prop35
280
     0
102
RTVSPost2010PropOp35
 70
     1
102
RTVSPost2010Prop36
280
     0
102
RTVSPost2010PropOp36
 70
     1
102
RTVSPost2010Prop37
 90
       50
102
RTVSPost2010PropOp37
 70
     1
102
RTVSPost2010Prop38
140
0.0
102
RTVSPost2010PropOp38
 70
     1
102
RTVSPost2010Prop39
140
1.0
102
RTVSPost2010PropOp39
 70
     1
102
RTVSPost2010Prop40
 90
        0
102
RTVSPost2010PropOp40
 70
     1
102
RTVSPost2010Prop41ColorIndex
 90
       18
102
RTVSPost2010Prop41ColorRGB
 90
        0
102
RTVSPost2010PropOp41
 70
     1
102
RTVSPost2010Prop42
 90
       50
102
RTVSPost2010PropOp42
 70
     1
102
RTVSPost2010Prop43
 90
        3
102
RTVSPost2010PropOp43
 70
     1
102
RTVSPost2010Prop44ColorIndex
 90
        5
102
RTVSPost2010Prop44ColorRGB
 90
      255
102
RTVSPost2010PropOp44
 70
     1
102
RTVSPost2010Prop45
280
     0
102
RTVSPost2010PropOp45
 70
     1
102
RTVSPost2010Prop46
 90
       50
102
RTVSPost2010PropOp46
 70
     1
102
RTVSPost2010Prop47
 90
       50
102
RTVSPost2010PropOp47
 70
     1
102
RTVSPost2010Prop48
 90
       50
102
RTVSPost2010PropOp48
 70
     1
102
RTVSPost2010Prop49
280
     0
102
RTVSPost2010PropOp49
 70
     1
102
RTVSPost2010Prop50
 90
       50
102
RTVSPost2010PropOp50
 70
     1
102
RTVSPost2010Prop51ColorIndex
 90
      256
102
RTVSPost2010Prop51ColorRGB
 90
-16777216
102
RTVSPost2010PropOp51
 70
     0
102
RTVSPost2010Prop52
140
1.0
102
RTVSPost2010PropOp52
 70
     0
102
RTVSPost2010Prop53
 90
        2
102
RTVSPost2010PropOp53
 70
     1
102
RTVSPost2010Prop54
  1
strokes_ogs.tif
102
RTVSPost2010PropOp54
 70
     1
102
RTVSPost2010Prop55
280
     0
102
RTVSPost2010PropOp55
 70
     1
102
RTVSPost2010Prop56
140
1.0
102
RTVSPost2010PropOp56
 70
     1
102
RTVSPost2010Prop57
140
1.0
102
RTVSPost2010PropOp57
 70
     1
  0
XRECORD
  5
141
102
{ACAD_REACTORS
330
140
102
}
330
140
100
AcDbXrecord
280
     1
102
RTVSPost2010Prop28
280
     0
102
RTVSPost2010PropOp28
 70
     1
102
RTVSPost2010Prop29
280
     1
102
RTVSPost2010PropOp29
 70
     1
102
RTVSPost2010Prop30
280
     1
102
RTVSPost2010PropOp30
 70
     1
102
RTVSPost2010Prop31
280
     0
102
RTVSPost2010PropOp31
 70
     1
102
RTVSPost2010Prop32
280
     0
102
RTVSPost2010PropOp32
 70
     1
102
RTVSPost2010Prop33
280
     0
102
RTVSPost2010PropOp33
 70
     1
102
RTVSPost2010Prop34
280
     0
102
RTVSPost2010PropOp34
 70
     1
102
RTVSPost2010Prop35
280
     0
102
RTVSPost2010PropOp35
 70
     1
102
RTVSPost2010Prop36
280
     0
102
RTVSPost2010PropOp36
 70
     1
102
RTVSPost2010Prop37
 90
       50
102
RTVSPost2010PropOp37
 70
     1
102
RTVSPost2010Prop38
140
0.0
102
RTVSPost2010PropOp38
 70
     1
102
RTVSPost2010Prop39
140
1.0
102
RTVSPost2010PropOp39
 70
     1
102
RTVSPost2010Prop40
 90
        0
102
RTVSPost2010PropOp40
 70
     1
102
RTVSPost2010Prop41ColorIndex
 90
       18
102
RTVSPost2010Prop41ColorRGB
 90
        0
102
RTVSPost2010PropOp41
 70
     1
102
RTVSPost2010Prop42
 90
       50
102
RTVSPost2010PropOp42
 70
     1
102
RTVSPost2010Prop43
 90
        3
102
RTVSPost2010PropOp43
 70
     1
102
RTVSPost2010Prop44ColorIndex
 90
        5
102
RTVSPost2010Prop44ColorRGB
 90
      255
102
RTVSPost2010PropOp44
 70
     1
102
RTVSPost2010Prop45
280
     0
102
RTVSPost2010PropOp45
 70
     1
102
RTVSPost2010Prop46
 90
       50
102
RTVSPost2010PropOp46
 70
     1
102
RTVSPost2010Prop47
 90
       50
102
RTVSPost2010PropOp47
 70
     1
102
RTVSPost2010Prop48
 90
       50
102
RTVSPost2010PropOp48
 70
     1
102
RTVSPost2010Prop49
280
     0
102
RTVSPost2010PropOp49
 70
     1
102
RTVSPost2010Prop50
 90
       50
102
RTVSPost2010PropOp50
 70
     1
102
RTVSPost2010Prop51ColorIndex
 90
      256
102
RTVSPost2010Prop51ColorRGB
 90
-16777216
102
RTVSPost2010PropOp51
 70
     0
102
RTVSPost2010Prop52
140
1.0
102
RTVSPost2010PropOp52
 70
     0
102
RTVSPost2010Prop53
 90
        2
102
RTVSPost2010PropOp53
 70
     1
102
RTVSPost2010Prop54
  1
strokes_ogs.tif
102
RTVSPost2010PropOp54
 70
     1
102
RTVSPost2010Prop55
280
     0
102
RTVSPost2010PropOp55
 70
     1
102
RTVSPost2010Prop56
140
1.0
102
RTVSPost2010PropOp56
 70
     1
102
RTVSPost2010Prop57
140
1.0
102
RTVSPost2010PropOp57
 70
     1
  0
XRECORD
  5
15B
102
{ACAD_REACTORS
330
15A
102
}
330
15A
100
AcDbXrecord
280
     1
102
RTVSPost2010Prop28
280
     0
102
RTVSPost2010PropOp28
 70
     0
102
RTVSPost2010Prop29
280
     1
102
RTVSPost2010PropOp29
 70
     0
102
RTVSPost2010Prop30
280
     1
102
RTVSPost2010PropOp30
 70
     0
102
RTVSPost2010Prop31
280
     0
102
RTVSPost2010PropOp31
 70
     0
102
RTVSPost2010Prop32
280
     0
102
RTVSPost2010PropOp32
 70
     0
102
RTVSPost2010Prop33
280
     0
102
RTVSPost2010PropOp33
 70
     0
102
RTVSPost2010Prop34
280
     0
102
RTVSPost2010PropOp34
 70
     0
102
RTVSPost2010Prop35
280
     0
102
RTVSPost2010PropOp35
 70
     0
102
RTVSPost2010Prop36
280
     0
102
RTVSPost2010PropOp36
 70
     0
102
RTVSPost2010Prop37
 90
       50
102
RTVSPost2010PropOp37
 70
     0
102
RTVSPost2010Prop38
140
0.0
102
RTVSPost2010PropOp38
 70
     0
102
RTVSPost2010Prop39
140
1.0
102
RTVSPost2010PropOp39
 70
     0
102
RTVSPost2010Prop40
 90
        0
102
RTVSPost2010PropOp40
 70
     0
102
RTVSPost2010Prop41ColorIndex
 90
       18
102
RTVSPost2010Prop41ColorRGB
 90
        0
102
RTVSPost2010PropOp41
 70
     0
102
RTVSPost2010Prop42
 90
       50
102
RTVSPost2010PropOp42
 70
     0
102
RTVSPost2010Prop43
 90
        3
102
RTVSPost2010PropOp43
 70
     0
102
RTVSPost2010Prop44ColorIndex
 90
        5
102
RTVSPost2010Prop44ColorRGB
 90
      255
102
RTVSPost2010PropOp44
 70
     0
102
RTVSPost2010Prop45
280
     0
102
RTVSPost2010PropOp45
 70
     0
102
RTVSPost2010Prop46
 90
       50
102
RTVSPost2010PropOp46
 70
     0
102
RTVSPost2010Prop47
 90
       50
102
RTVSPost2010PropOp47
 70
     0
102
RTVSPost2010Prop48
 90
       50
102
RTVSPost2010PropOp48
 70
     0
102
RTVSPost2010Prop49
280
     0
102
RTVSPost2010PropOp49
 70
     0
102
RTVSPost2010Prop50
 90
       50
102
RTVSPost2010PropOp50
 70
     0
102
RTVSPost2010Prop51ColorIndex
 90
      256
102
RTVSPost2010Prop51ColorRGB
 90
-16777216
102
RTVSPost2010PropOp51
 70
     0
102
RTVSPost2010Prop52
140
1.0
102
RTVSPost2010PropOp52
 70
     0
102
RTVSPost2010Prop53
 90
        2
102
RTVSPost2010PropOp53
 70
     0
102
RTVSPost2010Prop54
  1
strokes_ogs.tif
102
RTVSPost2010PropOp54
 70
     0
102
RTVSPost2010Prop55
280
     0
102
RTVSPost2010PropOp55
 70
     0
102
RTVSPost2010Prop56
140
1.0
102
RTVSPost2010PropOp56
 70
     0
102
RTVSPost2010Prop57
140
1.0
102
RTVSPost2010PropOp57
 70
     0
  0
XRECORD
  5
149
102
{ACAD_REACTORS
330
148
102
}
330
148
100
AcDbXrecord
280
     1
102
RTVSPost2010Prop28
280
     0
102
RTVSPost2010PropOp28
 70
     1
102
RTVSPost2010Prop29
280
     1
102
RTVSPost2010PropOp29
 70
     1
102
RTVSPost2010Prop30
280
     1
102
RTVSPost2010PropOp30
 70
     1
102
RTVSPost2010Prop31
280
     0
102
RTVSPost2010PropOp31
 70
     1
102
RTVSPost2010Prop32
280
     0
102
RTVSPost2010PropOp32
 70
     1
102
RTVSPost2010Prop33
280
     0
102
RTVSPost2010PropOp33
 70
     1
102
RTVSPost2010Prop34
280
     0
102
RTVSPost2010PropOp34
 70
     1
102
RTVSPost2010Prop35
280
     0
102
RTVSPost2010PropOp35
 70
     1
102
RTVSPost2010Prop36
280
     0
102
RTVSPost2010PropOp36
 70
     1
102
RTVSPost2010Prop37
 90
       50
102
RTVSPost2010PropOp37
 70
     1
102
RTVSPost2010Prop38
140
0.0
102
RTVSPost2010PropOp38
 70
     1
102
RTVSPost2010Prop39
140
1.0
102
RTVSPost2010PropOp39
 70
     1
102
RTVSPost2010Prop40
 90
        0
102
RTVSPost2010PropOp40
 70
     1
102
RTVSPost2010Prop41ColorIndex
 90
       18
102
RTVSPost2010Prop41ColorRGB
 90
        0
102
RTVSPost2010PropOp41
 70
     1
102
RTVSPost2010Prop42
 90
       50
102
RTVSPost2010PropOp42
 70
     1
102
RTVSPost2010Prop43
 90
        3
102
RTVSPost2010PropOp43
 70
     1
102
RTVSPost2010Prop44ColorIndex
 90
        5
102
RTVSPost2010Prop44ColorRGB
 90
      255
102
RTVSPost2010PropOp44
 70
     1
102
RTVSPost2010Prop45
280
     0
102
RTVSPost2010PropOp45
 70
     1
102
RTVSPost2010Prop46
 90
       50
102
RTVSPost2010PropOp46
 70
     1
102
RTVSPost2010Prop47
 90
       50
102
RTVSPost2010PropOp47
 70
     1
102
RTVSPost2010Prop48
 90
       50
102
RTVSPost2010PropOp48
 70
     1
102
RTVSPost2010Prop49
280
     0
102
RTVSPost2010PropOp49
 70
     1
102
RTVSPost2010Prop50
 90
       50
102
RTVSPost2010PropOp50
 70
     1
102
RTVSPost2010Prop51ColorIndex
 90
      256
102
RTVSPost2010Prop51ColorRGB
 90
-16777216
102
RTVSPost2010PropOp51
 70
     0
102
RTVSPost2010Prop52
140
1.0
102
RTVSPost2010PropOp52
 70
     0
102
RTVSPost2010Prop53
 90
        2
102
RTVSPost2010PropOp53
 70
     1
102
RTVSPost2010Prop54
  1
strokes_ogs.tif
102
RTVSPost2010PropOp54
 70
     1
102
RTVSPost2010Prop55
280
     0
102
RTVSPost2010PropOp55
 70
     1
102
RTVSPost2010Prop56
140
1.0
102
RTVSPost2010PropOp56
 70
     1
102
RTVSPost2010Prop57
140
1.0
102
RTVSPost2010PropOp57
 70
     1
  0
XRECORD
  5
12D
102
{ACAD_REACTORS
330
12C
102
}
330
12C
100
AcDbXrecord
280
     1
102
RTVSPost2010Prop28
280
     0
102
RTVSPost2010PropOp28
 70
     1
102
RTVSPost2010Prop29
280
     1
102
RTVSPost2010PropOp29
 70
     1
102
RTVSPost2010Prop30
280
     1
102
RTVSPost2010PropOp30
 70
     1
102
RTVSPost2010Prop31
280
     0
102
RTVSPost2010PropOp31
 70
     1
102
RTVSPost2010Prop32
280
     0
102
RTVSPost2010PropOp32
 70
     1
102
RTVSPost2010Prop33
280
     0
102
RTVSPost2010PropOp33
 70
     1
102
RTVSPost2010Prop34
280
     0
102
RTVSPost2010PropOp34
 70
     1
102
RTVSPost2010Prop35
280
     0
102
RTVSPost2010PropOp35
 70
     1
102
RTVSPost2010Prop36
280
     0
102
RTVSPost2010PropOp36
 70
     1
102
RTVSPost2010Prop37
 90
       50
102
RTVSPost2010PropOp37
 70
     1
102
RTVSPost2010Prop38
140
0.0
102
RTVSPost2010PropOp38
 70
     1
102
RTVSPost2010Prop39
140
1.0
102
RTVSPost2010PropOp39
 70
     1
102
RTVSPost2010Prop40
 90
        0
102
RTVSPost2010PropOp40
 70
     1
102
RTVSPost2010Prop41ColorIndex
 90
       18
102
RTVSPost2010Prop41ColorRGB
 90
        0
102
RTVSPost2010PropOp41
 70
     1
102
RTVSPost2010Prop42
 90
       50
102
RTVSPost2010PropOp42
 70
     1
102
RTVSPost2010Prop43
 90
        3
102
RTVSPost2010PropOp43
 70
     1
102
RTVSPost2010Prop44ColorIndex
 90
        5
102
RTVSPost2010Prop44ColorRGB
 90
      255
102
RTVSPost2010PropOp44
 70
     1
102
RTVSPost2010Prop45
280
     0
102
RTVSPost2010PropOp45
 70
     1
102
RTVSPost2010Prop46
 90
       50
102
RTVSPost2010PropOp46
 70
     1
102
RTVSPost2010Prop47
 90
       50
102
RTVSPost2010PropOp47
 70
     1
102
RTVSPost2010Prop48
 90
       50
102
RTVSPost2010PropOp48
 70
     1
102
RTVSPost2010Prop49
280
     0
102
RTVSPost2010PropOp49
 70
     1
102
RTVSPost2010Prop50
 90
       50
102
RTVSPost2010PropOp50
 70
     1
102
RTVSPost2010Prop51ColorIndex
 90
      256
102
RTVSPost2010Prop51ColorRGB
 90
-16777216
102
RTVSPost2010PropOp51
 70
     0
102
RTVSPost2010Prop52
140
1.0
102
RTVSPost2010PropOp52
 70
     0
102
RTVSPost2010Prop53
 90
        2
102
RTVSPost2010PropOp53
 70
     1
102
RTVSPost2010Prop54
  1
strokes_ogs.tif
102
RTVSPost2010PropOp54
 70
     1
102
RTVSPost2010Prop55
280
     0
102
RTVSPost2010PropOp55
 70
     1
102
RTVSPost2010Prop56
140
1.0
102
RTVSPost2010PropOp56
 70
     1
102
RTVSPost2010Prop57
140
1.0
102
RTVSPost2010PropOp57
 70
     1
  0
XRECORD
  5
12F
102
{ACAD_REACTORS
330
12E
102
}
330
12E
100
AcDbXrecord
280
     1
102
RTVSPost2010Prop28
280
     0
102
RTVSPost2010PropOp28
 70
     1
102
RTVSPost2010Prop29
280
     1
102
RTVSPost2010PropOp29
 70
     1
102
RTVSPost2010Prop30
280
     1
102
RTVSPost2010PropOp30
 70
     1
102
RTVSPost2010Prop31
280
     0
102
RTVSPost2010PropOp31
 70
     1
102
RTVSPost2010Prop32
280
     0
102
RTVSPost2010PropOp32
 70
     1
102
RTVSPost2010Prop33
280
     0
102
RTVSPost2010PropOp33
 70
     1
102
RTVSPost2010Prop34
280
     0
102
RTVSPost2010PropOp34
 70
     1
102
RTVSPost2010Prop35
280
     0
102
RTVSPost2010PropOp35
 70
     1
102
RTVSPost2010Prop36
280
     0
102
RTVSPost2010PropOp36
 70
     1
102
RTVSPost2010Prop37
 90
       50
102
RTVSPost2010PropOp37
 70
     1
102
RTVSPost2010Prop38
140
0.0
102
RTVSPost2010PropOp38
 70
     1
102
RTVSPost2010Prop39
140
1.0
102
RTVSPost2010PropOp39
 70
     1
102
RTVSPost2010Prop40
 90
        0
102
RTVSPost2010PropOp40
 70
     1
102
RTVSPost2010Prop41ColorIndex
 90
       18
102
RTVSPost2010Prop41ColorRGB
 90
        0
102
RTVSPost2010PropOp41
 70
     1
102
RTVSPost2010Prop42
 90
       50
102
RTVSPost2010PropOp42
 70
     1
102
RTVSPost2010Prop43
 90
        3
102
RTVSPost2010PropOp43
 70
     1
102
RTVSPost2010Prop44ColorIndex
 90
        5
102
RTVSPost2010Prop44ColorRGB
 90
      255
102
RTVSPost2010PropOp44
 70
     1
102
RTVSPost2010Prop45
280
     0
102
RTVSPost2010PropOp45
 70
     1
102
RTVSPost2010Prop46
 90
       50
102
RTVSPost2010PropOp46
 70
     1
102
RTVSPost2010Prop47
 90
       50
102
RTVSPost2010PropOp47
 70
     1
102
RTVSPost2010Prop48
 90
       50
102
RTVSPost2010PropOp48
 70
     1
102
RTVSPost2010Prop49
280
     0
102
RTVSPost2010PropOp49
 70
     1
102
RTVSPost2010Prop50
 90
       50
102
RTVSPost2010PropOp50
 70
     1
102
RTVSPost2010Prop51ColorIndex
 90
      256
102
RTVSPost2010Prop51ColorRGB
 90
-16777216
102
RTVSPost2010PropOp51
 70
     0
102
RTVSPost2010Prop52
140
1.0
102
RTVSPost2010PropOp52
 70
     0
102
RTVSPost2010Prop53
 90
        2
102
RTVSPost2010PropOp53
 70
     1
102
RTVSPost2010Prop54
  1
strokes_ogs.tif
102
RTVSPost2010PropOp54
 70
     1
102
RTVSPost2010Prop55
280
     0
102
RTVSPost2010PropOp55
 70
     1
102
RTVSPost2010Prop56
140
1.0
102
RTVSPost2010PropOp56
 70
     1
102
RTVSPost2010Prop57
140
1.0
102
RTVSPost2010PropOp57
 70
     1
  0
XRECORD
  5
131
102
{ACAD_REACTORS
330
130
102
}
330
130
100
AcDbXrecord
280
     1
102
RTVSPost2010Prop28
280
     0
102
RTVSPost2010PropOp28
 70
     1
102
RTVSPost2010Prop29
280
     1
102
RTVSPost2010PropOp29
 70
     1
102
RTVSPost2010Prop30
280
     1
102
RTVSPost2010PropOp30
 70
     1
102
RTVSPost2010Prop31
280
     0
102
RTVSPost2010PropOp31
 70
     1
102
RTVSPost2010Prop32
280
     0
102
RTVSPost2010PropOp32
 70
     1
102
RTVSPost2010Prop33
280
     0
102
RTVSPost2010PropOp33
 70
     1
102
RTVSPost2010Prop34
280
     0
102
RTVSPost2010PropOp34
 70
     1
102
RTVSPost2010Prop35
280
     0
102
RTVSPost2010PropOp35
 70
     1
102
RTVSPost2010Prop36
280
     0
102
RTVSPost2010PropOp36
 70
     1
102
RTVSPost2010Prop37
 90
       50
102
RTVSPost2010PropOp37
 70
     1
102
RTVSPost2010Prop38
140
0.0
102
RTVSPost2010PropOp38
 70
     1
102
RTVSPost2010Prop39
140
1.0
102
RTVSPost2010PropOp39
 70
     1
102
RTVSPost2010Prop40
 90
        0
102
RTVSPost2010PropOp40
 70
     1
102
RTVSPost2010Prop41ColorIndex
 90
       18
102
RTVSPost2010Prop41ColorRGB
 90
        0
102
RTVSPost2010PropOp41
 70
     1
102
RTVSPost2010Prop42
 90
       50
102
RTVSPost2010PropOp42
 70
     1
102
RTVSPost2010Prop43
 90
        3
102
RTVSPost2010PropOp43
 70
     1
102
RTVSPost2010Prop44ColorIndex
 90
        5
102
RTVSPost2010Prop44ColorRGB
 90
      255
102
RTVSPost2010PropOp44
 70
     1
102
RTVSPost2010Prop45
280
     0
102
RTVSPost2010PropOp45
 70
     1
102
RTVSPost2010Prop46
 90
       50
102
RTVSPost2010PropOp46
 70
     1
102
RTVSPost2010Prop47
 90
       50
102
RTVSPost2010PropOp47
 70
     1
102
RTVSPost2010Prop48
 90
       50
102
RTVSPost2010PropOp48
 70
     1
102
RTVSPost2010Prop49
280
     0
102
RTVSPost2010PropOp49
 70
     1
102
RTVSPost2010Prop50
 90
       50
102
RTVSPost2010PropOp50
 70
     1
102
RTVSPost2010Prop51ColorIndex
 90
      256
102
RTVSPost2010Prop51ColorRGB
 90
-16777216
102
RTVSPost2010PropOp51
 70
     0
102
RTVSPost2010Prop52
140
1.0
102
RTVSPost2010PropOp52
 70
     0
102
RTVSPost2010Prop53
 90
        2
102
RTVSPost2010PropOp53
 70
     1
102
RTVSPost2010Prop54
  1
strokes_ogs.tif
102
RTVSPost2010PropOp54
 70
     1
102
RTVSPost2010Prop55
280
     0
102
RTVSPost2010PropOp55
 70
     1
102
RTVSPost2010Prop56
140
1.0
102
RTVSPost2010PropOp56
 70
     1
102
RTVSPost2010Prop57
140
1.0
102
RTVSPost2010PropOp57
 70
     1
  0
XRECORD
  5
133
102
{ACAD_REACTORS
330
132
102
}
330
132
100
AcDbXrecord
280
     1
102
RTVSPost2010Prop28
280
     0
102
RTVSPost2010PropOp28
 70
     1
102
RTVSPost2010Prop29
280
     1
102
RTVSPost2010PropOp29
 70
     1
102
RTVSPost2010Prop30
280
     1
102
RTVSPost2010PropOp30
 70
     1
102
RTVSPost2010Prop31
280
     0
102
RTVSPost2010PropOp31
 70
     1
102
RTVSPost2010Prop32
280
     0
102
RTVSPost2010PropOp32
 70
     1
102
RTVSPost2010Prop33
280
     0
102
RTVSPost2010PropOp33
 70
     1
102
RTVSPost2010Prop34
280
     0
102
RTVSPost2010PropOp34
 70
     1
102
RTVSPost2010Prop35
280
     0
102
RTVSPost2010PropOp35
 70
     1
102
RTVSPost2010Prop36
280
     0
102
RTVSPost2010PropOp36
 70
     1
102
RTVSPost2010Prop37
 90
       50
102
RTVSPost2010PropOp37
 70
     1
102
RTVSPost2010Prop38
140
0.0
102
RTVSPost2010PropOp38
 70
     1
102
RTVSPost2010Prop39
140
1.0
102
RTVSPost2010PropOp39
 70
     1
102
RTVSPost2010Prop40
 90
        0
102
RTVSPost2010PropOp40
 70
     1
102
RTVSPost2010Prop41ColorIndex
 90
       18
102
RTVSPost2010Prop41ColorRGB
 90
        0
102
RTVSPost2010PropOp41
 70
     1
102
RTVSPost2010Prop42
 90
       50
102
RTVSPost2010PropOp42
 70
     1
102
RTVSPost2010Prop43
 90
        3
102
RTVSPost2010PropOp43
 70
     1
102
RTVSPost2010Prop44ColorIndex
 90
        5
102
RTVSPost2010Prop44ColorRGB
 90
      255
102
RTVSPost2010PropOp44
 70
     1
102
RTVSPost2010Prop45
280
     0
102
RTVSPost2010PropOp45
 70
     1
102
RTVSPost2010Prop46
 90
       50
102
RTVSPost2010PropOp46
 70
     1
102
RTVSPost2010Prop47
 90
       50
102
RTVSPost2010PropOp47
 70
     1
102
RTVSPost2010Prop48
 90
       50
102
RTVSPost2010PropOp48
 70
     1
102
RTVSPost2010Prop49
280
     0
102
RTVSPost2010PropOp49
 70
     1
102
RTVSPost2010Prop50
 90
       50
102
RTVSPost2010PropOp50
 70
     1
102
RTVSPost2010Prop51ColorIndex
 90
      256
102
RTVSPost2010Prop51ColorRGB
 90
-16777216
102
RTVSPost2010PropOp51
 70
     0
102
RTVSPost2010Prop52
140
1.0
102
RTVSPost2010PropOp52
 70
     0
102
RTVSPost2010Prop53
 90
        2
102
RTVSPost2010PropOp53
 70
     1
102
RTVSPost2010Prop54
  1
strokes_ogs.tif
102
RTVSPost2010PropOp54
 70
     1
102
RTVSPost2010Prop55
280
     0
102
RTVSPost2010PropOp55
 70
     1
102
RTVSPost2010Prop56
140
1.0
102
RTVSPost2010PropOp56
 70
     1
102
RTVSPost2010Prop57
140
1.0
102
RTVSPost2010PropOp57
 70
     1
  0
XRECORD
  5
13B
102
{ACAD_REACTORS
330
13A
102
}
330
13A
100
AcDbXrecord
280
     1
102
RTVSPost2010Prop28
280
     0
102
RTVSPost2010PropOp28
 70
     1
102
RTVSPost2010Prop29
280
     1
102
RTVSPost2010PropOp29
 70
     1
102
RTVSPost2010Prop30
280
     1
102
RTVSPost2010PropOp30
 70
     1
102
RTVSPost2010Prop31
280
     0
102
RTVSPost2010PropOp31
 70
     1
102
RTVSPost2010Prop32
280
     0
102
RTVSPost2010PropOp32
 70
     1
102
RTVSPost2010Prop33
280
     0
102
RTVSPost2010PropOp33
 70
     1
102
RTVSPost2010Prop34
280
     0
102
RTVSPost2010PropOp34
 70
     1
102
RTVSPost2010Prop35
280
     0
102
RTVSPost2010PropOp35
 70
     1
102
RTVSPost2010Prop36
280
     0
102
RTVSPost2010PropOp36
 70
     1
102
RTVSPost2010Prop37
 90
       50
102
RTVSPost2010PropOp37
 70
     1
102
RTVSPost2010Prop38
140
0.0
102
RTVSPost2010PropOp38
 70
     1
102
RTVSPost2010Prop39
140
1.0
102
RTVSPost2010PropOp39
 70
     1
102
RTVSPost2010Prop40
 90
        0
102
RTVSPost2010PropOp40
 70
     1
102
RTVSPost2010Prop41ColorIndex
 90
       18
102
RTVSPost2010Prop41ColorRGB
 90
        0
102
RTVSPost2010PropOp41
 70
     1
102
RTVSPost2010Prop42
 90
       50
102
RTVSPost2010PropOp42
 70
     1
102
RTVSPost2010Prop43
 90
        3
102
RTVSPost2010PropOp43
 70
     1
102
RTVSPost2010Prop44ColorIndex
 90
        5
102
RTVSPost2010Prop44ColorRGB
 90
      255
102
RTVSPost2010PropOp44
 70
     1
102
RTVSPost2010Prop45
280
     0
102
RTVSPost2010PropOp45
 70
     1
102
RTVSPost2010Prop46
 90
       50
102
RTVSPost2010PropOp46
 70
     1
102
RTVSPost2010Prop47
 90
       50
102
RTVSPost2010PropOp47
 70
     1
102
RTVSPost2010Prop48
 90
       50
102
RTVSPost2010PropOp48
 70
     1
102
RTVSPost2010Prop49
280
     0
102
RTVSPost2010PropOp49
 70
     1
102
RTVSPost2010Prop50
 90
       50
102
RTVSPost2010PropOp50
 70
     1
102
RTVSPost2010Prop51ColorIndex
 90
      256
102
RTVSPost2010Prop51ColorRGB
 90
-16777216
102
RTVSPost2010PropOp51
 70
     0
102
RTVSPost2010Prop52
140
1.0
102
RTVSPost2010PropOp52
 70
     0
102
RTVSPost2010Prop53
 90
        2
102
RTVSPost2010PropOp53
 70
     1
102
RTVSPost2010Prop54
  1
strokes_ogs.tif
102
RTVSPost2010PropOp54
 70
     1
102
RTVSPost2010Prop55
280
     0
102
RTVSPost2010PropOp55
 70
     1
102
RTVSPost2010Prop56
140
1.0
102
RTVSPost2010PropOp56
 70
     1
102
RTVSPost2010Prop57
140
1.0
102
RTVSPost2010PropOp57
 70
     1
  0
XRECORD
  5
157
102
{ACAD_REACTORS
330
156
102
}
330
156
100
AcDbXrecord
280
     1
102
RTVSPost2010Prop28
280
     0
102
RTVSPost2010PropOp28
 70
     0
102
RTVSPost2010Prop29
280
     1
102
RTVSPost2010PropOp29
 70
     0
102
RTVSPost2010Prop30
280
     1
102
RTVSPost2010PropOp30
 70
     0
102
RTVSPost2010Prop31
280
     0
102
RTVSPost2010PropOp31
 70
     0
102
RTVSPost2010Prop32
280
     0
102
RTVSPost2010PropOp32
 70
     0
102
RTVSPost2010Prop33
280
     0
102
RTVSPost2010PropOp33
 70
     0
102
RTVSPost2010Prop34
280
     0
102
RTVSPost2010PropOp34
 70
     0
102
RTVSPost2010Prop35
280
     0
102
RTVSPost2010PropOp35
 70
     0
102
RTVSPost2010Prop36
280
     0
102
RTVSPost2010PropOp36
 70
     0
102
RTVSPost2010Prop37
 90
       50
102
RTVSPost2010PropOp37
 70
     0
102
RTVSPost2010Prop38
140
0.0
102
RTVSPost2010PropOp38
 70
     0
102
RTVSPost2010Prop39
140
1.0
102
RTVSPost2010PropOp39
 70
     0
102
RTVSPost2010Prop40
 90
        0
102
RTVSPost2010PropOp40
 70
     0
102
RTVSPost2010Prop41ColorIndex
 90
       18
102
RTVSPost2010Prop41ColorRGB
 90
        0
102
RTVSPost2010PropOp41
 70
     0
102
RTVSPost2010Prop42
 90
       50
102
RTVSPost2010PropOp42
 70
     0
102
RTVSPost2010Prop43
 90
        3
102
RTVSPost2010PropOp43
 70
     0
102
RTVSPost2010Prop44ColorIndex
 90
        5
102
RTVSPost2010Prop44ColorRGB
 90
      255
102
RTVSPost2010PropOp44
 70
     0
102
RTVSPost2010Prop45
280
     0
102
RTVSPost2010PropOp45
 70
     0
102
RTVSPost2010Prop46
 90
       50
102
RTVSPost2010PropOp46
 70
     0
102
RTVSPost2010Prop47
 90
       50
102
RTVSPost2010PropOp47
 70
     0
102
RTVSPost2010Prop48
 90
       50
102
RTVSPost2010PropOp48
 70
     0
102
RTVSPost2010Prop49
280
     0
102
RTVSPost2010PropOp49
 70
     0
102
RTVSPost2010Prop50
 90
       50
102
RTVSPost2010PropOp50
 70
     0
102
RTVSPost2010Prop51ColorIndex
 90
      256
102
RTVSPost2010Prop51ColorRGB
 90
-16777216
102
RTVSPost2010PropOp51
 70
     0
102
RTVSPost2010Prop52
140
1.0
102
RTVSPost2010PropOp52
 70
     0
102
RTVSPost2010Prop53
 90
        2
102
RTVSPost2010PropOp53
 70
     0
102
RTVSPost2010Prop54
  1
strokes_ogs.tif
102
RTVSPost2010PropOp54
 70
     0
102
RTVSPost2010Prop55
280
     0
102
RTVSPost2010PropOp55
 70
     0
102
RTVSPost2010Prop56
140
1.0
102
RTVSPost2010PropOp56
 70
     0
102
RTVSPost2010Prop57
140
1.0
102
RTVSPost2010PropOp57
 70
     0
  0
XRECORD
  5
147
102
{ACAD_REACTORS
330
146
102
}
330
146
100
AcDbXrecord
280
     1
102
RTVSPost2010Prop28
280
     0
102
RTVSPost2010PropOp28
 70
     1
102
RTVSPost2010Prop29
280
     1
102
RTVSPost2010PropOp29
 70
     1
102
RTVSPost2010Prop30
280
     1
102
RTVSPost2010PropOp30
 70
     1
102
RTVSPost2010Prop31
280
     0
102
RTVSPost2010PropOp31
 70
     1
102
RTVSPost2010Prop32
280
     0
102
RTVSPost2010PropOp32
 70
     1
102
RTVSPost2010Prop33
280
     0
102
RTVSPost2010PropOp33
 70
     1
102
RTVSPost2010Prop34
280
     0
102
RTVSPost2010PropOp34
 70
     1
102
RTVSPost2010Prop35
280
     0
102
RTVSPost2010PropOp35
 70
     1
102
RTVSPost2010Prop36
280
     0
102
RTVSPost2010PropOp36
 70
     1
102
RTVSPost2010Prop37
 90
       50
102
RTVSPost2010PropOp37
 70
     1
102
RTVSPost2010Prop38
140
0.0
102
RTVSPost2010PropOp38
 70
     1
102
RTVSPost2010Prop39
140
1.0
102
RTVSPost2010PropOp39
 70
     1
102
RTVSPost2010Prop40
 90
        0
102
RTVSPost2010PropOp40
 70
     1
102
RTVSPost2010Prop41ColorIndex
 90
       18
102
RTVSPost2010Prop41ColorRGB
 90
        0
102
RTVSPost2010PropOp41
 70
     1
102
RTVSPost2010Prop42
 90
       50
102
RTVSPost2010PropOp42
 70
     1
102
RTVSPost2010Prop43
 90
        3
102
RTVSPost2010PropOp43
 70
     1
102
RTVSPost2010Prop44ColorIndex
 90
        5
102
RTVSPost2010Prop44ColorRGB
 90
      255
102
RTVSPost2010PropOp44
 70
     1
102
RTVSPost2010Prop45
280
     0
102
RTVSPost2010PropOp45
 70
     1
102
RTVSPost2010Prop46
 90
       50
102
RTVSPost2010PropOp46
 70
     1
102
RTVSPost2010Prop47
 90
       50
102
RTVSPost2010PropOp47
 70
     1
102
RTVSPost2010Prop48
 90
       50
102
RTVSPost2010PropOp48
 70
     1
102
RTVSPost2010Prop49
280
     0
102
RTVSPost2010PropOp49
 70
     1
102
RTVSPost2010Prop50
 90
       50
102
RTVSPost2010PropOp50
 70
     1
102
RTVSPost2010Prop51ColorIndex
 90
      256
102
RTVSPost2010Prop51ColorRGB
 90
-16777216
102
RTVSPost2010PropOp51
 70
     0
102
RTVSPost2010Prop52
140
1.0
102
RTVSPost2010PropOp52
 70
     0
102
RTVSPost2010Prop53
 90
        2
102
RTVSPost2010PropOp53
 70
     1
102
RTVSPost2010Prop54
  1
strokes_ogs.tif
102
RTVSPost2010PropOp54
 70
     1
102
RTVSPost2010Prop55
280
     0
102
RTVSPost2010PropOp55
 70
     1
102
RTVSPost2010Prop56
140
1.0
102
RTVSPost2010PropOp56
 70
     1
102
RTVSPost2010Prop57
140
1.0
102
RTVSPost2010PropOp57
 70
     1
  0
XRECORD
  5
159
102
{ACAD_REACTORS
330
158
102
}
330
158
100
AcDbXrecord
280
     1
102
RTVSPost2010Prop28
280
     0
102
RTVSPost2010PropOp28
 70
     0
102
RTVSPost2010Prop29
280
     1
102
RTVSPost2010PropOp29
 70
     0
102
RTVSPost2010Prop30
280
     1
102
RTVSPost2010PropOp30
 70
     0
102
RTVSPost2010Prop31
280
     0
102
RTVSPost2010PropOp31
 70
     0
102
RTVSPost2010Prop32
280
     0
102
RTVSPost2010PropOp32
 70
     0
102
RTVSPost2010Prop33
280
     0
102
RTVSPost2010PropOp33
 70
     0
102
RTVSPost2010Prop34
280
     0
102
RTVSPost2010PropOp34
 70
     0
102
RTVSPost2010Prop35
280
     0
102
RTVSPost2010PropOp35
 70
     0
102
RTVSPost2010Prop36
280
     0
102
RTVSPost2010PropOp36
 70
     0
102
RTVSPost2010Prop37
 90
       50
102
RTVSPost2010PropOp37
 70
     0
102
RTVSPost2010Prop38
140
0.0
102
RTVSPost2010PropOp38
 70
     0
102
RTVSPost2010Prop39
140
1.0
102
RTVSPost2010PropOp39
 70
     0
102
RTVSPost2010Prop40
 90
        0
102
RTVSPost2010PropOp40
 70
     0
102
RTVSPost2010Prop41ColorIndex
 90
       18
102
RTVSPost2010Prop41ColorRGB
 90
        0
102
RTVSPost2010PropOp41
 70
     0
102
RTVSPost2010Prop42
 90
       50
102
RTVSPost2010PropOp42
 70
     0
102
RTVSPost2010Prop43
 90
        3
102
RTVSPost2010PropOp43
 70
     0
102
RTVSPost2010Prop44ColorIndex
 90
        5
102
RTVSPost2010Prop44ColorRGB
 90
      255
102
RTVSPost2010PropOp44
 70
     0
102
RTVSPost2010Prop45
280
     0
102
RTVSPost2010PropOp45
 70
     0
102
RTVSPost2010Prop46
 90
       50
102
RTVSPost2010PropOp46
 70
     0
102
RTVSPost2010Prop47
 90
       50
102
RTVSPost2010PropOp47
 70
     0
102
RTVSPost2010Prop48
 90
       50
102
RTVSPost2010PropOp48
 70
     0
102
RTVSPost2010Prop49
280
     0
102
RTVSPost2010PropOp49
 70
     0
102
RTVSPost2010Prop50
 90
       50
102
RTVSPost2010PropOp50
 70
     0
102
RTVSPost2010Prop51ColorIndex
 90
      256
102
RTVSPost2010Prop51ColorRGB
 90
-16777216
102
RTVSPost2010PropOp51
 70
     0
102
RTVSPost2010Prop52
140
1.0
102
RTVSPost2010PropOp52
 70
     0
102
RTVSPost2010Prop53
 90
        2
102
RTVSPost2010PropOp53
 70
     0
102
RTVSPost2010Prop54
  1
strokes_ogs.tif
102
RTVSPost2010PropOp54
 70
     0
102
RTVSPost2010Prop55
280
     0
102
RTVSPost2010PropOp55
 70
     0
102
RTVSPost2010Prop56
140
1.0
102
RTVSPost2010PropOp56
 70
     0
102
RTVSPost2010Prop57
140
1.0
102
RTVSPost2010PropOp57
 70
     0
  0
XRECORD
  5
13F
102
{ACAD_REACTORS
330
13E
102
}
330
13E
100
AcDbXrecord
280
     1
102
RTVSPost2010Prop28
280
     0
102
RTVSPost2010PropOp28
 70
     1
102
RTVSPost2010Prop29
280
     1
102
RTVSPost2010PropOp29
 70
     1
102
RTVSPost2010Prop30
280
     1
102
RTVSPost2010PropOp30
 70
     1
102
RTVSPost2010Prop31
280
     0
102
RTVSPost2010PropOp31
 70
     1
102
RTVSPost2010Prop32
280
     0
102
RTVSPost2010PropOp32
 70
     1
102
RTVSPost2010Prop33
280
     0
102
RTVSPost2010PropOp33
 70
     1
102
RTVSPost2010Prop34
280
     0
102
RTVSPost2010PropOp34
 70
     1
102
RTVSPost2010Prop35
280
     0
102
RTVSPost2010PropOp35
 70
     1
102
RTVSPost2010Prop36
280
     0
102
RTVSPost2010PropOp36
 70
     1
102
RTVSPost2010Prop37
 90
       50
102
RTVSPost2010PropOp37
 70
     1
102
RTVSPost2010Prop38
140
0.0
102
RTVSPost2010PropOp38
 70
     1
102
RTVSPost2010Prop39
140
1.0
102
RTVSPost2010PropOp39
 70
     1
102
RTVSPost2010Prop40
 90
        0
102
RTVSPost2010PropOp40
 70
     1
102
RTVSPost2010Prop41ColorIndex
 90
       18
102
RTVSPost2010Prop41ColorRGB
 90
        0
102
RTVSPost2010PropOp41
 70
     1
102
RTVSPost2010Prop42
 90
       50
102
RTVSPost2010PropOp42
 70
     1
102
RTVSPost2010Prop43
 90
        3
102
RTVSPost2010PropOp43
 70
     1
102
RTVSPost2010Prop44ColorIndex
 90
        5
102
RTVSPost2010Prop44ColorRGB
 90
      255
102
RTVSPost2010PropOp44
 70
     1
102
RTVSPost2010Prop45
280
     0
102
RTVSPost2010PropOp45
 70
     1
102
RTVSPost2010Prop46
 90
       50
102
RTVSPost2010PropOp46
 70
     1
102
RTVSPost2010Prop47
 90
       50
102
RTVSPost2010PropOp47
 70
     1
102
RTVSPost2010Prop48
 90
       50
102
RTVSPost2010PropOp48
 70
     1
102
RTVSPost2010Prop49
280
     0
102
RTVSPost2010PropOp49
 70
     1
102
RTVSPost2010Prop50
 90
       50
102
RTVSPost2010PropOp50
 70
     1
102
RTVSPost2010Prop51ColorIndex
 90
      256
102
RTVSPost2010Prop51ColorRGB
 90
-16777216
102
RTVSPost2010PropOp51
 70
     0
102
RTVSPost2010Prop52
140
1.0
102
RTVSPost2010PropOp52
 70
     0
102
RTVSPost2010Prop53
 90
        2
102
RTVSPost2010PropOp53
 70
     1
102
RTVSPost2010Prop54
  1
strokes_ogs.tif
102
RTVSPost2010PropOp54
 70
     1
102
RTVSPost2010Prop55
280
     0
102
RTVSPost2010PropOp55
 70
     1
102
RTVSPost2010Prop56
140
1.0
102
RTVSPost2010PropOp56
 70
     1
102
RTVSPost2010Prop57
140
1.0
102
RTVSPost2010PropOp57
 70
     1
  0
XRECORD
  5
155
102
{ACAD_REACTORS
330
154
102
}
330
154
100
AcDbXrecord
280
     1
102
RTVSPost2010Prop28
280
     0
102
RTVSPost2010PropOp28
 70
     1
102
RTVSPost2010Prop29
280
     1
102
RTVSPost2010PropOp29
 70
     1
102
RTVSPost2010Prop30
280
     1
102
RTVSPost2010PropOp30
 70
     1
102
RTVSPost2010Prop31
280
     0
102
RTVSPost2010PropOp31
 70
     1
102
RTVSPost2010Prop32
280
     0
102
RTVSPost2010PropOp32
 70
     1
102
RTVSPost2010Prop33
280
     0
102
RTVSPost2010PropOp33
 70
     1
102
RTVSPost2010Prop34
280
     0
102
RTVSPost2010PropOp34
 70
     1
102
RTVSPost2010Prop35
280
     0
102
RTVSPost2010PropOp35
 70
     1
102
RTVSPost2010Prop36
280
     0
102
RTVSPost2010PropOp36
 70
     1
102
RTVSPost2010Prop37
 90
       50
102
RTVSPost2010PropOp37
 70
     1
102
RTVSPost2010Prop38
140
0.0
102
RTVSPost2010PropOp38
 70
     1
102
RTVSPost2010Prop39
140
1.0
102
RTVSPost2010PropOp39
 70
     1
102
RTVSPost2010Prop40
 90
        0
102
RTVSPost2010PropOp40
 70
     1
102
RTVSPost2010Prop41ColorIndex
 90
       18
102
RTVSPost2010Prop41ColorRGB
 90
        0
102
RTVSPost2010PropOp41
 70
     1
102
RTVSPost2010Prop42
 90
       50
102
RTVSPost2010PropOp42
 70
     1
102
RTVSPost2010Prop43
 90
        3
102
RTVSPost2010PropOp43
 70
     1
102
RTVSPost2010Prop44ColorIndex
 90
        5
102
RTVSPost2010Prop44ColorRGB
 90
      255
102
RTVSPost2010PropOp44
 70
     1
102
RTVSPost2010Prop45
280
     0
102
RTVSPost2010PropOp45
 70
     1
102
RTVSPost2010Prop46
 90
       50
102
RTVSPost2010PropOp46
 70
     1
102
RTVSPost2010Prop47
 90
       50
102
RTVSPost2010PropOp47
 70
     1
102
RTVSPost2010Prop48
 90
       50
102
RTVSPost2010PropOp48
 70
     1
102
RTVSPost2010Prop49
280
     0
102
RTVSPost2010PropOp49
 70
     1
102
RTVSPost2010Prop50
 90
       50
102
RTVSPost2010PropOp50
 70
     1
102
RTVSPost2010Prop51ColorIndex
 90
      256
102
RTVSPost2010Prop51ColorRGB
 90
-16777216
102
RTVSPost2010PropOp51
 70
     0
102
RTVSPost2010Prop52
140
1.0
102
RTVSPost2010PropOp52
 70
     0
102
RTVSPost2010Prop53
 90
        2
102
RTVSPost2010PropOp53
 70
     1
102
RTVSPost2010Prop54
  1
strokes_ogs.tif
102
RTVSPost2010PropOp54
 70
     1
102
RTVSPost2010Prop55
280
     0
102
RTVSPost2010PropOp55
 70
     1
102
RTVSPost2010Prop56
140
1.0
102
RTVSPost2010PropOp56
 70
     1
102
RTVSPost2010Prop57
140
1.0
102
RTVSPost2010PropOp57
 70
     1
  0
XRECORD
  5
153
102
{ACAD_REACTORS
330
152
102
}
330
152
100
AcDbXrecord
280
     1
102
RTVSPost2010Prop28
280
     0
102
RTVSPost2010PropOp28
 70
     1
102
RTVSPost2010Prop29
280
     1
102
RTVSPost2010PropOp29
 70
     1
102
RTVSPost2010Prop30
280
     1
102
RTVSPost2010PropOp30
 70
     1
102
RTVSPost2010Prop31
280
     0
102
RTVSPost2010PropOp31
 70
     1
102
RTVSPost2010Prop32
280
     0
102
RTVSPost2010PropOp32
 70
     1
102
RTVSPost2010Prop33
280
     0
102
RTVSPost2010PropOp33
 70
     1
102
RTVSPost2010Prop34
280
     0
102
RTVSPost2010PropOp34
 70
     1
102
RTVSPost2010Prop35
280
     0
102
RTVSPost2010PropOp35
 70
     1
102
RTVSPost2010Prop36
280
     0
102
RTVSPost2010PropOp36
 70
     1
102
RTVSPost2010Prop37
 90
       50
102
RTVSPost2010PropOp37
 70
     1
102
RTVSPost2010Prop38
140
0.0
102
RTVSPost2010PropOp38
 70
     1
102
RTVSPost2010Prop39
140
1.0
102
RTVSPost2010PropOp39
 70
     1
102
RTVSPost2010Prop40
 90
        0
102
RTVSPost2010PropOp40
 70
     1
102
RTVSPost2010Prop41ColorIndex
 90
       18
102
RTVSPost2010Prop41ColorRGB
 90
        0
102
RTVSPost2010PropOp41
 70
     1
102
RTVSPost2010Prop42
 90
       50
102
RTVSPost2010PropOp42
 70
     1
102
RTVSPost2010Prop43
 90
        3
102
RTVSPost2010PropOp43
 70
     1
102
RTVSPost2010Prop44ColorIndex
 90
        5
102
RTVSPost2010Prop44ColorRGB
 90
      255
102
RTVSPost2010PropOp44
 70
     1
102
RTVSPost2010Prop45
280
     0
102
RTVSPost2010PropOp45
 70
     1
102
RTVSPost2010Prop46
 90
       50
102
RTVSPost2010PropOp46
 70
     1
102
RTVSPost2010Prop47
 90
       50
102
RTVSPost2010PropOp47
 70
     1
102
RTVSPost2010Prop48
 90
       50
102
RTVSPost2010PropOp48
 70
     1
102
RTVSPost2010Prop49
280
     0
102
RTVSPost2010PropOp49
 70
     1
102
RTVSPost2010Prop50
 90
       50
102
RTVSPost2010PropOp50
 70
     1
102
RTVSPost2010Prop51ColorIndex
 90
      256
102
RTVSPost2010Prop51ColorRGB
 90
-16777216
102
RTVSPost2010PropOp51
 70
     0
102
RTVSPost2010Prop52
140
1.0
102
RTVSPost2010PropOp52
 70
     0
102
RTVSPost2010Prop53
 90
        2
102
RTVSPost2010PropOp53
 70
     1
102
RTVSPost2010Prop54
  1
strokes_ogs.tif
102
RTVSPost2010PropOp54
 70
     1
102
RTVSPost2010Prop55
280
     0
102
RTVSPost2010PropOp55
 70
     1
102
RTVSPost2010Prop56
140
1.0
102
RTVSPost2010PropOp56
 70
     1
102
RTVSPost2010Prop57
140
1.0
102
RTVSPost2010PropOp57
 70
     1
  0
XRECORD
  5
14D
102
{ACAD_REACTORS
330
14C
102
}
330
14C
100
AcDbXrecord
280
     1
102
RTVSPost2010Prop28
280
     0
102
RTVSPost2010PropOp28
 70
     1
102
RTVSPost2010Prop29
280
     1
102
RTVSPost2010PropOp29
 70
     1
102
RTVSPost2010Prop30
280
     1
102
RTVSPost2010PropOp30
 70
     1
102
RTVSPost2010Prop31
280
     0
102
RTVSPost2010PropOp31
 70
     1
102
RTVSPost2010Prop32
280
     0
102
RTVSPost2010PropOp32
 70
     1
102
RTVSPost2010Prop33
280
     0
102
RTVSPost2010PropOp33
 70
     1
102
RTVSPost2010Prop34
280
     0
102
RTVSPost2010PropOp34
 70
     1
102
RTVSPost2010Prop35
280
     0
102
RTVSPost2010PropOp35
 70
     1
102
RTVSPost2010Prop36
280
     0
102
RTVSPost2010PropOp36
 70
     1
102
RTVSPost2010Prop37
 90
       50
102
RTVSPost2010PropOp37
 70
     1
102
RTVSPost2010Prop38
140
0.0
102
RTVSPost2010PropOp38
 70
     1
102
RTVSPost2010Prop39
140
1.0
102
RTVSPost2010PropOp39
 70
     1
102
RTVSPost2010Prop40
 90
        0
102
RTVSPost2010PropOp40
 70
     1
102
RTVSPost2010Prop41ColorIndex
 90
       18
102
RTVSPost2010Prop41ColorRGB
 90
        0
102
RTVSPost2010PropOp41
 70
     1
102
RTVSPost2010Prop42
 90
       50
102
RTVSPost2010PropOp42
 70
     1
102
RTVSPost2010Prop43
 90
        3
102
RTVSPost2010PropOp43
 70
     1
102
RTVSPost2010Prop44ColorIndex
 90
        5
102
RTVSPost2010Prop44ColorRGB
 90
      255
102
RTVSPost2010PropOp44
 70
     1
102
RTVSPost2010Prop45
280
     0
102
RTVSPost2010PropOp45
 70
     1
102
RTVSPost2010Prop46
 90
       50
102
RTVSPost2010PropOp46
 70
     1
102
RTVSPost2010Prop47
 90
       50
102
RTVSPost2010PropOp47
 70
     1
102
RTVSPost2010Prop48
 90
       50
102
RTVSPost2010PropOp48
 70
     1
102
RTVSPost2010Prop49
280
     0
102
RTVSPost2010PropOp49
 70
     1
102
RTVSPost2010Prop50
 90
       50
102
RTVSPost2010PropOp50
 70
     1
102
RTVSPost2010Prop51ColorIndex
 90
      256
102
RTVSPost2010Prop51ColorRGB
 90
-16777216
102
RTVSPost2010PropOp51
 70
     0
102
RTVSPost2010Prop52
140
1.0
102
RTVSPost2010PropOp52
 70
     0
102
RTVSPost2010Prop53
 90
        2
102
RTVSPost2010PropOp53
 70
     1
102
RTVSPost2010Prop54
  1
strokes_ogs.tif
102
RTVSPost2010PropOp54
 70
     1
102
RTVSPost2010Prop55
280
     0
102
RTVSPost2010PropOp55
 70
     1
102
RTVSPost2010Prop56
140
1.0
102
RTVSPost2010PropOp56
 70
     1
102
RTVSPost2010Prop57
140
1.0
102
RTVSPost2010PropOp57
 70
     1
  0
XRECORD
  5
14F
102
{ACAD_REACTORS
330
14E
102
}
330
14E
100
AcDbXrecord
280
     1
102
RTVSPost2010Prop28
280
     0
102
RTVSPost2010PropOp28
 70
     1
102
RTVSPost2010Prop29
280
     1
102
RTVSPost2010PropOp29
 70
     1
102
RTVSPost2010Prop30
280
     1
102
RTVSPost2010PropOp30
 70
     1
102
RTVSPost2010Prop31
280
     0
102
RTVSPost2010PropOp31
 70
     1
102
RTVSPost2010Prop32
280
     0
102
RTVSPost2010PropOp32
 70
     1
102
RTVSPost2010Prop33
280
     0
102
RTVSPost2010PropOp33
 70
     1
102
RTVSPost2010Prop34
280
     0
102
RTVSPost2010PropOp34
 70
     1
102
RTVSPost2010Prop35
280
     0
102
RTVSPost2010PropOp35
 70
     1
102
RTVSPost2010Prop36
280
     0
102
RTVSPost2010PropOp36
 70
     1
102
RTVSPost2010Prop37
 90
       50
102
RTVSPost2010PropOp37
 70
     1
102
RTVSPost2010Prop38
140
0.0
102
RTVSPost2010PropOp38
 70
     1
102
RTVSPost2010Prop39
140
1.0
102
RTVSPost2010PropOp39
 70
     1
102
RTVSPost2010Prop40
 90
        0
102
RTVSPost2010PropOp40
 70
     1
102
RTVSPost2010Prop41ColorIndex
 90
       18
102
RTVSPost2010Prop41ColorRGB
 90
        0
102
RTVSPost2010PropOp41
 70
     1
102
RTVSPost2010Prop42
 90
       50
102
RTVSPost2010PropOp42
 70
     1
102
RTVSPost2010Prop43
 90
        3
102
RTVSPost2010PropOp43
 70
     1
102
RTVSPost2010Prop44ColorIndex
 90
        5
102
RTVSPost2010Prop44ColorRGB
 90
      255
102
RTVSPost2010PropOp44
 70
     1
102
RTVSPost2010Prop45
280
     0
102
RTVSPost2010PropOp45
 70
     1
102
RTVSPost2010Prop46
 90
       50
102
RTVSPost2010PropOp46
 70
     1
102
RTVSPost2010Prop47
 90
       50
102
RTVSPost2010PropOp47
 70
     1
102
RTVSPost2010Prop48
 90
       50
102
RTVSPost2010PropOp48
 70
     1
102
RTVSPost2010Prop49
280
     0
102
RTVSPost2010PropOp49
 70
     1
102
RTVSPost2010Prop50
 90
       50
102
RTVSPost2010PropOp50
 70
     1
102
RTVSPost2010Prop51ColorIndex
 90
      256
102
RTVSPost2010Prop51ColorRGB
 90
-16777216
102
RTVSPost2010PropOp51
 70
     0
102
RTVSPost2010Prop52
140
1.0
102
RTVSPost2010PropOp52
 70
     0
102
RTVSPost2010Prop53
 90
        2
102
RTVSPost2010PropOp53
 70
     1
102
RTVSPost2010Prop54
  1
strokes_ogs.tif
102
RTVSPost2010PropOp54
 70
     1
102
RTVSPost2010Prop55
280
     0
102
RTVSPost2010PropOp55
 70
     1
102
RTVSPost2010Prop56
140
1.0
102
RTVSPost2010PropOp56
 70
     1
102
RTVSPost2010Prop57
140
1.0
102
RTVSPost2010PropOp57
 70
     1
  0
XRECORD
  5
145
102
{ACAD_REACTORS
330
144
102
}
330
144
100
AcDbXrecord
280
     1
102
RTVSPost2010Prop28
280
     0
102
RTVSPost2010PropOp28
 70
     1
102
RTVSPost2010Prop29
280
     1
102
RTVSPost2010PropOp29
 70
     1
102
RTVSPost2010Prop30
280
     1
102
RTVSPost2010PropOp30
 70
     1
102
RTVSPost2010Prop31
280
     0
102
RTVSPost2010PropOp31
 70
     1
102
RTVSPost2010Prop32
280
     0
102
RTVSPost2010PropOp32
 70
     1
102
RTVSPost2010Prop33
280
     0
102
RTVSPost2010PropOp33
 70
     1
102
RTVSPost2010Prop34
280
     0
102
RTVSPost2010PropOp34
 70
     1
102
RTVSPost2010Prop35
280
     0
102
RTVSPost2010PropOp35
 70
     1
102
RTVSPost2010Prop36
280
     0
102
RTVSPost2010PropOp36
 70
     1
102
RTVSPost2010Prop37
 90
       50
102
RTVSPost2010PropOp37
 70
     1
102
RTVSPost2010Prop38
140
0.0
102
RTVSPost2010PropOp38
 70
     1
102
RTVSPost2010Prop39
140
1.0
102
RTVSPost2010PropOp39
 70
     1
102
RTVSPost2010Prop40
 90
        0
102
RTVSPost2010PropOp40
 70
     1
102
RTVSPost2010Prop41ColorIndex
 90
       18
102
RTVSPost2010Prop41ColorRGB
 90
        0
102
RTVSPost2010PropOp41
 70
     1
102
RTVSPost2010Prop42
 90
       50
102
RTVSPost2010PropOp42
 70
     1
102
RTVSPost2010Prop43
 90
        3
102
RTVSPost2010PropOp43
 70
     1
102
RTVSPost2010Prop44ColorIndex
 90
        5
102
RTVSPost2010Prop44ColorRGB
 90
      255
102
RTVSPost2010PropOp44
 70
     1
102
RTVSPost2010Prop45
280
     0
102
RTVSPost2010PropOp45
 70
     1
102
RTVSPost2010Prop46
 90
       50
102
RTVSPost2010PropOp46
 70
     1
102
RTVSPost2010Prop47
 90
       50
102
RTVSPost2010PropOp47
 70
     1
102
RTVSPost2010Prop48
 90
       50
102
RTVSPost2010PropOp48
 70
     1
102
RTVSPost2010Prop49
280
     0
102
RTVSPost2010PropOp49
 70
     1
102
RTVSPost2010Prop50
 90
       50
102
RTVSPost2010PropOp50
 70
     1
102
RTVSPost2010Prop51ColorIndex
 90
      256
102
RTVSPost2010Prop51ColorRGB
 90
-16777216
102
RTVSPost2010PropOp51
 70
     0
102
RTVSPost2010Prop52
140
1.0
102
RTVSPost2010PropOp52
 70
     0
102
RTVSPost2010Prop53
 90
        2
102
RTVSPost2010PropOp53
 70
     1
102
RTVSPost2010Prop54
  1
strokes_ogs.tif
102
RTVSPost2010PropOp54
 70
     1
102
RTVSPost2010Prop55
280
     0
102
RTVSPost2010PropOp55
 70
     1
102
RTVSPost2010Prop56
140
1.0
102
RTVSPost2010PropOp56
 70
     1
102
RTVSPost2010Prop57
140
1.0
102
RTVSPost2010PropOp57
 70
     1
  0
XRECORD
  5
139
102
{ACAD_REACTORS
330
138
102
}
330
138
100
AcDbXrecord
280
     1
102
RTVSPost2010Prop28
280
     0
102
RTVSPost2010PropOp28
 70
     1
102
RTVSPost2010Prop29
280
     1
102
RTVSPost2010PropOp29
 70
     1
102
RTVSPost2010Prop30
280
     1
102
RTVSPost2010PropOp30
 70
     1
102
RTVSPost2010Prop31
280
     0
102
RTVSPost2010PropOp31
 70
     1
102
RTVSPost2010Prop32
280
     0
102
RTVSPost2010PropOp32
 70
     1
102
RTVSPost2010Prop33
280
     0
102
RTVSPost2010PropOp33
 70
     1
102
RTVSPost2010Prop34
280
     0
102
RTVSPost2010PropOp34
 70
     1
102
RTVSPost2010Prop35
280
     0
102
RTVSPost2010PropOp35
 70
     1
102
RTVSPost2010Prop36
280
     0
102
RTVSPost2010PropOp36
 70
     1
102
RTVSPost2010Prop37
 90
       50
102
RTVSPost2010PropOp37
 70
     1
102
RTVSPost2010Prop38
140
0.0
102
RTVSPost2010PropOp38
 70
     1
102
RTVSPost2010Prop39
140
1.0
102
RTVSPost2010PropOp39
 70
     1
102
RTVSPost2010Prop40
 90
        0
102
RTVSPost2010PropOp40
 70
     1
102
RTVSPost2010Prop41ColorIndex
 90
       18
102
RTVSPost2010Prop41ColorRGB
 90
        0
102
RTVSPost2010PropOp41
 70
     1
102
RTVSPost2010Prop42
 90
       50
102
RTVSPost2010PropOp42
 70
     1
102
RTVSPost2010Prop43
 90
        3
102
RTVSPost2010PropOp43
 70
     1
102
RTVSPost2010Prop44ColorIndex
 90
        5
102
RTVSPost2010Prop44ColorRGB
 90
      255
102
RTVSPost2010PropOp44
 70
     1
102
RTVSPost2010Prop45
280
     0
102
RTVSPost2010PropOp45
 70
     1
102
RTVSPost2010Prop46
 90
       50
102
RTVSPost2010PropOp46
 70
     1
102
RTVSPost2010Prop47
 90
       50
102
RTVSPost2010PropOp47
 70
     1
102
RTVSPost2010Prop48
 90
       50
102
RTVSPost2010PropOp48
 70
     1
102
RTVSPost2010Prop49
280
     0
102
RTVSPost2010PropOp49
 70
     1
102
RTVSPost2010Prop50
 90
       50
102
RTVSPost2010PropOp50
 70
     1
102
RTVSPost2010Prop51ColorIndex
 90
      256
102
RTVSPost2010Prop51ColorRGB
 90
-16777216
102
RTVSPost2010PropOp51
 70
     0
102
RTVSPost2010Prop52
140
1.0
102
RTVSPost2010PropOp52
 70
     0
102
RTVSPost2010Prop53
 90
        2
102
RTVSPost2010PropOp53
 70
     1
102
RTVSPost2010Prop54
  1
strokes_ogs.tif
102
RTVSPost2010PropOp54
 70
     1
102
RTVSPost2010Prop55
280
     0
102
RTVSPost2010PropOp55
 70
     1
102
RTVSPost2010Prop56
140
1.0
102
RTVSPost2010PropOp56
 70
     1
102
RTVSPost2010Prop57
140
1.0
102
RTVSPost2010PropOp57
 70
     1
  0
XRECORD
  5
151
102
{ACAD_REACTORS
330
150
102
}
330
150
100
AcDbXrecord
280
     1
102
RTVSPost2010Prop28
280
     0
102
RTVSPost2010PropOp28
 70
     1
102
RTVSPost2010Prop29
280
     1
102
RTVSPost2010PropOp29
 70
     1
102
RTVSPost2010Prop30
280
     1
102
RTVSPost2010PropOp30
 70
     1
102
RTVSPost2010Prop31
280
     0
102
RTVSPost2010PropOp31
 70
     1
102
RTVSPost2010Prop32
280
     0
102
RTVSPost2010PropOp32
 70
     1
102
RTVSPost2010Prop33
280
     0
102
RTVSPost2010PropOp33
 70
     1
102
RTVSPost2010Prop34
280
     0
102
RTVSPost2010PropOp34
 70
     1
102
RTVSPost2010Prop35
280
     0
102
RTVSPost2010PropOp35
 70
     1
102
RTVSPost2010Prop36
280
     0
102
RTVSPost2010PropOp36
 70
     1
102
RTVSPost2010Prop37
 90
       50
102
RTVSPost2010PropOp37
 70
     1
102
RTVSPost2010Prop38
140
0.0
102
RTVSPost2010PropOp38
 70
     1
102
RTVSPost2010Prop39
140
1.0
102
RTVSPost2010PropOp39
 70
     1
102
RTVSPost2010Prop40
 90
        0
102
RTVSPost2010PropOp40
 70
     1
102
RTVSPost2010Prop41ColorIndex
 90
       18
102
RTVSPost2010Prop41ColorRGB
 90
        0
102
RTVSPost2010PropOp41
 70
     1
102
RTVSPost2010Prop42
 90
       50
102
RTVSPost2010PropOp42
 70
     1
102
RTVSPost2010Prop43
 90
        3
102
RTVSPost2010PropOp43
 70
     1
102
RTVSPost2010Prop44ColorIndex
 90
        5
102
RTVSPost2010Prop44ColorRGB
 90
      255
102
RTVSPost2010PropOp44
 70
     1
102
RTVSPost2010Prop45
280
     0
102
RTVSPost2010PropOp45
 70
     1
102
RTVSPost2010Prop46
 90
       50
102
RTVSPost2010PropOp46
 70
     1
102
RTVSPost2010Prop47
 90
       50
102
RTVSPost2010PropOp47
 70
     1
102
RTVSPost2010Prop48
 90
       50
102
RTVSPost2010PropOp48
 70
     1
102
RTVSPost2010Prop49
280
     0
102
RTVSPost2010PropOp49
 70
     1
102
RTVSPost2010Prop50
 90
       50
102
RTVSPost2010PropOp50
 70
     1
102
RTVSPost2010Prop51ColorIndex
 90
      256
102
RTVSPost2010Prop51ColorRGB
 90
-16777216
102
RTVSPost2010PropOp51
 70
     0
102
RTVSPost2010Prop52
140
1.0
102
RTVSPost2010PropOp52
 70
     0
102
RTVSPost2010Prop53
 90
        2
102
RTVSPost2010PropOp53
 70
     1
102
RTVSPost2010Prop54
  1
strokes_ogs.tif
102
RTVSPost2010PropOp54
 70
     1
102
RTVSPost2010Prop55
280
     0
102
RTVSPost2010PropOp55
 70
     1
102
RTVSPost2010Prop56
140
1.0
102
RTVSPost2010PropOp56
 70
     1
102
RTVSPost2010Prop57
140
1.0
102
RTVSPost2010PropOp57
 70
     1
  0
ENDSEC
  0
EOF
