  0
SECTION
  2
HEADER
  9
$ACADVER
  1
AC1024
  9
$ACADMAINTVER
 70
     6
  9
$DWGCODEPAGE
  3
UNDEFINED
  9
$INSBASE
 10
0.0
 20
0.0
 30
0.0
  9
$EXTMIN
 10
1.000000000000000E+20
 20
1.000000000000000E+20
 30
1.000000000000000E+20
  9
$EXTMAX
 10
-1.000000000000000E+20
 20
-1.000000000000000E+20
 30
-1.000000000000000E+20
  9
$LIMMIN
 10
0.0
 20
0.0
  9
$LIMMAX
 10
12.0
 20
9.0
  9
$ORTHOMODE
 70
     0
  9
$REGENMODE
 70
     1
  9
$FILLMODE
 70
     1
  9
$QTEXTMODE
 70
     0
  9
$MIRRTEXT
 70
     1
  9
$LTSCALE
 40
1.0
  9
$ATTMODE
 70
     1
  9
$TEXTSIZE
 40
0.2
  9
$TRACEWID
 40
0.05
  9
$TEXTSTYLE
  7
Standard
  9
$CLAYER
  8
0
  9
$CELTYPE
  6
ByLayer
  9
$CECOLOR
 62
   256
  9
$CELTSCALE
 40
1.0
  9
$DISPSILH
 70
     0
  9
$DIMSCALE
 40
1.0
  9
$DIMASZ
 40
0.18
  9
$DIMEXO
 40
0.0625
  9
$DIMDLI
 40
0.38
  9
$DIMRND
 40
0.0
  9
$DIMDLE
 40
0.0
  9
$DIMEXE
 40
0.18
  9
$DIMTP
 40
0.0
  9
$DIMTM
 40
0.0
  9
$DIMTXT
 40
0.18
  9
$DIMCEN
 40
0.09
  9
$DIMTSZ
 40
0.0
  9
$DIMTOL
 70
     0
  9
$DIMLIM
 70
     0
  9
$DIMTIH
 70
     1
  9
$DIMTOH
 70
     1
  9
$DIMSE1
 70
     0
  9
$DIMSE2
 70
     0
  9
$DIMTAD
 70
     0
  9
$DIMZIN
 70
     0
  9
$DIMBLK
  1

  9
$DIMASO
 70
     1
  9
$DIMSHO
 70
     1
  9
$DIMPOST
  1

  9
$DIMAPOST
  1

  9
$DIMALT
 70
     0
  9
$DIMALTD
 70
     2
  9
$DIMALTF
 40
25.4
  9
$DIMLFAC
 40
1.0
  9
$DIMTOFL
 70
     0
  9
$DIMTVP
 40
0.0
  9
$DIMTIX
 70
     0
  9
$DIMSOXD
 70
     0
  9
$DIMSAH
 70
     0
  9
$DIMBLK1
  1

  9
$DIMBLK2
  1

  9
$DIMSTYLE
  2
Standard
  9
$DIMCLRD
 70
     0
  9
$DIMCLRE
 70
     0
  9
$DIMCLRT
 70
     0
  9
$DIMTFAC
 40
1.0
  9
$DIMGAP
 40
0.09
  9
$DIMJUST
 70
     0
  9
$DIMSD1
 70
     0
  9
$DIMSD2
 70
     0
  9
$DIMTOLJ
 70
     1
  9
$DIMTZIN
 70
     0
  9
$DIMALTZ
 70
     0
  9
$DIMALTTZ
 70
     0
  9
$DIMUPT
 70
     0
  9
$DIMDEC
 70
     4
  9
$DIMTDEC
 70
     4
  9
$DIMALTU
 70
     2
  9
$DIMALTTD
 70
     2
  9
$DIMTXSTY
  7
Standard
  9
$DIMAUNIT
 70
     0
  9
$DIMADEC
 70
     0
  9
$DIMALTRND
 40
0.0
  9
$DIMAZIN
 70
     0
  9
$DIMDSEP
 70
    46
  9
$DIMATFIT
 70
     3
  9
$DIMFRAC
 70
     0
  9
$DIMLDRBLK
  1

  9
$DIMLUNIT
 70
     2
  9
$DIMLWD
 70
    -2
  9
$DIMLWE
 70
    -2
  9
$DIMTMOVE
 70
     0
  9
$DIMFXL
 40
1.0
  9
$DIMFXLON
 70
     0
  9
$DIMJOGANG
 40
0.7853981633974483
  9
$DIMTFILL
 70
     0
  9
$DIMTFILLCLR
 70
     0
  9
$DIMARCSYM
 70
     0
  9
$DIMLTYPE
  6

  9
$DIMLTEX1
  6

  9
$DIMLTEX2
  6

  9
$DIMTXTDIRECTION
 70
     0
  9
$LUNITS
 70
     2
  9
$LUPREC
 70
     4
  9
$SKETCHINC
 40
0.1
  9
$FILLETRAD
 40
0.5
  9
$AUNITS
 70
     0
  9
$AUPREC
 70
     0
  9
$MENU
  1
.
  9
$ELEVATION
 40
0.0
  9
$PELEVATION
 40
0.0
  9
$THICKNESS
 40
0.0
  9
$LIMCHECK
 70
     0
  9
$CHAMFERA
 40
0.5
  9
$CHAMFERB
 40
0.5
  9
$CHAMFERC
 40
1.0
  9
$CHAMFERD
 40
0.0
  9
$SKPOLY
 70
     0
  9
$TDCREATE
 40
2458263.573912037
  9
$TDUCREATE
 40
2458263.198912037
  9
$TDUPDATE
 40
2458263.573923599
  9
$TDUUPDATE
 40
2458263.198923611
  9
$TDINDWG
 40
0.0000000116
  9
$TDUSRTIMER
 40
0.0000000116
  9
$USRTIMER
 70
     1
  9
$ANGBASE
 50
0.0
  9
$ANGDIR
 70
     0
  9
$PDMODE
 70
     0
  9
$PDSIZE
 40
0.0
  9
$PLINEWID
 40
0.0
  9
$SPLFRAME
 70
     0
  9
$SPLINETYPE
 70
     6
  9
$SPLINESEGS
 70
     8
  9
$HANDSEED
  5
130
  9
$SURFTAB1
 70
     6
  9
$SURFTAB2
 70
     6
  9
$SURFTYPE
 70
     6
  9
$SURFU
 70
     6
  9
$SURFV
 70
     6
  9
$UCSBASE
  2

  9
$UCSNAME
  2

  9
$UCSORG
 10
0.0
 20
0.0
 30
0.0
  9
$UCSXDIR
 10
1.0
 20
0.0
 30
0.0
  9
$UCSYDIR
 10
0.0
 20
1.0
 30
0.0
  9
$UCSORTHOREF
  2

  9
$UCSORTHOVIEW
 70
     0
  9
$UCSORGTOP
 10
0.0
 20
0.0
 30
0.0
  9
$UCSORGBOTTOM
 10
0.0
 20
0.0
 30
0.0
  9
$UCSORGLEFT
 10
0.0
 20
0.0
 30
0.0
  9
$UCSORGRIGHT
 10
0.0
 20
0.0
 30
0.0
  9
$UCSORGFRONT
 10
0.0
 20
0.0
 30
0.0
  9
$UCSORGBACK
 10
0.0
 20
0.0
 30
0.0
  9
$PUCSBASE
  2

  9
$PUCSNAME
  2

  9
$PUCSORG
 10
0.0
 20
0.0
 30
0.0
  9
$PUCSXDIR
 10
1.0
 20
0.0
 30
0.0
  9
$PUCSYDIR
 10
0.0
 20
1.0
 30
0.0
  9
$PUCSORTHOREF
  2

  9
$PUCSORTHOVIEW
 70
     0
  9
$PUCSORGTOP
 10
0.0
 20
0.0
 30
0.0
  9
$PUCSORGBOTTOM
 10
0.0
 20
0.0
 30
0.0
  9
$PUCSORGLEFT
 10
0.0
 20
0.0
 30
0.0
  9
$PUCSORGRIGHT
 10
0.0
 20
0.0
 30
0.0
  9
$PUCSORGFRONT
 10
0.0
 20
0.0
 30
0.0
  9
$PUCSORGBACK
 10
0.0
 20
0.0
 30
0.0
  9
$USERI1
 70
     0
  9
$USERI2
 70
     0
  9
$USERI3
 70
     0
  9
$USERI4
 70
     0
  9
$USERI5
 70
     0
  9
$USERR1
 40
0.0
  9
$USERR2
 40
0.0
  9
$USERR3
 40
0.0
  9
$USERR4
 40
0.0
  9
$USERR5
 40
0.0
  9
$WORLDVIEW
 70
     1
  9
$SHADEDGE
 70
     3
  9
$SHADEDIF
 70
    70
  9
$TILEMODE
 70
     1
  9
$MAXACTVP
 70
    64
  9
$PINSBASE
 10
0.0
 20
0.0
 30
0.0
  9
$PLIMCHECK
 70
     0
  9
$PEXTMIN
 10
1.000000000000000E+20
 20
1.000000000000000E+20
 30
1.000000000000000E+20
  9
$PEXTMAX
 10
-1.000000000000000E+20
 20
-1.000000000000000E+20
 30
-1.000000000000000E+20
  9
$PLIMMIN
 10
0.0
 20
0.0
  9
$PLIMMAX
 10
12.0
 20
9.0
  9
$UNITMODE
 70
     0
  9
$VISRETAIN
 70
     1
  9
$PLINEGEN
 70
     0
  9
$PSLTSCALE
 70
     1
  9
$TREEDEPTH
 70
  3020
  9
$CMLSTYLE
  2
Standard
  9
$CMLJUST
 70
     0
  9
$CMLSCALE
 40
1.0
  9
$PROXYGRAPHICS
 70
     1
  9
$MEASUREMENT
 70
     0
  9
$CELWEIGHT
370
    -1
  9
$ENDCAPS
280
     0
  9
$JOINSTYLE
280
     0
  9
$LWDISPLAY
290
     1
  9
$INSUNITS
 70
     1
  9
$HYPERLINKBASE
  1

  9
$STYLESHEET
  1

  9
$XEDIT
290
     1
  9
$CEPSNTYPE
380
     0
  9
$PSTYLEMODE
290
     1
  9
$FINGERPRINTGUID
  2
{6B29EEB6-F9FE-8CFB-5290-62A85F245B80}
  9
$VERSIONGUID
  2
{FAEB1C32-E019-11D5-929B-00C0DF256EC4}
  9
$EXTNAMES
290
     1
  9
$PSVPSCALE
 40
0.0
  9
$OLESTARTUP
290
     0
  9
$SORTENTS
280
   127
  9
$INDEXCTL
280
     0
  9
$HIDETEXT
280
     1
  9
$XCLIPFRAME
280
     2
  9
$HALOGAP
280
     0
  9
$OBSCOLOR
 70
   257
  9
$OBSLTYPE
280
     0
  9
$INTERSECTIONDISPLAY
280
     0
  9
$INTERSECTIONCOLOR
 70
   257
  9
$DIMASSOC
280
     2
  9
$PROJECTNAME
  1

  9
$CAMERADISPLAY
290
     0
  9
$LENSLENGTH
 40
50.0
  9
$CAMERAHEIGHT
 40
0.0
  9
$STEPSPERSEC
 40
2.0
  9
$STEPSIZE
 40
6.0
  9
$3DDWFPREC
 40
2.0
  9
$PSOLWIDTH
 40
0.25
  9
$PSOLHEIGHT
 40
4.0
  9
$LOFTANG1
 40
1.570796326794897
  9
$LOFTANG2
 40
1.570796326794897
  9
$LOFTMAG1
 40
0.0
  9
$LOFTMAG2
 40
0.0
  9
$LOFTPARAM
 70
     7
  9
$LOFTNORMALS
280
     1
  9
$LATITUDE
 40
37.795
  9
$LONGITUDE
 40
-122.394
  9
$NORTHDIRECTION
 40
0.0
  9
$TIMEZONE
 70
 -8000
  9
$LIGHTGLYPHDISPLAY
280
     1
  9
$TILEMODELIGHTSYNCH
280
     1
  9
$CMATERIAL
347
3C
  9
$SOLIDHIST
280
     1
  9
$SHOWHIST
280
     1
  9
$DWFFRAME
280
     2
  9
$DGNFRAME
280
     2
  9
$REALWORLDSCALE
290
     1
  9
$INTERFERECOLOR
 62
   256
  9
$CSHADOW
280
     0
  9
$SHADOWPLANELOCATION
 40
0.0
  0
ENDSEC
  0
SECTION
  2
CLASSES
  0
CLASS
  1
ACDBDICTIONARYWDFLT
  2
AcDbDictionaryWithDefault
  3
ObjectDBX Classes
 90
        0
 91
        4
280
     0
281
     0
  0
CLASS
  1
VISUALSTYLE
  2
AcDbVisualStyle
  3
ObjectDBX Classes
 90
     4095
 91
        4
280
     0
281
     0
  0
CLASS
  1
MATERIAL
  2
AcDbMaterial
  3
ObjectDBX Classes
 90
     1153
 91
        4
280
     0
281
     0
  0
CLASS
  1
SUN
  2
AcDbSun
  3
SCENEOE
 90
     1024
 91
        4
280
     0
281
     0
  0
ENDSEC
  0
SECTION
  2
TABLES
  0
TABLE
  2
VPORT
  5
8
330
0
100
AcDbSymbolTable
 70
     1
  0
VPORT
  5
29
330
8
100
AcDbSymbolTableRecord
100
AcDbViewportTableRecord
  2
*Active
 70
     0
 10
0.0
 20
0.0
 11
1.0
 21
1.0
 12
0.0
 22
0.0
 13
0.0
 23
0.0
 14
0.5
 24
0.5
 15
0.5
 25
0.5
 16
0.0
 26
0.0
 36
1.0
 17
105.0007777515277
 27
-148.5000416295416
 37
0.0
 40
297.0000832590831
 41
0.7070757462376333
 42
50.0
 43
0.0
 44
0.0
 50
0.0
 51
0.0
 71
     0
 72
   100
 73
     1
 74
     3
 75
     0
 76
     0
 77
     0
 78
     0
281
     0
 65
     1
110
0.0
120
0.0
130
0.0
111
1.0
121
0.0
131
0.0
112
0.0
122
1.0
132
0.0
 79
     0
146
0.0
 60
     3
 61
     5
292
     1
282
     1
141
0.0
142
0.0
 63
   250
361
3F
  0
ENDTAB
  0
TABLE
  2
LTYPE
  5
5
330
0
100
AcDbSymbolTable
 70
     2
  0
LTYPE
  5
14
330
5
100
AcDbSymbolTableRecord
100
AcDbLinetypeTableRecord
  2
ByBlock
 70
     0
  3

 72
    65
 73
     0
 40
0.0
  0
LTYPE
  5
15
330
5
100
AcDbSymbolTableRecord
100
AcDbLinetypeTableRecord
  2
ByLayer
 70
     0
  3

 72
    65
 73
     0
 40
0.0
  0
LTYPE
  5
16
330
5
100
AcDbSymbolTableRecord
100
AcDbLinetypeTableRecord
  2
Continuous
 70
     0
  3
Solid line
 72
    65
 73
     0
 40
0.0
  0
LTYPE
  5
FB
330
5
100
AcDbSymbolTableRecord
100
AcDbLinetypeTableRecord
  2
AI-Linetype-1
 70
     0
  3
Adobe Illustrator Linetype No. 1
 72
    65
 73
     2
 40
1.411111110758333
 49
0.7055555553791667
 74
     0
 49
-0.7055555553791667
 74
     0
  0
ENDTAB
  0
TABLE
  2
LAYER
  5
2
330
0
100
AcDbSymbolTable
 70
     2
  0
LAYER
  5
10
330
2
100
AcDbSymbolTableRecord
100
AcDbLayerTableRecord
  2
0
 70
     0
 62
     7
  6
Continuous
370
    -3
390
F
347
3E
  0
LAYER
  5
40
330
2
100
AcDbSymbolTableRecord
100
AcDbLayerTableRecord
  2
_U+30EC_U+30A4_U+30E4_U+30FC 1
 70
     0
 62
     7
  6
Continuous
370
    -3
390
F
347
3E
  0
ENDTAB
  0
TABLE
  2
STYLE
  5
3
330
0
100
AcDbSymbolTable
 70
     1
  0
STYLE
  5
11
330
3
100
AcDbSymbolTableRecord
100
AcDbTextStyleTableRecord
  2
Standard
 70
     0
 40
0.0
 41
1.0
 50
0.0
 71
     0
 42
0.2
  3
txt
  4

  0
ENDTAB
  0
TABLE
  2
VIEW
  5
6
330
0
100
AcDbSymbolTable
 70
     0
  0
ENDTAB
  0
TABLE
  2
UCS
  5
7
330
0
100
AcDbSymbolTable
 70
     0
  0
ENDTAB
  0
TABLE
  2
APPID
  5
9
330
0
100
AcDbSymbolTable
 70
     1
  0
APPID
  5
12
330
9
100
AcDbSymbolTableRecord
100
AcDbRegAppTableRecord
  2
ACAD
 70
     0
  0
ENDTAB
  0
TABLE
  2
DIMSTYLE
  5
A
330
0
100
AcDbSymbolTable
 70
     1
100
AcDbDimStyleTable
  0
DIMSTYLE
105
27
330
A
100
AcDbSymbolTableRecord
100
AcDbDimStyleTableRecord
  2
Standard
 70
     0
178
     0
340
11
  0
ENDTAB
  0
TABLE
  2
BLOCK_RECORD
  5
1
330
0
100
AcDbSymbolTable
 70
     5
  0
BLOCK_RECORD
  5
1F
330
1
100
AcDbSymbolTableRecord
100
AcDbBlockTableRecord
  2
*Model_Space
340
22
 70
     0
280
     1
281
     0
  0
BLOCK_RECORD
  5
1B
330
1
100
AcDbSymbolTableRecord
100
AcDbBlockTableRecord
  2
*Paper_Space
340
1E
 70
     0
280
     1
281
     0
  0
BLOCK_RECORD
  5
23
330
1
100
AcDbSymbolTableRecord
100
AcDbBlockTableRecord
  2
*Paper_Space0
340
26
 70
     0
280
     1
281
     0
  0
BLOCK_RECORD
  5
5E
330
1
100
AcDbSymbolTableRecord
100
AcDbBlockTableRecord
  2
block 2
340
0
102
{BLKREFS
331
5F
102
}
 70
     0
280
     1
281
     0
  0
BLOCK_RECORD
  5
76
330
1
100
AcDbSymbolTableRecord
100
AcDbBlockTableRecord
  2
block 3
340
0
102
{BLKREFS
331
77
102
}
 70
     0
280
     1
281
     0
  0
BLOCK_RECORD
  5
9E
330
1
100
AcDbSymbolTableRecord
100
AcDbBlockTableRecord
  2
block 4
340
0
102
{BLKREFS
331
9F
102
}
 70
     0
280
     1
281
     0
  0
BLOCK_RECORD
  5
BA
330
1
100
AcDbSymbolTableRecord
100
AcDbBlockTableRecord
  2
block 5
340
0
102
{BLKREFS
331
BB
102
}
 70
     0
280
     1
281
     0
  0
ENDTAB
  0
ENDSEC
  0
SECTION
  2
BLOCKS
  0
BLOCK
  5
20
330
1F
100
AcDbEntity
  8
0
100
AcDbBlockBegin
  2
*Model_Space
 70
     0
 10
0.0
 20
0.0
 30
0.0
  3
*Model_Space
  1

  0
ENDBLK
  5
21
330
1F
100
AcDbEntity
  8
0
100
AcDbBlockEnd
  0
BLOCK
  5
1C
330
1B
100
AcDbEntity
 67
     1
  8
0
100
AcDbBlockBegin
  2
*Paper_Space
 70
     0
 10
0.0
 20
0.0
 30
0.0
  3
*Paper_Space
  1

  0
ENDBLK
  5
1D
330
1B
100
AcDbEntity
 67
     1
  8
0
100
AcDbBlockEnd
  0
BLOCK
  5
24
330
23
100
AcDbEntity
  8
0
100
AcDbBlockBegin
  2
*Paper_Space0
 70
     0
 10
0.0
 20
0.0
 30
0.0
  3
*Paper_Space0
  1

  0
ENDBLK
  5
25
330
23
100
AcDbEntity
  8
0
100
AcDbBlockEnd
  0
BLOCK
  5
60
330
5E
100
AcDbEntity
  8
0
100
AcDbBlockBegin
  2
block 2
 70
     0
 10
0.0
 20
0.0
 30
0.0
  3
block 2
  1

  0
SPLINE
  5
62
330
5E
100
AcDbEntity
  8
_U+30EC_U+30A4_U+30E4_U+30FC 1
370
     0
100
AcDbSpline
210
0.0
220
0.0
230
1.0
 70
    11
 71
     3
 72
    44
 73
    40
 74
     0
 42
0.0000000001
 43
0.0000000001
 12
1.0
 22
0.0
 32
0.0
 13
1.0
 23
0.0
 33
0.0
 40
0.0
 40
0.0
 40
0.0
 40
0.0
 40
1.0
 40
1.0
 40
1.0
 40
2.0
 40
2.0
 40
2.0
 40
3.0
 40
3.0
 40
3.0
 40
4.0
 40
4.0
 40
4.0
 40
5.0
 40
5.0
 40
5.0
 40
6.0
 40
6.0
 40
6.0
 40
7.0
 40
7.0
 40
7.0
 40
8.0
 40
8.0
 40
8.0
 40
9.0
 40
9.0
 40
9.0
 40
10.0
 40
10.0
 40
10.0
 40
11.0
 40
11.0
 40
11.0
 40
12.0
 40
12.0
 40
12.0
 40
13.0
 40
13.0
 40
13.0
 40
13.0
 10
106.6780707198583
 20
-151.2166096627167
 30
0.0
 10
106.4599961756419
 20
-151.3750840550382
 30
0.0
 10
106.3666340879917
 20
-151.4491536079711
 30
0.0
 10
106.3184027511982
 20
-151.5931585992545
 30
0.0
 10
106.3184027511982
 20
-151.5931585992545
 30
0.0
 10
107.0966498213161
 20
-151.5931585992545
 30
0.0
 10
107.0966498213161
 20
-151.5931585992545
 30
0.0
 10
107.0966498213161
 20
-151.5931585992545
 30
0.0
 10
107.0966498213161
 20
-151.7981417806268
 30
0.0
 10
107.0966498213161
 20
-151.7981417806268
 30
0.0
 10
107.0966498213161
 20
-151.7981417806268
 30
0.0
 10
106.0686333285176
 20
-151.7981417806268
 30
0.0
 10
106.0686333285176
 20
-151.7981417806268
 30
0.0
 10
106.1003282069819
 20
-151.4405408692579
 30
0.0
 10
106.1657850212016
 20
-151.3623372017427
 30
0.0
 10
106.5509466964525
 20
-151.0639919327201
 30
0.0
 10
106.8069172910066
 20
-150.8652099232212
 30
0.0
 10
106.8723741052264
 20
-150.7976860517103
 30
0.0
 10
106.8723741052264
 20
-150.6602267418488
 30
0.0
 10
106.8723741052264
 20
-150.5417154571562
 30
0.0
 10
106.8007161191332
 20
-150.4104573191682
 30
0.0
 10
106.6036566573769
 20
-150.4104573191682
 30
0.0
 10
106.3435519482405
 20
-150.4104573191682
 30
0.0
 10
106.3349392095274
 20
-150.6409342071314
 30
0.0
 10
106.3308050949451
 20
-150.7573784345329
 30
0.0
 10
106.3308050949451
 20
-150.7573784345329
 30
0.0
 10
106.1068738884038
 20
-150.7573784345329
 30
0.0
 10
106.1068738884038
 20
-150.7573784345329
 30
0.0
 10
106.1151421175684
 20
-150.6305989206757
 30
0.0
 10
106.1254774040242
 20
-150.5182888078565
 30
0.0
 10
106.206092638379
 20
-150.3997775231639
 30
0.0
 10
106.3159911843585
 20
-150.2392360735513
 30
0.0
 10
106.5023708501105
 20
-150.2051296282473
 30
0.0
 10
106.618815077512
 20
-150.2051296282473
 30
0.0
 10
106.8958007545261
 20
-150.2051296282473
 30
0.0
 10
107.1031955027381
 20
-150.3894422367082
 30
0.0
 10
107.1031955027381
 20
-150.66229379914
 30
0.0
 10
107.1031955027381
 20
-150.8907036298121
 30
0.0
 10
106.9867512753366
 20
-150.9902668893358
 30
0.0
 10
106.6780707198583
 20
-151.2166096627167
 30
0.0
  0
HATCH
  5
63
330
5E
100
AcDbEntity
  8
_U+30EC_U+30A4_U+30E4_U+30FC 1
 62
   179
420
  2234388
100
AcDbHatch
 10
0.0
 20
0.0
 30
0.0
210
0.0
220
0.0
230
1.0
  2
SOLID
 70
     1
 71
     0
 91
        1
 92
        1
 93
        1
 72
     4
 94
        3
 73
     0
 74
     1
 95
       44
 96
       40
 40
0.0
 40
0.0
 40
0.0
 40
0.0
 40
1.0
 40
1.0
 40
1.0
 40
2.0
 40
2.0
 40
2.0
 40
3.0
 40
3.0
 40
3.0
 40
4.0
 40
4.0
 40
4.0
 40
5.0
 40
5.0
 40
5.0
 40
6.0
 40
6.0
 40
6.0
 40
7.0
 40
7.0
 40
7.0
 40
8.0
 40
8.0
 40
8.0
 40
9.0
 40
9.0
 40
9.0
 40
10.0
 40
10.0
 40
10.0
 40
11.0
 40
11.0
 40
11.0
 40
12.0
 40
12.0
 40
12.0
 40
13.0
 40
13.0
 40
13.0
 40
13.0
 10
106.6780707198583
 20
-151.2166096627167
 10
106.4599961756419
 20
-151.3750840550382
 10
106.3666340879917
 20
-151.4491536079711
 10
106.3184027511982
 20
-151.5931585992545
 10
106.3184027511982
 20
-151.5931585992545
 10
107.0966498213161
 20
-151.5931585992545
 10
107.0966498213161
 20
-151.5931585992545
 10
107.0966498213161
 20
-151.5931585992545
 10
107.0966498213161
 20
-151.7981417806268
 10
107.0966498213161
 20
-151.7981417806268
 10
107.0966498213161
 20
-151.7981417806268
 10
106.0686333285176
 20
-151.7981417806268
 10
106.0686333285176
 20
-151.7981417806268
 10
106.1003282069819
 20
-151.4405408692579
 10
106.1657850212016
 20
-151.3623372017427
 10
106.5509466964525
 20
-151.0639919327201
 10
106.8069172910066
 20
-150.8652099232212
 10
106.8723741052264
 20
-150.7976860517103
 10
106.8723741052264
 20
-150.6602267418488
 10
106.8723741052264
 20
-150.5417154571562
 10
106.8007161191332
 20
-150.4104573191682
 10
106.6036566573769
 20
-150.4104573191682
 10
106.3435519482405
 20
-150.4104573191682
 10
106.3349392095274
 20
-150.6409342071314
 10
106.3308050949451
 20
-150.7573784345329
 10
106.3308050949451
 20
-150.7573784345329
 10
106.1068738884038
 20
-150.7573784345329
 10
106.1068738884038
 20
-150.7573784345329
 10
106.1151421175684
 20
-150.6305989206757
 10
106.1254774040242
 20
-150.5182888078565
 10
106.206092638379
 20
-150.3997775231639
 10
106.3159911843585
 20
-150.2392360735513
 10
106.5023708501105
 20
-150.2051296282473
 10
106.618815077512
 20
-150.2051296282473
 10
106.8958007545261
 20
-150.2051296282473
 10
107.1031955027381
 20
-150.3894422367082
 10
107.1031955027381
 20
-150.66229379914
 10
107.1031955027381
 20
-150.8907036298121
 10
106.9867512753366
 20
-150.9902668893358
 10
106.6780707198583
 20
-151.2166096627167
 97
        0
 97
        0
 75
     2
 76
     1
 98
        0
  0
SPLINE
  5
64
330
5E
100
AcDbEntity
  8
_U+30EC_U+30A4_U+30E4_U+30FC 1
370
     0
100
AcDbSpline
210
0.0
220
0.0
230
1.0
 70
    11
 71
     3
 72
    29
 73
    25
 74
     0
 42
0.0000000001
 43
0.0000000001
 12
1.0
 22
0.0
 32
0.0
 13
1.0
 23
0.0
 33
0.0
 40
0.0
 40
0.0
 40
0.0
 40
0.0
 40
1.0
 40
1.0
 40
1.0
 40
2.0
 40
2.0
 40
2.0
 40
3.0
 40
3.0
 40
3.0
 40
4.0
 40
4.0
 40
4.0
 40
5.0
 40
5.0
 40
5.0
 40
6.0
 40
6.0
 40
6.0
 40
7.0
 40
7.0
 40
7.0
 40
8.0
 40
8.0
 40
8.0
 40
8.0
 10
108.1594617785157
 20
-151.620374853588
 30
0.0
 10
108.0512857802788
 20
-151.8298366590912
 30
0.0
 10
107.8779974773708
 20
-151.8491291938086
 30
0.0
 10
107.7615532499693
 20
-151.8491291938086
 30
0.0
 10
107.6006672908082
 20
-151.8491291938086
 30
0.0
 10
107.4590738663644
 20
-151.8026204047577
 30
0.0
 10
107.363644721423
 20
-151.620374853588
 30
0.0
 10
107.2602918568655
 20
-151.4257269586714
 30
0.0
 10
107.2409993221481
 20
-151.1890488988347
 30
0.0
 10
107.2409993221481
 20
-151.0260958823824
 30
0.0
 10
107.2409993221481
 20
-150.8820908910989
 30
0.0
 10
107.2582247995743
 20
-150.6305989206757
 30
0.0
 10
107.363644721423
 20
-150.4314724016282
 30
0.0
 10
107.4718207196598
 20
-150.228556277547
 30
0.0
 10
107.6323621692725
 20
-150.2051296282473
 30
0.0
 10
107.7615532499693
 20
-150.2051296282473
 30
0.0
 10
107.9203721518394
 20
-150.2051296282473
 30
0.0
 10
108.0640326335743
 20
-150.2495713600071
 30
0.0
 10
108.1594617785157
 20
-150.4314724016282
 30
0.0
 10
108.2586805284909
 20
-150.6240532392537
 30
0.0
 10
108.2821071777906
 20
-150.8524630699258
 30
0.0
 10
108.2821071777906
 20
-151.0260958823824
 30
0.0
 10
108.2821071777906
 20
-151.1973171279993
 30
0.0
 10
108.260747585782
 20
-151.428138525511
 30
0.0
 10
108.1594617785157
 20
-151.620374853588
 30
0.0
  0
SPLINE
  5
65
330
5E
100
AcDbEntity
  8
_U+30EC_U+30A4_U+30E4_U+30FC 1
370
     0
100
AcDbSpline
210
0.0
220
0.0
230
1.0
 70
    11
 71
     3
 72
    17
 73
    13
 74
     0
 42
0.0000000001
 43
0.0000000001
 12
1.0
 22
0.0
 32
0.0
 13
1.0
 23
0.0
 33
0.0
 40
0.0
 40
0.0
 40
0.0
 40
0.0
 40
1.0
 40
1.0
 40
1.0
 40
2.0
 40
2.0
 40
2.0
 40
3.0
 40
3.0
 40
3.0
 40
4.0
 40
4.0
 40
4.0
 40
4.0
 10
107.7615532499693
 20
-150.3977104658728
 30
0.0
 10
107.5117838272887
 20
-150.3977104658728
 30
0.0
 10
107.4656195477864
 20
-150.6812418243089
 30
0.0
 10
107.4656195477864
 20
-151.0260958823824
 30
0.0
 10
107.4656195477864
 20
-151.345456233865
 30
0.0
 10
107.501448540833
 20
-151.6544812988919
 30
0.0
 10
107.7615532499693
 20
-151.6544812988919
 30
0.0
 10
108.0092556153588
 20
-151.6544812988919
 30
0.0
 10
108.0578314617008
 20
-151.373016997747
 30
0.0
 10
108.0578314617008
 20
-151.0260958823824
 30
0.0
 10
108.0578314617008
 20
-150.7067355308997
 30
0.0
 10
108.0195909018146
 20
-150.3977104658728
 30
0.0
 10
107.7615532499693
 20
-150.3977104658728
 30
0.0
  0
HATCH
  5
66
330
5E
100
AcDbEntity
  8
_U+30EC_U+30A4_U+30E4_U+30FC 1
 62
   179
420
  2234388
100
AcDbHatch
 10
0.0
 20
0.0
 30
0.0
210
0.0
220
0.0
230
1.0
  2
SOLID
 70
     1
 71
     0
 91
        2
 92
        1
 93
        1
 72
     4
 94
        3
 73
     0
 74
     1
 95
       29
 96
       25
 40
0.0
 40
0.0
 40
0.0
 40
0.0
 40
1.0
 40
1.0
 40
1.0
 40
2.0
 40
2.0
 40
2.0
 40
3.0
 40
3.0
 40
3.0
 40
4.0
 40
4.0
 40
4.0
 40
5.0
 40
5.0
 40
5.0
 40
6.0
 40
6.0
 40
6.0
 40
7.0
 40
7.0
 40
7.0
 40
8.0
 40
8.0
 40
8.0
 40
8.0
 10
108.1594617785157
 20
-151.620374853588
 10
108.0512857802788
 20
-151.8298366590912
 10
107.8779974773708
 20
-151.8491291938086
 10
107.7615532499693
 20
-151.8491291938086
 10
107.6006672908082
 20
-151.8491291938086
 10
107.4590738663644
 20
-151.8026204047577
 10
107.363644721423
 20
-151.620374853588
 10
107.2602918568655
 20
-151.4257269586714
 10
107.2409993221481
 20
-151.1890488988347
 10
107.2409993221481
 20
-151.0260958823824
 10
107.2409993221481
 20
-150.8820908910989
 10
107.2582247995743
 20
-150.6305989206757
 10
107.363644721423
 20
-150.4314724016282
 10
107.4718207196598
 20
-150.228556277547
 10
107.6323621692725
 20
-150.2051296282473
 10
107.7615532499693
 20
-150.2051296282473
 10
107.9203721518394
 20
-150.2051296282473
 10
108.0640326335743
 20
-150.2495713600071
 10
108.1594617785157
 20
-150.4314724016282
 10
108.2586805284909
 20
-150.6240532392537
 10
108.2821071777906
 20
-150.8524630699258
 10
108.2821071777906
 20
-151.0260958823824
 10
108.2821071777906
 20
-151.1973171279993
 10
108.260747585782
 20
-151.428138525511
 10
108.1594617785157
 20
-151.620374853588
 97
        0
 97
        0
 92
        1
 93
        1
 72
     4
 94
        3
 73
     0
 74
     1
 95
       17
 96
       13
 40
0.0
 40
0.0
 40
0.0
 40
0.0
 40
1.0
 40
1.0
 40
1.0
 40
2.0
 40
2.0
 40
2.0
 40
3.0
 40
3.0
 40
3.0
 40
4.0
 40
4.0
 40
4.0
 40
4.0
 10
107.7615532499693
 20
-150.3977104658728
 10
107.5117838272887
 20
-150.3977104658728
 10
107.4656195477864
 20
-150.6812418243089
 10
107.4656195477864
 20
-151.0260958823824
 10
107.4656195477864
 20
-151.345456233865
 10
107.501448540833
 20
-151.6544812988919
 10
107.7615532499693
 20
-151.6544812988919
 10
108.0092556153588
 20
-151.6544812988919
 10
108.0578314617008
 20
-151.373016997747
 10
108.0578314617008
 20
-151.0260958823824
 10
108.0578314617008
 20
-150.7067355308997
 10
108.0195909018146
 20
-150.3977104658728
 10
107.7615532499693
 20
-150.3977104658728
 97
        0
 97
        0
 75
     2
 76
     1
 98
        0
  0
SPLINE
  5
67
330
5E
100
AcDbEntity
  8
_U+30EC_U+30A4_U+30E4_U+30FC 1
370
     0
100
AcDbSpline
210
0.0
220
0.0
230
1.0
 70
    11
 71
     3
 72
    44
 73
    40
 74
     0
 42
0.0000000001
 43
0.0000000001
 12
1.0
 22
0.0
 32
0.0
 13
1.0
 23
0.0
 33
0.0
 40
0.0
 40
0.0
 40
0.0
 40
0.0
 40
1.0
 40
1.0
 40
1.0
 40
2.0
 40
2.0
 40
2.0
 40
3.0
 40
3.0
 40
3.0
 40
4.0
 40
4.0
 40
4.0
 40
5.0
 40
5.0
 40
5.0
 40
6.0
 40
6.0
 40
6.0
 40
7.0
 40
7.0
 40
7.0
 40
8.0
 40
8.0
 40
8.0
 40
9.0
 40
9.0
 40
9.0
 40
10.0
 40
10.0
 40
10.0
 40
11.0
 40
11.0
 40
11.0
 40
12.0
 40
12.0
 40
12.0
 40
13.0
 40
13.0
 40
13.0
 40
13.0
 10
109.4527506236785
 20
-151.7981417806268
 30
0.0
 10
109.4293239743788
 20
-151.7537000488671
 30
0.0
 10
109.4079643823702
 20
-151.7009900879428
 30
0.0
 10
109.4058973250791
 20
-151.4701686904311
 30
0.0
 10
109.4017632104968
 20
-151.2269449491724
 30
0.0
 10
109.3425075681505
 20
-151.1573540203704
 30
0.0
 10
109.1647406411116
 20
-151.1573540203704
 30
0.0
 10
109.1647406411116
 20
-151.1573540203704
 30
0.0
 10
108.7564968261095
 20
-151.1573540203704
 30
0.0
 10
108.7564968261095
 20
-151.1573540203704
 30
0.0
 10
108.7564968261095
 20
-151.1573540203704
 30
0.0
 10
108.7564968261095
 20
-151.7981417806268
 30
0.0
 10
108.7564968261095
 20
-151.7981417806268
 30
0.0
 10
108.7564968261095
 20
-151.7981417806268
 30
0.0
 10
108.521885823564
 20
-151.7981417806268
 30
0.0
 10
108.521885823564
 20
-151.7981417806268
 30
0.0
 10
108.521885823564
 20
-151.7981417806268
 30
0.0
 10
108.521885823564
 20
-150.2540499841379
 30
0.0
 10
108.521885823564
 20
-150.2540499841379
 30
0.0
 10
108.521885823564
 20
-150.2540499841379
 30
0.0
 10
109.1964355195759
 20
-150.2540499841379
 30
0.0
 10
109.1964355195759
 20
-150.2540499841379
 30
0.0
 10
109.5030490177631
 20
-150.2540499841379
 30
0.0
 10
109.6704806583463
 20
-150.4252712297548
 30
0.0
 10
109.6704806583463
 20
-150.6812418243089
 30
0.0
 10
109.6704806583463
 20
-150.731884727942
 30
0.0
 10
109.6618679196332
 20
-150.814567019588
 30
0.0
 10
109.6174261878734
 20
-150.8948377443944
 30
0.0
 10
109.5581705455271
 20
-150.9985351185004
 30
0.0
 10
109.4927137313074
 20
-151.0174831436692
 30
0.0
 10
109.4313910316699
 20
-151.034364111547
 30
0.0
 10
109.5688503415314
 20
-151.0767387860155
 30
0.0
 10
109.6367187225908
 20
-151.1256591419061
 30
0.0
 10
109.6408528371731
 20
-151.4405408692579
 30
0.0
 10
109.6449869517554
 20
-151.7113253743986
 30
0.0
 10
109.680815944802
 20
-151.7433647624114
 30
0.0
 10
109.7486843258614
 20
-151.7981417806268
 30
0.0
 10
109.7486843258614
 20
-151.7981417806268
 30
0.0
 10
109.4527506236785
 20
-151.7981417806268
 30
0.0
 10
109.4527506236785
 20
-151.7981417806268
 30
0.0
  0
SPLINE
  5
68
330
5E
100
AcDbEntity
  8
_U+30EC_U+30A4_U+30E4_U+30FC 1
370
     0
100
AcDbSpline
210
0.0
220
0.0
230
1.0
 70
    11
 71
     3
 72
    20
 73
    16
 74
     0
 42
0.0000000001
 43
0.0000000001
 12
1.0
 22
0.0
 32
0.0
 13
1.0
 23
0.0
 33
0.0
 40
0.0
 40
0.0
 40
0.0
 40
0.0
 40
1.0
 40
1.0
 40
1.0
 40
2.0
 40
2.0
 40
2.0
 40
3.0
 40
3.0
 40
3.0
 40
4.0
 40
4.0
 40
4.0
 40
5.0
 40
5.0
 40
5.0
 40
5.0
 10
109.2005696341582
 20
-150.4655788469322
 30
0.0
 10
109.2005696341582
 20
-150.4655788469322
 30
0.0
 10
108.7564968261095
 20
-150.4655788469322
 30
0.0
 10
108.7564968261095
 20
-150.4655788469322
 30
0.0
 10
108.7564968261095
 20
-150.4655788469322
 30
0.0
 10
108.7564968261095
 20
-150.9458251575761
 30
0.0
 10
108.7564968261095
 20
-150.9458251575761
 30
0.0
 10
108.7564968261095
 20
-150.9458251575761
 30
0.0
 10
109.198502576867
 20
-150.9458251575761
 30
0.0
 10
109.198502576867
 20
-150.9458251575761
 30
0.0
 10
109.2980658363908
 20
-150.9458251575761
 30
0.0
 10
109.4334580889611
 20
-150.869688547352
 30
0.0
 10
109.4334580889611
 20
-150.6981227921866
 30
0.0
 10
109.4334580889611
 20
-150.6199191246714
 30
0.0
 10
109.3996961532056
 20
-150.4655788469322
 30
0.0
 10
109.2005696341582
 20
-150.4655788469322
 30
0.0
  0
HATCH
  5
69
330
5E
100
AcDbEntity
  8
_U+30EC_U+30A4_U+30E4_U+30FC 1
 62
   179
420
  2234388
100
AcDbHatch
 10
0.0
 20
0.0
 30
0.0
210
0.0
220
0.0
230
1.0
  2
SOLID
 70
     1
 71
     0
 91
        2
 92
        1
 93
        1
 72
     4
 94
        3
 73
     0
 74
     1
 95
       44
 96
       40
 40
0.0
 40
0.0
 40
0.0
 40
0.0
 40
1.0
 40
1.0
 40
1.0
 40
2.0
 40
2.0
 40
2.0
 40
3.0
 40
3.0
 40
3.0
 40
4.0
 40
4.0
 40
4.0
 40
5.0
 40
5.0
 40
5.0
 40
6.0
 40
6.0
 40
6.0
 40
7.0
 40
7.0
 40
7.0
 40
8.0
 40
8.0
 40
8.0
 40
9.0
 40
9.0
 40
9.0
 40
10.0
 40
10.0
 40
10.0
 40
11.0
 40
11.0
 40
11.0
 40
12.0
 40
12.0
 40
12.0
 40
13.0
 40
13.0
 40
13.0
 40
13.0
 10
109.4527506236785
 20
-151.7981417806268
 10
109.4293239743788
 20
-151.7537000488671
 10
109.4079643823702
 20
-151.7009900879428
 10
109.4058973250791
 20
-151.4701686904311
 10
109.4017632104968
 20
-151.2269449491724
 10
109.3425075681505
 20
-151.1573540203704
 10
109.1647406411116
 20
-151.1573540203704
 10
109.1647406411116
 20
-151.1573540203704
 10
108.7564968261095
 20
-151.1573540203704
 10
108.7564968261095
 20
-151.1573540203704
 10
108.7564968261095
 20
-151.1573540203704
 10
108.7564968261095
 20
-151.7981417806268
 10
108.7564968261095
 20
-151.7981417806268
 10
108.7564968261095
 20
-151.7981417806268
 10
108.521885823564
 20
-151.7981417806268
 10
108.521885823564
 20
-151.7981417806268
 10
108.521885823564
 20
-151.7981417806268
 10
108.521885823564
 20
-150.2540499841379
 10
108.521885823564
 20
-150.2540499841379
 10
108.521885823564
 20
-150.2540499841379
 10
109.1964355195759
 20
-150.2540499841379
 10
109.1964355195759
 20
-150.2540499841379
 10
109.5030490177631
 20
-150.2540499841379
 10
109.6704806583463
 20
-150.4252712297548
 10
109.6704806583463
 20
-150.6812418243089
 10
109.6704806583463
 20
-150.731884727942
 10
109.6618679196332
 20
-150.814567019588
 10
109.6174261878734
 20
-150.8948377443944
 10
109.5581705455271
 20
-150.9985351185004
 10
109.4927137313074
 20
-151.0174831436692
 10
109.4313910316699
 20
-151.034364111547
 10
109.5688503415314
 20
-151.0767387860155
 10
109.6367187225908
 20
-151.1256591419061
 10
109.6408528371731
 20
-151.4405408692579
 10
109.6449869517554
 20
-151.7113253743986
 10
109.680815944802
 20
-151.7433647624114
 10
109.7486843258614
 20
-151.7981417806268
 10
109.7486843258614
 20
-151.7981417806268
 10
109.4527506236785
 20
-151.7981417806268
 10
109.4527506236785
 20
-151.7981417806268
 97
        0
 97
        0
 92
        1
 93
        1
 72
     4
 94
        3
 73
     0
 74
     1
 95
       20
 96
       16
 40
0.0
 40
0.0
 40
0.0
 40
0.0
 40
1.0
 40
1.0
 40
1.0
 40
2.0
 40
2.0
 40
2.0
 40
3.0
 40
3.0
 40
3.0
 40
4.0
 40
4.0
 40
4.0
 40
5.0
 40
5.0
 40
5.0
 40
5.0
 10
109.2005696341582
 20
-150.4655788469322
 10
109.2005696341582
 20
-150.4655788469322
 10
108.7564968261095
 20
-150.4655788469322
 10
108.7564968261095
 20
-150.4655788469322
 10
108.7564968261095
 20
-150.4655788469322
 10
108.7564968261095
 20
-150.9458251575761
 10
108.7564968261095
 20
-150.9458251575761
 10
108.7564968261095
 20
-150.9458251575761
 10
109.198502576867
 20
-150.9458251575761
 10
109.198502576867
 20
-150.9458251575761
 10
109.2980658363908
 20
-150.9458251575761
 10
109.4334580889611
 20
-150.869688547352
 10
109.4334580889611
 20
-150.6981227921866
 10
109.4334580889611
 20
-150.6199191246714
 10
109.3996961532056
 20
-150.4655788469322
 10
109.2005696341582
 20
-150.4655788469322
 97
        0
 97
        0
 75
     2
 76
     1
 98
        0
  0
ENDBLK
  5
61
330
5E
100
AcDbEntity
  8
0
100
AcDbBlockEnd
  0
BLOCK
  5
78
330
76
100
AcDbEntity
  8
0
100
AcDbBlockBegin
  2
block 3
 70
     0
 10
0.0
 20
0.0
 30
0.0
  3
block 3
  1

  0
POLYLINE
  5
7A
330
76
100
AcDbEntity
  8
_U+30EC_U+30A4_U+30E4_U+30FC 1
370
     0
100
AcDb2dPolyline
 66
     1
 10
0.0
 20
0.0
 30
0.0
  0
VERTEX
  5
7B
330
7A
100
AcDbEntity
  8
_U+30EC_U+30A4_U+30E4_U+30FC 1
370
     0
100
AcDbVertex
100
AcDb2dVertex
 10
83.45916067791994
 20
-146.8055094034028
 30
0.0
  0
VERTEX
  5
7C
330
7A
100
AcDbEntity
  8
_U+30EC_U+30A4_U+30E4_U+30FC 1
370
     0
100
AcDbVertex
100
AcDb2dVertex
 10
83.80608179328459
 20
-146.8055094034028
 30
0.0
  0
VERTEX
  5
7D
330
7A
100
AcDbEntity
  8
_U+30EC_U+30A4_U+30E4_U+30FC 1
370
     0
100
AcDbVertex
100
AcDb2dVertex
 10
83.80608179328459
 20
-147.0234116928449
 30
0.0
  0
VERTEX
  5
7E
330
7A
100
AcDbEntity
  8
_U+30EC_U+30A4_U+30E4_U+30FC 1
370
     0
100
AcDbVertex
100
AcDb2dVertex
 10
83.45916067791994
 20
-147.0234116928449
 30
0.0
  0
VERTEX
  5
7F
330
7A
100
AcDbEntity
  8
_U+30EC_U+30A4_U+30E4_U+30FC 1
370
     0
100
AcDbVertex
100
AcDb2dVertex
 10
83.45916067791994
 20
-147.6791856184622
 30
0.0
  0
VERTEX
  5
80
330
7A
100
AcDbEntity
  8
_U+30EC_U+30A4_U+30E4_U+30FC 1
370
     0
100
AcDbVertex
100
AcDb2dVertex
 10
83.23488496183018
 20
-147.6791856184622
 30
0.0
  0
VERTEX
  5
81
330
7A
100
AcDbEntity
  8
_U+30EC_U+30A4_U+30E4_U+30FC 1
370
     0
100
AcDbVertex
100
AcDb2dVertex
 10
82.26181774202135
 20
-147.0001572983194
 30
0.0
  0
VERTEX
  5
82
330
7A
100
AcDbEntity
  8
_U+30EC_U+30A4_U+30E4_U+30FC 1
370
     0
100
AcDbVertex
100
AcDb2dVertex
 10
82.26181774202135
 20
-146.8055094034028
 30
0.0
  0
VERTEX
  5
83
330
7A
100
AcDbEntity
  8
_U+30EC_U+30A4_U+30E4_U+30FC 1
370
     0
100
AcDbVertex
100
AcDb2dVertex
 10
83.26020641364676
 20
-146.8055094034028
 30
0.0
  0
VERTEX
  5
84
330
7A
100
AcDbEntity
  8
_U+30EC_U+30A4_U+30E4_U+30FC 1
370
     0
100
AcDbVertex
100
AcDb2dVertex
 10
83.26020641364676
 20
-146.5981146551908
 30
0.0
  0
VERTEX
  5
85
330
7A
100
AcDbEntity
  8
_U+30EC_U+30A4_U+30E4_U+30FC 1
370
     0
100
AcDbVertex
100
AcDb2dVertex
 10
83.45916067791994
 20
-146.5981146551908
 30
0.0
  0
VERTEX
  5
86
330
7A
100
AcDbEntity
  8
_U+30EC_U+30A4_U+30E4_U+30FC 1
370
     0
100
AcDbVertex
100
AcDb2dVertex
 10
83.45916067791994
 20
-146.8055094034028
 30
0.0
  0
SEQEND
  5
87
330
7A
100
AcDbEntity
  8
_U+30EC_U+30A4_U+30E4_U+30FC 1
370
     0
  0
POLYLINE
  5
88
330
76
100
AcDbEntity
  8
_U+30EC_U+30A4_U+30E4_U+30FC 1
370
     0
100
AcDb2dPolyline
 66
     1
 10
0.0
 20
0.0
 30
0.0
  0
VERTEX
  5
89
330
88
100
AcDbEntity
  8
_U+30EC_U+30A4_U+30E4_U+30FC 1
370
     0
100
AcDbVertex
100
AcDb2dVertex
 10
82.60443248802945
 20
-147.0234116928449
 30
0.0
  0
VERTEX
  5
8A
330
88
100
AcDbEntity
  8
_U+30EC_U+30A4_U+30E4_U+30FC 1
370
     0
100
AcDbVertex
100
AcDb2dVertex
 10
83.26020641364676
 20
-147.480231354189
 30
0.0
  0
VERTEX
  5
8B
330
88
100
AcDbEntity
  8
_U+30EC_U+30A4_U+30E4_U+30FC 1
370
     0
100
AcDbVertex
100
AcDb2dVertex
 10
83.26020641364676
 20
-147.0234116928449
 30
0.0
  0
VERTEX
  5
8C
330
88
100
AcDbEntity
  8
_U+30EC_U+30A4_U+30E4_U+30FC 1
370
     0
100
AcDbVertex
100
AcDb2dVertex
 10
82.60443248802945
 20
-147.0234116928449
 30
0.0
  0
SEQEND
  5
8D
330
88
100
AcDbEntity
  8
_U+30EC_U+30A4_U+30E4_U+30FC 1
370
     0
  0
HATCH
  5
8E
330
76
100
AcDbEntity
  8
_U+30EC_U+30A4_U+30E4_U+30FC 1
 62
   179
420
  2234388
100
AcDbHatch
 10
0.0
 20
0.0
 30
0.0
210
0.0
220
0.0
230
1.0
  2
SOLID
 70
     1
 71
     0
 91
        2
 92
        1
 93
       11
 72
     1
 10
83.45916067791994
 20
-146.8055094034028
 11
83.80608179328459
 21
-146.8055094034028
 72
     1
 10
83.80608179328459
 20
-146.8055094034028
 11
83.80608179328459
 21
-147.0234116928449
 72
     1
 10
83.80608179328459
 20
-147.0234116928449
 11
83.45916067791994
 21
-147.0234116928449
 72
     1
 10
83.45916067791994
 20
-147.0234116928449
 11
83.45916067791994
 21
-147.6791856184622
 72
     1
 10
83.45916067791994
 20
-147.6791856184622
 11
83.23488496183018
 21
-147.6791856184622
 72
     1
 10
83.23488496183018
 20
-147.6791856184622
 11
82.26181774202135
 21
-147.0001572983194
 72
     1
 10
82.26181774202135
 20
-147.0001572983194
 11
82.26181774202135
 21
-146.8055094034028
 72
     1
 10
82.26181774202135
 20
-146.8055094034028
 11
83.26020641364676
 21
-146.8055094034028
 72
     1
 10
83.26020641364676
 20
-146.8055094034028
 11
83.26020641364676
 21
-146.5981146551908
 72
     1
 10
83.26020641364676
 20
-146.5981146551908
 11
83.45916067791994
 21
-146.5981146551908
 72
     1
 10
83.45916067791994
 20
-146.5981146551908
 11
83.45916067791994
 21
-146.8055094034028
 97
        0
 92
        1
 93
        3
 72
     1
 10
82.60443248802945
 20
-147.0234116928449
 11
83.26020641364676
 21
-147.480231354189
 72
     1
 10
83.26020641364676
 20
-147.480231354189
 11
83.26020641364676
 21
-147.0234116928449
 72
     1
 10
83.26020641364676
 20
-147.0234116928449
 11
82.60443248802945
 21
-147.0234116928449
 97
        0
 75
     2
 76
     1
 98
        0
  0
SPLINE
  5
8F
330
76
100
AcDbEntity
  8
_U+30EC_U+30A4_U+30E4_U+30FC 1
370
     0
100
AcDbSpline
210
0.0
220
0.0
230
1.0
 70
    11
 71
     3
 72
    29
 73
    25
 74
     0
 42
0.0000000001
 43
0.0000000001
 12
1.0
 22
0.0
 32
0.0
 13
1.0
 23
0.0
 33
0.0
 40
0.0
 40
0.0
 40
0.0
 40
0.0
 40
1.0
 40
1.0
 40
1.0
 40
2.0
 40
2.0
 40
2.0
 40
3.0
 40
3.0
 40
3.0
 40
4.0
 40
4.0
 40
4.0
 40
5.0
 40
5.0
 40
5.0
 40
6.0
 40
6.0
 40
6.0
 40
7.0
 40
7.0
 40
7.0
 40
8.0
 40
8.0
 40
8.0
 40
8.0
 10
83.6283148662457
 20
-145.5630357166474
 30
0.0
 10
83.8377766717489
 20
-145.6708672053358
 30
0.0
 10
83.85689695169204
 20
-145.8443277630181
 30
0.0
 10
83.85689695169204
 20
-145.9607719904195
 30
0.0
 10
83.85689695169204
 20
-146.1214856948064
 30
0.0
 10
83.81038816264116
 20
-146.2632513740245
 30
0.0
 10
83.6283148662457
 20
-146.3585082641916
 30
0.0
 10
83.43366697132909
 20
-146.4620333835234
 30
0.0
 10
83.19681665671816
 20
-146.4811536634665
 30
0.0
 10
83.03386364026585
 20
-146.4811536634665
 30
0.0
 10
82.89003090375667
 20
-146.4811536634665
 30
0.0
 10
82.63836667855917
 20
-146.4642726955888
 30
0.0
 10
82.43941241428598
 20
-146.3585082641916
 30
0.0
 10
82.2363240354305
 20
-146.250504520729
 30
0.0
 10
82.21306964090508
 20
-146.0897908163421
 30
0.0
 10
82.21306964090508
 20
-145.9607719904195
 30
0.0
 10
82.21306964090508
 20
-145.8021253433238
 30
0.0
 10
82.2575113726648
 20
-145.6582926068146
 30
0.0
 10
82.43941241428598
 20
-145.5630357166474
 30
0.0
 10
82.63199325191145
 20
-145.463644711898
 30
0.0
 10
82.86040308258352
 20
-145.4403903173726
 30
0.0
 10
83.03386364026585
 20
-145.4403903173726
 30
0.0
 10
83.20525714065703
 20
-145.4403903173726
 30
0.0
 10
83.4359062833945
 20
-145.4614053998326
 30
0.0
 10
83.6283148662457
 20
-145.5630357166474
 30
0.0
  0
SPLINE
  5
90
330
76
100
AcDbEntity
  8
_U+30EC_U+30A4_U+30E4_U+30FC 1
370
     0
100
AcDbSpline
210
0.0
220
0.0
230
1.0
 70
    11
 71
     3
 72
    17
 73
    13
 74
     0
 42
0.0000000001
 43
0.0000000001
 12
1.0
 22
0.0
 32
0.0
 13
1.0
 23
0.0
 33
0.0
 40
0.0
 40
0.0
 40
0.0
 40
0.0
 40
1.0
 40
1.0
 40
1.0
 40
2.0
 40
2.0
 40
2.0
 40
3.0
 40
3.0
 40
3.0
 40
4.0
 40
4.0
 40
4.0
 40
4.0
 10
82.40565047853053
 20
-145.9607719904195
 30
0.0
 10
82.40565047853053
 20
-146.2103691583259
 30
0.0
 10
82.6891818369666
 20
-146.2568779473768
 30
0.0
 10
83.03386364026585
 20
-146.2568779473768
 30
0.0
 10
83.35339624652276
 20
-146.2568779473768
 30
0.0
 10
83.66224905677541
 20
-146.2208766995559
 30
0.0
 10
83.66224905677541
 20
-145.9607719904195
 30
0.0
 10
83.66224905677541
 20
-145.7132418798043
 30
0.0
 10
83.3807847556305
 20
-145.664493778688
 30
0.0
 10
83.03386364026585
 20
-145.664493778688
 30
0.0
 10
82.71450328878318
 20
-145.664493778688
 30
0.0
 10
82.40565047853053
 20
-145.7027343385743
 30
0.0
 10
82.40565047853053
 20
-145.9607719904195
 30
0.0
  0
HATCH
  5
91
330
76
100
AcDbEntity
  8
_U+30EC_U+30A4_U+30E4_U+30FC 1
 62
   179
420
  2234388
100
AcDbHatch
 10
0.0
 20
0.0
 30
0.0
210
0.0
220
0.0
230
1.0
  2
SOLID
 70
     1
 71
     0
 91
        2
 92
        1
 93
        1
 72
     4
 94
        3
 73
     0
 74
     1
 95
       29
 96
       25
 40
0.0
 40
0.0
 40
0.0
 40
0.0
 40
1.0
 40
1.0
 40
1.0
 40
2.0
 40
2.0
 40
2.0
 40
3.0
 40
3.0
 40
3.0
 40
4.0
 40
4.0
 40
4.0
 40
5.0
 40
5.0
 40
5.0
 40
6.0
 40
6.0
 40
6.0
 40
7.0
 40
7.0
 40
7.0
 40
8.0
 40
8.0
 40
8.0
 40
8.0
 10
83.6283148662457
 20
-145.5630357166474
 10
83.8377766717489
 20
-145.6708672053358
 10
83.85689695169204
 20
-145.8443277630181
 10
83.85689695169204
 20
-145.9607719904195
 10
83.85689695169204
 20
-146.1214856948064
 10
83.81038816264116
 20
-146.2632513740245
 10
83.6283148662457
 20
-146.3585082641916
 10
83.43366697132909
 20
-146.4620333835234
 10
83.19681665671816
 20
-146.4811536634665
 10
83.03386364026585
 20
-146.4811536634665
 10
82.89003090375667
 20
-146.4811536634665
 10
82.63836667855917
 20
-146.4642726955888
 10
82.43941241428598
 20
-146.3585082641916
 10
82.2363240354305
 20
-146.250504520729
 10
82.21306964090508
 20
-146.0897908163421
 10
82.21306964090508
 20
-145.9607719904195
 10
82.21306964090508
 20
-145.8021253433238
 10
82.2575113726648
 20
-145.6582926068146
 10
82.43941241428598
 20
-145.5630357166474
 10
82.63199325191145
 20
-145.463644711898
 10
82.86040308258352
 20
-145.4403903173726
 10
83.03386364026585
 20
-145.4403903173726
 10
83.20525714065703
 20
-145.4403903173726
 10
83.4359062833945
 20
-145.4614053998326
 10
83.6283148662457
 20
-145.5630357166474
 97
        0
 97
        0
 92
        1
 93
        1
 72
     4
 94
        3
 73
     0
 74
     1
 95
       17
 96
       13
 40
0.0
 40
0.0
 40
0.0
 40
0.0
 40
1.0
 40
1.0
 40
1.0
 40
2.0
 40
2.0
 40
2.0
 40
3.0
 40
3.0
 40
3.0
 40
4.0
 40
4.0
 40
4.0
 40
4.0
 10
82.40565047853053
 20
-145.9607719904195
 10
82.40565047853053
 20
-146.2103691583259
 10
82.6891818369666
 20
-146.2568779473768
 10
83.03386364026585
 20
-146.2568779473768
 10
83.35339624652276
 20
-146.2568779473768
 10
83.66224905677541
 20
-146.2208766995559
 10
83.66224905677541
 20
-145.9607719904195
 10
83.66224905677541
 20
-145.7132418798043
 10
83.3807847556305
 20
-145.664493778688
 10
83.03386364026585
 20
-145.664493778688
 10
82.71450328878318
 20
-145.664493778688
 10
82.40565047853053
 20
-145.7027343385743
 10
82.40565047853053
 20
-145.9607719904195
 97
        0
 97
        0
 75
     2
 76
     1
 98
        0
  0
ENDBLK
  5
79
330
76
100
AcDbEntity
  8
0
100
AcDbBlockEnd
  0
BLOCK
  5
A0
330
9E
100
AcDbEntity
  8
0
100
AcDbBlockBegin
  2
block 4
 70
     0
 10
0.0
 20
0.0
 30
0.0
  3
block 4
  1

  0
POLYLINE
  5
A2
330
9E
100
AcDbEntity
  8
_U+30EC_U+30A4_U+30E4_U+30FC 1
370
     0
100
AcDb2dPolyline
 66
     1
 10
0.0
 20
0.0
 30
0.0
  0
VERTEX
  5
A3
330
A2
100
AcDbEntity
  8
_U+30EC_U+30A4_U+30E4_U+30FC 1
370
     0
100
AcDbVertex
100
AcDb2dVertex
 10
108.1870225423977
 20
-169.4132595062578
 30
0.0
  0
VERTEX
  5
A4
330
A2
100
AcDbEntity
  8
_U+30EC_U+30A4_U+30E4_U+30FC 1
370
     0
100
AcDbVertex
100
AcDb2dVertex
 10
108.1870225423977
 20
-169.7601806216225
 30
0.0
  0
VERTEX
  5
A5
330
A2
100
AcDbEntity
  8
_U+30EC_U+30A4_U+30E4_U+30FC 1
370
     0
100
AcDbVertex
100
AcDb2dVertex
 10
107.9692925077299
 20
-169.7601806216225
 30
0.0
  0
VERTEX
  5
A6
330
A2
100
AcDbEntity
  8
_U+30EC_U+30A4_U+30E4_U+30FC 1
370
     0
100
AcDbVertex
100
AcDb2dVertex
 10
107.9692925077299
 20
-169.4132595062578
 30
0.0
  0
VERTEX
  5
A7
330
A2
100
AcDbEntity
  8
_U+30EC_U+30A4_U+30E4_U+30FC 1
370
     0
100
AcDbVertex
100
AcDb2dVertex
 10
107.3133463273383
 20
-169.4132595062578
 30
0.0
  0
VERTEX
  5
A8
330
A2
100
AcDbEntity
  8
_U+30EC_U+30A4_U+30E4_U+30FC 1
370
     0
100
AcDbVertex
100
AcDb2dVertex
 10
107.3133463273383
 20
-169.188983790168
 30
0.0
  0
VERTEX
  5
A9
330
A2
100
AcDbEntity
  8
_U+30EC_U+30A4_U+30E4_U+30FC 1
370
     0
100
AcDbVertex
100
AcDb2dVertex
 10
107.9923746474811
 20
-168.2160888251335
 30
0.0
  0
VERTEX
  5
AA
330
A2
100
AcDbEntity
  8
_U+30EC_U+30A4_U+30E4_U+30FC 1
370
     0
100
AcDbVertex
100
AcDb2dVertex
 10
108.1870225423977
 20
-168.2160888251335
 30
0.0
  0
VERTEX
  5
AB
330
A2
100
AcDbEntity
  8
_U+30EC_U+30A4_U+30E4_U+30FC 1
370
     0
100
AcDbVertex
100
AcDb2dVertex
 10
108.1870225423977
 20
-169.2144774967589
 30
0.0
  0
VERTEX
  5
AC
330
A2
100
AcDbEntity
  8
_U+30EC_U+30A4_U+30E4_U+30FC 1
370
     0
100
AcDbVertex
100
AcDb2dVertex
 10
108.3944172906097
 20
-169.2144774967589
 30
0.0
  0
VERTEX
  5
AD
330
A2
100
AcDbEntity
  8
_U+30EC_U+30A4_U+30E4_U+30FC 1
370
     0
100
AcDbVertex
100
AcDb2dVertex
 10
108.3944172906097
 20
-169.4132595062578
 30
0.0
  0
VERTEX
  5
AE
330
A2
100
AcDbEntity
  8
_U+30EC_U+30A4_U+30E4_U+30FC 1
370
     0
100
AcDbVertex
100
AcDb2dVertex
 10
108.1870225423977
 20
-169.4132595062578
 30
0.0
  0
SEQEND
  5
AF
330
A2
100
AcDbEntity
  8
_U+30EC_U+30A4_U+30E4_U+30FC 1
370
     0
  0
POLYLINE
  5
B0
330
9E
100
AcDbEntity
  8
_U+30EC_U+30A4_U+30E4_U+30FC 1
370
     0
100
AcDb2dPolyline
 66
     1
 10
0.0
 20
0.0
 30
0.0
  0
VERTEX
  5
B1
330
B0
100
AcDbEntity
  8
_U+30EC_U+30A4_U+30E4_U+30FC 1
370
     0
100
AcDbVertex
100
AcDb2dVertex
 10
107.9692925077299
 20
-168.5585313163673
 30
0.0
  0
VERTEX
  5
B2
330
B0
100
AcDbEntity
  8
_U+30EC_U+30A4_U+30E4_U+30FC 1
370
     0
100
AcDbVertex
100
AcDb2dVertex
 10
107.5124728463858
 20
-169.2144774967589
 30
0.0
  0
VERTEX
  5
B3
330
B0
100
AcDbEntity
  8
_U+30EC_U+30A4_U+30E4_U+30FC 1
370
     0
100
AcDbVertex
100
AcDb2dVertex
 10
107.9692925077299
 20
-169.2144774967589
 30
0.0
  0
VERTEX
  5
B4
330
B0
100
AcDbEntity
  8
_U+30EC_U+30A4_U+30E4_U+30FC 1
370
     0
100
AcDbVertex
100
AcDb2dVertex
 10
107.9692925077299
 20
-168.5585313163673
 30
0.0
  0
SEQEND
  5
B5
330
B0
100
AcDbEntity
  8
_U+30EC_U+30A4_U+30E4_U+30FC 1
370
     0
  0
HATCH
  5
B6
330
9E
100
AcDbEntity
  8
_U+30EC_U+30A4_U+30E4_U+30FC 1
 62
   179
420
  2234388
100
AcDbHatch
 10
0.0
 20
0.0
 30
0.0
210
0.0
220
0.0
230
1.0
  2
SOLID
 70
     1
 71
     0
 91
        2
 92
        1
 93
       11
 72
     1
 10
108.1870225423977
 20
-169.4132595062578
 11
108.1870225423977
 21
-169.7601806216225
 72
     1
 10
108.1870225423977
 20
-169.7601806216225
 11
107.9692925077299
 21
-169.7601806216225
 72
     1
 10
107.9692925077299
 20
-169.7601806216225
 11
107.9692925077299
 21
-169.4132595062578
 72
     1
 10
107.9692925077299
 20
-169.4132595062578
 11
107.3133463273383
 21
-169.4132595062578
 72
     1
 10
107.3133463273383
 20
-169.4132595062578
 11
107.3133463273383
 21
-169.188983790168
 72
     1
 10
107.3133463273383
 20
-169.188983790168
 11
107.9923746474811
 21
-168.2160888251335
 72
     1
 10
107.9923746474811
 20
-168.2160888251335
 11
108.1870225423977
 21
-168.2160888251335
 72
     1
 10
108.1870225423977
 20
-168.2160888251335
 11
108.1870225423977
 21
-169.2144774967589
 72
     1
 10
108.1870225423977
 20
-169.2144774967589
 11
108.3944172906097
 21
-169.2144774967589
 72
     1
 10
108.3944172906097
 20
-169.2144774967589
 11
108.3944172906097
 21
-169.4132595062578
 72
     1
 10
108.3944172906097
 20
-169.4132595062578
 11
108.1870225423977
 21
-169.4132595062578
 97
        0
 92
        1
 93
        3
 72
     1
 10
107.9692925077299
 20
-168.5585313163673
 11
107.5124728463858
 21
-169.2144774967589
 72
     1
 10
107.5124728463858
 20
-169.2144774967589
 11
107.9692925077299
 21
-169.2144774967589
 72
     1
 10
107.9692925077299
 20
-169.2144774967589
 11
107.9692925077299
 21
-168.5585313163673
 97
        0
 75
     2
 76
     1
 98
        0
  0
SPLINE
  5
B7
330
9E
100
AcDbEntity
  8
_U+30EC_U+30A4_U+30E4_U+30FC 1
370
     0
100
AcDbSpline
210
0.0
220
0.0
230
1.0
 70
    11
 71
     3
 72
    29
 73
    25
 74
     0
 42
0.0000000001
 43
0.0000000001
 12
1.0
 22
0.0
 32
0.0
 13
1.0
 23
0.0
 33
0.0
 40
0.0
 40
0.0
 40
0.0
 40
0.0
 40
1.0
 40
1.0
 40
1.0
 40
2.0
 40
2.0
 40
2.0
 40
3.0
 40
3.0
 40
3.0
 40
4.0
 40
4.0
 40
4.0
 40
5.0
 40
5.0
 40
5.0
 40
6.0
 40
6.0
 40
6.0
 40
7.0
 40
7.0
 40
7.0
 40
8.0
 40
8.0
 40
8.0
 40
8.0
 10
109.4293239743788
 20
-169.5824136945836
 30
0.0
 10
109.321836995239
 20
-169.7918755000868
 30
0.0
 10
109.1482041827824
 20
-169.8111680348042
 30
0.0
 10
109.0317599553809
 20
-169.8111680348042
 30
0.0
 10
108.8712185057683
 20
-169.8111680348042
 30
0.0
 10
108.729280571776
 20
-169.7646592457533
 30
0.0
 10
108.6341959363831
 20
-169.5824136945836
 30
0.0
 10
108.5304985622771
 20
-169.387765799667
 30
0.0
 10
108.5115505371082
 20
-169.1510877398303
 30
0.0
 10
108.5115505371082
 20
-168.988134723378
 30
0.0
 10
108.5115505371082
 20
-168.8441297320945
 30
0.0
 10
108.5280869954374
 20
-168.5926377616713
 30
0.0
 10
108.6341959363831
 20
-168.3935112426238
 30
0.0
 10
108.7420274250714
 20
-168.1905951185426
 30
0.0
 10
108.9029133842326
 20
-168.1671684692429
 30
0.0
 10
109.0317599553809
 20
-168.1671684692429
 30
0.0
 10
109.1902343477024
 20
-168.1671684692429
 30
0.0
 10
109.3342393389859
 20
-168.2116102010027
 30
0.0
 10
109.4293239743788
 20
-168.3935112426238
 30
0.0
 10
109.5288872339025
 20
-168.5860920802493
 30
0.0
 10
109.5519693736537
 20
-168.8145019109214
 30
0.0
 10
109.5519693736537
 20
-168.988134723378
 30
0.0
 10
109.5519693736537
 20
-169.1593559689949
 30
0.0
 10
109.5312988007422
 20
-169.3901773665066
 30
0.0
 10
109.4293239743788
 20
-169.5824136945836
 30
0.0
  0
SPLINE
  5
B8
330
9E
100
AcDbEntity
  8
_U+30EC_U+30A4_U+30E4_U+30FC 1
370
     0
100
AcDbSpline
210
0.0
220
0.0
230
1.0
 70
    11
 71
     3
 72
    17
 73
    13
 74
     0
 42
0.0000000001
 43
0.0000000001
 12
1.0
 22
0.0
 32
0.0
 13
1.0
 23
0.0
 33
0.0
 40
0.0
 40
0.0
 40
0.0
 40
0.0
 40
1.0
 40
1.0
 40
1.0
 40
2.0
 40
2.0
 40
2.0
 40
3.0
 40
3.0
 40
3.0
 40
4.0
 40
4.0
 40
4.0
 40
4.0
 10
109.0317599553809
 20
-168.3597493068684
 30
0.0
 10
108.7823350422489
 20
-168.3597493068684
 30
0.0
 10
108.7354817436495
 20
-168.6432806653045
 30
0.0
 10
108.7354817436495
 20
-168.988134723378
 30
0.0
 10
108.7354817436495
 20
-169.3074950748606
 30
0.0
 10
108.7716552462446
 20
-169.6165201398875
 30
0.0
 10
109.0317599553809
 20
-169.6165201398875
 30
0.0
 10
109.2791178112219
 20
-169.6165201398875
 30
0.0
 10
109.3280381671124
 20
-169.3350558387426
 30
0.0
 10
109.3280381671124
 20
-168.988134723378
 30
0.0
 10
109.3280381671124
 20
-168.6687743718953
 30
0.0
 10
109.2897976072262
 20
-168.3597493068684
 30
0.0
 10
109.0317599553809
 20
-168.3597493068684
 30
0.0
  0
HATCH
  5
B9
330
9E
100
AcDbEntity
  8
_U+30EC_U+30A4_U+30E4_U+30FC 1
 62
   179
420
  2234388
100
AcDbHatch
 10
0.0
 20
0.0
 30
0.0
210
0.0
220
0.0
230
1.0
  2
SOLID
 70
     1
 71
     0
 91
        2
 92
        1
 93
        1
 72
     4
 94
        3
 73
     0
 74
     1
 95
       29
 96
       25
 40
0.0
 40
0.0
 40
0.0
 40
0.0
 40
1.0
 40
1.0
 40
1.0
 40
2.0
 40
2.0
 40
2.0
 40
3.0
 40
3.0
 40
3.0
 40
4.0
 40
4.0
 40
4.0
 40
5.0
 40
5.0
 40
5.0
 40
6.0
 40
6.0
 40
6.0
 40
7.0
 40
7.0
 40
7.0
 40
8.0
 40
8.0
 40
8.0
 40
8.0
 10
109.4293239743788
 20
-169.5824136945836
 10
109.321836995239
 20
-169.7918755000868
 10
109.1482041827824
 20
-169.8111680348042
 10
109.0317599553809
 20
-169.8111680348042
 10
108.8712185057683
 20
-169.8111680348042
 10
108.729280571776
 20
-169.7646592457533
 10
108.6341959363831
 20
-169.5824136945836
 10
108.5304985622771
 20
-169.387765799667
 10
108.5115505371082
 20
-169.1510877398303
 10
108.5115505371082
 20
-168.988134723378
 10
108.5115505371082
 20
-168.8441297320945
 10
108.5280869954374
 20
-168.5926377616713
 10
108.6341959363831
 20
-168.3935112426238
 10
108.7420274250714
 20
-168.1905951185426
 10
108.9029133842326
 20
-168.1671684692429
 10
109.0317599553809
 20
-168.1671684692429
 10
109.1902343477024
 20
-168.1671684692429
 10
109.3342393389859
 20
-168.2116102010027
 10
109.4293239743788
 20
-168.3935112426238
 10
109.5288872339025
 20
-168.5860920802493
 10
109.5519693736537
 20
-168.8145019109214
 10
109.5519693736537
 20
-168.988134723378
 10
109.5519693736537
 20
-169.1593559689949
 10
109.5312988007422
 20
-169.3901773665066
 10
109.4293239743788
 20
-169.5824136945836
 97
        0
 97
        0
 92
        1
 93
        1
 72
     4
 94
        3
 73
     0
 74
     1
 95
       17
 96
       13
 40
0.0
 40
0.0
 40
0.0
 40
0.0
 40
1.0
 40
1.0
 40
1.0
 40
2.0
 40
2.0
 40
2.0
 40
3.0
 40
3.0
 40
3.0
 40
4.0
 40
4.0
 40
4.0
 40
4.0
 10
109.0317599553809
 20
-168.3597493068684
 10
108.7823350422489
 20
-168.3597493068684
 10
108.7354817436495
 20
-168.6432806653045
 10
108.7354817436495
 20
-168.988134723378
 10
108.7354817436495
 20
-169.3074950748606
 10
108.7716552462446
 20
-169.6165201398875
 10
109.0317599553809
 20
-169.6165201398875
 10
109.2791178112219
 20
-169.6165201398875
 10
109.3280381671124
 20
-169.3350558387426
 10
109.3280381671124
 20
-168.988134723378
 10
109.3280381671124
 20
-168.6687743718953
 10
109.2897976072262
 20
-168.3597493068684
 10
109.0317599553809
 20
-168.3597493068684
 97
        0
 97
        0
 75
     2
 76
     1
 98
        0
  0
ENDBLK
  5
A1
330
9E
100
AcDbEntity
  8
0
100
AcDbBlockEnd
  0
BLOCK
  5
BC
330
BA
100
AcDbEntity
  8
0
100
AcDbBlockBegin
  2
block 5
 70
     0
 10
0.0
 20
0.0
 30
0.0
  3
block 5
  1

  0
SPLINE
  5
BE
330
BA
100
AcDbEntity
  8
_U+30EC_U+30A4_U+30E4_U+30FC 1
370
     0
100
AcDbSpline
210
0.0
220
0.0
230
1.0
 70
    11
 71
     3
 72
    59
 73
    55
 74
     0
 42
0.0000000001
 43
0.0000000001
 12
1.0
 22
0.0
 32
0.0
 13
1.0
 23
0.0
 33
0.0
 40
0.0
 40
0.0
 40
0.0
 40
0.0
 40
1.0
 40
1.0
 40
1.0
 40
2.0
 40
2.0
 40
2.0
 40
3.0
 40
3.0
 40
3.0
 40
4.0
 40
4.0
 40
4.0
 40
5.0
 40
5.0
 40
5.0
 40
6.0
 40
6.0
 40
6.0
 40
7.0
 40
7.0
 40
7.0
 40
8.0
 40
8.0
 40
8.0
 40
9.0
 40
9.0
 40
9.0
 40
10.0
 40
10.0
 40
10.0
 40
11.0
 40
11.0
 40
11.0
 40
12.0
 40
12.0
 40
12.0
 40
13.0
 40
13.0
 40
13.0
 40
14.0
 40
14.0
 40
14.0
 40
15.0
 40
15.0
 40
15.0
 40
16.0
 40
16.0
 40
16.0
 40
17.0
 40
17.0
 40
17.0
 40
18.0
 40
18.0
 40
18.0
 40
18.0
 10
101.0556748879305
 20
-138.8745550868092
 30
0.0
 10
100.8884155021216
 20
-139.3611748241007
 30
0.0
 10
100.6388183342153
 20
-139.8836235544388
 30
0.0
 10
100.0402329936531
 20
-140.2009168486303
 30
0.0
 10
100.0402329936531
 20
-140.2009168486303
 30
0.0
 10
99.85195852538423
 20
-140.0486436281823
 30
0.0
 10
99.85195852538423
 20
-140.0486436281823
 30
0.0
 10
100.0126722297711
 20
-139.978880444606
 30
0.0
 10
100.2581352830952
 20
-139.8688096438522
 30
0.0
 10
100.5097995082927
 20
-139.5387694963653
 30
0.0
 10
100.7468220776779
 20
-139.2257825715304
 30
0.0
 10
100.8038384079588
 20
-138.9698119769763
 30
0.0
 10
100.8313991718408
 20
-138.8428602083449
 30
0.0
 10
100.8313991718408
 20
-138.8428602083449
 30
0.0
 10
100.1840657301623
 20
-138.8428602083449
 30
0.0
 10
100.1840657301623
 20
-138.8428602083449
 30
0.0
 10
100.0803683560563
 20
-139.0035739127318
 30
0.0
 10
99.95979001407255
 20
-139.1706610437664
 30
0.0
 10
99.7672091764471
 20
-139.3420545441575
 30
0.0
 10
99.7672091764471
 20
-139.3420545441575
 30
0.0
 10
99.59374861876476
 20
-139.2194091448827
 30
0.0
 10
99.59374861876476
 20
-139.2194091448827
 30
0.0
 10
99.65300426111106
 20
-139.1729003558318
 30
0.0
 10
99.8011433669768
 20
-139.0607624977869
 30
0.0
 10
99.96616344072027
 20
-138.8111653298805
 30
0.0
 10
100.0423000509443
 20
-138.692654045188
 30
0.0
 10
100.1459974250503
 20
-138.5233276020879
 30
0.0
 10
100.1713188768669
 20
-138.400682202813
 30
0.0
 10
100.1713188768669
 20
-138.400682202813
 30
0.0
 10
100.4019680196044
 20
-138.5023125196279
 30
0.0
 10
100.4019680196044
 20
-138.5023125196279
 30
0.0
 10
100.416781930191
 20
-138.5085136915013
 30
0.0
 10
100.4315958407775
 20
-138.5169541754402
 30
0.0
 10
100.4315958407775
 20
-138.5317680860268
 30
0.0
 10
100.4315958407775
 20
-138.5529554232611
 30
0.0
 10
100.4061021341867
 20
-138.5657022765565
 30
0.0
 10
100.3976616502478
 20
-138.5677693338477
 30
0.0
 10
100.3701008863658
 20
-138.5762098177865
 30
0.0
 10
100.3616604024269
 20
-138.5741427604954
 30
0.0
 10
100.3363389506104
 20
-138.5994642123119
 30
0.0
 10
100.3110174987938
 20
-138.6249579189028
 30
0.0
 10
100.3130845560849
 20
-138.6333984028417
 30
0.0
 10
100.2813896776206
 20
-138.6862806185403
 30
0.0
 10
100.2813896776206
 20
-138.6862806185403
 30
0.0
 10
100.6155639396899
 20
-138.6862806185403
 30
0.0
 10
100.6155639396899
 20
-138.6862806185403
 30
0.0
 10
100.8715345342439
 20
-138.6862806185403
 30
0.0
 10
100.9032294127082
 20
-138.6735337652448
 30
0.0
 10
100.9604179977634
 20
-138.6439059440717
 30
0.0
 10
100.9604179977634
 20
-138.6439059440717
 30
0.0
 10
101.116997587568
 20
-138.8089260178151
 30
0.0
 10
101.116997587568
 20
-138.8089260178151
 30
0.0
 10
101.0830633970383
 20
-138.844927265636
 30
0.0
 10
101.0809963397471
 20
-138.8469943229271
 30
0.0
 10
101.0556748879305
 20
-138.8745550868092
 30
0.0
  0
HATCH
  5
BF
330
BA
100
AcDbEntity
  8
_U+30EC_U+30A4_U+30E4_U+30FC 1
 62
   179
420
  2234388
100
AcDbHatch
 10
0.0
 20
0.0
 30
0.0
210
0.0
220
0.0
230
1.0
  2
SOLID
 70
     1
 71
     0
 91
        1
 92
        1
 93
        1
 72
     4
 94
        3
 73
     0
 74
     1
 95
       59
 96
       55
 40
0.0
 40
0.0
 40
0.0
 40
0.0
 40
1.0
 40
1.0
 40
1.0
 40
2.0
 40
2.0
 40
2.0
 40
3.0
 40
3.0
 40
3.0
 40
4.0
 40
4.0
 40
4.0
 40
5.0
 40
5.0
 40
5.0
 40
6.0
 40
6.0
 40
6.0
 40
7.0
 40
7.0
 40
7.0
 40
8.0
 40
8.0
 40
8.0
 40
9.0
 40
9.0
 40
9.0
 40
10.0
 40
10.0
 40
10.0
 40
11.0
 40
11.0
 40
11.0
 40
12.0
 40
12.0
 40
12.0
 40
13.0
 40
13.0
 40
13.0
 40
14.0
 40
14.0
 40
14.0
 40
15.0
 40
15.0
 40
15.0
 40
16.0
 40
16.0
 40
16.0
 40
17.0
 40
17.0
 40
17.0
 40
18.0
 40
18.0
 40
18.0
 40
18.0
 10
101.0556748879305
 20
-138.8745550868092
 10
100.8884155021216
 20
-139.3611748241007
 10
100.6388183342153
 20
-139.8836235544388
 10
100.0402329936531
 20
-140.2009168486303
 10
100.0402329936531
 20
-140.2009168486303
 10
99.85195852538423
 20
-140.0486436281823
 10
99.85195852538423
 20
-140.0486436281823
 10
100.0126722297711
 20
-139.978880444606
 10
100.2581352830952
 20
-139.8688096438522
 10
100.5097995082927
 20
-139.5387694963653
 10
100.7468220776779
 20
-139.2257825715304
 10
100.8038384079588
 20
-138.9698119769763
 10
100.8313991718408
 20
-138.8428602083449
 10
100.8313991718408
 20
-138.8428602083449
 10
100.1840657301623
 20
-138.8428602083449
 10
100.1840657301623
 20
-138.8428602083449
 10
100.0803683560563
 20
-139.0035739127318
 10
99.95979001407255
 20
-139.1706610437664
 10
99.7672091764471
 20
-139.3420545441575
 10
99.7672091764471
 20
-139.3420545441575
 10
99.59374861876476
 20
-139.2194091448827
 10
99.59374861876476
 20
-139.2194091448827
 10
99.65300426111106
 20
-139.1729003558318
 10
99.8011433669768
 20
-139.0607624977869
 10
99.96616344072027
 20
-138.8111653298805
 10
100.0423000509443
 20
-138.692654045188
 10
100.1459974250503
 20
-138.5233276020879
 10
100.1713188768669
 20
-138.400682202813
 10
100.1713188768669
 20
-138.400682202813
 10
100.4019680196044
 20
-138.5023125196279
 10
100.4019680196044
 20
-138.5023125196279
 10
100.416781930191
 20
-138.5085136915013
 10
100.4315958407775
 20
-138.5169541754402
 10
100.4315958407775
 20
-138.5317680860268
 10
100.4315958407775
 20
-138.5529554232611
 10
100.4061021341867
 20
-138.5657022765565
 10
100.3976616502478
 20
-138.5677693338477
 10
100.3701008863658
 20
-138.5762098177865
 10
100.3616604024269
 20
-138.5741427604954
 10
100.3363389506104
 20
-138.5994642123119
 10
100.3110174987938
 20
-138.6249579189028
 10
100.3130845560849
 20
-138.6333984028417
 10
100.2813896776206
 20
-138.6862806185403
 10
100.2813896776206
 20
-138.6862806185403
 10
100.6155639396899
 20
-138.6862806185403
 10
100.6155639396899
 20
-138.6862806185403
 10
100.8715345342439
 20
-138.6862806185403
 10
100.9032294127082
 20
-138.6735337652448
 10
100.9604179977634
 20
-138.6439059440717
 10
100.9604179977634
 20
-138.6439059440717
 10
101.116997587568
 20
-138.8089260178151
 10
101.116997587568
 20
-138.8089260178151
 10
101.0830633970383
 20
-138.844927265636
 10
101.0809963397471
 20
-138.8469943229271
 10
101.0556748879305
 20
-138.8745550868092
 97
        0
 97
        0
 75
     2
 76
     1
 98
        0
  0
SPLINE
  5
C0
330
BA
100
AcDbEntity
  8
_U+30EC_U+30A4_U+30E4_U+30FC 1
370
     0
100
AcDbSpline
210
0.0
220
0.0
230
1.0
 70
    11
 71
     3
 72
    53
 73
    49
 74
     0
 42
0.0000000001
 43
0.0000000001
 12
1.0
 22
0.0
 32
0.0
 13
1.0
 23
0.0
 33
0.0
 40
0.0
 40
0.0
 40
0.0
 40
0.0
 40
1.0
 40
1.0
 40
1.0
 40
2.0
 40
2.0
 40
2.0
 40
3.0
 40
3.0
 40
3.0
 40
4.0
 40
4.0
 40
4.0
 40
5.0
 40
5.0
 40
5.0
 40
6.0
 40
6.0
 40
6.0
 40
7.0
 40
7.0
 40
7.0
 40
8.0
 40
8.0
 40
8.0
 40
9.0
 40
9.0
 40
9.0
 40
10.0
 40
10.0
 40
10.0
 40
11.0
 40
11.0
 40
11.0
 40
12.0
 40
12.0
 40
12.0
 40
13.0
 40
13.0
 40
13.0
 40
14.0
 40
14.0
 40
14.0
 40
15.0
 40
15.0
 40
15.0
 40
16.0
 40
16.0
 40
16.0
 40
16.0
 10
102.6771090780634
 20
-139.9873209285448
 30
0.0
 10
102.6855495620022
 20
-139.9428791967851
 30
0.0
 10
102.6855495620022
 20
-139.9344387128463
 30
0.0
 10
102.6919229886499
 20
-139.8603691599134
 30
0.0
 10
102.6919229886499
 20
-139.8603691599134
 30
0.0
 10
101.661667183786
 20
-139.8603691599134
 30
0.0
 10
101.661667183786
 20
-139.8603691599134
 30
0.0
 10
101.661667183786
 20
-139.8920640383777
 30
0.0
 10
101.661667183786
 20
-139.9471855661417
 30
0.0
 10
101.6658012983683
 20
-139.9830145591883
 30
0.0
 10
101.6658012983683
 20
-139.9830145591883
 30
0.0
 10
101.4246446144008
 20
-139.9830145591883
 30
0.0
 10
101.4246446144008
 20
-139.9830145591883
 30
0.0
 10
101.4310180410485
 20
-139.9280652861985
 30
0.0
 10
101.4415255822785
 20
-139.837114765388
 30
0.0
 10
101.4415255822785
 20
-139.7080959394654
 30
0.0
 10
101.4437648943439
 20
-139.5029405033187
 30
0.0
 10
101.4437648943439
 20
-139.479513854019
 30
0.0
 10
101.4437648943439
 20
-139.4562594594936
 30
0.0
 10
101.4437648943439
 20
-139.4562594594936
 30
0.0
 10
101.4437648943439
 20
-139.0163207660272
 30
0.0
 10
101.4437648943439
 20
-139.0163207660272
 30
0.0
 10
101.4437648943439
 20
-138.9506916970332
 30
0.0
 10
101.4373914676962
 20
-138.627024976194
 30
0.0
 10
101.4330850983396
 20
-138.5720757032042
 30
0.0
 10
101.55796980968
 20
-138.5846503017254
 30
0.0
 10
101.8223808881729
 20
-138.5889566710819
 30
0.0
 10
101.9534667713866
 20
-138.5889566710819
 30
0.0
 10
101.9534667713866
 20
-138.5889566710819
 30
0.0
 10
102.4083916302139
 20
-138.5889566710819
 30
0.0
 10
102.4083916302139
 20
-138.5889566710819
 30
0.0
 10
102.5585977933708
 20
-138.5889566710819
 30
0.0
 10
102.7828735094605
 20
-138.5868896137908
 30
0.0
 10
102.9287733032609
 20
-138.5784491298519
 30
0.0
 10
102.920332819322
 20
-138.6883476758314
 30
0.0
 10
102.9160264499654
 20
-138.9379448437377
 30
0.0
 10
102.9160264499654
 20
-139.0564561284303
 30
0.0
 10
102.9160264499654
 20
-139.0564561284303
 30
0.0
 10
102.9160264499654
 20
-139.4753797394367
 30
0.0
 10
102.9160264499654
 20
-139.4753797394367
 30
0.0
 10
102.9160264499654
 20
-139.517582159131
 30
0.0
 10
102.9223998766132
 20
-139.6996554555265
 30
0.0
 10
102.9223998766132
 20
-139.7377237606385
 30
0.0
 10
102.9244669339043
 20
-139.8879299237954
 30
0.0
 10
102.9330796726174
 20
-139.9385728274285
 30
0.0
 10
102.9415201565563
 20
-139.9873209285448
 30
0.0
 10
102.9415201565563
 20
-139.9873209285448
 30
0.0
 10
102.6771090780634
 20
-139.9873209285448
 30
0.0
 10
102.6771090780634
 20
-139.9873209285448
 30
0.0
  0
POLYLINE
  5
C1
330
BA
100
AcDbEntity
  8
_U+30EC_U+30A4_U+30E4_U+30FC 1
370
     0
100
AcDb2dPolyline
 66
     1
 10
0.0
 20
0.0
 30
0.0
  0
VERTEX
  5
C2
330
C1
100
AcDbEntity
  8
_U+30EC_U+30A4_U+30E4_U+30FC 1
370
     0
100
AcDbVertex
100
AcDb2dVertex
 10
102.7003634725888
 20
-138.7836045659986
 30
0.0
  0
VERTEX
  5
C3
330
C1
100
AcDbEntity
  8
_U+30EC_U+30A4_U+30E4_U+30FC 1
370
     0
100
AcDbVertex
100
AcDb2dVertex
 10
101.6594278717206
 20
-138.7836045659986
 30
0.0
  0
VERTEX
  5
C4
330
C1
100
AcDbEntity
  8
_U+30EC_U+30A4_U+30E4_U+30FC 1
370
     0
100
AcDbVertex
100
AcDb2dVertex
 10
101.6594278717206
 20
-139.6720946916445
 30
0.0
  0
VERTEX
  5
C5
330
C1
100
AcDbEntity
  8
_U+30EC_U+30A4_U+30E4_U+30FC 1
370
     0
100
AcDbVertex
100
AcDb2dVertex
 10
102.7003634725888
 20
-139.6720946916445
 30
0.0
  0
VERTEX
  5
C6
330
C1
100
AcDbEntity
  8
_U+30EC_U+30A4_U+30E4_U+30FC 1
370
     0
100
AcDbVertex
100
AcDb2dVertex
 10
102.7003634725888
 20
-138.7836045659986
 30
0.0
  0
SEQEND
  5
C7
330
C1
100
AcDbEntity
  8
_U+30EC_U+30A4_U+30E4_U+30FC 1
370
     0
  0
HATCH
  5
C8
330
BA
100
AcDbEntity
  8
_U+30EC_U+30A4_U+30E4_U+30FC 1
 62
   179
420
  2234388
100
AcDbHatch
 10
0.0
 20
0.0
 30
0.0
210
0.0
220
0.0
230
1.0
  2
SOLID
 70
     1
 71
     0
 91
        2
 92
        1
 93
        1
 72
     4
 94
        3
 73
     0
 74
     1
 95
       53
 96
       49
 40
0.0
 40
0.0
 40
0.0
 40
0.0
 40
1.0
 40
1.0
 40
1.0
 40
2.0
 40
2.0
 40
2.0
 40
3.0
 40
3.0
 40
3.0
 40
4.0
 40
4.0
 40
4.0
 40
5.0
 40
5.0
 40
5.0
 40
6.0
 40
6.0
 40
6.0
 40
7.0
 40
7.0
 40
7.0
 40
8.0
 40
8.0
 40
8.0
 40
9.0
 40
9.0
 40
9.0
 40
10.0
 40
10.0
 40
10.0
 40
11.0
 40
11.0
 40
11.0
 40
12.0
 40
12.0
 40
12.0
 40
13.0
 40
13.0
 40
13.0
 40
14.0
 40
14.0
 40
14.0
 40
15.0
 40
15.0
 40
15.0
 40
16.0
 40
16.0
 40
16.0
 40
16.0
 10
102.6771090780634
 20
-139.9873209285448
 10
102.6855495620022
 20
-139.9428791967851
 10
102.6855495620022
 20
-139.9344387128463
 10
102.6919229886499
 20
-139.8603691599134
 10
102.6919229886499
 20
-139.8603691599134
 10
101.661667183786
 20
-139.8603691599134
 10
101.661667183786
 20
-139.8603691599134
 10
101.661667183786
 20
-139.8920640383777
 10
101.661667183786
 20
-139.9471855661417
 10
101.6658012983683
 20
-139.9830145591883
 10
101.6658012983683
 20
-139.9830145591883
 10
101.4246446144008
 20
-139.9830145591883
 10
101.4246446144008
 20
-139.9830145591883
 10
101.4310180410485
 20
-139.9280652861985
 10
101.4415255822785
 20
-139.837114765388
 10
101.4415255822785
 20
-139.7080959394654
 10
101.4437648943439
 20
-139.5029405033187
 10
101.4437648943439
 20
-139.479513854019
 10
101.4437648943439
 20
-139.4562594594936
 10
101.4437648943439
 20
-139.4562594594936
 10
101.4437648943439
 20
-139.0163207660272
 10
101.4437648943439
 20
-139.0163207660272
 10
101.4437648943439
 20
-138.9506916970332
 10
101.4373914676962
 20
-138.627024976194
 10
101.4330850983396
 20
-138.5720757032042
 10
101.55796980968
 20
-138.5846503017254
 10
101.8223808881729
 20
-138.5889566710819
 10
101.9534667713866
 20
-138.5889566710819
 10
101.9534667713866
 20
-138.5889566710819
 10
102.4083916302139
 20
-138.5889566710819
 10
102.4083916302139
 20
-138.5889566710819
 10
102.5585977933708
 20
-138.5889566710819
 10
102.7828735094605
 20
-138.5868896137908
 10
102.9287733032609
 20
-138.5784491298519
 10
102.920332819322
 20
-138.6883476758314
 10
102.9160264499654
 20
-138.9379448437377
 10
102.9160264499654
 20
-139.0564561284303
 10
102.9160264499654
 20
-139.0564561284303
 10
102.9160264499654
 20
-139.4753797394367
 10
102.9160264499654
 20
-139.4753797394367
 10
102.9160264499654
 20
-139.517582159131
 10
102.9223998766132
 20
-139.6996554555265
 10
102.9223998766132
 20
-139.7377237606385
 10
102.9244669339043
 20
-139.8879299237954
 10
102.9330796726174
 20
-139.9385728274285
 10
102.9415201565563
 20
-139.9873209285448
 10
102.9415201565563
 20
-139.9873209285448
 10
102.6771090780634
 20
-139.9873209285448
 10
102.6771090780634
 20
-139.9873209285448
 97
        0
 97
        0
 92
        1
 93
        4
 72
     1
 10
102.7003634725888
 20
-138.7836045659986
 11
101.6594278717206
 21
-138.7836045659986
 72
     1
 10
101.6594278717206
 20
-138.7836045659986
 11
101.6594278717206
 21
-139.6720946916445
 72
     1
 10
101.6594278717206
 20
-139.6720946916445
 11
102.7003634725888
 21
-139.6720946916445
 72
     1
 10
102.7003634725888
 20
-139.6720946916445
 11
102.7003634725888
 21
-138.7836045659986
 97
        0
 75
     2
 76
     1
 98
        0
  0
SPLINE
  5
C9
330
BA
100
AcDbEntity
  8
_U+30EC_U+30A4_U+30E4_U+30FC 1
370
     0
100
AcDbSpline
210
0.0
220
0.0
230
1.0
 70
    11
 71
     3
 72
    56
 73
    52
 74
     0
 42
0.0000000001
 43
0.0000000001
 12
1.0
 22
0.0
 32
0.0
 13
1.0
 23
0.0
 33
0.0
 40
0.0
 40
0.0
 40
0.0
 40
0.0
 40
1.0
 40
1.0
 40
1.0
 40
2.0
 40
2.0
 40
2.0
 40
3.0
 40
3.0
 40
3.0
 40
4.0
 40
4.0
 40
4.0
 40
5.0
 40
5.0
 40
5.0
 40
6.0
 40
6.0
 40
6.0
 40
7.0
 40
7.0
 40
7.0
 40
8.0
 40
8.0
 40
8.0
 40
9.0
 40
9.0
 40
9.0
 40
10.0
 40
10.0
 40
10.0
 40
11.0
 40
11.0
 40
11.0
 40
12.0
 40
12.0
 40
12.0
 40
13.0
 40
13.0
 40
13.0
 40
14.0
 40
14.0
 40
14.0
 40
15.0
 40
15.0
 40
15.0
 40
16.0
 40
16.0
 40
16.0
 40
17.0
 40
17.0
 40
17.0
 40
17.0
 10
104.6878390580294
 20
-140.0529499975389
 30
0.0
 10
104.495258220404
 20
-139.7440971872862
 30
0.0
 10
104.2372205685588
 20
-139.5387694963653
 30
0.0
 10
104.1462700477482
 20
-139.4733126821456
 30
0.0
 10
103.8520588933078
 20
-139.8117933135714
 30
0.0
 10
103.5623263629983
 20
-139.9640665340194
 30
0.0
 10
103.3633720987251
 20
-140.0570841121211
 30
0.0
 10
103.3633720987251
 20
-140.0570841121211
 30
0.0
 10
103.2047254516294
 20
-139.8688096438522
 30
0.0
 10
103.2047254516294
 20
-139.8688096438522
 30
0.0
 10
103.3084228257354
 20
-139.8328083960314
 30
0.0
 10
103.5221910005952
 20
-139.7566717858074
 30
0.0
 10
103.7549072006238
 20
-139.5706366296039
 30
0.0
 10
104.0193182791167
 20
-139.3589355120353
 30
0.0
 10
104.2053534353202
 20
-139.0712700390169
 30
0.0
 10
104.3281710893693
 20
-138.7582831141819
 30
0.0
 10
104.3281710893693
 20
-138.7582831141819
 30
0.0
 10
103.9516221528315
 20
-138.7582831141819
 30
0.0
 10
103.9516221528315
 20
-138.7582831141819
 30
0.0
 10
103.7991766776092
 20
-138.7582831141819
 30
0.0
 10
103.5898871268803
 20
-138.7624172287643
 30
0.0
 10
103.4396809637234
 20
-138.7815375087074
 30
0.0
 10
103.4396809637234
 20
-138.7815375087074
 30
0.0
 10
103.4396809637234
 20
-138.5698363911388
 30
0.0
 10
103.4396809637234
 20
-138.5698363911388
 30
0.0
 10
103.5073770900086
 20
-138.5762098177865
 30
0.0
 10
103.7674817991449
 20
-138.5868896137908
 30
0.0
 10
103.8542982053732
 20
-138.5868896137908
 30
0.0
 10
103.8542982053732
 20
-138.5868896137908
 30
0.0
 10
104.165218072917
 20
-138.5868896137908
 30
0.0
 10
104.165218072917
 20
-138.5868896137908
 30
0.0
 10
104.3726128211291
 20
-138.5868896137908
 30
0.0
 10
104.3958672156545
 20
-138.5805161871431
 30
0.0
 10
104.4191216101799
 20
-138.5762098177865
 30
0.0
 10
104.4635633419397
 20
-138.5698363911388
 30
0.0
 10
104.5016316470517
 20
-138.5445149393222
 30
0.0
 10
104.522818984286
 20
-138.5276339714445
 30
0.0
 10
104.522818984286
 20
-138.5276339714445
 30
0.0
 10
104.6792263193163
 20
-138.7010945291268
 30
0.0
 10
104.6792263193163
 20
-138.7010945291268
 30
0.0
 10
104.6390909569132
 20
-138.7286552930088
 30
0.0
 10
104.6263441036177
 20
-138.7391628342388
 30
0.0
 10
104.5777682572757
 20
-138.7751640820597
 30
0.0
 10
104.4487494313531
 20
-139.0226941926749
 30
0.0
 10
104.3683064517725
 20
-139.1729003558318
 30
0.0
 10
104.2646090776665
 20
-139.3188001496321
 30
0.0
 10
104.5777682572757
 20
-139.5367024390742
 30
0.0
 10
104.8061780879478
 20
-139.8223008548014
 30
0.0
 10
104.8590603036463
 20
-139.9005045223165
 30
0.0
 10
104.8590603036463
 20
-139.9005045223165
 30
0.0
 10
104.6878390580294
 20
-140.0529499975389
 30
0.0
 10
104.6878390580294
 20
-140.0529499975389
 30
0.0
  0
HATCH
  5
CA
330
BA
100
AcDbEntity
  8
_U+30EC_U+30A4_U+30E4_U+30FC 1
 62
   179
420
  2234388
100
AcDbHatch
 10
0.0
 20
0.0
 30
0.0
210
0.0
220
0.0
230
1.0
  2
SOLID
 70
     1
 71
     0
 91
        1
 92
        1
 93
        1
 72
     4
 94
        3
 73
     0
 74
     1
 95
       56
 96
       52
 40
0.0
 40
0.0
 40
0.0
 40
0.0
 40
1.0
 40
1.0
 40
1.0
 40
2.0
 40
2.0
 40
2.0
 40
3.0
 40
3.0
 40
3.0
 40
4.0
 40
4.0
 40
4.0
 40
5.0
 40
5.0
 40
5.0
 40
6.0
 40
6.0
 40
6.0
 40
7.0
 40
7.0
 40
7.0
 40
8.0
 40
8.0
 40
8.0
 40
9.0
 40
9.0
 40
9.0
 40
10.0
 40
10.0
 40
10.0
 40
11.0
 40
11.0
 40
11.0
 40
12.0
 40
12.0
 40
12.0
 40
13.0
 40
13.0
 40
13.0
 40
14.0
 40
14.0
 40
14.0
 40
15.0
 40
15.0
 40
15.0
 40
16.0
 40
16.0
 40
16.0
 40
17.0
 40
17.0
 40
17.0
 40
17.0
 10
104.6878390580294
 20
-140.0529499975389
 10
104.495258220404
 20
-139.7440971872862
 10
104.2372205685588
 20
-139.5387694963653
 10
104.1462700477482
 20
-139.4733126821456
 10
103.8520588933078
 20
-139.8117933135714
 10
103.5623263629983
 20
-139.9640665340194
 10
103.3633720987251
 20
-140.0570841121211
 10
103.3633720987251
 20
-140.0570841121211
 10
103.2047254516294
 20
-139.8688096438522
 10
103.2047254516294
 20
-139.8688096438522
 10
103.3084228257354
 20
-139.8328083960314
 10
103.5221910005952
 20
-139.7566717858074
 10
103.7549072006238
 20
-139.5706366296039
 10
104.0193182791167
 20
-139.3589355120353
 10
104.2053534353202
 20
-139.0712700390169
 10
104.3281710893693
 20
-138.7582831141819
 10
104.3281710893693
 20
-138.7582831141819
 10
103.9516221528315
 20
-138.7582831141819
 10
103.9516221528315
 20
-138.7582831141819
 10
103.7991766776092
 20
-138.7582831141819
 10
103.5898871268803
 20
-138.7624172287643
 10
103.4396809637234
 20
-138.7815375087074
 10
103.4396809637234
 20
-138.7815375087074
 10
103.4396809637234
 20
-138.5698363911388
 10
103.4396809637234
 20
-138.5698363911388
 10
103.5073770900086
 20
-138.5762098177865
 10
103.7674817991449
 20
-138.5868896137908
 10
103.8542982053732
 20
-138.5868896137908
 10
103.8542982053732
 20
-138.5868896137908
 10
104.165218072917
 20
-138.5868896137908
 10
104.165218072917
 20
-138.5868896137908
 10
104.3726128211291
 20
-138.5868896137908
 10
104.3958672156545
 20
-138.5805161871431
 10
104.4191216101799
 20
-138.5762098177865
 10
104.4635633419397
 20
-138.5698363911388
 10
104.5016316470517
 20
-138.5445149393222
 10
104.522818984286
 20
-138.5276339714445
 10
104.522818984286
 20
-138.5276339714445
 10
104.6792263193163
 20
-138.7010945291268
 10
104.6792263193163
 20
-138.7010945291268
 10
104.6390909569132
 20
-138.7286552930088
 10
104.6263441036177
 20
-138.7391628342388
 10
104.5777682572757
 20
-138.7751640820597
 10
104.4487494313531
 20
-139.0226941926749
 10
104.3683064517725
 20
-139.1729003558318
 10
104.2646090776665
 20
-139.3188001496321
 10
104.5777682572757
 20
-139.5367024390742
 10
104.8061780879478
 20
-139.8223008548014
 10
104.8590603036463
 20
-139.9005045223165
 10
104.8590603036463
 20
-139.9005045223165
 10
104.6878390580294
 20
-140.0529499975389
 10
104.6878390580294
 20
-140.0529499975389
 97
        0
 97
        0
 75
     2
 76
     1
 98
        0
  0
SPLINE
  5
CB
330
BA
100
AcDbEntity
  8
_U+30EC_U+30A4_U+30E4_U+30FC 1
370
     0
100
AcDbSpline
210
0.0
220
0.0
230
1.0
 70
    11
 71
     3
 72
    77
 73
    73
 74
     0
 42
0.0000000001
 43
0.0000000001
 12
1.0
 22
0.0
 32
0.0
 13
1.0
 23
0.0
 33
0.0
 40
0.0
 40
0.0
 40
0.0
 40
0.0
 40
1.0
 40
1.0
 40
1.0
 40
2.0
 40
2.0
 40
2.0
 40
3.0
 40
3.0
 40
3.0
 40
4.0
 40
4.0
 40
4.0
 40
5.0
 40
5.0
 40
5.0
 40
6.0
 40
6.0
 40
6.0
 40
7.0
 40
7.0
 40
7.0
 40
8.0
 40
8.0
 40
8.0
 40
9.0
 40
9.0
 40
9.0
 40
10.0
 40
10.0
 40
10.0
 40
11.0
 40
11.0
 40
11.0
 40
12.0
 40
12.0
 40
12.0
 40
13.0
 40
13.0
 40
13.0
 40
14.0
 40
14.0
 40
14.0
 40
15.0
 40
15.0
 40
15.0
 40
16.0
 40
16.0
 40
16.0
 40
17.0
 40
17.0
 40
17.0
 40
18.0
 40
18.0
 40
18.0
 40
19.0
 40
19.0
 40
19.0
 40
20.0
 40
20.0
 40
20.0
 40
21.0
 40
21.0
 40
21.0
 40
22.0
 40
22.0
 40
22.0
 40
23.0
 40
23.0
 40
23.0
 40
24.0
 40
24.0
 40
24.0
 40
24.0
 10
106.7049424646432
 20
-140.1904093074003
 30
0.0
 10
106.6584336755923
 20
-140.2157307592169
 30
0.0
 10
106.5333767094778
 20
-140.2284776125123
 30
0.0
 10
106.4555175515111
 20
-140.2284776125123
 30
0.0
 10
106.4424261886672
 20
-140.2284776125123
 30
0.0
 10
106.4172769916248
 20
-140.2284776125123
 30
0.0
 10
106.3831705463209
 20
-140.2241712431558
 30
0.0
 10
106.3831705463209
 20
-140.2241712431558
 30
0.0
 10
106.2860188536368
 20
-139.9978284697748
 30
0.0
 10
106.2860188536368
 20
-139.9978284697748
 30
0.0
 10
106.31564667481
 20
-140.0042018964226
 30
0.0
 10
106.3728352598651
 20
-140.0126423803614
 30
0.0
 10
106.4892794872666
 20
-140.0126423803614
 30
0.0
 10
106.5674831547817
 20
-140.0126423803614
 30
0.0
 10
106.5695502120729
 20
-139.9704399606671
 30
0.0
 10
106.5695502120729
 20
-139.913251375612
 30
0.0
 10
106.5695502120729
 20
-139.913251375612
 30
0.0
 10
106.5695502120729
 20
-139.5642632029562
 30
0.0
 10
106.5695502120729
 20
-139.5642632029562
 30
0.0
 10
106.5695502120729
 20
-139.5642632029562
 30
0.0
 10
106.1103189838891
 20
-139.5642632029562
 30
0.0
 10
106.1103189838891
 20
-139.5642632029562
 30
0.0
 10
106.1123860411802
 20
-139.7017225128176
 30
0.0
 10
106.1147976080199
 20
-139.9005045223165
 30
0.0
 10
106.1209987798934
 20
-140.0338297175957
 30
0.0
 10
106.123410346733
 20
-140.0613904814777
 30
0.0
 10
106.123410346733
 20
-140.1058322132374
 30
0.0
 10
106.1358126904799
 20
-140.1671549128749
 30
0.0
 10
106.1358126904799
 20
-140.1671549128749
 30
0.0
 10
105.8946560065124
 20
-140.1671549128749
 30
0.0
 10
105.8946560065124
 20
-140.1671549128749
 30
0.0
 10
105.9201497131033
 20
-140.0422702015346
 30
0.0
 10
105.9201497131033
 20
-139.7017225128176
 30
0.0
 10
105.9201497131033
 20
-139.5642632029562
 30
0.0
 10
105.9201497131033
 20
-139.5642632029562
 30
0.0
 10
105.4779717075715
 20
-139.5642632029562
 30
0.0
 10
105.4779717075715
 20
-139.5642632029562
 30
0.0
 10
105.454717313046
 20
-139.7714856963939
 30
0.0
 10
105.389088244052
 20
-140.0402031442434
 30
0.0
 10
105.1923732918443
 20
-140.2241712431558
 30
0.0
 10
105.1923732918443
 20
-140.2241712431558
 30
0.0
 10
105.0040988235754
 20
-140.1015258438809
 30
0.0
 10
105.0040988235754
 20
-140.1015258438809
 30
0.0
 10
105.2580023608383
 20
-139.8815564971477
 30
0.0
 10
105.2896972393026
 20
-139.5494492923696
 30
0.0
 10
105.2896972393026
 20
-139.2173420875915
 30
0.0
 10
105.2896972393026
 20
-139.2173420875915
 30
0.0
 10
105.2896972393026
 20
-138.7815375087074
 30
0.0
 10
105.2896972393026
 20
-138.7815375087074
 30
0.0
 10
105.2896972393026
 20
-138.7455362608866
 30
0.0
 10
105.2876301820114
 20
-138.5128200608579
 30
0.0
 10
105.2790174432983
 20
-138.411189744043
 30
0.0
 10
105.4187160652252
 20
-138.4218695400473
 30
0.0
 10
105.6597004944184
 20
-138.4218695400473
 30
0.0
 10
105.8037054857019
 20
-138.4218695400473
 30
0.0
 10
105.8037054857019
 20
-138.4218695400473
 30
0.0
 10
106.2625922043371
 20
-138.4218695400473
 30
0.0
 10
106.2625922043371
 20
-138.4218695400473
 30
0.0
 10
106.2777506244722
 20
-138.4218695400473
 30
0.0
 10
106.626738797128
 20
-138.4218695400473
 30
0.0
 10
106.7855576989981
 20
-138.411189744043
 30
0.0
 10
106.7831461321584
 20
-138.4640719597416
 30
0.0
 10
106.7769449602849
 20
-138.6249579189028
 30
0.0
 10
106.7769449602849
 20
-138.6757730773102
 30
0.0
 10
106.7769449602849
 20
-138.6757730773102
 30
0.0
 10
106.7769449602849
 20
-139.2827989018112
 30
0.0
 10
106.7769449602849
 20
-139.2827989018112
 30
0.0
 10
106.7769449602849
 20
-139.3019191817544
 30
0.0
 10
106.7876247562892
 20
-139.8731160132088
 30
0.0
 10
106.7876247562892
 20
-139.9852538712537
 30
0.0
 10
106.7876247562892
 20
-140.0422702015346
 30
0.0
 10
106.7876247562892
 20
-140.1439005183495
 30
0.0
 10
106.7049424646432
 20
-140.1904093074003
 30
0.0
  0
POLYLINE
  5
CC
330
BA
100
AcDbEntity
  8
_U+30EC_U+30A4_U+30E4_U+30FC 1
370
     0
100
AcDb2dPolyline
 66
     1
 10
0.0
 20
0.0
 30
0.0
  0
VERTEX
  5
CD
330
CC
100
AcDbEntity
  8
_U+30EC_U+30A4_U+30E4_U+30FC 1
370
     0
100
AcDbVertex
100
AcDb2dVertex
 10
105.9201497131033
 20
-138.6037705816685
 30
0.0
  0
VERTEX
  5
CE
330
CC
100
AcDbEntity
  8
_U+30EC_U+30A4_U+30E4_U+30FC 1
370
     0
100
AcDbVertex
100
AcDb2dVertex
 10
105.4819335673795
 20
-138.6037705816685
 30
0.0
  0
VERTEX
  5
CF
330
CC
100
AcDbEntity
  8
_U+30EC_U+30A4_U+30E4_U+30FC 1
370
     0
100
AcDbVertex
100
AcDb2dVertex
 10
105.4819335673795
 20
-138.9084892773388
 30
0.0
  0
VERTEX
  5
D0
330
CC
100
AcDbEntity
  8
_U+30EC_U+30A4_U+30E4_U+30FC 1
370
     0
100
AcDbVertex
100
AcDb2dVertex
 10
105.9201497131033
 20
-138.9084892773388
 30
0.0
  0
VERTEX
  5
D1
330
CC
100
AcDbEntity
  8
_U+30EC_U+30A4_U+30E4_U+30FC 1
370
     0
100
AcDbVertex
100
AcDb2dVertex
 10
105.9201497131033
 20
-138.6037705816685
 30
0.0
  0
SEQEND
  5
D2
330
CC
100
AcDbEntity
  8
_U+30EC_U+30A4_U+30E4_U+30FC 1
370
     0
  0
POLYLINE
  5
D3
330
BA
100
AcDbEntity
  8
_U+30EC_U+30A4_U+30E4_U+30FC 1
370
     0
100
AcDb2dPolyline
 66
     1
 10
0.0
 20
0.0
 30
0.0
  0
VERTEX
  5
D4
330
D3
100
AcDbEntity
  8
_U+30EC_U+30A4_U+30E4_U+30FC 1
370
     0
100
AcDbVertex
100
AcDb2dVertex
 10
105.9201497131033
 20
-139.0755764083735
 30
0.0
  0
VERTEX
  5
D5
330
D3
100
AcDbEntity
  8
_U+30EC_U+30A4_U+30E4_U+30FC 1
370
     0
100
AcDbVertex
100
AcDb2dVertex
 10
105.4819335673795
 20
-139.0755764083735
 30
0.0
  0
VERTEX
  5
D6
330
D3
100
AcDbEntity
  8
_U+30EC_U+30A4_U+30E4_U+30FC 1
370
     0
100
AcDbVertex
100
AcDb2dVertex
 10
105.4819335673795
 20
-139.3844292186261
 30
0.0
  0
VERTEX
  5
D7
330
D3
100
AcDbEntity
  8
_U+30EC_U+30A4_U+30E4_U+30FC 1
370
     0
100
AcDbVertex
100
AcDb2dVertex
 10
105.9201497131033
 20
-139.3844292186261
 30
0.0
  0
VERTEX
  5
D8
330
D3
100
AcDbEntity
  8
_U+30EC_U+30A4_U+30E4_U+30FC 1
370
     0
100
AcDbVertex
100
AcDb2dVertex
 10
105.9201497131033
 20
-139.0755764083735
 30
0.0
  0
SEQEND
  5
D9
330
D3
100
AcDbEntity
  8
_U+30EC_U+30A4_U+30E4_U+30FC 1
370
     0
  0
POLYLINE
  5
DA
330
BA
100
AcDbEntity
  8
_U+30EC_U+30A4_U+30E4_U+30FC 1
370
     0
100
AcDb2dPolyline
 66
     1
 10
0.0
 20
0.0
 30
0.0
  0
VERTEX
  5
DB
330
DA
100
AcDbEntity
  8
_U+30EC_U+30A4_U+30E4_U+30FC 1
370
     0
100
AcDbVertex
100
AcDb2dVertex
 10
106.5695502120729
 20
-138.6037705816685
 30
0.0
  0
VERTEX
  5
DC
330
DA
100
AcDbEntity
  8
_U+30EC_U+30A4_U+30E4_U+30FC 1
370
     0
100
AcDbVertex
100
AcDb2dVertex
 10
106.1103189838891
 20
-138.6037705816685
 30
0.0
  0
VERTEX
  5
DD
330
DA
100
AcDbEntity
  8
_U+30EC_U+30A4_U+30E4_U+30FC 1
370
     0
100
AcDbVertex
100
AcDb2dVertex
 10
106.1103189838891
 20
-138.9084892773388
 30
0.0
  0
VERTEX
  5
DE
330
DA
100
AcDbEntity
  8
_U+30EC_U+30A4_U+30E4_U+30FC 1
370
     0
100
AcDbVertex
100
AcDb2dVertex
 10
106.5695502120729
 20
-138.9084892773388
 30
0.0
  0
VERTEX
  5
DF
330
DA
100
AcDbEntity
  8
_U+30EC_U+30A4_U+30E4_U+30FC 1
370
     0
100
AcDbVertex
100
AcDb2dVertex
 10
106.5695502120729
 20
-138.6037705816685
 30
0.0
  0
SEQEND
  5
E0
330
DA
100
AcDbEntity
  8
_U+30EC_U+30A4_U+30E4_U+30FC 1
370
     0
  0
POLYLINE
  5
E1
330
BA
100
AcDbEntity
  8
_U+30EC_U+30A4_U+30E4_U+30FC 1
370
     0
100
AcDb2dPolyline
 66
     1
 10
0.0
 20
0.0
 30
0.0
  0
VERTEX
  5
E2
330
E1
100
AcDbEntity
  8
_U+30EC_U+30A4_U+30E4_U+30FC 1
370
     0
100
AcDbVertex
100
AcDb2dVertex
 10
106.5695502120729
 20
-139.0755764083735
 30
0.0
  0
VERTEX
  5
E3
330
E1
100
AcDbEntity
  8
_U+30EC_U+30A4_U+30E4_U+30FC 1
370
     0
100
AcDbVertex
100
AcDb2dVertex
 10
106.1103189838891
 20
-139.0755764083735
 30
0.0
  0
VERTEX
  5
E4
330
E1
100
AcDbEntity
  8
_U+30EC_U+30A4_U+30E4_U+30FC 1
370
     0
100
AcDbVertex
100
AcDb2dVertex
 10
106.1103189838891
 20
-139.3844292186261
 30
0.0
  0
VERTEX
  5
E5
330
E1
100
AcDbEntity
  8
_U+30EC_U+30A4_U+30E4_U+30FC 1
370
     0
100
AcDbVertex
100
AcDb2dVertex
 10
106.5695502120729
 20
-139.3844292186261
 30
0.0
  0
VERTEX
  5
E6
330
E1
100
AcDbEntity
  8
_U+30EC_U+30A4_U+30E4_U+30FC 1
370
     0
100
AcDbVertex
100
AcDb2dVertex
 10
106.5695502120729
 20
-139.0755764083735
 30
0.0
  0
SEQEND
  5
E7
330
E1
100
AcDbEntity
  8
_U+30EC_U+30A4_U+30E4_U+30FC 1
370
     0
  0
HATCH
  5
E8
330
BA
100
AcDbEntity
  8
_U+30EC_U+30A4_U+30E4_U+30FC 1
 62
   179
420
  2234388
100
AcDbHatch
 10
0.0
 20
0.0
 30
0.0
210
0.0
220
0.0
230
1.0
  2
SOLID
 70
     1
 71
     0
 91
        5
 92
        1
 93
        1
 72
     4
 94
        3
 73
     0
 74
     1
 95
       77
 96
       73
 40
0.0
 40
0.0
 40
0.0
 40
0.0
 40
1.0
 40
1.0
 40
1.0
 40
2.0
 40
2.0
 40
2.0
 40
3.0
 40
3.0
 40
3.0
 40
4.0
 40
4.0
 40
4.0
 40
5.0
 40
5.0
 40
5.0
 40
6.0
 40
6.0
 40
6.0
 40
7.0
 40
7.0
 40
7.0
 40
8.0
 40
8.0
 40
8.0
 40
9.0
 40
9.0
 40
9.0
 40
10.0
 40
10.0
 40
10.0
 40
11.0
 40
11.0
 40
11.0
 40
12.0
 40
12.0
 40
12.0
 40
13.0
 40
13.0
 40
13.0
 40
14.0
 40
14.0
 40
14.0
 40
15.0
 40
15.0
 40
15.0
 40
16.0
 40
16.0
 40
16.0
 40
17.0
 40
17.0
 40
17.0
 40
18.0
 40
18.0
 40
18.0
 40
19.0
 40
19.0
 40
19.0
 40
20.0
 40
20.0
 40
20.0
 40
21.0
 40
21.0
 40
21.0
 40
22.0
 40
22.0
 40
22.0
 40
23.0
 40
23.0
 40
23.0
 40
24.0
 40
24.0
 40
24.0
 40
24.0
 10
106.7049424646432
 20
-140.1904093074003
 10
106.6584336755923
 20
-140.2157307592169
 10
106.5333767094778
 20
-140.2284776125123
 10
106.4555175515111
 20
-140.2284776125123
 10
106.4424261886672
 20
-140.2284776125123
 10
106.4172769916248
 20
-140.2284776125123
 10
106.3831705463209
 20
-140.2241712431558
 10
106.3831705463209
 20
-140.2241712431558
 10
106.2860188536368
 20
-139.9978284697748
 10
106.2860188536368
 20
-139.9978284697748
 10
106.31564667481
 20
-140.0042018964226
 10
106.3728352598651
 20
-140.0126423803614
 10
106.4892794872666
 20
-140.0126423803614
 10
106.5674831547817
 20
-140.0126423803614
 10
106.5695502120729
 20
-139.9704399606671
 10
106.5695502120729
 20
-139.913251375612
 10
106.5695502120729
 20
-139.913251375612
 10
106.5695502120729
 20
-139.5642632029562
 10
106.5695502120729
 20
-139.5642632029562
 10
106.5695502120729
 20
-139.5642632029562
 10
106.1103189838891
 20
-139.5642632029562
 10
106.1103189838891
 20
-139.5642632029562
 10
106.1123860411802
 20
-139.7017225128176
 10
106.1147976080199
 20
-139.9005045223165
 10
106.1209987798934
 20
-140.0338297175957
 10
106.123410346733
 20
-140.0613904814777
 10
106.123410346733
 20
-140.1058322132374
 10
106.1358126904799
 20
-140.1671549128749
 10
106.1358126904799
 20
-140.1671549128749
 10
105.8946560065124
 20
-140.1671549128749
 10
105.8946560065124
 20
-140.1671549128749
 10
105.9201497131033
 20
-140.0422702015346
 10
105.9201497131033
 20
-139.7017225128176
 10
105.9201497131033
 20
-139.5642632029562
 10
105.9201497131033
 20
-139.5642632029562
 10
105.4779717075715
 20
-139.5642632029562
 10
105.4779717075715
 20
-139.5642632029562
 10
105.454717313046
 20
-139.7714856963939
 10
105.389088244052
 20
-140.0402031442434
 10
105.1923732918443
 20
-140.2241712431558
 10
105.1923732918443
 20
-140.2241712431558
 10
105.0040988235754
 20
-140.1015258438809
 10
105.0040988235754
 20
-140.1015258438809
 10
105.2580023608383
 20
-139.8815564971477
 10
105.2896972393026
 20
-139.5494492923696
 10
105.2896972393026
 20
-139.2173420875915
 10
105.2896972393026
 20
-139.2173420875915
 10
105.2896972393026
 20
-138.7815375087074
 10
105.2896972393026
 20
-138.7815375087074
 10
105.2896972393026
 20
-138.7455362608866
 10
105.2876301820114
 20
-138.5128200608579
 10
105.2790174432983
 20
-138.411189744043
 10
105.4187160652252
 20
-138.4218695400473
 10
105.6597004944184
 20
-138.4218695400473
 10
105.8037054857019
 20
-138.4218695400473
 10
105.8037054857019
 20
-138.4218695400473
 10
106.2625922043371
 20
-138.4218695400473
 10
106.2625922043371
 20
-138.4218695400473
 10
106.2777506244722
 20
-138.4218695400473
 10
106.626738797128
 20
-138.4218695400473
 10
106.7855576989981
 20
-138.411189744043
 10
106.7831461321584
 20
-138.4640719597416
 10
106.7769449602849
 20
-138.6249579189028
 10
106.7769449602849
 20
-138.6757730773102
 10
106.7769449602849
 20
-138.6757730773102
 10
106.7769449602849
 20
-139.2827989018112
 10
106.7769449602849
 20
-139.2827989018112
 10
106.7769449602849
 20
-139.3019191817544
 10
106.7876247562892
 20
-139.8731160132088
 10
106.7876247562892
 20
-139.9852538712537
 10
106.7876247562892
 20
-140.0422702015346
 10
106.7876247562892
 20
-140.1439005183495
 10
106.7049424646432
 20
-140.1904093074003
 97
        0
 97
        0
 92
        1
 93
        4
 72
     1
 10
105.9201497131033
 20
-138.6037705816685
 11
105.4819335673795
 21
-138.6037705816685
 72
     1
 10
105.4819335673795
 20
-138.6037705816685
 11
105.4819335673795
 21
-138.9084892773388
 72
     1
 10
105.4819335673795
 20
-138.9084892773388
 11
105.9201497131033
 21
-138.9084892773388
 72
     1
 10
105.9201497131033
 20
-138.9084892773388
 11
105.9201497131033
 21
-138.6037705816685
 97
        0
 92
        1
 93
        4
 72
     1
 10
105.9201497131033
 20
-139.0755764083735
 11
105.4819335673795
 21
-139.0755764083735
 72
     1
 10
105.4819335673795
 20
-139.0755764083735
 11
105.4819335673795
 21
-139.3844292186261
 72
     1
 10
105.4819335673795
 20
-139.3844292186261
 11
105.9201497131033
 21
-139.3844292186261
 72
     1
 10
105.9201497131033
 20
-139.3844292186261
 11
105.9201497131033
 21
-139.0755764083735
 97
        0
 92
        1
 93
        4
 72
     1
 10
106.5695502120729
 20
-138.6037705816685
 11
106.1103189838891
 21
-138.6037705816685
 72
     1
 10
106.1103189838891
 20
-138.6037705816685
 11
106.1103189838891
 21
-138.9084892773388
 72
     1
 10
106.1103189838891
 20
-138.9084892773388
 11
106.5695502120729
 21
-138.9084892773388
 72
     1
 10
106.5695502120729
 20
-138.9084892773388
 11
106.5695502120729
 21
-138.6037705816685
 97
        0
 92
        1
 93
        4
 72
     1
 10
106.5695502120729
 20
-139.0755764083735
 11
106.1103189838891
 21
-139.0755764083735
 72
     1
 10
106.1103189838891
 20
-139.0755764083735
 11
106.1103189838891
 21
-139.3844292186261
 72
     1
 10
106.1103189838891
 20
-139.3844292186261
 11
106.5695502120729
 21
-139.3844292186261
 72
     1
 10
106.5695502120729
 20
-139.3844292186261
 11
106.5695502120729
 21
-139.0755764083735
 97
        0
 75
     2
 76
     1
 98
        0
  0
SPLINE
  5
E9
330
BA
100
AcDbEntity
  8
_U+30EC_U+30A4_U+30E4_U+30FC 1
370
     0
100
AcDbSpline
210
0.0
220
0.0
230
1.0
 70
    11
 71
     3
 72
    44
 73
    40
 74
     0
 42
0.0000000001
 43
0.0000000001
 12
1.0
 22
0.0
 32
0.0
 13
1.0
 23
0.0
 33
0.0
 40
0.0
 40
0.0
 40
0.0
 40
0.0
 40
1.0
 40
1.0
 40
1.0
 40
2.0
 40
2.0
 40
2.0
 40
3.0
 40
3.0
 40
3.0
 40
4.0
 40
4.0
 40
4.0
 40
5.0
 40
5.0
 40
5.0
 40
6.0
 40
6.0
 40
6.0
 40
7.0
 40
7.0
 40
7.0
 40
8.0
 40
8.0
 40
8.0
 40
9.0
 40
9.0
 40
9.0
 40
10.0
 40
10.0
 40
10.0
 40
11.0
 40
11.0
 40
11.0
 40
12.0
 40
12.0
 40
12.0
 40
13.0
 40
13.0
 40
13.0
 40
13.0
 10
108.5825195041044
 20
-138.9401841558032
 30
0.0
 10
108.4702093912852
 20
-139.3082926084021
 30
0.0
 10
108.4195664876521
 20
-139.4669392554979
 30
0.0
 10
108.2228515354443
 20
-139.7165364234042
 30
0.0
 10
108.0388834365319
 20
-139.9471855661417
 30
0.0
 10
107.8018608671468
 20
-140.1332207223452
 30
0.0
 10
107.5228081328415
 20
-140.2264105552212
 30
0.0
 10
107.5228081328415
 20
-140.2264105552212
 30
0.0
 10
107.3298827856675
 20
-140.0465765708911
 30
0.0
 10
107.3298827856675
 20
-140.0465765708911
 30
0.0
 10
107.9713595650211
 20
-139.8943033504431
 30
0.0
 10
108.3010552029595
 20
-139.3379204295752
 30
0.0
 10
108.3647894694366
 20
-138.8978094813346
 30
0.0
 10
108.3647894694366
 20
-138.8978094813346
 30
0.0
 10
107.598600233517
 20
-138.8978094813346
 30
0.0
 10
107.598600233517
 20
-138.8978094813346
 30
0.0
 10
107.5055826554153
 20
-138.8978094813346
 30
0.0
 10
107.3216145565029
 20
-138.9021158506911
 30
0.0
 10
107.1652072214726
 20
-138.92106387586
 30
0.0
 10
107.1652072214726
 20
-138.92106387586
 30
0.0
 10
107.1652072214726
 20
-138.7010945291268
 30
0.0
 10
107.1652072214726
 20
-138.7010945291268
 30
0.0
 10
107.2520236277009
 20
-138.7222818663611
 30
0.0
 10
107.5035155981241
 20
-138.7222818663611
 30
0.0
 10
107.6030788576478
 20
-138.7222818663611
 30
0.0
 10
107.6030788576478
 20
-138.7222818663611
 30
0.0
 10
108.0347493219496
 20
-138.7222818663611
 30
0.0
 10
108.0347493219496
 20
-138.7222818663611
 30
0.0
 10
108.0767794868697
 20
-138.7222818663611
 30
0.0
 10
108.3117349989637
 20
-138.7200425542957
 30
0.0
 10
108.3496310493015
 20
-138.7138413824222
 30
0.0
 10
108.3923502333186
 20
-138.7074679557745
 30
0.0
 10
108.3944172906097
 20
-138.7052286437091
 30
0.0
 10
108.4557399902472
 20
-138.665093281306
 30
0.0
 10
108.4557399902472
 20
-138.665093281306
 30
0.0
 10
108.6438422037418
 20
-138.8196058138194
 30
0.0
 10
108.6438422037418
 20
-138.8196058138194
 30
0.0
 10
108.6142143825687
 20
-138.8492336349926
 30
0.0
 10
108.5994004719821
 20
-138.8809285134569
 30
0.0
 10
108.5825195041044
 20
-138.9401841558032
 30
0.0
  0
SPLINE
  5
EA
330
BA
100
AcDbEntity
  8
_U+30EC_U+30A4_U+30E4_U+30FC 1
370
     0
100
AcDbSpline
210
0.0
220
0.0
230
1.0
 70
    11
 71
     3
 72
    17
 73
    13
 74
     0
 42
0.0000000001
 43
0.0000000001
 12
1.0
 22
0.0
 32
0.0
 13
1.0
 23
0.0
 33
0.0
 40
0.0
 40
0.0
 40
0.0
 40
0.0
 40
1.0
 40
1.0
 40
1.0
 40
2.0
 40
2.0
 40
2.0
 40
3.0
 40
3.0
 40
3.0
 40
4.0
 40
4.0
 40
4.0
 40
4.0
 10
108.7919813096076
 20
-138.74122989153
 30
0.0
 10
108.6652017957504
 20
-138.74122989153
 30
0.0
 10
108.563226969387
 20
-138.6397718294894
 30
0.0
 10
108.563226969387
 20
-138.5128200608579
 30
0.0
 10
108.563226969387
 20
-138.3858682922265
 30
0.0
 10
108.6652017957504
 20
-138.2821709181204
 30
0.0
 10
108.7919813096076
 20
-138.2821709181204
 30
0.0
 10
108.9187608234648
 20
-138.2821709181204
 30
0.0
 10
109.0224581975708
 20
-138.3858682922265
 30
0.0
 10
109.0224581975708
 20
-138.5128200608579
 30
0.0
 10
109.0224581975708
 20
-138.6397718294894
 30
0.0
 10
108.9187608234648
 20
-138.74122989153
 30
0.0
 10
108.7919813096076
 20
-138.74122989153
 30
0.0
  0
SPLINE
  5
EB
330
BA
100
AcDbEntity
  8
_U+30EC_U+30A4_U+30E4_U+30FC 1
370
     0
100
AcDbSpline
210
0.0
220
0.0
230
1.0
 70
    11
 71
     3
 72
    17
 73
    13
 74
     0
 42
0.0000000001
 43
0.0000000001
 12
1.0
 22
0.0
 32
0.0
 13
1.0
 23
0.0
 33
0.0
 40
0.0
 40
0.0
 40
0.0
 40
0.0
 40
1.0
 40
1.0
 40
1.0
 40
2.0
 40
2.0
 40
2.0
 40
3.0
 40
3.0
 40
3.0
 40
4.0
 40
4.0
 40
4.0
 40
4.0
 10
108.7899142523164
 20
-138.411189744043
 30
0.0
 10
108.7347927245524
 20
-138.411189744043
 30
0.0
 10
108.6903509927927
 20
-138.4556314758028
 30
0.0
 10
108.6903509927927
 20
-138.5107530035668
 30
0.0
 10
108.6903509927927
 20
-138.5677693338477
 30
0.0
 10
108.7347927245524
 20
-138.6165174349639
 30
0.0
 10
108.7940483668987
 20
-138.6165174349639
 30
0.0
 10
108.853304009245
 20
-138.6165174349639
 30
0.0
 10
108.8932671168739
 20
-138.5657022765565
 30
0.0
 10
108.8932671168739
 20
-138.5128200608579
 30
0.0
 10
108.8932671168739
 20
-138.4556314758028
 30
0.0
 10
108.8471028373716
 20
-138.411189744043
 30
0.0
 10
108.7899142523164
 20
-138.411189744043
 30
0.0
  0
HATCH
  5
EC
330
BA
100
AcDbEntity
  8
_U+30EC_U+30A4_U+30E4_U+30FC 1
 62
   179
420
  2234388
100
AcDbHatch
 10
0.0
 20
0.0
 30
0.0
210
0.0
220
0.0
230
1.0
  2
SOLID
 70
     1
 71
     0
 91
        3
 92
        1
 93
        1
 72
     4
 94
        3
 73
     0
 74
     1
 95
       44
 96
       40
 40
0.0
 40
0.0
 40
0.0
 40
0.0
 40
1.0
 40
1.0
 40
1.0
 40
2.0
 40
2.0
 40
2.0
 40
3.0
 40
3.0
 40
3.0
 40
4.0
 40
4.0
 40
4.0
 40
5.0
 40
5.0
 40
5.0
 40
6.0
 40
6.0
 40
6.0
 40
7.0
 40
7.0
 40
7.0
 40
8.0
 40
8.0
 40
8.0
 40
9.0
 40
9.0
 40
9.0
 40
10.0
 40
10.0
 40
10.0
 40
11.0
 40
11.0
 40
11.0
 40
12.0
 40
12.0
 40
12.0
 40
13.0
 40
13.0
 40
13.0
 40
13.0
 10
108.5825195041044
 20
-138.9401841558032
 10
108.4702093912852
 20
-139.3082926084021
 10
108.4195664876521
 20
-139.4669392554979
 10
108.2228515354443
 20
-139.7165364234042
 10
108.0388834365319
 20
-139.9471855661417
 10
107.8018608671468
 20
-140.1332207223452
 10
107.5228081328415
 20
-140.2264105552212
 10
107.5228081328415
 20
-140.2264105552212
 10
107.3298827856675
 20
-140.0465765708911
 10
107.3298827856675
 20
-140.0465765708911
 10
107.9713595650211
 20
-139.8943033504431
 10
108.3010552029595
 20
-139.3379204295752
 10
108.3647894694366
 20
-138.8978094813346
 10
108.3647894694366
 20
-138.8978094813346
 10
107.598600233517
 20
-138.8978094813346
 10
107.598600233517
 20
-138.8978094813346
 10
107.5055826554153
 20
-138.8978094813346
 10
107.3216145565029
 20
-138.9021158506911
 10
107.1652072214726
 20
-138.92106387586
 10
107.1652072214726
 20
-138.92106387586
 10
107.1652072214726
 20
-138.7010945291268
 10
107.1652072214726
 20
-138.7010945291268
 10
107.2520236277009
 20
-138.7222818663611
 10
107.5035155981241
 20
-138.7222818663611
 10
107.6030788576478
 20
-138.7222818663611
 10
107.6030788576478
 20
-138.7222818663611
 10
108.0347493219496
 20
-138.7222818663611
 10
108.0347493219496
 20
-138.7222818663611
 10
108.0767794868697
 20
-138.7222818663611
 10
108.3117349989637
 20
-138.7200425542957
 10
108.3496310493015
 20
-138.7138413824222
 10
108.3923502333186
 20
-138.7074679557745
 10
108.3944172906097
 20
-138.7052286437091
 10
108.4557399902472
 20
-138.665093281306
 10
108.4557399902472
 20
-138.665093281306
 10
108.6438422037418
 20
-138.8196058138194
 10
108.6438422037418
 20
-138.8196058138194
 10
108.6142143825687
 20
-138.8492336349926
 10
108.5994004719821
 20
-138.8809285134569
 10
108.5825195041044
 20
-138.9401841558032
 97
        0
 97
        0
 92
        1
 93
        1
 72
     4
 94
        3
 73
     0
 74
     1
 95
       17
 96
       13
 40
0.0
 40
0.0
 40
0.0
 40
0.0
 40
1.0
 40
1.0
 40
1.0
 40
2.0
 40
2.0
 40
2.0
 40
3.0
 40
3.0
 40
3.0
 40
4.0
 40
4.0
 40
4.0
 40
4.0
 10
108.7919813096076
 20
-138.74122989153
 10
108.6652017957504
 20
-138.74122989153
 10
108.563226969387
 20
-138.6397718294894
 10
108.563226969387
 20
-138.5128200608579
 10
108.563226969387
 20
-138.3858682922265
 10
108.6652017957504
 20
-138.2821709181204
 10
108.7919813096076
 20
-138.2821709181204
 10
108.9187608234648
 20
-138.2821709181204
 10
109.0224581975708
 20
-138.3858682922265
 10
109.0224581975708
 20
-138.5128200608579
 10
109.0224581975708
 20
-138.6397718294894
 10
108.9187608234648
 20
-138.74122989153
 10
108.7919813096076
 20
-138.74122989153
 97
        0
 97
        0
 92
        1
 93
        1
 72
     4
 94
        3
 73
     0
 74
     1
 95
       17
 96
       13
 40
0.0
 40
0.0
 40
0.0
 40
0.0
 40
1.0
 40
1.0
 40
1.0
 40
2.0
 40
2.0
 40
2.0
 40
3.0
 40
3.0
 40
3.0
 40
4.0
 40
4.0
 40
4.0
 40
4.0
 10
108.7899142523164
 20
-138.411189744043
 10
108.7347927245524
 20
-138.411189744043
 10
108.6903509927927
 20
-138.4556314758028
 10
108.6903509927927
 20
-138.5107530035668
 10
108.6903509927927
 20
-138.5677693338477
 10
108.7347927245524
 20
-138.6165174349639
 10
108.7940483668987
 20
-138.6165174349639
 10
108.853304009245
 20
-138.6165174349639
 10
108.8932671168739
 20
-138.5657022765565
 10
108.8932671168739
 20
-138.5128200608579
 10
108.8932671168739
 20
-138.4556314758028
 10
108.8471028373716
 20
-138.411189744043
 10
108.7899142523164
 20
-138.411189744043
 97
        0
 97
        0
 75
     2
 76
     1
 98
        0
  0
SPLINE
  5
ED
330
BA
100
AcDbEntity
  8
_U+30EC_U+30A4_U+30E4_U+30FC 1
370
     0
100
AcDbSpline
210
0.0
220
0.0
230
1.0
 70
    11
 71
     3
 72
    50
 73
    46
 74
     0
 42
0.0000000001
 43
0.0000000001
 12
1.0
 22
0.0
 32
0.0
 13
1.0
 23
0.0
 33
0.0
 40
0.0
 40
0.0
 40
0.0
 40
0.0
 40
1.0
 40
1.0
 40
1.0
 40
2.0
 40
2.0
 40
2.0
 40
3.0
 40
3.0
 40
3.0
 40
4.0
 40
4.0
 40
4.0
 40
5.0
 40
5.0
 40
5.0
 40
6.0
 40
6.0
 40
6.0
 40
7.0
 40
7.0
 40
7.0
 40
8.0
 40
8.0
 40
8.0
 40
9.0
 40
9.0
 40
9.0
 40
10.0
 40
10.0
 40
10.0
 40
11.0
 40
11.0
 40
11.0
 40
12.0
 40
12.0
 40
12.0
 40
13.0
 40
13.0
 40
13.0
 40
14.0
 40
14.0
 40
14.0
 40
15.0
 40
15.0
 40
15.0
 40
15.0
 10
110.5868760574227
 20
-139.2490369660558
 30
0.0
 10
110.5086723899076
 20
-139.4266316383204
 30
0.0
 10
110.3732801373372
 20
-139.6340263865325
 30
0.0
 10
110.2358208274758
 20
-139.7737250084594
 30
0.0
 10
110.06666663915
 20
-139.9449462540763
 30
0.0
 10
109.9033691131492
 20
-140.0338297175957
 30
0.0
 10
109.584353271215
 20
-140.1755953968137
 30
0.0
 10
109.584353271215
 20
-140.1755953968137
 30
0.0
 10
109.4148545733407
 20
-139.9873209285448
 30
0.0
 10
109.4148545733407
 20
-139.9873209285448
 30
0.0
 10
109.6008897295442
 20
-139.9640665340194
 30
0.0
 10
109.7724554847097
 20
-139.8772501277911
 30
0.0
 10
109.9247287051577
 20
-139.7714856963939
 30
0.0
 10
110.1872449811337
 20
-139.5895846547728
 30
0.0
 10
110.3774142519195
 20
-139.2764254751635
 30
0.0
 10
110.4263346078101
 20
-139.0945244335423
 30
0.0
 10
110.4263346078101
 20
-139.0945244335423
 30
0.0
 10
109.7555745168319
 20
-139.0945244335423
 30
0.0
 10
109.7555745168319
 20
-139.0945244335423
 30
0.0
 10
109.5967556149619
 20
-139.0945244335423
 30
0.0
 10
109.3049560273613
 20
-139.1029649174812
 30
0.0
 10
109.1526828069132
 20
-139.1200181401332
 30
0.0
 10
109.1526828069132
 20
-139.1200181401332
 30
0.0
 10
109.1526828069132
 20
-138.8914360546869
 30
0.0
 10
109.1526828069132
 20
-138.8914360546869
 30
0.0
 10
109.1864447426687
 20
-138.8978094813346
 30
0.0
 10
109.211593939711
 20
-138.9041829079823
 30
0.0
 10
109.2646484101838
 20
-138.9084892773388
 30
0.0
 10
109.3662787269987
 20
-138.9146904492123
 30
0.0
 10
109.5629936792065
 20
-138.9169297612777
 30
0.0
 10
109.6477430281436
 20
-138.9169297612777
 30
0.0
 10
109.6477430281436
 20
-138.9169297612777
 30
0.0
 10
110.1534830453783
 20
-138.9169297612777
 30
0.0
 10
110.1534830453783
 20
-138.9169297612777
 30
0.0
 10
110.2210069168892
 20
-138.9169297612777
 30
0.0
 10
110.3670789654638
 20
-138.9126233919212
 30
0.0
 10
110.4284016651012
 20
-138.9062499652734
 30
0.0
 10
110.5000596511944
 20
-138.8978094813346
 30
0.0
 10
110.5276204150764
 20
-138.882995570748
 30
0.0
 10
110.5613823508319
 20
-138.8597411762226
 30
0.0
 10
110.5613823508319
 20
-138.8597411762226
 30
0.0
 10
110.7267469341239
 20
-139.0268283072572
 30
0.0
 10
110.7267469341239
 20
-139.0268283072572
 30
0.0
 10
110.6568114957733
 20
-139.0945244335423
 30
0.0
 10
110.6103027067224
 20
-139.1982218076484
 30
0.0
 10
110.5868760574227
 20
-139.2490369660558
 30
0.0
  0
SPLINE
  5
EE
330
BA
100
AcDbEntity
  8
_U+30EC_U+30A4_U+30E4_U+30FC 1
370
     0
100
AcDbSpline
210
0.0
220
0.0
230
1.0
 70
    11
 71
     3
 72
    29
 73
    25
 74
     0
 42
0.0000000001
 43
0.0000000001
 12
1.0
 22
0.0
 32
0.0
 13
1.0
 23
0.0
 33
0.0
 40
0.0
 40
0.0
 40
0.0
 40
0.0
 40
1.0
 40
1.0
 40
1.0
 40
2.0
 40
2.0
 40
2.0
 40
3.0
 40
3.0
 40
3.0
 40
4.0
 40
4.0
 40
4.0
 40
5.0
 40
5.0
 40
5.0
 40
6.0
 40
6.0
 40
6.0
 40
7.0
 40
7.0
 40
7.0
 40
8.0
 40
8.0
 40
8.0
 40
8.0
 10
110.094227403032
 20
-138.6228908616116
 30
0.0
 10
110.094227403032
 20
-138.6228908616116
 30
0.0
 10
109.7531629499923
 20
-138.6228908616116
 30
0.0
 10
109.7531629499923
 20
-138.6228908616116
 30
0.0
 10
109.6391302894305
 20
-138.6228908616116
 30
0.0
 10
109.5230305715776
 20
-138.627024976194
 30
0.0
 10
109.4086534014673
 20
-138.6418388867805
 30
0.0
 10
109.4086534014673
 20
-138.6418388867805
 30
0.0
 10
109.4086534014673
 20
-138.4323770812773
 30
0.0
 10
109.4086534014673
 20
-138.4323770812773
 30
0.0
 10
109.5271646861599
 20
-138.4471909918639
 30
0.0
 10
109.7004529890679
 20
-138.4514973612205
 30
0.0
 10
109.7531629499923
 20
-138.4514973612205
 30
0.0
 10
109.7531629499923
 20
-138.4514973612205
 30
0.0
 10
110.094227403032
 20
-138.4514973612205
 30
0.0
 10
110.094227403032
 20
-138.4514973612205
 30
0.0
 10
110.2103271208849
 20
-138.4514973612205
 30
0.0
 10
110.3267713482864
 20
-138.4471909918639
 30
0.0
 10
110.4428710661393
 20
-138.4323770812773
 30
0.0
 10
110.4428710661393
 20
-138.4323770812773
 30
0.0
 10
110.4428710661393
 20
-138.6418388867805
 30
0.0
 10
110.4428710661393
 20
-138.6418388867805
 30
0.0
 10
110.2926649029824
 20
-138.6228908616116
 30
0.0
 10
110.10869680407
 20
-138.6228908616116
 30
0.0
 10
110.094227403032
 20
-138.6228908616116
 30
0.0
  0
HATCH
  5
EF
330
BA
100
AcDbEntity
  8
_U+30EC_U+30A4_U+30E4_U+30FC 1
 62
   179
420
  2234388
100
AcDbHatch
 10
0.0
 20
0.0
 30
0.0
210
0.0
220
0.0
230
1.0
  2
SOLID
 70
     1
 71
     0
 91
        2
 92
        1
 93
        1
 72
     4
 94
        3
 73
     0
 74
     1
 95
       50
 96
       46
 40
0.0
 40
0.0
 40
0.0
 40
0.0
 40
1.0
 40
1.0
 40
1.0
 40
2.0
 40
2.0
 40
2.0
 40
3.0
 40
3.0
 40
3.0
 40
4.0
 40
4.0
 40
4.0
 40
5.0
 40
5.0
 40
5.0
 40
6.0
 40
6.0
 40
6.0
 40
7.0
 40
7.0
 40
7.0
 40
8.0
 40
8.0
 40
8.0
 40
9.0
 40
9.0
 40
9.0
 40
10.0
 40
10.0
 40
10.0
 40
11.0
 40
11.0
 40
11.0
 40
12.0
 40
12.0
 40
12.0
 40
13.0
 40
13.0
 40
13.0
 40
14.0
 40
14.0
 40
14.0
 40
15.0
 40
15.0
 40
15.0
 40
15.0
 10
110.5868760574227
 20
-139.2490369660558
 10
110.5086723899076
 20
-139.4266316383204
 10
110.3732801373372
 20
-139.6340263865325
 10
110.2358208274758
 20
-139.7737250084594
 10
110.06666663915
 20
-139.9449462540763
 10
109.9033691131492
 20
-140.0338297175957
 10
109.584353271215
 20
-140.1755953968137
 10
109.584353271215
 20
-140.1755953968137
 10
109.4148545733407
 20
-139.9873209285448
 10
109.4148545733407
 20
-139.9873209285448
 10
109.6008897295442
 20
-139.9640665340194
 10
109.7724554847097
 20
-139.8772501277911
 10
109.9247287051577
 20
-139.7714856963939
 10
110.1872449811337
 20
-139.5895846547728
 10
110.3774142519195
 20
-139.2764254751635
 10
110.4263346078101
 20
-139.0945244335423
 10
110.4263346078101
 20
-139.0945244335423
 10
109.7555745168319
 20
-139.0945244335423
 10
109.7555745168319
 20
-139.0945244335423
 10
109.5967556149619
 20
-139.0945244335423
 10
109.3049560273613
 20
-139.1029649174812
 10
109.1526828069132
 20
-139.1200181401332
 10
109.1526828069132
 20
-139.1200181401332
 10
109.1526828069132
 20
-138.8914360546869
 10
109.1526828069132
 20
-138.8914360546869
 10
109.1864447426687
 20
-138.8978094813346
 10
109.211593939711
 20
-138.9041829079823
 10
109.2646484101838
 20
-138.9084892773388
 10
109.3662787269987
 20
-138.9146904492123
 10
109.5629936792065
 20
-138.9169297612777
 10
109.6477430281436
 20
-138.9169297612777
 10
109.6477430281436
 20
-138.9169297612777
 10
110.1534830453783
 20
-138.9169297612777
 10
110.1534830453783
 20
-138.9169297612777
 10
110.2210069168892
 20
-138.9169297612777
 10
110.3670789654638
 20
-138.9126233919212
 10
110.4284016651012
 20
-138.9062499652734
 10
110.5000596511944
 20
-138.8978094813346
 10
110.5276204150764
 20
-138.882995570748
 10
110.5613823508319
 20
-138.8597411762226
 10
110.5613823508319
 20
-138.8597411762226
 10
110.7267469341239
 20
-139.0268283072572
 10
110.7267469341239
 20
-139.0268283072572
 10
110.6568114957733
 20
-139.0945244335423
 10
110.6103027067224
 20
-139.1982218076484
 10
110.5868760574227
 20
-139.2490369660558
 97
        0
 97
        0
 92
        1
 93
        1
 72
     4
 94
        3
 73
     0
 74
     1
 95
       29
 96
       25
 40
0.0
 40
0.0
 40
0.0
 40
0.0
 40
1.0
 40
1.0
 40
1.0
 40
2.0
 40
2.0
 40
2.0
 40
3.0
 40
3.0
 40
3.0
 40
4.0
 40
4.0
 40
4.0
 40
5.0
 40
5.0
 40
5.0
 40
6.0
 40
6.0
 40
6.0
 40
7.0
 40
7.0
 40
7.0
 40
8.0
 40
8.0
 40
8.0
 40
8.0
 10
110.094227403032
 20
-138.6228908616116
 10
110.094227403032
 20
-138.6228908616116
 10
109.7531629499923
 20
-138.6228908616116
 10
109.7531629499923
 20
-138.6228908616116
 10
109.6391302894305
 20
-138.6228908616116
 10
109.5230305715776
 20
-138.627024976194
 10
109.4086534014673
 20
-138.6418388867805
 10
109.4086534014673
 20
-138.6418388867805
 10
109.4086534014673
 20
-138.4323770812773
 10
109.4086534014673
 20
-138.4323770812773
 10
109.5271646861599
 20
-138.4471909918639
 10
109.7004529890679
 20
-138.4514973612205
 10
109.7531629499923
 20
-138.4514973612205
 10
109.7531629499923
 20
-138.4514973612205
 10
110.094227403032
 20
-138.4514973612205
 10
110.094227403032
 20
-138.4514973612205
 10
110.2103271208849
 20
-138.4514973612205
 10
110.3267713482864
 20
-138.4471909918639
 10
110.4428710661393
 20
-138.4323770812773
 10
110.4428710661393
 20
-138.4323770812773
 10
110.4428710661393
 20
-138.6418388867805
 10
110.4428710661393
 20
-138.6418388867805
 10
110.2926649029824
 20
-138.6228908616116
 10
110.10869680407
 20
-138.6228908616116
 10
110.094227403032
 20
-138.6228908616116
 97
        0
 97
        0
 75
     2
 76
     1
 98
        0
  0
SPLINE
  5
F0
330
BA
100
AcDbEntity
  8
_U+30EC_U+30A4_U+30E4_U+30FC 1
370
     0
100
AcDbSpline
210
0.0
220
0.0
230
1.0
 70
    11
 71
     3
 72
    50
 73
    46
 74
     0
 42
0.0000000001
 43
0.0000000001
 12
1.0
 22
0.0
 32
0.0
 13
1.0
 23
0.0
 33
0.0
 40
0.0
 40
0.0
 40
0.0
 40
0.0
 40
1.0
 40
1.0
 40
1.0
 40
2.0
 40
2.0
 40
2.0
 40
3.0
 40
3.0
 40
3.0
 40
4.0
 40
4.0
 40
4.0
 40
5.0
 40
5.0
 40
5.0
 40
6.0
 40
6.0
 40
6.0
 40
7.0
 40
7.0
 40
7.0
 40
8.0
 40
8.0
 40
8.0
 40
9.0
 40
9.0
 40
9.0
 40
10.0
 40
10.0
 40
10.0
 40
11.0
 40
11.0
 40
11.0
 40
12.0
 40
12.0
 40
12.0
 40
13.0
 40
13.0
 40
13.0
 40
14.0
 40
14.0
 40
14.0
 40
15.0
 40
15.0
 40
15.0
 40
15.0
 10
112.2973659658493
 20
-138.6080769510251
 30
0.0
 10
112.0879041603461
 20
-138.8216728711106
 30
0.0
 10
112.0159016647044
 20
-138.8936753667523
 30
0.0
 10
111.8739637307121
 20
-139.0120143966706
 30
0.0
 10
111.8739637307121
 20
-139.0120143966706
 30
0.0
 10
111.8739637307121
 20
-139.5790771135427
 30
0.0
 10
111.8739637307121
 20
-139.5790771135427
 30
0.0
 10
111.8739637307121
 20
-139.7292832766996
 30
0.0
 10
111.880509412134
 20
-139.7482313018685
 30
0.0
 10
111.8849880362649
 20
-139.9259982289074
 30
0.0
 10
111.887055093556
 20
-140.0570841121211
 30
0.0
 10
111.8932562654295
 20
-140.1058322132374
 30
0.0
 10
111.8994574373029
 20
-140.1650878555837
 30
0.0
 10
111.8994574373029
 20
-140.1650878555837
 30
0.0
 10
111.6734591734705
 20
-140.1650878555837
 30
0.0
 10
111.6734591734705
 20
-140.1650878555837
 30
0.0
 10
111.6775932880528
 20
-140.120646123824
 30
0.0
 10
111.6817274026351
 20
-140.0739650799989
 30
0.0
 10
111.6817274026351
 20
-140.06552459606
 30
0.0
 10
111.6817274026351
 20
-139.9852538712537
 30
0.0
 10
111.6858615172174
 20
-139.6340263865325
 30
0.0
 10
111.6858615172174
 20
-139.5620238908907
 30
0.0
 10
111.6858615172174
 20
-139.5620238908907
 30
0.0
 10
111.6858615172174
 20
-139.1558471331798
 30
0.0
 10
111.6858615172174
 20
-139.1558471331798
 30
0.0
 10
111.5039604755962
 20
-139.2807318445201
 30
0.0
 10
111.3093125806796
 20
-139.3908026452738
 30
0.0
 10
111.1063964565984
 20
-139.4774467967279
 30
0.0
 10
111.1063964565984
 20
-139.4774467967279
 30
0.0
 10
110.9031358229687
 20
-139.3146660350498
 30
0.0
 10
110.9031358229687
 20
-139.3146660350498
 30
0.0
 10
111.0257812222436
 20
-139.278664787229
 30
0.0
 10
111.2820963263461
 20
-139.2045952342961
 30
0.0
 10
111.6266058748711
 20
-138.948624639742
 30
0.0
 10
111.8422688522478
 20
-138.7899779926463
 30
0.0
 10
112.0351941994218
 20
-138.6017035243774
 30
0.0
 10
112.1874674198698
 20
-138.3815619228699
 30
0.0
 10
112.1874674198698
 20
-138.3815619228699
 30
0.0
 10
112.3797037479467
 20
-138.5255669141533
 30
0.0
 10
112.3797037479467
 20
-138.5255669141533
 30
0.0
 10
112.3924506012422
 20
-138.5360744553834
 30
0.0
 10
112.4010633399553
 20
-138.5508883659699
 30
0.0
 10
112.4010633399553
 20
-138.5636352192653
 30
0.0
 10
112.4010633399553
 20
-138.6037705816685
 30
0.0
 10
112.362822780069
 20
-138.6037705816685
 30
0.0
 10
112.2973659658493
 20
-138.6080769510251
 30
0.0
  0
HATCH
  5
F1
330
BA
100
AcDbEntity
  8
_U+30EC_U+30A4_U+30E4_U+30FC 1
 62
   179
420
  2234388
100
AcDbHatch
 10
0.0
 20
0.0
 30
0.0
210
0.0
220
0.0
230
1.0
  2
SOLID
 70
     1
 71
     0
 91
        1
 92
        1
 93
        1
 72
     4
 94
        3
 73
     0
 74
     1
 95
       50
 96
       46
 40
0.0
 40
0.0
 40
0.0
 40
0.0
 40
1.0
 40
1.0
 40
1.0
 40
2.0
 40
2.0
 40
2.0
 40
3.0
 40
3.0
 40
3.0
 40
4.0
 40
4.0
 40
4.0
 40
5.0
 40
5.0
 40
5.0
 40
6.0
 40
6.0
 40
6.0
 40
7.0
 40
7.0
 40
7.0
 40
8.0
 40
8.0
 40
8.0
 40
9.0
 40
9.0
 40
9.0
 40
10.0
 40
10.0
 40
10.0
 40
11.0
 40
11.0
 40
11.0
 40
12.0
 40
12.0
 40
12.0
 40
13.0
 40
13.0
 40
13.0
 40
14.0
 40
14.0
 40
14.0
 40
15.0
 40
15.0
 40
15.0
 40
15.0
 10
112.2973659658493
 20
-138.6080769510251
 10
112.0879041603461
 20
-138.8216728711106
 10
112.0159016647044
 20
-138.8936753667523
 10
111.8739637307121
 20
-139.0120143966706
 10
111.8739637307121
 20
-139.0120143966706
 10
111.8739637307121
 20
-139.5790771135427
 10
111.8739637307121
 20
-139.5790771135427
 10
111.8739637307121
 20
-139.7292832766996
 10
111.880509412134
 20
-139.7482313018685
 10
111.8849880362649
 20
-139.9259982289074
 10
111.887055093556
 20
-140.0570841121211
 10
111.8932562654295
 20
-140.1058322132374
 10
111.8994574373029
 20
-140.1650878555837
 10
111.8994574373029
 20
-140.1650878555837
 10
111.6734591734705
 20
-140.1650878555837
 10
111.6734591734705
 20
-140.1650878555837
 10
111.6775932880528
 20
-140.120646123824
 10
111.6817274026351
 20
-140.0739650799989
 10
111.6817274026351
 20
-140.06552459606
 10
111.6817274026351
 20
-139.9852538712537
 10
111.6858615172174
 20
-139.6340263865325
 10
111.6858615172174
 20
-139.5620238908907
 10
111.6858615172174
 20
-139.5620238908907
 10
111.6858615172174
 20
-139.1558471331798
 10
111.6858615172174
 20
-139.1558471331798
 10
111.5039604755962
 20
-139.2807318445201
 10
111.3093125806796
 20
-139.3908026452738
 10
111.1063964565984
 20
-139.4774467967279
 10
111.1063964565984
 20
-139.4774467967279
 10
110.9031358229687
 20
-139.3146660350498
 10
110.9031358229687
 20
-139.3146660350498
 10
111.0257812222436
 20
-139.278664787229
 10
111.2820963263461
 20
-139.2045952342961
 10
111.6266058748711
 20
-138.948624639742
 10
111.8422688522478
 20
-138.7899779926463
 10
112.0351941994218
 20
-138.6017035243774
 10
112.1874674198698
 20
-138.3815619228699
 10
112.1874674198698
 20
-138.3815619228699
 10
112.3797037479467
 20
-138.5255669141533
 10
112.3797037479467
 20
-138.5255669141533
 10
112.3924506012422
 20
-138.5360744553834
 10
112.4010633399553
 20
-138.5508883659699
 10
112.4010633399553
 20
-138.5636352192653
 10
112.4010633399553
 20
-138.6037705816685
 10
112.362822780069
 20
-138.6037705816685
 10
112.2973659658493
 20
-138.6080769510251
 97
        0
 97
        0
 75
     2
 76
     1
 98
        0
  0
SPLINE
  5
F2
330
BA
100
AcDbEntity
  8
_U+30EC_U+30A4_U+30E4_U+30FC 1
370
     0
100
AcDbSpline
210
0.0
220
0.0
230
1.0
 70
    11
 71
     3
 72
    50
 73
    46
 74
     0
 42
0.0000000001
 43
0.0000000001
 12
1.0
 22
0.0
 32
0.0
 13
1.0
 23
0.0
 33
0.0
 40
0.0
 40
0.0
 40
0.0
 40
0.0
 40
1.0
 40
1.0
 40
1.0
 40
2.0
 40
2.0
 40
2.0
 40
3.0
 40
3.0
 40
3.0
 40
4.0
 40
4.0
 40
4.0
 40
5.0
 40
5.0
 40
5.0
 40
6.0
 40
6.0
 40
6.0
 40
7.0
 40
7.0
 40
7.0
 40
8.0
 40
8.0
 40
8.0
 40
9.0
 40
9.0
 40
9.0
 40
10.0
 40
10.0
 40
10.0
 40
11.0
 40
11.0
 40
11.0
 40
12.0
 40
12.0
 40
12.0
 40
13.0
 40
13.0
 40
13.0
 40
14.0
 40
14.0
 40
14.0
 40
15.0
 40
15.0
 40
15.0
 40
15.0
 10
114.0078558742758
 20
-139.1348320507198
 30
0.0
 10
113.9461886650898
 20
-139.2066622915872
 30
0.0
 10
113.6860839559535
 20
-139.5239555857787
 30
0.0
 10
113.6288953708983
 20
-139.5875175974816
 30
0.0
 10
113.7136447198355
 20
-139.6848415449399
 30
0.0
 10
113.7642876234687
 20
-139.7482313018685
 30
0.0
 10
113.8300889472369
 20
-139.8391818226791
 30
0.0
 10
113.8300889472369
 20
-139.8391818226791
 30
0.0
 10
113.6457763387761
 20
-139.9768133873148
 30
0.0
 10
113.6457763387761
 20
-139.9768133873148
 30
0.0
 10
113.5103840862057
 20
-139.7651122697462
 30
0.0
 10
113.3391628405888
 20
-139.5410088084307
 30
0.0
 10
113.045296195697
 20
-139.3420545441575
 30
0.0
 10
113.045296195697
 20
-139.3420545441575
 30
0.0
 10
113.1930907920142
 20
-139.1877142664184
 30
0.0
 10
113.1930907920142
 20
-139.1877142664184
 30
0.0
 10
113.3029893379937
 20
-139.2679849912247
 30
0.0
 10
113.4070312216483
 20
-139.3568684547441
 30
0.0
 10
113.5041829143323
 20
-139.4521253449113
 30
0.0
 10
113.5717067858432
 20
-139.3759887346873
 30
0.0
 10
113.7749674194729
 20
-139.1325927386544
 30
0.0
 10
113.9079481052036
 20
-138.9041829079823
 30
0.0
 10
113.9079481052036
 20
-138.9041829079823
 30
0.0
 10
113.2354654664828
 20
-138.9041829079823
 30
0.0
 10
113.2354654664828
 20
-138.9041829079823
 30
0.0
 10
113.1107530099168
 20
-138.9041829079823
 30
0.0
 10
112.858916529945
 20
-138.9126233919212
 30
0.0
 10
112.6494547244418
 20
-138.9231309331512
 30
0.0
 10
112.6494547244418
 20
-138.9231309331512
 30
0.0
 10
112.6494547244418
 20
-138.703161586418
 30
0.0
 10
112.6494547244418
 20
-138.703161586418
 30
0.0
 10
112.8334228233542
 20
-138.7222818663611
 30
0.0
 10
113.038750514275
 20
-138.7264159809434
 30
0.0
 10
113.2271972373182
 20
-138.7264159809434
 30
0.0
 10
113.2271972373182
 20
-138.7264159809434
 30
0.0
 10
113.7305256877132
 20
-138.7264159809434
 30
0.0
 10
113.7305256877132
 20
-138.7264159809434
 30
0.0
 10
114.0691785739133
 20
-138.7264159809434
 30
0.0
 10
114.1132757961245
 20
-138.7116020703568
 30
0.0
 10
114.1959580877705
 20
-138.6714667079537
 30
0.0
 10
114.1959580877705
 20
-138.6714667079537
 30
0.0
 10
114.3630452188051
 20
-138.8301133550494
 30
0.0
 10
114.3630452188051
 20
-138.8301133550494
 30
0.0
 10
114.210771998357
 20
-138.9021158506911
 30
0.0
 10
114.0667670070736
 20
-139.0648966123692
 30
0.0
 10
114.0078558742758
 20
-139.1348320507198
 30
0.0
  0
HATCH
  5
F3
330
BA
100
AcDbEntity
  8
_U+30EC_U+30A4_U+30E4_U+30FC 1
 62
   179
420
  2234388
100
AcDbHatch
 10
0.0
 20
0.0
 30
0.0
210
0.0
220
0.0
230
1.0
  2
SOLID
 70
     1
 71
     0
 91
        1
 92
        1
 93
        1
 72
     4
 94
        3
 73
     0
 74
     1
 95
       50
 96
       46
 40
0.0
 40
0.0
 40
0.0
 40
0.0
 40
1.0
 40
1.0
 40
1.0
 40
2.0
 40
2.0
 40
2.0
 40
3.0
 40
3.0
 40
3.0
 40
4.0
 40
4.0
 40
4.0
 40
5.0
 40
5.0
 40
5.0
 40
6.0
 40
6.0
 40
6.0
 40
7.0
 40
7.0
 40
7.0
 40
8.0
 40
8.0
 40
8.0
 40
9.0
 40
9.0
 40
9.0
 40
10.0
 40
10.0
 40
10.0
 40
11.0
 40
11.0
 40
11.0
 40
12.0
 40
12.0
 40
12.0
 40
13.0
 40
13.0
 40
13.0
 40
14.0
 40
14.0
 40
14.0
 40
15.0
 40
15.0
 40
15.0
 40
15.0
 10
114.0078558742758
 20
-139.1348320507198
 10
113.9461886650898
 20
-139.2066622915872
 10
113.6860839559535
 20
-139.5239555857787
 10
113.6288953708983
 20
-139.5875175974816
 10
113.7136447198355
 20
-139.6848415449399
 10
113.7642876234687
 20
-139.7482313018685
 10
113.8300889472369
 20
-139.8391818226791
 10
113.8300889472369
 20
-139.8391818226791
 10
113.6457763387761
 20
-139.9768133873148
 10
113.6457763387761
 20
-139.9768133873148
 10
113.5103840862057
 20
-139.7651122697462
 10
113.3391628405888
 20
-139.5410088084307
 10
113.045296195697
 20
-139.3420545441575
 10
113.045296195697
 20
-139.3420545441575
 10
113.1930907920142
 20
-139.1877142664184
 10
113.1930907920142
 20
-139.1877142664184
 10
113.3029893379937
 20
-139.2679849912247
 10
113.4070312216483
 20
-139.3568684547441
 10
113.5041829143323
 20
-139.4521253449113
 10
113.5717067858432
 20
-139.3759887346873
 10
113.7749674194729
 20
-139.1325927386544
 10
113.9079481052036
 20
-138.9041829079823
 10
113.9079481052036
 20
-138.9041829079823
 10
113.2354654664828
 20
-138.9041829079823
 10
113.2354654664828
 20
-138.9041829079823
 10
113.1107530099168
 20
-138.9041829079823
 10
112.858916529945
 20
-138.9126233919212
 10
112.6494547244418
 20
-138.9231309331512
 10
112.6494547244418
 20
-138.9231309331512
 10
112.6494547244418
 20
-138.703161586418
 10
112.6494547244418
 20
-138.703161586418
 10
112.8334228233542
 20
-138.7222818663611
 10
113.038750514275
 20
-138.7264159809434
 10
113.2271972373182
 20
-138.7264159809434
 10
113.2271972373182
 20
-138.7264159809434
 10
113.7305256877132
 20
-138.7264159809434
 10
113.7305256877132
 20
-138.7264159809434
 10
114.0691785739133
 20
-138.7264159809434
 10
114.1132757961245
 20
-138.7116020703568
 10
114.1959580877705
 20
-138.6714667079537
 10
114.1959580877705
 20
-138.6714667079537
 10
114.3630452188051
 20
-138.8301133550494
 10
114.3630452188051
 20
-138.8301133550494
 10
114.210771998357
 20
-138.9021158506911
 10
114.0667670070736
 20
-139.0648966123692
 10
114.0078558742758
 20
-139.1348320507198
 97
        0
 97
        0
 75
     2
 76
     1
 98
        0
  0
SPLINE
  5
F4
330
BA
100
AcDbEntity
  8
_U+30EC_U+30A4_U+30E4_U+30FC 1
370
     0
100
AcDbSpline
210
0.0
220
0.0
230
1.0
 70
    11
 71
     3
 72
    29
 73
    25
 74
     0
 42
0.0000000001
 43
0.0000000001
 12
1.0
 22
0.0
 32
0.0
 13
1.0
 23
0.0
 33
0.0
 40
0.0
 40
0.0
 40
0.0
 40
0.0
 40
1.0
 40
1.0
 40
1.0
 40
2.0
 40
2.0
 40
2.0
 40
3.0
 40
3.0
 40
3.0
 40
4.0
 40
4.0
 40
4.0
 40
5.0
 40
5.0
 40
5.0
 40
6.0
 40
6.0
 40
6.0
 40
7.0
 40
7.0
 40
7.0
 40
8.0
 40
8.0
 40
8.0
 40
8.0
 10
115.6311848669255
 20
-139.3780557919784
 30
0.0
 10
115.6311848669255
 20
-139.3780557919784
 30
0.0
 10
115.1468044416994
 20
-139.3780557919784
 30
0.0
 10
115.1468044416994
 20
-139.3780557919784
 30
0.0
 10
115.1192436778174
 20
-139.3780557919784
 30
0.0
 10
114.8019503836259
 20
-139.3780557919784
 30
0.0
 10
114.5904215208316
 20
-139.403377243795
 30
0.0
 10
114.5904215208316
 20
-139.403377243795
 30
0.0
 10
114.5904215208316
 20
-139.1729003558318
 30
0.0
 10
114.5904215208316
 20
-139.1729003558318
 30
0.0
 10
114.7492404227016
 20
-139.1961547503572
 30
0.0
 10
114.9394096934874
 20
-139.1982218076484
 30
0.0
 10
115.1468044416994
 20
-139.1982218076484
 30
0.0
 10
115.1468044416994
 20
-139.1982218076484
 30
0.0
 10
115.6311848669255
 20
-139.1982218076484
 30
0.0
 10
115.6311848669255
 20
-139.1982218076484
 30
0.0
 10
115.817220023129
 20
-139.1982218076484
 30
0.0
 10
116.0035996888811
 20
-139.1961547503572
 30
0.0
 10
116.1875677877934
 20
-139.1729003558318
 30
0.0
 10
116.1875677877934
 20
-139.1729003558318
 30
0.0
 10
116.1875677877934
 20
-139.403377243795
 30
0.0
 10
116.1875677877934
 20
-139.403377243795
 30
0.0
 10
116.0035996888811
 20
-139.3801228492696
 30
0.0
 10
115.7558973234916
 20
-139.3780557919784
 30
0.0
 10
115.6311848669255
 20
-139.3780557919784
 30
0.0
  0
HATCH
  5
F5
330
BA
100
AcDbEntity
  8
_U+30EC_U+30A4_U+30E4_U+30FC 1
 62
   179
420
  2234388
100
AcDbHatch
 10
0.0
 20
0.0
 30
0.0
210
0.0
220
0.0
230
1.0
  2
SOLID
 70
     1
 71
     0
 91
        1
 92
        1
 93
        1
 72
     4
 94
        3
 73
     0
 74
     1
 95
       29
 96
       25
 40
0.0
 40
0.0
 40
0.0
 40
0.0
 40
1.0
 40
1.0
 40
1.0
 40
2.0
 40
2.0
 40
2.0
 40
3.0
 40
3.0
 40
3.0
 40
4.0
 40
4.0
 40
4.0
 40
5.0
 40
5.0
 40
5.0
 40
6.0
 40
6.0
 40
6.0
 40
7.0
 40
7.0
 40
7.0
 40
8.0
 40
8.0
 40
8.0
 40
8.0
 10
115.6311848669255
 20
-139.3780557919784
 10
115.6311848669255
 20
-139.3780557919784
 10
115.1468044416994
 20
-139.3780557919784
 10
115.1468044416994
 20
-139.3780557919784
 10
115.1192436778174
 20
-139.3780557919784
 10
114.8019503836259
 20
-139.3780557919784
 10
114.5904215208316
 20
-139.403377243795
 10
114.5904215208316
 20
-139.403377243795
 10
114.5904215208316
 20
-139.1729003558318
 10
114.5904215208316
 20
-139.1729003558318
 10
114.7492404227016
 20
-139.1961547503572
 10
114.9394096934874
 20
-139.1982218076484
 10
115.1468044416994
 20
-139.1982218076484
 10
115.1468044416994
 20
-139.1982218076484
 10
115.6311848669255
 20
-139.1982218076484
 10
115.6311848669255
 20
-139.1982218076484
 10
115.817220023129
 20
-139.1982218076484
 10
116.0035996888811
 20
-139.1961547503572
 10
116.1875677877934
 20
-139.1729003558318
 10
116.1875677877934
 20
-139.1729003558318
 10
116.1875677877934
 20
-139.403377243795
 10
116.1875677877934
 20
-139.403377243795
 10
116.0035996888811
 20
-139.3801228492696
 10
115.7558973234916
 20
-139.3780557919784
 10
115.6311848669255
 20
-139.3780557919784
 97
        0
 97
        0
 75
     2
 76
     1
 98
        0
  0
SPLINE
  5
F6
330
BA
100
AcDbEntity
  8
_U+30EC_U+30A4_U+30E4_U+30FC 1
370
     0
100
AcDbSpline
210
0.0
220
0.0
230
1.0
 70
    11
 71
     3
 72
    53
 73
    49
 74
     0
 42
0.0000000001
 43
0.0000000001
 12
1.0
 22
0.0
 32
0.0
 13
1.0
 23
0.0
 33
0.0
 40
0.0
 40
0.0
 40
0.0
 40
0.0
 40
1.0
 40
1.0
 40
1.0
 40
2.0
 40
2.0
 40
2.0
 40
3.0
 40
3.0
 40
3.0
 40
4.0
 40
4.0
 40
4.0
 40
5.0
 40
5.0
 40
5.0
 40
6.0
 40
6.0
 40
6.0
 40
7.0
 40
7.0
 40
7.0
 40
8.0
 40
8.0
 40
8.0
 40
9.0
 40
9.0
 40
9.0
 40
10.0
 40
10.0
 40
10.0
 40
11.0
 40
11.0
 40
11.0
 40
12.0
 40
12.0
 40
12.0
 40
13.0
 40
13.0
 40
13.0
 40
14.0
 40
14.0
 40
14.0
 40
15.0
 40
15.0
 40
15.0
 40
16.0
 40
16.0
 40
16.0
 40
16.0
 10
117.0498751877514
 20
-138.5043795769191
 30
0.0
 10
116.982006806692
 20
-138.6566527973671
 30
0.0
 10
116.9396321322234
 20
-138.7348564648823
 30
0.0
 10
116.9017360818857
 20
-138.8025525911674
 30
0.0
 10
116.9437662468057
 20
-138.8237399284017
 30
0.0
 10
116.9482448709365
 20
-138.8259792404671
 30
0.0
 10
116.9482448709365
 20
-138.8406208962794
 30
0.0
 10
116.9482448709365
 20
-138.8533677495749
 30
0.0
 10
116.9141384256326
 20
-138.8873019401046
 30
0.0
 10
116.9038031391768
 20
-138.8957424240434
 30
0.0
 10
116.9017360818857
 20
-139.0924573762512
 30
0.0
 10
116.9017360818857
 20
-139.1136447134855
 30
0.0
 10
116.9017360818857
 20
-139.2467976539904
 30
0.0
 10
116.8996690245945
 20
-139.2595445072858
 30
0.0
 10
116.8996690245945
 20
-139.2743584178724
 30
0.0
 10
116.8996690245945
 20
-139.289172328459
 30
0.0
 10
116.8996690245945
 20
-139.289172328459
 30
0.0
 10
116.8996690245945
 20
-139.8243679120925
 30
0.0
 10
116.8996690245945
 20
-139.8243679120925
 30
0.0
 10
116.8996690245945
 20
-139.8963704077343
 30
0.0
 10
116.9038031391768
 20
-140.131153665054
 30
0.0
 10
116.9120713683414
 20
-140.2412244658078
 30
0.0
 10
116.9120713683414
 20
-140.2412244658078
 30
0.0
 10
116.6688476270828
 20
-140.2412244658078
 30
0.0
 10
116.6688476270828
 20
-140.2412244658078
 30
0.0
 10
116.6922742763825
 20
-140.082577818712
 30
0.0
 10
116.6984754482559
 20
-139.8414211347445
 30
0.0
 10
116.6984754482559
 20
-139.8202337975102
 30
0.0
 10
116.6984754482559
 20
-139.8202337975102
 30
0.0
 10
116.6984754482559
 20
-139.1029649174812
 30
0.0
 10
116.6984754482559
 20
-139.1029649174812
 30
0.0
 10
116.6075249274453
 20
-139.2173420875915
 30
0.0
 10
116.5462022278079
 20
-139.2764254751635
 30
0.0
 10
116.5041720628878
 20
-139.3188001496321
 30
0.0
 10
116.5041720628878
 20
-139.3188001496321
 30
0.0
 10
116.313313773005
 20
-139.1813408397707
 30
0.0
 10
116.313313773005
 20
-139.1813408397707
 30
0.0
 10
116.5951225836984
 20
-138.9655056076197
 30
0.0
 10
116.7873589117754
 20
-138.6566527973671
 30
0.0
 10
116.8996690245945
 20
-138.3202392232324
 30
0.0
 10
116.8996690245945
 20
-138.3202392232324
 30
0.0
 10
117.1194661165535
 20
-138.4344441385685
 30
0.0
 10
117.1194661165535
 20
-138.4344441385685
 30
0.0
 10
117.1322129698489
 20
-138.4408175652162
 30
0.0
 10
117.140825708562
 20
-138.4451239345728
 30
0.0
 10
117.140825708562
 20
-138.4599378451593
 30
0.0
 10
117.140825708562
 20
-138.4852592969759
 30
0.0
 10
117.1236002311358
 20
-138.4895656663325
 30
0.0
 10
117.0498751877514
 20
-138.5043795769191
 30
0.0
  0
SPLINE
  5
F7
330
BA
100
AcDbEntity
  8
_U+30EC_U+30A4_U+30E4_U+30FC 1
370
     0
100
AcDbSpline
210
0.0
220
0.0
230
1.0
 70
    11
 71
     3
 72
    77
 73
    73
 74
     0
 42
0.0000000001
 43
0.0000000001
 12
1.0
 22
0.0
 32
0.0
 13
1.0
 23
0.0
 33
0.0
 40
0.0
 40
0.0
 40
0.0
 40
0.0
 40
1.0
 40
1.0
 40
1.0
 40
2.0
 40
2.0
 40
2.0
 40
3.0
 40
3.0
 40
3.0
 40
4.0
 40
4.0
 40
4.0
 40
5.0
 40
5.0
 40
5.0
 40
6.0
 40
6.0
 40
6.0
 40
7.0
 40
7.0
 40
7.0
 40
8.0
 40
8.0
 40
8.0
 40
9.0
 40
9.0
 40
9.0
 40
10.0
 40
10.0
 40
10.0
 40
11.0
 40
11.0
 40
11.0
 40
12.0
 40
12.0
 40
12.0
 40
13.0
 40
13.0
 40
13.0
 40
14.0
 40
14.0
 40
14.0
 40
15.0
 40
15.0
 40
15.0
 40
16.0
 40
16.0
 40
16.0
 40
17.0
 40
17.0
 40
17.0
 40
18.0
 40
18.0
 40
18.0
 40
19.0
 40
19.0
 40
19.0
 40
20.0
 40
20.0
 40
20.0
 40
21.0
 40
21.0
 40
21.0
 40
22.0
 40
22.0
 40
22.0
 40
23.0
 40
23.0
 40
23.0
 40
24.0
 40
24.0
 40
24.0
 40
24.0
 10
118.2005370798249
 20
-139.0035739127318
 30
0.0
 10
118.1309461510228
 20
-138.9994397981494
 30
0.0
 10
118.0630777699634
 20
-138.9994397981494
 30
0.0
 10
117.995209388904
 20
-138.9994397981494
 30
0.0
 10
117.995209388904
 20
-138.9994397981494
 30
0.0
 10
117.995209388904
 20
-139.7737250084594
 30
0.0
 10
117.995209388904
 20
-139.7737250084594
 30
0.0
 10
117.995209388904
 20
-140.0381360869523
 30
0.0
 10
117.9931423316128
 20
-140.0677639081254
 30
0.0
 10
117.9869411597394
 20
-140.0973917292986
 30
0.0
 10
117.9531792239839
 20
-140.2305446698035
 30
0.0
 10
117.8515489071691
 20
-140.2389851537423
 30
0.0
 10
117.6758490374213
 20
-140.2389851537423
 30
0.0
 10
117.6355414202439
 20
-140.2389851537423
 30
0.0
 10
117.6190049619147
 20
-140.2389851537423
 30
0.0
 10
117.5783528351888
 20
-140.23485103916
 30
0.0
 10
117.5783528351888
 20
-140.23485103916
 30
0.0
 10
117.4536403786227
 20
-139.9936943551926
 30
0.0
 10
117.4536403786227
 20
-139.9936943551926
 30
0.0
 10
117.5700846060242
 20
-140.0253892336569
 30
0.0
 10
117.6527668976701
 20
-140.0253892336569
 30
0.0
 10
117.6758490374213
 20
-140.0253892336569
 30
0.0
 10
117.7457844757719
 20
-140.0253892336569
 30
0.0
 10
117.7795464115273
 20
-140.0085082657791
 30
0.0
 10
117.7836805261096
 20
-139.951319680724
 30
0.0
 10
117.7836805261096
 20
-139.9385728274285
 30
0.0
 10
117.7857475834008
 20
-139.8414211347445
 30
0.0
 10
117.7857475834008
 20
-139.7842325496894
 30
0.0
 10
117.7857475834008
 20
-139.7842325496894
 30
0.0
 10
117.7857475834008
 20
-138.997200486084
 30
0.0
 10
117.7857475834008
 20
-138.997200486084
 30
0.0
 10
117.7857475834008
 20
-138.997200486084
 30
0.0
 10
117.491880938509
 20
-138.997200486084
 30
0.0
 10
117.491880938509
 20
-138.997200486084
 30
0.0
 10
117.3461533994829
 20
-138.997200486084
 30
0.0
 10
117.2000813509083
 20
-139.0035739127318
 30
0.0
 10
117.0560763596249
 20
-139.0163207660272
 30
0.0
 10
117.0560763596249
 20
-139.0163207660272
 30
0.0
 10
117.0560763596249
 20
-138.8089260178151
 30
0.0
 10
117.0560763596249
 20
-138.8089260178151
 30
0.0
 10
117.2062825227818
 20
-138.8216728711106
 30
0.0
 10
117.4240125574496
 20
-138.8259792404671
 30
0.0
 10
117.491880938509
 20
-138.8259792404671
 30
0.0
 10
117.491880938509
 20
-138.8259792404671
 30
0.0
 10
117.7857475834008
 20
-138.8259792404671
 30
0.0
 10
117.7857475834008
 20
-138.8259792404671
 30
0.0
 10
117.7836805261096
 20
-138.5572617926176
 30
0.0
 10
117.7836805261096
 20
-138.4811251823936
 30
0.0
 10
117.775412296945
 20
-138.3329860765279
 30
0.0
 10
117.775412296945
 20
-138.3329860765279
 30
0.0
 10
118.0334499487902
 20
-138.3710543816399
 30
0.0
 10
118.0334499487902
 20
-138.3710543816399
 30
0.0
 10
118.0482638593768
 20
-138.373121438931
 30
0.0
 10
118.0630777699634
 20
-138.3794948655787
 30
0.0
 10
118.0630777699634
 20
-138.400682202813
 30
0.0
 10
118.0630777699634
 20
-138.4198024827562
 30
0.0
 10
118.0565320885414
 20
-138.4218695400473
 30
0.0
 10
117.9993435034863
 20
-138.4556314758028
 30
0.0
 10
117.995209388904
 20
-138.5340073980922
 30
0.0
 10
117.995209388904
 20
-138.5488213086788
 30
0.0
 10
117.995209388904
 20
-138.8259792404671
 30
0.0
 10
118.1729763159429
 20
-138.8216728711106
 30
0.0
 10
118.1922688506603
 20
-138.8216728711106
 30
0.0
 10
118.2260307864157
 20
-138.817366501754
 30
0.0
 10
118.2766736900489
 20
-138.8132323871717
 30
0.0
 10
118.2811523141797
 20
-138.8111653298805
 30
0.0
 10
118.3252495363909
 20
-138.8089260178151
 30
0.0
 10
118.3252495363909
 20
-138.8089260178151
 30
0.0
 10
118.3252495363909
 20
-139.0163207660272
 30
0.0
 10
118.3252495363909
 20
-139.0163207660272
 30
0.0
 10
118.2956217152178
 20
-139.014253708736
 30
0.0
 10
118.2408446970023
 20
-139.0056409700229
 30
0.0
 10
118.2005370798249
 20
-139.0035739127318
 30
0.0
  0
SPLINE
  5
F8
330
BA
100
AcDbEntity
  8
_U+30EC_U+30A4_U+30E4_U+30FC 1
370
     0
100
AcDbSpline
210
0.0
220
0.0
230
1.0
 70
    11
 71
     3
 72
    20
 73
    16
 74
     0
 42
0.0000000001
 43
0.0000000001
 12
1.0
 22
0.0
 32
0.0
 13
1.0
 23
0.0
 33
0.0
 40
0.0
 40
0.0
 40
0.0
 40
0.0
 40
1.0
 40
1.0
 40
1.0
 40
2.0
 40
2.0
 40
2.0
 40
3.0
 40
3.0
 40
3.0
 40
4.0
 40
4.0
 40
4.0
 40
5.0
 40
5.0
 40
5.0
 40
5.0
 10
117.4305582388715
 20
-139.7292832766996
 30
0.0
 10
117.3840494498207
 20
-139.5515163496607
 30
0.0
 10
117.2868977571366
 20
-139.4097506704427
 30
0.0
 10
117.1470268804355
 20
-139.2998521244632
 30
0.0
 10
117.1470268804355
 20
-139.2998521244632
 30
0.0
 10
117.3075683300481
 20
-139.1854749543529
 30
0.0
 10
117.3075683300481
 20
-139.1854749543529
 30
0.0
 10
117.3692355392341
 20
-139.2278496288215
 30
0.0
 10
117.4095431564115
 20
-139.261611564577
 30
0.0
 10
117.485335257087
 20
-139.3696153080396
 30
0.0
 10
117.5659504914419
 20
-139.4858872806667
 30
0.0
 10
117.5873100834504
 20
-139.5387694963653
 30
0.0
 10
117.6124592804927
 20
-139.6043985653593
 30
0.0
 10
117.6124592804927
 20
-139.6043985653593
 30
0.0
 10
117.4305582388715
 20
-139.7292832766996
 30
0.0
 10
117.4305582388715
 20
-139.7292832766996
 30
0.0
  0
HATCH
  5
F9
330
BA
100
AcDbEntity
  8
_U+30EC_U+30A4_U+30E4_U+30FC 1
 62
   179
420
  2234388
100
AcDbHatch
 10
0.0
 20
0.0
 30
0.0
210
0.0
220
0.0
230
1.0
  2
SOLID
 70
     1
 71
     0
 91
        3
 92
        1
 93
        1
 72
     4
 94
        3
 73
     0
 74
     1
 95
       53
 96
       49
 40
0.0
 40
0.0
 40
0.0
 40
0.0
 40
1.0
 40
1.0
 40
1.0
 40
2.0
 40
2.0
 40
2.0
 40
3.0
 40
3.0
 40
3.0
 40
4.0
 40
4.0
 40
4.0
 40
5.0
 40
5.0
 40
5.0
 40
6.0
 40
6.0
 40
6.0
 40
7.0
 40
7.0
 40
7.0
 40
8.0
 40
8.0
 40
8.0
 40
9.0
 40
9.0
 40
9.0
 40
10.0
 40
10.0
 40
10.0
 40
11.0
 40
11.0
 40
11.0
 40
12.0
 40
12.0
 40
12.0
 40
13.0
 40
13.0
 40
13.0
 40
14.0
 40
14.0
 40
14.0
 40
15.0
 40
15.0
 40
15.0
 40
16.0
 40
16.0
 40
16.0
 40
16.0
 10
117.0498751877514
 20
-138.5043795769191
 10
116.982006806692
 20
-138.6566527973671
 10
116.9396321322234
 20
-138.7348564648823
 10
116.9017360818857
 20
-138.8025525911674
 10
116.9437662468057
 20
-138.8237399284017
 10
116.9482448709365
 20
-138.8259792404671
 10
116.9482448709365
 20
-138.8406208962794
 10
116.9482448709365
 20
-138.8533677495749
 10
116.9141384256326
 20
-138.8873019401046
 10
116.9038031391768
 20
-138.8957424240434
 10
116.9017360818857
 20
-139.0924573762512
 10
116.9017360818857
 20
-139.1136447134855
 10
116.9017360818857
 20
-139.2467976539904
 10
116.8996690245945
 20
-139.2595445072858
 10
116.8996690245945
 20
-139.2743584178724
 10
116.8996690245945
 20
-139.289172328459
 10
116.8996690245945
 20
-139.289172328459
 10
116.8996690245945
 20
-139.8243679120925
 10
116.8996690245945
 20
-139.8243679120925
 10
116.8996690245945
 20
-139.8963704077343
 10
116.9038031391768
 20
-140.131153665054
 10
116.9120713683414
 20
-140.2412244658078
 10
116.9120713683414
 20
-140.2412244658078
 10
116.6688476270828
 20
-140.2412244658078
 10
116.6688476270828
 20
-140.2412244658078
 10
116.6922742763825
 20
-140.082577818712
 10
116.6984754482559
 20
-139.8414211347445
 10
116.6984754482559
 20
-139.8202337975102
 10
116.6984754482559
 20
-139.8202337975102
 10
116.6984754482559
 20
-139.1029649174812
 10
116.6984754482559
 20
-139.1029649174812
 10
116.6075249274453
 20
-139.2173420875915
 10
116.5462022278079
 20
-139.2764254751635
 10
116.5041720628878
 20
-139.3188001496321
 10
116.5041720628878
 20
-139.3188001496321
 10
116.313313773005
 20
-139.1813408397707
 10
116.313313773005
 20
-139.1813408397707
 10
116.5951225836984
 20
-138.9655056076197
 10
116.7873589117754
 20
-138.6566527973671
 10
116.8996690245945
 20
-138.3202392232324
 10
116.8996690245945
 20
-138.3202392232324
 10
117.1194661165535
 20
-138.4344441385685
 10
117.1194661165535
 20
-138.4344441385685
 10
117.1322129698489
 20
-138.4408175652162
 10
117.140825708562
 20
-138.4451239345728
 10
117.140825708562
 20
-138.4599378451593
 10
117.140825708562
 20
-138.4852592969759
 10
117.1236002311358
 20
-138.4895656663325
 10
117.0498751877514
 20
-138.5043795769191
 97
        0
 97
        0
 92
        1
 93
        1
 72
     4
 94
        3
 73
     0
 74
     1
 95
       77
 96
       73
 40
0.0
 40
0.0
 40
0.0
 40
0.0
 40
1.0
 40
1.0
 40
1.0
 40
2.0
 40
2.0
 40
2.0
 40
3.0
 40
3.0
 40
3.0
 40
4.0
 40
4.0
 40
4.0
 40
5.0
 40
5.0
 40
5.0
 40
6.0
 40
6.0
 40
6.0
 40
7.0
 40
7.0
 40
7.0
 40
8.0
 40
8.0
 40
8.0
 40
9.0
 40
9.0
 40
9.0
 40
10.0
 40
10.0
 40
10.0
 40
11.0
 40
11.0
 40
11.0
 40
12.0
 40
12.0
 40
12.0
 40
13.0
 40
13.0
 40
13.0
 40
14.0
 40
14.0
 40
14.0
 40
15.0
 40
15.0
 40
15.0
 40
16.0
 40
16.0
 40
16.0
 40
17.0
 40
17.0
 40
17.0
 40
18.0
 40
18.0
 40
18.0
 40
19.0
 40
19.0
 40
19.0
 40
20.0
 40
20.0
 40
20.0
 40
21.0
 40
21.0
 40
21.0
 40
22.0
 40
22.0
 40
22.0
 40
23.0
 40
23.0
 40
23.0
 40
24.0
 40
24.0
 40
24.0
 40
24.0
 10
118.2005370798249
 20
-139.0035739127318
 10
118.1309461510228
 20
-138.9994397981494
 10
118.0630777699634
 20
-138.9994397981494
 10
117.995209388904
 20
-138.9994397981494
 10
117.995209388904
 20
-138.9994397981494
 10
117.995209388904
 20
-139.7737250084594
 10
117.995209388904
 20
-139.7737250084594
 10
117.995209388904
 20
-140.0381360869523
 10
117.9931423316128
 20
-140.0677639081254
 10
117.9869411597394
 20
-140.0973917292986
 10
117.9531792239839
 20
-140.2305446698035
 10
117.8515489071691
 20
-140.2389851537423
 10
117.6758490374213
 20
-140.2389851537423
 10
117.6355414202439
 20
-140.2389851537423
 10
117.6190049619147
 20
-140.2389851537423
 10
117.5783528351888
 20
-140.23485103916
 10
117.5783528351888
 20
-140.23485103916
 10
117.4536403786227
 20
-139.9936943551926
 10
117.4536403786227
 20
-139.9936943551926
 10
117.5700846060242
 20
-140.0253892336569
 10
117.6527668976701
 20
-140.0253892336569
 10
117.6758490374213
 20
-140.0253892336569
 10
117.7457844757719
 20
-140.0253892336569
 10
117.7795464115273
 20
-140.0085082657791
 10
117.7836805261096
 20
-139.951319680724
 10
117.7836805261096
 20
-139.9385728274285
 10
117.7857475834008
 20
-139.8414211347445
 10
117.7857475834008
 20
-139.7842325496894
 10
117.7857475834008
 20
-139.7842325496894
 10
117.7857475834008
 20
-138.997200486084
 10
117.7857475834008
 20
-138.997200486084
 10
117.7857475834008
 20
-138.997200486084
 10
117.491880938509
 20
-138.997200486084
 10
117.491880938509
 20
-138.997200486084
 10
117.3461533994829
 20
-138.997200486084
 10
117.2000813509083
 20
-139.0035739127318
 10
117.0560763596249
 20
-139.0163207660272
 10
117.0560763596249
 20
-139.0163207660272
 10
117.0560763596249
 20
-138.8089260178151
 10
117.0560763596249
 20
-138.8089260178151
 10
117.2062825227818
 20
-138.8216728711106
 10
117.4240125574496
 20
-138.8259792404671
 10
117.491880938509
 20
-138.8259792404671
 10
117.491880938509
 20
-138.8259792404671
 10
117.7857475834008
 20
-138.8259792404671
 10
117.7857475834008
 20
-138.8259792404671
 10
117.7836805261096
 20
-138.5572617926176
 10
117.7836805261096
 20
-138.4811251823936
 10
117.775412296945
 20
-138.3329860765279
 10
117.775412296945
 20
-138.3329860765279
 10
118.0334499487902
 20
-138.3710543816399
 10
118.0334499487902
 20
-138.3710543816399
 10
118.0482638593768
 20
-138.373121438931
 10
118.0630777699634
 20
-138.3794948655787
 10
118.0630777699634
 20
-138.400682202813
 10
118.0630777699634
 20
-138.4198024827562
 10
118.0565320885414
 20
-138.4218695400473
 10
117.9993435034863
 20
-138.4556314758028
 10
117.995209388904
 20
-138.5340073980922
 10
117.995209388904
 20
-138.5488213086788
 10
117.995209388904
 20
-138.8259792404671
 10
118.1729763159429
 20
-138.8216728711106
 10
118.1922688506603
 20
-138.8216728711106
 10
118.2260307864157
 20
-138.817366501754
 10
118.2766736900489
 20
-138.8132323871717
 10
118.2811523141797
 20
-138.8111653298805
 10
118.3252495363909
 20
-138.8089260178151
 10
118.3252495363909
 20
-138.8089260178151
 10
118.3252495363909
 20
-139.0163207660272
 10
118.3252495363909
 20
-139.0163207660272
 10
118.2956217152178
 20
-139.014253708736
 10
118.2408446970023
 20
-139.0056409700229
 10
118.2005370798249
 20
-139.0035739127318
 97
        0
 97
        0
 92
        1
 93
        1
 72
     4
 94
        3
 73
     0
 74
     1
 95
       20
 96
       16
 40
0.0
 40
0.0
 40
0.0
 40
0.0
 40
1.0
 40
1.0
 40
1.0
 40
2.0
 40
2.0
 40
2.0
 40
3.0
 40
3.0
 40
3.0
 40
4.0
 40
4.0
 40
4.0
 40
5.0
 40
5.0
 40
5.0
 40
5.0
 10
117.4305582388715
 20
-139.7292832766996
 10
117.3840494498207
 20
-139.5515163496607
 10
117.2868977571366
 20
-139.4097506704427
 10
117.1470268804355
 20
-139.2998521244632
 10
117.1470268804355
 20
-139.2998521244632
 10
117.3075683300481
 20
-139.1854749543529
 10
117.3075683300481
 20
-139.1854749543529
 10
117.3692355392341
 20
-139.2278496288215
 10
117.4095431564115
 20
-139.261611564577
 10
117.485335257087
 20
-139.3696153080396
 10
117.5659504914419
 20
-139.4858872806667
 10
117.5873100834504
 20
-139.5387694963653
 10
117.6124592804927
 20
-139.6043985653593
 10
117.6124592804927
 20
-139.6043985653593
 10
117.4305582388715
 20
-139.7292832766996
 10
117.4305582388715
 20
-139.7292832766996
 97
        0
 97
        0
 75
     2
 76
     1
 98
        0
  0
ENDBLK
  5
BD
330
BA
100
AcDbEntity
  8
0
100
AcDbBlockEnd
  0
ENDSEC
  0
SECTION
  2
ENTITIES
  0
POLYLINE
  5
41
330
1F
100
AcDbEntity
  8
_U+30EC_U+30A4_U+30E4_U+30FC 1
 62
   179
420
  2234388
370
     9
100
AcDb2dPolyline
 66
     1
 10
0.0
 20
0.0
 30
0.0
  0
VERTEX
  5
42
330
41
100
AcDbEntity
  8
_U+30EC_U+30A4_U+30E4_U+30FC 1
 62
   179
420
  2234388
370
     9
100
AcDbVertex
100
AcDb2dVertex
 10
97.59607770387247
 20
-159.0353722916485
 30
0.0
  0
VERTEX
  5
43
330
41
100
AcDbEntity
  8
_U+30EC_U+30A4_U+30E4_U+30FC 1
 62
   179
420
  2234388
370
     9
100
AcDbVertex
100
AcDb2dVertex
 10
97.0958336905291
 20
-159.9014477647935
 30
0.0
  0
SEQEND
  5
44
330
41
100
AcDbEntity
  8
_U+30EC_U+30A4_U+30E4_U+30FC 1
 62
   179
420
  2234388
370
     9
  0
POLYLINE
  5
45
330
1F
100
AcDbEntity
  8
_U+30EC_U+30A4_U+30E4_U+30FC 1
 62
   179
420
  2234388
370
     9
100
AcDb2dPolyline
 66
     1
 10
0.0
 20
0.0
 30
0.0
  0
VERTEX
  5
46
330
45
100
AcDbEntity
  8
_U+30EC_U+30A4_U+30E4_U+30FC 1
 62
   179
420
  2234388
370
     9
100
AcDbVertex
100
AcDb2dVertex
 10
97.96190916367414
 20
-159.4018658557387
 30
0.0
  0
VERTEX
  5
47
330
45
100
AcDbEntity
  8
_U+30EC_U+30A4_U+30E4_U+30FC 1
 62
   179
420
  2234388
370
     9
100
AcDbVertex
100
AcDb2dVertex
 10
97.09583907349112
 20
-159.9014047010999
 30
0.0
  0
SEQEND
  5
48
330
45
100
AcDbEntity
  8
_U+30EC_U+30A4_U+30E4_U+30FC 1
 62
   179
420
  2234388
370
     9
  0
POLYLINE
  5
49
330
1F
100
AcDbEntity
  8
_U+30EC_U+30A4_U+30E4_U+30FC 1
 62
   179
420
  2234388
370
     9
100
AcDb2dPolyline
 66
     1
 10
0.0
 20
0.0
 30
0.0
  0
VERTEX
  5
4A
330
49
100
AcDbEntity
  8
_U+30EC_U+30A4_U+30E4_U+30FC 1
 62
   179
420
  2234388
370
     9
100
AcDbVertex
100
AcDb2dVertex
 10
105.4290136709491
 20
-151.6407870443381
 30
0.0
  0
VERTEX
  5
4B
330
49
100
AcDbEntity
  8
_U+30EC_U+30A4_U+30E4_U+30FC 1
 62
   179
420
  2234388
370
     9
100
AcDbVertex
100
AcDb2dVertex
 10
97.09569373352502
 20
-159.9014369988701
 30
0.0
  0
SEQEND
  5
4C
330
49
100
AcDbEntity
  8
_U+30EC_U+30A4_U+30E4_U+30FC 1
 62
   179
420
  2234388
370
     9
  0
POLYLINE
  5
4D
330
1F
100
AcDbEntity
  8
_U+30EC_U+30A4_U+30E4_U+30FC 1
 62
   179
420
  2234388
370
     9
100
AcDb2dPolyline
 66
     1
 10
0.0
 20
0.0
 30
0.0
  0
VERTEX
  5
4E
330
4D
100
AcDbEntity
  8
_U+30EC_U+30A4_U+30E4_U+30FC 1
 62
   179
420
  2234388
370
     9
100
AcDbVertex
100
AcDb2dVertex
 10
91.64637626899922
 20
-148.1617789004053
 30
0.0
  0
VERTEX
  5
4F
330
4D
100
AcDbEntity
  8
_U+30EC_U+30A4_U+30E4_U+30FC 1
 62
   179
420
  2234388
370
     9
100
AcDbVertex
100
AcDb2dVertex
 10
91.1461349471367
 20
-149.0278543735503
 30
0.0
  0
SEQEND
  5
50
330
4D
100
AcDbEntity
  8
_U+30EC_U+30A4_U+30E4_U+30FC 1
 62
   179
420
  2234388
370
     9
  0
POLYLINE
  5
51
330
1F
100
AcDbEntity
  8
_U+30EC_U+30A4_U+30E4_U+30FC 1
 62
   179
420
  2234388
370
     9
100
AcDb2dPolyline
 66
     1
 10
0.0
 20
0.0
 30
0.0
  0
VERTEX
  5
52
330
51
100
AcDbEntity
  8
_U+30EC_U+30A4_U+30E4_U+30FC 1
 62
   179
420
  2234388
370
     9
100
AcDbVertex
100
AcDb2dVertex
 10
92.01227501582207
 20
-148.5283155281891
 30
0.0
  0
VERTEX
  5
53
330
51
100
AcDbEntity
  8
_U+30EC_U+30A4_U+30E4_U+30FC 1
 62
   179
420
  2234388
370
     9
100
AcDbVertex
100
AcDb2dVertex
 10
91.14620492563874
 20
-149.0278543735503
 30
0.0
  0
SEQEND
  5
54
330
51
100
AcDbEntity
  8
_U+30EC_U+30A4_U+30E4_U+30FC 1
 62
   179
420
  2234388
370
     9
  0
POLYLINE
  5
55
330
1F
100
AcDbEntity
  8
_U+30EC_U+30A4_U+30E4_U+30FC 1
 62
   179
420
  2234388
370
     9
100
AcDb2dPolyline
 66
     1
 10
0.0
 20
0.0
 30
0.0
  0
VERTEX
  5
56
330
55
100
AcDbEntity
  8
_U+30EC_U+30A4_U+30E4_U+30FC 1
 62
   179
420
  2234388
370
     9
100
AcDbVertex
100
AcDb2dVertex
 10
91.14617262786857
 20
-149.0278328417035
 30
0.0
  0
VERTEX
  5
57
330
55
100
AcDbEntity
  8
_U+30EC_U+30A4_U+30E4_U+30FC 1
 62
   179
420
  2234388
370
     9
100
AcDbVertex
100
AcDb2dVertex
 10
99.47948449085008
 20
-140.7672044190183
 30
0.0
  0
VERTEX
  5
58
330
55
100
AcDbEntity
  8
_U+30EC_U+30A4_U+30E4_U+30FC 1
 62
   179
420
  2234388
370
     9
100
AcDbVertex
100
AcDb2dVertex
 10
118.3767375650103
 20
-140.7672044190183
 30
0.0
  0
SEQEND
  5
59
330
55
100
AcDbEntity
  8
_U+30EC_U+30A4_U+30E4_U+30FC 1
 62
   179
420
  2234388
370
     9
  0
SPLINE
  5
5A
330
1F
100
AcDbEntity
  8
_U+30EC_U+30A4_U+30E4_U+30FC 1
 62
   179
420
  2234388
370
     9
100
AcDbSpline
210
0.0
220
0.0
230
1.0
 70
    11
 71
     3
 72
    17
 73
    13
 74
     0
 42
0.0000000001
 43
0.0000000001
 12
1.0
 22
0.0
 32
0.0
 13
1.0
 23
0.0
 33
0.0
 40
0.0
 40
0.0
 40
0.0
 40
0.0
 40
1.0
 40
1.0
 40
1.0
 40
2.0
 40
2.0
 40
2.0
 40
3.0
 40
3.0
 40
3.0
 40
4.0
 40
4.0
 40
4.0
 40
4.0
 10
128.6187911241902
 20
-170.4721741991897
 30
0.0
 10
128.6187911241902
 20
-170.4171495647362
 30
0.0
 10
128.5739833510352
 20
-170.3723417915812
 30
0.0
 10
128.5182481656379
 20
-170.3723417915812
 30
0.0
 10
128.463212765261
 20
-170.3723417915812
 30
0.0
 10
128.4184103750677
 20
-170.4171495647362
 30
0.0
 10
128.4184103750677
 20
-170.4721741991897
 30
0.0
 10
128.4184103750677
 20
-170.5272095995666
 30
0.0
 10
128.463212765261
 20
-170.5720173727216
 30
0.0
 10
128.5182481656379
 20
-170.5720173727216
 30
0.0
 10
128.5739833510352
 20
-170.5720173727216
 30
0.0
 10
128.6187911241902
 20
-170.5272095995666
 30
0.0
 10
128.6187911241902
 20
-170.4721741991897
 30
0.0
  0
SPLINE
  5
5B
330
1F
100
AcDbEntity
  8
_U+30EC_U+30A4_U+30E4_U+30FC 1
 62
   179
420
  2234388
370
     9
100
AcDbSpline
210
0.0
220
0.0
230
1.0
 70
    11
 71
     3
 72
    17
 73
    13
 74
     0
 42
0.0000000001
 43
0.0000000001
 12
1.0
 22
0.0
 32
0.0
 13
1.0
 23
0.0
 33
0.0
 40
0.0
 40
0.0
 40
0.0
 40
0.0
 40
1.0
 40
1.0
 40
1.0
 40
2.0
 40
2.0
 40
2.0
 40
3.0
 40
3.0
 40
3.0
 40
4.0
 40
4.0
 40
4.0
 40
4.0
 10
88.61848453849399
 20
-170.4721741991897
 30
0.0
 10
88.61848453849399
 20
-170.4171495647362
 30
0.0
 10
88.5736794568198
 20
-170.3723417915812
 30
0.0
 10
88.51864674792378
 20
-170.3723417915812
 30
0.0
 10
88.46361403902776
 20
-170.3723417915812
 30
0.0
 10
88.41881164883443
 20
-170.4171495647362
 30
0.0
 10
88.41881164883443
 20
-170.4721741991897
 30
0.0
 10
88.41881164883443
 20
-170.5272095995666
 30
0.0
 10
88.46361403902776
 20
-170.5720173727216
 30
0.0
 10
88.51864674792378
 20
-170.5720173727216
 30
0.0
 10
88.5736794568198
 20
-170.5720173727216
 30
0.0
 10
88.61848453849399
 20
-170.5272095995666
 30
0.0
 10
88.61848453849399
 20
-170.4721741991897
 30
0.0
  0
SPLINE
  5
5C
330
1F
100
AcDbEntity
  8
_U+30EC_U+30A4_U+30E4_U+30FC 1
 62
   179
420
  2234388
370
     9
100
AcDbSpline
210
0.0
220
0.0
230
1.0
 70
    11
 71
     3
 72
    17
 73
    13
 74
     0
 42
0.0000000001
 43
0.0000000001
 12
1.0
 22
0.0
 32
0.0
 13
1.0
 23
0.0
 33
0.0
 40
0.0
 40
0.0
 40
0.0
 40
0.0
 40
1.0
 40
1.0
 40
1.0
 40
2.0
 40
2.0
 40
2.0
 40
3.0
 40
3.0
 40
3.0
 40
4.0
 40
4.0
 40
4.0
 40
4.0
 10
84.61875828640825
 20
-126.4721036806758
 30
0.0
 10
84.61875828640825
 20
-126.4170898121457
 30
0.0
 10
84.57395320473407
 20
-126.3722820389907
 30
0.0
 10
84.51892049583805
 20
-126.3722820389907
 30
0.0
 10
84.46318261895989
 20
-126.3722820389907
 30
0.0
 10
84.41838022876655
 20
-126.4170898121457
 30
0.0
 10
84.41838022876655
 20
-126.4721036806758
 30
0.0
 10
84.41838022876655
 20
-126.5271390810527
 30
0.0
 10
84.46318261895989
 20
-126.5719468542077
 30
0.0
 10
84.51892049583805
 20
-126.5719468542077
 30
0.0
 10
84.57395320473407
 20
-126.5719468542077
 30
0.0
 10
84.61875828640825
 20
-126.5271390810527
 30
0.0
 10
84.61875828640825
 20
-126.4721036806758
 30
0.0
  0
SPLINE
  5
5D
330
1F
100
AcDbEntity
  8
_U+30EC_U+30A4_U+30E4_U+30FC 1
 62
   179
420
  2234388
370
     9
100
AcDbSpline
210
0.0
220
0.0
230
1.0
 70
    11
 71
     3
 72
    17
 73
    13
 74
     0
 42
0.0000000001
 43
0.0000000001
 12
1.0
 22
0.0
 32
0.0
 13
1.0
 23
0.0
 33
0.0
 40
0.0
 40
0.0
 40
0.0
 40
0.0
 40
1.0
 40
1.0
 40
1.0
 40
2.0
 40
2.0
 40
2.0
 40
3.0
 40
3.0
 40
3.0
 40
4.0
 40
4.0
 40
4.0
 40
4.0
 10
84.61875828640825
 20
-166.4724506385848
 30
0.0
 10
84.61875828640825
 20
-166.4174260041313
 30
0.0
 10
84.57395320473407
 20
-166.3726182309763
 30
0.0
 10
84.51892049583805
 20
-166.3726182309763
 30
0.0
 10
84.46318261895989
 20
-166.3726182309763
 30
0.0
 10
84.41838022876655
 20
-166.4174260041313
 30
0.0
 10
84.41838022876655
 20
-166.4724506385848
 30
0.0
 10
84.41838022876655
 20
-166.5274860389617
 30
0.0
 10
84.46318261895989
 20
-166.5722938121167
 30
0.0
 10
84.51892049583805
 20
-166.5722938121167
 30
0.0
 10
84.57395320473407
 20
-166.5722938121167
 30
0.0
 10
84.61875828640825
 20
-166.5274860389617
 30
0.0
 10
84.61875828640825
 20
-166.4724506385848
 30
0.0
  0
INSERT
  5
5F
330
1F
100
AcDbEntity
  8
_U+30EC_U+30A4_U+30E4_U+30FC 1
100
AcDbBlockReference
  2
block 2
 10
0.0
 20
0.0
 30
0.0
  0
POLYLINE
  5
6A
330
1F
100
AcDbEntity
  8
_U+30EC_U+30A4_U+30E4_U+30FC 1
 62
   179
420
  2234388
370
     9
100
AcDb2dPolyline
 66
     1
 10
0.0
 20
0.0
 30
0.0
  0
VERTEX
  5
6B
330
6A
100
AcDbEntity
  8
_U+30EC_U+30A4_U+30E4_U+30FC 1
 62
   179
420
  2234388
370
     9
100
AcDbVertex
100
AcDb2dVertex
 10
84.51881821956583
 20
-126.4721036806758
 30
0.0
  0
VERTEX
  5
6C
330
6A
100
AcDbEntity
  8
_U+30EC_U+30A4_U+30E4_U+30FC 1
 62
   179
420
  2234388
370
     9
100
AcDbVertex
100
AcDb2dVertex
 10
84.51881821956583
 20
-166.4725260000485
 30
0.0
  0
SEQEND
  5
6D
330
6A
100
AcDbEntity
  8
_U+30EC_U+30A4_U+30E4_U+30FC 1
 62
   179
420
  2234388
370
     9
  0
POLYLINE
  5
6E
330
1F
100
AcDbEntity
  8
_U+30EC_U+30A4_U+30E4_U+30FC 1
 62
   179
420
  2234388
370
     9
100
AcDb2dPolyline
 66
     1
 10
0.0
 20
0.0
 30
0.0
  0
VERTEX
  5
6F
330
6E
100
AcDbEntity
  8
_U+30EC_U+30A4_U+30E4_U+30FC 1
 62
   179
420
  2234388
370
     9
100
AcDbVertex
100
AcDb2dVertex
 10
86.77881700677482
 20
-126.4721036806758
 30
0.0
  0
VERTEX
  5
70
330
6E
100
AcDbEntity
  8
_U+30EC_U+30A4_U+30E4_U+30FC 1
 62
   179
420
  2234388
370
     9
100
AcDbVertex
100
AcDb2dVertex
 10
83.51844323507471
 20
-126.4721036806758
 30
0.0
  0
SEQEND
  5
71
330
6E
100
AcDbEntity
  8
_U+30EC_U+30A4_U+30E4_U+30FC 1
 62
   179
420
  2234388
370
     9
  0
POLYLINE
  5
72
330
1F
100
AcDbEntity
  8
_U+30EC_U+30A4_U+30E4_U+30FC 1
 62
   179
420
  2234388
370
     9
100
AcDb2dPolyline
 66
     1
 10
0.0
 20
0.0
 30
0.0
  0
VERTEX
  5
73
330
72
100
AcDbEntity
  8
_U+30EC_U+30A4_U+30E4_U+30FC 1
 62
   179
420
  2234388
370
     9
100
AcDbVertex
100
AcDb2dVertex
 10
109.3095692255345
 20
-166.4724506385848
 30
0.0
  0
VERTEX
  5
74
330
72
100
AcDbEntity
  8
_U+30EC_U+30A4_U+30E4_U+30FC 1
 62
   179
420
  2234388
370
     9
100
AcDbVertex
100
AcDb2dVertex
 10
83.51833826732164
 20
-166.4724506385848
 30
0.0
  0
SEQEND
  5
75
330
72
100
AcDbEntity
  8
_U+30EC_U+30A4_U+30E4_U+30FC 1
 62
   179
420
  2234388
370
     9
  0
INSERT
  5
77
330
1F
100
AcDbEntity
  8
_U+30EC_U+30A4_U+30E4_U+30FC 1
100
AcDbBlockReference
  2
block 3
 10
0.0
 20
0.0
 30
0.0
  0
POLYLINE
  5
92
330
1F
100
AcDbEntity
  8
_U+30EC_U+30A4_U+30E4_U+30FC 1
 62
   179
420
  2234388
370
     9
100
AcDb2dPolyline
 66
     1
 10
0.0
 20
0.0
 30
0.0
  0
VERTEX
  5
93
330
92
100
AcDbEntity
  8
_U+30EC_U+30A4_U+30E4_U+30FC 1
 62
   179
420
  2234388
370
     9
100
AcDbVertex
100
AcDb2dVertex
 10
128.5182158678678
 20
-170.4721741991897
 30
0.0
  0
VERTEX
  5
94
330
92
100
AcDbEntity
  8
_U+30EC_U+30A4_U+30E4_U+30FC 1
 62
   179
420
  2234388
370
     9
100
AcDbVertex
100
AcDb2dVertex
 10
88.51850679091969
 20
-170.4721741991897
 30
0.0
  0
SEQEND
  5
95
330
92
100
AcDbEntity
  8
_U+30EC_U+30A4_U+30E4_U+30FC 1
 62
   179
420
  2234388
370
     9
  0
POLYLINE
  5
96
330
1F
100
AcDbEntity
  8
_U+30EC_U+30A4_U+30E4_U+30FC 1
 62
   179
420
  2234388
370
     9
100
AcDb2dPolyline
 66
     1
 10
0.0
 20
0.0
 30
0.0
  0
VERTEX
  5
97
330
96
100
AcDbEntity
  8
_U+30EC_U+30A4_U+30E4_U+30FC 1
 62
   179
420
  2234388
370
     9
100
AcDbVertex
100
AcDb2dVertex
 10
128.5182158678678
 20
-168.2122130927126
 30
0.0
  0
VERTEX
  5
98
330
96
100
AcDbEntity
  8
_U+30EC_U+30A4_U+30E4_U+30FC 1
 62
   179
420
  2234388
370
     9
100
AcDbVertex
100
AcDb2dVertex
 10
128.5182158678678
 20
-171.4718870793922
 30
0.0
  0
SEQEND
  5
99
330
96
100
AcDbEntity
  8
_U+30EC_U+30A4_U+30E4_U+30FC 1
 62
   179
420
  2234388
370
     9
  0
POLYLINE
  5
9A
330
1F
100
AcDbEntity
  8
_U+30EC_U+30A4_U+30E4_U+30FC 1
 62
   179
420
  2234388
370
     9
100
AcDb2dPolyline
 66
     1
 10
0.0
 20
0.0
 30
0.0
  0
VERTEX
  5
9B
330
9A
100
AcDbEntity
  8
_U+30EC_U+30A4_U+30E4_U+30FC 1
 62
   179
420
  2234388
370
     9
100
AcDbVertex
100
AcDb2dVertex
 10
88.51857676942174
 20
-145.6807503230091
 30
0.0
  0
VERTEX
  5
9C
330
9A
100
AcDbEntity
  8
_U+30EC_U+30A4_U+30E4_U+30FC 1
 62
   179
420
  2234388
370
     9
100
AcDbVertex
100
AcDb2dVertex
 10
88.51857676942174
 20
-171.4719839727028
 30
0.0
  0
SEQEND
  5
9D
330
9A
100
AcDbEntity
  8
_U+30EC_U+30A4_U+30E4_U+30FC 1
 62
   179
420
  2234388
370
     9
  0
INSERT
  5
9F
330
1F
100
AcDbEntity
  8
_U+30EC_U+30A4_U+30E4_U+30FC 1
100
AcDbBlockReference
  2
block 4
 10
0.0
 20
0.0
 30
0.0
  0
INSERT
  5
BB
330
1F
100
AcDbEntity
  8
_U+30EC_U+30A4_U+30E4_U+30FC 1
100
AcDbBlockReference
  2
block 5
 10
0.0
 20
0.0
 30
0.0
  0
SPLINE
  5
FA
330
1F
100
AcDbEntity
  8
_U+30EC_U+30A4_U+30E4_U+30FC 1
  6
AI-Linetype-1
 62
   154
420
    23468
370
    25
100
AcDbSpline
210
0.0
220
0.0
230
1.0
 70
     8
 71
     3
 72
    14
 73
    10
 74
     0
 42
0.0000000001
 43
0.0000000001
 12
1.0
 22
0.0
 32
0.0
 13
1.0
 23
0.0
 33
0.0
 40
0.0
 40
0.0
 40
0.0
 40
0.0
 40
1.0
 40
1.0
 40
1.0
 40
2.0
 40
2.0
 40
2.0
 40
3.0
 40
3.0
 40
3.0
 40
3.0
 10
123.6440947753363
 20
-164.8408534167705
 30
0.0
 10
123.6440947753363
 20
-164.8408534167705
 30
0.0
 10
108.6443320532561
 20
-164.3406147863888
 30
0.0
 10
108.6443320532561
 20
-164.3406147863888
 30
0.0
 10
98.7034121372572
 20
-164.3406147863888
 30
0.0
 10
90.6445559592928
 20
-156.2817612999053
 30
0.0
 10
90.6445559592928
 20
-146.3408521498297
 30
0.0
 10
90.6445559592928
 20
-146.3408521498297
 30
0.0
 10
90.14431732891114
 20
-131.3410786618262
 30
0.0
 10
90.14431732891114
 20
-131.3410786618262
 30
0.0
  0
SPLINE
  5
FC
330
1F
100
AcDbEntity
  8
_U+30EC_U+30A4_U+30E4_U+30FC 1
 62
   179
420
  2234388
370
    25
100
AcDbSpline
210
0.0
220
0.0
230
1.0
 70
     8
 71
     3
 72
   185
 73
   181
 74
     0
 42
0.0000000001
 43
0.0000000001
 12
1.0
 22
0.0
 32
0.0
 13
1.0
 23
0.0
 33
0.0
 40
0.0
 40
0.0
 40
0.0
 40
0.0
 40
1.0
 40
1.0
 40
1.0
 40
2.0
 40
2.0
 40
2.0
 40
3.0
 40
3.0
 40
3.0
 40
4.0
 40
4.0
 40
4.0
 40
5.0
 40
5.0
 40
5.0
 40
6.0
 40
6.0
 40
6.0
 40
7.0
 40
7.0
 40
7.0
 40
8.0
 40
8.0
 40
8.0
 40
9.0
 40
9.0
 40
9.0
 40
10.0
 40
10.0
 40
10.0
 40
11.0
 40
11.0
 40
11.0
 40
12.0
 40
12.0
 40
12.0
 40
13.0
 40
13.0
 40
13.0
 40
14.0
 40
14.0
 40
14.0
 40
15.0
 40
15.0
 40
15.0
 40
16.0
 40
16.0
 40
16.0
 40
17.0
 40
17.0
 40
17.0
 40
18.0
 40
18.0
 40
18.0
 40
19.0
 40
19.0
 40
19.0
 40
20.0
 40
20.0
 40
20.0
 40
21.0
 40
21.0
 40
21.0
 40
22.0
 40
22.0
 40
22.0
 40
23.0
 40
23.0
 40
23.0
 40
24.0
 40
24.0
 40
24.0
 40
25.0
 40
25.0
 40
25.0
 40
26.0
 40
26.0
 40
26.0
 40
27.0
 40
27.0
 40
27.0
 40
28.0
 40
28.0
 40
28.0
 40
29.0
 40
29.0
 40
29.0
 40
30.0
 40
30.0
 40
30.0
 40
31.0
 40
31.0
 40
31.0
 40
32.0
 40
32.0
 40
32.0
 40
33.0
 40
33.0
 40
33.0
 40
34.0
 40
34.0
 40
34.0
 40
35.0
 40
35.0
 40
35.0
 40
36.0
 40
36.0
 40
36.0
 40
37.0
 40
37.0
 40
37.0
 40
38.0
 40
38.0
 40
38.0
 40
39.0
 40
39.0
 40
39.0
 40
40.0
 40
40.0
 40
40.0
 40
41.0
 40
41.0
 40
41.0
 40
42.0
 40
42.0
 40
42.0
 40
43.0
 40
43.0
 40
43.0
 40
44.0
 40
44.0
 40
44.0
 40
45.0
 40
45.0
 40
45.0
 40
46.0
 40
46.0
 40
46.0
 40
47.0
 40
47.0
 40
47.0
 40
48.0
 40
48.0
 40
48.0
 40
49.0
 40
49.0
 40
49.0
 40
50.0
 40
50.0
 40
50.0
 40
51.0
 40
51.0
 40
51.0
 40
52.0
 40
52.0
 40
52.0
 40
53.0
 40
53.0
 40
53.0
 40
54.0
 40
54.0
 40
54.0
 40
55.0
 40
55.0
 40
55.0
 40
56.0
 40
56.0
 40
56.0
 40
57.0
 40
57.0
 40
57.0
 40
58.0
 40
58.0
 40
58.0
 40
59.0
 40
59.0
 40
59.0
 40
60.0
 40
60.0
 40
60.0
 40
60.0
 10
88.77628067764182
 20
-141.2758942992622
 30
0.0
 10
88.77628067764182
 20
-141.2758942992622
 30
0.0
 10
88.64434159499929
 20
-141.2758942992622
 30
0.0
 10
88.64434159499929
 20
-141.2758942992622
 30
0.0
 10
88.64434159499929
 20
-141.2758942992622
 30
0.0
 10
88.64434159499929
 20
-146.3407444905958
 30
0.0
 10
88.64434159499929
 20
-146.3407444905958
 30
0.0
 10
88.64434159499929
 20
-157.3862158487828
 30
0.0
 10
97.59889837580101
 20
-166.3407618636611
 30
0.0
 10
108.644369733988
 20
-166.3407618636611
 30
0.0
 10
108.644369733988
 20
-166.3407618636611
 30
0.0
 10
113.7042622175999
 20
-166.3404065881892
 30
0.0
 10
113.7042622175999
 20
-166.3404065881892
 30
0.0
 10
113.7042622175999
 20
-166.3404065881892
 30
0.0
 10
113.7092037764365
 20
-166.471987703879
 30
0.0
 10
113.7092037764365
 20
-166.471987703879
 30
0.0
 10
113.7092037764365
 20
-166.471987703879
 30
0.0
 10
113.969200826339
 20
-166.209169982048
 30
0.0
 10
113.969200826339
 20
-166.209169982048
 30
0.0
 10
113.969200826339
 20
-166.209169982048
 30
0.0
 10
114.2291978762414
 20
-166.471987703879
 30
0.0
 10
114.2291978762414
 20
-166.471987703879
 30
0.0
 10
114.2291978762414
 20
-166.471987703879
 30
0.0
 10
114.4895448186541
 20
-166.209169982048
 30
0.0
 10
114.4895448186541
 20
-166.209169982048
 30
0.0
 10
114.4895448186541
 20
-166.209169982048
 30
0.0
 10
114.7491919760463
 20
-166.471987703879
 30
0.0
 10
114.7491919760463
 20
-166.471987703879
 30
0.0
 10
114.7491919760463
 20
-166.471987703879
 30
0.0
 10
115.0088337504769
 20
-166.209169982048
 30
0.0
 10
115.0088337504769
 20
-166.209169982048
 30
0.0
 10
115.0088337504769
 20
-166.209169982048
 30
0.0
 10
115.2684809078691
 20
-166.471987703879
 30
0.0
 10
115.2684809078691
 20
-166.471987703879
 30
0.0
 10
115.2684809078691
 20
-166.471987703879
 30
0.0
 10
115.5281226822996
 20
-166.209169982048
 30
0.0
 10
115.5281226822996
 20
-166.209169982048
 30
0.0
 10
115.5281226822996
 20
-166.209169982048
 30
0.0
 10
115.7870646717097
 20
-166.471987703879
 30
0.0
 10
115.7870646717097
 20
-166.471987703879
 30
0.0
 10
115.7870646717097
 20
-166.471987703879
 30
0.0
 10
116.0467064461402
 20
-166.209169982048
 30
0.0
 10
116.0467064461402
 20
-166.209169982048
 30
0.0
 10
116.0467064461402
 20
-166.209169982048
 30
0.0
 10
116.3059983280606
 20
-166.471987703879
 30
0.0
 10
116.3059983280606
 20
-166.471987703879
 30
0.0
 10
116.3059983280606
 20
-166.471987703879
 30
0.0
 10
116.5656454854528
 20
-166.209169982048
 30
0.0
 10
116.5656454854528
 20
-166.209169982048
 30
0.0
 10
116.5656454854528
 20
-166.209169982048
 30
0.0
 10
116.8252872598833
 20
-166.471987703879
 30
0.0
 10
116.8252872598833
 20
-166.471987703879
 30
0.0
 10
116.8252872598833
 20
-166.471987703879
 30
0.0
 10
117.0849344172755
 20
-166.209169982048
 30
0.0
 10
117.0849344172755
 20
-166.209169982048
 30
0.0
 10
117.0849344172755
 20
-166.209169982048
 30
0.0
 10
117.3445761917061
 20
-166.471987703879
 30
0.0
 10
117.3445761917061
 20
-166.471987703879
 30
0.0
 10
117.3445761917061
 20
-166.471987703879
 30
0.0
 10
117.6049285170804
 20
-166.209169982048
 30
0.0
 10
117.6049285170804
 20
-166.209169982048
 30
0.0
 10
117.6049285170804
 20
-166.209169982048
 30
0.0
 10
117.864570291511
 20
-166.471987703879
 30
0.0
 10
117.864570291511
 20
-166.471987703879
 30
0.0
 10
117.864570291511
 20
-166.471987703879
 30
0.0
 10
118.1245673414134
 20
-166.209169982048
 30
0.0
 10
118.1245673414134
 20
-166.209169982048
 30
0.0
 10
118.1245673414134
 20
-166.209169982048
 30
0.0
 10
118.3842144988056
 20
-166.471987703879
 30
0.0
 10
118.3842144988056
 20
-166.471987703879
 30
0.0
 10
118.3842144988056
 20
-166.471987703879
 30
0.0
 10
118.643506380726
 20
-166.209169982048
 30
0.0
 10
118.643506380726
 20
-166.209169982048
 30
0.0
 10
118.643506380726
 20
-166.209169982048
 30
0.0
 10
118.9027982626463
 20
-166.471987703879
 30
0.0
 10
118.9027982626463
 20
-166.471987703879
 30
0.0
 10
118.9027982626463
 20
-166.471987703879
 30
0.0
 10
119.1620901445666
 20
-166.209169982048
 30
0.0
 10
119.1620901445666
 20
-166.209169982048
 30
0.0
 10
119.1620901445666
 20
-166.209169982048
 30
0.0
 10
119.4217319189971
 20
-166.471987703879
 30
0.0
 10
119.4217319189971
 20
-166.471987703879
 30
0.0
 10
119.4217319189971
 20
-166.471987703879
 30
0.0
 10
119.6810238009174
 20
-166.209169982048
 30
0.0
 10
119.6810238009174
 20
-166.209169982048
 30
0.0
 10
119.6810238009174
 20
-166.209169982048
 30
0.0
 10
119.9399604073658
 20
-166.471987703879
 30
0.0
 10
119.9399604073658
 20
-166.471987703879
 30
0.0
 10
119.9399604073658
 20
-166.471987703879
 30
0.0
 10
120.1992522892861
 20
-166.209169982048
 30
0.0
 10
120.1992522892861
 20
-166.209169982048
 30
0.0
 10
120.1992522892861
 20
-166.209169982048
 30
0.0
 10
120.4585441712064
 20
-166.471987703879
 30
0.0
 10
120.4585441712064
 20
-166.471987703879
 30
0.0
 10
120.4585441712064
 20
-166.471987703879
 30
0.0
 10
120.7174861606165
 20
-166.209169982048
 30
0.0
 10
120.7174861606165
 20
-166.209169982048
 30
0.0
 10
120.7174861606165
 20
-166.209169982048
 30
0.0
 10
120.9771279350471
 20
-166.471987703879
 30
0.0
 10
120.9771279350471
 20
-166.471987703879
 30
0.0
 10
120.9771279350471
 20
-166.471987703879
 30
0.0
 10
121.2367750924393
 20
-166.209169982048
 30
0.0
 10
121.2367750924393
 20
-166.209169982048
 30
0.0
 10
121.2367750924393
 20
-166.209169982048
 30
0.0
 10
121.4957116988877
 20
-166.471987703879
 30
0.0
 10
121.4957116988877
 20
-166.471987703879
 30
0.0
 10
121.4957116988877
 20
-166.471987703879
 30
0.0
 10
121.7553588562799
 20
-166.209169982048
 30
0.0
 10
121.7553588562799
 20
-166.209169982048
 30
0.0
 10
121.7553588562799
 20
-166.209169982048
 30
0.0
 10
122.0150006307104
 20
-166.471987703879
 30
0.0
 10
122.0150006307104
 20
-166.471987703879
 30
0.0
 10
122.0150006307104
 20
-166.471987703879
 30
0.0
 10
122.2746477881027
 20
-166.209169982048
 30
0.0
 10
122.2746477881027
 20
-166.209169982048
 30
0.0
 10
122.2746477881027
 20
-166.209169982048
 30
0.0
 10
122.5349947305154
 20
-166.471987703879
 30
0.0
 10
122.5349947305154
 20
-166.471987703879
 30
0.0
 10
122.5349947305154
 20
-166.471987703879
 30
0.0
 10
122.7946418879076
 20
-166.209169982048
 30
0.0
 10
122.7946418879076
 20
-166.209169982048
 30
0.0
 10
122.7946418879076
 20
-166.209169982048
 30
0.0
 10
123.0542836623381
 20
-166.471987703879
 30
0.0
 10
123.0542836623381
 20
-166.471987703879
 30
0.0
 10
123.0542836623381
 20
-166.471987703879
 30
0.0
 10
123.3128703762763
 20
-166.209169982048
 30
0.0
 10
123.3128703762763
 20
-166.209169982048
 30
0.0
 10
123.3128703762763
 20
-166.209169982048
 30
0.0
 10
123.5725175336685
 20
-166.471987703879
 30
0.0
 10
123.5725175336685
 20
-166.471987703879
 30
0.0
 10
123.5725175336685
 20
-166.471987703879
 30
0.0
 10
123.8318094155888
 20
-166.209169982048
 30
0.0
 10
123.8318094155888
 20
-166.209169982048
 30
0.0
 10
123.8318094155888
 20
-166.209169982048
 30
0.0
 10
124.0911012975091
 20
-166.471987703879
 30
0.0
 10
124.0911012975091
 20
-166.471987703879
 30
0.0
 10
124.0911012975091
 20
-166.471987703879
 30
0.0
 10
124.3500379039575
 20
-166.209169982048
 30
0.0
 10
124.3500379039575
 20
-166.209169982048
 30
0.0
 10
124.3500379039575
 20
-166.209169982048
 30
0.0
 10
124.6089745104059
 20
-166.471987703879
 30
0.0
 10
124.6089745104059
 20
-166.471987703879
 30
0.0
 10
124.6089745104059
 20
-166.471987703879
 30
0.0
 10
124.867916499816
 20
-166.209169982048
 30
0.0
 10
124.867916499816
 20
-166.209169982048
 30
0.0
 10
124.867916499816
 20
-166.209169982048
 30
0.0
 10
125.1268531062644
 20
-166.471987703879
 30
0.0
 10
125.1268531062644
 20
-166.471987703879
 30
0.0
 10
125.1268531062644
 20
-166.471987703879
 30
0.0
 10
125.3854398202026
 20
-166.209169982048
 30
0.0
 10
125.3854398202026
 20
-166.209169982048
 30
0.0
 10
125.3854398202026
 20
-166.209169982048
 30
0.0
 10
125.6443818096127
 20
-166.471987703879
 30
0.0
 10
125.6443818096127
 20
-166.471987703879
 30
0.0
 10
125.6443818096127
 20
-166.471987703879
 30
0.0
 10
125.6443818096127
 20
-166.3407618636611
 30
0.0
 10
125.6443818096127
 20
-166.3407618636611
 30
0.0
 10
125.6443818096127
 20
-166.3407618636611
 30
0.0
 10
128.6444032559384
 20
-166.3407618636611
 30
0.0
 10
128.6444032559384
 20
-166.3407618636611
 30
0.0
 10
128.6444032559384
 20
-166.3407618636611
 30
0.0
 10
128.6444032559384
 20
-165.8405232332795
 30
0.0
 10
128.6444032559384
 20
-165.8405232332795
 30
0.0
 10
128.6444032559384
 20
-165.8405232332795
 30
0.0
 10
108.644369733988
 20
-165.3406291124463
 30
0.0
 10
108.644369733988
 20
-165.3406291124463
 30
0.0
 10
98.15099645915909
 20
-165.3406291124463
 30
0.0
 10
89.64446627177156
 20
-156.8341177654247
 30
0.0
 10
89.64446627177156
 20
-146.3407444905958
 30
0.0
 10
89.64446627177156
 20
-146.3407444905958
 30
0.0
 10
89.14422764138989
 20
-126.3406948197603
 30
0.0
 10
89.14422764138989
 20
-126.3406948197603
 30
0.0
 10
89.14422764138989
 20
-126.3406948197603
 30
0.0
 10
88.64434159499929
 20
-126.3406948197603
 30
0.0
 10
88.64434159499929
 20
-126.3406948197603
 30
0.0
 10
88.64434159499929
 20
-126.3406948197603
 30
0.0
 10
88.64434159499929
 20
-129.3407270320098
 30
0.0
 10
88.64434159499929
 20
-129.3407270320098
 30
0.0
 10
88.64434159499929
 20
-129.3407270320098
 30
0.0
 10
88.77628067764182
 20
-129.3407270320098
 30
0.0
 10
88.77628067764182
 20
-129.3407270320098
 30
0.0
  0
POLYLINE
  5
FD
330
1F
100
AcDbEntity
  8
_U+30EC_U+30A4_U+30E4_U+30FC 1
 62
   179
420
  2234388
370
    25
100
AcDb2dPolyline
 66
     1
 10
0.0
 20
0.0
 30
0.0
  0
VERTEX
  5
FE
330
FD
100
AcDbEntity
  8
_U+30EC_U+30A4_U+30E4_U+30FC 1
 62
   179
420
  2234388
370
    25
100
AcDbVertex
100
AcDb2dVertex
 10
88.77628067764182
 20
-141.2758942992622
 30
0.0
  0
VERTEX
  5
FF
330
FD
100
AcDbEntity
  8
_U+30EC_U+30A4_U+30E4_U+30FC 1
 62
   179
420
  2234388
370
    25
100
AcDbVertex
100
AcDb2dVertex
 10
88.51346026432998
 20
-141.0158972493601
 30
0.0
  0
VERTEX
  5
100
330
FD
100
AcDbEntity
  8
_U+30EC_U+30A4_U+30E4_U+30FC 1
 62
   179
420
  2234388
370
    25
100
AcDbVertex
100
AcDb2dVertex
 10
88.77628067764182
 20
-140.7559001994573
 30
0.0
  0
VERTEX
  5
101
330
FD
100
AcDbEntity
  8
_U+30EC_U+30A4_U+30E4_U+30FC 1
 62
   179
420
  2234388
370
    25
100
AcDbVertex
100
AcDb2dVertex
 10
88.51346026432998
 20
-140.4959031495549
 30
0.0
  0
VERTEX
  5
102
330
FD
100
AcDbEntity
  8
_U+30EC_U+30A4_U+30E4_U+30FC 1
 62
   179
420
  2234388
370
    25
100
AcDbVertex
100
AcDb2dVertex
 10
88.77628067764182
 20
-140.236272141048
 30
0.0
  0
VERTEX
  5
103
330
FD
100
AcDbEntity
  8
_U+30EC_U+30A4_U+30E4_U+30FC 1
 62
   179
420
  2234388
370
    25
100
AcDbVertex
100
AcDb2dVertex
 10
88.51346026432998
 20
-139.9762750911453
 30
0.0
  0
VERTEX
  5
104
330
FD
100
AcDbEntity
  8
_U+30EC_U+30A4_U+30E4_U+30FC 1
 62
   179
420
  2234388
370
    25
100
AcDbVertex
100
AcDb2dVertex
 10
88.77628067764182
 20
-139.7169885921867
 30
0.0
  0
VERTEX
  5
105
330
FD
100
AcDbEntity
  8
_U+30EC_U+30A4_U+30E4_U+30FC 1
 62
   179
420
  2234388
370
    25
100
AcDbVertex
100
AcDb2dVertex
 10
88.51346026432998
 20
-139.457336051833
 30
0.0
  0
VERTEX
  5
106
330
FD
100
AcDbEntity
  8
_U+30EC_U+30A4_U+30E4_U+30FC 1
 62
   179
420
  2234388
370
    25
100
AcDbVertex
100
AcDb2dVertex
 10
88.77628067764182
 20
-139.1980495528741
 30
0.0
  0
VERTEX
  5
107
330
FD
100
AcDbEntity
  8
_U+30EC_U+30A4_U+30E4_U+30FC 1
 62
   179
420
  2234388
370
    25
100
AcDbVertex
100
AcDb2dVertex
 10
88.51346026432998
 20
-138.9383970125202
 30
0.0
  0
VERTEX
  5
108
330
FD
100
AcDbEntity
  8
_U+30EC_U+30A4_U+30E4_U+30FC 1
 62
   179
420
  2234388
370
    25
100
AcDbVertex
100
AcDb2dVertex
 10
88.77628067764182
 20
-138.6791105135616
 30
0.0
  0
VERTEX
  5
109
330
FD
100
AcDbEntity
  8
_U+30EC_U+30A4_U+30E4_U+30FC 1
 62
   179
420
  2234388
370
    25
100
AcDbVertex
100
AcDb2dVertex
 10
88.51346026432998
 20
-138.4194579732076
 30
0.0
  0
VERTEX
  5
10A
330
FD
100
AcDbEntity
  8
_U+30EC_U+30A4_U+30E4_U+30FC 1
 62
   179
420
  2234388
370
    25
100
AcDbVertex
100
AcDb2dVertex
 10
88.77628067764182
 20
-138.1598269647008
 30
0.0
  0
VERTEX
  5
10B
330
FD
100
AcDbEntity
  8
_U+30EC_U+30A4_U+30E4_U+30FC 1
 62
   179
420
  2234388
370
    25
100
AcDbVertex
100
AcDb2dVertex
 10
88.51346026432998
 20
-137.9001744243466
 30
0.0
  0
VERTEX
  5
10C
330
FD
100
AcDbEntity
  8
_U+30EC_U+30A4_U+30E4_U+30FC 1
 62
   179
420
  2234388
370
    25
100
AcDbVertex
100
AcDb2dVertex
 10
88.77628067764182
 20
-137.6405218839926
 30
0.0
  0
VERTEX
  5
10D
330
FD
100
AcDbEntity
  8
_U+30EC_U+30A4_U+30E4_U+30FC 1
 62
   179
420
  2234388
370
    25
100
AcDbVertex
100
AcDb2dVertex
 10
88.51346026432998
 20
-137.3805248340902
 30
0.0
  0
VERTEX
  5
10E
330
FD
100
AcDbEntity
  8
_U+30EC_U+30A4_U+30E4_U+30FC 1
 62
   179
420
  2234388
370
    25
100
AcDbVertex
100
AcDb2dVertex
 10
88.77628067764182
 20
-137.1208938255831
 30
0.0
  0
VERTEX
  5
10F
330
FD
100
AcDbEntity
  8
_U+30EC_U+30A4_U+30E4_U+30FC 1
 62
   179
420
  2234388
370
    25
100
AcDbVertex
100
AcDb2dVertex
 10
88.51346026432998
 20
-136.8605307342853
 30
0.0
  0
VERTEX
  5
110
330
FD
100
AcDbEntity
  8
_U+30EC_U+30A4_U+30E4_U+30FC 1
 62
   179
420
  2234388
370
    25
100
AcDbVertex
100
AcDb2dVertex
 10
88.77628067764182
 20
-136.6012442353267
 30
0.0
  0
VERTEX
  5
111
330
FD
100
AcDbEntity
  8
_U+30EC_U+30A4_U+30E4_U+30FC 1
 62
   179
420
  2234388
370
    25
100
AcDbVertex
100
AcDb2dVertex
 10
88.51346026432998
 20
-136.3419577363681
 30
0.0
  0
VERTEX
  5
112
330
FD
100
AcDbEntity
  8
_U+30EC_U+30A4_U+30E4_U+30FC 1
 62
   179
420
  2234388
370
    25
100
AcDbVertex
100
AcDb2dVertex
 10
88.77628067764182
 20
-136.0823051960141
 30
0.0
  0
VERTEX
  5
113
330
FD
100
AcDbEntity
  8
_U+30EC_U+30A4_U+30E4_U+30FC 1
 62
   179
420
  2234388
370
    25
100
AcDbVertex
100
AcDb2dVertex
 10
88.51346026432998
 20
-135.8230186970559
 30
0.0
  0
VERTEX
  5
114
330
FD
100
AcDbEntity
  8
_U+30EC_U+30A4_U+30E4_U+30FC 1
 62
   179
420
  2234388
370
    25
100
AcDbVertex
100
AcDb2dVertex
 10
88.77628067764182
 20
-135.5633661567016
 30
0.0
  0
VERTEX
  5
115
330
FD
100
AcDbEntity
  8
_U+30EC_U+30A4_U+30E4_U+30FC 1
 62
   179
420
  2234388
370
    25
100
AcDbVertex
100
AcDb2dVertex
 10
88.51346026432998
 20
-135.304079657743
 30
0.0
  0
VERTEX
  5
116
330
FD
100
AcDbEntity
  8
_U+30EC_U+30A4_U+30E4_U+30FC 1
 62
   179
420
  2234388
370
    25
100
AcDbVertex
100
AcDb2dVertex
 10
88.77628067764182
 20
-135.0451376683329
 30
0.0
  0
VERTEX
  5
117
330
FD
100
AcDbEntity
  8
_U+30EC_U+30A4_U+30E4_U+30FC 1
 62
   179
420
  2234388
370
    25
100
AcDbVertex
100
AcDb2dVertex
 10
88.51346026432998
 20
-134.7858511693743
 30
0.0
  0
VERTEX
  5
118
330
FD
100
AcDbEntity
  8
_U+30EC_U+30A4_U+30E4_U+30FC 1
 62
   179
420
  2234388
370
    25
100
AcDbVertex
100
AcDb2dVertex
 10
88.77628067764182
 20
-134.5265646704157
 30
0.0
  0
VERTEX
  5
119
330
FD
100
AcDbEntity
  8
_U+30EC_U+30A4_U+30E4_U+30FC 1
 62
   179
420
  2234388
370
    25
100
AcDbVertex
100
AcDb2dVertex
 10
88.51346026432998
 20
-134.2676226810056
 30
0.0
  0
VERTEX
  5
11A
330
FD
100
AcDbEntity
  8
_U+30EC_U+30A4_U+30E4_U+30FC 1
 62
   179
420
  2234388
370
    25
100
AcDbVertex
100
AcDb2dVertex
 10
88.77628067764182
 20
-134.007970140652
 30
0.0
  0
VERTEX
  5
11B
330
FD
100
AcDbEntity
  8
_U+30EC_U+30A4_U+30E4_U+30FC 1
 62
   179
420
  2234388
370
    25
100
AcDbVertex
100
AcDb2dVertex
 10
88.51346026432998
 20
-133.7483391321445
 30
0.0
  0
VERTEX
  5
11C
330
FD
100
AcDbEntity
  8
_U+30EC_U+30A4_U+30E4_U+30FC 1
 62
   179
420
  2234388
370
    25
100
AcDbVertex
100
AcDb2dVertex
 10
88.77628067764182
 20
-133.4893971427348
 30
0.0
  0
VERTEX
  5
11D
330
FD
100
AcDbEntity
  8
_U+30EC_U+30A4_U+30E4_U+30FC 1
 62
   179
420
  2234388
370
    25
100
AcDbVertex
100
AcDb2dVertex
 10
88.51346026432998
 20
-133.2297446023805
 30
0.0
  0
VERTEX
  5
11E
330
FD
100
AcDbEntity
  8
_U+30EC_U+30A4_U+30E4_U+30FC 1
 62
   179
420
  2234388
370
    25
100
AcDbVertex
100
AcDb2dVertex
 10
88.77628067764182
 20
-132.9704581034219
 30
0.0
  0
VERTEX
  5
11F
330
FD
100
AcDbEntity
  8
_U+30EC_U+30A4_U+30E4_U+30FC 1
 62
   179
420
  2234388
370
    25
100
AcDbVertex
100
AcDb2dVertex
 10
88.51346026432998
 20
-132.7108055630683
 30
0.0
  0
VERTEX
  5
120
330
FD
100
AcDbEntity
  8
_U+30EC_U+30A4_U+30E4_U+30FC 1
 62
   179
420
  2234388
370
    25
100
AcDbVertex
100
AcDb2dVertex
 10
88.77628067764182
 20
-132.4501194940685
 30
0.0
  0
VERTEX
  5
121
330
FD
100
AcDbEntity
  8
_U+30EC_U+30A4_U+30E4_U+30FC 1
 62
   179
420
  2234388
370
    25
100
AcDbVertex
100
AcDb2dVertex
 10
88.51346026432998
 20
-132.1908114632631
 30
0.0
  0
VERTEX
  5
122
330
FD
100
AcDbEntity
  8
_U+30EC_U+30A4_U+30E4_U+30FC 1
 62
   179
420
  2234388
370
    25
100
AcDbVertex
100
AcDb2dVertex
 10
88.77628067764182
 20
-131.9311804547563
 30
0.0
  0
VERTEX
  5
123
330
FD
100
AcDbEntity
  8
_U+30EC_U+30A4_U+30E4_U+30FC 1
 62
   179
420
  2234388
370
    25
100
AcDbVertex
100
AcDb2dVertex
 10
88.51346026432998
 20
-131.6722384653458
 30
0.0
  0
VERTEX
  5
124
330
FD
100
AcDbEntity
  8
_U+30EC_U+30A4_U+30E4_U+30FC 1
 62
   179
420
  2234388
370
    25
100
AcDbVertex
100
AcDb2dVertex
 10
88.77628067764182
 20
-131.4125859249919
 30
0.0
  0
VERTEX
  5
125
330
FD
100
AcDbEntity
  8
_U+30EC_U+30A4_U+30E4_U+30FC 1
 62
   179
420
  2234388
370
    25
100
AcDbVertex
100
AcDb2dVertex
 10
88.51346026432998
 20
-131.1532994260333
 30
0.0
  0
VERTEX
  5
126
330
FD
100
AcDbEntity
  8
_U+30EC_U+30A4_U+30E4_U+30FC 1
 62
   179
420
  2234388
370
    25
100
AcDbVertex
100
AcDb2dVertex
 10
88.77628067764182
 20
-130.8940129270747
 30
0.0
  0
VERTEX
  5
127
330
FD
100
AcDbEntity
  8
_U+30EC_U+30A4_U+30E4_U+30FC 1
 62
   179
420
  2234388
370
    25
100
AcDbVertex
100
AcDb2dVertex
 10
88.51346026432998
 20
-130.6350709376646
 30
0.0
  0
VERTEX
  5
128
330
FD
100
AcDbEntity
  8
_U+30EC_U+30A4_U+30E4_U+30FC 1
 62
   179
420
  2234388
370
    25
100
AcDbVertex
100
AcDb2dVertex
 10
88.77628067764182
 20
-130.3761289482545
 30
0.0
  0
VERTEX
  5
129
330
FD
100
AcDbEntity
  8
_U+30EC_U+30A4_U+30E4_U+30FC 1
 62
   179
420
  2234388
370
    25
100
AcDbVertex
100
AcDb2dVertex
 10
88.51346026432998
 20
-130.1171869588444
 30
0.0
  0
VERTEX
  5
12A
330
FD
100
AcDbEntity
  8
_U+30EC_U+30A4_U+30E4_U+30FC 1
 62
   179
420
  2234388
370
    25
100
AcDbVertex
100
AcDb2dVertex
 10
88.77628067764182
 20
-129.8582449694343
 30
0.0
  0
VERTEX
  5
12B
330
FD
100
AcDbEntity
  8
_U+30EC_U+30A4_U+30E4_U+30FC 1
 62
   179
420
  2234388
370
    25
100
AcDbVertex
100
AcDb2dVertex
 10
88.51346026432998
 20
-129.5996690214195
 30
0.0
  0
VERTEX
  5
12C
330
FD
100
AcDbEntity
  8
_U+30EC_U+30A4_U+30E4_U+30FC 1
 62
   179
420
  2234388
370
    25
100
AcDbVertex
100
AcDb2dVertex
 10
88.77628067764182
 20
-129.3407270320098
 30
0.0
  0
SEQEND
  5
12D
330
FD
100
AcDbEntity
  8
_U+30EC_U+30A4_U+30E4_U+30FC 1
 62
   179
420
  2234388
370
    25
  0
ENDSEC
  0
SECTION
  2
OBJECTS
  0
DICTIONARY
  5
C
330
0
100
AcDbDictionary
281
     1
  3
ACAD_GROUP
350
D
  3
ACAD_LAYOUT
350
1A
  3
ACAD_MATERIAL
350
3B
  3
ACAD_MLEADERSTYLE
350
12F
  3
ACAD_MLINESTYLE
350
17
  3
ACAD_PLOTSETTINGS
350
19
  3
ACAD_PLOTSTYLENAME
350
E
  3
ACAD_TABLESTYLE
350
12E
  3
ACAD_VISUALSTYLE
350
2A
  0
SUN
  5
3F
330
29
100
AcDbSun
 90
        1
290
     0
 63
     7
421
 16777215
 40
1.0
291
     1
 91
  2455826
 92
 54000000
292
     0
 70
     2
 71
   256
280
     1
  0
DICTIONARY
  5
D
102
{ACAD_REACTORS
330
C
102
}
330
C
100
AcDbDictionary
281
     1
  0
DICTIONARY
  5
1A
102
{ACAD_REACTORS
330
C
102
}
330
C
100
AcDbDictionary
281
     1
  3
Layout1
350
1E
  3
Layout2
350
26
  3
Model
350
22
  0
DICTIONARY
  5
3B
102
{ACAD_REACTORS
330
C
102
}
330
C
100
AcDbDictionary
281
     1
  3
ByBlock
350
3D
  3
ByLayer
350
3C
  3
Global
350
3E
  0
DICTIONARY
  5
12F
102
{ACAD_REACTORS
330
C
102
}
330
C
100
AcDbDictionary
281
     1
  0
DICTIONARY
  5
17
102
{ACAD_REACTORS
330
C
102
}
330
C
100
AcDbDictionary
281
     1
  3
Standard
350
18
  0
DICTIONARY
  5
19
102
{ACAD_REACTORS
330
C
102
}
330
C
100
AcDbDictionary
281
     1
  0
ACDBDICTIONARYWDFLT
  5
E
102
{ACAD_REACTORS
330
C
102
}
330
C
100
AcDbDictionary
281
     1
  3
Normal
350
F
100
AcDbDictionaryWithDefault
340
F
  0
DICTIONARY
  5
12E
102
{ACAD_REACTORS
330
C
102
}
330
C
100
AcDbDictionary
281
     1
  0
DICTIONARY
  5
2A
102
{ACAD_REACTORS
330
C
102
}
330
C
100
AcDbDictionary
281
     1
  3
2dWireframe
350
2F
  3
3D Hidden
350
31
  3
3dWireframe
350
30
  3
Basic
350
32
  3
Brighten
350
36
  3
ColorChange
350
3A
  3
Conceptual
350
34
  3
Dim
350
35
  3
Facepattern
350
39
  3
Flat
350
2B
  3
FlatWithEdges
350
2C
  3
Gouraud
350
2D
  3
GouraudWithEdges
350
2E
  3
Linepattern
350
38
  3
Realistic
350
33
  3
Thicken
350
37
  0
LAYOUT
  5
1E
102
{ACAD_REACTORS
330
1A
102
}
330
1A
100
AcDbPlotSettings
  1

  2
none_device
  4

  6

 40
0.0
 41
0.0
 42
0.0
 43
0.0
 44
0.0
 45
0.0
 46
0.0
 47
0.0
 48
0.0
 49
0.0
140
0.0
141
0.0
142
1.0
143
1.0
 70
   688
 72
     0
 73
     0
 74
     5
  7

 75
    16
 76
     0
 77
     2
 78
   300
147
1.0
148
0.0
149
0.0
100
AcDbLayout
  1
Layout1
 70
     1
 71
     1
 10
0.0
 20
0.0
 11
12.0
 21
9.0
 12
0.0
 22
0.0
 32
0.0
 14
1.000000000000000E+20
 24
1.000000000000000E+20
 34
1.000000000000000E+20
 15
-1.000000000000000E+20
 25
-1.000000000000000E+20
 35
-1.000000000000000E+20
146
0.0
 13
0.0
 23
0.0
 33
0.0
 16
1.0
 26
0.0
 36
0.0
 17
0.0
 27
1.0
 37
0.0
 76
     0
330
1B
  0
LAYOUT
  5
26
102
{ACAD_REACTORS
330
1A
102
}
330
1A
100
AcDbPlotSettings
  1

  2
none_device
  4

  6

 40
0.0
 41
0.0
 42
0.0
 43
0.0
 44
0.0
 45
0.0
 46
0.0
 47
0.0
 48
0.0
 49
0.0
140
0.0
141
0.0
142
1.0
143
1.0
 70
   688
 72
     0
 73
     0
 74
     5
  7

 75
    16
 76
     0
 77
     2
 78
   300
147
1.0
148
0.0
149
0.0
100
AcDbLayout
  1
Layout2
 70
     1
 71
     2
 10
0.0
 20
0.0
 11
0.0
 21
0.0
 12
0.0
 22
0.0
 32
0.0
 14
0.0
 24
0.0
 34
0.0
 15
0.0
 25
0.0
 35
0.0
146
0.0
 13
0.0
 23
0.0
 33
0.0
 16
1.0
 26
0.0
 36
0.0
 17
0.0
 27
1.0
 37
0.0
 76
     0
330
23
  0
LAYOUT
  5
22
102
{ACAD_REACTORS
330
1A
102
}
330
1A
100
AcDbPlotSettings
  1

  2
none_device
  4

  6

 40
0.0
 41
0.0
 42
0.0
 43
0.0
 44
0.0
 45
0.0
 46
0.0
 47
0.0
 48
0.0
 49
0.0
140
0.0
141
0.0
142
1.0
143
1.0
 70
  1712
 72
     0
 73
     0
 74
     0
  7

 75
     0
 76
     0
 77
     2
 78
   300
147
1.0
148
0.0
149
0.0
100
AcDbLayout
  1
Model
 70
     1
 71
     0
 10
0.0
 20
0.0
 11
12.0
 21
9.0
 12
0.0
 22
0.0
 32
0.0
 14
1.000000000000000E+20
 24
1.000000000000000E+20
 34
1.000000000000000E+20
 15
-1.000000000000000E+20
 25
-1.000000000000000E+20
 35
-1.000000000000000E+20
146
0.0
 13
0.0
 23
0.0
 33
0.0
 16
1.0
 26
0.0
 36
0.0
 17
0.0
 27
1.0
 37
0.0
 76
     0
330
1F
331
29
  0
MATERIAL
  5
3D
102
{ACAD_REACTORS
330
3B
102
}
330
3B
100
AcDbMaterial
  1
ByBlock
 72
     1
 94
      127
  0
MATERIAL
  5
3C
102
{ACAD_REACTORS
330
3B
102
}
330
3B
100
AcDbMaterial
  1
ByLayer
 72
     1
 94
      127
  0
MATERIAL
  5
3E
102
{ACAD_REACTORS
330
3B
102
}
330
3B
100
AcDbMaterial
  1
Global
 72
     1
 94
      127
  0
MLINESTYLE
  5
18
102
{ACAD_REACTORS
330
17
102
}
330
17
100
AcDbMlineStyle
  2
Standard
 70
     0
  3

 62
   256
 51
90.0
 52
90.0
 71
     2
 49
0.5
 62
   256
  6
BYLAYER
 49
-0.5
 62
   256
  6
BYLAYER
  0
ACDBPLACEHOLDER
  5
F
102
{ACAD_REACTORS
330
E
102
}
330
E
  0
VISUALSTYLE
  5
2F
102
{ACAD_REACTORS
330
2A
102
}
330
2A
100
AcDbVisualStyle
  2
2dWireframe
 70
     4
177
     2
291
     0
 71
     0
176
     1
 72
     2
176
     1
 73
     0
176
     1
 90
        0
176
     1
 40
-0.6
176
     1
 41
-30.0
176
     1
 62
     5
 63
     7
421
 16777215
176
     1
 74
     1
176
     1
 91
        4
176
     1
 64
     7
176
     1
 65
   257
176
     1
 75
     1
176
     1
175
     1
176
     1
 42
1.0
176
     1
 92
        0
176
     1
 66
   257
176
     1
 43
1.0
176
     1
 76
     1
176
     1
 77
     6
176
     1
 78
     2
176
     1
 67
     7
176
     1
 79
     5
176
     1
170
     0
176
     1
171
     0
176
     1
290
     0
176
     1
 93
        1
176
     1
 44
0.0
176
     1
173
     0
176
     1
  0
VISUALSTYLE
  5
31
102
{ACAD_REACTORS
330
2A
102
}
330
2A
100
AcDbVisualStyle
  2
3D Hidden
 70
     6
177
     2
291
     0
 71
     1
176
     1
 72
     2
176
     1
 73
     2
176
     1
 90
        0
176
     1
 40
-0.6
176
     1
 41
-30.0
176
     1
 62
     5
 63
     7
421
 16777215
176
     1
 74
     2
176
     1
 91
        2
176
     1
 64
     7
176
     1
 65
   257
176
     1
 75
     2
176
     1
175
     1
176
     1
 42
40.0
176
     1
 92
        0
176
     1
 66
   257
176
     1
 43
1.0
176
     1
 76
     1
176
     1
 77
     6
176
     1
 78
     2
176
     1
 67
     7
176
     1
 79
     3
176
     1
170
     0
176
     1
171
     0
176
     1
290
     0
176
     1
 93
        1
176
     1
 44
0.0
176
     1
173
     0
176
     1
  0
VISUALSTYLE
  5
30
102
{ACAD_REACTORS
330
2A
102
}
330
2A
100
AcDbVisualStyle
  2
3dWireframe
 70
     5
177
     2
291
     0
 71
     0
176
     1
 72
     2
176
     1
 73
     0
176
     1
 90
        0
176
     1
 40
-0.6
176
     1
 41
-30.0
176
     1
 62
     5
 63
     7
421
 16777215
176
     1
 74
     1
176
     1
 91
        4
176
     1
 64
     7
176
     1
 65
   257
176
     1
 75
     1
176
     1
175
     1
176
     1
 42
1.0
176
     1
 92
        0
176
     1
 66
   257
176
     1
 43
1.0
176
     1
 76
     1
176
     1
 77
     6
176
     1
 78
     2
176
     1
 67
     7
176
     1
 79
     5
176
     1
170
     0
176
     1
171
     0
176
     1
290
     0
176
     1
 93
        1
176
     1
 44
0.0
176
     1
173
     0
176
     1
  0
VISUALSTYLE
  5
32
102
{ACAD_REACTORS
330
2A
102
}
330
2A
100
AcDbVisualStyle
  2
Basic
 70
     7
177
     2
291
     1
 71
     1
176
     1
 72
     0
176
     1
 73
     1
176
     1
 90
        0
176
     1
 40
-0.6
176
     1
 41
-30.0
176
     1
 62
     5
 63
     7
421
 16777215
176
     1
 74
     0
176
     1
 91
        4
176
     1
 64
     7
176
     1
 65
   257
176
     1
 75
     1
176
     1
175
     1
176
     1
 42
1.0
176
     1
 92
        8
176
     1
 66
     7
176
     1
 43
1.0
176
     1
 76
     1
176
     1
 77
     6
176
     1
 78
     2
176
     1
 67
     7
176
     1
 79
     5
176
     1
170
     0
176
     1
171
     0
176
     1
290
     0
176
     1
 93
        1
176
     1
 44
0.0
176
     1
173
     0
176
     1
  0
VISUALSTYLE
  5
36
102
{ACAD_REACTORS
330
2A
102
}
330
2A
100
AcDbVisualStyle
  2
Brighten
 70
    12
177
     2
291
     1
 71
     2
176
     1
 72
     2
176
     1
 73
     0
176
     1
 90
        0
176
     1
 40
-0.6
176
     1
 41
-30.0
176
     1
 62
     5
 63
     7
421
 16777215
176
     1
 74
     1
176
     1
 91
        4
176
     1
 64
     7
176
     1
 65
   257
176
     1
 75
     1
176
     1
175
     1
176
     1
 42
1.0
176
     1
 92
        8
176
     1
 66
     7
176
     1
 43
1.0
176
     1
 76
     1
176
     1
 77
     6
176
     1
 78
     2
176
     1
 67
     7
176
     1
 79
     5
176
     1
170
     0
176
     1
171
     0
176
     1
290
     0
176
     1
 93
        1
176
     1
 44
50.0
176
     1
173
     0
176
     1
  0
VISUALSTYLE
  5
3A
102
{ACAD_REACTORS
330
2A
102
}
330
2A
100
AcDbVisualStyle
  2
ColorChange
 70
    16
177
     2
291
     1
 71
     2
176
     1
 72
     2
176
     1
 73
     3
176
     1
 90
        0
176
     1
 40
-0.6
176
     1
 41
-30.0
176
     1
 62
     5
 63
     8
421
  8421504
176
     1
 74
     1
176
     1
 91
        4
176
     1
 64
     7
176
     1
 65
   257
176
     1
 75
     1
176
     1
175
     1
176
     1
 42
1.0
176
     1
 92
        8
176
     1
 66
     8
424
  8421504
176
     1
 43
1.0
176
     1
 76
     1
176
     1
 77
     6
176
     1
 78
     2
176
     1
 67
     7
176
     1
 79
     5
176
     1
170
     0
176
     1
171
     0
176
     1
290
     0
176
     1
 93
        1
176
     1
 44
0.0
176
     1
173
     0
176
     1
  0
VISUALSTYLE
  5
34
102
{ACAD_REACTORS
330
2A
102
}
330
2A
100
AcDbVisualStyle
  2
Conceptual
 70
     9
177
     2
291
     0
 71
     3
176
     1
 72
     2
176
     1
 73
     0
176
     1
 90
        0
176
     1
 40
-0.6
176
     1
 41
-30.0
176
     1
 62
     5
 63
     7
421
 16777215
176
     1
 74
     2
176
     1
 91
        2
176
     1
 64
     7
176
     1
 65
   257
176
     1
 75
     1
176
     1
175
     1
176
     1
 42
40.0
176
     1
 92
        8
176
     1
 66
     7
176
     1
 43
1.0
176
     1
 76
     1
176
     1
 77
     6
176
     1
 78
     2
176
     1
 67
     7
176
     1
 79
     3
176
     1
170
     0
176
     1
171
     0
176
     1
290
     0
176
     1
 93
        1
176
     1
 44
0.0
176
     1
173
     0
176
     1
  0
VISUALSTYLE
  5
35
102
{ACAD_REACTORS
330
2A
102
}
330
2A
100
AcDbVisualStyle
  2
Dim
 70
    11
177
     2
291
     1
 71
     2
176
     1
 72
     2
176
     1
 73
     0
176
     1
 90
        0
176
     1
 40
-0.6
176
     1
 41
-30.0
176
     1
 62
     5
 63
     7
421
 16777215
176
     1
 74
     1
176
     1
 91
        4
176
     1
 64
     7
176
     1
 65
   257
176
     1
 75
     1
176
     1
175
     1
176
     1
 42
1.0
176
     1
 92
        8
176
     1
 66
     7
176
     1
 43
1.0
176
     1
 76
     1
176
     1
 77
     6
176
     1
 78
     2
176
     1
 67
     7
176
     1
 79
     5
176
     1
170
     0
176
     1
171
     0
176
     1
290
     0
176
     1
 93
        1
176
     1
 44
-50.0
176
     1
173
     0
176
     1
  0
VISUALSTYLE
  5
39
102
{ACAD_REACTORS
330
2A
102
}
330
2A
100
AcDbVisualStyle
  2
Facepattern
 70
    15
177
     2
291
     1
 71
     2
176
     1
 72
     2
176
     1
 73
     0
176
     1
 90
        0
176
     1
 40
-0.6
176
     1
 41
-30.0
176
     1
 62
     5
 63
     7
421
 16777215
176
     1
 74
     1
176
     1
 91
        4
176
     1
 64
     7
176
     1
 65
   257
176
     1
 75
     1
176
     1
175
     1
176
     1
 42
1.0
176
     1
 92
        8
176
     1
 66
     7
176
     1
 43
1.0
176
     1
 76
     1
176
     1
 77
     6
176
     1
 78
     2
176
     1
 67
     7
176
     1
 79
     5
176
     1
170
     0
176
     1
171
     0
176
     1
290
     0
176
     1
 93
        1
176
     1
 44
0.0
176
     1
173
     0
176
     1
  0
VISUALSTYLE
  5
2B
102
{ACAD_REACTORS
330
2A
102
}
330
2A
100
AcDbVisualStyle
  2
Flat
 70
     0
177
     2
291
     1
 71
     2
176
     1
 72
     1
176
     1
 73
     1
176
     1
 90
        2
176
     1
 40
-0.6
176
     1
 41
30.0
176
     1
 62
     5
 63
     7
421
 16777215
176
     1
 74
     0
176
     1
 91
        4
176
     1
 64
     7
176
     1
 65
   257
176
     1
 75
     1
176
     1
175
     1
176
     1
 42
1.0
176
     1
 92
        8
176
     1
 66
     7
176
     1
 43
1.0
176
     1
 76
     1
176
     1
 77
     6
176
     1
 78
     2
176
     1
 67
     7
176
     1
 79
     5
176
     1
170
     0
176
     1
171
     0
176
     1
290
     0
176
     1
 93
       13
176
     1
 44
0.0
176
     1
173
     0
176
     1
  0
VISUALSTYLE
  5
2C
102
{ACAD_REACTORS
330
2A
102
}
330
2A
100
AcDbVisualStyle
  2
FlatWithEdges
 70
     1
177
     2
291
     1
 71
     2
176
     1
 72
     1
176
     1
 73
     1
176
     1
 90
        2
176
     1
 40
-0.6
176
     1
 41
30.0
176
     1
 62
     5
 63
     7
421
 16777215
176
     1
 74
     1
176
     1
 91
        4
176
     1
 64
     7
176
     1
 65
   257
176
     1
 75
     1
176
     1
175
     1
176
     1
 42
1.0
176
     1
 92
        0
176
     1
 66
   257
176
     1
 43
1.0
176
     1
 76
     1
176
     1
 77
     6
176
     1
 78
     2
176
     1
 67
     7
176
     1
 79
     5
176
     1
170
     0
176
     1
171
     0
176
     1
290
     0
176
     1
 93
       13
176
     1
 44
0.0
176
     1
173
     0
176
     1
  0
VISUALSTYLE
  5
2D
102
{ACAD_REACTORS
330
2A
102
}
330
2A
100
AcDbVisualStyle
  2
Gouraud
 70
     2
177
     2
291
     1
 71
     2
176
     1
 72
     2
176
     1
 73
     1
176
     1
 90
        2
176
     1
 40
-0.6
176
     1
 41
30.0
176
     1
 62
     5
 63
     7
421
 16777215
176
     1
 74
     0
176
     1
 91
        4
176
     1
 64
     7
176
     1
 65
   257
176
     1
 75
     1
176
     1
175
     1
176
     1
 42
1.0
176
     1
 92
        0
176
     1
 66
     7
176
     1
 43
1.0
176
     1
 76
     1
176
     1
 77
     6
176
     1
 78
     2
176
     1
 67
     7
176
     1
 79
     5
176
     1
170
     0
176
     1
171
     0
176
     1
290
     0
176
     1
 93
       13
176
     1
 44
0.0
176
     1
173
     0
176
     1
  0
VISUALSTYLE
  5
2E
102
{ACAD_REACTORS
330
2A
102
}
330
2A
100
AcDbVisualStyle
  2
GouraudWithEdges
 70
     3
177
     2
291
     1
 71
     2
176
     1
 72
     2
176
     1
 73
     1
176
     1
 90
        2
176
     1
 40
-0.6
176
     1
 41
30.0
176
     1
 62
     5
 63
     7
421
 16777215
176
     1
 74
     1
176
     1
 91
        4
176
     1
 64
     7
176
     1
 65
   257
176
     1
 75
     1
176
     1
175
     1
176
     1
 42
1.0
176
     1
 92
        0
176
     1
 66
   257
176
     1
 43
1.0
176
     1
 76
     1
176
     1
 77
     6
176
     1
 78
     2
176
     1
 67
     7
176
     1
 79
     5
176
     1
170
     0
176
     1
171
     0
176
     1
290
     0
176
     1
 93
       13
176
     1
 44
0.0
176
     1
173
     0
176
     1
  0
VISUALSTYLE
  5
38
102
{ACAD_REACTORS
330
2A
102
}
330
2A
100
AcDbVisualStyle
  2
Linepattern
 70
    14
177
     2
291
     1
 71
     2
176
     1
 72
     2
176
     1
 73
     0
176
     1
 90
        0
176
     1
 40
-0.6
176
     1
 41
-30.0
176
     1
 62
     5
 63
     7
421
 16777215
176
     1
 74
     1
176
     1
 91
        4
176
     1
 64
     7
176
     1
 65
   257
176
     1
 75
     7
176
     1
175
     7
176
     1
 42
1.0
176
     1
 92
        8
176
     1
 66
     7
176
     1
 43
1.0
176
     1
 76
     1
176
     1
 77
     6
176
     1
 78
     2
176
     1
 67
     7
176
     1
 79
     5
176
     1
170
     0
176
     1
171
     0
176
     1
290
     0
176
     1
 93
        1
176
     1
 44
0.0
176
     1
173
     0
176
     1
  0
VISUALSTYLE
  5
33
102
{ACAD_REACTORS
330
2A
102
}
330
2A
100
AcDbVisualStyle
  2
Realistic
 70
     8
177
     2
291
     0
 71
     2
176
     1
 72
     2
176
     1
 73
     0
176
     1
 90
        0
176
     1
 40
-0.6
176
     1
 41
-30.0
176
     1
 62
     5
 63
     7
421
 16777215
176
     1
 74
     1
176
     1
 91
        0
176
     1
 64
     7
176
     1
 65
   257
176
     1
 75
     1
176
     1
175
     1
176
     1
 42
1.0
176
     1
 92
        8
176
     1
 66
     8
424
  7895160
176
     1
 43
1.0
176
     1
 76
     1
176
     1
 77
     6
176
     1
 78
     2
176
     1
 67
     7
176
     1
 79
     5
176
     1
170
     0
176
     1
171
     0
176
     1
290
     0
176
     1
 93
       13
176
     1
 44
0.0
176
     1
173
     0
176
     1
  0
VISUALSTYLE
  5
37
102
{ACAD_REACTORS
330
2A
102
}
330
2A
100
AcDbVisualStyle
  2
Thicken
 70
    13
177
     2
291
     1
 71
     2
176
     1
 72
     2
176
     1
 73
     0
176
     1
 90
        0
176
     1
 40
-0.6
176
     1
 41
-30.0
176
     1
 62
     5
 63
     7
421
 16777215
176
     1
 74
     1
176
     1
 91
        4
176
     1
 64
     7
176
     1
 65
   257
176
     1
 75
     1
176
     1
175
     1
176
     1
 42
1.0
176
     1
 92
       12
176
     1
 66
     7
176
     1
 43
1.0
176
     1
 76
     1
176
     1
 77
     6
176
     1
 78
     2
176
     1
 67
     7
176
     1
 79
     5
176
     1
170
     0
176
     1
171
     0
176
     1
290
     0
176
     1
 93
        1
176
     1
 44
0.0
176
     1
173
     0
176
     1
  0
ENDSEC
  0
EOF
