  0
SECTION
  2
HEADER
  9
$ACADVER
  1
AC1024
  9
$ACADMAINTVER
 70
     6
  9
$DWGCODEPAGE
  3
UNDEFINED
  9
$INSBASE
 10
0.0
 20
0.0
 30
0.0
  9
$EXTMIN
 10
1.000000000000000E+20
 20
1.000000000000000E+20
 30
1.000000000000000E+20
  9
$EXTMAX
 10
-1.000000000000000E+20
 20
-1.000000000000000E+20
 30
-1.000000000000000E+20
  9
$LIMMIN
 10
0.0
 20
0.0
  9
$LIMMAX
 10
12.0
 20
9.0
  9
$ORTHOMODE
 70
     0
  9
$REGENMODE
 70
     1
  9
$FILLMODE
 70
     1
  9
$QTEXTMODE
 70
     0
  9
$MIRRTEXT
 70
     1
  9
$LTSCALE
 40
1.0
  9
$ATTMODE
 70
     1
  9
$TEXTSIZE
 40
0.2
  9
$TRACEWID
 40
0.05
  9
$TEXTSTYLE
  7
Standard
  9
$CLAYER
  8
0
  9
$CELTYPE
  6
ByLayer
  9
$CECOLOR
 62
   256
  9
$CELTSCALE
 40
1.0
  9
$DISPSILH
 70
     0
  9
$DIMSCALE
 40
1.0
  9
$DIMASZ
 40
0.18
  9
$DIMEXO
 40
0.0625
  9
$DIMDLI
 40
0.38
  9
$DIMRND
 40
0.0
  9
$DIMDLE
 40
0.0
  9
$DIMEXE
 40
0.18
  9
$DIMTP
 40
0.0
  9
$DIMTM
 40
0.0
  9
$DIMTXT
 40
0.18
  9
$DIMCEN
 40
0.09
  9
$DIMTSZ
 40
0.0
  9
$DIMTOL
 70
     0
  9
$DIMLIM
 70
     0
  9
$DIMTIH
 70
     1
  9
$DIMTOH
 70
     1
  9
$DIMSE1
 70
     0
  9
$DIMSE2
 70
     0
  9
$DIMTAD
 70
     0
  9
$DIMZIN
 70
     0
  9
$DIMBLK
  1

  9
$DIMASO
 70
     1
  9
$DIMSHO
 70
     1
  9
$DIMPOST
  1

  9
$DIMAPOST
  1

  9
$DIMALT
 70
     0
  9
$DIMALTD
 70
     2
  9
$DIMALTF
 40
25.4
  9
$DIMLFAC
 40
1.0
  9
$DIMTOFL
 70
     0
  9
$DIMTVP
 40
0.0
  9
$DIMTIX
 70
     0
  9
$DIMSOXD
 70
     0
  9
$DIMSAH
 70
     0
  9
$DIMBLK1
  1

  9
$DIMBLK2
  1

  9
$DIMSTYLE
  2
Standard
  9
$DIMCLRD
 70
     0
  9
$DIMCLRE
 70
     0
  9
$DIMCLRT
 70
     0
  9
$DIMTFAC
 40
1.0
  9
$DIMGAP
 40
0.09
  9
$DIMJUST
 70
     0
  9
$DIMSD1
 70
     0
  9
$DIMSD2
 70
     0
  9
$DIMTOLJ
 70
     1
  9
$DIMTZIN
 70
     0
  9
$DIMALTZ
 70
     0
  9
$DIMALTTZ
 70
     0
  9
$DIMUPT
 70
     0
  9
$DIMDEC
 70
     4
  9
$DIMTDEC
 70
     4
  9
$DIMALTU
 70
     2
  9
$DIMALTTD
 70
     2
  9
$DIMTXSTY
  7
Standard
  9
$DIMAUNIT
 70
     0
  9
$DIMADEC
 70
     0
  9
$DIMALTRND
 40
0.0
  9
$DIMAZIN
 70
     0
  9
$DIMDSEP
 70
    46
  9
$DIMATFIT
 70
     3
  9
$DIMFRAC
 70
     0
  9
$DIMLDRBLK
  1

  9
$DIMLUNIT
 70
     2
  9
$DIMLWD
 70
    -2
  9
$DIMLWE
 70
    -2
  9
$DIMTMOVE
 70
     0
  9
$DIMFXL
 40
1.0
  9
$DIMFXLON
 70
     0
  9
$DIMJOGANG
 40
0.7853981633974483
  9
$DIMTFILL
 70
     0
  9
$DIMTFILLCLR
 70
     0
  9
$DIMARCSYM
 70
     0
  9
$DIMLTYPE
  6

  9
$DIMLTEX1
  6

  9
$DIMLTEX2
  6

  9
$DIMTXTDIRECTION
 70
     0
  9
$LUNITS
 70
     2
  9
$LUPREC
 70
     4
  9
$SKETCHINC
 40
0.1
  9
$FILLETRAD
 40
0.5
  9
$AUNITS
 70
     0
  9
$AUPREC
 70
     0
  9
$MENU
  1
.
  9
$ELEVATION
 40
0.0
  9
$PELEVATION
 40
0.0
  9
$THICKNESS
 40
0.0
  9
$LIMCHECK
 70
     0
  9
$CHAMFERA
 40
0.5
  9
$CHAMFERB
 40
0.5
  9
$CHAMFERC
 40
1.0
  9
$CHAMFERD
 40
0.0
  9
$SKPOLY
 70
     0
  9
$TDCREATE
 40
2458263.573819445
  9
$TDUCREATE
 40
2458263.198819445
  9
$TDUPDATE
 40
2458263.573819445
  9
$TDUUPDATE
 40
2458263.198819445
  9
$TDINDWG
 40
0.0000000116
  9
$TDUSRTIMER
 40
0.0000000116
  9
$USRTIMER
 70
     1
  9
$ANGBASE
 50
0.0
  9
$ANGDIR
 70
     0
  9
$PDMODE
 70
     0
  9
$PDSIZE
 40
0.0
  9
$PLINEWID
 40
0.0
  9
$SPLFRAME
 70
     0
  9
$SPLINETYPE
 70
     6
  9
$SPLINESEGS
 70
     8
  9
$HANDSEED
  5
B7
  9
$SURFTAB1
 70
     6
  9
$SURFTAB2
 70
     6
  9
$SURFTYPE
 70
     6
  9
$SURFU
 70
     6
  9
$SURFV
 70
     6
  9
$UCSBASE
  2

  9
$UCSNAME
  2

  9
$UCSORG
 10
0.0
 20
0.0
 30
0.0
  9
$UCSXDIR
 10
1.0
 20
0.0
 30
0.0
  9
$UCSYDIR
 10
0.0
 20
1.0
 30
0.0
  9
$UCSORTHOREF
  2

  9
$UCSORTHOVIEW
 70
     0
  9
$UCSORGTOP
 10
0.0
 20
0.0
 30
0.0
  9
$UCSORGBOTTOM
 10
0.0
 20
0.0
 30
0.0
  9
$UCSORGLEFT
 10
0.0
 20
0.0
 30
0.0
  9
$UCSORGRIGHT
 10
0.0
 20
0.0
 30
0.0
  9
$UCSORGFRONT
 10
0.0
 20
0.0
 30
0.0
  9
$UCSORGBACK
 10
0.0
 20
0.0
 30
0.0
  9
$PUCSBASE
  2

  9
$PUCSNAME
  2

  9
$PUCSORG
 10
0.0
 20
0.0
 30
0.0
  9
$PUCSXDIR
 10
1.0
 20
0.0
 30
0.0
  9
$PUCSYDIR
 10
0.0
 20
1.0
 30
0.0
  9
$PUCSORTHOREF
  2

  9
$PUCSORTHOVIEW
 70
     0
  9
$PUCSORGTOP
 10
0.0
 20
0.0
 30
0.0
  9
$PUCSORGBOTTOM
 10
0.0
 20
0.0
 30
0.0
  9
$PUCSORGLEFT
 10
0.0
 20
0.0
 30
0.0
  9
$PUCSORGRIGHT
 10
0.0
 20
0.0
 30
0.0
  9
$PUCSORGFRONT
 10
0.0
 20
0.0
 30
0.0
  9
$PUCSORGBACK
 10
0.0
 20
0.0
 30
0.0
  9
$USERI1
 70
     0
  9
$USERI2
 70
     0
  9
$USERI3
 70
     0
  9
$USERI4
 70
     0
  9
$USERI5
 70
     0
  9
$USERR1
 40
0.0
  9
$USERR2
 40
0.0
  9
$USERR3
 40
0.0
  9
$USERR4
 40
0.0
  9
$USERR5
 40
0.0
  9
$WORLDVIEW
 70
     1
  9
$SHADEDGE
 70
     3
  9
$SHADEDIF
 70
    70
  9
$TILEMODE
 70
     1
  9
$MAXACTVP
 70
    64
  9
$PINSBASE
 10
0.0
 20
0.0
 30
0.0
  9
$PLIMCHECK
 70
     0
  9
$PEXTMIN
 10
1.000000000000000E+20
 20
1.000000000000000E+20
 30
1.000000000000000E+20
  9
$PEXTMAX
 10
-1.000000000000000E+20
 20
-1.000000000000000E+20
 30
-1.000000000000000E+20
  9
$PLIMMIN
 10
0.0
 20
0.0
  9
$PLIMMAX
 10
12.0
 20
9.0
  9
$UNITMODE
 70
     0
  9
$VISRETAIN
 70
     1
  9
$PLINEGEN
 70
     0
  9
$PSLTSCALE
 70
     1
  9
$TREEDEPTH
 70
  3020
  9
$CMLSTYLE
  2
Standard
  9
$CMLJUST
 70
     0
  9
$CMLSCALE
 40
1.0
  9
$PROXYGRAPHICS
 70
     1
  9
$MEASUREMENT
 70
     0
  9
$CELWEIGHT
370
    -1
  9
$ENDCAPS
280
     0
  9
$JOINSTYLE
280
     0
  9
$LWDISPLAY
290
     1
  9
$INSUNITS
 70
     1
  9
$HYPERLINKBASE
  1

  9
$STYLESHEET
  1

  9
$XEDIT
290
     1
  9
$CEPSNTYPE
380
     0
  9
$PSTYLEMODE
290
     1
  9
$FINGERPRINTGUID
  2
{75820E76-7F88-D06B-D6A7-1CE88B01C8ED}
  9
$VERSIONGUID
  2
{FAEB1C32-E019-11D5-929B-00C0DF256EC4}
  9
$EXTNAMES
290
     1
  9
$PSVPSCALE
 40
0.0
  9
$OLESTARTUP
290
     0
  9
$SORTENTS
280
   127
  9
$INDEXCTL
280
     0
  9
$HIDETEXT
280
     1
  9
$XCLIPFRAME
280
     2
  9
$HALOGAP
280
     0
  9
$OBSCOLOR
 70
   257
  9
$OBSLTYPE
280
     0
  9
$INTERSECTIONDISPLAY
280
     0
  9
$INTERSECTIONCOLOR
 70
   257
  9
$DIMASSOC
280
     2
  9
$PROJECTNAME
  1

  9
$CAMERADISPLAY
290
     0
  9
$LENSLENGTH
 40
50.0
  9
$CAMERAHEIGHT
 40
0.0
  9
$STEPSPERSEC
 40
2.0
  9
$STEPSIZE
 40
6.0
  9
$3DDWFPREC
 40
2.0
  9
$PSOLWIDTH
 40
0.25
  9
$PSOLHEIGHT
 40
4.0
  9
$LOFTANG1
 40
1.570796326794897
  9
$LOFTANG2
 40
1.570796326794897
  9
$LOFTMAG1
 40
0.0
  9
$LOFTMAG2
 40
0.0
  9
$LOFTPARAM
 70
     7
  9
$LOFTNORMALS
280
     1
  9
$LATITUDE
 40
37.795
  9
$LONGITUDE
 40
-122.394
  9
$NORTHDIRECTION
 40
0.0
  9
$TIMEZONE
 70
 -8000
  9
$LIGHTGLYPHDISPLAY
280
     1
  9
$TILEMODELIGHTSYNCH
280
     1
  9
$CMATERIAL
347
3C
  9
$SOLIDHIST
280
     1
  9
$SHOWHIST
280
     1
  9
$DWFFRAME
280
     2
  9
$DGNFRAME
280
     2
  9
$REALWORLDSCALE
290
     1
  9
$INTERFERECOLOR
 62
   256
  9
$CSHADOW
280
     0
  9
$SHADOWPLANELOCATION
 40
0.0
  0
ENDSEC
  0
SECTION
  2
CLASSES
  0
CLASS
  1
ACDBDICTIONARYWDFLT
  2
AcDbDictionaryWithDefault
  3
ObjectDBX Classes
 90
        0
 91
        4
280
     0
281
     0
  0
CLASS
  1
VISUALSTYLE
  2
AcDbVisualStyle
  3
ObjectDBX Classes
 90
     4095
 91
        4
280
     0
281
     0
  0
CLASS
  1
MATERIAL
  2
AcDbMaterial
  3
ObjectDBX Classes
 90
     1153
 91
        4
280
     0
281
     0
  0
CLASS
  1
SUN
  2
AcDbSun
  3
SCENEOE
 90
     1024
 91
        4
280
     0
281
     0
  0
ENDSEC
  0
SECTION
  2
TABLES
  0
TABLE
  2
VPORT
  5
8
330
0
100
AcDbSymbolTable
 70
     1
  0
VPORT
  5
29
330
8
100
AcDbSymbolTableRecord
100
AcDbViewportTableRecord
  2
*Active
 70
     0
 10
0.0
 20
0.0
 11
1.0
 21
1.0
 12
0.0
 22
0.0
 13
0.0
 23
0.0
 14
0.5
 24
0.5
 15
0.5
 25
0.5
 16
0.0
 26
0.0
 36
1.0
 17
105.0007777515277
 27
-148.5000416295416
 37
0.0
 40
297.0000832590831
 41
0.7070757462376333
 42
50.0
 43
0.0
 44
0.0
 50
0.0
 51
0.0
 71
     0
 72
   100
 73
     1
 74
     3
 75
     0
 76
     0
 77
     0
 78
     0
281
     0
 65
     1
110
0.0
120
0.0
130
0.0
111
1.0
121
0.0
131
0.0
112
0.0
122
1.0
132
0.0
 79
     0
146
0.0
 60
     3
 61
     5
292
     1
282
     1
141
0.0
142
0.0
 63
   250
361
3F
  0
ENDTAB
  0
TABLE
  2
LTYPE
  5
5
330
0
100
AcDbSymbolTable
 70
     1
  0
LTYPE
  5
14
330
5
100
AcDbSymbolTableRecord
100
AcDbLinetypeTableRecord
  2
ByBlock
 70
     0
  3

 72
    65
 73
     0
 40
0.0
  0
LTYPE
  5
15
330
5
100
AcDbSymbolTableRecord
100
AcDbLinetypeTableRecord
  2
ByLayer
 70
     0
  3

 72
    65
 73
     0
 40
0.0
  0
LTYPE
  5
16
330
5
100
AcDbSymbolTableRecord
100
AcDbLinetypeTableRecord
  2
Continuous
 70
     0
  3
Solid line
 72
    65
 73
     0
 40
0.0
  0
ENDTAB
  0
TABLE
  2
LAYER
  5
2
330
0
100
AcDbSymbolTable
 70
     2
  0
LAYER
  5
10
330
2
100
AcDbSymbolTableRecord
100
AcDbLayerTableRecord
  2
0
 70
     0
 62
     7
  6
Continuous
370
    -3
390
F
347
3E
  0
LAYER
  5
40
330
2
100
AcDbSymbolTableRecord
100
AcDbLayerTableRecord
  2
_U+30EC_U+30A4_U+30E4_U+30FC 1
 70
     0
 62
     7
  6
Continuous
370
    -3
390
F
347
3E
  0
ENDTAB
  0
TABLE
  2
STYLE
  5
3
330
0
100
AcDbSymbolTable
 70
     1
  0
STYLE
  5
11
330
3
100
AcDbSymbolTableRecord
100
AcDbTextStyleTableRecord
  2
Standard
 70
     0
 40
0.0
 41
1.0
 50
0.0
 71
     0
 42
0.2
  3
txt
  4

  0
ENDTAB
  0
TABLE
  2
VIEW
  5
6
330
0
100
AcDbSymbolTable
 70
     0
  0
ENDTAB
  0
TABLE
  2
UCS
  5
7
330
0
100
AcDbSymbolTable
 70
     0
  0
ENDTAB
  0
TABLE
  2
APPID
  5
9
330
0
100
AcDbSymbolTable
 70
     1
  0
APPID
  5
12
330
9
100
AcDbSymbolTableRecord
100
AcDbRegAppTableRecord
  2
ACAD
 70
     0
  0
ENDTAB
  0
TABLE
  2
DIMSTYLE
  5
A
330
0
100
AcDbSymbolTable
 70
     1
100
AcDbDimStyleTable
  0
DIMSTYLE
105
27
330
A
100
AcDbSymbolTableRecord
100
AcDbDimStyleTableRecord
  2
Standard
 70
     0
178
     0
340
11
  0
ENDTAB
  0
TABLE
  2
BLOCK_RECORD
  5
1
330
0
100
AcDbSymbolTable
 70
     5
  0
BLOCK_RECORD
  5
1F
330
1
100
AcDbSymbolTableRecord
100
AcDbBlockTableRecord
  2
*Model_Space
340
22
 70
     0
280
     1
281
     0
  0
BLOCK_RECORD
  5
1B
330
1
100
AcDbSymbolTableRecord
100
AcDbBlockTableRecord
  2
*Paper_Space
340
1E
 70
     0
280
     1
281
     0
  0
BLOCK_RECORD
  5
23
330
1
100
AcDbSymbolTableRecord
100
AcDbBlockTableRecord
  2
*Paper_Space0
340
26
 70
     0
280
     1
281
     0
  0
BLOCK_RECORD
  5
72
330
1
100
AcDbSymbolTableRecord
100
AcDbBlockTableRecord
  2
block 2
340
0
102
{BLKREFS
331
73
102
}
 70
     0
280
     1
281
     0
  0
BLOCK_RECORD
  5
7A
330
1
100
AcDbSymbolTableRecord
100
AcDbBlockTableRecord
  2
block 3
340
0
102
{BLKREFS
331
7B
102
}
 70
     0
280
     1
281
     0
  0
BLOCK_RECORD
  5
83
330
1
100
AcDbSymbolTableRecord
100
AcDbBlockTableRecord
  2
block 4
340
0
102
{BLKREFS
331
84
102
}
 70
     0
280
     1
281
     0
  0
BLOCK_RECORD
  5
89
330
1
100
AcDbSymbolTableRecord
100
AcDbBlockTableRecord
  2
block 5
340
0
102
{BLKREFS
331
8A
102
}
 70
     0
280
     1
281
     0
  0
ENDTAB
  0
ENDSEC
  0
SECTION
  2
BLOCKS
  0
BLOCK
  5
20
330
1F
100
AcDbEntity
  8
0
100
AcDbBlockBegin
  2
*Model_Space
 70
     0
 10
0.0
 20
0.0
 30
0.0
  3
*Model_Space
  1

  0
ENDBLK
  5
21
330
1F
100
AcDbEntity
  8
0
100
AcDbBlockEnd
  0
BLOCK
  5
1C
330
1B
100
AcDbEntity
 67
     1
  8
0
100
AcDbBlockBegin
  2
*Paper_Space
 70
     0
 10
0.0
 20
0.0
 30
0.0
  3
*Paper_Space
  1

  0
ENDBLK
  5
1D
330
1B
100
AcDbEntity
 67
     1
  8
0
100
AcDbBlockEnd
  0
BLOCK
  5
24
330
23
100
AcDbEntity
  8
0
100
AcDbBlockBegin
  2
*Paper_Space0
 70
     0
 10
0.0
 20
0.0
 30
0.0
  3
*Paper_Space0
  1

  0
ENDBLK
  5
25
330
23
100
AcDbEntity
  8
0
100
AcDbBlockEnd
  0
BLOCK
  5
74
330
72
100
AcDbEntity
  8
0
100
AcDbBlockBegin
  2
block 2
 70
     0
 10
0.0
 20
0.0
 30
0.0
  3
block 2
  1

  0
SPLINE
  5
76
330
72
100
AcDbEntity
  8
_U+30EC_U+30A4_U+30E4_U+30FC 1
370
     0
100
AcDbSpline
210
0.0
220
0.0
230
1.0
 70
    11
 71
     3
 72
    26
 73
    22
 74
     0
 42
0.0000000001
 43
0.0000000001
 12
1.0
 22
0.0
 32
0.0
 13
1.0
 23
0.0
 33
0.0
 40
0.0
 40
0.0
 40
0.0
 40
0.0
 40
1.0
 40
1.0
 40
1.0
 40
2.0
 40
2.0
 40
2.0
 40
3.0
 40
3.0
 40
3.0
 40
4.0
 40
4.0
 40
4.0
 40
5.0
 40
5.0
 40
5.0
 40
6.0
 40
6.0
 40
6.0
 40
7.0
 40
7.0
 40
7.0
 40
7.0
 10
101.2506672923957
 20
-147.2404527084156
 30
0.0
 10
101.2506672923957
 20
-147.2404527084156
 30
0.0
 10
101.2506672923957
 20
-146.136299605393
 30
0.0
 10
101.2506672923957
 20
-146.136299605393
 30
0.0
 10
101.2506672923957
 20
-146.136299605393
 30
0.0
 10
100.9206271449087
 20
-146.136299605393
 30
0.0
 10
100.9206271449087
 20
-146.136299605393
 30
0.0
 10
100.9206271449087
 20
-146.136299605393
 30
0.0
 10
100.9206271449087
 20
-145.9881604995273
 30
0.0
 10
100.9206271449087
 20
-145.9881604995273
 30
0.0
 10
101.2527343496868
 20
-145.9733465889407
 30
0.0
 10
101.2992431387377
 20
-145.8103935724884
 30
0.0
 10
101.3288709599108
 20
-145.6960164023781
 30
0.0
 10
101.3288709599108
 20
-145.6960164023781
 30
0.0
 10
101.4749430084854
 20
-145.6960164023781
 30
0.0
 10
101.4749430084854
 20
-145.6960164023781
 30
0.0
 10
101.4749430084854
 20
-145.6960164023781
 30
0.0
 10
101.4749430084854
 20
-147.2404527084156
 30
0.0
 10
101.4749430084854
 20
-147.2404527084156
 30
0.0
 10
101.4749430084854
 20
-147.2404527084156
 30
0.0
 10
101.2506672923957
 20
-147.2404527084156
 30
0.0
 10
101.2506672923957
 20
-147.2404527084156
 30
0.0
  0
HATCH
  5
77
330
72
100
AcDbEntity
  8
_U+30EC_U+30A4_U+30E4_U+30FC 1
 62
   179
420
  2234388
100
AcDbHatch
 10
0.0
 20
0.0
 30
0.0
210
0.0
220
0.0
230
1.0
  2
SOLID
 70
     1
 71
     0
 91
        1
 92
        1
 93
        1
 72
     4
 94
        3
 73
     0
 74
     1
 95
       26
 96
       22
 40
0.0
 40
0.0
 40
0.0
 40
0.0
 40
1.0
 40
1.0
 40
1.0
 40
2.0
 40
2.0
 40
2.0
 40
3.0
 40
3.0
 40
3.0
 40
4.0
 40
4.0
 40
4.0
 40
5.0
 40
5.0
 40
5.0
 40
6.0
 40
6.0
 40
6.0
 40
7.0
 40
7.0
 40
7.0
 40
7.0
 10
101.2506672923957
 20
-147.2404527084156
 10
101.2506672923957
 20
-147.2404527084156
 10
101.2506672923957
 20
-146.136299605393
 10
101.2506672923957
 20
-146.136299605393
 10
101.2506672923957
 20
-146.136299605393
 10
100.9206271449087
 20
-146.136299605393
 10
100.9206271449087
 20
-146.136299605393
 10
100.9206271449087
 20
-146.136299605393
 10
100.9206271449087
 20
-145.9881604995273
 10
100.9206271449087
 20
-145.9881604995273
 10
101.2527343496868
 20
-145.9733465889407
 10
101.2992431387377
 20
-145.8103935724884
 10
101.3288709599108
 20
-145.6960164023781
 10
101.3288709599108
 20
-145.6960164023781
 10
101.4749430084854
 20
-145.6960164023781
 10
101.4749430084854
 20
-145.6960164023781
 10
101.4749430084854
 20
-145.6960164023781
 10
101.4749430084854
 20
-147.2404527084156
 10
101.4749430084854
 20
-147.2404527084156
 10
101.4749430084854
 20
-147.2404527084156
 10
101.2506672923957
 20
-147.2404527084156
 10
101.2506672923957
 20
-147.2404527084156
 97
        0
 97
        0
 75
     2
 76
     1
 98
        0
  0
SPLINE
  5
78
330
72
100
AcDbEntity
  8
_U+30EC_U+30A4_U+30E4_U+30FC 1
370
     0
100
AcDbSpline
210
0.0
220
0.0
230
1.0
 70
    11
 71
     3
 72
    53
 73
    49
 74
     0
 42
0.0000000001
 43
0.0000000001
 12
1.0
 22
0.0
 32
0.0
 13
1.0
 23
0.0
 33
0.0
 40
0.0
 40
0.0
 40
0.0
 40
0.0
 40
1.0
 40
1.0
 40
1.0
 40
2.0
 40
2.0
 40
2.0
 40
3.0
 40
3.0
 40
3.0
 40
4.0
 40
4.0
 40
4.0
 40
5.0
 40
5.0
 40
5.0
 40
6.0
 40
6.0
 40
6.0
 40
7.0
 40
7.0
 40
7.0
 40
8.0
 40
8.0
 40
8.0
 40
9.0
 40
9.0
 40
9.0
 40
10.0
 40
10.0
 40
10.0
 40
11.0
 40
11.0
 40
11.0
 40
12.0
 40
12.0
 40
12.0
 40
13.0
 40
13.0
 40
13.0
 40
14.0
 40
14.0
 40
14.0
 40
15.0
 40
15.0
 40
15.0
 40
16.0
 40
16.0
 40
16.0
 40
16.0
 10
102.4571397313302
 20
-147.2910956120488
 30
0.0
 10
102.3787638090407
 20
-147.2910956120488
 30
0.0
 10
102.2773057470001
 20
-147.274214644171
 30
0.0
 10
102.1756754301853
 20
-147.2108248872424
 30
0.0
 10
102.0022148725029
 20
-147.100926341263
 30
0.0
 10
101.9810275352686
 20
-146.9696682032749
 30
0.0
 10
101.9620795100998
 20
-146.8618367145866
 30
0.0
 10
101.9620795100998
 20
-146.8618367145866
 30
0.0
 10
102.1841159141241
 20
-146.8618367145866
 30
0.0
 10
102.1841159141241
 20
-146.8618367145866
 30
0.0
 10
102.2392374418881
 20
-147.0606187240855
 30
0.0
 10
102.3661892105196
 20
-147.0902465452587
 30
0.0
 10
102.4592067886213
 20
-147.0902465452587
 30
0.0
 10
102.5987331557739
 20
-147.0902465452587
 30
0.0
 10
102.7511786309962
 20
-146.990683285735
 30
0.0
 10
102.7511786309962
 20
-146.7581393404806
 30
0.0
 10
102.7511786309962
 20
-146.5021687459266
 30
0.0
 10
102.5713446466662
 20
-146.432233307576
 30
0.0
 10
102.4507663046824
 20
-146.432233307576
 30
0.0
 10
102.4190714262182
 20
-146.432233307576
 30
0.0
 10
102.2773057470001
 20
-146.432233307576
 30
0.0
 10
102.1884222834807
 20
-146.5614243882729
 30
0.0
 10
102.1884222834807
 20
-146.5614243882729
 30
0.0
 10
102.0128946685072
 20
-146.542476363104
 30
0.0
 10
102.0128946685072
 20
-146.542476363104
 30
0.0
 10
102.0128946685072
 20
-146.542476363104
 30
0.0
 10
102.1334730104909
 20
-145.6960164023781
 30
0.0
 10
102.1334730104909
 20
-145.6960164023781
 30
0.0
 10
102.1334730104909
 20
-145.6960164023781
 30
0.0
 10
102.9118923353831
 20
-145.6960164023781
 30
0.0
 10
102.9118923353831
 20
-145.6960164023781
 30
0.0
 10
102.9118923353831
 20
-145.6960164023781
 30
0.0
 10
102.9118923353831
 20
-145.8906642972947
 30
0.0
 10
102.9118923353831
 20
-145.8906642972947
 30
0.0
 10
102.9118923353831
 20
-145.8906642972947
 30
0.0
 10
102.296253772169
 20
-145.8906642972947
 30
0.0
 10
102.296253772169
 20
-145.8906642972947
 30
0.0
 10
102.296253772169
 20
-145.8906642972947
 30
0.0
 10
102.2307969579493
 20
-146.3137220228834
 30
0.0
 10
102.2307969579493
 20
-146.3137220228834
 30
0.0
 10
102.2921196575867
 20
-146.2799600871279
 30
0.0
 10
102.3746296944584
 20
-146.2396524699505
 30
0.0
 10
102.4929687243768
 20
-146.2396524699505
 30
0.0
 10
102.7468722616397
 20
-146.2396524699505
 30
0.0
 10
102.9838948310249
 20
-146.4260321357025
 30
0.0
 10
102.9838948310249
 20
-146.7391913153117
 30
0.0
 10
102.9838948310249
 20
-147.0564846095033
 30
0.0
 10
102.7596191149351
 20
-147.2910956120488
 30
0.0
 10
102.4571397313302
 20
-147.2910956120488
 30
0.0
  0
HATCH
  5
79
330
72
100
AcDbEntity
  8
_U+30EC_U+30A4_U+30E4_U+30FC 1
 62
   179
420
  2234388
100
AcDbHatch
 10
0.0
 20
0.0
 30
0.0
210
0.0
220
0.0
230
1.0
  2
SOLID
 70
     1
 71
     0
 91
        1
 92
        1
 93
        1
 72
     4
 94
        3
 73
     0
 74
     1
 95
       53
 96
       49
 40
0.0
 40
0.0
 40
0.0
 40
0.0
 40
1.0
 40
1.0
 40
1.0
 40
2.0
 40
2.0
 40
2.0
 40
3.0
 40
3.0
 40
3.0
 40
4.0
 40
4.0
 40
4.0
 40
5.0
 40
5.0
 40
5.0
 40
6.0
 40
6.0
 40
6.0
 40
7.0
 40
7.0
 40
7.0
 40
8.0
 40
8.0
 40
8.0
 40
9.0
 40
9.0
 40
9.0
 40
10.0
 40
10.0
 40
10.0
 40
11.0
 40
11.0
 40
11.0
 40
12.0
 40
12.0
 40
12.0
 40
13.0
 40
13.0
 40
13.0
 40
14.0
 40
14.0
 40
14.0
 40
15.0
 40
15.0
 40
15.0
 40
16.0
 40
16.0
 40
16.0
 40
16.0
 10
102.4571397313302
 20
-147.2910956120488
 10
102.3787638090407
 20
-147.2910956120488
 10
102.2773057470001
 20
-147.274214644171
 10
102.1756754301853
 20
-147.2108248872424
 10
102.0022148725029
 20
-147.100926341263
 10
101.9810275352686
 20
-146.9696682032749
 10
101.9620795100998
 20
-146.8618367145866
 10
101.9620795100998
 20
-146.8618367145866
 10
102.1841159141241
 20
-146.8618367145866
 10
102.1841159141241
 20
-146.8618367145866
 10
102.2392374418881
 20
-147.0606187240855
 10
102.3661892105196
 20
-147.0902465452587
 10
102.4592067886213
 20
-147.0902465452587
 10
102.5987331557739
 20
-147.0902465452587
 10
102.7511786309962
 20
-146.990683285735
 10
102.7511786309962
 20
-146.7581393404806
 10
102.7511786309962
 20
-146.5021687459266
 10
102.5713446466662
 20
-146.432233307576
 10
102.4507663046824
 20
-146.432233307576
 10
102.4190714262182
 20
-146.432233307576
 10
102.2773057470001
 20
-146.432233307576
 10
102.1884222834807
 20
-146.5614243882729
 10
102.1884222834807
 20
-146.5614243882729
 10
102.0128946685072
 20
-146.542476363104
 10
102.0128946685072
 20
-146.542476363104
 10
102.0128946685072
 20
-146.542476363104
 10
102.1334730104909
 20
-145.6960164023781
 10
102.1334730104909
 20
-145.6960164023781
 10
102.1334730104909
 20
-145.6960164023781
 10
102.9118923353831
 20
-145.6960164023781
 10
102.9118923353831
 20
-145.6960164023781
 10
102.9118923353831
 20
-145.6960164023781
 10
102.9118923353831
 20
-145.8906642972947
 10
102.9118923353831
 20
-145.8906642972947
 10
102.9118923353831
 20
-145.8906642972947
 10
102.296253772169
 20
-145.8906642972947
 10
102.296253772169
 20
-145.8906642972947
 10
102.296253772169
 20
-145.8906642972947
 10
102.2307969579493
 20
-146.3137220228834
 10
102.2307969579493
 20
-146.3137220228834
 10
102.2921196575867
 20
-146.2799600871279
 10
102.3746296944584
 20
-146.2396524699505
 10
102.4929687243768
 20
-146.2396524699505
 10
102.7468722616397
 20
-146.2396524699505
 10
102.9838948310249
 20
-146.4260321357025
 10
102.9838948310249
 20
-146.7391913153117
 10
102.9838948310249
 20
-147.0564846095033
 10
102.7596191149351
 20
-147.2910956120488
 10
102.4571397313302
 20
-147.2910956120488
 97
        0
 97
        0
 75
     2
 76
     1
 98
        0
  0
ENDBLK
  5
75
330
72
100
AcDbEntity
  8
0
100
AcDbBlockEnd
  0
BLOCK
  5
7C
330
7A
100
AcDbEntity
  8
0
100
AcDbBlockBegin
  2
block 3
 70
     0
 10
0.0
 20
0.0
 30
0.0
  3
block 3
  1

  0
SPLINE
  5
7E
330
7A
100
AcDbEntity
  8
_U+30EC_U+30A4_U+30E4_U+30FC 1
370
     0
100
AcDbSpline
210
0.0
220
0.0
230
1.0
 70
    11
 71
     3
 72
    26
 73
    22
 74
     0
 42
0.0000000001
 43
0.0000000001
 12
1.0
 22
0.0
 32
0.0
 13
1.0
 23
0.0
 33
0.0
 40
0.0
 40
0.0
 40
0.0
 40
0.0
 40
1.0
 40
1.0
 40
1.0
 40
2.0
 40
2.0
 40
2.0
 40
3.0
 40
3.0
 40
3.0
 40
4.0
 40
4.0
 40
4.0
 40
5.0
 40
5.0
 40
5.0
 40
6.0
 40
6.0
 40
6.0
 40
7.0
 40
7.0
 40
7.0
 40
7.0
 10
128.9705945858129
 20
-164.4874619814476
 30
0.0
 10
128.9705945858129
 20
-164.4874619814476
 30
0.0
 10
127.8664414827903
 20
-164.4874619814476
 30
0.0
 10
127.8664414827903
 20
-164.4874619814476
 30
0.0
 10
127.8664414827903
 20
-164.4874619814476
 30
0.0
 10
127.8664414827903
 20
-164.8175021289345
 30
0.0
 10
127.8664414827903
 20
-164.8175021289345
 30
0.0
 10
127.8664414827903
 20
-164.8175021289345
 30
0.0
 10
127.7183023769246
 20
-164.8175021289345
 30
0.0
 10
127.7183023769246
 20
-164.8175021289345
 30
0.0
 10
127.703488466338
 20
-164.4853949241564
 30
0.0
 10
127.5405354498857
 20
-164.438541625557
 30
0.0
 10
127.4261582797754
 20
-164.4089138043839
 30
0.0
 10
127.4261582797754
 20
-164.4089138043839
 30
0.0
 10
127.4261582797754
 20
-164.2628417558093
 30
0.0
 10
127.4261582797754
 20
-164.2628417558093
 30
0.0
 10
127.4261582797754
 20
-164.2628417558093
 30
0.0
 10
128.9705945858129
 20
-164.2628417558093
 30
0.0
 10
128.9705945858129
 20
-164.2628417558093
 30
0.0
 10
128.9705945858129
 20
-164.2628417558093
 30
0.0
 10
128.9705945858129
 20
-164.4874619814476
 30
0.0
 10
128.9705945858129
 20
-164.4874619814476
 30
0.0
  0
HATCH
  5
7F
330
7A
100
AcDbEntity
  8
_U+30EC_U+30A4_U+30E4_U+30FC 1
 62
   179
420
  2234388
100
AcDbHatch
 10
0.0
 20
0.0
 30
0.0
210
0.0
220
0.0
230
1.0
  2
SOLID
 70
     1
 71
     0
 91
        1
 92
        1
 93
        1
 72
     4
 94
        3
 73
     0
 74
     1
 95
       26
 96
       22
 40
0.0
 40
0.0
 40
0.0
 40
0.0
 40
1.0
 40
1.0
 40
1.0
 40
2.0
 40
2.0
 40
2.0
 40
3.0
 40
3.0
 40
3.0
 40
4.0
 40
4.0
 40
4.0
 40
5.0
 40
5.0
 40
5.0
 40
6.0
 40
6.0
 40
6.0
 40
7.0
 40
7.0
 40
7.0
 40
7.0
 10
128.9705945858129
 20
-164.4874619814476
 10
128.9705945858129
 20
-164.4874619814476
 10
127.8664414827903
 20
-164.4874619814476
 10
127.8664414827903
 20
-164.4874619814476
 10
127.8664414827903
 20
-164.4874619814476
 10
127.8664414827903
 20
-164.8175021289345
 10
127.8664414827903
 20
-164.8175021289345
 10
127.8664414827903
 20
-164.8175021289345
 10
127.7183023769246
 20
-164.8175021289345
 10
127.7183023769246
 20
-164.8175021289345
 10
127.703488466338
 20
-164.4853949241564
 10
127.5405354498857
 20
-164.438541625557
 10
127.4261582797754
 20
-164.4089138043839
 10
127.4261582797754
 20
-164.4089138043839
 10
127.4261582797754
 20
-164.2628417558093
 10
127.4261582797754
 20
-164.2628417558093
 10
127.4261582797754
 20
-164.2628417558093
 10
128.9705945858129
 20
-164.2628417558093
 10
128.9705945858129
 20
-164.2628417558093
 10
128.9705945858129
 20
-164.2628417558093
 10
128.9705945858129
 20
-164.4874619814476
 10
128.9705945858129
 20
-164.4874619814476
 97
        0
 97
        0
 75
     2
 76
     1
 98
        0
  0
SPLINE
  5
80
330
7A
100
AcDbEntity
  8
_U+30EC_U+30A4_U+30E4_U+30FC 1
370
     0
100
AcDbSpline
210
0.0
220
0.0
230
1.0
 70
    11
 71
     3
 72
    29
 73
    25
 74
     0
 42
0.0000000001
 43
0.0000000001
 12
1.0
 22
0.0
 32
0.0
 13
1.0
 23
0.0
 33
0.0
 40
0.0
 40
0.0
 40
0.0
 40
0.0
 40
1.0
 40
1.0
 40
1.0
 40
2.0
 40
2.0
 40
2.0
 40
3.0
 40
3.0
 40
3.0
 40
4.0
 40
4.0
 40
4.0
 40
5.0
 40
5.0
 40
5.0
 40
6.0
 40
6.0
 40
6.0
 40
7.0
 40
7.0
 40
7.0
 40
8.0
 40
8.0
 40
8.0
 40
8.0
 10
128.792827658774
 20
-162.8641329887979
 30
0.0
 10
129.0022894642772
 20
-162.9719644774862
 30
0.0
 10
129.0212374894461
 20
-163.1452527803943
 30
0.0
 10
129.0212374894461
 20
-163.2616970077957
 30
0.0
 10
129.0212374894461
 20
-163.4225829669569
 30
0.0
 10
128.9747287003952
 20
-163.5641763914006
 30
0.0
 10
128.792827658774
 20
-163.659605536342
 30
0.0
 10
128.5981797638574
 20
-163.7633029104481
 30
0.0
 10
128.3615017040208
 20
-163.782250935617
 30
0.0
 10
128.1985486875684
 20
-163.782250935617
 30
0.0
 10
128.054543696285
 20
-163.782250935617
 30
0.0
 10
127.8027072163132
 20
-163.7653699677392
 30
0.0
 10
127.6039252068143
 20
-163.659605536342
 30
0.0
 10
127.4010090827331
 20
-163.5517740476537
 30
0.0
 10
127.3775824334334
 20
-163.3908880884926
 30
0.0
 10
127.3775824334334
 20
-163.2616970077957
 30
0.0
 10
127.3775824334334
 20
-163.1032226154742
 30
0.0
 10
127.4220241651931
 20
-162.9592176241908
 30
0.0
 10
127.6039252068143
 20
-162.8641329887979
 30
0.0
 10
127.7965060444398
 20
-162.7649142388227
 30
0.0
 10
128.0249158751118
 20
-162.741487589523
 30
0.0
 10
128.1985486875684
 20
-162.741487589523
 30
0.0
 10
128.3697699331854
 20
-162.741487589523
 30
0.0
 10
128.6002468211485
 20
-162.762502671983
 30
0.0
 10
128.792827658774
 20
-162.8641329887979
 30
0.0
  0
SPLINE
  5
81
330
7A
100
AcDbEntity
  8
_U+30EC_U+30A4_U+30E4_U+30FC 1
370
     0
100
AcDbSpline
210
0.0
220
0.0
230
1.0
 70
    11
 71
     3
 72
    17
 73
    13
 74
     0
 42
0.0000000001
 43
0.0000000001
 12
1.0
 22
0.0
 32
0.0
 13
1.0
 23
0.0
 33
0.0
 40
0.0
 40
0.0
 40
0.0
 40
0.0
 40
1.0
 40
1.0
 40
1.0
 40
2.0
 40
2.0
 40
2.0
 40
3.0
 40
3.0
 40
3.0
 40
4.0
 40
4.0
 40
4.0
 40
4.0
 10
127.5701632710589
 20
-163.2616970077957
 30
0.0
 10
127.5701632710589
 20
-163.5114664304763
 30
0.0
 10
127.8536946294949
 20
-163.5579752195272
 30
0.0
 10
128.1985486875684
 20
-163.5579752195272
 30
0.0
 10
128.5179090390511
 20
-163.5579752195272
 30
0.0
 10
128.8265895945295
 20
-163.5221462264806
 30
0.0
 10
128.8265895945295
 20
-163.2616970077957
 30
0.0
 10
128.8265895945295
 20
-163.0143391519547
 30
0.0
 10
128.5454698029331
 20
-162.9654187960642
 30
0.0
 10
128.1985486875684
 20
-162.9654187960642
 30
0.0
 10
127.8788438265372
 20
-162.9654187960642
 30
0.0
 10
127.5701632710589
 20
-163.0036593559505
 30
0.0
 10
127.5701632710589
 20
-163.2616970077957
 30
0.0
  0
HATCH
  5
82
330
7A
100
AcDbEntity
  8
_U+30EC_U+30A4_U+30E4_U+30FC 1
 62
   179
420
  2234388
100
AcDbHatch
 10
0.0
 20
0.0
 30
0.0
210
0.0
220
0.0
230
1.0
  2
SOLID
 70
     1
 71
     0
 91
        2
 92
        1
 93
        1
 72
     4
 94
        3
 73
     0
 74
     1
 95
       29
 96
       25
 40
0.0
 40
0.0
 40
0.0
 40
0.0
 40
1.0
 40
1.0
 40
1.0
 40
2.0
 40
2.0
 40
2.0
 40
3.0
 40
3.0
 40
3.0
 40
4.0
 40
4.0
 40
4.0
 40
5.0
 40
5.0
 40
5.0
 40
6.0
 40
6.0
 40
6.0
 40
7.0
 40
7.0
 40
7.0
 40
8.0
 40
8.0
 40
8.0
 40
8.0
 10
128.792827658774
 20
-162.8641329887979
 10
129.0022894642772
 20
-162.9719644774862
 10
129.0212374894461
 20
-163.1452527803943
 10
129.0212374894461
 20
-163.2616970077957
 10
129.0212374894461
 20
-163.4225829669569
 10
128.9747287003952
 20
-163.5641763914006
 10
128.792827658774
 20
-163.659605536342
 10
128.5981797638574
 20
-163.7633029104481
 10
128.3615017040208
 20
-163.782250935617
 10
128.1985486875684
 20
-163.782250935617
 10
128.054543696285
 20
-163.782250935617
 10
127.8027072163132
 20
-163.7653699677392
 10
127.6039252068143
 20
-163.659605536342
 10
127.4010090827331
 20
-163.5517740476537
 10
127.3775824334334
 20
-163.3908880884926
 10
127.3775824334334
 20
-163.2616970077957
 10
127.3775824334334
 20
-163.1032226154742
 10
127.4220241651931
 20
-162.9592176241908
 10
127.6039252068143
 20
-162.8641329887979
 10
127.7965060444398
 20
-162.7649142388227
 10
128.0249158751118
 20
-162.741487589523
 10
128.1985486875684
 20
-162.741487589523
 10
128.3697699331854
 20
-162.741487589523
 10
128.6002468211485
 20
-162.762502671983
 10
128.792827658774
 20
-162.8641329887979
 97
        0
 97
        0
 92
        1
 93
        1
 72
     4
 94
        3
 73
     0
 74
     1
 95
       17
 96
       13
 40
0.0
 40
0.0
 40
0.0
 40
0.0
 40
1.0
 40
1.0
 40
1.0
 40
2.0
 40
2.0
 40
2.0
 40
3.0
 40
3.0
 40
3.0
 40
4.0
 40
4.0
 40
4.0
 40
4.0
 10
127.5701632710589
 20
-163.2616970077957
 10
127.5701632710589
 20
-163.5114664304763
 10
127.8536946294949
 20
-163.5579752195272
 10
128.1985486875684
 20
-163.5579752195272
 10
128.5179090390511
 20
-163.5579752195272
 10
128.8265895945295
 20
-163.5221462264806
 10
128.8265895945295
 20
-163.2616970077957
 10
128.8265895945295
 20
-163.0143391519547
 10
128.5454698029331
 20
-162.9654187960642
 10
128.1985486875684
 20
-162.9654187960642
 10
127.8788438265372
 20
-162.9654187960642
 10
127.5701632710589
 20
-163.0036593559505
 10
127.5701632710589
 20
-163.2616970077957
 97
        0
 97
        0
 75
     2
 76
     1
 98
        0
  0
ENDBLK
  5
7D
330
7A
100
AcDbEntity
  8
0
100
AcDbBlockEnd
  0
BLOCK
  5
85
330
83
100
AcDbEntity
  8
0
100
AcDbBlockBegin
  2
block 4
 70
     0
 10
0.0
 20
0.0
 30
0.0
  3
block 4
  1

  0
SPLINE
  5
87
330
83
100
AcDbEntity
  8
_U+30EC_U+30A4_U+30E4_U+30FC 1
370
     0
100
AcDbSpline
210
0.0
220
0.0
230
1.0
 70
    11
 71
     3
 72
    26
 73
    22
 74
     0
 42
0.0000000001
 43
0.0000000001
 12
1.0
 22
0.0
 32
0.0
 13
1.0
 23
0.0
 33
0.0
 40
0.0
 40
0.0
 40
0.0
 40
0.0
 40
1.0
 40
1.0
 40
1.0
 40
2.0
 40
2.0
 40
2.0
 40
3.0
 40
3.0
 40
3.0
 40
4.0
 40
4.0
 40
4.0
 40
5.0
 40
5.0
 40
5.0
 40
6.0
 40
6.0
 40
6.0
 40
7.0
 40
7.0
 40
7.0
 40
7.0
 10
129.0594780493324
 20
-171.0641492627895
 30
0.0
 10
129.0594780493324
 20
-171.0641492627895
 30
0.0
 10
127.9553249463098
 20
-171.0641492627895
 30
0.0
 10
127.9553249463098
 20
-171.0641492627895
 30
0.0
 10
127.9553249463098
 20
-171.0641492627895
 30
0.0
 10
127.9553249463098
 20
-171.3941894102765
 30
0.0
 10
127.9553249463098
 20
-171.3941894102765
 30
0.0
 10
127.9553249463098
 20
-171.3941894102765
 30
0.0
 10
127.807185840444
 20
-171.3941894102765
 30
0.0
 10
127.807185840444
 20
-171.3941894102765
 30
0.0
 10
127.7923719298575
 20
-171.0620822054984
 30
0.0
 10
127.6294189134051
 20
-171.015228906899
 30
0.0
 10
127.5150417432949
 20
-170.9856010857258
 30
0.0
 10
127.5150417432949
 20
-170.9856010857258
 30
0.0
 10
127.5150417432949
 20
-170.8395290371512
 30
0.0
 10
127.5150417432949
 20
-170.8395290371512
 30
0.0
 10
127.5150417432949
 20
-170.8395290371512
 30
0.0
 10
129.0594780493324
 20
-170.8395290371512
 30
0.0
 10
129.0594780493324
 20
-170.8395290371512
 30
0.0
 10
129.0594780493324
 20
-170.8395290371512
 30
0.0
 10
129.0594780493324
 20
-171.0641492627895
 30
0.0
 10
129.0594780493324
 20
-171.0641492627895
 30
0.0
  0
HATCH
  5
88
330
83
100
AcDbEntity
  8
_U+30EC_U+30A4_U+30E4_U+30FC 1
 62
   179
420
  2234388
100
AcDbHatch
 10
0.0
 20
0.0
 30
0.0
210
0.0
220
0.0
230
1.0
  2
SOLID
 70
     1
 71
     0
 91
        1
 92
        1
 93
        1
 72
     4
 94
        3
 73
     0
 74
     1
 95
       26
 96
       22
 40
0.0
 40
0.0
 40
0.0
 40
0.0
 40
1.0
 40
1.0
 40
1.0
 40
2.0
 40
2.0
 40
2.0
 40
3.0
 40
3.0
 40
3.0
 40
4.0
 40
4.0
 40
4.0
 40
5.0
 40
5.0
 40
5.0
 40
6.0
 40
6.0
 40
6.0
 40
7.0
 40
7.0
 40
7.0
 40
7.0
 10
129.0594780493324
 20
-171.0641492627895
 10
129.0594780493324
 20
-171.0641492627895
 10
127.9553249463098
 20
-171.0641492627895
 10
127.9553249463098
 20
-171.0641492627895
 10
127.9553249463098
 20
-171.0641492627895
 10
127.9553249463098
 20
-171.3941894102765
 10
127.9553249463098
 20
-171.3941894102765
 10
127.9553249463098
 20
-171.3941894102765
 10
127.807185840444
 20
-171.3941894102765
 10
127.807185840444
 20
-171.3941894102765
 10
127.7923719298575
 20
-171.0620822054984
 10
127.6294189134051
 20
-171.015228906899
 10
127.5150417432949
 20
-170.9856010857258
 10
127.5150417432949
 20
-170.9856010857258
 10
127.5150417432949
 20
-170.8395290371512
 10
127.5150417432949
 20
-170.8395290371512
 10
127.5150417432949
 20
-170.8395290371512
 10
129.0594780493324
 20
-170.8395290371512
 10
129.0594780493324
 20
-170.8395290371512
 10
129.0594780493324
 20
-170.8395290371512
 10
129.0594780493324
 20
-171.0641492627895
 10
129.0594780493324
 20
-171.0641492627895
 97
        0
 97
        0
 75
     2
 76
     1
 98
        0
  0
ENDBLK
  5
86
330
83
100
AcDbEntity
  8
0
100
AcDbBlockEnd
  0
BLOCK
  5
8B
330
89
100
AcDbEntity
  8
0
100
AcDbBlockBegin
  2
block 5
 70
     0
 10
0.0
 20
0.0
 30
0.0
  3
block 5
  1

  0
SPLINE
  5
8D
330
89
100
AcDbEntity
  8
_U+30EC_U+30A4_U+30E4_U+30FC 1
370
     0
100
AcDbSpline
210
0.0
220
0.0
230
1.0
 70
    11
 71
     3
 72
    62
 73
    58
 74
     0
 42
0.0000000001
 43
0.0000000001
 12
1.0
 22
0.0
 32
0.0
 13
1.0
 23
0.0
 33
0.0
 40
0.0
 40
0.0
 40
0.0
 40
0.0
 40
1.0
 40
1.0
 40
1.0
 40
2.0
 40
2.0
 40
2.0
 40
3.0
 40
3.0
 40
3.0
 40
4.0
 40
4.0
 40
4.0
 40
5.0
 40
5.0
 40
5.0
 40
6.0
 40
6.0
 40
6.0
 40
7.0
 40
7.0
 40
7.0
 40
8.0
 40
8.0
 40
8.0
 40
9.0
 40
9.0
 40
9.0
 40
10.0
 40
10.0
 40
10.0
 40
11.0
 40
11.0
 40
11.0
 40
12.0
 40
12.0
 40
12.0
 40
13.0
 40
13.0
 40
13.0
 40
14.0
 40
14.0
 40
14.0
 40
15.0
 40
15.0
 40
15.0
 40
16.0
 40
16.0
 40
16.0
 40
17.0
 40
17.0
 40
17.0
 40
18.0
 40
18.0
 40
18.0
 40
19.0
 40
19.0
 40
19.0
 40
19.0
 10
98.15455997980165
 20
-151.8818576009184
 30
0.0
 10
98.08169621028861
 20
-151.820534901281
 30
0.0
 10
97.92821720642073
 20
-151.6641275662506
 30
0.0
 10
97.95233287481747
 20
-151.4415743979035
 30
0.0
 10
97.9678358045011
 20
-151.3079046930758
 30
0.0
 10
98.02829723026724
 20
-151.2293565160121
 30
0.0
 10
98.0794568982232
 20
-151.1618326445012
 30
0.0
 10
98.0794568982232
 20
-151.1618326445012
 30
0.0
 10
98.24792206745191
 20
-151.3030815593964
 30
0.0
 10
98.24792206745191
 20
-151.3030815593964
 30
0.0
 10
98.20210229749809
 20
-151.3609591635486
 30
0.0
 10
98.05930308963448
 20
-151.5476833388492
 30
0.0
 10
98.27651635997948
 20
-151.7302733995674
 30
0.0
 10
98.38176402705388
 20
-151.8184678439898
 30
0.0
 10
98.54333900531209
 20
-151.8632540852981
 30
0.0
 10
98.69010007298372
 20
-151.6882432346474
 30
0.0
 10
98.76503089978792
 20
-151.5986707520309
 30
0.0
 10
98.7669257023048
 20
-151.5373480523934
 30
0.0
 10
98.76296384249676
 20
-151.4925618110852
 30
0.0
 10
98.75400659423511
 20
-151.3878309083336
 30
0.0
 10
98.67287459555747
 20
-151.3037705784935
 30
0.0
 10
98.63084443063744
 20
-151.2679415854469
 30
0.0
 10
98.61620277482513
 20
-151.2562282607971
 30
0.0
 10
98.58743622752328
 20
-151.2341796496915
 30
0.0
 10
98.56366506867506
 20
-151.2197102486534
 30
0.0
 10
98.56366506867506
 20
-151.2197102486534
 30
0.0
 10
98.68889428956389
 20
-151.0708821236906
 30
0.0
 10
98.68889428956389
 20
-151.0708821236906
 30
0.0
 10
98.71369897705769
 20
-151.1005099448638
 30
0.0
 10
98.74470483642494
 20
-151.1287597278428
 30
0.0
 10
98.74970022487855
 20
-151.1328938424251
 30
0.0
 10
98.79982636418893
 20
-151.1749240073452
 30
0.0
 10
98.96605222135224
 20
-151.2865451010672
 30
0.0
 10
99.11815318702602
 20
-151.1053330785431
 30
0.0
 10
99.23253035713631
 20
-150.9695963164243
 30
0.0
 10
99.16724579769084
 20
-150.8428168025671
 30
0.0
 10
99.08301321307647
 20
-150.7718478355709
 30
0.0
 10
98.88044159854378
 20
-150.6023491376966
 30
0.0
 10
98.72437877306197
 20
-150.7752929310562
 30
0.0
 10
98.67511390762289
 20
-150.8269693633349
 30
0.0
 10
98.67511390762289
 20
-150.8269693633349
 30
0.0
 10
98.51956784646386
 20
-150.6967447539925
 30
0.0
 10
98.51956784646386
 20
-150.6967447539925
 30
0.0
 10
98.60603974314364
 20
-150.6064832522789
 30
0.0
 10
98.86924503821672
 20
-150.3356987471383
 30
0.0
 10
99.21909448474385
 20
-150.6292208824816
 30
0.0
 10
99.3910047494578
 20
-150.7739148928621
 30
0.0
 10
99.49401310446677
 20
-151.0260958823824
 30
0.0
 10
99.30384383368099
 20
-151.2527831653118
 30
0.0
 10
99.1839545107943
 20
-151.3954101184011
 30
0.0
 10
99.05820852558267
 20
-151.3974771756923
 30
0.0
 10
98.94245331727828
 20
-151.3802516982661
 30
0.0
 10
98.97190888367717
 20
-151.4408853788065
 30
0.0
 10
99.05975881855103
 20
-151.6193413249424
 30
0.0
 10
98.88147512718936
 20
-151.8315592068338
 30
0.0
 10
98.66391734729584
 20
-152.0913194064216
 30
0.0
 10
98.3669501164673
 20
-152.0603135470544
 30
0.0
 10
98.15455997980165
 20
-151.8818576009184
 30
0.0
  0
HATCH
  5
8E
330
89
100
AcDbEntity
  8
_U+30EC_U+30A4_U+30E4_U+30FC 1
 62
   179
420
  2234388
100
AcDbHatch
 10
0.0
 20
0.0
 30
0.0
210
0.0
220
0.0
230
1.0
  2
SOLID
 70
     1
 71
     0
 91
        1
 92
        1
 93
        1
 72
     4
 94
        3
 73
     0
 74
     1
 95
       62
 96
       58
 40
0.0
 40
0.0
 40
0.0
 40
0.0
 40
1.0
 40
1.0
 40
1.0
 40
2.0
 40
2.0
 40
2.0
 40
3.0
 40
3.0
 40
3.0
 40
4.0
 40
4.0
 40
4.0
 40
5.0
 40
5.0
 40
5.0
 40
6.0
 40
6.0
 40
6.0
 40
7.0
 40
7.0
 40
7.0
 40
8.0
 40
8.0
 40
8.0
 40
9.0
 40
9.0
 40
9.0
 40
10.0
 40
10.0
 40
10.0
 40
11.0
 40
11.0
 40
11.0
 40
12.0
 40
12.0
 40
12.0
 40
13.0
 40
13.0
 40
13.0
 40
14.0
 40
14.0
 40
14.0
 40
15.0
 40
15.0
 40
15.0
 40
16.0
 40
16.0
 40
16.0
 40
17.0
 40
17.0
 40
17.0
 40
18.0
 40
18.0
 40
18.0
 40
19.0
 40
19.0
 40
19.0
 40
19.0
 10
98.15455997980165
 20
-151.8818576009184
 10
98.08169621028861
 20
-151.820534901281
 10
97.92821720642073
 20
-151.6641275662506
 10
97.95233287481747
 20
-151.4415743979035
 10
97.9678358045011
 20
-151.3079046930758
 10
98.02829723026724
 20
-151.2293565160121
 10
98.0794568982232
 20
-151.1618326445012
 10
98.0794568982232
 20
-151.1618326445012
 10
98.24792206745191
 20
-151.3030815593964
 10
98.24792206745191
 20
-151.3030815593964
 10
98.20210229749809
 20
-151.3609591635486
 10
98.05930308963448
 20
-151.5476833388492
 10
98.27651635997948
 20
-151.7302733995674
 10
98.38176402705388
 20
-151.8184678439898
 10
98.54333900531209
 20
-151.8632540852981
 10
98.69010007298372
 20
-151.6882432346474
 10
98.76503089978792
 20
-151.5986707520309
 10
98.7669257023048
 20
-151.5373480523934
 10
98.76296384249676
 20
-151.4925618110852
 10
98.75400659423511
 20
-151.3878309083336
 10
98.67287459555747
 20
-151.3037705784935
 10
98.63084443063744
 20
-151.2679415854469
 10
98.61620277482513
 20
-151.2562282607971
 10
98.58743622752328
 20
-151.2341796496915
 10
98.56366506867506
 20
-151.2197102486534
 10
98.56366506867506
 20
-151.2197102486534
 10
98.68889428956389
 20
-151.0708821236906
 10
98.68889428956389
 20
-151.0708821236906
 10
98.71369897705769
 20
-151.1005099448638
 10
98.74470483642494
 20
-151.1287597278428
 10
98.74970022487855
 20
-151.1328938424251
 10
98.79982636418893
 20
-151.1749240073452
 10
98.96605222135224
 20
-151.2865451010672
 10
99.11815318702602
 20
-151.1053330785431
 10
99.23253035713631
 20
-150.9695963164243
 10
99.16724579769084
 20
-150.8428168025671
 10
99.08301321307647
 20
-150.7718478355709
 10
98.88044159854378
 20
-150.6023491376966
 10
98.72437877306197
 20
-150.7752929310562
 10
98.67511390762289
 20
-150.8269693633349
 10
98.67511390762289
 20
-150.8269693633349
 10
98.51956784646386
 20
-150.6967447539925
 10
98.51956784646386
 20
-150.6967447539925
 10
98.60603974314364
 20
-150.6064832522789
 10
98.86924503821672
 20
-150.3356987471383
 10
99.21909448474385
 20
-150.6292208824816
 10
99.3910047494578
 20
-150.7739148928621
 10
99.49401310446677
 20
-151.0260958823824
 10
99.30384383368099
 20
-151.2527831653118
 10
99.1839545107943
 20
-151.3954101184011
 10
99.05820852558267
 20
-151.3974771756923
 10
98.94245331727828
 20
-151.3802516982661
 10
98.97190888367717
 20
-151.4408853788065
 10
99.05975881855103
 20
-151.6193413249424
 10
98.88147512718936
 20
-151.8315592068338
 10
98.66391734729584
 20
-152.0913194064216
 10
98.3669501164673
 20
-152.0603135470544
 10
98.15455997980165
 20
-151.8818576009184
 97
        0
 97
        0
 75
     2
 76
     1
 98
        0
  0
ENDBLK
  5
8C
330
89
100
AcDbEntity
  8
0
100
AcDbBlockEnd
  0
ENDSEC
  0
SECTION
  2
ENTITIES
  0
POLYLINE
  5
41
330
1F
100
AcDbEntity
  8
_U+30EC_U+30A4_U+30E4_U+30FC 1
 62
   179
420
  2234388
370
    18
100
AcDb2dPolyline
 66
     1
 10
0.0
 20
0.0
 30
0.0
  0
VERTEX
  5
42
330
41
100
AcDbEntity
  8
_U+30EC_U+30A4_U+30E4_U+30FC 1
 62
   179
420
  2234388
370
    18
100
AcDbVertex
100
AcDb2dVertex
 10
92.28804145201208
 20
-155.5799092221727
 30
0.0
  0
VERTEX
  5
43
330
41
100
AcDbEntity
  8
_U+30EC_U+30A4_U+30E4_U+30FC 1
 62
   179
420
  2234388
370
    18
100
AcDbVertex
100
AcDb2dVertex
 10
86.99637478666834
 20
-160.9012090916513
 30
0.0
  0
VERTEX
  5
44
330
41
100
AcDbEntity
  8
_U+30EC_U+30A4_U+30E4_U+30FC 1
 62
   179
420
  2234388
370
    18
100
AcDbVertex
100
AcDb2dVertex
 10
89.06894423059464
 20
-162.8739461279691
 30
0.0
  0
VERTEX
  5
45
330
41
100
AcDbEntity
  8
_U+30EC_U+30A4_U+30E4_U+30FC 1
 62
   179
420
  2234388
370
    18
100
AcDbVertex
100
AcDb2dVertex
 10
94.41952202873617
 20
-157.7262144754068
 30
0.0
  0
VERTEX
  5
46
330
41
100
AcDbEntity
  8
_U+30EC_U+30A4_U+30E4_U+30FC 1
 62
   179
420
  2234388
370
    18
100
AcDbVertex
100
AcDb2dVertex
 10
109.4556197422623
 20
-158.1671866975188
 30
0.0
  0
VERTEX
  5
47
330
41
100
AcDbEntity
  8
_U+30EC_U+30A4_U+30E4_U+30FC 1
 62
   179
420
  2234388
370
    18
100
AcDbVertex
100
AcDb2dVertex
 10
109.4556197422623
 20
-158.6522507588802
 30
0.0
  0
VERTEX
  5
48
330
41
100
AcDbEntity
  8
_U+30EC_U+30A4_U+30E4_U+30FC 1
 62
   179
420
  2234388
370
    18
100
AcDbVertex
100
AcDb2dVertex
 10
95.36038298871959
 20
-158.6522507588802
 30
0.0
  0
VERTEX
  5
49
330
41
100
AcDbEntity
  8
_U+30EC_U+30A4_U+30E4_U+30FC 1
 62
   179
420
  2234388
370
    18
100
AcDbVertex
100
AcDb2dVertex
 10
95.36038298871959
 20
-168.6524424661106
 30
0.0
  0
VERTEX
  5
4A
330
41
100
AcDbEntity
  8
_U+30EC_U+30A4_U+30E4_U+30FC 1
 62
   179
420
  2234388
370
    18
100
AcDbVertex
100
AcDb2dVertex
 10
124.3608307421574
 20
-168.6524424661106
 30
0.0
  0
VERTEX
  5
4B
330
41
100
AcDbEntity
  8
_U+30EC_U+30A4_U+30E4_U+30FC 1
 62
   179
420
  2234388
370
    18
100
AcDbVertex
100
AcDb2dVertex
 10
124.3608307421574
 20
-169.6525698343637
 30
0.0
  0
VERTEX
  5
4C
330
41
100
AcDbEntity
  8
_U+30EC_U+30A4_U+30E4_U+30FC 1
 62
   179
420
  2234388
370
    18
100
AcDbVertex
100
AcDb2dVertex
 10
94.3606108959384
 20
-169.6525698343637
 30
0.0
  0
VERTEX
  5
4D
330
41
100
AcDbEntity
  8
_U+30EC_U+30A4_U+30E4_U+30FC 1
 62
   179
420
  2234388
370
    18
100
AcDbVertex
100
AcDb2dVertex
 10
94.3606108959384
 20
-159.1373202032034
 30
0.0
  0
VERTEX
  5
4E
330
41
100
AcDbEntity
  8
_U+30EC_U+30A4_U+30E4_U+30FC 1
 62
   179
420
  2234388
370
    18
100
AcDbVertex
100
AcDb2dVertex
 10
88.98074978617224
 20
-164.3407924241248
 30
0.0
  0
VERTEX
  5
4F
330
41
100
AcDbEntity
  8
_U+30EC_U+30A4_U+30E4_U+30FC 1
 62
   179
420
  2234388
370
    18
100
AcDbVertex
100
AcDb2dVertex
 10
85.58526367591
 20
-160.9894035360737
 30
0.0
  0
VERTEX
  5
50
330
41
100
AcDbEntity
  8
_U+30EC_U+30A4_U+30E4_U+30FC 1
 62
   179
420
  2234388
370
    18
100
AcDbVertex
100
AcDb2dVertex
 10
90.74463867462016
 20
-155.6977422536917
 30
0.0
  0
VERTEX
  5
51
330
41
100
AcDbEntity
  8
_U+30EC_U+30A4_U+30E4_U+30FC 1
 62
   179
420
  2234388
370
    18
100
AcDbVertex
100
AcDb2dVertex
 10
80.14154987450942
 20
-155.6977422536917
 30
0.0
  0
VERTEX
  5
52
330
41
100
AcDbEntity
  8
_U+30EC_U+30A4_U+30E4_U+30FC 1
 62
   179
420
  2234388
370
    18
100
AcDbVertex
100
AcDb2dVertex
 10
80.14154987450942
 20
-125.6978722999829
 30
0.0
  0
VERTEX
  5
53
330
41
100
AcDbEntity
  8
_U+30EC_U+30A4_U+30E4_U+30FC 1
 62
   179
420
  2234388
370
    18
100
AcDbVertex
100
AcDb2dVertex
 10
81.14132196729062
 20
-125.6978722999829
 30
0.0
  0
VERTEX
  5
54
330
41
100
AcDbEntity
  8
_U+30EC_U+30A4_U+30E4_U+30FC 1
 62
   179
420
  2234388
370
    18
100
AcDbVertex
100
AcDb2dVertex
 10
81.14132196729062
 20
-154.6976148854386
 30
0.0
  0
VERTEX
  5
55
330
41
100
AcDbEntity
  8
_U+30EC_U+30A4_U+30E4_U+30FC 1
 62
   179
420
  2234388
370
    18
100
AcDbVertex
100
AcDb2dVertex
 10
91.14151367452094
 20
-154.6976148854386
 30
0.0
  0
VERTEX
  5
56
330
41
100
AcDbEntity
  8
_U+30EC_U+30A4_U+30E4_U+30FC 1
 62
   179
420
  2234388
370
    18
100
AcDbVertex
100
AcDb2dVertex
 10
91.14151367452094
 20
-140.4401033686172
 30
0.0
  0
VERTEX
  5
57
330
41
100
AcDbEntity
  8
_U+30EC_U+30A4_U+30E4_U+30FC 1
 62
   179
420
  2234388
370
    18
100
AcDbVertex
100
AcDb2dVertex
 10
91.74158740399196
 20
-140.4401033686172
 30
0.0
  0
VERTEX
  5
58
330
41
100
AcDbEntity
  8
_U+30EC_U+30A4_U+30E4_U+30FC 1
 62
   179
420
  2234388
370
    18
100
AcDbVertex
100
AcDb2dVertex
 10
92.28804145201208
 20
-155.5799092221727
 30
0.0
  0
SEQEND
  5
59
330
41
100
AcDbEntity
  8
_U+30EC_U+30A4_U+30E4_U+30FC 1
 62
   179
420
  2234388
370
    18
  0
POLYLINE
  5
5A
330
1F
100
AcDbEntity
  8
_U+30EC_U+30A4_U+30E4_U+30FC 1
 62
   179
420
  2234388
370
     9
100
AcDb2dPolyline
 66
     1
 10
0.0
 20
0.0
 30
0.0
  0
VERTEX
  5
5B
330
5A
100
AcDbEntity
  8
_U+30EC_U+30A4_U+30E4_U+30FC 1
 62
   179
420
  2234388
370
     9
100
AcDbVertex
100
AcDb2dVertex
 10
98.4321969951809
 20
-149.3766272277383
 30
0.0
  0
VERTEX
  5
5C
330
5A
100
AcDbEntity
  8
_U+30EC_U+30A4_U+30E4_U+30FC 1
 62
   179
420
  2234388
370
     9
100
AcDbVertex
100
AcDb2dVertex
 10
93.14053032983716
 20
-154.6979270972169
 30
0.0
  0
SEQEND
  5
5D
330
5A
100
AcDbEntity
  8
_U+30EC_U+30A4_U+30E4_U+30FC 1
 62
   179
420
  2234388
370
     9
  0
POLYLINE
  5
5E
330
1F
100
AcDbEntity
  8
_U+30EC_U+30A4_U+30E4_U+30FC 1
 62
   179
420
  2234388
370
     9
100
AcDb2dPolyline
 66
     1
 10
0.0
 20
0.0
 30
0.0
  0
VERTEX
  5
5F
330
5E
100
AcDbEntity
  8
_U+30EC_U+30A4_U+30E4_U+30FC 1
 62
   179
420
  2234388
370
     9
100
AcDbVertex
100
AcDb2dVertex
 10
100.6516997615531
 20
-151.5960277178383
 30
0.0
  0
VERTEX
  5
60
330
5E
100
AcDbEntity
  8
_U+30EC_U+30A4_U+30E4_U+30FC 1
 62
   179
420
  2234388
370
     9
100
AcDbVertex
100
AcDb2dVertex
 10
95.36003309620936
 20
-156.9173275873169
 30
0.0
  0
SEQEND
  5
61
330
5E
100
AcDbEntity
  8
_U+30EC_U+30A4_U+30E4_U+30FC 1
 62
   179
420
  2234388
370
     9
  0
POLYLINE
  5
62
330
1F
100
AcDbEntity
  8
_U+30EC_U+30A4_U+30E4_U+30FC 1
 62
   179
420
  2234388
370
     9
100
AcDb2dPolyline
 66
     1
 10
0.0
 20
0.0
 30
0.0
  0
VERTEX
  5
63
330
62
100
AcDbEntity
  8
_U+30EC_U+30A4_U+30E4_U+30FC 1
 62
   179
420
  2234388
370
     9
100
AcDbVertex
100
AcDb2dVertex
 10
94.45363923996352
 20
-146.6632807894789
 30
0.0
  0
VERTEX
  5
64
330
62
100
AcDbEntity
  8
_U+30EC_U+30A4_U+30E4_U+30FC 1
 62
   179
420
  2234388
370
     9
100
AcDbVertex
100
AcDb2dVertex
 10
100.319274962035
 20
-146.6632807894789
 30
0.0
  0
SEQEND
  5
65
330
62
100
AcDbEntity
  8
_U+30EC_U+30A4_U+30E4_U+30FC 1
 62
   179
420
  2234388
370
     9
  0
POLYLINE
  5
66
330
1F
100
AcDbEntity
  8
_U+30EC_U+30A4_U+30E4_U+30FC 1
 62
   179
420
  2234388
370
     9
100
AcDb2dPolyline
 66
     1
 10
0.0
 20
0.0
 30
0.0
  0
VERTEX
  5
67
330
66
100
AcDbEntity
  8
_U+30EC_U+30A4_U+30E4_U+30FC 1
 62
   179
420
  2234388
370
     9
100
AcDbVertex
100
AcDb2dVertex
 10
109.4535742168179
 20
-146.7073780116901
 30
0.0
  0
VERTEX
  5
68
330
66
100
AcDbEntity
  8
_U+30EC_U+30A4_U+30E4_U+30FC 1
 62
   179
420
  2234388
370
     9
100
AcDbVertex
100
AcDb2dVertex
 10
103.5099716775459
 20
-146.7073780116901
 30
0.0
  0
SEQEND
  5
69
330
66
100
AcDbEntity
  8
_U+30EC_U+30A4_U+30E4_U+30FC 1
 62
   179
420
  2234388
370
     9
  0
SPLINE
  5
6A
330
1F
100
AcDbEntity
  8
_U+30EC_U+30A4_U+30E4_U+30FC 1
370
     0
100
AcDbSpline
210
0.0
220
0.0
230
1.0
 70
    11
 71
     3
 72
    17
 73
    13
 74
     0
 42
0.0000000001
 43
0.0000000001
 12
1.0
 22
0.0
 32
0.0
 13
1.0
 23
0.0
 33
0.0
 40
0.0
 40
0.0
 40
0.0
 40
0.0
 40
1.0
 40
1.0
 40
1.0
 40
2.0
 40
2.0
 40
2.0
 40
3.0
 40
3.0
 40
3.0
 40
4.0
 40
4.0
 40
4.0
 40
4.0
 10
109.4124053257692
 20
-146.4366473361665
 30
0.0
 10
109.543986441459
 20
-146.4366473361665
 30
0.0
 10
109.6508812948122
 20
-146.5435421895197
 30
0.0
 10
109.6508812948122
 20
-146.6751340711329
 30
0.0
 10
109.6508812948122
 20
-146.8067151868226
 30
0.0
 10
109.543986441459
 20
-146.9128994892321
 30
0.0
 10
109.4124053257692
 20
-146.9128994892321
 30
0.0
 10
109.2808188271177
 20
-146.9128994892321
 30
0.0
 10
109.1746291417466
 20
-146.8067151868226
 30
0.0
 10
109.1746291417466
 20
-146.6751340711329
 30
0.0
 10
109.1746291417466
 20
-146.5435421895197
 30
0.0
 10
109.2808188271177
 20
-146.4366473361665
 30
0.0
 10
109.4124053257692
 20
-146.4366473361665
 30
0.0
  0
HATCH
  5
6B
330
1F
100
AcDbEntity
  8
_U+30EC_U+30A4_U+30E4_U+30FC 1
 62
   179
420
  2234388
100
AcDbHatch
 10
0.0
 20
0.0
 30
0.0
210
0.0
220
0.0
230
1.0
  2
SOLID
 70
     1
 71
     0
 91
        1
 92
        1
 93
        2
 72
     4
 94
        3
 73
     0
 74
     0
 95
       17
 96
       13
 40
0.0
 40
0.0
 40
0.0
 40
0.0
 40
0.3527777776895833
 40
0.3527777776895833
 40
0.3527777776895833
 40
0.7055555553791667
 40
0.7055555553791667
 40
0.7055555553791667
 40
1.05833333306875
 40
1.05833333306875
 40
1.05833333306875
 40
1.411111110758333
 40
1.411111110758333
 40
1.411111110758333
 40
1.411111110758333
 10
109.4124053257692
 20
-146.4366473361665
 10
109.543986441459
 20
-146.4366473361665
 10
109.6508812948122
 20
-146.5435421895197
 10
109.6508812948122
 20
-146.6751340711329
 10
109.6508812948122
 20
-146.8067151868226
 10
109.543986441459
 20
-146.9128994892321
 10
109.4124053257692
 20
-146.9128994892321
 10
109.2808188271177
 20
-146.9128994892321
 10
109.1746291417466
 20
-146.8067151868226
 10
109.1746291417466
 20
-146.6751340711329
 10
109.1746291417466
 20
-146.5435421895197
 10
109.2808188271177
 20
-146.4366473361665
 10
109.4124053257692
 20
-146.4366473361665
 97
        0
 72
     1
 10
109.4124053257692
 20
-146.4366473361665
 11
109.4124053257692
 21
-146.4366473361665
 97
        0
 75
     2
 76
     1
 98
        0
  0
SPLINE
  5
6C
330
1F
100
AcDbEntity
  8
_U+30EC_U+30A4_U+30E4_U+30FC 1
370
     0
100
AcDbSpline
210
0.0
220
0.0
230
1.0
 70
    11
 71
     3
 72
    17
 73
    13
 74
     0
 42
0.0000000001
 43
0.0000000001
 12
1.0
 22
0.0
 32
0.0
 13
1.0
 23
0.0
 33
0.0
 40
0.0
 40
0.0
 40
0.0
 40
0.0
 40
1.0
 40
1.0
 40
1.0
 40
2.0
 40
2.0
 40
2.0
 40
3.0
 40
3.0
 40
3.0
 40
4.0
 40
4.0
 40
4.0
 40
4.0
 10
94.4341313867783
 20
-146.4366473361665
 30
0.0
 10
94.56571250246806
 20
-146.4366473361665
 30
0.0
 10
94.67260735582133
 20
-146.5435421895197
 30
0.0
 10
94.67260735582133
 20
-146.6751340711329
 30
0.0
 10
94.67260735582133
 20
-146.8067151868226
 30
0.0
 10
94.56571250246806
 20
-146.9128994892321
 30
0.0
 10
94.4341313867783
 20
-146.9128994892321
 30
0.0
 10
94.30254488812685
 20
-146.9128994892321
 30
0.0
 10
94.1960053102455
 20
-146.8067151868226
 30
0.0
 10
94.1960053102455
 20
-146.6751340711329
 30
0.0
 10
94.1960053102455
 20
-146.5435421895197
 30
0.0
 10
94.30254488812685
 20
-146.4366473361665
 30
0.0
 10
94.4341313867783
 20
-146.4366473361665
 30
0.0
  0
HATCH
  5
6D
330
1F
100
AcDbEntity
  8
_U+30EC_U+30A4_U+30E4_U+30FC 1
 62
   179
420
  2234388
100
AcDbHatch
 10
0.0
 20
0.0
 30
0.0
210
0.0
220
0.0
230
1.0
  2
SOLID
 70
     1
 71
     0
 91
        1
 92
        1
 93
        2
 72
     4
 94
        3
 73
     0
 74
     0
 95
       17
 96
       13
 40
0.0
 40
0.0
 40
0.0
 40
0.0
 40
0.3527777776895833
 40
0.3527777776895833
 40
0.3527777776895833
 40
0.7055555553791667
 40
0.7055555553791667
 40
0.7055555553791667
 40
1.05833333306875
 40
1.05833333306875
 40
1.05833333306875
 40
1.411111110758333
 40
1.411111110758333
 40
1.411111110758333
 40
1.411111110758333
 10
94.4341313867783
 20
-146.4366473361665
 10
94.56571250246806
 20
-146.4366473361665
 10
94.67260735582133
 20
-146.5435421895197
 10
94.67260735582133
 20
-146.6751340711329
 10
94.67260735582133
 20
-146.8067151868226
 10
94.56571250246806
 20
-146.9128994892321
 10
94.4341313867783
 20
-146.9128994892321
 10
94.30254488812685
 20
-146.9128994892321
 10
94.1960053102455
 20
-146.8067151868226
 10
94.1960053102455
 20
-146.6751340711329
 10
94.1960053102455
 20
-146.5435421895197
 10
94.30254488812685
 20
-146.4366473361665
 10
94.4341313867783
 20
-146.4366473361665
 97
        0
 72
     1
 10
94.4341313867783
 20
-146.4366473361665
 11
94.4341313867783
 21
-146.4366473361665
 97
        0
 75
     2
 76
     1
 98
        0
  0
SPLINE
  5
6E
330
1F
100
AcDbEntity
  8
_U+30EC_U+30A4_U+30E4_U+30FC 1
370
     0
100
AcDbSpline
210
0.0
220
0.0
230
1.0
 70
    11
 71
     3
 72
    17
 73
    13
 74
     0
 42
0.0000000001
 43
0.0000000001
 12
1.0
 22
0.0
 32
0.0
 13
1.0
 23
0.0
 33
0.0
 40
0.0
 40
0.0
 40
0.0
 40
0.0
 40
1.0
 40
1.0
 40
1.0
 40
2.0
 40
2.0
 40
2.0
 40
3.0
 40
3.0
 40
3.0
 40
4.0
 40
4.0
 40
4.0
 40
4.0
 10
97.60913138598455
 20
-149.9296081168145
 30
0.0
 10
97.74071250167431
 20
-149.9296081168145
 30
0.0
 10
97.84760735502758
 20
-150.0365029701678
 30
0.0
 10
97.84760735502758
 20
-150.1680948517809
 30
0.0
 10
97.84760735502758
 20
-150.2996759674706
 30
0.0
 10
97.74071250167431
 20
-150.4058602698801
 30
0.0
 10
97.60913138598455
 20
-150.4058602698801
 30
0.0
 10
97.4775448873331
 20
-150.4058602698801
 30
0.0
 10
97.37100530945175
 20
-150.2996759674706
 30
0.0
 10
97.37100530945175
 20
-150.1680948517809
 30
0.0
 10
97.37100530945175
 20
-150.0365029701678
 30
0.0
 10
97.4775448873331
 20
-149.9296081168145
 30
0.0
 10
97.60913138598455
 20
-149.9296081168145
 30
0.0
  0
HATCH
  5
6F
330
1F
100
AcDbEntity
  8
_U+30EC_U+30A4_U+30E4_U+30FC 1
 62
   179
420
  2234388
100
AcDbHatch
 10
0.0
 20
0.0
 30
0.0
210
0.0
220
0.0
230
1.0
  2
SOLID
 70
     1
 71
     0
 91
        1
 92
        1
 93
        2
 72
     4
 94
        3
 73
     0
 74
     0
 95
       17
 96
       13
 40
0.0
 40
0.0
 40
0.0
 40
0.0
 40
0.3527777776895833
 40
0.3527777776895833
 40
0.3527777776895833
 40
0.7055555553791667
 40
0.7055555553791667
 40
0.7055555553791667
 40
1.05833333306875
 40
1.05833333306875
 40
1.05833333306875
 40
1.411111110758333
 40
1.411111110758333
 40
1.411111110758333
 40
1.411111110758333
 10
97.60913138598455
 20
-149.9296081168145
 10
97.74071250167431
 20
-149.9296081168145
 10
97.84760735502758
 20
-150.0365029701678
 10
97.84760735502758
 20
-150.1680948517809
 10
97.84760735502758
 20
-150.2996759674706
 10
97.74071250167431
 20
-150.4058602698801
 10
97.60913138598455
 20
-150.4058602698801
 10
97.4775448873331
 20
-150.4058602698801
 10
97.37100530945175
 20
-150.2996759674706
 10
97.37100530945175
 20
-150.1680948517809
 10
97.37100530945175
 20
-150.0365029701678
 10
97.4775448873331
 20
-149.9296081168145
 10
97.60913138598455
 20
-149.9296081168145
 97
        0
 72
     1
 10
97.60913138598455
 20
-149.9296081168145
 11
97.60913138598455
 21
-149.9296081168145
 97
        0
 75
     2
 76
     1
 98
        0
  0
SPLINE
  5
70
330
1F
100
AcDbEntity
  8
_U+30EC_U+30A4_U+30E4_U+30FC 1
370
     0
100
AcDbSpline
210
0.0
220
0.0
230
1.0
 70
    11
 71
     3
 72
    17
 73
    13
 74
     0
 42
0.0000000001
 43
0.0000000001
 12
1.0
 22
0.0
 32
0.0
 13
1.0
 23
0.0
 33
0.0
 40
0.0
 40
0.0
 40
0.0
 40
0.0
 40
1.0
 40
1.0
 40
1.0
 40
2.0
 40
2.0
 40
2.0
 40
3.0
 40
3.0
 40
3.0
 40
4.0
 40
4.0
 40
4.0
 40
4.0
 10
99.84330810593924
 20
-152.1344746103361
 30
0.0
 10
99.974889221629
 20
-152.1344746103361
 30
0.0
 10
100.0817840749823
 20
-152.2413694636894
 30
0.0
 10
100.0817840749823
 20
-152.3729559623408
 30
0.0
 10
100.0817840749823
 20
-152.5045424609922
 30
0.0
 10
99.974889221629
 20
-152.6107267634017
 30
0.0
 10
99.84330810593924
 20
-152.6107267634017
 30
0.0
 10
99.71172160728779
 20
-152.6107267634017
 30
0.0
 10
99.60518202940644
 20
-152.5045424609922
 30
0.0
 10
99.60518202940644
 20
-152.3729559623408
 30
0.0
 10
99.60518202940644
 20
-152.2413694636894
 30
0.0
 10
99.71172160728779
 20
-152.1344746103361
 30
0.0
 10
99.84330810593924
 20
-152.1344746103361
 30
0.0
  0
HATCH
  5
71
330
1F
100
AcDbEntity
  8
_U+30EC_U+30A4_U+30E4_U+30FC 1
 62
   179
420
  2234388
100
AcDbHatch
 10
0.0
 20
0.0
 30
0.0
210
0.0
220
0.0
230
1.0
  2
SOLID
 70
     1
 71
     0
 91
        1
 92
        1
 93
        2
 72
     4
 94
        3
 73
     0
 74
     0
 95
       17
 96
       13
 40
0.0
 40
0.0
 40
0.0
 40
0.0
 40
0.3527777776895833
 40
0.3527777776895833
 40
0.3527777776895833
 40
0.7055555553791667
 40
0.7055555553791667
 40
0.7055555553791667
 40
1.05833333306875
 40
1.05833333306875
 40
1.05833333306875
 40
1.411111110758333
 40
1.411111110758333
 40
1.411111110758333
 40
1.411111110758333
 10
99.84330810593924
 20
-152.1344746103361
 10
99.974889221629
 20
-152.1344746103361
 10
100.0817840749823
 20
-152.2413694636894
 10
100.0817840749823
 20
-152.3729559623408
 10
100.0817840749823
 20
-152.5045424609922
 10
99.974889221629
 20
-152.6107267634017
 10
99.84330810593924
 20
-152.6107267634017
 10
99.71172160728779
 20
-152.6107267634017
 10
99.60518202940644
 20
-152.5045424609922
 10
99.60518202940644
 20
-152.3729559623408
 10
99.60518202940644
 20
-152.2413694636894
 10
99.71172160728779
 20
-152.1344746103361
 10
99.84330810593924
 20
-152.1344746103361
 97
        0
 72
     1
 10
99.84330810593924
 20
-152.1344746103361
 11
99.84330810593924
 21
-152.1344746103361
 97
        0
 75
     2
 76
     1
 98
        0
  0
INSERT
  5
73
330
1F
100
AcDbEntity
  8
_U+30EC_U+30A4_U+30E4_U+30FC 1
100
AcDbBlockReference
  2
block 2
 10
0.0
 20
0.0
 30
0.0
  0
INSERT
  5
7B
330
1F
100
AcDbEntity
  8
_U+30EC_U+30A4_U+30E4_U+30FC 1
100
AcDbBlockReference
  2
block 3
 10
0.0
 20
0.0
 30
0.0
  0
INSERT
  5
84
330
1F
100
AcDbEntity
  8
_U+30EC_U+30A4_U+30E4_U+30FC 1
100
AcDbBlockReference
  2
block 4
 10
0.0
 20
0.0
 30
0.0
  0
INSERT
  5
8A
330
1F
100
AcDbEntity
  8
_U+30EC_U+30A4_U+30E4_U+30FC 1
100
AcDbBlockReference
  2
block 5
 10
0.0
 20
0.0
 30
0.0
  0
POLYLINE
  5
8F
330
1F
100
AcDbEntity
  8
_U+30EC_U+30A4_U+30E4_U+30FC 1
 62
   179
420
  2234388
370
     9
100
AcDb2dPolyline
 66
     1
 10
0.0
 20
0.0
 30
0.0
  0
VERTEX
  5
90
330
8F
100
AcDbEntity
  8
_U+30EC_U+30A4_U+30E4_U+30FC 1
 62
   179
420
  2234388
370
     9
100
AcDbVertex
100
AcDb2dVertex
 10
94.4341313867783
 20
-145.1144089230042
 30
0.0
  0
VERTEX
  5
91
330
8F
100
AcDbEntity
  8
_U+30EC_U+30A4_U+30E4_U+30FC 1
 62
   179
420
  2234388
370
     9
100
AcDbVertex
100
AcDb2dVertex
 10
94.4341313867783
 20
-156.8149921025199
 30
0.0
  0
SEQEND
  5
92
330
8F
100
AcDbEntity
  8
_U+30EC_U+30A4_U+30E4_U+30FC 1
 62
   179
420
  2234388
370
     9
  0
POLYLINE
  5
93
330
1F
100
AcDbEntity
  8
_U+30EC_U+30A4_U+30E4_U+30FC 1
 62
   179
420
  2234388
370
     9
100
AcDb2dPolyline
 66
     1
 10
0.0
 20
0.0
 30
0.0
  0
VERTEX
  5
94
330
93
100
AcDbEntity
  8
_U+30EC_U+30A4_U+30E4_U+30FC 1
 62
   179
420
  2234388
370
     9
100
AcDbVertex
100
AcDb2dVertex
 10
109.4340663636327
 20
-145.1144089230042
 30
0.0
  0
VERTEX
  5
95
330
93
100
AcDbEntity
  8
_U+30EC_U+30A4_U+30E4_U+30FC 1
 62
   179
420
  2234388
370
     9
100
AcDbVertex
100
AcDb2dVertex
 10
109.4340663636327
 20
-156.8149921025199
 30
0.0
  0
SEQEND
  5
96
330
93
100
AcDbEntity
  8
_U+30EC_U+30A4_U+30E4_U+30FC 1
 62
   179
420
  2234388
370
     9
  0
POLYLINE
  5
97
330
1F
100
AcDbEntity
  8
_U+30EC_U+30A4_U+30E4_U+30FC 1
 62
   179
420
  2234388
370
     9
100
AcDb2dPolyline
 66
     1
 10
0.0
 20
0.0
 30
0.0
  0
VERTEX
  5
98
330
97
100
AcDbEntity
  8
_U+30EC_U+30A4_U+30E4_U+30FC 1
 62
   179
420
  2234388
370
     9
100
AcDbVertex
100
AcDb2dVertex
 10
110.5001942252368
 20
-158.65190086637
 30
0.0
  0
VERTEX
  5
99
330
97
100
AcDbEntity
  8
_U+30EC_U+30A4_U+30E4_U+30FC 1
 62
   179
420
  2234388
370
     9
100
AcDbVertex
100
AcDb2dVertex
 10
130.0052751851908
 20
-158.65190086637
 30
0.0
  0
SEQEND
  5
9A
330
97
100
AcDbEntity
  8
_U+30EC_U+30A4_U+30E4_U+30FC 1
 62
   179
420
  2234388
370
     9
  0
POLYLINE
  5
9B
330
1F
100
AcDbEntity
  8
_U+30EC_U+30A4_U+30E4_U+30FC 1
 62
   179
420
  2234388
370
     9
100
AcDb2dPolyline
 66
     1
 10
0.0
 20
0.0
 30
0.0
  0
VERTEX
  5
9C
330
9B
100
AcDbEntity
  8
_U+30EC_U+30A4_U+30E4_U+30FC 1
 62
   179
420
  2234388
370
     9
100
AcDbVertex
100
AcDb2dVertex
 10
125.0054296392944
 20
-168.6519849143664
 30
0.0
  0
VERTEX
  5
9D
330
9B
100
AcDbEntity
  8
_U+30EC_U+30A4_U+30E4_U+30FC 1
 62
   179
420
  2234388
370
     9
100
AcDbVertex
100
AcDb2dVertex
 10
130.0053451636928
 20
-168.6519849143664
 30
0.0
  0
SEQEND
  5
9E
330
9B
100
AcDbEntity
  8
_U+30EC_U+30A4_U+30E4_U+30FC 1
 62
   179
420
  2234388
370
     9
  0
POLYLINE
  5
9F
330
1F
100
AcDbEntity
  8
_U+30EC_U+30A4_U+30E4_U+30FC 1
 62
   179
420
  2234388
370
     9
100
AcDb2dPolyline
 66
     1
 10
0.0
 20
0.0
 30
0.0
  0
VERTEX
  5
A0
330
9F
100
AcDbEntity
  8
_U+30EC_U+30A4_U+30E4_U+30FC 1
 62
   179
420
  2234388
370
     9
100
AcDbVertex
100
AcDb2dVertex
 10
125.0054296392944
 20
-169.6521122826195
 30
0.0
  0
VERTEX
  5
A1
330
9F
100
AcDbEntity
  8
_U+30EC_U+30A4_U+30E4_U+30FC 1
 62
   179
420
  2234388
370
     9
100
AcDbVertex
100
AcDb2dVertex
 10
130.0053451636928
 20
-169.6521122826195
 30
0.0
  0
SEQEND
  5
A2
330
9F
100
AcDbEntity
  8
_U+30EC_U+30A4_U+30E4_U+30FC 1
 62
   179
420
  2234388
370
     9
  0
SPLINE
  5
A3
330
1F
100
AcDbEntity
  8
_U+30EC_U+30A4_U+30E4_U+30FC 1
370
     0
100
AcDbSpline
210
0.0
220
0.0
230
1.0
 70
    11
 71
     3
 72
    17
 73
    13
 74
     0
 42
0.0000000001
 43
0.0000000001
 12
1.0
 22
0.0
 32
0.0
 13
1.0
 23
0.0
 33
0.0
 40
0.0
 40
0.0
 40
0.0
 40
0.0
 40
1.0
 40
1.0
 40
1.0
 40
2.0
 40
2.0
 40
2.0
 40
3.0
 40
3.0
 40
3.0
 40
4.0
 40
4.0
 40
4.0
 40
4.0
 10
128.3468008356298
 20
-158.4135271735992
 30
0.0
 10
128.4783819513195
 20
-158.4135271735992
 30
0.0
 10
128.5852768046728
 20
-158.5204220269525
 30
0.0
 10
128.5852768046728
 20
-158.6520085256039
 30
0.0
 10
128.5852768046728
 20
-158.7835950242554
 30
0.0
 10
128.4783819513195
 20
-158.8897793266648
 30
0.0
 10
128.3468008356298
 20
-158.8897793266648
 30
0.0
 10
128.2152143369783
 20
-158.8897793266648
 30
0.0
 10
128.1090246516072
 20
-158.7835950242554
 30
0.0
 10
128.1090246516072
 20
-158.6520085256039
 30
0.0
 10
128.1090246516072
 20
-158.5204220269525
 30
0.0
 10
128.2152143369783
 20
-158.4135271735992
 30
0.0
 10
128.3468008356298
 20
-158.4135271735992
 30
0.0
  0
HATCH
  5
A4
330
1F
100
AcDbEntity
  8
_U+30EC_U+30A4_U+30E4_U+30FC 1
 62
   179
420
  2234388
100
AcDbHatch
 10
0.0
 20
0.0
 30
0.0
210
0.0
220
0.0
230
1.0
  2
SOLID
 70
     1
 71
     0
 91
        1
 92
        1
 93
        2
 72
     4
 94
        3
 73
     0
 74
     0
 95
       17
 96
       13
 40
0.0
 40
0.0
 40
0.0
 40
0.0
 40
0.3527777776895833
 40
0.3527777776895833
 40
0.3527777776895833
 40
0.7055555553791667
 40
0.7055555553791667
 40
0.7055555553791667
 40
1.05833333306875
 40
1.05833333306875
 40
1.05833333306875
 40
1.411111110758333
 40
1.411111110758333
 40
1.411111110758333
 40
1.411111110758333
 10
128.3468008356298
 20
-158.4135271735992
 10
128.4783819513195
 20
-158.4135271735992
 10
128.5852768046728
 20
-158.5204220269525
 10
128.5852768046728
 20
-158.6520085256039
 10
128.5852768046728
 20
-158.7835950242554
 10
128.4783819513195
 20
-158.8897793266648
 10
128.3468008356298
 20
-158.8897793266648
 10
128.2152143369783
 20
-158.8897793266648
 10
128.1090246516072
 20
-158.7835950242554
 10
128.1090246516072
 20
-158.6520085256039
 10
128.1090246516072
 20
-158.5204220269525
 10
128.2152143369783
 20
-158.4135271735992
 10
128.3468008356298
 20
-158.4135271735992
 97
        0
 72
     1
 10
128.3468008356298
 20
-158.4135271735992
 11
128.3468008356298
 21
-158.4135271735992
 97
        0
 75
     2
 76
     1
 98
        0
  0
SPLINE
  5
A5
330
1F
100
AcDbEntity
  8
_U+30EC_U+30A4_U+30E4_U+30FC 1
370
     0
100
AcDbSpline
210
0.0
220
0.0
230
1.0
 70
    11
 71
     3
 72
    17
 73
    13
 74
     0
 42
0.0000000001
 43
0.0000000001
 12
1.0
 22
0.0
 32
0.0
 13
1.0
 23
0.0
 33
0.0
 40
0.0
 40
0.0
 40
0.0
 40
0.0
 40
1.0
 40
1.0
 40
1.0
 40
2.0
 40
2.0
 40
2.0
 40
3.0
 40
3.0
 40
3.0
 40
4.0
 40
4.0
 40
4.0
 40
4.0
 10
128.3468008356298
 20
-168.3843009951625
 30
0.0
 10
128.4783819513195
 20
-168.3843009951625
 30
0.0
 10
128.5852768046728
 20
-168.4911958485158
 30
0.0
 10
128.5852768046728
 20
-168.6227823471672
 30
0.0
 10
128.5852768046728
 20
-168.7543688458187
 30
0.0
 10
128.4783819513195
 20
-168.8605531482281
 30
0.0
 10
128.3468008356298
 20
-168.8605531482281
 30
0.0
 10
128.2152143369783
 20
-168.8605531482281
 30
0.0
 10
128.1090246516072
 20
-168.7543688458187
 30
0.0
 10
128.1090246516072
 20
-168.6227823471672
 30
0.0
 10
128.1090246516072
 20
-168.4911958485158
 30
0.0
 10
128.2152143369783
 20
-168.3843009951625
 30
0.0
 10
128.3468008356298
 20
-168.3843009951625
 30
0.0
  0
HATCH
  5
A6
330
1F
100
AcDbEntity
  8
_U+30EC_U+30A4_U+30E4_U+30FC 1
 62
   179
420
  2234388
100
AcDbHatch
 10
0.0
 20
0.0
 30
0.0
210
0.0
220
0.0
230
1.0
  2
SOLID
 70
     1
 71
     0
 91
        1
 92
        1
 93
        2
 72
     4
 94
        3
 73
     0
 74
     0
 95
       17
 96
       13
 40
0.0
 40
0.0
 40
0.0
 40
0.0
 40
0.3527777776895833
 40
0.3527777776895833
 40
0.3527777776895833
 40
0.7055555553791667
 40
0.7055555553791667
 40
0.7055555553791667
 40
1.05833333306875
 40
1.05833333306875
 40
1.05833333306875
 40
1.411111110758333
 40
1.411111110758333
 40
1.411111110758333
 40
1.411111110758333
 10
128.3468008356298
 20
-168.3843009951625
 10
128.4783819513195
 20
-168.3843009951625
 10
128.5852768046728
 20
-168.4911958485158
 10
128.5852768046728
 20
-168.6227823471672
 10
128.5852768046728
 20
-168.7543688458187
 10
128.4783819513195
 20
-168.8605531482281
 10
128.3468008356298
 20
-168.8605531482281
 10
128.2152143369783
 20
-168.8605531482281
 10
128.1090246516072
 20
-168.7543688458187
 10
128.1090246516072
 20
-168.6227823471672
 10
128.1090246516072
 20
-168.4911958485158
 10
128.2152143369783
 20
-168.3843009951625
 10
128.3468008356298
 20
-168.3843009951625
 97
        0
 72
     1
 10
128.3468008356298
 20
-168.3843009951625
 11
128.3468008356298
 21
-168.3843009951625
 97
        0
 75
     2
 76
     1
 98
        0
  0
SPLINE
  5
A7
330
1F
100
AcDbEntity
  8
_U+30EC_U+30A4_U+30E4_U+30FC 1
370
     0
100
AcDbSpline
210
0.0
220
0.0
230
1.0
 70
    11
 71
     3
 72
    17
 73
    13
 74
     0
 42
0.0000000001
 43
0.0000000001
 12
1.0
 22
0.0
 32
0.0
 13
1.0
 23
0.0
 33
0.0
 40
0.0
 40
0.0
 40
0.0
 40
0.0
 40
1.0
 40
1.0
 40
1.0
 40
2.0
 40
2.0
 40
2.0
 40
3.0
 40
3.0
 40
3.0
 40
4.0
 40
4.0
 40
4.0
 40
4.0
 10
128.3468008356298
 20
-169.3764884949145
 30
0.0
 10
128.4783819513195
 20
-169.3764884949145
 30
0.0
 10
128.5852768046728
 20
-169.4833833482677
 30
0.0
 10
128.5852768046728
 20
-169.6149698469192
 30
0.0
 10
128.5852768046728
 20
-169.7465563455706
 30
0.0
 10
128.4783819513195
 20
-169.8527406479801
 30
0.0
 10
128.3468008356298
 20
-169.8527406479801
 30
0.0
 10
128.2152143369783
 20
-169.8527406479801
 30
0.0
 10
128.1090246516072
 20
-169.7465563455706
 30
0.0
 10
128.1090246516072
 20
-169.6149698469192
 30
0.0
 10
128.1090246516072
 20
-169.4833833482677
 30
0.0
 10
128.2152143369783
 20
-169.3764884949145
 30
0.0
 10
128.3468008356298
 20
-169.3764884949145
 30
0.0
  0
HATCH
  5
A8
330
1F
100
AcDbEntity
  8
_U+30EC_U+30A4_U+30E4_U+30FC 1
 62
   179
420
  2234388
100
AcDbHatch
 10
0.0
 20
0.0
 30
0.0
210
0.0
220
0.0
230
1.0
  2
SOLID
 70
     1
 71
     0
 91
        1
 92
        1
 93
        2
 72
     4
 94
        3
 73
     0
 74
     0
 95
       17
 96
       13
 40
0.0
 40
0.0
 40
0.0
 40
0.0
 40
0.3527777776895833
 40
0.3527777776895833
 40
0.3527777776895833
 40
0.7055555553791667
 40
0.7055555553791667
 40
0.7055555553791667
 40
1.05833333306875
 40
1.05833333306875
 40
1.05833333306875
 40
1.411111110758333
 40
1.411111110758333
 40
1.411111110758333
 40
1.411111110758333
 10
128.3468008356298
 20
-169.3764884949145
 10
128.4783819513195
 20
-169.3764884949145
 10
128.5852768046728
 20
-169.4833833482677
 10
128.5852768046728
 20
-169.6149698469192
 10
128.5852768046728
 20
-169.7465563455706
 10
128.4783819513195
 20
-169.8527406479801
 10
128.3468008356298
 20
-169.8527406479801
 10
128.2152143369783
 20
-169.8527406479801
 10
128.1090246516072
 20
-169.7465563455706
 10
128.1090246516072
 20
-169.6149698469192
 10
128.1090246516072
 20
-169.4833833482677
 10
128.2152143369783
 20
-169.3764884949145
 10
128.3468008356298
 20
-169.3764884949145
 97
        0
 72
     1
 10
128.3468008356298
 20
-169.3764884949145
 11
128.3468008356298
 21
-169.3764884949145
 97
        0
 75
     2
 76
     1
 98
        0
  0
POLYLINE
  5
A9
330
1F
100
AcDbEntity
  8
_U+30EC_U+30A4_U+30E4_U+30FC 1
 62
   179
420
  2234388
370
     9
100
AcDb2dPolyline
 66
     1
 10
0.0
 20
0.0
 30
0.0
  0
VERTEX
  5
AA
330
A9
100
AcDbEntity
  8
_U+30EC_U+30A4_U+30E4_U+30FC 1
 62
   179
420
  2234388
370
     9
100
AcDbVertex
100
AcDb2dVertex
 10
128.3468008356298
 20
-158.6471046474991
 30
0.0
  0
VERTEX
  5
AB
330
A9
100
AcDbEntity
  8
_U+30EC_U+30A4_U+30E4_U+30FC 1
 62
   179
420
  2234388
370
     9
100
AcDbVertex
100
AcDb2dVertex
 10
128.3468008356298
 20
-162.2239212054428
 30
0.0
  0
SEQEND
  5
AC
330
A9
100
AcDbEntity
  8
_U+30EC_U+30A4_U+30E4_U+30FC 1
 62
   179
420
  2234388
370
     9
  0
POLYLINE
  5
AD
330
1F
100
AcDbEntity
  8
_U+30EC_U+30A4_U+30E4_U+30FC 1
 62
   179
420
  2234388
370
     9
100
AcDb2dPolyline
 66
     1
 10
0.0
 20
0.0
 30
0.0
  0
VERTEX
  5
AE
330
AD
100
AcDbEntity
  8
_U+30EC_U+30A4_U+30E4_U+30FC 1
 62
   179
420
  2234388
370
     9
100
AcDbVertex
100
AcDb2dVertex
 10
128.3468008356298
 20
-165.2885328091553
 30
0.0
  0
VERTEX
  5
AF
330
AD
100
AcDbEntity
  8
_U+30EC_U+30A4_U+30E4_U+30FC 1
 62
   179
420
  2234388
370
     9
100
AcDbVertex
100
AcDb2dVertex
 10
128.3468008356298
 20
-168.6473340354613
 30
0.0
  0
SEQEND
  5
B0
330
AD
100
AcDbEntity
  8
_U+30EC_U+30A4_U+30E4_U+30FC 1
 62
   179
420
  2234388
370
     9
  0
POLYLINE
  5
B1
330
1F
100
AcDbEntity
  8
_U+30EC_U+30A4_U+30E4_U+30FC 1
 62
   179
420
  2234388
370
     9
100
AcDb2dPolyline
 66
     1
 10
0.0
 20
0.0
 30
0.0
  0
VERTEX
  5
B2
330
B1
100
AcDbEntity
  8
_U+30EC_U+30A4_U+30E4_U+30FC 1
 62
   179
420
  2234388
370
     9
100
AcDbVertex
100
AcDb2dVertex
 10
128.3468008356298
 20
-168.6399216972063
 30
0.0
  0
VERTEX
  5
B3
330
B1
100
AcDbEntity
  8
_U+30EC_U+30A4_U+30E4_U+30FC 1
 62
   179
420
  2234388
370
     9
100
AcDbVertex
100
AcDb2dVertex
 10
128.3468008356298
 20
-169.6400490654595
 30
0.0
  0
SEQEND
  5
B4
330
B1
100
AcDbEntity
  8
_U+30EC_U+30A4_U+30E4_U+30FC 1
 62
   179
420
  2234388
370
     9
  0
ENDSEC
  0
SECTION
  2
OBJECTS
  0
DICTIONARY
  5
C
330
0
100
AcDbDictionary
281
     1
  3
ACAD_GROUP
350
D
  3
ACAD_LAYOUT
350
1A
  3
ACAD_MATERIAL
350
3B
  3
ACAD_MLEADERSTYLE
350
B6
  3
ACAD_MLINESTYLE
350
17
  3
ACAD_PLOTSETTINGS
350
19
  3
ACAD_PLOTSTYLENAME
350
E
  3
ACAD_TABLESTYLE
350
B5
  3
ACAD_VISUALSTYLE
350
2A
  0
SUN
  5
3F
330
29
100
AcDbSun
 90
        1
290
     0
 63
     7
421
 16777215
 40
1.0
291
     1
 91
  2455826
 92
 54000000
292
     0
 70
     2
 71
   256
280
     1
  0
DICTIONARY
  5
D
102
{ACAD_REACTORS
330
C
102
}
330
C
100
AcDbDictionary
281
     1
  0
DICTIONARY
  5
1A
102
{ACAD_REACTORS
330
C
102
}
330
C
100
AcDbDictionary
281
     1
  3
Layout1
350
1E
  3
Layout2
350
26
  3
Model
350
22
  0
DICTIONARY
  5
3B
102
{ACAD_REACTORS
330
C
102
}
330
C
100
AcDbDictionary
281
     1
  3
ByBlock
350
3D
  3
ByLayer
350
3C
  3
Global
350
3E
  0
DICTIONARY
  5
B6
102
{ACAD_REACTORS
330
C
102
}
330
C
100
AcDbDictionary
281
     1
  0
DICTIONARY
  5
17
102
{ACAD_REACTORS
330
C
102
}
330
C
100
AcDbDictionary
281
     1
  3
Standard
350
18
  0
DICTIONARY
  5
19
102
{ACAD_REACTORS
330
C
102
}
330
C
100
AcDbDictionary
281
     1
  0
ACDBDICTIONARYWDFLT
  5
E
102
{ACAD_REACTORS
330
C
102
}
330
C
100
AcDbDictionary
281
     1
  3
Normal
350
F
100
AcDbDictionaryWithDefault
340
F
  0
DICTIONARY
  5
B5
102
{ACAD_REACTORS
330
C
102
}
330
C
100
AcDbDictionary
281
     1
  0
DICTIONARY
  5
2A
102
{ACAD_REACTORS
330
C
102
}
330
C
100
AcDbDictionary
281
     1
  3
2dWireframe
350
2F
  3
3D Hidden
350
31
  3
3dWireframe
350
30
  3
Basic
350
32
  3
Brighten
350
36
  3
ColorChange
350
3A
  3
Conceptual
350
34
  3
Dim
350
35
  3
Facepattern
350
39
  3
Flat
350
2B
  3
FlatWithEdges
350
2C
  3
Gouraud
350
2D
  3
GouraudWithEdges
350
2E
  3
Linepattern
350
38
  3
Realistic
350
33
  3
Thicken
350
37
  0
LAYOUT
  5
1E
102
{ACAD_REACTORS
330
1A
102
}
330
1A
100
AcDbPlotSettings
  1

  2
none_device
  4

  6

 40
0.0
 41
0.0
 42
0.0
 43
0.0
 44
0.0
 45
0.0
 46
0.0
 47
0.0
 48
0.0
 49
0.0
140
0.0
141
0.0
142
1.0
143
1.0
 70
   688
 72
     0
 73
     0
 74
     5
  7

 75
    16
 76
     0
 77
     2
 78
   300
147
1.0
148
0.0
149
0.0
100
AcDbLayout
  1
Layout1
 70
     1
 71
     1
 10
0.0
 20
0.0
 11
12.0
 21
9.0
 12
0.0
 22
0.0
 32
0.0
 14
1.000000000000000E+20
 24
1.000000000000000E+20
 34
1.000000000000000E+20
 15
-1.000000000000000E+20
 25
-1.000000000000000E+20
 35
-1.000000000000000E+20
146
0.0
 13
0.0
 23
0.0
 33
0.0
 16
1.0
 26
0.0
 36
0.0
 17
0.0
 27
1.0
 37
0.0
 76
     0
330
1B
  0
LAYOUT
  5
26
102
{ACAD_REACTORS
330
1A
102
}
330
1A
100
AcDbPlotSettings
  1

  2
none_device
  4

  6

 40
0.0
 41
0.0
 42
0.0
 43
0.0
 44
0.0
 45
0.0
 46
0.0
 47
0.0
 48
0.0
 49
0.0
140
0.0
141
0.0
142
1.0
143
1.0
 70
   688
 72
     0
 73
     0
 74
     5
  7

 75
    16
 76
     0
 77
     2
 78
   300
147
1.0
148
0.0
149
0.0
100
AcDbLayout
  1
Layout2
 70
     1
 71
     2
 10
0.0
 20
0.0
 11
0.0
 21
0.0
 12
0.0
 22
0.0
 32
0.0
 14
0.0
 24
0.0
 34
0.0
 15
0.0
 25
0.0
 35
0.0
146
0.0
 13
0.0
 23
0.0
 33
0.0
 16
1.0
 26
0.0
 36
0.0
 17
0.0
 27
1.0
 37
0.0
 76
     0
330
23
  0
LAYOUT
  5
22
102
{ACAD_REACTORS
330
1A
102
}
330
1A
100
AcDbPlotSettings
  1

  2
none_device
  4

  6

 40
0.0
 41
0.0
 42
0.0
 43
0.0
 44
0.0
 45
0.0
 46
0.0
 47
0.0
 48
0.0
 49
0.0
140
0.0
141
0.0
142
1.0
143
1.0
 70
  1712
 72
     0
 73
     0
 74
     0
  7

 75
     0
 76
     0
 77
     2
 78
   300
147
1.0
148
0.0
149
0.0
100
AcDbLayout
  1
Model
 70
     1
 71
     0
 10
0.0
 20
0.0
 11
12.0
 21
9.0
 12
0.0
 22
0.0
 32
0.0
 14
1.000000000000000E+20
 24
1.000000000000000E+20
 34
1.000000000000000E+20
 15
-1.000000000000000E+20
 25
-1.000000000000000E+20
 35
-1.000000000000000E+20
146
0.0
 13
0.0
 23
0.0
 33
0.0
 16
1.0
 26
0.0
 36
0.0
 17
0.0
 27
1.0
 37
0.0
 76
     0
330
1F
331
29
  0
MATERIAL
  5
3D
102
{ACAD_REACTORS
330
3B
102
}
330
3B
100
AcDbMaterial
  1
ByBlock
 72
     1
 94
      127
  0
MATERIAL
  5
3C
102
{ACAD_REACTORS
330
3B
102
}
330
3B
100
AcDbMaterial
  1
ByLayer
 72
     1
 94
      127
  0
MATERIAL
  5
3E
102
{ACAD_REACTORS
330
3B
102
}
330
3B
100
AcDbMaterial
  1
Global
 72
     1
 94
      127
  0
MLINESTYLE
  5
18
102
{ACAD_REACTORS
330
17
102
}
330
17
100
AcDbMlineStyle
  2
Standard
 70
     0
  3

 62
   256
 51
90.0
 52
90.0
 71
     2
 49
0.5
 62
   256
  6
BYLAYER
 49
-0.5
 62
   256
  6
BYLAYER
  0
ACDBPLACEHOLDER
  5
F
102
{ACAD_REACTORS
330
E
102
}
330
E
  0
VISUALSTYLE
  5
2F
102
{ACAD_REACTORS
330
2A
102
}
330
2A
100
AcDbVisualStyle
  2
2dWireframe
 70
     4
177
     2
291
     0
 71
     0
176
     1
 72
     2
176
     1
 73
     0
176
     1
 90
        0
176
     1
 40
-0.6
176
     1
 41
-30.0
176
     1
 62
     5
 63
     7
421
 16777215
176
     1
 74
     1
176
     1
 91
        4
176
     1
 64
     7
176
     1
 65
   257
176
     1
 75
     1
176
     1
175
     1
176
     1
 42
1.0
176
     1
 92
        0
176
     1
 66
   257
176
     1
 43
1.0
176
     1
 76
     1
176
     1
 77
     6
176
     1
 78
     2
176
     1
 67
     7
176
     1
 79
     5
176
     1
170
     0
176
     1
171
     0
176
     1
290
     0
176
     1
 93
        1
176
     1
 44
0.0
176
     1
173
     0
176
     1
  0
VISUALSTYLE
  5
31
102
{ACAD_REACTORS
330
2A
102
}
330
2A
100
AcDbVisualStyle
  2
3D Hidden
 70
     6
177
     2
291
     0
 71
     1
176
     1
 72
     2
176
     1
 73
     2
176
     1
 90
        0
176
     1
 40
-0.6
176
     1
 41
-30.0
176
     1
 62
     5
 63
     7
421
 16777215
176
     1
 74
     2
176
     1
 91
        2
176
     1
 64
     7
176
     1
 65
   257
176
     1
 75
     2
176
     1
175
     1
176
     1
 42
40.0
176
     1
 92
        0
176
     1
 66
   257
176
     1
 43
1.0
176
     1
 76
     1
176
     1
 77
     6
176
     1
 78
     2
176
     1
 67
     7
176
     1
 79
     3
176
     1
170
     0
176
     1
171
     0
176
     1
290
     0
176
     1
 93
        1
176
     1
 44
0.0
176
     1
173
     0
176
     1
  0
VISUALSTYLE
  5
30
102
{ACAD_REACTORS
330
2A
102
}
330
2A
100
AcDbVisualStyle
  2
3dWireframe
 70
     5
177
     2
291
     0
 71
     0
176
     1
 72
     2
176
     1
 73
     0
176
     1
 90
        0
176
     1
 40
-0.6
176
     1
 41
-30.0
176
     1
 62
     5
 63
     7
421
 16777215
176
     1
 74
     1
176
     1
 91
        4
176
     1
 64
     7
176
     1
 65
   257
176
     1
 75
     1
176
     1
175
     1
176
     1
 42
1.0
176
     1
 92
        0
176
     1
 66
   257
176
     1
 43
1.0
176
     1
 76
     1
176
     1
 77
     6
176
     1
 78
     2
176
     1
 67
     7
176
     1
 79
     5
176
     1
170
     0
176
     1
171
     0
176
     1
290
     0
176
     1
 93
        1
176
     1
 44
0.0
176
     1
173
     0
176
     1
  0
VISUALSTYLE
  5
32
102
{ACAD_REACTORS
330
2A
102
}
330
2A
100
AcDbVisualStyle
  2
Basic
 70
     7
177
     2
291
     1
 71
     1
176
     1
 72
     0
176
     1
 73
     1
176
     1
 90
        0
176
     1
 40
-0.6
176
     1
 41
-30.0
176
     1
 62
     5
 63
     7
421
 16777215
176
     1
 74
     0
176
     1
 91
        4
176
     1
 64
     7
176
     1
 65
   257
176
     1
 75
     1
176
     1
175
     1
176
     1
 42
1.0
176
     1
 92
        8
176
     1
 66
     7
176
     1
 43
1.0
176
     1
 76
     1
176
     1
 77
     6
176
     1
 78
     2
176
     1
 67
     7
176
     1
 79
     5
176
     1
170
     0
176
     1
171
     0
176
     1
290
     0
176
     1
 93
        1
176
     1
 44
0.0
176
     1
173
     0
176
     1
  0
VISUALSTYLE
  5
36
102
{ACAD_REACTORS
330
2A
102
}
330
2A
100
AcDbVisualStyle
  2
Brighten
 70
    12
177
     2
291
     1
 71
     2
176
     1
 72
     2
176
     1
 73
     0
176
     1
 90
        0
176
     1
 40
-0.6
176
     1
 41
-30.0
176
     1
 62
     5
 63
     7
421
 16777215
176
     1
 74
     1
176
     1
 91
        4
176
     1
 64
     7
176
     1
 65
   257
176
     1
 75
     1
176
     1
175
     1
176
     1
 42
1.0
176
     1
 92
        8
176
     1
 66
     7
176
     1
 43
1.0
176
     1
 76
     1
176
     1
 77
     6
176
     1
 78
     2
176
     1
 67
     7
176
     1
 79
     5
176
     1
170
     0
176
     1
171
     0
176
     1
290
     0
176
     1
 93
        1
176
     1
 44
50.0
176
     1
173
     0
176
     1
  0
VISUALSTYLE
  5
3A
102
{ACAD_REACTORS
330
2A
102
}
330
2A
100
AcDbVisualStyle
  2
ColorChange
 70
    16
177
     2
291
     1
 71
     2
176
     1
 72
     2
176
     1
 73
     3
176
     1
 90
        0
176
     1
 40
-0.6
176
     1
 41
-30.0
176
     1
 62
     5
 63
     8
421
  8421504
176
     1
 74
     1
176
     1
 91
        4
176
     1
 64
     7
176
     1
 65
   257
176
     1
 75
     1
176
     1
175
     1
176
     1
 42
1.0
176
     1
 92
        8
176
     1
 66
     8
424
  8421504
176
     1
 43
1.0
176
     1
 76
     1
176
     1
 77
     6
176
     1
 78
     2
176
     1
 67
     7
176
     1
 79
     5
176
     1
170
     0
176
     1
171
     0
176
     1
290
     0
176
     1
 93
        1
176
     1
 44
0.0
176
     1
173
     0
176
     1
  0
VISUALSTYLE
  5
34
102
{ACAD_REACTORS
330
2A
102
}
330
2A
100
AcDbVisualStyle
  2
Conceptual
 70
     9
177
     2
291
     0
 71
     3
176
     1
 72
     2
176
     1
 73
     0
176
     1
 90
        0
176
     1
 40
-0.6
176
     1
 41
-30.0
176
     1
 62
     5
 63
     7
421
 16777215
176
     1
 74
     2
176
     1
 91
        2
176
     1
 64
     7
176
     1
 65
   257
176
     1
 75
     1
176
     1
175
     1
176
     1
 42
40.0
176
     1
 92
        8
176
     1
 66
     7
176
     1
 43
1.0
176
     1
 76
     1
176
     1
 77
     6
176
     1
 78
     2
176
     1
 67
     7
176
     1
 79
     3
176
     1
170
     0
176
     1
171
     0
176
     1
290
     0
176
     1
 93
        1
176
     1
 44
0.0
176
     1
173
     0
176
     1
  0
VISUALSTYLE
  5
35
102
{ACAD_REACTORS
330
2A
102
}
330
2A
100
AcDbVisualStyle
  2
Dim
 70
    11
177
     2
291
     1
 71
     2
176
     1
 72
     2
176
     1
 73
     0
176
     1
 90
        0
176
     1
 40
-0.6
176
     1
 41
-30.0
176
     1
 62
     5
 63
     7
421
 16777215
176
     1
 74
     1
176
     1
 91
        4
176
     1
 64
     7
176
     1
 65
   257
176
     1
 75
     1
176
     1
175
     1
176
     1
 42
1.0
176
     1
 92
        8
176
     1
 66
     7
176
     1
 43
1.0
176
     1
 76
     1
176
     1
 77
     6
176
     1
 78
     2
176
     1
 67
     7
176
     1
 79
     5
176
     1
170
     0
176
     1
171
     0
176
     1
290
     0
176
     1
 93
        1
176
     1
 44
-50.0
176
     1
173
     0
176
     1
  0
VISUALSTYLE
  5
39
102
{ACAD_REACTORS
330
2A
102
}
330
2A
100
AcDbVisualStyle
  2
Facepattern
 70
    15
177
     2
291
     1
 71
     2
176
     1
 72
     2
176
     1
 73
     0
176
     1
 90
        0
176
     1
 40
-0.6
176
     1
 41
-30.0
176
     1
 62
     5
 63
     7
421
 16777215
176
     1
 74
     1
176
     1
 91
        4
176
     1
 64
     7
176
     1
 65
   257
176
     1
 75
     1
176
     1
175
     1
176
     1
 42
1.0
176
     1
 92
        8
176
     1
 66
     7
176
     1
 43
1.0
176
     1
 76
     1
176
     1
 77
     6
176
     1
 78
     2
176
     1
 67
     7
176
     1
 79
     5
176
     1
170
     0
176
     1
171
     0
176
     1
290
     0
176
     1
 93
        1
176
     1
 44
0.0
176
     1
173
     0
176
     1
  0
VISUALSTYLE
  5
2B
102
{ACAD_REACTORS
330
2A
102
}
330
2A
100
AcDbVisualStyle
  2
Flat
 70
     0
177
     2
291
     1
 71
     2
176
     1
 72
     1
176
     1
 73
     1
176
     1
 90
        2
176
     1
 40
-0.6
176
     1
 41
30.0
176
     1
 62
     5
 63
     7
421
 16777215
176
     1
 74
     0
176
     1
 91
        4
176
     1
 64
     7
176
     1
 65
   257
176
     1
 75
     1
176
     1
175
     1
176
     1
 42
1.0
176
     1
 92
        8
176
     1
 66
     7
176
     1
 43
1.0
176
     1
 76
     1
176
     1
 77
     6
176
     1
 78
     2
176
     1
 67
     7
176
     1
 79
     5
176
     1
170
     0
176
     1
171
     0
176
     1
290
     0
176
     1
 93
       13
176
     1
 44
0.0
176
     1
173
     0
176
     1
  0
VISUALSTYLE
  5
2C
102
{ACAD_REACTORS
330
2A
102
}
330
2A
100
AcDbVisualStyle
  2
FlatWithEdges
 70
     1
177
     2
291
     1
 71
     2
176
     1
 72
     1
176
     1
 73
     1
176
     1
 90
        2
176
     1
 40
-0.6
176
     1
 41
30.0
176
     1
 62
     5
 63
     7
421
 16777215
176
     1
 74
     1
176
     1
 91
        4
176
     1
 64
     7
176
     1
 65
   257
176
     1
 75
     1
176
     1
175
     1
176
     1
 42
1.0
176
     1
 92
        0
176
     1
 66
   257
176
     1
 43
1.0
176
     1
 76
     1
176
     1
 77
     6
176
     1
 78
     2
176
     1
 67
     7
176
     1
 79
     5
176
     1
170
     0
176
     1
171
     0
176
     1
290
     0
176
     1
 93
       13
176
     1
 44
0.0
176
     1
173
     0
176
     1
  0
VISUALSTYLE
  5
2D
102
{ACAD_REACTORS
330
2A
102
}
330
2A
100
AcDbVisualStyle
  2
Gouraud
 70
     2
177
     2
291
     1
 71
     2
176
     1
 72
     2
176
     1
 73
     1
176
     1
 90
        2
176
     1
 40
-0.6
176
     1
 41
30.0
176
     1
 62
     5
 63
     7
421
 16777215
176
     1
 74
     0
176
     1
 91
        4
176
     1
 64
     7
176
     1
 65
   257
176
     1
 75
     1
176
     1
175
     1
176
     1
 42
1.0
176
     1
 92
        0
176
     1
 66
     7
176
     1
 43
1.0
176
     1
 76
     1
176
     1
 77
     6
176
     1
 78
     2
176
     1
 67
     7
176
     1
 79
     5
176
     1
170
     0
176
     1
171
     0
176
     1
290
     0
176
     1
 93
       13
176
     1
 44
0.0
176
     1
173
     0
176
     1
  0
VISUALSTYLE
  5
2E
102
{ACAD_REACTORS
330
2A
102
}
330
2A
100
AcDbVisualStyle
  2
GouraudWithEdges
 70
     3
177
     2
291
     1
 71
     2
176
     1
 72
     2
176
     1
 73
     1
176
     1
 90
        2
176
     1
 40
-0.6
176
     1
 41
30.0
176
     1
 62
     5
 63
     7
421
 16777215
176
     1
 74
     1
176
     1
 91
        4
176
     1
 64
     7
176
     1
 65
   257
176
     1
 75
     1
176
     1
175
     1
176
     1
 42
1.0
176
     1
 92
        0
176
     1
 66
   257
176
     1
 43
1.0
176
     1
 76
     1
176
     1
 77
     6
176
     1
 78
     2
176
     1
 67
     7
176
     1
 79
     5
176
     1
170
     0
176
     1
171
     0
176
     1
290
     0
176
     1
 93
       13
176
     1
 44
0.0
176
     1
173
     0
176
     1
  0
VISUALSTYLE
  5
38
102
{ACAD_REACTORS
330
2A
102
}
330
2A
100
AcDbVisualStyle
  2
Linepattern
 70
    14
177
     2
291
     1
 71
     2
176
     1
 72
     2
176
     1
 73
     0
176
     1
 90
        0
176
     1
 40
-0.6
176
     1
 41
-30.0
176
     1
 62
     5
 63
     7
421
 16777215
176
     1
 74
     1
176
     1
 91
        4
176
     1
 64
     7
176
     1
 65
   257
176
     1
 75
     7
176
     1
175
     7
176
     1
 42
1.0
176
     1
 92
        8
176
     1
 66
     7
176
     1
 43
1.0
176
     1
 76
     1
176
     1
 77
     6
176
     1
 78
     2
176
     1
 67
     7
176
     1
 79
     5
176
     1
170
     0
176
     1
171
     0
176
     1
290
     0
176
     1
 93
        1
176
     1
 44
0.0
176
     1
173
     0
176
     1
  0
VISUALSTYLE
  5
33
102
{ACAD_REACTORS
330
2A
102
}
330
2A
100
AcDbVisualStyle
  2
Realistic
 70
     8
177
     2
291
     0
 71
     2
176
     1
 72
     2
176
     1
 73
     0
176
     1
 90
        0
176
     1
 40
-0.6
176
     1
 41
-30.0
176
     1
 62
     5
 63
     7
421
 16777215
176
     1
 74
     1
176
     1
 91
        0
176
     1
 64
     7
176
     1
 65
   257
176
     1
 75
     1
176
     1
175
     1
176
     1
 42
1.0
176
     1
 92
        8
176
     1
 66
     8
424
  7895160
176
     1
 43
1.0
176
     1
 76
     1
176
     1
 77
     6
176
     1
 78
     2
176
     1
 67
     7
176
     1
 79
     5
176
     1
170
     0
176
     1
171
     0
176
     1
290
     0
176
     1
 93
       13
176
     1
 44
0.0
176
     1
173
     0
176
     1
  0
VISUALSTYLE
  5
37
102
{ACAD_REACTORS
330
2A
102
}
330
2A
100
AcDbVisualStyle
  2
Thicken
 70
    13
177
     2
291
     1
 71
     2
176
     1
 72
     2
176
     1
 73
     0
176
     1
 90
        0
176
     1
 40
-0.6
176
     1
 41
-30.0
176
     1
 62
     5
 63
     7
421
 16777215
176
     1
 74
     1
176
     1
 91
        4
176
     1
 64
     7
176
     1
 65
   257
176
     1
 75
     1
176
     1
175
     1
176
     1
 42
1.0
176
     1
 92
       12
176
     1
 66
     7
176
     1
 43
1.0
176
     1
 76
     1
176
     1
 77
     6
176
     1
 78
     2
176
     1
 67
     7
176
     1
 79
     5
176
     1
170
     0
176
     1
171
     0
176
     1
290
     0
176
     1
 93
        1
176
     1
 44
0.0
176
     1
173
     0
176
     1
  0
ENDSEC
  0
EOF
