  0
SECTION
  2
HEADER
  9
$ACADVER
  1
AC1024
  9
$ACADMAINTVER
 70
     6
  9
$DWGCODEPAGE
  3
UNDEFINED
  9
$INSBASE
 10
0.0
 20
0.0
 30
0.0
  9
$EXTMIN
 10
1.000000000000000E+20
 20
1.000000000000000E+20
 30
1.000000000000000E+20
  9
$EXTMAX
 10
-1.000000000000000E+20
 20
-1.000000000000000E+20
 30
-1.000000000000000E+20
  9
$LIMMIN
 10
0.0
 20
0.0
  9
$LIMMAX
 10
12.0
 20
9.0
  9
$ORTHOMODE
 70
     0
  9
$REGENMODE
 70
     1
  9
$FILLMODE
 70
     1
  9
$QTEXTMODE
 70
     0
  9
$MIRRTEXT
 70
     1
  9
$LTSCALE
 40
1.0
  9
$ATTMODE
 70
     1
  9
$TEXTSIZE
 40
0.2
  9
$TRACEWID
 40
0.05
  9
$TEXTSTYLE
  7
Standard
  9
$CLAYER
  8
0
  9
$CELTYPE
  6
ByLayer
  9
$CECOLOR
 62
   256
  9
$CELTSCALE
 40
1.0
  9
$DISPSILH
 70
     0
  9
$DIMSCALE
 40
1.0
  9
$DIMASZ
 40
0.18
  9
$DIMEXO
 40
0.0625
  9
$DIMDLI
 40
0.38
  9
$DIMRND
 40
0.0
  9
$DIMDLE
 40
0.0
  9
$DIMEXE
 40
0.18
  9
$DIMTP
 40
0.0
  9
$DIMTM
 40
0.0
  9
$DIMTXT
 40
0.18
  9
$DIMCEN
 40
0.09
  9
$DIMTSZ
 40
0.0
  9
$DIMTOL
 70
     0
  9
$DIMLIM
 70
     0
  9
$DIMTIH
 70
     1
  9
$DIMTOH
 70
     1
  9
$DIMSE1
 70
     0
  9
$DIMSE2
 70
     0
  9
$DIMTAD
 70
     0
  9
$DIMZIN
 70
     0
  9
$DIMBLK
  1

  9
$DIMASO
 70
     1
  9
$DIMSHO
 70
     1
  9
$DIMPOST
  1

  9
$DIMAPOST
  1

  9
$DIMALT
 70
     0
  9
$DIMALTD
 70
     2
  9
$DIMALTF
 40
25.4
  9
$DIMLFAC
 40
1.0
  9
$DIMTOFL
 70
     0
  9
$DIMTVP
 40
0.0
  9
$DIMTIX
 70
     0
  9
$DIMSOXD
 70
     0
  9
$DIMSAH
 70
     0
  9
$DIMBLK1
  1

  9
$DIMBLK2
  1

  9
$DIMSTYLE
  2
Standard
  9
$DIMCLRD
 70
     0
  9
$DIMCLRE
 70
     0
  9
$DIMCLRT
 70
     0
  9
$DIMTFAC
 40
1.0
  9
$DIMGAP
 40
0.09
  9
$DIMJUST
 70
     0
  9
$DIMSD1
 70
     0
  9
$DIMSD2
 70
     0
  9
$DIMTOLJ
 70
     1
  9
$DIMTZIN
 70
     0
  9
$DIMALTZ
 70
     0
  9
$DIMALTTZ
 70
     0
  9
$DIMUPT
 70
     0
  9
$DIMDEC
 70
     4
  9
$DIMTDEC
 70
     4
  9
$DIMALTU
 70
     2
  9
$DIMALTTD
 70
     2
  9
$DIMTXSTY
  7
Standard
  9
$DIMAUNIT
 70
     0
  9
$DIMADEC
 70
     0
  9
$DIMALTRND
 40
0.0
  9
$DIMAZIN
 70
     0
  9
$DIMDSEP
 70
    46
  9
$DIMATFIT
 70
     3
  9
$DIMFRAC
 70
     0
  9
$DIMLDRBLK
  1

  9
$DIMLUNIT
 70
     2
  9
$DIMLWD
 70
    -2
  9
$DIMLWE
 70
    -2
  9
$DIMTMOVE
 70
     0
  9
$DIMFXL
 40
1.0
  9
$DIMFXLON
 70
     0
  9
$DIMJOGANG
 40
0.7853981633974483
  9
$DIMTFILL
 70
     0
  9
$DIMTFILLCLR
 70
     0
  9
$DIMARCSYM
 70
     0
  9
$DIMLTYPE
  6

  9
$DIMLTEX1
  6

  9
$DIMLTEX2
  6

  9
$DIMTXTDIRECTION
 70
     0
  9
$LUNITS
 70
     2
  9
$LUPREC
 70
     4
  9
$SKETCHINC
 40
0.1
  9
$FILLETRAD
 40
0.5
  9
$AUNITS
 70
     0
  9
$AUPREC
 70
     0
  9
$MENU
  1
.
  9
$ELEVATION
 40
0.0
  9
$PELEVATION
 40
0.0
  9
$THICKNESS
 40
0.0
  9
$LIMCHECK
 70
     0
  9
$CHAMFERA
 40
0.5
  9
$CHAMFERB
 40
0.5
  9
$CHAMFERC
 40
1.0
  9
$CHAMFERD
 40
0.0
  9
$SKPOLY
 70
     0
  9
$TDCREATE
 40
2457917.583425926
  9
$TDUCREATE
 40
2457917.208425926
  9
$TDUPDATE
 40
2457917.583425926
  9
$TDUUPDATE
 40
2457917.208425926
  9
$TDINDWG
 40
0.0000000116
  9
$TDUSRTIMER
 40
0.0000000116
  9
$USRTIMER
 70
     1
  9
$ANGBASE
 50
0.0
  9
$ANGDIR
 70
     0
  9
$PDMODE
 70
     0
  9
$PDSIZE
 40
0.0
  9
$PLINEWID
 40
0.0
  9
$SPLFRAME
 70
     0
  9
$SPLINETYPE
 70
     6
  9
$SPLINESEGS
 70
     8
  9
$HANDSEED
  5
CF
  9
$SURFTAB1
 70
     6
  9
$SURFTAB2
 70
     6
  9
$SURFTYPE
 70
     6
  9
$SURFU
 70
     6
  9
$SURFV
 70
     6
  9
$UCSBASE
  2

  9
$UCSNAME
  2

  9
$UCSORG
 10
0.0
 20
0.0
 30
0.0
  9
$UCSXDIR
 10
1.0
 20
0.0
 30
0.0
  9
$UCSYDIR
 10
0.0
 20
1.0
 30
0.0
  9
$UCSORTHOREF
  2

  9
$UCSORTHOVIEW
 70
     0
  9
$UCSORGTOP
 10
0.0
 20
0.0
 30
0.0
  9
$UCSORGBOTTOM
 10
0.0
 20
0.0
 30
0.0
  9
$UCSORGLEFT
 10
0.0
 20
0.0
 30
0.0
  9
$UCSORGRIGHT
 10
0.0
 20
0.0
 30
0.0
  9
$UCSORGFRONT
 10
0.0
 20
0.0
 30
0.0
  9
$UCSORGBACK
 10
0.0
 20
0.0
 30
0.0
  9
$PUCSBASE
  2

  9
$PUCSNAME
  2

  9
$PUCSORG
 10
0.0
 20
0.0
 30
0.0
  9
$PUCSXDIR
 10
1.0
 20
0.0
 30
0.0
  9
$PUCSYDIR
 10
0.0
 20
1.0
 30
0.0
  9
$PUCSORTHOREF
  2

  9
$PUCSORTHOVIEW
 70
     0
  9
$PUCSORGTOP
 10
0.0
 20
0.0
 30
0.0
  9
$PUCSORGBOTTOM
 10
0.0
 20
0.0
 30
0.0
  9
$PUCSORGLEFT
 10
0.0
 20
0.0
 30
0.0
  9
$PUCSORGRIGHT
 10
0.0
 20
0.0
 30
0.0
  9
$PUCSORGFRONT
 10
0.0
 20
0.0
 30
0.0
  9
$PUCSORGBACK
 10
0.0
 20
0.0
 30
0.0
  9
$USERI1
 70
     0
  9
$USERI2
 70
     0
  9
$USERI3
 70
     0
  9
$USERI4
 70
     0
  9
$USERI5
 70
     0
  9
$USERR1
 40
0.0
  9
$USERR2
 40
0.0
  9
$USERR3
 40
0.0
  9
$USERR4
 40
0.0
  9
$USERR5
 40
0.0
  9
$WORLDVIEW
 70
     1
  9
$SHADEDGE
 70
     3
  9
$SHADEDIF
 70
    70
  9
$TILEMODE
 70
     1
  9
$MAXACTVP
 70
    64
  9
$PINSBASE
 10
0.0
 20
0.0
 30
0.0
  9
$PLIMCHECK
 70
     0
  9
$PEXTMIN
 10
1.000000000000000E+20
 20
1.000000000000000E+20
 30
1.000000000000000E+20
  9
$PEXTMAX
 10
-1.000000000000000E+20
 20
-1.000000000000000E+20
 30
-1.000000000000000E+20
  9
$PLIMMIN
 10
0.0
 20
0.0
  9
$PLIMMAX
 10
12.0
 20
9.0
  9
$UNITMODE
 70
     0
  9
$VISRETAIN
 70
     1
  9
$PLINEGEN
 70
     0
  9
$PSLTSCALE
 70
     1
  9
$TREEDEPTH
 70
  3020
  9
$CMLSTYLE
  2
Standard
  9
$CMLJUST
 70
     0
  9
$CMLSCALE
 40
1.0
  9
$PROXYGRAPHICS
 70
     1
  9
$MEASUREMENT
 70
     0
  9
$CELWEIGHT
370
    -1
  9
$ENDCAPS
280
     0
  9
$JOINSTYLE
280
     0
  9
$LWDISPLAY
290
     1
  9
$INSUNITS
 70
     1
  9
$HYPERLINKBASE
  1

  9
$STYLESHEET
  1

  9
$XEDIT
290
     1
  9
$CEPSNTYPE
380
     0
  9
$PSTYLEMODE
290
     1
  9
$FINGERPRINTGUID
  2
{BF3424CF-3345-5E16-A73B-BE15FE784D60}
  9
$VERSIONGUID
  2
{FAEB1C32-E019-11D5-929B-00C0DF256EC4}
  9
$EXTNAMES
290
     1
  9
$PSVPSCALE
 40
0.0
  9
$OLESTARTUP
290
     0
  9
$SORTENTS
280
   127
  9
$INDEXCTL
280
     0
  9
$HIDETEXT
280
     1
  9
$XCLIPFRAME
280
     2
  9
$HALOGAP
280
     0
  9
$OBSCOLOR
 70
   257
  9
$OBSLTYPE
280
     0
  9
$INTERSECTIONDISPLAY
280
     0
  9
$INTERSECTIONCOLOR
 70
   257
  9
$DIMASSOC
280
     2
  9
$PROJECTNAME
  1

  9
$CAMERADISPLAY
290
     0
  9
$LENSLENGTH
 40
50.0
  9
$CAMERAHEIGHT
 40
0.0
  9
$STEPSPERSEC
 40
2.0
  9
$STEPSIZE
 40
6.0
  9
$3DDWFPREC
 40
2.0
  9
$PSOLWIDTH
 40
0.25
  9
$PSOLHEIGHT
 40
4.0
  9
$LOFTANG1
 40
1.570796326794897
  9
$LOFTANG2
 40
1.570796326794897
  9
$LOFTMAG1
 40
0.0
  9
$LOFTMAG2
 40
0.0
  9
$LOFTPARAM
 70
     7
  9
$LOFTNORMALS
280
     1
  9
$LATITUDE
 40
37.795
  9
$LONGITUDE
 40
-122.394
  9
$NORTHDIRECTION
 40
0.0
  9
$TIMEZONE
 70
 -8000
  9
$LIGHTGLYPHDISPLAY
280
     1
  9
$TILEMODELIGHTSYNCH
280
     1
  9
$CMATERIAL
347
3C
  9
$SOLIDHIST
280
     1
  9
$SHOWHIST
280
     1
  9
$DWFFRAME
280
     2
  9
$DGNFRAME
280
     2
  9
$REALWORLDSCALE
290
     1
  9
$INTERFERECOLOR
 62
   256
  9
$CSHADOW
280
     0
  9
$SHADOWPLANELOCATION
 40
0.0
  0
ENDSEC
  0
SECTION
  2
CLASSES
  0
CLASS
  1
ACDBDICTIONARYWDFLT
  2
AcDbDictionaryWithDefault
  3
ObjectDBX Classes
 90
        0
 91
        4
280
     0
281
     0
  0
CLASS
  1
VISUALSTYLE
  2
AcDbVisualStyle
  3
ObjectDBX Classes
 90
     4095
 91
        4
280
     0
281
     0
  0
CLASS
  1
MATERIAL
  2
AcDbMaterial
  3
ObjectDBX Classes
 90
     1153
 91
        4
280
     0
281
     0
  0
CLASS
  1
SUN
  2
AcDbSun
  3
SCENEOE
 90
     1024
 91
        4
280
     0
281
     0
  0
ENDSEC
  0
SECTION
  2
TABLES
  0
TABLE
  2
VPORT
  5
8
330
0
100
AcDbSymbolTable
 70
     1
  0
VPORT
  5
29
330
8
100
AcDbSymbolTableRecord
100
AcDbViewportTableRecord
  2
*Active
 70
     0
 10
0.0
 20
0.0
 11
1.0
 21
1.0
 12
0.0
 22
0.0
 13
0.0
 23
0.0
 14
0.5
 24
0.5
 15
0.5
 25
0.5
 16
0.0
 26
0.0
 36
1.0
 17
91.00082462281999
 27
-128.4993055234307
 37
0.0
 40
256.9986110468615
 41
0.7081814508812795
 42
50.0
 43
0.0
 44
0.0
 50
0.0
 51
0.0
 71
     0
 72
   100
 73
     1
 74
     3
 75
     0
 76
     0
 77
     0
 78
     0
281
     0
 65
     1
110
0.0
120
0.0
130
0.0
111
1.0
121
0.0
131
0.0
112
0.0
122
1.0
132
0.0
 79
     0
146
0.0
 60
     3
 61
     5
292
     1
282
     1
141
0.0
142
0.0
 63
   250
361
3F
  0
ENDTAB
  0
TABLE
  2
LTYPE
  5
5
330
0
100
AcDbSymbolTable
 70
     1
  0
LTYPE
  5
14
330
5
100
AcDbSymbolTableRecord
100
AcDbLinetypeTableRecord
  2
ByBlock
 70
     0
  3

 72
    65
 73
     0
 40
0.0
  0
LTYPE
  5
15
330
5
100
AcDbSymbolTableRecord
100
AcDbLinetypeTableRecord
  2
ByLayer
 70
     0
  3

 72
    65
 73
     0
 40
0.0
  0
LTYPE
  5
16
330
5
100
AcDbSymbolTableRecord
100
AcDbLinetypeTableRecord
  2
Continuous
 70
     0
  3
Solid line
 72
    65
 73
     0
 40
0.0
  0
ENDTAB
  0
TABLE
  2
LAYER
  5
2
330
0
100
AcDbSymbolTable
 70
     2
  0
LAYER
  5
10
330
2
100
AcDbSymbolTableRecord
100
AcDbLayerTableRecord
  2
0
 70
     0
 62
     7
  6
Continuous
370
    -3
390
F
347
3E
  0
LAYER
  5
40
330
2
100
AcDbSymbolTableRecord
100
AcDbLayerTableRecord
  2
_U+30EC_U+30A4_U+30E4_U+30FC 1
 70
     0
 62
     7
  6
Continuous
370
    -3
390
F
347
3E
  0
ENDTAB
  0
TABLE
  2
STYLE
  5
3
330
0
100
AcDbSymbolTable
 70
     1
  0
STYLE
  5
11
330
3
100
AcDbSymbolTableRecord
100
AcDbTextStyleTableRecord
  2
Standard
 70
     0
 40
0.0
 41
1.0
 50
0.0
 71
     0
 42
0.2
  3
txt
  4

  0
ENDTAB
  0
TABLE
  2
VIEW
  5
6
330
0
100
AcDbSymbolTable
 70
     0
  0
ENDTAB
  0
TABLE
  2
UCS
  5
7
330
0
100
AcDbSymbolTable
 70
     0
  0
ENDTAB
  0
TABLE
  2
APPID
  5
9
330
0
100
AcDbSymbolTable
 70
     1
  0
APPID
  5
12
330
9
100
AcDbSymbolTableRecord
100
AcDbRegAppTableRecord
  2
ACAD
 70
     0
  0
ENDTAB
  0
TABLE
  2
DIMSTYLE
  5
A
330
0
100
AcDbSymbolTable
 70
     1
100
AcDbDimStyleTable
  0
DIMSTYLE
105
27
330
A
100
AcDbSymbolTableRecord
100
AcDbDimStyleTableRecord
  2
Standard
 70
     0
178
     0
340
11
  0
ENDTAB
  0
TABLE
  2
BLOCK_RECORD
  5
1
330
0
100
AcDbSymbolTable
 70
     6
  0
BLOCK_RECORD
  5
1F
330
1
100
AcDbSymbolTableRecord
100
AcDbBlockTableRecord
  2
*Model_Space
340
22
 70
     0
280
     1
281
     0
  0
BLOCK_RECORD
  5
1B
330
1
100
AcDbSymbolTableRecord
100
AcDbBlockTableRecord
  2
*Paper_Space
340
1E
 70
     0
280
     1
281
     0
  0
BLOCK_RECORD
  5
23
330
1
100
AcDbSymbolTableRecord
100
AcDbBlockTableRecord
  2
*Paper_Space0
340
26
 70
     0
280
     1
281
     0
  0
BLOCK_RECORD
  5
79
330
1
100
AcDbSymbolTableRecord
100
AcDbBlockTableRecord
  2
block 2
340
0
102
{BLKREFS
331
7A
102
}
 70
     0
280
     1
281
     0
  0
BLOCK_RECORD
  5
A8
330
1
100
AcDbSymbolTableRecord
100
AcDbBlockTableRecord
  2
block 3
340
0
102
{BLKREFS
331
A9
102
}
 70
     0
280
     1
281
     0
  0
BLOCK_RECORD
  5
B0
330
1
100
AcDbSymbolTableRecord
100
AcDbBlockTableRecord
  2
block 4
340
0
102
{BLKREFS
331
B1
102
}
 70
     0
280
     1
281
     0
  0
BLOCK_RECORD
  5
B7
330
1
100
AcDbSymbolTableRecord
100
AcDbBlockTableRecord
  2
block 5
340
0
102
{BLKREFS
331
B8
102
}
 70
     0
280
     1
281
     0
  0
BLOCK_RECORD
  5
BE
330
1
100
AcDbSymbolTableRecord
100
AcDbBlockTableRecord
  2
block 6
340
0
102
{BLKREFS
331
BF
102
}
 70
     0
280
     1
281
     0
  0
ENDTAB
  0
ENDSEC
  0
SECTION
  2
BLOCKS
  0
BLOCK
  5
20
330
1F
100
AcDbEntity
  8
0
100
AcDbBlockBegin
  2
*Model_Space
 70
     0
 10
0.0
 20
0.0
 30
0.0
  3
*Model_Space
  1

  0
ENDBLK
  5
21
330
1F
100
AcDbEntity
  8
0
100
AcDbBlockEnd
  0
BLOCK
  5
1C
330
1B
100
AcDbEntity
 67
     1
  8
0
100
AcDbBlockBegin
  2
*Paper_Space
 70
     0
 10
0.0
 20
0.0
 30
0.0
  3
*Paper_Space
  1

  0
ENDBLK
  5
1D
330
1B
100
AcDbEntity
 67
     1
  8
0
100
AcDbBlockEnd
  0
BLOCK
  5
24
330
23
100
AcDbEntity
  8
0
100
AcDbBlockBegin
  2
*Paper_Space0
 70
     0
 10
0.0
 20
0.0
 30
0.0
  3
*Paper_Space0
  1

  0
ENDBLK
  5
25
330
23
100
AcDbEntity
  8
0
100
AcDbBlockEnd
  0
BLOCK
  5
7B
330
79
100
AcDbEntity
  8
0
100
AcDbBlockBegin
  2
block 2
 70
     0
 10
0.0
 20
0.0
 30
0.0
  3
block 2
  1

  0
SPLINE
  5
7D
330
79
100
AcDbEntity
  8
_U+30EC_U+30A4_U+30E4_U+30FC 1
370
     0
100
AcDbSpline
210
0.0
220
0.0
230
1.0
 70
    11
 71
     3
 72
    44
 73
    40
 74
     0
 42
0.0000000001
 43
0.0000000001
 12
1.0
 22
0.0
 32
0.0
 13
1.0
 23
0.0
 33
0.0
 40
0.0
 40
0.0
 40
0.0
 40
0.0
 40
1.0
 40
1.0
 40
1.0
 40
2.0
 40
2.0
 40
2.0
 40
3.0
 40
3.0
 40
3.0
 40
4.0
 40
4.0
 40
4.0
 40
5.0
 40
5.0
 40
5.0
 40
6.0
 40
6.0
 40
6.0
 40
7.0
 40
7.0
 40
7.0
 40
8.0
 40
8.0
 40
8.0
 40
9.0
 40
9.0
 40
9.0
 40
10.0
 40
10.0
 40
10.0
 40
11.0
 40
11.0
 40
11.0
 40
12.0
 40
12.0
 40
12.0
 40
13.0
 40
13.0
 40
13.0
 40
13.0
 10
79.45113659038027
 20
-134.1048203874807
 30
0.0
 10
79.23323430093822
 20
-134.2636392893507
 30
0.0
 10
79.14004446806221
 20
-134.3377088422836
 30
0.0
 10
79.0914686217202
 20
-134.4813693240185
 30
0.0
 10
79.0914686217202
 20
-134.4813693240185
 30
0.0
 10
79.8698879466124
 20
-134.4813693240185
 30
0.0
 10
79.8698879466124
 20
-134.4813693240185
 30
0.0
 10
79.8698879466124
 20
-134.4813693240185
 30
0.0
 10
79.8698879466124
 20
-134.6866970149395
 30
0.0
 10
79.8698879466124
 20
-134.6866970149395
 30
0.0
 10
79.8698879466124
 20
-134.6866970149395
 30
0.0
 10
78.84187145381384
 20
-134.6866970149395
 30
0.0
 10
78.84187145381384
 20
-134.6866970149395
 30
0.0
 10
78.87356633227814
 20
-134.3290961035705
 30
0.0
 10
78.93919540127214
 20
-134.2508924360554
 30
0.0
 10
79.32418482174882
 20
-133.9525471670327
 30
0.0
 10
79.58015541630289
 20
-133.7537651575338
 30
0.0
 10
79.64561223052263
 20
-133.6858967764744
 30
0.0
 10
79.64561223052263
 20
-133.5484374666129
 30
0.0
 10
79.64561223052263
 20
-133.4299261819203
 30
0.0
 10
79.57378198965517
 20
-133.2990125534808
 30
0.0
 10
79.3770670374474
 20
-133.2990125534808
 30
0.0
 10
79.11679007353678
 20
-133.2990125534808
 30
0.0
 10
79.10834958959792
 20
-133.529489441444
 30
0.0
 10
79.10404322024135
 20
-133.6459336688455
 30
0.0
 10
79.10404322024135
 20
-133.6459336688455
 30
0.0
 10
78.87993975892586
 20
-133.6459336688455
 30
0.0
 10
78.87993975892586
 20
-133.6459336688455
 30
0.0
 10
78.88838024286471
 20
-133.5188096454397
 30
0.0
 10
78.89888778409473
 20
-133.4068440421691
 30
0.0
 10
78.9793307636753
 20
-133.2883327574765
 30
0.0
 10
79.08922930965478
 20
-133.1274467983154
 30
0.0
 10
79.27543672063253
 20
-133.0936848625599
 30
0.0
 10
79.39188094803397
 20
-133.0936848625599
 30
0.0
 10
79.66903887982232
 20
-133.0936848625599
 30
0.0
 10
79.8762613732601
 20
-133.2776529614723
 30
0.0
 10
79.8762613732601
 20
-133.550504523904
 30
0.0
 10
79.8762613732601
 20
-133.7792588641246
 30
0.0
 10
79.75998940063292
 20
-133.8784776140998
 30
0.0
 10
79.45113659038027
 20
-134.1048203874807
 30
0.0
  0
HATCH
  5
7E
330
79
100
AcDbEntity
  8
_U+30EC_U+30A4_U+30E4_U+30FC 1
 62
   179
420
  2234388
100
AcDbHatch
 10
0.0
 20
0.0
 30
0.0
210
0.0
220
0.0
230
1.0
  2
SOLID
 70
     1
 71
     0
 91
        1
 92
        1
 93
        1
 72
     4
 94
        3
 73
     0
 74
     1
 95
       44
 96
       40
 40
0.0
 40
0.0
 40
0.0
 40
0.0
 40
1.0
 40
1.0
 40
1.0
 40
2.0
 40
2.0
 40
2.0
 40
3.0
 40
3.0
 40
3.0
 40
4.0
 40
4.0
 40
4.0
 40
5.0
 40
5.0
 40
5.0
 40
6.0
 40
6.0
 40
6.0
 40
7.0
 40
7.0
 40
7.0
 40
8.0
 40
8.0
 40
8.0
 40
9.0
 40
9.0
 40
9.0
 40
10.0
 40
10.0
 40
10.0
 40
11.0
 40
11.0
 40
11.0
 40
12.0
 40
12.0
 40
12.0
 40
13.0
 40
13.0
 40
13.0
 40
13.0
 10
79.45113659038027
 20
-134.1048203874807
 10
79.23323430093822
 20
-134.2636392893507
 10
79.14004446806221
 20
-134.3377088422836
 10
79.0914686217202
 20
-134.4813693240185
 10
79.0914686217202
 20
-134.4813693240185
 10
79.8698879466124
 20
-134.4813693240185
 10
79.8698879466124
 20
-134.4813693240185
 10
79.8698879466124
 20
-134.4813693240185
 10
79.8698879466124
 20
-134.6866970149395
 10
79.8698879466124
 20
-134.6866970149395
 10
79.8698879466124
 20
-134.6866970149395
 10
78.84187145381384
 20
-134.6866970149395
 10
78.84187145381384
 20
-134.6866970149395
 10
78.87356633227814
 20
-134.3290961035705
 10
78.93919540127214
 20
-134.2508924360554
 10
79.32418482174882
 20
-133.9525471670327
 10
79.58015541630289
 20
-133.7537651575338
 10
79.64561223052263
 20
-133.6858967764744
 10
79.64561223052263
 20
-133.5484374666129
 10
79.64561223052263
 20
-133.4299261819203
 10
79.57378198965517
 20
-133.2990125534808
 10
79.3770670374474
 20
-133.2990125534808
 10
79.11679007353678
 20
-133.2990125534808
 10
79.10834958959792
 20
-133.529489441444
 10
79.10404322024135
 20
-133.6459336688455
 10
79.10404322024135
 20
-133.6459336688455
 10
78.87993975892586
 20
-133.6459336688455
 10
78.87993975892586
 20
-133.6459336688455
 10
78.88838024286471
 20
-133.5188096454397
 10
78.89888778409473
 20
-133.4068440421691
 10
78.9793307636753
 20
-133.2883327574765
 10
79.08922930965478
 20
-133.1274467983154
 10
79.27543672063253
 20
-133.0936848625599
 10
79.39188094803397
 20
-133.0936848625599
 10
79.66903887982232
 20
-133.0936848625599
 10
79.8762613732601
 20
-133.2776529614723
 10
79.8762613732601
 20
-133.550504523904
 10
79.8762613732601
 20
-133.7792588641246
 10
79.75998940063292
 20
-133.8784776140998
 10
79.45113659038027
 20
-134.1048203874807
 97
        0
 97
        0
 75
     2
 76
     1
 98
        0
  0
SPLINE
  5
7F
330
79
100
AcDbEntity
  8
_U+30EC_U+30A4_U+30E4_U+30FC 1
370
     0
100
AcDbSpline
210
0.0
220
0.0
230
1.0
 70
    11
 71
     3
 72
    53
 73
    49
 74
     0
 42
0.0000000001
 43
0.0000000001
 12
1.0
 22
0.0
 32
0.0
 13
1.0
 23
0.0
 33
0.0
 40
0.0
 40
0.0
 40
0.0
 40
0.0
 40
1.0
 40
1.0
 40
1.0
 40
2.0
 40
2.0
 40
2.0
 40
3.0
 40
3.0
 40
3.0
 40
4.0
 40
4.0
 40
4.0
 40
5.0
 40
5.0
 40
5.0
 40
6.0
 40
6.0
 40
6.0
 40
7.0
 40
7.0
 40
7.0
 40
8.0
 40
8.0
 40
8.0
 40
9.0
 40
9.0
 40
9.0
 40
10.0
 40
10.0
 40
10.0
 40
11.0
 40
11.0
 40
11.0
 40
12.0
 40
12.0
 40
12.0
 40
13.0
 40
13.0
 40
13.0
 40
14.0
 40
14.0
 40
14.0
 40
15.0
 40
15.0
 40
15.0
 40
16.0
 40
16.0
 40
16.0
 40
16.0
 10
80.51584335009673
 20
-134.7373399185726
 30
0.0
 10
80.4374674278073
 20
-134.7373399185726
 30
0.0
 10
80.3360093657667
 20
-134.7204589506949
 30
0.0
 10
80.23437904895182
 20
-134.6570691937663
 30
0.0
 10
80.06091849126949
 20
-134.5471706477868
 30
0.0
 10
80.03973115403521
 20
-134.4159125097988
 30
0.0
 10
80.02078312886634
 20
-134.3080810211105
 30
0.0
 10
80.02078312886634
 20
-134.3080810211105
 30
0.0
 10
80.24281953289069
 20
-134.3080810211105
 30
0.0
 10
80.24281953289069
 20
-134.3080810211105
 30
0.0
 10
80.29794106065468
 20
-134.5068630306094
 30
0.0
 10
80.42489282928614
 20
-134.5364908517826
 30
0.0
 10
80.51791040738789
 20
-134.5364908517826
 30
0.0
 10
80.65760902931477
 20
-134.5364908517826
 30
0.0
 10
80.80988224976281
 20
-134.4369275922588
 30
0.0
 10
80.80988224976281
 20
-134.2043836470045
 30
0.0
 10
80.80988224976281
 20
-133.9484130524504
 30
0.0
 10
80.63004826543276
 20
-133.8784776140998
 30
0.0
 10
80.50946992344903
 20
-133.8784776140998
 30
0.0
 10
80.47777504498472
 20
-133.8784776140998
 30
0.0
 10
80.3360093657667
 20
-133.8784776140998
 30
0.0
 10
80.24712590224725
 20
-134.0076686947967
 30
0.0
 10
80.24712590224725
 20
-134.0076686947967
 30
0.0
 10
80.07159828727377
 20
-133.9887206696278
 30
0.0
 10
80.07159828727377
 20
-133.9887206696278
 30
0.0
 10
80.07159828727377
 20
-133.9887206696278
 30
0.0
 10
80.19217662925752
 20
-133.1422607089019
 30
0.0
 10
80.19217662925752
 20
-133.1422607089019
 30
0.0
 10
80.19217662925752
 20
-133.1422607089019
 30
0.0
 10
80.97059595414972
 20
-133.1422607089019
 30
0.0
 10
80.97059595414972
 20
-133.1422607089019
 30
0.0
 10
80.97059595414972
 20
-133.1422607089019
 30
0.0
 10
80.97059595414972
 20
-133.3369086038186
 30
0.0
 10
80.97059595414972
 20
-133.3369086038186
 30
0.0
 10
80.97059595414972
 20
-133.3369086038186
 30
0.0
 10
80.35495739093557
 20
-133.3369086038186
 30
0.0
 10
80.35495739093557
 20
-133.3369086038186
 30
0.0
 10
80.35495739093557
 20
-133.3369086038186
 30
0.0
 10
80.28950057671582
 20
-133.7599663294072
 30
0.0
 10
80.28950057671582
 20
-133.7599663294072
 30
0.0
 10
80.35082327635327
 20
-133.7262043936518
 30
0.0
 10
80.433333313225
 20
-133.6858967764744
 30
0.0
 10
80.55167234314334
 20
-133.6858967764744
 30
0.0
 10
80.80557588040625
 20
-133.6858967764744
 30
0.0
 10
81.04259844979144
 20
-133.8722764422264
 30
0.0
 10
81.04259844979144
 20
-134.1854356218356
 30
0.0
 10
81.04259844979144
 20
-134.5027289160271
 30
0.0
 10
80.81832273370168
 20
-134.7373399185726
 30
0.0
 10
80.51584335009673
 20
-134.7373399185726
 30
0.0
  0
HATCH
  5
80
330
79
100
AcDbEntity
  8
_U+30EC_U+30A4_U+30E4_U+30FC 1
 62
   179
420
  2234388
100
AcDbHatch
 10
0.0
 20
0.0
 30
0.0
210
0.0
220
0.0
230
1.0
  2
SOLID
 70
     1
 71
     0
 91
        1
 92
        1
 93
        1
 72
     4
 94
        3
 73
     0
 74
     1
 95
       53
 96
       49
 40
0.0
 40
0.0
 40
0.0
 40
0.0
 40
1.0
 40
1.0
 40
1.0
 40
2.0
 40
2.0
 40
2.0
 40
3.0
 40
3.0
 40
3.0
 40
4.0
 40
4.0
 40
4.0
 40
5.0
 40
5.0
 40
5.0
 40
6.0
 40
6.0
 40
6.0
 40
7.0
 40
7.0
 40
7.0
 40
8.0
 40
8.0
 40
8.0
 40
9.0
 40
9.0
 40
9.0
 40
10.0
 40
10.0
 40
10.0
 40
11.0
 40
11.0
 40
11.0
 40
12.0
 40
12.0
 40
12.0
 40
13.0
 40
13.0
 40
13.0
 40
14.0
 40
14.0
 40
14.0
 40
15.0
 40
15.0
 40
15.0
 40
16.0
 40
16.0
 40
16.0
 40
16.0
 10
80.51584335009673
 20
-134.7373399185726
 10
80.4374674278073
 20
-134.7373399185726
 10
80.3360093657667
 20
-134.7204589506949
 10
80.23437904895182
 20
-134.6570691937663
 10
80.06091849126949
 20
-134.5471706477868
 10
80.03973115403521
 20
-134.4159125097988
 10
80.02078312886634
 20
-134.3080810211105
 10
80.02078312886634
 20
-134.3080810211105
 10
80.24281953289069
 20
-134.3080810211105
 10
80.24281953289069
 20
-134.3080810211105
 10
80.29794106065468
 20
-134.5068630306094
 10
80.42489282928614
 20
-134.5364908517826
 10
80.51791040738789
 20
-134.5364908517826
 10
80.65760902931477
 20
-134.5364908517826
 10
80.80988224976281
 20
-134.4369275922588
 10
80.80988224976281
 20
-134.2043836470045
 10
80.80988224976281
 20
-133.9484130524504
 10
80.63004826543276
 20
-133.8784776140998
 10
80.50946992344903
 20
-133.8784776140998
 10
80.47777504498472
 20
-133.8784776140998
 10
80.3360093657667
 20
-133.8784776140998
 10
80.24712590224725
 20
-134.0076686947967
 10
80.24712590224725
 20
-134.0076686947967
 10
80.07159828727377
 20
-133.9887206696278
 10
80.07159828727377
 20
-133.9887206696278
 10
80.07159828727377
 20
-133.9887206696278
 10
80.19217662925752
 20
-133.1422607089019
 10
80.19217662925752
 20
-133.1422607089019
 10
80.19217662925752
 20
-133.1422607089019
 10
80.97059595414972
 20
-133.1422607089019
 10
80.97059595414972
 20
-133.1422607089019
 10
80.97059595414972
 20
-133.1422607089019
 10
80.97059595414972
 20
-133.3369086038186
 10
80.97059595414972
 20
-133.3369086038186
 10
80.97059595414972
 20
-133.3369086038186
 10
80.35495739093557
 20
-133.3369086038186
 10
80.35495739093557
 20
-133.3369086038186
 10
80.35495739093557
 20
-133.3369086038186
 10
80.28950057671582
 20
-133.7599663294072
 10
80.28950057671582
 20
-133.7599663294072
 10
80.35082327635327
 20
-133.7262043936518
 10
80.433333313225
 20
-133.6858967764744
 10
80.55167234314334
 20
-133.6858967764744
 10
80.80557588040625
 20
-133.6858967764744
 10
81.04259844979144
 20
-133.8722764422264
 10
81.04259844979144
 20
-134.1854356218356
 10
81.04259844979144
 20
-134.5027289160271
 10
80.81832273370168
 20
-134.7373399185726
 10
80.51584335009673
 20
-134.7373399185726
 97
        0
 97
        0
 75
     2
 76
     1
 98
        0
  0
SPLINE
  5
81
330
79
100
AcDbEntity
  8
_U+30EC_U+30A4_U+30E4_U+30FC 1
370
     0
100
AcDbSpline
210
0.0
220
0.0
230
1.0
 70
    11
 71
     3
 72
    44
 73
    40
 74
     0
 42
0.0000000001
 43
0.0000000001
 12
1.0
 22
0.0
 32
0.0
 13
1.0
 23
0.0
 33
0.0
 40
0.0
 40
0.0
 40
0.0
 40
0.0
 40
1.0
 40
1.0
 40
1.0
 40
2.0
 40
2.0
 40
2.0
 40
3.0
 40
3.0
 40
3.0
 40
4.0
 40
4.0
 40
4.0
 40
5.0
 40
5.0
 40
5.0
 40
6.0
 40
6.0
 40
6.0
 40
7.0
 40
7.0
 40
7.0
 40
8.0
 40
8.0
 40
8.0
 40
9.0
 40
9.0
 40
9.0
 40
10.0
 40
10.0
 40
10.0
 40
11.0
 40
11.0
 40
11.0
 40
12.0
 40
12.0
 40
12.0
 40
13.0
 40
13.0
 40
13.0
 40
13.0
 10
82.2258164942005
 20
-134.6866970149395
 30
0.0
 10
82.2023898449008
 20
-134.6422552831797
 30
0.0
 10
82.18137476244077
 20
-134.5895453222554
 30
0.0
 10
82.17913545037536
 20
-134.3587239247437
 30
0.0
 10
82.17500133579306
 20
-134.115500183485
 30
0.0
 10
82.11574569344675
 20
-134.0455647451344
 30
0.0
 10
81.93797876640787
 20
-134.0455647451344
 30
0.0
 10
81.93797876640787
 20
-134.0455647451344
 30
0.0
 10
81.52973495140577
 20
-134.0455647451344
 30
0.0
 10
81.52973495140577
 20
-134.0455647451344
 30
0.0
 10
81.52973495140577
 20
-134.0455647451344
 30
0.0
 10
81.52973495140577
 20
-134.6866970149395
 30
0.0
 10
81.52973495140577
 20
-134.6866970149395
 30
0.0
 10
81.52973495140577
 20
-134.6866970149395
 30
0.0
 10
81.294951694086
 20
-134.6866970149395
 30
0.0
 10
81.294951694086
 20
-134.6866970149395
 30
0.0
 10
81.294951694086
 20
-134.6866970149395
 30
0.0
 10
81.294951694086
 20
-133.1422607089019
 30
0.0
 10
81.294951694086
 20
-133.1422607089019
 30
0.0
 10
81.294951694086
 20
-133.1422607089019
 30
0.0
 10
81.96984589964643
 20
-133.1422607089019
 30
0.0
 10
81.96984589964643
 20
-133.1422607089019
 30
0.0
 10
82.27645939783366
 20
-133.1422607089019
 30
0.0
 10
82.44354652886828
 20
-133.3138264640674
 30
0.0
 10
82.44354652886828
 20
-133.5697970586214
 30
0.0
 10
82.44354652886828
 20
-133.6204399622546
 30
0.0
 10
82.43510604492943
 20
-133.7031222539006
 30
0.0
 10
82.3906643131697
 20
-133.7833929787069
 30
0.0
 10
82.33158092559766
 20
-133.8870903528129
 30
0.0
 10
82.26595185660365
 20
-133.9060383779818
 30
0.0
 10
82.2046291569662
 20
-133.9229193458596
 30
0.0
 10
82.34208846682768
 20
-133.9652940203281
 30
0.0
 10
82.40978459311283
 20
-134.0138698666701
 30
0.0
 10
82.4140909624694
 20
-134.3290961035705
 30
0.0
 10
82.4182250770517
 20
-134.5998806087111
 30
0.0
 10
82.45422632487256
 20
-134.6315754871754
 30
0.0
 10
82.52192245115772
 20
-134.6866970149395
 30
0.0
 10
82.52192245115772
 20
-134.6866970149395
 30
0.0
 10
82.2258164942005
 20
-134.6866970149395
 30
0.0
 10
82.2258164942005
 20
-134.6866970149395
 30
0.0
  0
SPLINE
  5
82
330
79
100
AcDbEntity
  8
_U+30EC_U+30A4_U+30E4_U+30FC 1
370
     0
100
AcDbSpline
210
0.0
220
0.0
230
1.0
 70
    11
 71
     3
 72
    20
 73
    16
 74
     0
 42
0.0000000001
 43
0.0000000001
 12
1.0
 22
0.0
 32
0.0
 13
1.0
 23
0.0
 33
0.0
 40
0.0
 40
0.0
 40
0.0
 40
0.0
 40
1.0
 40
1.0
 40
1.0
 40
2.0
 40
2.0
 40
2.0
 40
3.0
 40
3.0
 40
3.0
 40
4.0
 40
4.0
 40
4.0
 40
5.0
 40
5.0
 40
5.0
 40
5.0
 10
81.97398001422873
 20
-133.3537895716963
 30
0.0
 10
81.97398001422873
 20
-133.3537895716963
 30
0.0
 10
81.52973495140577
 20
-133.3537895716963
 30
0.0
 10
81.52973495140577
 20
-133.3537895716963
 30
0.0
 10
81.52973495140577
 20
-133.3537895716963
 30
0.0
 10
81.52973495140577
 20
-133.8340358823401
 30
0.0
 10
81.52973495140577
 20
-133.8340358823401
 30
0.0
 10
81.52973495140577
 20
-133.8340358823401
 30
0.0
 10
81.97191295693759
 20
-133.8340358823401
 30
0.0
 10
81.97191295693759
 20
-133.8340358823401
 30
0.0
 10
82.07130396168704
 20
-133.8340358823401
 30
0.0
 10
82.20669621425736
 20
-133.7578992721161
 30
0.0
 10
82.20669621425736
 20
-133.5866780264992
 30
0.0
 10
82.20669621425736
 20
-133.508474358984
 30
0.0
 10
82.17276202372764
 20
-133.3537895716963
 30
0.0
 10
81.97398001422873
 20
-133.3537895716963
 30
0.0
  0
HATCH
  5
83
330
79
100
AcDbEntity
  8
_U+30EC_U+30A4_U+30E4_U+30FC 1
 62
   179
420
  2234388
100
AcDbHatch
 10
0.0
 20
0.0
 30
0.0
210
0.0
220
0.0
230
1.0
  2
SOLID
 70
     1
 71
     0
 91
        2
 92
        1
 93
        1
 72
     4
 94
        3
 73
     0
 74
     1
 95
       44
 96
       40
 40
0.0
 40
0.0
 40
0.0
 40
0.0
 40
1.0
 40
1.0
 40
1.0
 40
2.0
 40
2.0
 40
2.0
 40
3.0
 40
3.0
 40
3.0
 40
4.0
 40
4.0
 40
4.0
 40
5.0
 40
5.0
 40
5.0
 40
6.0
 40
6.0
 40
6.0
 40
7.0
 40
7.0
 40
7.0
 40
8.0
 40
8.0
 40
8.0
 40
9.0
 40
9.0
 40
9.0
 40
10.0
 40
10.0
 40
10.0
 40
11.0
 40
11.0
 40
11.0
 40
12.0
 40
12.0
 40
12.0
 40
13.0
 40
13.0
 40
13.0
 40
13.0
 10
82.2258164942005
 20
-134.6866970149395
 10
82.2023898449008
 20
-134.6422552831797
 10
82.18137476244077
 20
-134.5895453222554
 10
82.17913545037536
 20
-134.3587239247437
 10
82.17500133579306
 20
-134.115500183485
 10
82.11574569344675
 20
-134.0455647451344
 10
81.93797876640787
 20
-134.0455647451344
 10
81.93797876640787
 20
-134.0455647451344
 10
81.52973495140577
 20
-134.0455647451344
 10
81.52973495140577
 20
-134.0455647451344
 10
81.52973495140577
 20
-134.0455647451344
 10
81.52973495140577
 20
-134.6866970149395
 10
81.52973495140577
 20
-134.6866970149395
 10
81.52973495140577
 20
-134.6866970149395
 10
81.294951694086
 20
-134.6866970149395
 10
81.294951694086
 20
-134.6866970149395
 10
81.294951694086
 20
-134.6866970149395
 10
81.294951694086
 20
-133.1422607089019
 10
81.294951694086
 20
-133.1422607089019
 10
81.294951694086
 20
-133.1422607089019
 10
81.96984589964643
 20
-133.1422607089019
 10
81.96984589964643
 20
-133.1422607089019
 10
82.27645939783366
 20
-133.1422607089019
 10
82.44354652886828
 20
-133.3138264640674
 10
82.44354652886828
 20
-133.5697970586214
 10
82.44354652886828
 20
-133.6204399622546
 10
82.43510604492943
 20
-133.7031222539006
 10
82.3906643131697
 20
-133.7833929787069
 10
82.33158092559766
 20
-133.8870903528129
 10
82.26595185660365
 20
-133.9060383779818
 10
82.2046291569662
 20
-133.9229193458596
 10
82.34208846682768
 20
-133.9652940203281
 10
82.40978459311283
 20
-134.0138698666701
 10
82.4140909624694
 20
-134.3290961035705
 10
82.4182250770517
 20
-134.5998806087111
 10
82.45422632487256
 20
-134.6315754871754
 10
82.52192245115772
 20
-134.6866970149395
 10
82.52192245115772
 20
-134.6866970149395
 10
82.2258164942005
 20
-134.6866970149395
 10
82.2258164942005
 20
-134.6866970149395
 97
        0
 97
        0
 92
        1
 93
        1
 72
     4
 94
        3
 73
     0
 74
     1
 95
       20
 96
       16
 40
0.0
 40
0.0
 40
0.0
 40
0.0
 40
1.0
 40
1.0
 40
1.0
 40
2.0
 40
2.0
 40
2.0
 40
3.0
 40
3.0
 40
3.0
 40
4.0
 40
4.0
 40
4.0
 40
5.0
 40
5.0
 40
5.0
 40
5.0
 10
81.97398001422873
 20
-133.3537895716963
 10
81.97398001422873
 20
-133.3537895716963
 10
81.52973495140577
 20
-133.3537895716963
 10
81.52973495140577
 20
-133.3537895716963
 10
81.52973495140577
 20
-133.3537895716963
 10
81.52973495140577
 20
-133.8340358823401
 10
81.52973495140577
 20
-133.8340358823401
 10
81.52973495140577
 20
-133.8340358823401
 10
81.97191295693759
 20
-133.8340358823401
 10
81.97191295693759
 20
-133.8340358823401
 10
82.07130396168704
 20
-133.8340358823401
 10
82.20669621425736
 20
-133.7578992721161
 10
82.20669621425736
 20
-133.5866780264992
 10
82.20669621425736
 20
-133.508474358984
 10
82.17276202372764
 20
-133.3537895716963
 10
81.97398001422873
 20
-133.3537895716963
 97
        0
 97
        0
 75
     2
 76
     1
 98
        0
  0
ENDBLK
  5
7C
330
79
100
AcDbEntity
  8
0
100
AcDbBlockEnd
  0
BLOCK
  5
AA
330
A8
100
AcDbEntity
  8
0
100
AcDbBlockBegin
  2
block 3
 70
     0
 10
0.0
 20
0.0
 30
0.0
  3
block 3
  1

  0
SPLINE
  5
AC
330
A8
100
AcDbEntity
  8
_U+30EC_U+30A4_U+30E4_U+30FC 1
370
     0
100
AcDbSpline
210
0.0
220
0.0
230
1.0
 70
    11
 71
     3
 72
    26
 73
    22
 74
     0
 42
0.0000000001
 43
0.0000000001
 12
1.0
 22
0.0
 32
0.0
 13
1.0
 23
0.0
 33
0.0
 40
0.0
 40
0.0
 40
0.0
 40
0.0
 40
1.0
 40
1.0
 40
1.0
 40
2.0
 40
2.0
 40
2.0
 40
3.0
 40
3.0
 40
3.0
 40
4.0
 40
4.0
 40
4.0
 40
5.0
 40
5.0
 40
5.0
 40
6.0
 40
6.0
 40
6.0
 40
7.0
 40
7.0
 40
7.0
 40
7.0
 10
100.2226507995971
 20
-148.9170084263124
 30
0.0
 10
100.2226507995971
 20
-148.9170084263124
 30
0.0
 10
100.2226507995971
 20
-147.8128553232899
 30
0.0
 10
100.2226507995971
 20
-147.8128553232899
 30
0.0
 10
100.2226507995971
 20
-147.8128553232899
 30
0.0
 10
99.89261065211018
 20
-147.8128553232899
 30
0.0
 10
99.89261065211018
 20
-147.8128553232899
 30
0.0
 10
99.89261065211018
 20
-147.8128553232899
 30
0.0
 10
99.89261065211018
 20
-147.6647162174241
 30
0.0
 10
99.89261065211018
 20
-147.6647162174241
 30
0.0
 10
100.2247178568883
 20
-147.6499023068375
 30
0.0
 10
100.2712266459391
 20
-147.4869492903852
 30
0.0
 10
100.3008544671123
 20
-147.3725721202749
 30
0.0
 10
100.3008544671123
 20
-147.3725721202749
 30
0.0
 10
100.4469265156869
 20
-147.3725721202749
 30
0.0
 10
100.4469265156869
 20
-147.3725721202749
 30
0.0
 10
100.4469265156869
 20
-147.3725721202749
 30
0.0
 10
100.4469265156869
 20
-148.9170084263124
 30
0.0
 10
100.4469265156869
 20
-148.9170084263124
 30
0.0
 10
100.4469265156869
 20
-148.9170084263124
 30
0.0
 10
100.2226507995971
 20
-148.9170084263124
 30
0.0
 10
100.2226507995971
 20
-148.9170084263124
 30
0.0
  0
HATCH
  5
AD
330
A8
100
AcDbEntity
  8
_U+30EC_U+30A4_U+30E4_U+30FC 1
 62
   179
420
  2234388
100
AcDbHatch
 10
0.0
 20
0.0
 30
0.0
210
0.0
220
0.0
230
1.0
  2
SOLID
 70
     1
 71
     0
 91
        1
 92
        1
 93
        1
 72
     4
 94
        3
 73
     0
 74
     1
 95
       26
 96
       22
 40
0.0
 40
0.0
 40
0.0
 40
0.0
 40
1.0
 40
1.0
 40
1.0
 40
2.0
 40
2.0
 40
2.0
 40
3.0
 40
3.0
 40
3.0
 40
4.0
 40
4.0
 40
4.0
 40
5.0
 40
5.0
 40
5.0
 40
6.0
 40
6.0
 40
6.0
 40
7.0
 40
7.0
 40
7.0
 40
7.0
 10
100.2226507995971
 20
-148.9170084263124
 10
100.2226507995971
 20
-148.9170084263124
 10
100.2226507995971
 20
-147.8128553232899
 10
100.2226507995971
 20
-147.8128553232899
 10
100.2226507995971
 20
-147.8128553232899
 10
99.89261065211018
 20
-147.8128553232899
 10
99.89261065211018
 20
-147.8128553232899
 10
99.89261065211018
 20
-147.8128553232899
 10
99.89261065211018
 20
-147.6647162174241
 10
99.89261065211018
 20
-147.6647162174241
 10
100.2247178568883
 20
-147.6499023068375
 10
100.2712266459391
 20
-147.4869492903852
 10
100.3008544671123
 20
-147.3725721202749
 10
100.3008544671123
 20
-147.3725721202749
 10
100.4469265156869
 20
-147.3725721202749
 10
100.4469265156869
 20
-147.3725721202749
 10
100.4469265156869
 20
-147.3725721202749
 10
100.4469265156869
 20
-148.9170084263124
 10
100.4469265156869
 20
-148.9170084263124
 10
100.4469265156869
 20
-148.9170084263124
 10
100.2226507995971
 20
-148.9170084263124
 10
100.2226507995971
 20
-148.9170084263124
 97
        0
 97
        0
 75
     2
 76
     1
 98
        0
  0
SPLINE
  5
AE
330
A8
100
AcDbEntity
  8
_U+30EC_U+30A4_U+30E4_U+30FC 1
370
     0
100
AcDbSpline
210
0.0
220
0.0
230
1.0
 70
    11
 71
     3
 72
    53
 73
    49
 74
     0
 42
0.0000000001
 43
0.0000000001
 12
1.0
 22
0.0
 32
0.0
 13
1.0
 23
0.0
 33
0.0
 40
0.0
 40
0.0
 40
0.0
 40
0.0
 40
1.0
 40
1.0
 40
1.0
 40
2.0
 40
2.0
 40
2.0
 40
3.0
 40
3.0
 40
3.0
 40
4.0
 40
4.0
 40
4.0
 40
5.0
 40
5.0
 40
5.0
 40
6.0
 40
6.0
 40
6.0
 40
7.0
 40
7.0
 40
7.0
 40
8.0
 40
8.0
 40
8.0
 40
9.0
 40
9.0
 40
9.0
 40
10.0
 40
10.0
 40
10.0
 40
11.0
 40
11.0
 40
11.0
 40
12.0
 40
12.0
 40
12.0
 40
13.0
 40
13.0
 40
13.0
 40
14.0
 40
14.0
 40
14.0
 40
15.0
 40
15.0
 40
15.0
 40
16.0
 40
16.0
 40
16.0
 40
16.0
 10
101.4291232385316
 20
-148.9676513299456
 30
0.0
 10
101.3509195710164
 20
-148.9676513299456
 30
0.0
 10
101.2492892542016
 20
-148.9507703620679
 30
0.0
 10
101.1476589373867
 20
-148.8873806051393
 30
0.0
 10
100.9743706344786
 20
-148.7774820591598
 30
0.0
 10
100.9530110424701
 20
-148.6462239211718
 30
0.0
 10
100.9340630173012
 20
-148.5383924324835
 30
0.0
 10
100.9340630173012
 20
-148.5383924324835
 30
0.0
 10
101.1562716760998
 20
-148.5383924324835
 30
0.0
 10
101.1562716760998
 20
-148.5383924324835
 30
0.0
 10
101.2110486943153
 20
-148.7371744419824
 30
0.0
 10
101.338172717721
 20
-148.7668022631555
 30
0.0
 10
101.4311902958228
 20
-148.7668022631555
 30
0.0
 10
101.5707166629754
 20
-148.7668022631555
 30
0.0
 10
101.7229898834234
 20
-148.6672390036318
 30
0.0
 10
101.7229898834234
 20
-148.4346950583775
 30
0.0
 10
101.7229898834234
 20
-148.1787244638234
 30
0.0
 10
101.5431558990934
 20
-148.1087890254728
 30
0.0
 10
101.4225775571096
 20
-148.1087890254728
 30
0.0
 10
101.3908826786453
 20
-148.1087890254728
 30
0.0
 10
101.2492892542016
 20
-148.1087890254728
 30
0.0
 10
101.1604057906821
 20
-148.2379801061697
 30
0.0
 10
101.1604057906821
 20
-148.2379801061697
 30
0.0
 10
100.9847059209344
 20
-148.2190320810008
 30
0.0
 10
100.9847059209344
 20
-148.2190320810008
 30
0.0
 10
100.9847059209344
 20
-148.2190320810008
 30
0.0
 10
101.1052842629181
 20
-147.3725721202749
 30
0.0
 10
101.1052842629181
 20
-147.3725721202749
 30
0.0
 10
101.1052842629181
 20
-147.3725721202749
 30
0.0
 10
101.8838758425846
 20
-147.3725721202749
 30
0.0
 10
101.8838758425846
 20
-147.3725721202749
 30
0.0
 10
101.8838758425846
 20
-147.3725721202749
 30
0.0
 10
101.8838758425846
 20
-147.5672200151915
 30
0.0
 10
101.8838758425846
 20
-147.5672200151915
 30
0.0
 10
101.8838758425846
 20
-147.5672200151915
 30
0.0
 10
101.2682372793704
 20
-147.5672200151915
 30
0.0
 10
101.2682372793704
 20
-147.5672200151915
 30
0.0
 10
101.2682372793704
 20
-147.5672200151915
 30
0.0
 10
101.2027804651507
 20
-147.9902777407802
 30
0.0
 10
101.2027804651507
 20
-147.9902777407802
 30
0.0
 10
101.2641031647881
 20
-147.9565158050248
 30
0.0
 10
101.3464409468856
 20
-147.9162081878473
 30
0.0
 10
101.4649522315782
 20
-147.9162081878473
 30
0.0
 10
101.7188557688411
 20
-147.9162081878473
 30
0.0
 10
101.9558783382263
 20
-148.1025878535993
 30
0.0
 10
101.9558783382263
 20
-148.4157470332086
 30
0.0
 10
101.9558783382263
 20
-148.7330403274001
 30
0.0
 10
101.7316026221365
 20
-148.9676513299456
 30
0.0
 10
101.4291232385316
 20
-148.9676513299456
 30
0.0
  0
HATCH
  5
AF
330
A8
100
AcDbEntity
  8
_U+30EC_U+30A4_U+30E4_U+30FC 1
 62
   179
420
  2234388
100
AcDbHatch
 10
0.0
 20
0.0
 30
0.0
210
0.0
220
0.0
230
1.0
  2
SOLID
 70
     1
 71
     0
 91
        1
 92
        1
 93
        1
 72
     4
 94
        3
 73
     0
 74
     1
 95
       53
 96
       49
 40
0.0
 40
0.0
 40
0.0
 40
0.0
 40
1.0
 40
1.0
 40
1.0
 40
2.0
 40
2.0
 40
2.0
 40
3.0
 40
3.0
 40
3.0
 40
4.0
 40
4.0
 40
4.0
 40
5.0
 40
5.0
 40
5.0
 40
6.0
 40
6.0
 40
6.0
 40
7.0
 40
7.0
 40
7.0
 40
8.0
 40
8.0
 40
8.0
 40
9.0
 40
9.0
 40
9.0
 40
10.0
 40
10.0
 40
10.0
 40
11.0
 40
11.0
 40
11.0
 40
12.0
 40
12.0
 40
12.0
 40
13.0
 40
13.0
 40
13.0
 40
14.0
 40
14.0
 40
14.0
 40
15.0
 40
15.0
 40
15.0
 40
16.0
 40
16.0
 40
16.0
 40
16.0
 10
101.4291232385316
 20
-148.9676513299456
 10
101.3509195710164
 20
-148.9676513299456
 10
101.2492892542016
 20
-148.9507703620679
 10
101.1476589373867
 20
-148.8873806051393
 10
100.9743706344786
 20
-148.7774820591598
 10
100.9530110424701
 20
-148.6462239211718
 10
100.9340630173012
 20
-148.5383924324835
 10
100.9340630173012
 20
-148.5383924324835
 10
101.1562716760998
 20
-148.5383924324835
 10
101.1562716760998
 20
-148.5383924324835
 10
101.2110486943153
 20
-148.7371744419824
 10
101.338172717721
 20
-148.7668022631555
 10
101.4311902958228
 20
-148.7668022631555
 10
101.5707166629754
 20
-148.7668022631555
 10
101.7229898834234
 20
-148.6672390036318
 10
101.7229898834234
 20
-148.4346950583775
 10
101.7229898834234
 20
-148.1787244638234
 10
101.5431558990934
 20
-148.1087890254728
 10
101.4225775571096
 20
-148.1087890254728
 10
101.3908826786453
 20
-148.1087890254728
 10
101.2492892542016
 20
-148.1087890254728
 10
101.1604057906821
 20
-148.2379801061697
 10
101.1604057906821
 20
-148.2379801061697
 10
100.9847059209344
 20
-148.2190320810008
 10
100.9847059209344
 20
-148.2190320810008
 10
100.9847059209344
 20
-148.2190320810008
 10
101.1052842629181
 20
-147.3725721202749
 10
101.1052842629181
 20
-147.3725721202749
 10
101.1052842629181
 20
-147.3725721202749
 10
101.8838758425846
 20
-147.3725721202749
 10
101.8838758425846
 20
-147.3725721202749
 10
101.8838758425846
 20
-147.3725721202749
 10
101.8838758425846
 20
-147.5672200151915
 10
101.8838758425846
 20
-147.5672200151915
 10
101.8838758425846
 20
-147.5672200151915
 10
101.2682372793704
 20
-147.5672200151915
 10
101.2682372793704
 20
-147.5672200151915
 10
101.2682372793704
 20
-147.5672200151915
 10
101.2027804651507
 20
-147.9902777407802
 10
101.2027804651507
 20
-147.9902777407802
 10
101.2641031647881
 20
-147.9565158050248
 10
101.3464409468856
 20
-147.9162081878473
 10
101.4649522315782
 20
-147.9162081878473
 10
101.7188557688411
 20
-147.9162081878473
 10
101.9558783382263
 20
-148.1025878535993
 10
101.9558783382263
 20
-148.4157470332086
 10
101.9558783382263
 20
-148.7330403274001
 10
101.7316026221365
 20
-148.9676513299456
 10
101.4291232385316
 20
-148.9676513299456
 97
        0
 97
        0
 75
     2
 76
     1
 98
        0
  0
ENDBLK
  5
AB
330
A8
100
AcDbEntity
  8
0
100
AcDbBlockEnd
  0
BLOCK
  5
B2
330
B0
100
AcDbEntity
  8
0
100
AcDbBlockBegin
  2
block 4
 70
     0
 10
0.0
 20
0.0
 30
0.0
  3
block 4
  1

  0
SPLINE
  5
B4
330
B0
100
AcDbEntity
  8
_U+30EC_U+30A4_U+30E4_U+30FC 1
370
     0
100
AcDbSpline
210
0.0
220
0.0
230
1.0
 70
    11
 71
     3
 72
    32
 73
    28
 74
     0
 42
0.0000000001
 43
0.0000000001
 12
1.0
 22
0.0
 32
0.0
 13
1.0
 23
0.0
 33
0.0
 40
0.0
 40
0.0
 40
0.0
 40
0.0
 40
1.0
 40
1.0
 40
1.0
 40
2.0
 40
2.0
 40
2.0
 40
3.0
 40
3.0
 40
3.0
 40
4.0
 40
4.0
 40
4.0
 40
5.0
 40
5.0
 40
5.0
 40
6.0
 40
6.0
 40
6.0
 40
7.0
 40
7.0
 40
7.0
 40
8.0
 40
8.0
 40
8.0
 40
9.0
 40
9.0
 40
9.0
 40
9.0
 10
71.36463621262759
 20
-114.4912027708564
 30
0.0
 10
70.8483886541629
 20
-114.4912027708564
 30
0.0
 10
70.83994817022405
 20
-113.9372314168282
 30
0.0
 10
70.83994817022405
 20
-113.7232909871942
 30
0.0
 10
70.83994817022405
 20
-113.492814099231
 30
0.0
 10
70.85906845016719
 20
-112.8454806575525
 30
0.0
 10
71.40270451773961
 20
-112.8454806575525
 30
0.0
 10
71.57616507542194
 20
-112.8454806575525
 30
0.0
 10
71.82162812874599
 20
-112.9154160959031
 30
0.0
 10
71.85969643385799
 20
-113.2475233006812
 30
0.0
 10
71.85969643385799
 20
-113.2475233006812
 30
0.0
 10
71.64592825899824
 20
-113.2475233006812
 30
0.0
 10
71.64592825899824
 20
-113.2475233006812
 30
0.0
 10
71.63542071776823
 20
-113.190334715626
 30
0.0
 10
71.60372583930393
 20
-113.0421956097603
 30
0.0
 10
71.40063746044845
 20
-113.0421956097603
 30
0.0
 10
71.10866561807353
 20
-113.0421956097603
 30
0.0
 10
71.06835800089611
 20
-113.3701686999561
 30
0.0
 10
71.05578340237494
 20
-113.5751518813284
 30
0.0
 10
71.1488009804767
 20
-113.4969482138133
 30
0.0
 10
71.21649710676185
 20
-113.437692571467
 30
0.0
 10
71.39839814838304
 20
-113.437692571467
 30
0.0
 10
71.57823213271308
 20
-113.437692571467
 30
0.0
 10
71.88071151631802
 20
-113.5458685697038
 30
0.0
 10
71.88071151631802
 20
-113.9520453274148
 30
0.0
 10
71.88071151631802
 20
-114.2714056788974
 30
0.0
 10
71.6819295068191
 20
-114.4912027708564
 30
0.0
 10
71.36463621262759
 20
-114.4912027708564
 30
0.0
  0
SPLINE
  5
B5
330
B0
100
AcDbEntity
  8
_U+30EC_U+30A4_U+30E4_U+30FC 1
370
     0
100
AcDbSpline
210
0.0
220
0.0
230
1.0
 70
    11
 71
     3
 72
    17
 73
    13
 74
     0
 42
0.0000000001
 43
0.0000000001
 12
1.0
 22
0.0
 32
0.0
 13
1.0
 23
0.0
 33
0.0
 40
0.0
 40
0.0
 40
0.0
 40
0.0
 40
1.0
 40
1.0
 40
1.0
 40
2.0
 40
2.0
 40
2.0
 40
3.0
 40
3.0
 40
3.0
 40
4.0
 40
4.0
 40
4.0
 40
4.0
 10
71.38151718050531
 20
-113.6323404663836
 30
0.0
 10
71.11917315930354
 20
-113.6323404663836
 30
0.0
 10
71.08110485419154
 20
-113.8438693291779
 30
0.0
 10
71.08110485419154
 20
-113.9603135565794
 30
0.0
 10
71.08110485419154
 20
-114.1360134263271
 30
0.0
 10
71.17636174435869
 20
-114.2989664427794
 30
0.0
 10
71.36032984327103
 20
-114.2989664427794
 30
0.0
 10
71.48090818525478
 20
-114.2989664427794
 30
0.0
 10
71.65660805500252
 20
-114.2397108004331
 30
0.0
 10
71.65660805500252
 20
-113.9541123847059
 30
0.0
 10
71.65660805500252
 20
-113.7298366686162
 30
0.0
 10
71.51690943307564
 20
-113.6323404663836
 30
0.0
 10
71.38151718050531
 20
-113.6323404663836
 30
0.0
  0
HATCH
  5
B6
330
B0
100
AcDbEntity
  8
_U+30EC_U+30A4_U+30E4_U+30FC 1
 62
   179
420
  2234388
100
AcDbHatch
 10
0.0
 20
0.0
 30
0.0
210
0.0
220
0.0
230
1.0
  2
SOLID
 70
     1
 71
     0
 91
        2
 92
        1
 93
        1
 72
     4
 94
        3
 73
     0
 74
     1
 95
       32
 96
       28
 40
0.0
 40
0.0
 40
0.0
 40
0.0
 40
1.0
 40
1.0
 40
1.0
 40
2.0
 40
2.0
 40
2.0
 40
3.0
 40
3.0
 40
3.0
 40
4.0
 40
4.0
 40
4.0
 40
5.0
 40
5.0
 40
5.0
 40
6.0
 40
6.0
 40
6.0
 40
7.0
 40
7.0
 40
7.0
 40
8.0
 40
8.0
 40
8.0
 40
9.0
 40
9.0
 40
9.0
 40
9.0
 10
71.36463621262759
 20
-114.4912027708564
 10
70.8483886541629
 20
-114.4912027708564
 10
70.83994817022405
 20
-113.9372314168282
 10
70.83994817022405
 20
-113.7232909871942
 10
70.83994817022405
 20
-113.492814099231
 10
70.85906845016719
 20
-112.8454806575525
 10
71.40270451773961
 20
-112.8454806575525
 10
71.57616507542194
 20
-112.8454806575525
 10
71.82162812874599
 20
-112.9154160959031
 10
71.85969643385799
 20
-113.2475233006812
 10
71.85969643385799
 20
-113.2475233006812
 10
71.64592825899824
 20
-113.2475233006812
 10
71.64592825899824
 20
-113.2475233006812
 10
71.63542071776823
 20
-113.190334715626
 10
71.60372583930393
 20
-113.0421956097603
 10
71.40063746044845
 20
-113.0421956097603
 10
71.10866561807353
 20
-113.0421956097603
 10
71.06835800089611
 20
-113.3701686999561
 10
71.05578340237494
 20
-113.5751518813284
 10
71.1488009804767
 20
-113.4969482138133
 10
71.21649710676185
 20
-113.437692571467
 10
71.39839814838304
 20
-113.437692571467
 10
71.57823213271308
 20
-113.437692571467
 10
71.88071151631802
 20
-113.5458685697038
 10
71.88071151631802
 20
-113.9520453274148
 10
71.88071151631802
 20
-114.2714056788974
 10
71.6819295068191
 20
-114.4912027708564
 10
71.36463621262759
 20
-114.4912027708564
 97
        0
 97
        0
 92
        1
 93
        1
 72
     4
 94
        3
 73
     0
 74
     1
 95
       17
 96
       13
 40
0.0
 40
0.0
 40
0.0
 40
0.0
 40
1.0
 40
1.0
 40
1.0
 40
2.0
 40
2.0
 40
2.0
 40
3.0
 40
3.0
 40
3.0
 40
4.0
 40
4.0
 40
4.0
 40
4.0
 10
71.38151718050531
 20
-113.6323404663836
 10
71.11917315930354
 20
-113.6323404663836
 10
71.08110485419154
 20
-113.8438693291779
 10
71.08110485419154
 20
-113.9603135565794
 10
71.08110485419154
 20
-114.1360134263271
 10
71.17636174435869
 20
-114.2989664427794
 10
71.36032984327103
 20
-114.2989664427794
 10
71.48090818525478
 20
-114.2989664427794
 10
71.65660805500252
 20
-114.2397108004331
 10
71.65660805500252
 20
-113.9541123847059
 10
71.65660805500252
 20
-113.7298366686162
 10
71.51690943307564
 20
-113.6323404663836
 10
71.38151718050531
 20
-113.6323404663836
 97
        0
 97
        0
 75
     2
 76
     1
 98
        0
  0
ENDBLK
  5
B3
330
B0
100
AcDbEntity
  8
0
100
AcDbBlockEnd
  0
BLOCK
  5
B9
330
B7
100
AcDbEntity
  8
0
100
AcDbBlockBegin
  2
block 5
 70
     0
 10
0.0
 20
0.0
 30
0.0
  3
block 5
  1

  0
SPLINE
  5
BB
330
B7
100
AcDbEntity
  8
_U+30EC_U+30A4_U+30E4_U+30FC 1
370
     0
100
AcDbSpline
210
0.0
220
0.0
230
1.0
 70
    11
 71
     3
 72
    32
 73
    28
 74
     0
 42
0.0000000001
 43
0.0000000001
 12
1.0
 22
0.0
 32
0.0
 13
1.0
 23
0.0
 33
0.0
 40
0.0
 40
0.0
 40
0.0
 40
0.0
 40
1.0
 40
1.0
 40
1.0
 40
2.0
 40
2.0
 40
2.0
 40
3.0
 40
3.0
 40
3.0
 40
4.0
 40
4.0
 40
4.0
 40
5.0
 40
5.0
 40
5.0
 40
6.0
 40
6.0
 40
6.0
 40
7.0
 40
7.0
 40
7.0
 40
8.0
 40
8.0
 40
8.0
 40
9.0
 40
9.0
 40
9.0
 40
9.0
 10
112.1399251021734
 20
-142.4560763532749
 30
0.0
 10
112.1399251021734
 20
-142.9721516569653
 30
0.0
 10
111.5859537481452
 20
-142.9804198861299
 30
0.0
 10
111.3720133185112
 20
-142.9804198861299
 30
0.0
 10
111.141536430548
 20
-142.9804198861299
 30
0.0
 10
110.4942029888695
 20
-142.961471860961
 30
0.0
 10
110.4942029888695
 20
-142.4178357933886
 30
0.0
 10
110.4942029888695
 20
-142.2445474904805
 30
0.0
 10
110.5641384272201
 20
-141.9989121823822
 30
0.0
 10
110.8962456319982
 20
-141.9606716224959
 30
0.0
 10
110.8962456319982
 20
-141.9606716224959
 30
0.0
 10
110.8962456319982
 20
-142.17461205213
 30
0.0
 10
110.8962456319982
 20
-142.17461205213
 30
0.0
 10
110.839057046943
 20
-142.1852918481342
 30
0.0
 10
110.6909179410773
 20
-142.2169867265985
 30
0.0
 10
110.6909179410773
 20
-142.4199028506798
 30
0.0
 10
110.6909179410773
 20
-142.7117024382804
 30
0.0
 10
111.0188910312731
 20
-142.7523545650064
 30
0.0
 10
111.2238742126454
 20
-142.7647569087533
 30
0.0
 10
111.1456705451303
 20
-142.6717393306515
 30
0.0
 10
111.086414902784
 20
-142.6042154591406
 30
0.0
 10
111.086414902784
 20
-142.4223144175194
 30
0.0
 10
111.086414902784
 20
-142.2424804331894
 30
0.0
 10
111.1945909010208
 20
-141.9400010495845
 30
0.0
 10
111.6007676587318
 20
-141.9400010495845
 30
0.0
 10
111.9201280102144
 20
-141.9400010495845
 30
0.0
 10
112.1399251021734
 20
-142.1384385495348
 30
0.0
 10
112.1399251021734
 20
-142.4560763532749
 30
0.0
  0
SPLINE
  5
BC
330
B7
100
AcDbEntity
  8
_U+30EC_U+30A4_U+30E4_U+30FC 1
370
     0
100
AcDbSpline
210
0.0
220
0.0
230
1.0
 70
    11
 71
     3
 72
    17
 73
    13
 74
     0
 42
0.0000000001
 43
0.0000000001
 12
1.0
 22
0.0
 32
0.0
 13
1.0
 23
0.0
 33
0.0
 40
0.0
 40
0.0
 40
0.0
 40
0.0
 40
1.0
 40
1.0
 40
1.0
 40
2.0
 40
2.0
 40
2.0
 40
3.0
 40
3.0
 40
3.0
 40
4.0
 40
4.0
 40
4.0
 40
4.0
 10
111.2810627977006
 20
-142.4388508758486
 30
0.0
 10
111.2810627977006
 20
-142.7013671518247
 30
0.0
 10
111.4925916604949
 20
-142.7392632021624
 30
0.0
 10
111.6090358878964
 20
-142.7392632021624
 30
0.0
 10
111.7847357576441
 20
-142.7392632021624
 30
0.0
 10
111.9476887740964
 20
-142.6441785667695
 30
0.0
 10
111.9476887740964
 20
-142.4602104678572
 30
0.0
 10
111.9476887740964
 20
-142.3396321258734
 30
0.0
 10
111.8884331317501
 20
-142.1639322561257
 30
0.0
 10
111.6028347160229
 20
-142.1639322561257
 30
0.0
 10
111.3785589999331
 20
-142.1639322561257
 30
0.0
 10
111.2810627977006
 20
-142.3038031328268
 30
0.0
 10
111.2810627977006
 20
-142.4388508758486
 30
0.0
  0
HATCH
  5
BD
330
B7
100
AcDbEntity
  8
_U+30EC_U+30A4_U+30E4_U+30FC 1
 62
   179
420
  2234388
100
AcDbHatch
 10
0.0
 20
0.0
 30
0.0
210
0.0
220
0.0
230
1.0
  2
SOLID
 70
     1
 71
     0
 91
        2
 92
        1
 93
        1
 72
     4
 94
        3
 73
     0
 74
     1
 95
       32
 96
       28
 40
0.0
 40
0.0
 40
0.0
 40
0.0
 40
1.0
 40
1.0
 40
1.0
 40
2.0
 40
2.0
 40
2.0
 40
3.0
 40
3.0
 40
3.0
 40
4.0
 40
4.0
 40
4.0
 40
5.0
 40
5.0
 40
5.0
 40
6.0
 40
6.0
 40
6.0
 40
7.0
 40
7.0
 40
7.0
 40
8.0
 40
8.0
 40
8.0
 40
9.0
 40
9.0
 40
9.0
 40
9.0
 10
112.1399251021734
 20
-142.4560763532749
 10
112.1399251021734
 20
-142.9721516569653
 10
111.5859537481452
 20
-142.9804198861299
 10
111.3720133185112
 20
-142.9804198861299
 10
111.141536430548
 20
-142.9804198861299
 10
110.4942029888695
 20
-142.961471860961
 10
110.4942029888695
 20
-142.4178357933886
 10
110.4942029888695
 20
-142.2445474904805
 10
110.5641384272201
 20
-141.9989121823822
 10
110.8962456319982
 20
-141.9606716224959
 10
110.8962456319982
 20
-141.9606716224959
 10
110.8962456319982
 20
-142.17461205213
 10
110.8962456319982
 20
-142.17461205213
 10
110.839057046943
 20
-142.1852918481342
 10
110.6909179410773
 20
-142.2169867265985
 10
110.6909179410773
 20
-142.4199028506798
 10
110.6909179410773
 20
-142.7117024382804
 10
111.0188910312731
 20
-142.7523545650064
 10
111.2238742126454
 20
-142.7647569087533
 10
111.1456705451303
 20
-142.6717393306515
 10
111.086414902784
 20
-142.6042154591406
 10
111.086414902784
 20
-142.4223144175194
 10
111.086414902784
 20
-142.2424804331894
 10
111.1945909010208
 20
-141.9400010495845
 10
111.6007676587318
 20
-141.9400010495845
 10
111.9201280102144
 20
-141.9400010495845
 10
112.1399251021734
 20
-142.1384385495348
 10
112.1399251021734
 20
-142.4560763532749
 97
        0
 97
        0
 92
        1
 93
        1
 72
     4
 94
        3
 73
     0
 74
     1
 95
       17
 96
       13
 40
0.0
 40
0.0
 40
0.0
 40
0.0
 40
1.0
 40
1.0
 40
1.0
 40
2.0
 40
2.0
 40
2.0
 40
3.0
 40
3.0
 40
3.0
 40
4.0
 40
4.0
 40
4.0
 40
4.0
 10
111.2810627977006
 20
-142.4388508758486
 10
111.2810627977006
 20
-142.7013671518247
 10
111.4925916604949
 20
-142.7392632021624
 10
111.6090358878964
 20
-142.7392632021624
 10
111.7847357576441
 20
-142.7392632021624
 10
111.9476887740964
 20
-142.6441785667695
 10
111.9476887740964
 20
-142.4602104678572
 10
111.9476887740964
 20
-142.3396321258734
 10
111.8884331317501
 20
-142.1639322561257
 10
111.6028347160229
 20
-142.1639322561257
 10
111.3785589999331
 20
-142.1639322561257
 10
111.2810627977006
 20
-142.3038031328268
 10
111.2810627977006
 20
-142.4388508758486
 97
        0
 97
        0
 75
     2
 76
     1
 98
        0
  0
ENDBLK
  5
BA
330
B7
100
AcDbEntity
  8
0
100
AcDbBlockEnd
  0
BLOCK
  5
C0
330
BE
100
AcDbEntity
  8
0
100
AcDbBlockBegin
  2
block 6
 70
     0
 10
0.0
 20
0.0
 30
0.0
  3
block 6
  1

  0
SPLINE
  5
C2
330
BE
100
AcDbEntity
  8
_U+30EC_U+30A4_U+30E4_U+30FC 1
370
     0
100
AcDbSpline
210
0.0
220
0.0
230
1.0
 70
    11
 71
     3
 72
    26
 73
    22
 74
     0
 42
0.0000000001
 43
0.0000000001
 12
1.0
 22
0.0
 32
0.0
 13
1.0
 23
0.0
 33
0.0
 40
0.0
 40
0.0
 40
0.0
 40
0.0
 40
1.0
 40
1.0
 40
1.0
 40
2.0
 40
2.0
 40
2.0
 40
3.0
 40
3.0
 40
3.0
 40
4.0
 40
4.0
 40
4.0
 40
5.0
 40
5.0
 40
5.0
 40
6.0
 40
6.0
 40
6.0
 40
7.0
 40
7.0
 40
7.0
 40
7.0
 10
112.0892821985402
 20
-137.1699218407075
 30
0.0
 10
112.0892821985402
 20
-137.1699218407075
 30
0.0
 10
110.9851290955176
 20
-137.1699218407075
 30
0.0
 10
110.9851290955176
 20
-137.1699218407075
 30
0.0
 10
110.9851290955176
 20
-137.1699218407075
 30
0.0
 10
110.9851290955176
 20
-137.4999619881945
 30
0.0
 10
110.9851290955176
 20
-137.4999619881945
 30
0.0
 10
110.9851290955176
 20
-137.4999619881945
 30
0.0
 10
110.8369899896519
 20
-137.4999619881945
 30
0.0
 10
110.8369899896519
 20
-137.4999619881945
 30
0.0
 10
110.8221760790653
 20
-137.1678547834164
 30
0.0
 10
110.659223062613
 20
-137.1213459943655
 30
0.0
 10
110.5448458925027
 20
-137.0917181731924
 30
0.0
 10
110.5448458925027
 20
-137.0917181731924
 30
0.0
 10
110.5448458925027
 20
-136.9456461246178
 30
0.0
 10
110.5448458925027
 20
-136.9456461246178
 30
0.0
 10
110.5448458925027
 20
-136.9456461246178
 30
0.0
 10
112.0892821985402
 20
-136.9456461246178
 30
0.0
 10
112.0892821985402
 20
-136.9456461246178
 30
0.0
 10
112.0892821985402
 20
-136.9456461246178
 30
0.0
 10
112.0892821985402
 20
-137.1699218407075
 30
0.0
 10
112.0892821985402
 20
-137.1699218407075
 30
0.0
  0
HATCH
  5
C3
330
BE
100
AcDbEntity
  8
_U+30EC_U+30A4_U+30E4_U+30FC 1
 62
   179
420
  2234388
100
AcDbHatch
 10
0.0
 20
0.0
 30
0.0
210
0.0
220
0.0
230
1.0
  2
SOLID
 70
     1
 71
     0
 91
        1
 92
        1
 93
        1
 72
     4
 94
        3
 73
     0
 74
     1
 95
       26
 96
       22
 40
0.0
 40
0.0
 40
0.0
 40
0.0
 40
1.0
 40
1.0
 40
1.0
 40
2.0
 40
2.0
 40
2.0
 40
3.0
 40
3.0
 40
3.0
 40
4.0
 40
4.0
 40
4.0
 40
5.0
 40
5.0
 40
5.0
 40
6.0
 40
6.0
 40
6.0
 40
7.0
 40
7.0
 40
7.0
 40
7.0
 10
112.0892821985402
 20
-137.1699218407075
 10
112.0892821985402
 20
-137.1699218407075
 10
110.9851290955176
 20
-137.1699218407075
 10
110.9851290955176
 20
-137.1699218407075
 10
110.9851290955176
 20
-137.1699218407075
 10
110.9851290955176
 20
-137.4999619881945
 10
110.9851290955176
 20
-137.4999619881945
 10
110.9851290955176
 20
-137.4999619881945
 10
110.8369899896519
 20
-137.4999619881945
 10
110.8369899896519
 20
-137.4999619881945
 10
110.8221760790653
 20
-137.1678547834164
 10
110.659223062613
 20
-137.1213459943655
 10
110.5448458925027
 20
-137.0917181731924
 10
110.5448458925027
 20
-137.0917181731924
 10
110.5448458925027
 20
-136.9456461246178
 10
110.5448458925027
 20
-136.9456461246178
 10
110.5448458925027
 20
-136.9456461246178
 10
112.0892821985402
 20
-136.9456461246178
 10
112.0892821985402
 20
-136.9456461246178
 10
112.0892821985402
 20
-136.9456461246178
 10
112.0892821985402
 20
-137.1699218407075
 10
112.0892821985402
 20
-137.1699218407075
 97
        0
 97
        0
 75
     2
 76
     1
 98
        0
  0
ENDBLK
  5
C1
330
BE
100
AcDbEntity
  8
0
100
AcDbBlockEnd
  0
ENDSEC
  0
SECTION
  2
ENTITIES
  0
POLYLINE
  5
41
330
1F
100
AcDbEntity
  8
_U+30EC_U+30A4_U+30E4_U+30FC 1
 62
   179
420
  2234388
370
     9
100
AcDb2dPolyline
 66
     1
 10
0.0
 20
0.0
 30
0.0
  0
VERTEX
  5
42
330
41
100
AcDbEntity
  8
_U+30EC_U+30A4_U+30E4_U+30FC 1
 62
   179
420
  2234388
370
     9
100
AcDbVertex
100
AcDb2dVertex
 10
78.60121521693816
 20
-135.2182757995285
 30
0.0
  0
VERTEX
  5
43
330
41
100
AcDbEntity
  8
_U+30EC_U+30A4_U+30E4_U+30FC 1
 62
   179
420
  2234388
370
     9
100
AcDbVertex
100
AcDb2dVertex
 10
75.68254362473301
 20
-138.1373002432433
 30
0.0
  0
SEQEND
  5
44
330
41
100
AcDbEntity
  8
_U+30EC_U+30A4_U+30E4_U+30FC 1
 62
   179
420
  2234388
370
     9
  0
POLYLINE
  5
45
330
1F
100
AcDbEntity
  8
_U+30EC_U+30A4_U+30E4_U+30FC 1
 62
   179
420
  2234388
370
     9
100
AcDb2dPolyline
 66
     1
 10
0.0
 20
0.0
 30
0.0
  0
VERTEX
  5
46
330
45
100
AcDbEntity
  8
_U+30EC_U+30A4_U+30E4_U+30FC 1
 62
   179
420
  2234388
370
     9
100
AcDbVertex
100
AcDb2dVertex
 10
78.60121521693816
 20
-135.2182757995285
 30
0.0
  0
VERTEX
  5
47
330
45
100
AcDbEntity
  8
_U+30EC_U+30A4_U+30E4_U+30FC 1
 62
   179
420
  2234388
370
     9
100
AcDbVertex
100
AcDb2dVertex
 10
83.22937732108613
 20
-135.2182757995285
 30
0.0
  0
SEQEND
  5
48
330
45
100
AcDbEntity
  8
_U+30EC_U+30A4_U+30E4_U+30FC 1
 62
   179
420
  2234388
370
     9
  0
POLYLINE
  5
49
330
1F
100
AcDbEntity
  8
_U+30EC_U+30A4_U+30E4_U+30FC 1
 62
   179
420
  2234388
370
     9
100
AcDb2dPolyline
 66
     1
 10
0.0
 20
0.0
 30
0.0
  0
VERTEX
  5
4A
330
49
100
AcDbEntity
  8
_U+30EC_U+30A4_U+30E4_U+30FC 1
 62
   179
420
  2234388
370
     9
100
AcDbVertex
100
AcDb2dVertex
 10
76.72157998711387
 20
-137.5371546878379
 30
0.0
  0
VERTEX
  5
4B
330
49
100
AcDbEntity
  8
_U+30EC_U+30A4_U+30E4_U+30FC 1
 62
   179
420
  2234388
370
     9
100
AcDbVertex
100
AcDb2dVertex
 10
75.68254362473301
 20
-138.1373002432433
 30
0.0
  0
SEQEND
  5
4C
330
49
100
AcDbEntity
  8
_U+30EC_U+30A4_U+30E4_U+30FC 1
 62
   179
420
  2234388
370
     9
  0
POLYLINE
  5
4D
330
1F
100
AcDbEntity
  8
_U+30EC_U+30A4_U+30E4_U+30FC 1
 62
   179
420
  2234388
370
     9
100
AcDb2dPolyline
 66
     1
 10
0.0
 20
0.0
 30
0.0
  0
VERTEX
  5
4E
330
4D
100
AcDbEntity
  8
_U+30EC_U+30A4_U+30E4_U+30FC 1
 62
   179
420
  2234388
370
     9
100
AcDbVertex
100
AcDb2dVertex
 10
76.2823363872088
 20
-137.0979110768366
 30
0.0
  0
VERTEX
  5
4F
330
4D
100
AcDbEntity
  8
_U+30EC_U+30A4_U+30E4_U+30FC 1
 62
   179
420
  2234388
370
     9
100
AcDbVertex
100
AcDb2dVertex
 10
75.68254362473301
 20
-138.1373002432433
 30
0.0
  0
SEQEND
  5
50
330
4D
100
AcDbEntity
  8
_U+30EC_U+30A4_U+30E4_U+30FC 1
 62
   179
420
  2234388
370
     9
  0
POLYLINE
  5
51
330
1F
100
AcDbEntity
  8
_U+30EC_U+30A4_U+30E4_U+30FC 1
 62
   179
420
  2234388
370
    25
100
AcDb2dPolyline
 66
     1
 10
0.0
 20
0.0
 30
0.0
  0
VERTEX
  5
52
330
51
100
AcDbEntity
  8
_U+30EC_U+30A4_U+30E4_U+30FC 1
 62
   179
420
  2234388
370
    25
100
AcDbVertex
100
AcDb2dVertex
 10
92.35990097703595
 20
-139.4595466318018
 30
0.0
  0
VERTEX
  5
53
330
51
100
AcDbEntity
  8
_U+30EC_U+30A4_U+30E4_U+30FC 1
 62
   179
420
  2234388
370
    25
100
AcDbVertex
100
AcDb2dVertex
 10
108.3596075132939
 20
-139.4595466318018
 30
0.0
  0
SEQEND
  5
54
330
51
100
AcDbEntity
  8
_U+30EC_U+30A4_U+30E4_U+30FC 1
 62
   179
420
  2234388
370
    25
  0
POLYLINE
  5
55
330
1F
100
AcDbEntity
  8
_U+30EC_U+30A4_U+30E4_U+30FC 1
 62
   179
420
  2234388
370
    25
100
AcDb2dPolyline
 66
     1
 10
0.0
 20
0.0
 30
0.0
  0
VERTEX
  5
56
330
55
100
AcDbEntity
  8
_U+30EC_U+30A4_U+30E4_U+30FC 1
 62
   179
420
  2234388
370
    25
100
AcDbVertex
100
AcDb2dVertex
 10
90.749152962574
 20
-138.4594216320515
 30
0.0
  0
VERTEX
  5
57
330
55
100
AcDbEntity
  8
_U+30EC_U+30A4_U+30E4_U+30FC 1
 62
   179
420
  2234388
370
    25
100
AcDbVertex
100
AcDb2dVertex
 10
108.3596075132939
 20
-138.4594216320515
 30
0.0
  0
SEQEND
  5
58
330
55
100
AcDbEntity
  8
_U+30EC_U+30A4_U+30E4_U+30FC 1
 62
   179
420
  2234388
370
    25
  0
POLYLINE
  5
59
330
1F
100
AcDbEntity
  8
_U+30EC_U+30A4_U+30E4_U+30FC 1
 62
   179
420
  2234388
370
    25
100
AcDb2dPolyline
 66
     1
 10
0.0
 20
0.0
 30
0.0
  0
VERTEX
  5
5A
330
59
100
AcDbEntity
  8
_U+30EC_U+30A4_U+30E4_U+30FC 1
 62
   179
420
  2234388
370
    25
100
AcDbVertex
100
AcDb2dVertex
 10
108.3596075132939
 20
-138.4594216320515
 30
0.0
  0
VERTEX
  5
5B
330
59
100
AcDbEntity
  8
_U+30EC_U+30A4_U+30E4_U+30FC 1
 62
   179
420
  2234388
370
    25
100
AcDbVertex
100
AcDb2dVertex
 10
108.3596075132939
 20
-139.4595466318018
 30
0.0
  0
SEQEND
  5
5C
330
59
100
AcDbEntity
  8
_U+30EC_U+30A4_U+30E4_U+30FC 1
 62
   179
420
  2234388
370
    25
  0
POLYLINE
  5
5D
330
1F
100
AcDbEntity
  8
_U+30EC_U+30A4_U+30E4_U+30FC 1
 62
   179
420
  2234388
370
    25
100
AcDb2dPolyline
 66
     1
 10
0.0
 20
0.0
 30
0.0
  0
VERTEX
  5
5E
330
5D
100
AcDbEntity
  8
_U+30EC_U+30A4_U+30E4_U+30FC 1
 62
   179
420
  2234388
370
    25
100
AcDbVertex
100
AcDb2dVertex
 10
92.35990097703595
 20
-139.4595466318018
 30
0.0
  0
VERTEX
  5
5F
330
5D
100
AcDbEntity
  8
_U+30EC_U+30A4_U+30E4_U+30FC 1
 62
   179
420
  2234388
370
    25
100
AcDbVertex
100
AcDb2dVertex
 10
93.36002595152064
 20
-145.4598380191908
 30
0.0
  0
SEQEND
  5
60
330
5D
100
AcDbEntity
  8
_U+30EC_U+30A4_U+30E4_U+30FC 1
 62
   179
420
  2234388
370
    25
  0
POLYLINE
  5
61
330
1F
100
AcDbEntity
  8
_U+30EC_U+30A4_U+30E4_U+30FC 1
 62
   179
420
  2234388
370
    25
100
AcDb2dPolyline
 66
     1
 10
0.0
 20
0.0
 30
0.0
  0
VERTEX
  5
62
330
61
100
AcDbEntity
  8
_U+30EC_U+30A4_U+30E4_U+30FC 1
 62
   179
420
  2234388
370
    25
100
AcDbVertex
100
AcDb2dVertex
 10
75.35992835518583
 20
-123.070196635899
 30
0.0
  0
VERTEX
  5
63
330
61
100
AcDbEntity
  8
_U+30EC_U+30A4_U+30E4_U+30FC 1
 62
   179
420
  2234388
370
    25
100
AcDbVertex
100
AcDb2dVertex
 10
75.35992835518583
 20
-105.4595299736353
 30
0.0
  0
SEQEND
  5
64
330
61
100
AcDbEntity
  8
_U+30EC_U+30A4_U+30E4_U+30FC 1
 62
   179
420
  2234388
370
    25
  0
POLYLINE
  5
65
330
1F
100
AcDbEntity
  8
_U+30EC_U+30A4_U+30E4_U+30FC 1
 62
   179
420
  2234388
370
    25
100
AcDb2dPolyline
 66
     1
 10
0.0
 20
0.0
 30
0.0
  0
VERTEX
  5
66
330
65
100
AcDbEntity
  8
_U+30EC_U+30A4_U+30E4_U+30FC 1
 62
   179
420
  2234388
370
    25
100
AcDbVertex
100
AcDb2dVertex
 10
75.36006946629334
 20
-105.4595299736353
 30
0.0
  0
VERTEX
  5
67
330
65
100
AcDbEntity
  8
_U+30EC_U+30A4_U+30E4_U+30FC 1
 62
   179
420
  2234388
370
    25
100
AcDbVertex
100
AcDb2dVertex
 10
74.35997976958554
 20
-105.4595299736353
 30
0.0
  0
SEQEND
  5
68
330
65
100
AcDbEntity
  8
_U+30EC_U+30A4_U+30E4_U+30FC 1
 62
   179
420
  2234388
370
    25
  0
POLYLINE
  5
69
330
1F
100
AcDbEntity
  8
_U+30EC_U+30A4_U+30E4_U+30FC 1
 62
   179
420
  2234388
370
    25
100
AcDb2dPolyline
 66
     1
 10
0.0
 20
0.0
 30
0.0
  0
VERTEX
  5
6A
330
69
100
AcDbEntity
  8
_U+30EC_U+30A4_U+30E4_U+30FC 1
 62
   179
420
  2234388
370
    25
100
AcDbVertex
100
AcDb2dVertex
 10
74.35997976958554
 20
-121.4595896918573
 30
0.0
  0
VERTEX
  5
6B
330
69
100
AcDbEntity
  8
_U+30EC_U+30A4_U+30E4_U+30FC 1
 62
   179
420
  2234388
370
    25
100
AcDbVertex
100
AcDb2dVertex
 10
74.35997976958554
 20
-105.4595299736353
 30
0.0
  0
SEQEND
  5
6C
330
69
100
AcDbEntity
  8
_U+30EC_U+30A4_U+30E4_U+30FC 1
 62
   179
420
  2234388
370
    25
  0
POLYLINE
  5
6D
330
1F
100
AcDbEntity
  8
_U+30EC_U+30A4_U+30E4_U+30FC 1
 62
   179
420
  2234388
370
    25
100
AcDb2dPolyline
 66
     1
 10
0.0
 20
0.0
 30
0.0
  0
VERTEX
  5
6E
330
6D
100
AcDbEntity
  8
_U+30EC_U+30A4_U+30E4_U+30FC 1
 62
   179
420
  2234388
370
    25
100
AcDbVertex
100
AcDb2dVertex
 10
74.35997976958554
 20
-121.4595896918573
 30
0.0
  0
VERTEX
  5
6F
330
6D
100
AcDbEntity
  8
_U+30EC_U+30A4_U+30E4_U+30FC 1
 62
   179
420
  2234388
370
    25
100
AcDbVertex
100
AcDb2dVertex
 10
68.36000603376873
 20
-120.4598174698851
 30
0.0
  0
SEQEND
  5
70
330
6D
100
AcDbEntity
  8
_U+30EC_U+30A4_U+30E4_U+30FC 1
 62
   179
420
  2234388
370
    25
  0
SPLINE
  5
71
330
1F
100
AcDbEntity
  8
_U+30EC_U+30A4_U+30E4_U+30FC 1
 62
   179
420
  2234388
370
     9
100
AcDbSpline
210
0.0
220
0.0
230
1.0
 70
    11
 71
     3
 72
    17
 73
    13
 74
     0
 42
0.0000000001
 43
0.0000000001
 12
1.0
 22
0.0
 32
0.0
 13
1.0
 23
0.0
 33
0.0
 40
0.0
 40
0.0
 40
0.0
 40
0.0
 40
1.0
 40
1.0
 40
1.0
 40
2.0
 40
2.0
 40
2.0
 40
3.0
 40
3.0
 40
3.0
 40
4.0
 40
4.0
 40
4.0
 40
4.0
 10
112.4599787975736
 20
-139.4595466318018
 30
0.0
 10
112.4599787975736
 20
-139.4044074651488
 30
0.0
 10
112.4151760209388
 20
-139.3596399651602
 30
0.0
 10
112.3600749719101
 20
-139.3596399651602
 30
0.0
 10
112.3049329681958
 20
-139.3596399651602
 30
0.0
 10
112.2601654693379
 20
-139.4044074651488
 30
0.0
 10
112.2601654693379
 20
-139.4595466318018
 30
0.0
 10
112.2601654693379
 20
-139.5146505206768
 30
0.0
 10
112.3049329681958
 20
-139.5594532984435
 30
0.0
 10
112.3600749719101
 20
-139.5594532984435
 30
0.0
 10
112.4151760209388
 20
-139.5594532984435
 30
0.0
 10
112.4599787975736
 20
-139.5146505206768
 30
0.0
 10
112.4599787975736
 20
-139.4595466318018
 30
0.0
  0
SPLINE
  5
72
330
1F
100
AcDbEntity
  8
_U+30EC_U+30A4_U+30E4_U+30FC 1
 62
   179
420
  2234388
370
     9
100
AcDbSpline
210
0.0
220
0.0
230
1.0
 70
    11
 71
     3
 72
    17
 73
    13
 74
     0
 42
0.0000000001
 43
0.0000000001
 12
1.0
 22
0.0
 32
0.0
 13
1.0
 23
0.0
 33
0.0
 40
0.0
 40
0.0
 40
0.0
 40
0.0
 40
1.0
 40
1.0
 40
1.0
 40
2.0
 40
2.0
 40
2.0
 40
3.0
 40
3.0
 40
3.0
 40
4.0
 40
4.0
 40
4.0
 40
4.0
 10
112.4599787975736
 20
-138.4594216320515
 30
0.0
 10
112.4599787975736
 20
-138.4042824653991
 30
0.0
 10
112.4151760209388
 20
-138.3595149654099
 30
0.0
 10
112.3600749719101
 20
-138.3595149654099
 30
0.0
 10
112.3049329681958
 20
-138.3595149654099
 30
0.0
 10
112.2601654693379
 20
-138.4042824653991
 30
0.0
 10
112.2601654693379
 20
-138.4594216320515
 30
0.0
 10
112.2601654693379
 20
-138.5145255209271
 30
0.0
 10
112.3049329681958
 20
-138.5593282986938
 30
0.0
 10
112.3600749719101
 20
-138.5593282986938
 30
0.0
 10
112.4151760209388
 20
-138.5593282986938
 30
0.0
 10
112.4599787975736
 20
-138.5145255209271
 30
0.0
 10
112.4599787975736
 20
-138.4594216320515
 30
0.0
  0
SPLINE
  5
73
330
1F
100
AcDbEntity
  8
_U+30EC_U+30A4_U+30E4_U+30FC 1
 62
   179
420
  2234388
370
     9
100
AcDbSpline
210
0.0
220
0.0
230
1.0
 70
    11
 71
     3
 72
    17
 73
    13
 74
     0
 42
0.0000000001
 43
0.0000000001
 12
1.0
 22
0.0
 32
0.0
 13
1.0
 23
0.0
 33
0.0
 40
0.0
 40
0.0
 40
0.0
 40
0.0
 40
1.0
 40
1.0
 40
1.0
 40
2.0
 40
2.0
 40
2.0
 40
3.0
 40
3.0
 40
3.0
 40
4.0
 40
4.0
 40
4.0
 40
4.0
 10
112.4599787975736
 20
-145.4598380191908
 30
0.0
 10
112.4599787975736
 20
-145.4047341303152
 30
0.0
 10
112.4151760209388
 20
-145.3599313525491
 30
0.0
 10
112.3600749719101
 20
-145.3599313525491
 30
0.0
 10
112.3049329681958
 20
-145.3599313525491
 30
0.0
 10
112.2601654693379
 20
-145.4047341303152
 30
0.0
 10
112.2601654693379
 20
-145.4598380191908
 30
0.0
 10
112.2601654693379
 20
-145.5149771858432
 30
0.0
 10
112.3049329681958
 20
-145.5597799636099
 30
0.0
 10
112.3600749719101
 20
-145.5597799636099
 30
0.0
 10
112.4151760209388
 20
-145.5597799636099
 30
0.0
 10
112.4599787975736
 20
-145.5149771858432
 30
0.0
 10
112.4599787975736
 20
-145.4598380191908
 30
0.0
  0
SPLINE
  5
74
330
1F
100
AcDbEntity
  8
_U+30EC_U+30A4_U+30E4_U+30FC 1
 62
   179
420
  2234388
370
    25
100
AcDbSpline
210
0.0
220
0.0
230
1.0
 70
    11
 71
     3
 72
    17
 73
    13
 74
     0
 42
0.0000000001
 43
0.0000000001
 12
1.0
 22
0.0
 32
0.0
 13
1.0
 23
0.0
 33
0.0
 40
0.0
 40
0.0
 40
0.0
 40
0.0
 40
1.0
 40
1.0
 40
1.0
 40
2.0
 40
2.0
 40
2.0
 40
3.0
 40
3.0
 40
3.0
 40
4.0
 40
4.0
 40
4.0
 40
4.0
 10
74.45988643370337
 20
-114.7878210824143
 30
0.0
 10
74.45988643370337
 20
-114.732717193539
 30
0.0
 10
74.4150836570686
 20
-114.6879144157723
 30
0.0
 10
74.35997976958554
 20
-114.6879144157723
 30
0.0
 10
74.30484060432559
 20
-114.6879144157723
 30
0.0
 10
74.26007498143505
 20
-114.732717193539
 30
0.0
 10
74.26007498143505
 20
-114.7878210824143
 30
0.0
 10
74.26007498143505
 20
-114.842960249067
 30
0.0
 10
74.30484060432559
 20
-114.8877277490559
 30
0.0
 10
74.35997976958554
 20
-114.8877277490559
 30
0.0
 10
74.4150836570686
 20
-114.8877277490559
 30
0.0
 10
74.45988643370337
 20
-114.842960249067
 30
0.0
 10
74.45988643370337
 20
-114.7878210824143
 30
0.0
  0
SPLINE
  5
75
330
1F
100
AcDbEntity
  8
_U+30EC_U+30A4_U+30E4_U+30FC 1
 62
   179
420
  2234388
370
     9
100
AcDbSpline
210
0.0
220
0.0
230
1.0
 70
    11
 71
     3
 72
    17
 73
    13
 74
     0
 42
0.0000000001
 43
0.0000000001
 12
1.0
 22
0.0
 32
0.0
 13
1.0
 23
0.0
 33
0.0
 40
0.0
 40
0.0
 40
0.0
 40
0.0
 40
1.0
 40
1.0
 40
1.0
 40
2.0
 40
2.0
 40
2.0
 40
3.0
 40
3.0
 40
3.0
 40
4.0
 40
4.0
 40
4.0
 40
4.0
 10
68.45991269788657
 20
-114.7878210824143
 30
0.0
 10
68.45991269788657
 20
-114.732717193539
 30
0.0
 10
68.41546269902058
 20
-114.6879144157723
 30
0.0
 10
68.36000603376873
 20
-114.6879144157723
 30
0.0
 10
68.30451409074
 20
-114.6879144157723
 30
0.0
 10
68.25974659188212
 20
-114.732717193539
 30
0.0
 10
68.25974659188212
 20
-114.7878210824143
 30
0.0
 10
68.25974659188212
 20
-114.842960249067
 30
0.0
 10
68.30451409074
 20
-114.8877277490559
 30
0.0
 10
68.36000603376873
 20
-114.8877277490559
 30
0.0
 10
68.41546269902058
 20
-114.8877277490559
 30
0.0
 10
68.45991269788657
 20
-114.842960249067
 30
0.0
 10
68.45991269788657
 20
-114.7878210824143
 30
0.0
  0
SPLINE
  5
76
330
1F
100
AcDbEntity
  8
_U+30EC_U+30A4_U+30E4_U+30FC 1
 62
   179
420
  2234388
370
     9
100
AcDbSpline
210
0.0
220
0.0
230
1.0
 70
    11
 71
     3
 72
    17
 73
    13
 74
     0
 42
0.0000000001
 43
0.0000000001
 12
1.0
 22
0.0
 32
0.0
 13
1.0
 23
0.0
 33
0.0
 40
0.0
 40
0.0
 40
0.0
 40
0.0
 40
1.0
 40
1.0
 40
1.0
 40
2.0
 40
2.0
 40
2.0
 40
3.0
 40
3.0
 40
3.0
 40
4.0
 40
4.0
 40
4.0
 40
4.0
 10
108.4602197329493
 20
-149.4595971848576
 30
0.0
 10
108.4602197329493
 20
-149.4044932959821
 30
0.0
 10
108.4154169563145
 20
-149.3596905182154
 30
0.0
 10
108.3596075132939
 20
-149.3596905182154
 30
0.0
 10
108.3045036258108
 20
-149.3596905182154
 30
0.0
 10
108.259700849176
 20
-149.4044932959821
 30
0.0
 10
108.259700849176
 20
-149.4595971848576
 30
0.0
 10
108.259700849176
 20
-149.5147363515101
 30
0.0
 10
108.3045036258108
 20
-149.5595038514993
 30
0.0
 10
108.3596075132939
 20
-149.5595038514993
 30
0.0
 10
108.4154169563145
 20
-149.5595038514993
 30
0.0
 10
108.4602197329493
 20
-149.5147363515101
 30
0.0
 10
108.4602197329493
 20
-149.4595971848576
 30
0.0
  0
SPLINE
  5
77
330
1F
100
AcDbEntity
  8
_U+30EC_U+30A4_U+30E4_U+30FC 1
 62
   179
420
  2234388
370
     9
100
AcDbSpline
210
0.0
220
0.0
230
1.0
 70
    11
 71
     3
 72
    17
 73
    13
 74
     0
 42
0.0000000001
 43
0.0000000001
 12
1.0
 22
0.0
 32
0.0
 13
1.0
 23
0.0
 33
0.0
 40
0.0
 40
0.0
 40
0.0
 40
0.0
 40
1.0
 40
1.0
 40
1.0
 40
2.0
 40
2.0
 40
2.0
 40
3.0
 40
3.0
 40
3.0
 40
4.0
 40
4.0
 40
4.0
 40
4.0
 10
93.45993261563848
 20
-149.4595971848576
 30
0.0
 10
93.45993261563848
 20
-149.4044932959821
 30
0.0
 10
93.41512983900371
 20
-149.3596905182154
 30
0.0
 10
93.36002595152064
 20
-149.3596905182154
 30
0.0
 10
93.3048867862607
 20
-149.3596905182154
 30
0.0
 10
93.2601192874028
 20
-149.4044932959821
 30
0.0
 10
93.2601192874028
 20
-149.4595971848576
 30
0.0
 10
93.2601192874028
 20
-149.5147363515101
 30
0.0
 10
93.3048867862607
 20
-149.5595038514993
 30
0.0
 10
93.36002595152064
 20
-149.5595038514993
 30
0.0
 10
93.41512983900371
 20
-149.5595038514993
 30
0.0
 10
93.45993261563848
 20
-149.5147363515101
 30
0.0
 10
93.45993261563848
 20
-149.4595971848576
 30
0.0
  0
SPLINE
  5
78
330
1F
100
AcDbEntity
  8
_U+30EC_U+30A4_U+30E4_U+30FC 1
 62
   179
420
  2234388
370
    25
100
AcDbSpline
210
0.0
220
0.0
230
1.0
 70
     8
 71
     3
 72
     8
 73
     4
 74
     0
 42
0.0000000001
 43
0.0000000001
 12
1.0
 22
0.0
 32
0.0
 13
1.0
 23
0.0
 33
0.0
 40
0.0
 40
0.0
 40
0.0
 40
0.0
 40
1.0
 40
1.0
 40
1.0
 40
1.0
 10
68.36000603376873
 20
-120.4598174698851
 30
0.0
 10
68.36000603376873
 20
-134.2667282997664
 30
0.0
 10
79.55276269266216
 20
-145.4598380191908
 30
0.0
 10
93.36002595152064
 20
-145.4598380191908
 30
0.0
  0
INSERT
  5
7A
330
1F
100
AcDbEntity
  8
_U+30EC_U+30A4_U+30E4_U+30FC 1
100
AcDbBlockReference
  2
block 2
 10
0.0
 20
0.0
 30
0.0
  0
POLYLINE
  5
84
330
1F
100
AcDbEntity
  8
_U+30EC_U+30A4_U+30E4_U+30FC 1
 62
   179
420
  2234388
370
     9
100
AcDb2dPolyline
 66
     1
 10
0.0
 20
0.0
 30
0.0
  0
VERTEX
  5
85
330
84
100
AcDbEntity
  8
_U+30EC_U+30A4_U+30E4_U+30FC 1
 62
   179
420
  2234388
370
     9
100
AcDbVertex
100
AcDb2dVertex
 10
110.9000307818156
 20
-139.4595466318018
 30
0.0
  0
VERTEX
  5
86
330
84
100
AcDbEntity
  8
_U+30EC_U+30A4_U+30E4_U+30FC 1
 62
   179
420
  2234388
370
     9
100
AcDbVertex
100
AcDb2dVertex
 10
113.359847193882
 20
-139.4595466318018
 30
0.0
  0
SEQEND
  5
87
330
84
100
AcDbEntity
  8
_U+30EC_U+30A4_U+30E4_U+30FC 1
 62
   179
420
  2234388
370
     9
  0
POLYLINE
  5
88
330
1F
100
AcDbEntity
  8
_U+30EC_U+30A4_U+30E4_U+30FC 1
 62
   179
420
  2234388
370
     9
100
AcDb2dPolyline
 66
     1
 10
0.0
 20
0.0
 30
0.0
  0
VERTEX
  5
89
330
88
100
AcDbEntity
  8
_U+30EC_U+30A4_U+30E4_U+30FC 1
 62
   179
420
  2234388
370
     9
100
AcDbVertex
100
AcDb2dVertex
 10
110.9000307818156
 20
-138.4594216320515
 30
0.0
  0
VERTEX
  5
8A
330
88
100
AcDbEntity
  8
_U+30EC_U+30A4_U+30E4_U+30FC 1
 62
   179
420
  2234388
370
     9
100
AcDbVertex
100
AcDb2dVertex
 10
113.359847193882
 20
-138.4594216320515
 30
0.0
  0
SEQEND
  5
8B
330
88
100
AcDbEntity
  8
_U+30EC_U+30A4_U+30E4_U+30FC 1
 62
   179
420
  2234388
370
     9
  0
POLYLINE
  5
8C
330
1F
100
AcDbEntity
  8
_U+30EC_U+30A4_U+30E4_U+30FC 1
 62
   179
420
  2234388
370
     9
100
AcDb2dPolyline
 66
     1
 10
0.0
 20
0.0
 30
0.0
  0
VERTEX
  5
8D
330
8C
100
AcDbEntity
  8
_U+30EC_U+30A4_U+30E4_U+30FC 1
 62
   179
420
  2234388
370
     9
100
AcDbVertex
100
AcDb2dVertex
 10
112.3600749719101
 20
-135.689551632744
 30
0.0
  0
VERTEX
  5
8E
330
8C
100
AcDbEntity
  8
_U+30EC_U+30A4_U+30E4_U+30FC 1
 62
   179
420
  2234388
370
     9
100
AcDbVertex
100
AcDb2dVertex
 10
112.3600749719101
 20
-145.4598380191908
 30
0.0
  0
SEQEND
  5
8F
330
8C
100
AcDbEntity
  8
_U+30EC_U+30A4_U+30E4_U+30FC 1
 62
   179
420
  2234388
370
     9
  0
POLYLINE
  5
90
330
1F
100
AcDbEntity
  8
_U+30EC_U+30A4_U+30E4_U+30FC 1
 62
   179
420
  2234388
370
     9
100
AcDb2dPolyline
 66
     1
 10
0.0
 20
0.0
 30
0.0
  0
VERTEX
  5
91
330
90
100
AcDbEntity
  8
_U+30EC_U+30A4_U+30E4_U+30FC 1
 62
   179
420
  2234388
370
     9
100
AcDbVertex
100
AcDb2dVertex
 10
95.89974366450483
 20
-145.4598380191908
 30
0.0
  0
VERTEX
  5
92
330
90
100
AcDbEntity
  8
_U+30EC_U+30A4_U+30E4_U+30FC 1
 62
   179
420
  2234388
370
     9
100
AcDbVertex
100
AcDb2dVertex
 10
113.359847193882
 20
-145.4598380191908
 30
0.0
  0
SEQEND
  5
93
330
90
100
AcDbEntity
  8
_U+30EC_U+30A4_U+30E4_U+30FC 1
 62
   179
420
  2234388
370
     9
  0
POLYLINE
  5
94
330
1F
100
AcDbEntity
  8
_U+30EC_U+30A4_U+30E4_U+30FC 1
 62
   179
420
  2234388
370
     9
100
AcDb2dPolyline
 66
     1
 10
0.0
 20
0.0
 30
0.0
  0
VERTEX
  5
95
330
94
100
AcDbEntity
  8
_U+30EC_U+30A4_U+30E4_U+30FC 1
 62
   179
420
  2234388
370
     9
100
AcDbVertex
100
AcDb2dVertex
 10
68.36000603376873
 20
-114.7878210824143
 30
0.0
  0
VERTEX
  5
96
330
94
100
AcDbEntity
  8
_U+30EC_U+30A4_U+30E4_U+30FC 1
 62
   179
420
  2234388
370
     9
100
AcDbVertex
100
AcDb2dVertex
 10
74.35997976958554
 20
-114.7878210824143
 30
0.0
  0
SEQEND
  5
97
330
94
100
AcDbEntity
  8
_U+30EC_U+30A4_U+30E4_U+30FC 1
 62
   179
420
  2234388
370
     9
  0
POLYLINE
  5
98
330
1F
100
AcDbEntity
  8
_U+30EC_U+30A4_U+30E4_U+30FC 1
 62
   179
420
  2234388
370
     9
100
AcDb2dPolyline
 66
     1
 10
0.0
 20
0.0
 30
0.0
  0
VERTEX
  5
99
330
98
100
AcDbEntity
  8
_U+30EC_U+30A4_U+30E4_U+30FC 1
 62
   179
420
  2234388
370
     9
100
AcDbVertex
100
AcDb2dVertex
 10
68.36000603376873
 20
-117.9194294149645
 30
0.0
  0
VERTEX
  5
9A
330
98
100
AcDbEntity
  8
_U+30EC_U+30A4_U+30E4_U+30FC 1
 62
   179
420
  2234388
370
     9
100
AcDbVertex
100
AcDb2dVertex
 10
68.36000603376873
 20
-113.788048860442
 30
0.0
  0
SEQEND
  5
9B
330
98
100
AcDbEntity
  8
_U+30EC_U+30A4_U+30E4_U+30FC 1
 62
   179
420
  2234388
370
     9
  0
POLYLINE
  5
9C
330
1F
100
AcDbEntity
  8
_U+30EC_U+30A4_U+30E4_U+30FC 1
 62
   179
420
  2234388
370
     9
100
AcDb2dPolyline
 66
     1
 10
0.0
 20
0.0
 30
0.0
  0
VERTEX
  5
9D
330
9C
100
AcDbEntity
  8
_U+30EC_U+30A4_U+30E4_U+30FC 1
 62
   179
420
  2234388
370
     9
100
AcDbVertex
100
AcDb2dVertex
 10
93.36002595152064
 20
-149.4595971848576
 30
0.0
  0
VERTEX
  5
9E
330
9C
100
AcDbEntity
  8
_U+30EC_U+30A4_U+30E4_U+30FC 1
 62
   179
420
  2234388
370
     9
100
AcDbVertex
100
AcDb2dVertex
 10
108.3596075132939
 20
-149.4595971848576
 30
0.0
  0
SEQEND
  5
9F
330
9C
100
AcDbEntity
  8
_U+30EC_U+30A4_U+30E4_U+30FC 1
 62
   179
420
  2234388
370
     9
  0
POLYLINE
  5
A0
330
1F
100
AcDbEntity
  8
_U+30EC_U+30A4_U+30E4_U+30FC 1
 62
   179
420
  2234388
370
     9
100
AcDb2dPolyline
 66
     1
 10
0.0
 20
0.0
 30
0.0
  0
VERTEX
  5
A1
330
A0
100
AcDbEntity
  8
_U+30EC_U+30A4_U+30E4_U+30FC 1
 62
   179
420
  2234388
370
     9
100
AcDbVertex
100
AcDb2dVertex
 10
93.36002595152064
 20
-147.9995910741114
 30
0.0
  0
VERTEX
  5
A2
330
A0
100
AcDbEntity
  8
_U+30EC_U+30A4_U+30E4_U+30FC 1
 62
   179
420
  2234388
370
     9
100
AcDbVertex
100
AcDb2dVertex
 10
93.36002595152064
 20
-150.4600749623851
 30
0.0
  0
SEQEND
  5
A3
330
A0
100
AcDbEntity
  8
_U+30EC_U+30A4_U+30E4_U+30FC 1
 62
   179
420
  2234388
370
     9
  0
POLYLINE
  5
A4
330
1F
100
AcDbEntity
  8
_U+30EC_U+30A4_U+30E4_U+30FC 1
 62
   179
420
  2234388
370
     9
100
AcDb2dPolyline
 66
     1
 10
0.0
 20
0.0
 30
0.0
  0
VERTEX
  5
A5
330
A4
100
AcDbEntity
  8
_U+30EC_U+30A4_U+30E4_U+30FC 1
 62
   179
420
  2234388
370
     9
100
AcDbVertex
100
AcDb2dVertex
 10
108.3596075132939
 20
-141.9999346867224
 30
0.0
  0
VERTEX
  5
A6
330
A4
100
AcDbEntity
  8
_U+30EC_U+30A4_U+30E4_U+30FC 1
 62
   179
420
  2234388
370
     9
100
AcDbVertex
100
AcDb2dVertex
 10
108.3596075132939
 20
-150.4600749623851
 30
0.0
  0
SEQEND
  5
A7
330
A4
100
AcDbEntity
  8
_U+30EC_U+30A4_U+30E4_U+30FC 1
 62
   179
420
  2234388
370
     9
  0
INSERT
  5
A9
330
1F
100
AcDbEntity
  8
_U+30EC_U+30A4_U+30E4_U+30FC 1
100
AcDbBlockReference
  2
block 3
 10
0.0
 20
0.0
 30
0.0
  0
INSERT
  5
B1
330
1F
100
AcDbEntity
  8
_U+30EC_U+30A4_U+30E4_U+30FC 1
100
AcDbBlockReference
  2
block 4
 10
0.0
 20
0.0
 30
0.0
  0
INSERT
  5
B8
330
1F
100
AcDbEntity
  8
_U+30EC_U+30A4_U+30E4_U+30FC 1
100
AcDbBlockReference
  2
block 5
 10
0.0
 20
0.0
 30
0.0
  0
INSERT
  5
BF
330
1F
100
AcDbEntity
  8
_U+30EC_U+30A4_U+30E4_U+30FC 1
100
AcDbBlockReference
  2
block 6
 10
0.0
 20
0.0
 30
0.0
  0
POLYLINE
  5
C4
330
1F
100
AcDbEntity
  8
_U+30EC_U+30A4_U+30E4_U+30FC 1
 62
   179
420
  2234388
370
    25
100
AcDb2dPolyline
 66
     1
 10
0.0
 20
0.0
 30
0.0
  0
VERTEX
  5
C5
330
C4
100
AcDbEntity
  8
_U+30EC_U+30A4_U+30E4_U+30FC 1
 62
   179
420
  2234388
370
    25
100
AcDbVertex
100
AcDb2dVertex
 10
90.749152962574
 20
-138.4594216320515
 30
0.0
  0
VERTEX
  5
C6
330
C4
100
AcDbEntity
  8
_U+30EC_U+30A4_U+30E4_U+30FC 1
 62
   179
420
  2234388
370
    25
100
AcDbVertex
100
AcDb2dVertex
 10
91.65607405054763
 20
-143.8913174640272
 30
0.0
  0
SEQEND
  5
C7
330
C4
100
AcDbEntity
  8
_U+30EC_U+30A4_U+30E4_U+30FC 1
 62
   179
420
  2234388
370
    25
  0
POLYLINE
  5
C8
330
1F
100
AcDbEntity
  8
_U+30EC_U+30A4_U+30E4_U+30FC 1
 62
   179
420
  2234388
370
    25
100
AcDb2dPolyline
 66
     1
 10
0.0
 20
0.0
 30
0.0
  0
VERTEX
  5
C9
330
C8
100
AcDbEntity
  8
_U+30EC_U+30A4_U+30E4_U+30FC 1
 62
   179
420
  2234388
370
    25
100
AcDbVertex
100
AcDb2dVertex
 10
75.36006946629334
 20
-123.070196635899
 30
0.0
  0
VERTEX
  5
CA
330
C8
100
AcDbEntity
  8
_U+30EC_U+30A4_U+30E4_U+30FC 1
 62
   179
420
  2234388
370
    25
100
AcDbVertex
100
AcDb2dVertex
 10
69.9280326604317
 20
-122.1637694139036
 30
0.0
  0
SEQEND
  5
CB
330
C8
100
AcDbEntity
  8
_U+30EC_U+30A4_U+30E4_U+30FC 1
 62
   179
420
  2234388
370
    25
  0
SPLINE
  5
CC
330
1F
100
AcDbEntity
  8
_U+30EC_U+30A4_U+30E4_U+30FC 1
 62
   179
420
  2234388
370
    25
100
AcDbSpline
210
0.0
220
0.0
230
1.0
 70
     8
 71
     3
 72
     8
 73
     4
 74
     0
 42
0.0000000001
 43
0.0000000001
 12
1.0
 22
0.0
 32
0.0
 13
1.0
 23
0.0
 33
0.0
 40
0.0
 40
0.0
 40
0.0
 40
0.0
 40
1.0
 40
1.0
 40
1.0
 40
1.0
 10
91.65607405054763
 20
-143.8913174640272
 30
0.0
 10
79.95895101563276
 20
-143.0506832975705
 30
0.0
 10
70.76933887119648
 20
-133.8608927443128
 30
0.0
 10
69.9280326604317
 20
-122.1637694139036
 30
0.0
  0
ENDSEC
  0
SECTION
  2
OBJECTS
  0
DICTIONARY
  5
C
330
0
100
AcDbDictionary
281
     1
  3
ACAD_GROUP
350
D
  3
ACAD_LAYOUT
350
1A
  3
ACAD_MATERIAL
350
3B
  3
ACAD_MLEADERSTYLE
350
CE
  3
ACAD_MLINESTYLE
350
17
  3
ACAD_PLOTSETTINGS
350
19
  3
ACAD_PLOTSTYLENAME
350
E
  3
ACAD_TABLESTYLE
350
CD
  3
ACAD_VISUALSTYLE
350
2A
  0
SUN
  5
3F
330
29
100
AcDbSun
 90
        1
290
     0
 63
     7
421
 16777215
 40
1.0
291
     1
 91
  2455826
 92
 54000000
292
     0
 70
     2
 71
   256
280
     1
  0
DICTIONARY
  5
D
102
{ACAD_REACTORS
330
C
102
}
330
C
100
AcDbDictionary
281
     1
  0
DICTIONARY
  5
1A
102
{ACAD_REACTORS
330
C
102
}
330
C
100
AcDbDictionary
281
     1
  3
Layout1
350
1E
  3
Layout2
350
26
  3
Model
350
22
  0
DICTIONARY
  5
3B
102
{ACAD_REACTORS
330
C
102
}
330
C
100
AcDbDictionary
281
     1
  3
ByBlock
350
3D
  3
ByLayer
350
3C
  3
Global
350
3E
  0
DICTIONARY
  5
CE
102
{ACAD_REACTORS
330
C
102
}
330
C
100
AcDbDictionary
281
     1
  0
DICTIONARY
  5
17
102
{ACAD_REACTORS
330
C
102
}
330
C
100
AcDbDictionary
281
     1
  3
Standard
350
18
  0
DICTIONARY
  5
19
102
{ACAD_REACTORS
330
C
102
}
330
C
100
AcDbDictionary
281
     1
  0
ACDBDICTIONARYWDFLT
  5
E
102
{ACAD_REACTORS
330
C
102
}
330
C
100
AcDbDictionary
281
     1
  3
Normal
350
F
100
AcDbDictionaryWithDefault
340
F
  0
DICTIONARY
  5
CD
102
{ACAD_REACTORS
330
C
102
}
330
C
100
AcDbDictionary
281
     1
  0
DICTIONARY
  5
2A
102
{ACAD_REACTORS
330
C
102
}
330
C
100
AcDbDictionary
281
     1
  3
2dWireframe
350
2F
  3
3D Hidden
350
31
  3
3dWireframe
350
30
  3
Basic
350
32
  3
Brighten
350
36
  3
ColorChange
350
3A
  3
Conceptual
350
34
  3
Dim
350
35
  3
Facepattern
350
39
  3
Flat
350
2B
  3
FlatWithEdges
350
2C
  3
Gouraud
350
2D
  3
GouraudWithEdges
350
2E
  3
Linepattern
350
38
  3
Realistic
350
33
  3
Thicken
350
37
  0
LAYOUT
  5
1E
102
{ACAD_REACTORS
330
1A
102
}
330
1A
100
AcDbPlotSettings
  1

  2
none_device
  4

  6

 40
0.0
 41
0.0
 42
0.0
 43
0.0
 44
0.0
 45
0.0
 46
0.0
 47
0.0
 48
0.0
 49
0.0
140
0.0
141
0.0
142
1.0
143
1.0
 70
   688
 72
     0
 73
     0
 74
     5
  7

 75
    16
 76
     0
 77
     2
 78
   300
147
1.0
148
0.0
149
0.0
100
AcDbLayout
  1
Layout1
 70
     1
 71
     1
 10
0.0
 20
0.0
 11
12.0
 21
9.0
 12
0.0
 22
0.0
 32
0.0
 14
1.000000000000000E+20
 24
1.000000000000000E+20
 34
1.000000000000000E+20
 15
-1.000000000000000E+20
 25
-1.000000000000000E+20
 35
-1.000000000000000E+20
146
0.0
 13
0.0
 23
0.0
 33
0.0
 16
1.0
 26
0.0
 36
0.0
 17
0.0
 27
1.0
 37
0.0
 76
     0
330
1B
  0
LAYOUT
  5
26
102
{ACAD_REACTORS
330
1A
102
}
330
1A
100
AcDbPlotSettings
  1

  2
none_device
  4

  6

 40
0.0
 41
0.0
 42
0.0
 43
0.0
 44
0.0
 45
0.0
 46
0.0
 47
0.0
 48
0.0
 49
0.0
140
0.0
141
0.0
142
1.0
143
1.0
 70
   688
 72
     0
 73
     0
 74
     5
  7

 75
    16
 76
     0
 77
     2
 78
   300
147
1.0
148
0.0
149
0.0
100
AcDbLayout
  1
Layout2
 70
     1
 71
     2
 10
0.0
 20
0.0
 11
0.0
 21
0.0
 12
0.0
 22
0.0
 32
0.0
 14
0.0
 24
0.0
 34
0.0
 15
0.0
 25
0.0
 35
0.0
146
0.0
 13
0.0
 23
0.0
 33
0.0
 16
1.0
 26
0.0
 36
0.0
 17
0.0
 27
1.0
 37
0.0
 76
     0
330
23
  0
LAYOUT
  5
22
102
{ACAD_REACTORS
330
1A
102
}
330
1A
100
AcDbPlotSettings
  1

  2
none_device
  4

  6

 40
0.0
 41
0.0
 42
0.0
 43
0.0
 44
0.0
 45
0.0
 46
0.0
 47
0.0
 48
0.0
 49
0.0
140
0.0
141
0.0
142
1.0
143
1.0
 70
  1712
 72
     0
 73
     0
 74
     0
  7

 75
     0
 76
     0
 77
     2
 78
   300
147
1.0
148
0.0
149
0.0
100
AcDbLayout
  1
Model
 70
     1
 71
     0
 10
0.0
 20
0.0
 11
12.0
 21
9.0
 12
0.0
 22
0.0
 32
0.0
 14
1.000000000000000E+20
 24
1.000000000000000E+20
 34
1.000000000000000E+20
 15
-1.000000000000000E+20
 25
-1.000000000000000E+20
 35
-1.000000000000000E+20
146
0.0
 13
0.0
 23
0.0
 33
0.0
 16
1.0
 26
0.0
 36
0.0
 17
0.0
 27
1.0
 37
0.0
 76
     0
330
1F
331
29
  0
MATERIAL
  5
3D
102
{ACAD_REACTORS
330
3B
102
}
330
3B
100
AcDbMaterial
  1
ByBlock
 72
     1
 94
      127
  0
MATERIAL
  5
3C
102
{ACAD_REACTORS
330
3B
102
}
330
3B
100
AcDbMaterial
  1
ByLayer
 72
     1
 94
      127
  0
MATERIAL
  5
3E
102
{ACAD_REACTORS
330
3B
102
}
330
3B
100
AcDbMaterial
  1
Global
 72
     1
 94
      127
  0
MLINESTYLE
  5
18
102
{ACAD_REACTORS
330
17
102
}
330
17
100
AcDbMlineStyle
  2
Standard
 70
     0
  3

 62
   256
 51
90.0
 52
90.0
 71
     2
 49
0.5
 62
   256
  6
BYLAYER
 49
-0.5
 62
   256
  6
BYLAYER
  0
ACDBPLACEHOLDER
  5
F
102
{ACAD_REACTORS
330
E
102
}
330
E
  0
VISUALSTYLE
  5
2F
102
{ACAD_REACTORS
330
2A
102
}
330
2A
100
AcDbVisualStyle
  2
2dWireframe
 70
     4
177
     2
291
     0
 71
     0
176
     1
 72
     2
176
     1
 73
     0
176
     1
 90
        0
176
     1
 40
-0.6
176
     1
 41
-30.0
176
     1
 62
     5
 63
     7
421
 16777215
176
     1
 74
     1
176
     1
 91
        4
176
     1
 64
     7
176
     1
 65
   257
176
     1
 75
     1
176
     1
175
     1
176
     1
 42
1.0
176
     1
 92
        0
176
     1
 66
   257
176
     1
 43
1.0
176
     1
 76
     1
176
     1
 77
     6
176
     1
 78
     2
176
     1
 67
     7
176
     1
 79
     5
176
     1
170
     0
176
     1
171
     0
176
     1
290
     0
176
     1
 93
        1
176
     1
 44
0.0
176
     1
173
     0
176
     1
  0
VISUALSTYLE
  5
31
102
{ACAD_REACTORS
330
2A
102
}
330
2A
100
AcDbVisualStyle
  2
3D Hidden
 70
     6
177
     2
291
     0
 71
     1
176
     1
 72
     2
176
     1
 73
     2
176
     1
 90
        0
176
     1
 40
-0.6
176
     1
 41
-30.0
176
     1
 62
     5
 63
     7
421
 16777215
176
     1
 74
     2
176
     1
 91
        2
176
     1
 64
     7
176
     1
 65
   257
176
     1
 75
     2
176
     1
175
     1
176
     1
 42
40.0
176
     1
 92
        0
176
     1
 66
   257
176
     1
 43
1.0
176
     1
 76
     1
176
     1
 77
     6
176
     1
 78
     2
176
     1
 67
     7
176
     1
 79
     3
176
     1
170
     0
176
     1
171
     0
176
     1
290
     0
176
     1
 93
        1
176
     1
 44
0.0
176
     1
173
     0
176
     1
  0
VISUALSTYLE
  5
30
102
{ACAD_REACTORS
330
2A
102
}
330
2A
100
AcDbVisualStyle
  2
3dWireframe
 70
     5
177
     2
291
     0
 71
     0
176
     1
 72
     2
176
     1
 73
     0
176
     1
 90
        0
176
     1
 40
-0.6
176
     1
 41
-30.0
176
     1
 62
     5
 63
     7
421
 16777215
176
     1
 74
     1
176
     1
 91
        4
176
     1
 64
     7
176
     1
 65
   257
176
     1
 75
     1
176
     1
175
     1
176
     1
 42
1.0
176
     1
 92
        0
176
     1
 66
   257
176
     1
 43
1.0
176
     1
 76
     1
176
     1
 77
     6
176
     1
 78
     2
176
     1
 67
     7
176
     1
 79
     5
176
     1
170
     0
176
     1
171
     0
176
     1
290
     0
176
     1
 93
        1
176
     1
 44
0.0
176
     1
173
     0
176
     1
  0
VISUALSTYLE
  5
32
102
{ACAD_REACTORS
330
2A
102
}
330
2A
100
AcDbVisualStyle
  2
Basic
 70
     7
177
     2
291
     1
 71
     1
176
     1
 72
     0
176
     1
 73
     1
176
     1
 90
        0
176
     1
 40
-0.6
176
     1
 41
-30.0
176
     1
 62
     5
 63
     7
421
 16777215
176
     1
 74
     0
176
     1
 91
        4
176
     1
 64
     7
176
     1
 65
   257
176
     1
 75
     1
176
     1
175
     1
176
     1
 42
1.0
176
     1
 92
        8
176
     1
 66
     7
176
     1
 43
1.0
176
     1
 76
     1
176
     1
 77
     6
176
     1
 78
     2
176
     1
 67
     7
176
     1
 79
     5
176
     1
170
     0
176
     1
171
     0
176
     1
290
     0
176
     1
 93
        1
176
     1
 44
0.0
176
     1
173
     0
176
     1
  0
VISUALSTYLE
  5
36
102
{ACAD_REACTORS
330
2A
102
}
330
2A
100
AcDbVisualStyle
  2
Brighten
 70
    12
177
     2
291
     1
 71
     2
176
     1
 72
     2
176
     1
 73
     0
176
     1
 90
        0
176
     1
 40
-0.6
176
     1
 41
-30.0
176
     1
 62
     5
 63
     7
421
 16777215
176
     1
 74
     1
176
     1
 91
        4
176
     1
 64
     7
176
     1
 65
   257
176
     1
 75
     1
176
     1
175
     1
176
     1
 42
1.0
176
     1
 92
        8
176
     1
 66
     7
176
     1
 43
1.0
176
     1
 76
     1
176
     1
 77
     6
176
     1
 78
     2
176
     1
 67
     7
176
     1
 79
     5
176
     1
170
     0
176
     1
171
     0
176
     1
290
     0
176
     1
 93
        1
176
     1
 44
50.0
176
     1
173
     0
176
     1
  0
VISUALSTYLE
  5
3A
102
{ACAD_REACTORS
330
2A
102
}
330
2A
100
AcDbVisualStyle
  2
ColorChange
 70
    16
177
     2
291
     1
 71
     2
176
     1
 72
     2
176
     1
 73
     3
176
     1
 90
        0
176
     1
 40
-0.6
176
     1
 41
-30.0
176
     1
 62
     5
 63
     8
421
  8421504
176
     1
 74
     1
176
     1
 91
        4
176
     1
 64
     7
176
     1
 65
   257
176
     1
 75
     1
176
     1
175
     1
176
     1
 42
1.0
176
     1
 92
        8
176
     1
 66
     8
424
  8421504
176
     1
 43
1.0
176
     1
 76
     1
176
     1
 77
     6
176
     1
 78
     2
176
     1
 67
     7
176
     1
 79
     5
176
     1
170
     0
176
     1
171
     0
176
     1
290
     0
176
     1
 93
        1
176
     1
 44
0.0
176
     1
173
     0
176
     1
  0
VISUALSTYLE
  5
34
102
{ACAD_REACTORS
330
2A
102
}
330
2A
100
AcDbVisualStyle
  2
Conceptual
 70
     9
177
     2
291
     0
 71
     3
176
     1
 72
     2
176
     1
 73
     0
176
     1
 90
        0
176
     1
 40
-0.6
176
     1
 41
-30.0
176
     1
 62
     5
 63
     7
421
 16777215
176
     1
 74
     2
176
     1
 91
        2
176
     1
 64
     7
176
     1
 65
   257
176
     1
 75
     1
176
     1
175
     1
176
     1
 42
40.0
176
     1
 92
        8
176
     1
 66
     7
176
     1
 43
1.0
176
     1
 76
     1
176
     1
 77
     6
176
     1
 78
     2
176
     1
 67
     7
176
     1
 79
     3
176
     1
170
     0
176
     1
171
     0
176
     1
290
     0
176
     1
 93
        1
176
     1
 44
0.0
176
     1
173
     0
176
     1
  0
VISUALSTYLE
  5
35
102
{ACAD_REACTORS
330
2A
102
}
330
2A
100
AcDbVisualStyle
  2
Dim
 70
    11
177
     2
291
     1
 71
     2
176
     1
 72
     2
176
     1
 73
     0
176
     1
 90
        0
176
     1
 40
-0.6
176
     1
 41
-30.0
176
     1
 62
     5
 63
     7
421
 16777215
176
     1
 74
     1
176
     1
 91
        4
176
     1
 64
     7
176
     1
 65
   257
176
     1
 75
     1
176
     1
175
     1
176
     1
 42
1.0
176
     1
 92
        8
176
     1
 66
     7
176
     1
 43
1.0
176
     1
 76
     1
176
     1
 77
     6
176
     1
 78
     2
176
     1
 67
     7
176
     1
 79
     5
176
     1
170
     0
176
     1
171
     0
176
     1
290
     0
176
     1
 93
        1
176
     1
 44
-50.0
176
     1
173
     0
176
     1
  0
VISUALSTYLE
  5
39
102
{ACAD_REACTORS
330
2A
102
}
330
2A
100
AcDbVisualStyle
  2
Facepattern
 70
    15
177
     2
291
     1
 71
     2
176
     1
 72
     2
176
     1
 73
     0
176
     1
 90
        0
176
     1
 40
-0.6
176
     1
 41
-30.0
176
     1
 62
     5
 63
     7
421
 16777215
176
     1
 74
     1
176
     1
 91
        4
176
     1
 64
     7
176
     1
 65
   257
176
     1
 75
     1
176
     1
175
     1
176
     1
 42
1.0
176
     1
 92
        8
176
     1
 66
     7
176
     1
 43
1.0
176
     1
 76
     1
176
     1
 77
     6
176
     1
 78
     2
176
     1
 67
     7
176
     1
 79
     5
176
     1
170
     0
176
     1
171
     0
176
     1
290
     0
176
     1
 93
        1
176
     1
 44
0.0
176
     1
173
     0
176
     1
  0
VISUALSTYLE
  5
2B
102
{ACAD_REACTORS
330
2A
102
}
330
2A
100
AcDbVisualStyle
  2
Flat
 70
     0
177
     2
291
     1
 71
     2
176
     1
 72
     1
176
     1
 73
     1
176
     1
 90
        2
176
     1
 40
-0.6
176
     1
 41
30.0
176
     1
 62
     5
 63
     7
421
 16777215
176
     1
 74
     0
176
     1
 91
        4
176
     1
 64
     7
176
     1
 65
   257
176
     1
 75
     1
176
     1
175
     1
176
     1
 42
1.0
176
     1
 92
        8
176
     1
 66
     7
176
     1
 43
1.0
176
     1
 76
     1
176
     1
 77
     6
176
     1
 78
     2
176
     1
 67
     7
176
     1
 79
     5
176
     1
170
     0
176
     1
171
     0
176
     1
290
     0
176
     1
 93
       13
176
     1
 44
0.0
176
     1
173
     0
176
     1
  0
VISUALSTYLE
  5
2C
102
{ACAD_REACTORS
330
2A
102
}
330
2A
100
AcDbVisualStyle
  2
FlatWithEdges
 70
     1
177
     2
291
     1
 71
     2
176
     1
 72
     1
176
     1
 73
     1
176
     1
 90
        2
176
     1
 40
-0.6
176
     1
 41
30.0
176
     1
 62
     5
 63
     7
421
 16777215
176
     1
 74
     1
176
     1
 91
        4
176
     1
 64
     7
176
     1
 65
   257
176
     1
 75
     1
176
     1
175
     1
176
     1
 42
1.0
176
     1
 92
        0
176
     1
 66
   257
176
     1
 43
1.0
176
     1
 76
     1
176
     1
 77
     6
176
     1
 78
     2
176
     1
 67
     7
176
     1
 79
     5
176
     1
170
     0
176
     1
171
     0
176
     1
290
     0
176
     1
 93
       13
176
     1
 44
0.0
176
     1
173
     0
176
     1
  0
VISUALSTYLE
  5
2D
102
{ACAD_REACTORS
330
2A
102
}
330
2A
100
AcDbVisualStyle
  2
Gouraud
 70
     2
177
     2
291
     1
 71
     2
176
     1
 72
     2
176
     1
 73
     1
176
     1
 90
        2
176
     1
 40
-0.6
176
     1
 41
30.0
176
     1
 62
     5
 63
     7
421
 16777215
176
     1
 74
     0
176
     1
 91
        4
176
     1
 64
     7
176
     1
 65
   257
176
     1
 75
     1
176
     1
175
     1
176
     1
 42
1.0
176
     1
 92
        0
176
     1
 66
     7
176
     1
 43
1.0
176
     1
 76
     1
176
     1
 77
     6
176
     1
 78
     2
176
     1
 67
     7
176
     1
 79
     5
176
     1
170
     0
176
     1
171
     0
176
     1
290
     0
176
     1
 93
       13
176
     1
 44
0.0
176
     1
173
     0
176
     1
  0
VISUALSTYLE
  5
2E
102
{ACAD_REACTORS
330
2A
102
}
330
2A
100
AcDbVisualStyle
  2
GouraudWithEdges
 70
     3
177
     2
291
     1
 71
     2
176
     1
 72
     2
176
     1
 73
     1
176
     1
 90
        2
176
     1
 40
-0.6
176
     1
 41
30.0
176
     1
 62
     5
 63
     7
421
 16777215
176
     1
 74
     1
176
     1
 91
        4
176
     1
 64
     7
176
     1
 65
   257
176
     1
 75
     1
176
     1
175
     1
176
     1
 42
1.0
176
     1
 92
        0
176
     1
 66
   257
176
     1
 43
1.0
176
     1
 76
     1
176
     1
 77
     6
176
     1
 78
     2
176
     1
 67
     7
176
     1
 79
     5
176
     1
170
     0
176
     1
171
     0
176
     1
290
     0
176
     1
 93
       13
176
     1
 44
0.0
176
     1
173
     0
176
     1
  0
VISUALSTYLE
  5
38
102
{ACAD_REACTORS
330
2A
102
}
330
2A
100
AcDbVisualStyle
  2
Linepattern
 70
    14
177
     2
291
     1
 71
     2
176
     1
 72
     2
176
     1
 73
     0
176
     1
 90
        0
176
     1
 40
-0.6
176
     1
 41
-30.0
176
     1
 62
     5
 63
     7
421
 16777215
176
     1
 74
     1
176
     1
 91
        4
176
     1
 64
     7
176
     1
 65
   257
176
     1
 75
     7
176
     1
175
     7
176
     1
 42
1.0
176
     1
 92
        8
176
     1
 66
     7
176
     1
 43
1.0
176
     1
 76
     1
176
     1
 77
     6
176
     1
 78
     2
176
     1
 67
     7
176
     1
 79
     5
176
     1
170
     0
176
     1
171
     0
176
     1
290
     0
176
     1
 93
        1
176
     1
 44
0.0
176
     1
173
     0
176
     1
  0
VISUALSTYLE
  5
33
102
{ACAD_REACTORS
330
2A
102
}
330
2A
100
AcDbVisualStyle
  2
Realistic
 70
     8
177
     2
291
     0
 71
     2
176
     1
 72
     2
176
     1
 73
     0
176
     1
 90
        0
176
     1
 40
-0.6
176
     1
 41
-30.0
176
     1
 62
     5
 63
     7
421
 16777215
176
     1
 74
     1
176
     1
 91
        0
176
     1
 64
     7
176
     1
 65
   257
176
     1
 75
     1
176
     1
175
     1
176
     1
 42
1.0
176
     1
 92
        8
176
     1
 66
     8
424
  7895160
176
     1
 43
1.0
176
     1
 76
     1
176
     1
 77
     6
176
     1
 78
     2
176
     1
 67
     7
176
     1
 79
     5
176
     1
170
     0
176
     1
171
     0
176
     1
290
     0
176
     1
 93
       13
176
     1
 44
0.0
176
     1
173
     0
176
     1
  0
VISUALSTYLE
  5
37
102
{ACAD_REACTORS
330
2A
102
}
330
2A
100
AcDbVisualStyle
  2
Thicken
 70
    13
177
     2
291
     1
 71
     2
176
     1
 72
     2
176
     1
 73
     0
176
     1
 90
        0
176
     1
 40
-0.6
176
     1
 41
-30.0
176
     1
 62
     5
 63
     7
421
 16777215
176
     1
 74
     1
176
     1
 91
        4
176
     1
 64
     7
176
     1
 65
   257
176
     1
 75
     1
176
     1
175
     1
176
     1
 42
1.0
176
     1
 92
       12
176
     1
 66
     7
176
     1
 43
1.0
176
     1
 76
     1
176
     1
 77
     6
176
     1
 78
     2
176
     1
 67
     7
176
     1
 79
     5
176
     1
170
     0
176
     1
171
     0
176
     1
290
     0
176
     1
 93
        1
176
     1
 44
0.0
176
     1
173
     0
176
     1
  0
ENDSEC
  0
EOF
