  0
SECTION
  2
HEADER
  9
$ACADVER
  1
AC1024
  9
$ACADMAINTVER
 70
     6
  9
$DWGCODEPAGE
  3
UNDEFINED
  9
$INSBASE
 10
0.0
 20
0.0
 30
0.0
  9
$EXTMIN
 10
1.000000000000000E+20
 20
1.000000000000000E+20
 30
1.000000000000000E+20
  9
$EXTMAX
 10
-1.000000000000000E+20
 20
-1.000000000000000E+20
 30
-1.000000000000000E+20
  9
$LIMMIN
 10
0.0
 20
0.0
  9
$LIMMAX
 10
12.0
 20
9.0
  9
$ORTHOMODE
 70
     0
  9
$REGENMODE
 70
     1
  9
$FILLMODE
 70
     1
  9
$QTEXTMODE
 70
     0
  9
$MIRRTEXT
 70
     1
  9
$LTSCALE
 40
1.0
  9
$ATTMODE
 70
     1
  9
$TEXTSIZE
 40
0.2
  9
$TRACEWID
 40
0.05
  9
$TEXTSTYLE
  7
Standard
  9
$CLAYER
  8
0
  9
$CELTYPE
  6
ByLayer
  9
$CECOLOR
 62
   256
  9
$CELTSCALE
 40
1.0
  9
$DISPSILH
 70
     0
  9
$DIMSCALE
 40
1.0
  9
$DIMASZ
 40
0.18
  9
$DIMEXO
 40
0.0625
  9
$DIMDLI
 40
0.38
  9
$DIMRND
 40
0.0
  9
$DIMDLE
 40
0.0
  9
$DIMEXE
 40
0.18
  9
$DIMTP
 40
0.0
  9
$DIMTM
 40
0.0
  9
$DIMTXT
 40
0.18
  9
$DIMCEN
 40
0.09
  9
$DIMTSZ
 40
0.0
  9
$DIMTOL
 70
     0
  9
$DIMLIM
 70
     0
  9
$DIMTIH
 70
     1
  9
$DIMTOH
 70
     1
  9
$DIMSE1
 70
     0
  9
$DIMSE2
 70
     0
  9
$DIMTAD
 70
     0
  9
$DIMZIN
 70
     0
  9
$DIMBLK
  1

  9
$DIMASO
 70
     1
  9
$DIMSHO
 70
     1
  9
$DIMPOST
  1

  9
$DIMAPOST
  1

  9
$DIMALT
 70
     0
  9
$DIMALTD
 70
     2
  9
$DIMALTF
 40
25.4
  9
$DIMLFAC
 40
1.0
  9
$DIMTOFL
 70
     0
  9
$DIMTVP
 40
0.0
  9
$DIMTIX
 70
     0
  9
$DIMSOXD
 70
     0
  9
$DIMSAH
 70
     0
  9
$DIMBLK1
  1

  9
$DIMBLK2
  1

  9
$DIMSTYLE
  2
Standard
  9
$DIMCLRD
 70
     0
  9
$DIMCLRE
 70
     0
  9
$DIMCLRT
 70
     0
  9
$DIMTFAC
 40
1.0
  9
$DIMGAP
 40
0.09
  9
$DIMJUST
 70
     0
  9
$DIMSD1
 70
     0
  9
$DIMSD2
 70
     0
  9
$DIMTOLJ
 70
     1
  9
$DIMTZIN
 70
     0
  9
$DIMALTZ
 70
     0
  9
$DIMALTTZ
 70
     0
  9
$DIMUPT
 70
     0
  9
$DIMDEC
 70
     4
  9
$DIMTDEC
 70
     4
  9
$DIMALTU
 70
     2
  9
$DIMALTTD
 70
     2
  9
$DIMTXSTY
  7
Standard
  9
$DIMAUNIT
 70
     0
  9
$DIMADEC
 70
     0
  9
$DIMALTRND
 40
0.0
  9
$DIMAZIN
 70
     0
  9
$DIMDSEP
 70
    46
  9
$DIMATFIT
 70
     3
  9
$DIMFRAC
 70
     0
  9
$DIMLDRBLK
  1

  9
$DIMLUNIT
 70
     2
  9
$DIMLWD
 70
    -2
  9
$DIMLWE
 70
    -2
  9
$DIMTMOVE
 70
     0
  9
$DIMFXL
 40
1.0
  9
$DIMFXLON
 70
     0
  9
$DIMJOGANG
 40
0.7853981633974483
  9
$DIMTFILL
 70
     0
  9
$DIMTFILLCLR
 70
     0
  9
$DIMARCSYM
 70
     0
  9
$DIMLTYPE
  6

  9
$DIMLTEX1
  6

  9
$DIMLTEX2
  6

  9
$DIMTXTDIRECTION
 70
     0
  9
$LUNITS
 70
     2
  9
$LUPREC
 70
     4
  9
$SKETCHINC
 40
0.1
  9
$FILLETRAD
 40
0.5
  9
$AUNITS
 70
     0
  9
$AUPREC
 70
     0
  9
$MENU
  1
.
  9
$ELEVATION
 40
0.0
  9
$PELEVATION
 40
0.0
  9
$THICKNESS
 40
0.0
  9
$LIMCHECK
 70
     0
  9
$CHAMFERA
 40
0.5
  9
$CHAMFERB
 40
0.5
  9
$CHAMFERC
 40
1.0
  9
$CHAMFERD
 40
0.0
  9
$SKPOLY
 70
     0
  9
$TDCREATE
 40
2457917.583414352
  9
$TDUCREATE
 40
2457917.208414352
  9
$TDUPDATE
 40
2457917.583414352
  9
$TDUUPDATE
 40
2457917.208414352
  9
$TDINDWG
 40
0.0000000116
  9
$TDUSRTIMER
 40
0.0000000116
  9
$USRTIMER
 70
     1
  9
$ANGBASE
 50
0.0
  9
$ANGDIR
 70
     0
  9
$PDMODE
 70
     0
  9
$PDSIZE
 40
0.0
  9
$PLINEWID
 40
0.0
  9
$SPLFRAME
 70
     0
  9
$SPLINETYPE
 70
     6
  9
$SPLINESEGS
 70
     8
  9
$HANDSEED
  5
D8
  9
$SURFTAB1
 70
     6
  9
$SURFTAB2
 70
     6
  9
$SURFTYPE
 70
     6
  9
$SURFU
 70
     6
  9
$SURFV
 70
     6
  9
$UCSBASE
  2

  9
$UCSNAME
  2

  9
$UCSORG
 10
0.0
 20
0.0
 30
0.0
  9
$UCSXDIR
 10
1.0
 20
0.0
 30
0.0
  9
$UCSYDIR
 10
0.0
 20
1.0
 30
0.0
  9
$UCSORTHOREF
  2

  9
$UCSORTHOVIEW
 70
     0
  9
$UCSORGTOP
 10
0.0
 20
0.0
 30
0.0
  9
$UCSORGBOTTOM
 10
0.0
 20
0.0
 30
0.0
  9
$UCSORGLEFT
 10
0.0
 20
0.0
 30
0.0
  9
$UCSORGRIGHT
 10
0.0
 20
0.0
 30
0.0
  9
$UCSORGFRONT
 10
0.0
 20
0.0
 30
0.0
  9
$UCSORGBACK
 10
0.0
 20
0.0
 30
0.0
  9
$PUCSBASE
  2

  9
$PUCSNAME
  2

  9
$PUCSORG
 10
0.0
 20
0.0
 30
0.0
  9
$PUCSXDIR
 10
1.0
 20
0.0
 30
0.0
  9
$PUCSYDIR
 10
0.0
 20
1.0
 30
0.0
  9
$PUCSORTHOREF
  2

  9
$PUCSORTHOVIEW
 70
     0
  9
$PUCSORGTOP
 10
0.0
 20
0.0
 30
0.0
  9
$PUCSORGBOTTOM
 10
0.0
 20
0.0
 30
0.0
  9
$PUCSORGLEFT
 10
0.0
 20
0.0
 30
0.0
  9
$PUCSORGRIGHT
 10
0.0
 20
0.0
 30
0.0
  9
$PUCSORGFRONT
 10
0.0
 20
0.0
 30
0.0
  9
$PUCSORGBACK
 10
0.0
 20
0.0
 30
0.0
  9
$USERI1
 70
     0
  9
$USERI2
 70
     0
  9
$USERI3
 70
     0
  9
$USERI4
 70
     0
  9
$USERI5
 70
     0
  9
$USERR1
 40
0.0
  9
$USERR2
 40
0.0
  9
$USERR3
 40
0.0
  9
$USERR4
 40
0.0
  9
$USERR5
 40
0.0
  9
$WORLDVIEW
 70
     1
  9
$SHADEDGE
 70
     3
  9
$SHADEDIF
 70
    70
  9
$TILEMODE
 70
     1
  9
$MAXACTVP
 70
    64
  9
$PINSBASE
 10
0.0
 20
0.0
 30
0.0
  9
$PLIMCHECK
 70
     0
  9
$PEXTMIN
 10
1.000000000000000E+20
 20
1.000000000000000E+20
 30
1.000000000000000E+20
  9
$PEXTMAX
 10
-1.000000000000000E+20
 20
-1.000000000000000E+20
 30
-1.000000000000000E+20
  9
$PLIMMIN
 10
0.0
 20
0.0
  9
$PLIMMAX
 10
12.0
 20
9.0
  9
$UNITMODE
 70
     0
  9
$VISRETAIN
 70
     1
  9
$PLINEGEN
 70
     0
  9
$PSLTSCALE
 70
     1
  9
$TREEDEPTH
 70
  3020
  9
$CMLSTYLE
  2
Standard
  9
$CMLJUST
 70
     0
  9
$CMLSCALE
 40
1.0
  9
$PROXYGRAPHICS
 70
     1
  9
$MEASUREMENT
 70
     0
  9
$CELWEIGHT
370
    -1
  9
$ENDCAPS
280
     0
  9
$JOINSTYLE
280
     0
  9
$LWDISPLAY
290
     1
  9
$INSUNITS
 70
     1
  9
$HYPERLINKBASE
  1

  9
$STYLESHEET
  1

  9
$XEDIT
290
     1
  9
$CEPSNTYPE
380
     0
  9
$PSTYLEMODE
290
     1
  9
$FINGERPRINTGUID
  2
{B6FED16D-085B-C7BB-1320-6EDBD5100110}
  9
$VERSIONGUID
  2
{FAEB1C32-E019-11D5-929B-00C0DF256EC4}
  9
$EXTNAMES
290
     1
  9
$PSVPSCALE
 40
0.0
  9
$OLESTARTUP
290
     0
  9
$SORTENTS
280
   127
  9
$INDEXCTL
280
     0
  9
$HIDETEXT
280
     1
  9
$XCLIPFRAME
280
     2
  9
$HALOGAP
280
     0
  9
$OBSCOLOR
 70
   257
  9
$OBSLTYPE
280
     0
  9
$INTERSECTIONDISPLAY
280
     0
  9
$INTERSECTIONCOLOR
 70
   257
  9
$DIMASSOC
280
     2
  9
$PROJECTNAME
  1

  9
$CAMERADISPLAY
290
     0
  9
$LENSLENGTH
 40
50.0
  9
$CAMERAHEIGHT
 40
0.0
  9
$STEPSPERSEC
 40
2.0
  9
$STEPSIZE
 40
6.0
  9
$3DDWFPREC
 40
2.0
  9
$PSOLWIDTH
 40
0.25
  9
$PSOLHEIGHT
 40
4.0
  9
$LOFTANG1
 40
1.570796326794897
  9
$LOFTANG2
 40
1.570796326794897
  9
$LOFTMAG1
 40
0.0
  9
$LOFTMAG2
 40
0.0
  9
$LOFTPARAM
 70
     7
  9
$LOFTNORMALS
280
     1
  9
$LATITUDE
 40
37.795
  9
$LONGITUDE
 40
-122.394
  9
$NORTHDIRECTION
 40
0.0
  9
$TIMEZONE
 70
 -8000
  9
$LIGHTGLYPHDISPLAY
280
     1
  9
$TILEMODELIGHTSYNCH
280
     1
  9
$CMATERIAL
347
3C
  9
$SOLIDHIST
280
     1
  9
$SHOWHIST
280
     1
  9
$DWFFRAME
280
     2
  9
$DGNFRAME
280
     2
  9
$REALWORLDSCALE
290
     1
  9
$INTERFERECOLOR
 62
   256
  9
$CSHADOW
280
     0
  9
$SHADOWPLANELOCATION
 40
0.0
  0
ENDSEC
  0
SECTION
  2
CLASSES
  0
CLASS
  1
ACDBDICTIONARYWDFLT
  2
AcDbDictionaryWithDefault
  3
ObjectDBX Classes
 90
        0
 91
        4
280
     0
281
     0
  0
CLASS
  1
VISUALSTYLE
  2
AcDbVisualStyle
  3
ObjectDBX Classes
 90
     4095
 91
        4
280
     0
281
     0
  0
CLASS
  1
MATERIAL
  2
AcDbMaterial
  3
ObjectDBX Classes
 90
     1153
 91
        4
280
     0
281
     0
  0
CLASS
  1
SUN
  2
AcDbSun
  3
SCENEOE
 90
     1024
 91
        4
280
     0
281
     0
  0
ENDSEC
  0
SECTION
  2
TABLES
  0
TABLE
  2
VPORT
  5
8
330
0
100
AcDbSymbolTable
 70
     1
  0
VPORT
  5
29
330
8
100
AcDbSymbolTableRecord
100
AcDbViewportTableRecord
  2
*Active
 70
     0
 10
0.0
 20
0.0
 11
1.0
 21
1.0
 12
0.0
 22
0.0
 13
0.0
 23
0.0
 14
0.5
 24
0.5
 15
0.5
 25
0.5
 16
0.0
 26
0.0
 36
1.0
 17
91.00082462281999
 27
-128.4993055234307
 37
0.0
 40
256.9986110468615
 41
0.7081814508812795
 42
50.0
 43
0.0
 44
0.0
 50
0.0
 51
0.0
 71
     0
 72
   100
 73
     1
 74
     3
 75
     0
 76
     0
 77
     0
 78
     0
281
     0
 65
     1
110
0.0
120
0.0
130
0.0
111
1.0
121
0.0
131
0.0
112
0.0
122
1.0
132
0.0
 79
     0
146
0.0
 60
     3
 61
     5
292
     1
282
     1
141
0.0
142
0.0
 63
   250
361
3F
  0
ENDTAB
  0
TABLE
  2
LTYPE
  5
5
330
0
100
AcDbSymbolTable
 70
     1
  0
LTYPE
  5
14
330
5
100
AcDbSymbolTableRecord
100
AcDbLinetypeTableRecord
  2
ByBlock
 70
     0
  3

 72
    65
 73
     0
 40
0.0
  0
LTYPE
  5
15
330
5
100
AcDbSymbolTableRecord
100
AcDbLinetypeTableRecord
  2
ByLayer
 70
     0
  3

 72
    65
 73
     0
 40
0.0
  0
LTYPE
  5
16
330
5
100
AcDbSymbolTableRecord
100
AcDbLinetypeTableRecord
  2
Continuous
 70
     0
  3
Solid line
 72
    65
 73
     0
 40
0.0
  0
ENDTAB
  0
TABLE
  2
LAYER
  5
2
330
0
100
AcDbSymbolTable
 70
     2
  0
LAYER
  5
10
330
2
100
AcDbSymbolTableRecord
100
AcDbLayerTableRecord
  2
0
 70
     0
 62
     7
  6
Continuous
370
    -3
390
F
347
3E
  0
LAYER
  5
40
330
2
100
AcDbSymbolTableRecord
100
AcDbLayerTableRecord
  2
_U+30EC_U+30A4_U+30E4_U+30FC 1
 70
     0
 62
     7
  6
Continuous
370
    -3
390
F
347
3E
  0
ENDTAB
  0
TABLE
  2
STYLE
  5
3
330
0
100
AcDbSymbolTable
 70
     1
  0
STYLE
  5
11
330
3
100
AcDbSymbolTableRecord
100
AcDbTextStyleTableRecord
  2
Standard
 70
     0
 40
0.0
 41
1.0
 50
0.0
 71
     0
 42
0.2
  3
txt
  4

  0
ENDTAB
  0
TABLE
  2
VIEW
  5
6
330
0
100
AcDbSymbolTable
 70
     0
  0
ENDTAB
  0
TABLE
  2
UCS
  5
7
330
0
100
AcDbSymbolTable
 70
     0
  0
ENDTAB
  0
TABLE
  2
APPID
  5
9
330
0
100
AcDbSymbolTable
 70
     1
  0
APPID
  5
12
330
9
100
AcDbSymbolTableRecord
100
AcDbRegAppTableRecord
  2
ACAD
 70
     0
  0
ENDTAB
  0
TABLE
  2
DIMSTYLE
  5
A
330
0
100
AcDbSymbolTable
 70
     1
100
AcDbDimStyleTable
  0
DIMSTYLE
105
27
330
A
100
AcDbSymbolTableRecord
100
AcDbDimStyleTableRecord
  2
Standard
 70
     0
178
     0
340
11
  0
ENDTAB
  0
TABLE
  2
BLOCK_RECORD
  5
1
330
0
100
AcDbSymbolTable
 70
     7
  0
BLOCK_RECORD
  5
1F
330
1
100
AcDbSymbolTableRecord
100
AcDbBlockTableRecord
  2
*Model_Space
340
22
 70
     0
280
     1
281
     0
  0
BLOCK_RECORD
  5
1B
330
1
100
AcDbSymbolTableRecord
100
AcDbBlockTableRecord
  2
*Paper_Space
340
1E
 70
     0
280
     1
281
     0
  0
BLOCK_RECORD
  5
23
330
1
100
AcDbSymbolTableRecord
100
AcDbBlockTableRecord
  2
*Paper_Space0
340
26
 70
     0
280
     1
281
     0
  0
BLOCK_RECORD
  5
41
330
1
100
AcDbSymbolTableRecord
100
AcDbBlockTableRecord
  2
block 2
340
0
102
{BLKREFS
331
42
102
}
 70
     0
280
     1
281
     0
  0
BLOCK_RECORD
  5
5C
330
1
100
AcDbSymbolTableRecord
100
AcDbBlockTableRecord
  2
block 3
340
0
102
{BLKREFS
331
5D
102
}
 70
     0
280
     1
281
     0
  0
BLOCK_RECORD
  5
73
330
1
100
AcDbSymbolTableRecord
100
AcDbBlockTableRecord
  2
block 4
340
0
102
{BLKREFS
331
74
102
}
 70
     0
280
     1
281
     0
  0
BLOCK_RECORD
  5
87
330
1
100
AcDbSymbolTableRecord
100
AcDbBlockTableRecord
  2
block 5
340
0
102
{BLKREFS
331
88
102
}
 70
     0
280
     1
281
     0
  0
BLOCK_RECORD
  5
97
330
1
100
AcDbSymbolTableRecord
100
AcDbBlockTableRecord
  2
block 6
340
0
102
{BLKREFS
331
98
102
}
 70
     0
280
     1
281
     0
  0
BLOCK_RECORD
  5
A5
330
1
100
AcDbSymbolTableRecord
100
AcDbBlockTableRecord
  2
block 7
340
0
102
{BLKREFS
331
A6
102
}
 70
     0
280
     1
281
     0
  0
ENDTAB
  0
ENDSEC
  0
SECTION
  2
BLOCKS
  0
BLOCK
  5
20
330
1F
100
AcDbEntity
  8
0
100
AcDbBlockBegin
  2
*Model_Space
 70
     0
 10
0.0
 20
0.0
 30
0.0
  3
*Model_Space
  1

  0
ENDBLK
  5
21
330
1F
100
AcDbEntity
  8
0
100
AcDbBlockEnd
  0
BLOCK
  5
1C
330
1B
100
AcDbEntity
 67
     1
  8
0
100
AcDbBlockBegin
  2
*Paper_Space
 70
     0
 10
0.0
 20
0.0
 30
0.0
  3
*Paper_Space
  1

  0
ENDBLK
  5
1D
330
1B
100
AcDbEntity
 67
     1
  8
0
100
AcDbBlockEnd
  0
BLOCK
  5
24
330
23
100
AcDbEntity
  8
0
100
AcDbBlockBegin
  2
*Paper_Space0
 70
     0
 10
0.0
 20
0.0
 30
0.0
  3
*Paper_Space0
  1

  0
ENDBLK
  5
25
330
23
100
AcDbEntity
  8
0
100
AcDbBlockEnd
  0
BLOCK
  5
43
330
41
100
AcDbEntity
  8
0
100
AcDbBlockBegin
  2
block 2
 70
     0
 10
0.0
 20
0.0
 30
0.0
  3
block 2
  1

  0
POLYLINE
  5
45
330
41
100
AcDbEntity
  8
_U+30EC_U+30A4_U+30E4_U+30FC 1
 62
   179
420
  2234388
370
     9
100
AcDb2dPolyline
 66
     1
 10
0.0
 20
0.0
 30
0.0
  0
VERTEX
  5
46
330
45
100
AcDbEntity
  8
_U+30EC_U+30A4_U+30E4_U+30FC 1
 62
   179
420
  2234388
370
     9
100
AcDbVertex
100
AcDb2dVertex
 10
84.65410561807161
 20
-133.4037280222045
 30
0.0
  0
VERTEX
  5
47
330
45
100
AcDbEntity
  8
_U+30EC_U+30A4_U+30E4_U+30FC 1
 62
   179
420
  2234388
370
     9
100
AcDbVertex
100
AcDb2dVertex
 10
81.61517208449015
 20
-136.4381813547792
 30
0.0
  0
SEQEND
  5
48
330
45
100
AcDbEntity
  8
_U+30EC_U+30A4_U+30E4_U+30FC 1
 62
   179
420
  2234388
370
     9
  0
POLYLINE
  5
49
330
41
100
AcDbEntity
  8
_U+30EC_U+30A4_U+30E4_U+30FC 1
 62
   179
420
  2234388
370
     9
100
AcDb2dPolyline
 66
     1
 10
0.0
 20
0.0
 30
0.0
  0
VERTEX
  5
4A
330
49
100
AcDbEntity
  8
_U+30EC_U+30A4_U+30E4_U+30FC 1
 62
   179
420
  2234388
370
     9
100
AcDbVertex
100
AcDb2dVertex
 10
82.65438483575541
 20
-135.8380357993739
 30
0.0
  0
VERTEX
  5
4B
330
49
100
AcDbEntity
  8
_U+30EC_U+30A4_U+30E4_U+30FC 1
 62
   179
420
  2234388
370
     9
100
AcDbVertex
100
AcDb2dVertex
 10
81.61517208449015
 20
-136.4381813547792
 30
0.0
  0
SEQEND
  5
4C
330
49
100
AcDbEntity
  8
_U+30EC_U+30A4_U+30E4_U+30FC 1
 62
   179
420
  2234388
370
     9
  0
POLYLINE
  5
4D
330
41
100
AcDbEntity
  8
_U+30EC_U+30A4_U+30E4_U+30FC 1
 62
   179
420
  2234388
370
     9
100
AcDb2dPolyline
 66
     1
 10
0.0
 20
0.0
 30
0.0
  0
VERTEX
  5
4E
330
4D
100
AcDbEntity
  8
_U+30EC_U+30A4_U+30E4_U+30FC 1
 62
   179
420
  2234388
370
     9
100
AcDbVertex
100
AcDb2dVertex
 10
82.21514123585034
 20
-135.3991449661503
 30
0.0
  0
VERTEX
  5
4F
330
4D
100
AcDbEntity
  8
_U+30EC_U+30A4_U+30E4_U+30FC 1
 62
   179
420
  2234388
370
     9
100
AcDbVertex
100
AcDb2dVertex
 10
81.61517208449015
 20
-136.4381813547792
 30
0.0
  0
SEQEND
  5
50
330
4D
100
AcDbEntity
  8
_U+30EC_U+30A4_U+30E4_U+30FC 1
 62
   179
420
  2234388
370
     9
  0
ENDBLK
  5
44
330
41
100
AcDbEntity
  8
0
100
AcDbBlockEnd
  0
BLOCK
  5
5E
330
5C
100
AcDbEntity
  8
0
100
AcDbBlockBegin
  2
block 3
 70
     0
 10
0.0
 20
0.0
 30
0.0
  3
block 3
  1

  0
SPLINE
  5
60
330
5C
100
AcDbEntity
  8
_U+30EC_U+30A4_U+30E4_U+30FC 1
370
     0
100
AcDbSpline
210
0.0
220
0.0
230
1.0
 70
    11
 71
     3
 72
    26
 73
    22
 74
     0
 42
0.0000000001
 43
0.0000000001
 12
1.0
 22
0.0
 32
0.0
 13
1.0
 23
0.0
 33
0.0
 40
0.0
 40
0.0
 40
0.0
 40
0.0
 40
1.0
 40
1.0
 40
1.0
 40
2.0
 40
2.0
 40
2.0
 40
3.0
 40
3.0
 40
3.0
 40
4.0
 40
4.0
 40
4.0
 40
5.0
 40
5.0
 40
5.0
 40
6.0
 40
6.0
 40
6.0
 40
7.0
 40
7.0
 40
7.0
 40
7.0
 10
85.73481850070172
 20
-131.9950439123137
 30
0.0
 10
85.73481850070172
 20
-131.9950439123137
 30
0.0
 10
85.73481850070172
 20
-130.8908908092912
 30
0.0
 10
85.73481850070172
 20
-130.8908908092912
 30
0.0
 10
85.73481850070172
 20
-130.8908908092912
 30
0.0
 10
85.40477835321478
 20
-130.8908908092912
 30
0.0
 10
85.40477835321478
 20
-130.8908908092912
 30
0.0
 10
85.40477835321478
 20
-130.8908908092912
 30
0.0
 10
85.40477835321478
 20
-130.7427517034254
 30
0.0
 10
85.40477835321478
 20
-130.7427517034254
 30
0.0
 10
85.73688555799286
 20
-130.7279377928388
 30
0.0
 10
85.78339434704374
 20
-130.5649847763865
 30
0.0
 10
85.81302216821689
 20
-130.4506076062762
 30
0.0
 10
85.81302216821689
 20
-130.4506076062762
 30
0.0
 10
85.95909421679148
 20
-130.4506076062762
 30
0.0
 10
85.95909421679148
 20
-130.4506076062762
 30
0.0
 10
85.95909421679148
 20
-130.4506076062762
 30
0.0
 10
85.95909421679148
 20
-131.9950439123137
 30
0.0
 10
85.95909421679148
 20
-131.9950439123137
 30
0.0
 10
85.95909421679148
 20
-131.9950439123137
 30
0.0
 10
85.73481850070172
 20
-131.9950439123137
 30
0.0
 10
85.73481850070172
 20
-131.9950439123137
 30
0.0
  0
HATCH
  5
61
330
5C
100
AcDbEntity
  8
_U+30EC_U+30A4_U+30E4_U+30FC 1
 62
   179
420
  2234388
100
AcDbHatch
 10
0.0
 20
0.0
 30
0.0
210
0.0
220
0.0
230
1.0
  2
SOLID
 70
     1
 71
     0
 91
        1
 92
        1
 93
        1
 72
     4
 94
        3
 73
     0
 74
     1
 95
       26
 96
       22
 40
0.0
 40
0.0
 40
0.0
 40
0.0
 40
1.0
 40
1.0
 40
1.0
 40
2.0
 40
2.0
 40
2.0
 40
3.0
 40
3.0
 40
3.0
 40
4.0
 40
4.0
 40
4.0
 40
5.0
 40
5.0
 40
5.0
 40
6.0
 40
6.0
 40
6.0
 40
7.0
 40
7.0
 40
7.0
 40
7.0
 10
85.73481850070172
 20
-131.9950439123137
 10
85.73481850070172
 20
-131.9950439123137
 10
85.73481850070172
 20
-130.8908908092912
 10
85.73481850070172
 20
-130.8908908092912
 10
85.73481850070172
 20
-130.8908908092912
 10
85.40477835321478
 20
-130.8908908092912
 10
85.40477835321478
 20
-130.8908908092912
 10
85.40477835321478
 20
-130.8908908092912
 10
85.40477835321478
 20
-130.7427517034254
 10
85.40477835321478
 20
-130.7427517034254
 10
85.73688555799286
 20
-130.7279377928388
 10
85.78339434704374
 20
-130.5649847763865
 10
85.81302216821689
 20
-130.4506076062762
 10
85.81302216821689
 20
-130.4506076062762
 10
85.95909421679148
 20
-130.4506076062762
 10
85.95909421679148
 20
-130.4506076062762
 10
85.95909421679148
 20
-130.4506076062762
 10
85.95909421679148
 20
-131.9950439123137
 10
85.95909421679148
 20
-131.9950439123137
 10
85.95909421679148
 20
-131.9950439123137
 10
85.73481850070172
 20
-131.9950439123137
 10
85.73481850070172
 20
-131.9950439123137
 97
        0
 97
        0
 75
     2
 76
     1
 98
        0
  0
SPLINE
  5
62
330
5C
100
AcDbEntity
  8
_U+30EC_U+30A4_U+30E4_U+30FC 1
370
     0
100
AcDbSpline
210
0.0
220
0.0
230
1.0
 70
    11
 71
     3
 72
    53
 73
    49
 74
     0
 42
0.0000000001
 43
0.0000000001
 12
1.0
 22
0.0
 32
0.0
 13
1.0
 23
0.0
 33
0.0
 40
0.0
 40
0.0
 40
0.0
 40
0.0
 40
1.0
 40
1.0
 40
1.0
 40
2.0
 40
2.0
 40
2.0
 40
3.0
 40
3.0
 40
3.0
 40
4.0
 40
4.0
 40
4.0
 40
5.0
 40
5.0
 40
5.0
 40
6.0
 40
6.0
 40
6.0
 40
7.0
 40
7.0
 40
7.0
 40
8.0
 40
8.0
 40
8.0
 40
9.0
 40
9.0
 40
9.0
 40
10.0
 40
10.0
 40
10.0
 40
11.0
 40
11.0
 40
11.0
 40
12.0
 40
12.0
 40
12.0
 40
13.0
 40
13.0
 40
13.0
 40
14.0
 40
14.0
 40
14.0
 40
15.0
 40
15.0
 40
15.0
 40
16.0
 40
16.0
 40
16.0
 40
16.0
 10
86.9412909396362
 20
-132.0456868159469
 30
0.0
 10
86.86291501734678
 20
-132.0456868159469
 30
0.0
 10
86.76145695530617
 20
-132.0288058480692
 30
0.0
 10
86.6598266384913
 20
-131.9654160911406
 30
0.0
 10
86.48636608080896
 20
-131.8555175451611
 30
0.0
 10
86.46517874357468
 20
-131.7242594071731
 30
0.0
 10
86.4462307184058
 20
-131.6164279184848
 30
0.0
 10
86.4462307184058
 20
-131.6164279184848
 30
0.0
 10
86.66826712243017
 20
-131.6164279184848
 30
0.0
 10
86.66826712243017
 20
-131.6164279184848
 30
0.0
 10
86.72338865019415
 20
-131.8152099279837
 30
0.0
 10
86.85034041882561
 20
-131.8448377491569
 30
0.0
 10
86.94335799692736
 20
-131.8448377491569
 30
0.0
 10
87.08288436407997
 20
-131.8448377491569
 30
0.0
 10
87.23532983930228
 20
-131.7452744896331
 30
0.0
 10
87.23532983930228
 20
-131.5127305443788
 30
0.0
 10
87.23532983930228
 20
-131.2567599498247
 30
0.0
 10
87.05549585497224
 20
-131.1868245114741
 30
0.0
 10
86.93491751298849
 20
-131.1868245114741
 30
0.0
 10
86.9032226345242
 20
-131.1868245114741
 30
0.0
 10
86.76145695530617
 20
-131.1868245114741
 30
0.0
 10
86.67257349178672
 20
-131.316015592171
 30
0.0
 10
86.67257349178672
 20
-131.316015592171
 30
0.0
 10
86.49704587681325
 20
-131.2970675670021
 30
0.0
 10
86.49704587681325
 20
-131.2970675670021
 30
0.0
 10
86.49704587681325
 20
-131.2970675670021
 30
0.0
 10
86.61762421879699
 20
-130.4506076062762
 30
0.0
 10
86.61762421879699
 20
-130.4506076062762
 30
0.0
 10
86.61762421879699
 20
-130.4506076062762
 30
0.0
 10
87.39604354368919
 20
-130.4506076062762
 30
0.0
 10
87.39604354368919
 20
-130.4506076062762
 30
0.0
 10
87.39604354368919
 20
-130.4506076062762
 30
0.0
 10
87.39604354368919
 20
-130.6452555011928
 30
0.0
 10
87.39604354368919
 20
-130.6452555011928
 30
0.0
 10
87.39604354368919
 20
-130.6452555011928
 30
0.0
 10
86.78040498047504
 20
-130.6452555011928
 30
0.0
 10
86.78040498047504
 20
-130.6452555011928
 30
0.0
 10
86.78040498047504
 20
-130.6452555011928
 30
0.0
 10
86.7149481662553
 20
-131.0683132267815
 30
0.0
 10
86.7149481662553
 20
-131.0683132267815
 30
0.0
 10
86.77627086589274
 20
-131.0345512910261
 30
0.0
 10
86.85878090276448
 20
-130.9942436738487
 30
0.0
 10
86.97711993268281
 20
-130.9942436738487
 30
0.0
 10
87.23102346994573
 20
-130.9942436738487
 30
0.0
 10
87.46804603933091
 20
-131.1806233396007
 30
0.0
 10
87.46804603933091
 20
-131.4937825192099
 30
0.0
 10
87.46804603933091
 20
-131.8110758134014
 30
0.0
 10
87.24377032324115
 20
-132.0456868159469
 30
0.0
 10
86.9412909396362
 20
-132.0456868159469
 30
0.0
  0
HATCH
  5
63
330
5C
100
AcDbEntity
  8
_U+30EC_U+30A4_U+30E4_U+30FC 1
 62
   179
420
  2234388
100
AcDbHatch
 10
0.0
 20
0.0
 30
0.0
210
0.0
220
0.0
230
1.0
  2
SOLID
 70
     1
 71
     0
 91
        1
 92
        1
 93
        1
 72
     4
 94
        3
 73
     0
 74
     1
 95
       53
 96
       49
 40
0.0
 40
0.0
 40
0.0
 40
0.0
 40
1.0
 40
1.0
 40
1.0
 40
2.0
 40
2.0
 40
2.0
 40
3.0
 40
3.0
 40
3.0
 40
4.0
 40
4.0
 40
4.0
 40
5.0
 40
5.0
 40
5.0
 40
6.0
 40
6.0
 40
6.0
 40
7.0
 40
7.0
 40
7.0
 40
8.0
 40
8.0
 40
8.0
 40
9.0
 40
9.0
 40
9.0
 40
10.0
 40
10.0
 40
10.0
 40
11.0
 40
11.0
 40
11.0
 40
12.0
 40
12.0
 40
12.0
 40
13.0
 40
13.0
 40
13.0
 40
14.0
 40
14.0
 40
14.0
 40
15.0
 40
15.0
 40
15.0
 40
16.0
 40
16.0
 40
16.0
 40
16.0
 10
86.9412909396362
 20
-132.0456868159469
 10
86.86291501734678
 20
-132.0456868159469
 10
86.76145695530617
 20
-132.0288058480692
 10
86.6598266384913
 20
-131.9654160911406
 10
86.48636608080896
 20
-131.8555175451611
 10
86.46517874357468
 20
-131.7242594071731
 10
86.4462307184058
 20
-131.6164279184848
 10
86.4462307184058
 20
-131.6164279184848
 10
86.66826712243017
 20
-131.6164279184848
 10
86.66826712243017
 20
-131.6164279184848
 10
86.72338865019415
 20
-131.8152099279837
 10
86.85034041882561
 20
-131.8448377491569
 10
86.94335799692736
 20
-131.8448377491569
 10
87.08288436407997
 20
-131.8448377491569
 10
87.23532983930228
 20
-131.7452744896331
 10
87.23532983930228
 20
-131.5127305443788
 10
87.23532983930228
 20
-131.2567599498247
 10
87.05549585497224
 20
-131.1868245114741
 10
86.93491751298849
 20
-131.1868245114741
 10
86.9032226345242
 20
-131.1868245114741
 10
86.76145695530617
 20
-131.1868245114741
 10
86.67257349178672
 20
-131.316015592171
 10
86.67257349178672
 20
-131.316015592171
 10
86.49704587681325
 20
-131.2970675670021
 10
86.49704587681325
 20
-131.2970675670021
 10
86.49704587681325
 20
-131.2970675670021
 10
86.61762421879699
 20
-130.4506076062762
 10
86.61762421879699
 20
-130.4506076062762
 10
86.61762421879699
 20
-130.4506076062762
 10
87.39604354368919
 20
-130.4506076062762
 10
87.39604354368919
 20
-130.4506076062762
 10
87.39604354368919
 20
-130.4506076062762
 10
87.39604354368919
 20
-130.6452555011928
 10
87.39604354368919
 20
-130.6452555011928
 10
87.39604354368919
 20
-130.6452555011928
 10
86.78040498047504
 20
-130.6452555011928
 10
86.78040498047504
 20
-130.6452555011928
 10
86.78040498047504
 20
-130.6452555011928
 10
86.7149481662553
 20
-131.0683132267815
 10
86.7149481662553
 20
-131.0683132267815
 10
86.77627086589274
 20
-131.0345512910261
 10
86.85878090276448
 20
-130.9942436738487
 10
86.97711993268281
 20
-130.9942436738487
 10
87.23102346994573
 20
-130.9942436738487
 10
87.46804603933091
 20
-131.1806233396007
 10
87.46804603933091
 20
-131.4937825192099
 10
87.46804603933091
 20
-131.8110758134014
 10
87.24377032324115
 20
-132.0456868159469
 10
86.9412909396362
 20
-132.0456868159469
 97
        0
 97
        0
 75
     2
 76
     1
 98
        0
  0
SPLINE
  5
64
330
5C
100
AcDbEntity
  8
_U+30EC_U+30A4_U+30E4_U+30FC 1
370
     0
100
AcDbSpline
210
0.0
220
0.0
230
1.0
 70
    11
 71
     3
 72
    44
 73
    40
 74
     0
 42
0.0000000001
 43
0.0000000001
 12
1.0
 22
0.0
 32
0.0
 13
1.0
 23
0.0
 33
0.0
 40
0.0
 40
0.0
 40
0.0
 40
0.0
 40
1.0
 40
1.0
 40
1.0
 40
2.0
 40
2.0
 40
2.0
 40
3.0
 40
3.0
 40
3.0
 40
4.0
 40
4.0
 40
4.0
 40
5.0
 40
5.0
 40
5.0
 40
6.0
 40
6.0
 40
6.0
 40
7.0
 40
7.0
 40
7.0
 40
8.0
 40
8.0
 40
8.0
 40
9.0
 40
9.0
 40
9.0
 40
10.0
 40
10.0
 40
10.0
 40
11.0
 40
11.0
 40
11.0
 40
12.0
 40
12.0
 40
12.0
 40
13.0
 40
13.0
 40
13.0
 40
13.0
 10
88.6510918289657
 20
-131.9950439123137
 30
0.0
 10
88.62800968921452
 20
-131.950602180554
 30
0.0
 10
88.60665009720599
 20
-131.8978922196297
 30
0.0
 10
88.60458303991483
 20
-131.6670708221179
 30
0.0
 10
88.60044892533253
 20
-131.4238470808593
 30
0.0
 10
88.54119328298623
 20
-131.3539116425088
 30
0.0
 10
88.36342635594734
 20
-131.3539116425088
 30
0.0
 10
88.36342635594734
 20
-131.3539116425088
 30
0.0
 10
87.95518254094523
 20
-131.3539116425088
 30
0.0
 10
87.95518254094523
 20
-131.3539116425088
 30
0.0
 10
87.95518254094523
 20
-131.3539116425088
 30
0.0
 10
87.95518254094523
 20
-131.9950439123137
 30
0.0
 10
87.95518254094523
 20
-131.9950439123137
 30
0.0
 10
87.95518254094523
 20
-131.9950439123137
 30
0.0
 10
87.7202270288512
 20
-131.9950439123137
 30
0.0
 10
87.7202270288512
 20
-131.9950439123137
 30
0.0
 10
87.7202270288512
 20
-131.9950439123137
 30
0.0
 10
87.7202270288512
 20
-130.4506076062762
 30
0.0
 10
87.7202270288512
 20
-130.4506076062762
 30
0.0
 10
87.7202270288512
 20
-130.4506076062762
 30
0.0
 10
88.39512123441165
 20
-130.4506076062762
 30
0.0
 10
88.39512123441165
 20
-130.4506076062762
 30
0.0
 10
88.7020792421474
 20
-130.4506076062762
 30
0.0
 10
88.86916637318201
 20
-130.6221733614417
 30
0.0
 10
88.86916637318201
 20
-130.8781439559957
 30
0.0
 10
88.86916637318201
 20
-130.9287868596289
 30
0.0
 10
88.8605536344689
 20
-131.0114691512749
 30
0.0
 10
88.81611190270917
 20
-131.0917398760812
 30
0.0
 10
88.75685626036287
 20
-131.1954372501873
 30
0.0
 10
88.69139944614312
 20
-131.2143852753561
 30
0.0
 10
88.63007674650568
 20
-131.2312662432338
 30
0.0
 10
88.76753605636715
 20
-131.2736409177024
 30
0.0
 10
88.83540443742658
 20
-131.3222167640444
 30
0.0
 10
88.83953855200888
 20
-131.6374430009448
 30
0.0
 10
88.84367266659117
 20
-131.9082275060854
 30
0.0
 10
88.87950165963777
 20
-131.9399223845498
 30
0.0
 10
88.9473700406972
 20
-131.9950439123137
 30
0.0
 10
88.9473700406972
 20
-131.9950439123137
 30
0.0
 10
88.6510918289657
 20
-131.9950439123137
 30
0.0
 10
88.6510918289657
 20
-131.9950439123137
 30
0.0
  0
SPLINE
  5
65
330
5C
100
AcDbEntity
  8
_U+30EC_U+30A4_U+30E4_U+30FC 1
370
     0
100
AcDbSpline
210
0.0
220
0.0
230
1.0
 70
    11
 71
     3
 72
    20
 73
    16
 74
     0
 42
0.0000000001
 43
0.0000000001
 12
1.0
 22
0.0
 32
0.0
 13
1.0
 23
0.0
 33
0.0
 40
0.0
 40
0.0
 40
0.0
 40
0.0
 40
1.0
 40
1.0
 40
1.0
 40
2.0
 40
2.0
 40
2.0
 40
3.0
 40
3.0
 40
3.0
 40
4.0
 40
4.0
 40
4.0
 40
5.0
 40
5.0
 40
5.0
 40
5.0
 10
88.39959985854246
 20
-130.6621364690706
 30
0.0
 10
88.39959985854246
 20
-130.6621364690706
 30
0.0
 10
87.95518254094523
 20
-130.6621364690706
 30
0.0
 10
87.95518254094523
 20
-130.6621364690706
 30
0.0
 10
87.95518254094523
 20
-130.6621364690706
 30
0.0
 10
87.95518254094523
 20
-131.1423827797144
 30
0.0
 10
87.95518254094523
 20
-131.1423827797144
 30
0.0
 10
87.95518254094523
 20
-131.1423827797144
 30
0.0
 10
88.39718829170279
 20
-131.1423827797144
 30
0.0
 10
88.39718829170279
 20
-131.1423827797144
 30
0.0
 10
88.49675155122651
 20
-131.1423827797144
 30
0.0
 10
88.63214380379682
 20
-131.0662461694904
 30
0.0
 10
88.63214380379682
 20
-130.8950249238735
 30
0.0
 10
88.63214380379682
 20
-130.8168212563583
 30
0.0
 10
88.59838186804139
 20
-130.6621364690706
 30
0.0
 10
88.39959985854246
 20
-130.6621364690706
 30
0.0
  0
HATCH
  5
66
330
5C
100
AcDbEntity
  8
_U+30EC_U+30A4_U+30E4_U+30FC 1
 62
   179
420
  2234388
100
AcDbHatch
 10
0.0
 20
0.0
 30
0.0
210
0.0
220
0.0
230
1.0
  2
SOLID
 70
     1
 71
     0
 91
        2
 92
        1
 93
        1
 72
     4
 94
        3
 73
     0
 74
     1
 95
       44
 96
       40
 40
0.0
 40
0.0
 40
0.0
 40
0.0
 40
1.0
 40
1.0
 40
1.0
 40
2.0
 40
2.0
 40
2.0
 40
3.0
 40
3.0
 40
3.0
 40
4.0
 40
4.0
 40
4.0
 40
5.0
 40
5.0
 40
5.0
 40
6.0
 40
6.0
 40
6.0
 40
7.0
 40
7.0
 40
7.0
 40
8.0
 40
8.0
 40
8.0
 40
9.0
 40
9.0
 40
9.0
 40
10.0
 40
10.0
 40
10.0
 40
11.0
 40
11.0
 40
11.0
 40
12.0
 40
12.0
 40
12.0
 40
13.0
 40
13.0
 40
13.0
 40
13.0
 10
88.6510918289657
 20
-131.9950439123137
 10
88.62800968921452
 20
-131.950602180554
 10
88.60665009720599
 20
-131.8978922196297
 10
88.60458303991483
 20
-131.6670708221179
 10
88.60044892533253
 20
-131.4238470808593
 10
88.54119328298623
 20
-131.3539116425088
 10
88.36342635594734
 20
-131.3539116425088
 10
88.36342635594734
 20
-131.3539116425088
 10
87.95518254094523
 20
-131.3539116425088
 10
87.95518254094523
 20
-131.3539116425088
 10
87.95518254094523
 20
-131.3539116425088
 10
87.95518254094523
 20
-131.9950439123137
 10
87.95518254094523
 20
-131.9950439123137
 10
87.95518254094523
 20
-131.9950439123137
 10
87.7202270288512
 20
-131.9950439123137
 10
87.7202270288512
 20
-131.9950439123137
 10
87.7202270288512
 20
-131.9950439123137
 10
87.7202270288512
 20
-130.4506076062762
 10
87.7202270288512
 20
-130.4506076062762
 10
87.7202270288512
 20
-130.4506076062762
 10
88.39512123441165
 20
-130.4506076062762
 10
88.39512123441165
 20
-130.4506076062762
 10
88.7020792421474
 20
-130.4506076062762
 10
88.86916637318201
 20
-130.6221733614417
 10
88.86916637318201
 20
-130.8781439559957
 10
88.86916637318201
 20
-130.9287868596289
 10
88.8605536344689
 20
-131.0114691512749
 10
88.81611190270917
 20
-131.0917398760812
 10
88.75685626036287
 20
-131.1954372501873
 10
88.69139944614312
 20
-131.2143852753561
 10
88.63007674650568
 20
-131.2312662432338
 10
88.76753605636715
 20
-131.2736409177024
 10
88.83540443742658
 20
-131.3222167640444
 10
88.83953855200888
 20
-131.6374430009448
 10
88.84367266659117
 20
-131.9082275060854
 10
88.87950165963777
 20
-131.9399223845498
 10
88.9473700406972
 20
-131.9950439123137
 10
88.9473700406972
 20
-131.9950439123137
 10
88.6510918289657
 20
-131.9950439123137
 10
88.6510918289657
 20
-131.9950439123137
 97
        0
 97
        0
 92
        1
 93
        1
 72
     4
 94
        3
 73
     0
 74
     1
 95
       20
 96
       16
 40
0.0
 40
0.0
 40
0.0
 40
0.0
 40
1.0
 40
1.0
 40
1.0
 40
2.0
 40
2.0
 40
2.0
 40
3.0
 40
3.0
 40
3.0
 40
4.0
 40
4.0
 40
4.0
 40
5.0
 40
5.0
 40
5.0
 40
5.0
 10
88.39959985854246
 20
-130.6621364690706
 10
88.39959985854246
 20
-130.6621364690706
 10
87.95518254094523
 20
-130.6621364690706
 10
87.95518254094523
 20
-130.6621364690706
 10
87.95518254094523
 20
-130.6621364690706
 10
87.95518254094523
 20
-131.1423827797144
 10
87.95518254094523
 20
-131.1423827797144
 10
87.95518254094523
 20
-131.1423827797144
 10
88.39718829170279
 20
-131.1423827797144
 10
88.39718829170279
 20
-131.1423827797144
 10
88.49675155122651
 20
-131.1423827797144
 10
88.63214380379682
 20
-131.0662461694904
 10
88.63214380379682
 20
-130.8950249238735
 10
88.63214380379682
 20
-130.8168212563583
 10
88.59838186804139
 20
-130.6621364690706
 10
88.39959985854246
 20
-130.6621364690706
 97
        0
 97
        0
 75
     2
 76
     1
 98
        0
  0
ENDBLK
  5
5F
330
5C
100
AcDbEntity
  8
0
100
AcDbBlockEnd
  0
BLOCK
  5
75
330
73
100
AcDbEntity
  8
0
100
AcDbBlockBegin
  2
block 4
 70
     0
 10
0.0
 20
0.0
 30
0.0
  3
block 4
  1

  0
SPLINE
  5
77
330
73
100
AcDbEntity
  8
_U+30EC_U+30A4_U+30E4_U+30FC 1
370
     0
100
AcDbSpline
210
0.0
220
0.0
230
1.0
 70
    11
 71
     3
 72
    26
 73
    22
 74
     0
 42
0.0000000001
 43
0.0000000001
 12
1.0
 22
0.0
 32
0.0
 13
1.0
 23
0.0
 33
0.0
 40
0.0
 40
0.0
 40
0.0
 40
0.0
 40
1.0
 40
1.0
 40
1.0
 40
2.0
 40
2.0
 40
2.0
 40
3.0
 40
3.0
 40
3.0
 40
4.0
 40
4.0
 40
4.0
 40
5.0
 40
5.0
 40
5.0
 40
6.0
 40
6.0
 40
6.0
 40
7.0
 40
7.0
 40
7.0
 40
7.0
 10
98.73988170274559
 20
-144.7029676287548
 30
0.0
 10
98.73988170274559
 20
-144.7029676287548
 30
0.0
 10
98.73988170274559
 20
-143.5984700161837
 30
0.0
 10
98.73988170274559
 20
-143.5984700161837
 30
0.0
 10
98.73988170274559
 20
-143.5984700161837
 30
0.0
 10
98.40984155525865
 20
-143.5984700161837
 30
0.0
 10
98.40984155525865
 20
-143.5984700161837
 30
0.0
 10
98.40984155525865
 20
-143.5984700161837
 30
0.0
 10
98.40984155525865
 20
-143.450330910318
 30
0.0
 10
98.40984155525865
 20
-143.450330910318
 30
0.0
 10
98.74194876003673
 20
-143.4358615092799
 30
0.0
 10
98.78880205863614
 20
-143.2725639832791
 30
0.0
 10
98.81842987980929
 20
-143.1581868131688
 30
0.0
 10
98.81842987980929
 20
-143.1581868131688
 30
0.0
 10
98.96450192838388
 20
-143.1581868131688
 30
0.0
 10
98.96450192838388
 20
-143.1581868131688
 30
0.0
 10
98.96450192838388
 20
-143.1581868131688
 30
0.0
 10
98.96450192838388
 20
-144.7029676287548
 30
0.0
 10
98.96450192838388
 20
-144.7029676287548
 30
0.0
 10
98.96450192838388
 20
-144.7029676287548
 30
0.0
 10
98.73988170274559
 20
-144.7029676287548
 30
0.0
 10
98.73988170274559
 20
-144.7029676287548
 30
0.0
  0
HATCH
  5
78
330
73
100
AcDbEntity
  8
_U+30EC_U+30A4_U+30E4_U+30FC 1
 62
   179
420
  2234388
100
AcDbHatch
 10
0.0
 20
0.0
 30
0.0
210
0.0
220
0.0
230
1.0
  2
SOLID
 70
     1
 71
     0
 91
        1
 92
        1
 93
        1
 72
     4
 94
        3
 73
     0
 74
     1
 95
       26
 96
       22
 40
0.0
 40
0.0
 40
0.0
 40
0.0
 40
1.0
 40
1.0
 40
1.0
 40
2.0
 40
2.0
 40
2.0
 40
3.0
 40
3.0
 40
3.0
 40
4.0
 40
4.0
 40
4.0
 40
5.0
 40
5.0
 40
5.0
 40
6.0
 40
6.0
 40
6.0
 40
7.0
 40
7.0
 40
7.0
 40
7.0
 10
98.73988170274559
 20
-144.7029676287548
 10
98.73988170274559
 20
-144.7029676287548
 10
98.73988170274559
 20
-143.5984700161837
 10
98.73988170274559
 20
-143.5984700161837
 10
98.73988170274559
 20
-143.5984700161837
 10
98.40984155525865
 20
-143.5984700161837
 10
98.40984155525865
 20
-143.5984700161837
 10
98.40984155525865
 20
-143.5984700161837
 10
98.40984155525865
 20
-143.450330910318
 10
98.40984155525865
 20
-143.450330910318
 10
98.74194876003673
 20
-143.4358615092799
 10
98.78880205863614
 20
-143.2725639832791
 10
98.81842987980929
 20
-143.1581868131688
 10
98.81842987980929
 20
-143.1581868131688
 10
98.96450192838388
 20
-143.1581868131688
 10
98.96450192838388
 20
-143.1581868131688
 10
98.96450192838388
 20
-143.1581868131688
 10
98.96450192838388
 20
-144.7029676287548
 10
98.96450192838388
 20
-144.7029676287548
 10
98.96450192838388
 20
-144.7029676287548
 10
98.73988170274559
 20
-144.7029676287548
 10
98.73988170274559
 20
-144.7029676287548
 97
        0
 97
        0
 75
     2
 76
     1
 98
        0
  0
SPLINE
  5
79
330
73
100
AcDbEntity
  8
_U+30EC_U+30A4_U+30E4_U+30FC 1
370
     0
100
AcDbSpline
210
0.0
220
0.0
230
1.0
 70
    11
 71
     3
 72
    53
 73
    49
 74
     0
 42
0.0000000001
 43
0.0000000001
 12
1.0
 22
0.0
 32
0.0
 13
1.0
 23
0.0
 33
0.0
 40
0.0
 40
0.0
 40
0.0
 40
0.0
 40
1.0
 40
1.0
 40
1.0
 40
2.0
 40
2.0
 40
2.0
 40
3.0
 40
3.0
 40
3.0
 40
4.0
 40
4.0
 40
4.0
 40
5.0
 40
5.0
 40
5.0
 40
6.0
 40
6.0
 40
6.0
 40
7.0
 40
7.0
 40
7.0
 40
8.0
 40
8.0
 40
8.0
 40
9.0
 40
9.0
 40
9.0
 40
10.0
 40
10.0
 40
10.0
 40
11.0
 40
11.0
 40
11.0
 40
12.0
 40
12.0
 40
12.0
 40
13.0
 40
13.0
 40
13.0
 40
14.0
 40
14.0
 40
14.0
 40
15.0
 40
15.0
 40
15.0
 40
16.0
 40
16.0
 40
16.0
 40
16.0
 10
99.94635414168009
 20
-144.7532660228395
 30
0.0
 10
99.86849498371343
 20
-144.7532660228395
 30
0.0
 10
99.76652015735004
 20
-144.7367295645103
 30
0.0
 10
99.6652343500837
 20
-144.6733398075817
 30
0.0
 10
99.4916015376271
 20
-144.5630967520537
 30
0.0
 10
99.47024194561855
 20
-144.4321831236142
 30
0.0
 10
99.45163842999821
 20
-144.3240071253773
 30
0.0
 10
99.45163842999821
 20
-144.3240071253773
 30
0.0
 10
99.6735025792483
 20
-144.3240071253773
 30
0.0
 10
99.6735025792483
 20
-144.3240071253773
 30
0.0
 10
99.7286241070123
 20
-144.5231336444248
 30
0.0
 10
99.85540362086948
 20
-144.5527614655979
 30
0.0
 10
99.94842119897123
 20
-144.5527614655979
 30
0.0
 10
100.0882920756724
 20
-144.5527614655979
 30
0.0
 10
100.2405652961204
 20
-144.4528536965257
 30
0.0
 10
100.2405652961204
 20
-144.2206542608199
 30
0.0
 10
100.2405652961204
 20
-143.9643391567172
 30
0.0
 10
100.0607313117904
 20
-143.8947482279152
 30
0.0
 10
99.94015296980663
 20
-143.8947482279152
 30
0.0
 10
99.90845809134234
 20
-143.8947482279152
 30
0.0
 10
99.76652015735004
 20
-143.8947482279152
 30
0.0
 10
99.67763669383059
 20
-144.0235947990635
 30
0.0
 10
99.67763669383059
 20
-144.0235947990635
 30
0.0
 10
99.50193682408285
 20
-144.0049912834432
 30
0.0
 10
99.50193682408285
 20
-144.0049912834432
 30
0.0
 10
99.50193682408285
 20
-144.0049912834432
 30
0.0
 10
99.62251516606659
 20
-143.1581868131688
 30
0.0
 10
99.62251516606659
 20
-143.1581868131688
 30
0.0
 10
99.62251516606659
 20
-143.1581868131688
 30
0.0
 10
100.4011067457331
 20
-143.1581868131688
 30
0.0
 10
100.4011067457331
 20
-143.1581868131688
 30
0.0
 10
100.4011067457331
 20
-143.1581868131688
 30
0.0
 10
100.4011067457331
 20
-143.3531792176339
 30
0.0
 10
100.4011067457331
 20
-143.3531792176339
 30
0.0
 10
100.4011067457331
 20
-143.3531792176339
 30
0.0
 10
99.78581269206744
 20
-143.3531792176339
 30
0.0
 10
99.78581269206744
 20
-143.3531792176339
 30
0.0
 10
99.78581269206744
 20
-143.3531792176339
 30
0.0
 10
99.7203558778477
 20
-143.7762369432226
 30
0.0
 10
99.7203558778477
 20
-143.7762369432226
 30
0.0
 10
99.78167857748514
 20
-143.7424750074672
 30
0.0
 10
99.86367185003408
 20
-143.7018228807412
 30
0.0
 10
99.98218313472668
 20
-143.7018228807412
 30
0.0
 10
100.2364311815381
 20
-143.7018228807412
 30
0.0
 10
100.4734537509233
 20
-143.8885470560417
 30
0.0
 10
100.4734537509233
 20
-144.2013617261024
 30
0.0
 10
100.4734537509233
 20
-144.5189995298425
 30
0.0
 10
100.248833525285
 20
-144.7532660228395
 30
0.0
 10
99.94635414168009
 20
-144.7532660228395
 30
0.0
  0
HATCH
  5
7A
330
73
100
AcDbEntity
  8
_U+30EC_U+30A4_U+30E4_U+30FC 1
 62
   179
420
  2234388
100
AcDbHatch
 10
0.0
 20
0.0
 30
0.0
210
0.0
220
0.0
230
1.0
  2
SOLID
 70
     1
 71
     0
 91
        1
 92
        1
 93
        1
 72
     4
 94
        3
 73
     0
 74
     1
 95
       53
 96
       49
 40
0.0
 40
0.0
 40
0.0
 40
0.0
 40
1.0
 40
1.0
 40
1.0
 40
2.0
 40
2.0
 40
2.0
 40
3.0
 40
3.0
 40
3.0
 40
4.0
 40
4.0
 40
4.0
 40
5.0
 40
5.0
 40
5.0
 40
6.0
 40
6.0
 40
6.0
 40
7.0
 40
7.0
 40
7.0
 40
8.0
 40
8.0
 40
8.0
 40
9.0
 40
9.0
 40
9.0
 40
10.0
 40
10.0
 40
10.0
 40
11.0
 40
11.0
 40
11.0
 40
12.0
 40
12.0
 40
12.0
 40
13.0
 40
13.0
 40
13.0
 40
14.0
 40
14.0
 40
14.0
 40
15.0
 40
15.0
 40
15.0
 40
16.0
 40
16.0
 40
16.0
 40
16.0
 10
99.94635414168009
 20
-144.7532660228395
 10
99.86849498371343
 20
-144.7532660228395
 10
99.76652015735004
 20
-144.7367295645103
 10
99.6652343500837
 20
-144.6733398075817
 10
99.4916015376271
 20
-144.5630967520537
 10
99.47024194561855
 20
-144.4321831236142
 10
99.45163842999821
 20
-144.3240071253773
 10
99.45163842999821
 20
-144.3240071253773
 10
99.6735025792483
 20
-144.3240071253773
 10
99.6735025792483
 20
-144.3240071253773
 10
99.7286241070123
 20
-144.5231336444248
 10
99.85540362086948
 20
-144.5527614655979
 10
99.94842119897123
 20
-144.5527614655979
 10
100.0882920756724
 20
-144.5527614655979
 10
100.2405652961204
 20
-144.4528536965257
 10
100.2405652961204
 20
-144.2206542608199
 10
100.2405652961204
 20
-143.9643391567172
 10
100.0607313117904
 20
-143.8947482279152
 10
99.94015296980663
 20
-143.8947482279152
 10
99.90845809134234
 20
-143.8947482279152
 10
99.76652015735004
 20
-143.8947482279152
 10
99.67763669383059
 20
-144.0235947990635
 10
99.67763669383059
 20
-144.0235947990635
 10
99.50193682408285
 20
-144.0049912834432
 10
99.50193682408285
 20
-144.0049912834432
 10
99.50193682408285
 20
-144.0049912834432
 10
99.62251516606659
 20
-143.1581868131688
 10
99.62251516606659
 20
-143.1581868131688
 10
99.62251516606659
 20
-143.1581868131688
 10
100.4011067457331
 20
-143.1581868131688
 10
100.4011067457331
 20
-143.1581868131688
 10
100.4011067457331
 20
-143.1581868131688
 10
100.4011067457331
 20
-143.3531792176339
 10
100.4011067457331
 20
-143.3531792176339
 10
100.4011067457331
 20
-143.3531792176339
 10
99.78581269206744
 20
-143.3531792176339
 10
99.78581269206744
 20
-143.3531792176339
 10
99.78581269206744
 20
-143.3531792176339
 10
99.7203558778477
 20
-143.7762369432226
 10
99.7203558778477
 20
-143.7762369432226
 10
99.78167857748514
 20
-143.7424750074672
 10
99.86367185003408
 20
-143.7018228807412
 10
99.98218313472668
 20
-143.7018228807412
 10
100.2364311815381
 20
-143.7018228807412
 10
100.4734537509233
 20
-143.8885470560417
 10
100.4734537509233
 20
-144.2013617261024
 10
100.4734537509233
 20
-144.5189995298425
 10
100.248833525285
 20
-144.7532660228395
 10
99.94635414168009
 20
-144.7532660228395
 97
        0
 97
        0
 75
     2
 76
     1
 98
        0
  0
ENDBLK
  5
76
330
73
100
AcDbEntity
  8
0
100
AcDbBlockEnd
  0
BLOCK
  5
89
330
87
100
AcDbEntity
  8
0
100
AcDbBlockBegin
  2
block 5
 70
     0
 10
0.0
 20
0.0
 30
0.0
  3
block 5
  1

  0
SPLINE
  5
8B
330
87
100
AcDbEntity
  8
_U+30EC_U+30A4_U+30E4_U+30FC 1
370
     0
100
AcDbSpline
210
0.0
220
0.0
230
1.0
 70
    11
 71
     3
 72
    26
 73
    22
 74
     0
 42
0.0000000001
 43
0.0000000001
 12
1.0
 22
0.0
 32
0.0
 13
1.0
 23
0.0
 33
0.0
 40
0.0
 40
0.0
 40
0.0
 40
0.0
 40
1.0
 40
1.0
 40
1.0
 40
2.0
 40
2.0
 40
2.0
 40
3.0
 40
3.0
 40
3.0
 40
4.0
 40
4.0
 40
4.0
 40
5.0
 40
5.0
 40
5.0
 40
6.0
 40
6.0
 40
6.0
 40
7.0
 40
7.0
 40
7.0
 40
7.0
 10
72.23969046588105
 20
-119.3177815456914
 30
0.0
 10
72.23969046588105
 20
-119.3177815456914
 30
0.0
 10
71.13536510808422
 20
-119.3177815456914
 30
0.0
 10
71.13536510808422
 20
-119.3177815456914
 30
0.0
 10
71.13536510808422
 20
-119.3177815456914
 30
0.0
 10
71.13536510808422
 20
-119.6478216931783
 30
0.0
 10
71.13536510808422
 20
-119.6478216931783
 30
0.0
 10
71.13536510808422
 20
-119.6478216931783
 30
0.0
 10
70.98722600221848
 20
-119.6478216931783
 30
0.0
 10
70.98722600221848
 20
-119.6478216931783
 30
0.0
 10
70.97258434640617
 20
-119.3157144884002
 30
0.0
 10
70.80963132995385
 20
-119.2692056993494
 30
0.0
 10
70.69542641461781
 20
-119.2395778781762
 30
0.0
 10
70.69542641461781
 20
-119.2395778781762
 30
0.0
 10
70.69542641461781
 20
-119.0935058296016
 30
0.0
 10
70.69542641461781
 20
-119.0935058296016
 30
0.0
 10
70.69542641461781
 20
-119.0935058296016
 30
0.0
 10
72.23969046588105
 20
-119.0935058296016
 30
0.0
 10
72.23969046588105
 20
-119.0935058296016
 30
0.0
 10
72.23969046588105
 20
-119.0935058296016
 30
0.0
 10
72.23969046588105
 20
-119.3177815456914
 30
0.0
 10
72.23969046588105
 20
-119.3177815456914
 30
0.0
  0
HATCH
  5
8C
330
87
100
AcDbEntity
  8
_U+30EC_U+30A4_U+30E4_U+30FC 1
 62
   179
420
  2234388
100
AcDbHatch
 10
0.0
 20
0.0
 30
0.0
210
0.0
220
0.0
230
1.0
  2
SOLID
 70
     1
 71
     0
 91
        1
 92
        1
 93
        1
 72
     4
 94
        3
 73
     0
 74
     1
 95
       26
 96
       22
 40
0.0
 40
0.0
 40
0.0
 40
0.0
 40
1.0
 40
1.0
 40
1.0
 40
2.0
 40
2.0
 40
2.0
 40
3.0
 40
3.0
 40
3.0
 40
4.0
 40
4.0
 40
4.0
 40
5.0
 40
5.0
 40
5.0
 40
6.0
 40
6.0
 40
6.0
 40
7.0
 40
7.0
 40
7.0
 40
7.0
 10
72.23969046588105
 20
-119.3177815456914
 10
72.23969046588105
 20
-119.3177815456914
 10
71.13536510808422
 20
-119.3177815456914
 10
71.13536510808422
 20
-119.3177815456914
 10
71.13536510808422
 20
-119.3177815456914
 10
71.13536510808422
 20
-119.6478216931783
 10
71.13536510808422
 20
-119.6478216931783
 10
71.13536510808422
 20
-119.6478216931783
 10
70.98722600221848
 20
-119.6478216931783
 10
70.98722600221848
 20
-119.6478216931783
 10
70.97258434640617
 20
-119.3157144884002
 10
70.80963132995385
 20
-119.2692056993494
 10
70.69542641461781
 20
-119.2395778781762
 10
70.69542641461781
 20
-119.2395778781762
 10
70.69542641461781
 20
-119.0935058296016
 10
70.69542641461781
 20
-119.0935058296016
 10
70.69542641461781
 20
-119.0935058296016
 10
72.23969046588105
 20
-119.0935058296016
 10
72.23969046588105
 20
-119.0935058296016
 10
72.23969046588105
 20
-119.0935058296016
 10
72.23969046588105
 20
-119.3177815456914
 10
72.23969046588105
 20
-119.3177815456914
 97
        0
 97
        0
 75
     2
 76
     1
 98
        0
  0
SPLINE
  5
8D
330
87
100
AcDbEntity
  8
_U+30EC_U+30A4_U+30E4_U+30FC 1
370
     0
100
AcDbSpline
210
0.0
220
0.0
230
1.0
 70
    11
 71
     3
 72
    53
 73
    49
 74
     0
 42
0.0000000001
 43
0.0000000001
 12
1.0
 22
0.0
 32
0.0
 13
1.0
 23
0.0
 33
0.0
 40
0.0
 40
0.0
 40
0.0
 40
0.0
 40
1.0
 40
1.0
 40
1.0
 40
2.0
 40
2.0
 40
2.0
 40
3.0
 40
3.0
 40
3.0
 40
4.0
 40
4.0
 40
4.0
 40
5.0
 40
5.0
 40
5.0
 40
6.0
 40
6.0
 40
6.0
 40
7.0
 40
7.0
 40
7.0
 40
8.0
 40
8.0
 40
8.0
 40
9.0
 40
9.0
 40
9.0
 40
10.0
 40
10.0
 40
10.0
 40
11.0
 40
11.0
 40
11.0
 40
12.0
 40
12.0
 40
12.0
 40
13.0
 40
13.0
 40
13.0
 40
14.0
 40
14.0
 40
14.0
 40
15.0
 40
15.0
 40
15.0
 40
16.0
 40
16.0
 40
16.0
 40
16.0
 10
72.29050562428849
 20
-118.1113091067569
 30
0.0
 10
72.29050562428849
 20
-118.1896850290463
 30
0.0
 10
72.27362465641076
 20
-118.2911430910869
 30
0.0
 10
72.2100626447079
 20
-118.3927734079018
 30
0.0
 10
72.09999184395417
 20
-118.5662339655841
 30
0.0
 10
71.96890596074041
 20
-118.5874213028184
 30
0.0
 10
71.8610744720521
 20
-118.6063693279873
 30
0.0
 10
71.8610744720521
 20
-118.6063693279873
 30
0.0
 10
71.8610744720521
 20
-118.3843329239629
 30
0.0
 10
71.8610744720521
 20
-118.3843329239629
 30
0.0
 10
72.05985648155101
 20
-118.329211396199
 30
0.0
 10
72.08948430272416
 20
-118.2022596275675
 30
0.0
 10
72.08948430272416
 20
-118.1092420494657
 30
0.0
 10
72.08948430272416
 20
-117.9695434275389
 30
0.0
 10
71.9900932979747
 20
-117.8172702070908
 30
0.0
 10
71.75737709794608
 20
-117.8172702070908
 30
0.0
 10
71.50140650339202
 20
-117.8172702070908
 30
0.0
 10
71.4316433198157
 20
-117.9971041914209
 30
0.0
 10
71.4316433198157
 20
-118.1176825334046
 30
0.0
 10
71.4316433198157
 20
-118.1493774118689
 30
0.0
 10
71.4316433198157
 20
-118.2911430910869
 30
0.0
 10
71.5606621457383
 20
-118.3800265546064
 30
0.0
 10
71.5606621457383
 20
-118.3800265546064
 30
0.0
 10
71.54154186579517
 20
-118.5555541695799
 30
0.0
 10
71.54154186579517
 20
-118.5555541695799
 30
0.0
 10
71.54154186579517
 20
-118.5555541695799
 30
0.0
 10
70.69542641461781
 20
-118.4349758275961
 30
0.0
 10
70.69542641461781
 20
-118.4349758275961
 30
0.0
 10
70.69542641461781
 20
-118.4349758275961
 30
0.0
 10
70.69542641461781
 20
-117.6565565027039
 30
0.0
 10
70.69542641461781
 20
-117.6565565027039
 30
0.0
 10
70.69542641461781
 20
-117.6565565027039
 30
0.0
 10
70.89007430953443
 20
-117.6565565027039
 30
0.0
 10
70.89007430953443
 20
-117.6565565027039
 30
0.0
 10
70.89007430953443
 20
-117.6565565027039
 30
0.0
 10
70.89007430953443
 20
-118.2721950659181
 30
0.0
 10
70.89007430953443
 20
-118.2721950659181
 30
0.0
 10
70.89007430953443
 20
-118.2721950659181
 30
0.0
 10
71.3131320351231
 20
-118.3376518801378
 30
0.0
 10
71.3131320351231
 20
-118.3376518801378
 30
0.0
 10
71.2791978445934
 20
-118.2763291805004
 30
0.0
 10
71.23906248219023
 20
-118.1938191436286
 30
0.0
 10
71.23906248219023
 20
-118.0754801137103
 30
0.0
 10
71.23906248219023
 20
-117.8215765764474
 30
0.0
 10
71.425269893168
 20
-117.5845540070622
 30
0.0
 10
71.73825681800294
 20
-117.5845540070622
 30
0.0
 10
72.05572236696871
 20
-117.5845540070622
 30
0.0
 10
72.29050562428849
 20
-117.808829723152
 30
0.0
 10
72.29050562428849
 20
-118.1113091067569
 30
0.0
  0
HATCH
  5
8E
330
87
100
AcDbEntity
  8
_U+30EC_U+30A4_U+30E4_U+30FC 1
 62
   179
420
  2234388
100
AcDbHatch
 10
0.0
 20
0.0
 30
0.0
210
0.0
220
0.0
230
1.0
  2
SOLID
 70
     1
 71
     0
 91
        1
 92
        1
 93
        1
 72
     4
 94
        3
 73
     0
 74
     1
 95
       53
 96
       49
 40
0.0
 40
0.0
 40
0.0
 40
0.0
 40
1.0
 40
1.0
 40
1.0
 40
2.0
 40
2.0
 40
2.0
 40
3.0
 40
3.0
 40
3.0
 40
4.0
 40
4.0
 40
4.0
 40
5.0
 40
5.0
 40
5.0
 40
6.0
 40
6.0
 40
6.0
 40
7.0
 40
7.0
 40
7.0
 40
8.0
 40
8.0
 40
8.0
 40
9.0
 40
9.0
 40
9.0
 40
10.0
 40
10.0
 40
10.0
 40
11.0
 40
11.0
 40
11.0
 40
12.0
 40
12.0
 40
12.0
 40
13.0
 40
13.0
 40
13.0
 40
14.0
 40
14.0
 40
14.0
 40
15.0
 40
15.0
 40
15.0
 40
16.0
 40
16.0
 40
16.0
 40
16.0
 10
72.29050562428849
 20
-118.1113091067569
 10
72.29050562428849
 20
-118.1896850290463
 10
72.27362465641076
 20
-118.2911430910869
 10
72.2100626447079
 20
-118.3927734079018
 10
72.09999184395417
 20
-118.5662339655841
 10
71.96890596074041
 20
-118.5874213028184
 10
71.8610744720521
 20
-118.6063693279873
 10
71.8610744720521
 20
-118.6063693279873
 10
71.8610744720521
 20
-118.3843329239629
 10
71.8610744720521
 20
-118.3843329239629
 10
72.05985648155101
 20
-118.329211396199
 10
72.08948430272416
 20
-118.2022596275675
 10
72.08948430272416
 20
-118.1092420494657
 10
72.08948430272416
 20
-117.9695434275389
 10
71.9900932979747
 20
-117.8172702070908
 10
71.75737709794608
 20
-117.8172702070908
 10
71.50140650339202
 20
-117.8172702070908
 10
71.4316433198157
 20
-117.9971041914209
 10
71.4316433198157
 20
-118.1176825334046
 10
71.4316433198157
 20
-118.1493774118689
 10
71.4316433198157
 20
-118.2911430910869
 10
71.5606621457383
 20
-118.3800265546064
 10
71.5606621457383
 20
-118.3800265546064
 10
71.54154186579517
 20
-118.5555541695799
 10
71.54154186579517
 20
-118.5555541695799
 10
71.54154186579517
 20
-118.5555541695799
 10
70.69542641461781
 20
-118.4349758275961
 10
70.69542641461781
 20
-118.4349758275961
 10
70.69542641461781
 20
-118.4349758275961
 10
70.69542641461781
 20
-117.6565565027039
 10
70.69542641461781
 20
-117.6565565027039
 10
70.69542641461781
 20
-117.6565565027039
 10
70.89007430953443
 20
-117.6565565027039
 10
70.89007430953443
 20
-117.6565565027039
 10
70.89007430953443
 20
-117.6565565027039
 10
70.89007430953443
 20
-118.2721950659181
 10
70.89007430953443
 20
-118.2721950659181
 10
70.89007430953443
 20
-118.2721950659181
 10
71.3131320351231
 20
-118.3376518801378
 10
71.3131320351231
 20
-118.3376518801378
 10
71.2791978445934
 20
-118.2763291805004
 10
71.23906248219023
 20
-118.1938191436286
 10
71.23906248219023
 20
-118.0754801137103
 10
71.23906248219023
 20
-117.8215765764474
 10
71.425269893168
 20
-117.5845540070622
 10
71.73825681800294
 20
-117.5845540070622
 10
72.05572236696871
 20
-117.5845540070622
 10
72.29050562428849
 20
-117.808829723152
 10
72.29050562428849
 20
-118.1113091067569
 97
        0
 97
        0
 75
     2
 76
     1
 98
        0
  0
ENDBLK
  5
8A
330
87
100
AcDbEntity
  8
0
100
AcDbBlockEnd
  0
BLOCK
  5
99
330
97
100
AcDbEntity
  8
0
100
AcDbBlockBegin
  2
block 6
 70
     0
 10
0.0
 20
0.0
 30
0.0
  3
block 6
  1

  0
SPLINE
  5
9B
330
97
100
AcDbEntity
  8
_U+30EC_U+30A4_U+30E4_U+30FC 1
370
     0
100
AcDbSpline
210
0.0
220
0.0
230
1.0
 70
    11
 71
     3
 72
    26
 73
    22
 74
     0
 42
0.0000000001
 43
0.0000000001
 12
1.0
 22
0.0
 32
0.0
 13
1.0
 23
0.0
 33
0.0
 40
0.0
 40
0.0
 40
0.0
 40
0.0
 40
1.0
 40
1.0
 40
1.0
 40
2.0
 40
2.0
 40
2.0
 40
3.0
 40
3.0
 40
3.0
 40
4.0
 40
4.0
 40
4.0
 40
5.0
 40
5.0
 40
5.0
 40
6.0
 40
6.0
 40
6.0
 40
7.0
 40
7.0
 40
7.0
 40
7.0
 10
110.2402994516066
 20
-132.5321342984642
 30
0.0
 10
110.2402994516066
 20
-132.5321342984642
 30
0.0
 10
109.136146348584
 20
-132.5321342984642
 30
0.0
 10
109.136146348584
 20
-132.5321342984642
 30
0.0
 10
109.136146348584
 20
-132.5321342984642
 30
0.0
 10
109.136146348584
 20
-132.8621744459511
 30
0.0
 10
109.136146348584
 20
-132.8621744459511
 30
0.0
 10
109.136146348584
 20
-132.8621744459511
 30
0.0
 10
108.9880072427183
 20
-132.8621744459511
 30
0.0
 10
108.9880072427183
 20
-132.8621744459511
 30
0.0
 10
108.9731933321317
 20
-132.530067241173
 30
0.0
 10
108.8102403156794
 20
-132.4835584521222
 30
0.0
 10
108.6958631455691
 20
-132.453930630949
 30
0.0
 10
108.6958631455691
 20
-132.453930630949
 30
0.0
 10
108.6958631455691
 20
-132.3078585823744
 30
0.0
 10
108.6958631455691
 20
-132.3078585823744
 30
0.0
 10
108.6958631455691
 20
-132.3078585823744
 30
0.0
 10
110.2402994516066
 20
-132.3078585823744
 30
0.0
 10
110.2402994516066
 20
-132.3078585823744
 30
0.0
 10
110.2402994516066
 20
-132.3078585823744
 30
0.0
 10
110.2402994516066
 20
-132.5321342984642
 30
0.0
 10
110.2402994516066
 20
-132.5321342984642
 30
0.0
  0
HATCH
  5
9C
330
97
100
AcDbEntity
  8
_U+30EC_U+30A4_U+30E4_U+30FC 1
 62
   179
420
  2234388
100
AcDbHatch
 10
0.0
 20
0.0
 30
0.0
210
0.0
220
0.0
230
1.0
  2
SOLID
 70
     1
 71
     0
 91
        1
 92
        1
 93
        1
 72
     4
 94
        3
 73
     0
 74
     1
 95
       26
 96
       22
 40
0.0
 40
0.0
 40
0.0
 40
0.0
 40
1.0
 40
1.0
 40
1.0
 40
2.0
 40
2.0
 40
2.0
 40
3.0
 40
3.0
 40
3.0
 40
4.0
 40
4.0
 40
4.0
 40
5.0
 40
5.0
 40
5.0
 40
6.0
 40
6.0
 40
6.0
 40
7.0
 40
7.0
 40
7.0
 40
7.0
 10
110.2402994516066
 20
-132.5321342984642
 10
110.2402994516066
 20
-132.5321342984642
 10
109.136146348584
 20
-132.5321342984642
 10
109.136146348584
 20
-132.5321342984642
 10
109.136146348584
 20
-132.5321342984642
 10
109.136146348584
 20
-132.8621744459511
 10
109.136146348584
 20
-132.8621744459511
 10
109.136146348584
 20
-132.8621744459511
 10
108.9880072427183
 20
-132.8621744459511
 10
108.9880072427183
 20
-132.8621744459511
 10
108.9731933321317
 20
-132.530067241173
 10
108.8102403156794
 20
-132.4835584521222
 10
108.6958631455691
 20
-132.453930630949
 10
108.6958631455691
 20
-132.453930630949
 10
108.6958631455691
 20
-132.3078585823744
 10
108.6958631455691
 20
-132.3078585823744
 10
108.6958631455691
 20
-132.3078585823744
 10
110.2402994516066
 20
-132.3078585823744
 10
110.2402994516066
 20
-132.3078585823744
 10
110.2402994516066
 20
-132.3078585823744
 10
110.2402994516066
 20
-132.5321342984642
 10
110.2402994516066
 20
-132.5321342984642
 97
        0
 97
        0
 75
     2
 76
     1
 98
        0
  0
ENDBLK
  5
9A
330
97
100
AcDbEntity
  8
0
100
AcDbBlockEnd
  0
BLOCK
  5
A7
330
A5
100
AcDbEntity
  8
0
100
AcDbBlockBegin
  2
block 7
 70
     0
 10
0.0
 20
0.0
 30
0.0
  3
block 7
  1

  0
SPLINE
  5
A9
330
A5
100
AcDbEntity
  8
_U+30EC_U+30A4_U+30E4_U+30FC 1
370
     0
100
AcDbSpline
210
0.0
220
0.0
230
1.0
 70
    11
 71
     3
 72
    32
 73
    28
 74
     0
 42
0.0000000001
 43
0.0000000001
 12
1.0
 22
0.0
 32
0.0
 13
1.0
 23
0.0
 33
0.0
 40
0.0
 40
0.0
 40
0.0
 40
0.0
 40
1.0
 40
1.0
 40
1.0
 40
2.0
 40
2.0
 40
2.0
 40
3.0
 40
3.0
 40
3.0
 40
4.0
 40
4.0
 40
4.0
 40
5.0
 40
5.0
 40
5.0
 40
6.0
 40
6.0
 40
6.0
 40
7.0
 40
7.0
 40
7.0
 40
8.0
 40
8.0
 40
8.0
 40
9.0
 40
9.0
 40
9.0
 40
9.0
 10
110.2909423552398
 20
-138.1011311503705
 30
0.0
 10
110.2909423552398
 20
-138.617206454061
 30
0.0
 10
109.7369710012116
 20
-138.6258191927741
 30
0.0
 10
109.5230305715776
 20
-138.6258191927741
 30
0.0
 10
109.2925536836144
 20
-138.6258191927741
 30
0.0
 10
108.6452202419359
 20
-138.6065266580567
 30
0.0
 10
108.6452202419359
 20
-138.0628905904843
 30
0.0
 10
108.6452202419359
 20
-137.8896022875762
 30
0.0
 10
108.7151556802865
 20
-137.6439669794779
 30
0.0
 10
109.0472628850646
 20
-137.6060709291401
 30
0.0
 10
109.0472628850646
 20
-137.6060709291401
 30
0.0
 10
109.0472628850646
 20
-137.8196668492257
 30
0.0
 10
109.0472628850646
 20
-137.8196668492257
 30
0.0
 10
108.9900743000094
 20
-137.8303466452299
 30
0.0
 10
108.8419351941437
 20
-137.8620415236942
 30
0.0
 10
108.8419351941437
 20
-138.0649576477754
 30
0.0
 10
108.8419351941437
 20
-138.3571017449246
 30
0.0
 10
109.1699082843395
 20
-138.3970648525535
 30
0.0
 10
109.3748914657118
 20
-138.4098117058489
 30
0.0
 10
109.2966877981967
 20
-138.3167941277472
 30
0.0
 10
109.2374321558504
 20
-138.2489257466878
 30
0.0
 10
109.2374321558504
 20
-138.0670247050666
 30
0.0
 10
109.2374321558504
 20
-137.8871907207366
 30
0.0
 10
109.3456081540872
 20
-137.5847113371316
 30
0.0
 10
109.7517849117982
 20
-137.5847113371316
 30
0.0
 10
110.0711452632808
 20
-137.5847113371316
 30
0.0
 10
110.2909423552398
 20
-137.783837856179
 30
0.0
 10
110.2909423552398
 20
-138.1011311503705
 30
0.0
  0
SPLINE
  5
AA
330
A5
100
AcDbEntity
  8
_U+30EC_U+30A4_U+30E4_U+30FC 1
370
     0
100
AcDbSpline
210
0.0
220
0.0
230
1.0
 70
    11
 71
     3
 72
    17
 73
    13
 74
     0
 42
0.0000000001
 43
0.0000000001
 12
1.0
 22
0.0
 32
0.0
 13
1.0
 23
0.0
 33
0.0
 40
0.0
 40
0.0
 40
0.0
 40
0.0
 40
1.0
 40
1.0
 40
1.0
 40
2.0
 40
2.0
 40
2.0
 40
3.0
 40
3.0
 40
3.0
 40
4.0
 40
4.0
 40
4.0
 40
4.0
 10
109.432080050767
 20
-138.0842501824928
 30
0.0
 10
109.432080050767
 20
-138.3464219489204
 30
0.0
 10
109.6436089135613
 20
-138.3843179992581
 30
0.0
 10
109.7600531409628
 20
-138.3843179992581
 30
0.0
 10
109.9357530107105
 20
-138.3843179992581
 30
0.0
 10
110.0987060271628
 20
-138.2892333638652
 30
0.0
 10
110.0987060271628
 20
-138.1052652649529
 30
0.0
 10
110.0987060271628
 20
-137.9846869229691
 30
0.0
 10
110.0394503848165
 20
-137.8089870532214
 30
0.0
 10
109.7538519690893
 20
-137.8089870532214
 30
0.0
 10
109.5295762529996
 20
-137.8089870532214
 30
0.0
 10
109.432080050767
 20
-137.948513420374
 30
0.0
 10
109.432080050767
 20
-138.0842501824928
 30
0.0
  0
HATCH
  5
AB
330
A5
100
AcDbEntity
  8
_U+30EC_U+30A4_U+30E4_U+30FC 1
 62
   179
420
  2234388
100
AcDbHatch
 10
0.0
 20
0.0
 30
0.0
210
0.0
220
0.0
230
1.0
  2
SOLID
 70
     1
 71
     0
 91
        2
 92
        1
 93
        1
 72
     4
 94
        3
 73
     0
 74
     1
 95
       32
 96
       28
 40
0.0
 40
0.0
 40
0.0
 40
0.0
 40
1.0
 40
1.0
 40
1.0
 40
2.0
 40
2.0
 40
2.0
 40
3.0
 40
3.0
 40
3.0
 40
4.0
 40
4.0
 40
4.0
 40
5.0
 40
5.0
 40
5.0
 40
6.0
 40
6.0
 40
6.0
 40
7.0
 40
7.0
 40
7.0
 40
8.0
 40
8.0
 40
8.0
 40
9.0
 40
9.0
 40
9.0
 40
9.0
 10
110.2909423552398
 20
-138.1011311503705
 10
110.2909423552398
 20
-138.617206454061
 10
109.7369710012116
 20
-138.6258191927741
 10
109.5230305715776
 20
-138.6258191927741
 10
109.2925536836144
 20
-138.6258191927741
 10
108.6452202419359
 20
-138.6065266580567
 10
108.6452202419359
 20
-138.0628905904843
 10
108.6452202419359
 20
-137.8896022875762
 10
108.7151556802865
 20
-137.6439669794779
 10
109.0472628850646
 20
-137.6060709291401
 10
109.0472628850646
 20
-137.6060709291401
 10
109.0472628850646
 20
-137.8196668492257
 10
109.0472628850646
 20
-137.8196668492257
 10
108.9900743000094
 20
-137.8303466452299
 10
108.8419351941437
 20
-137.8620415236942
 10
108.8419351941437
 20
-138.0649576477754
 10
108.8419351941437
 20
-138.3571017449246
 10
109.1699082843395
 20
-138.3970648525535
 10
109.3748914657118
 20
-138.4098117058489
 10
109.2966877981967
 20
-138.3167941277472
 10
109.2374321558504
 20
-138.2489257466878
 10
109.2374321558504
 20
-138.0670247050666
 10
109.2374321558504
 20
-137.8871907207366
 10
109.3456081540872
 20
-137.5847113371316
 10
109.7517849117982
 20
-137.5847113371316
 10
110.0711452632808
 20
-137.5847113371316
 10
110.2909423552398
 20
-137.783837856179
 10
110.2909423552398
 20
-138.1011311503705
 97
        0
 97
        0
 92
        1
 93
        1
 72
     4
 94
        3
 73
     0
 74
     1
 95
       17
 96
       13
 40
0.0
 40
0.0
 40
0.0
 40
0.0
 40
1.0
 40
1.0
 40
1.0
 40
2.0
 40
2.0
 40
2.0
 40
3.0
 40
3.0
 40
3.0
 40
4.0
 40
4.0
 40
4.0
 40
4.0
 10
109.432080050767
 20
-138.0842501824928
 10
109.432080050767
 20
-138.3464219489204
 10
109.6436089135613
 20
-138.3843179992581
 10
109.7600531409628
 20
-138.3843179992581
 10
109.9357530107105
 20
-138.3843179992581
 10
110.0987060271628
 20
-138.2892333638652
 10
110.0987060271628
 20
-138.1052652649529
 10
110.0987060271628
 20
-137.9846869229691
 10
110.0394503848165
 20
-137.8089870532214
 10
109.7538519690893
 20
-137.8089870532214
 10
109.5295762529996
 20
-137.8089870532214
 10
109.432080050767
 20
-137.948513420374
 10
109.432080050767
 20
-138.0842501824928
 97
        0
 97
        0
 75
     2
 76
     1
 98
        0
  0
ENDBLK
  5
A8
330
A5
100
AcDbEntity
  8
0
100
AcDbBlockEnd
  0
ENDSEC
  0
SECTION
  2
ENTITIES
  0
INSERT
  5
42
330
1F
100
AcDbEntity
  8
_U+30EC_U+30A4_U+30E4_U+30FC 1
100
AcDbBlockReference
  2
block 2
 10
0.0
 20
0.0
 30
0.0
  0
POLYLINE
  5
51
330
1F
100
AcDbEntity
  8
_U+30EC_U+30A4_U+30E4_U+30FC 1
 62
   179
420
  2234388
370
     9
100
AcDb2dPolyline
 66
     1
 10
0.0
 20
0.0
 30
0.0
  0
VERTEX
  5
52
330
51
100
AcDbEntity
  8
_U+30EC_U+30A4_U+30E4_U+30FC 1
 62
   179
420
  2234388
370
     9
100
AcDbVertex
100
AcDb2dVertex
 10
84.65410561807161
 20
-133.4037280222045
 30
0.0
  0
VERTEX
  5
53
330
51
100
AcDbEntity
  8
_U+30EC_U+30A4_U+30E4_U+30FC 1
 62
   179
420
  2234388
370
     9
100
AcDbVertex
100
AcDb2dVertex
 10
89.28223244444271
 20
-133.4037280222045
 30
0.0
  0
SEQEND
  5
54
330
51
100
AcDbEntity
  8
_U+30EC_U+30A4_U+30E4_U+30FC 1
 62
   179
420
  2234388
370
     9
  0
SPLINE
  5
55
330
1F
100
AcDbEntity
  8
_U+30EC_U+30A4_U+30E4_U+30FC 1
 62
   179
420
  2234388
370
     9
100
AcDbSpline
210
0.0
220
0.0
230
1.0
 70
    11
 71
     3
 72
    17
 73
    13
 74
     0
 42
0.0000000001
 43
0.0000000001
 12
1.0
 22
0.0
 32
0.0
 13
1.0
 23
0.0
 33
0.0
 40
0.0
 40
0.0
 40
0.0
 40
0.0
 40
1.0
 40
1.0
 40
1.0
 40
2.0
 40
2.0
 40
2.0
 40
3.0
 40
3.0
 40
3.0
 40
4.0
 40
4.0
 40
4.0
 40
4.0
 10
111.0526424445888
 20
-134.1051560775851
 30
0.0
 10
111.0526424445888
 20
-134.0500521887095
 30
0.0
 10
111.0078777500257
 20
-134.0052494109434
 30
0.0
 10
110.9520655027103
 20
-134.0052494109434
 30
0.0
 10
110.8969263374504
 20
-134.0052494109434
 30
0.0
 10
110.8521588385925
 20
-134.0500521887095
 30
0.0
 10
110.8521588385925
 20
-134.1051560775851
 30
0.0
 10
110.8521588385925
 20
-134.1602952442375
 30
0.0
 10
110.8969263374504
 20
-134.2050627442267
 30
0.0
 10
110.9520655027103
 20
-134.2050627442267
 30
0.0
 10
111.0078777500257
 20
-134.2050627442267
 30
0.0
 10
111.0526424445888
 20
-134.1602952442375
 30
0.0
 10
111.0526424445888
 20
-134.1051560775851
 30
0.0
  0
SPLINE
  5
56
330
1F
100
AcDbEntity
  8
_U+30EC_U+30A4_U+30E4_U+30FC 1
 62
   179
420
  2234388
370
     9
100
AcDbSpline
210
0.0
220
0.0
230
1.0
 70
    11
 71
     3
 72
    17
 73
    13
 74
     0
 42
0.0000000001
 43
0.0000000001
 12
1.0
 22
0.0
 32
0.0
 13
1.0
 23
0.0
 33
0.0
 40
0.0
 40
0.0
 40
0.0
 40
0.0
 40
1.0
 40
1.0
 40
1.0
 40
2.0
 40
2.0
 40
2.0
 40
3.0
 40
3.0
 40
3.0
 40
4.0
 40
4.0
 40
4.0
 40
4.0
 10
111.0526424445888
 20
-135.1056338551125
 30
0.0
 10
111.0526424445888
 20
-135.049824410682
 30
0.0
 10
111.0078777500257
 20
-135.0057271884708
 30
0.0
 10
110.9520655027103
 20
-135.0057271884708
 30
0.0
 10
110.8969263374504
 20
-135.0057271884708
 30
0.0
 10
110.8521588385925
 20
-135.049824410682
 30
0.0
 10
110.8521588385925
 20
-135.1056338551125
 30
0.0
 10
110.8521588385925
 20
-135.1607377439874
 30
0.0
 10
110.8969263374504
 20
-135.2055405217541
 30
0.0
 10
110.9520655027103
 20
-135.2055405217541
 30
0.0
 10
111.0078777500257
 20
-135.2055405217541
 30
0.0
 10
111.0526424445888
 20
-135.1607377439874
 30
0.0
 10
111.0526424445888
 20
-135.1056338551125
 30
0.0
  0
SPLINE
  5
57
330
1F
100
AcDbEntity
  8
_U+30EC_U+30A4_U+30E4_U+30FC 1
 62
   179
420
  2234388
370
     9
100
AcDbSpline
210
0.0
220
0.0
230
1.0
 70
    11
 71
     3
 72
    17
 73
    13
 74
     0
 42
0.0000000001
 43
0.0000000001
 12
1.0
 22
0.0
 32
0.0
 13
1.0
 23
0.0
 33
0.0
 40
0.0
 40
0.0
 40
0.0
 40
0.0
 40
1.0
 40
1.0
 40
1.0
 40
2.0
 40
2.0
 40
2.0
 40
3.0
 40
3.0
 40
3.0
 40
4.0
 40
4.0
 40
4.0
 40
4.0
 10
111.0526424445888
 20
-141.1049021869463
 30
0.0
 10
111.0526424445888
 20
-141.0497982980707
 30
0.0
 10
111.0078777500257
 20
-141.004995520304
 30
0.0
 10
110.9520655027103
 20
-141.004995520304
 30
0.0
 10
110.8969263374504
 20
-141.004995520304
 30
0.0
 10
110.8521588385925
 20
-141.0497982980707
 30
0.0
 10
110.8521588385925
 20
-141.1049021869463
 30
0.0
 10
110.8521588385925
 20
-141.1607116313767
 30
0.0
 10
110.8969263374504
 20
-141.2048088535879
 30
0.0
 10
110.9520655027103
 20
-141.2048088535879
 30
0.0
 10
111.0078777500257
 20
-141.2048088535879
 30
0.0
 10
111.0526424445888
 20
-141.1607116313767
 30
0.0
 10
111.0526424445888
 20
-141.1049021869463
 30
0.0
  0
SPLINE
  5
58
330
1F
100
AcDbEntity
  8
_U+30EC_U+30A4_U+30E4_U+30FC 1
 62
   179
420
  2234388
370
     9
100
AcDbSpline
210
0.0
220
0.0
230
1.0
 70
    11
 71
     3
 72
    17
 73
    13
 74
     0
 42
0.0000000001
 43
0.0000000001
 12
1.0
 22
0.0
 32
0.0
 13
1.0
 23
0.0
 33
0.0
 40
0.0
 40
0.0
 40
0.0
 40
0.0
 40
1.0
 40
1.0
 40
1.0
 40
2.0
 40
2.0
 40
2.0
 40
3.0
 40
3.0
 40
3.0
 40
4.0
 40
4.0
 40
4.0
 40
4.0
 10
107.0522131022039
 20
-145.105366908168
 30
0.0
 10
107.0522131022039
 20
-145.050227741515
 30
0.0
 10
107.0074103255691
 20
-145.0054602415264
 30
0.0
 10
106.952306438086
 20
-145.0054602415264
 30
0.0
 10
106.8971672728261
 20
-145.0054602415264
 30
0.0
 10
106.8523997739682
 20
-145.050227741515
 30
0.0
 10
106.8523997739682
 20
-145.105366908168
 30
0.0
 10
106.8523997739682
 20
-145.160470797043
 30
0.0
 10
106.8971672728261
 20
-145.2052735748097
 30
0.0
 10
106.952306438086
 20
-145.2052735748097
 30
0.0
 10
107.0074103255691
 20
-145.2052735748097
 30
0.0
 10
107.0522131022039
 20
-145.160470797043
 30
0.0
 10
107.0522131022039
 20
-145.105366908168
 30
0.0
  0
SPLINE
  5
59
330
1F
100
AcDbEntity
  8
_U+30EC_U+30A4_U+30E4_U+30FC 1
 62
   179
420
  2234388
370
     9
100
AcDbSpline
210
0.0
220
0.0
230
1.0
 70
    11
 71
     3
 72
    17
 73
    13
 74
     0
 42
0.0000000001
 43
0.0000000001
 12
1.0
 22
0.0
 32
0.0
 13
1.0
 23
0.0
 33
0.0
 40
0.0
 40
0.0
 40
0.0
 40
0.0
 40
1.0
 40
1.0
 40
1.0
 40
2.0
 40
2.0
 40
2.0
 40
3.0
 40
3.0
 40
3.0
 40
4.0
 40
4.0
 40
4.0
 40
4.0
 10
92.05224348488495
 20
-145.105366908168
 30
0.0
 10
92.05224348488495
 20
-145.050227741515
 30
0.0
 10
92.00747598602706
 20
-145.0054602415264
 30
0.0
 10
91.95233682076712
 20
-145.0054602415264
 30
0.0
 10
91.89723293328404
 20
-145.0054602415264
 30
0.0
 10
91.85243015664928
 20
-145.050227741515
 30
0.0
 10
91.85243015664928
 20
-145.105366908168
 30
0.0
 10
91.85243015664928
 20
-145.160470797043
 30
0.0
 10
91.89723293328404
 20
-145.2052735748097
 30
0.0
 10
91.95233682076712
 20
-145.2052735748097
 30
0.0
 10
92.00747598602706
 20
-145.2052735748097
 30
0.0
 10
92.05224348488495
 20
-145.160470797043
 30
0.0
 10
92.05224348488495
 20
-145.105366908168
 30
0.0
  0
SPLINE
  5
5A
330
1F
100
AcDbEntity
  8
_U+30EC_U+30A4_U+30E4_U+30FC 1
 62
   179
420
  2234388
370
     9
100
AcDbSpline
210
0.0
220
0.0
230
1.0
 70
    11
 71
     3
 72
    17
 73
    13
 74
     0
 42
0.0000000001
 43
0.0000000001
 12
1.0
 22
0.0
 32
0.0
 13
1.0
 23
0.0
 33
0.0
 40
0.0
 40
0.0
 40
0.0
 40
0.0
 40
1.0
 40
1.0
 40
1.0
 40
2.0
 40
2.0
 40
2.0
 40
3.0
 40
3.0
 40
3.0
 40
4.0
 40
4.0
 40
4.0
 40
4.0
 10
73.05237369183423
 20
-126.1049674684739
 30
0.0
 10
73.05237369183423
 20
-126.0495108018209
 30
0.0
 10
73.00760619297635
 20
-126.005060801832
 30
0.0
 10
72.95229063883201
 20
-126.005060801832
 30
0.0
 10
72.89718675134894
 20
-126.005060801832
 30
0.0
 10
72.85238397471417
 20
-126.0495108018209
 30
0.0
 10
72.85238397471417
 20
-126.1049674684739
 30
0.0
 10
72.85238397471417
 20
-126.1600713573488
 30
0.0
 10
72.89718675134894
 20
-126.2048741351156
 30
0.0
 10
72.95229063883201
 20
-126.2048741351156
 30
0.0
 10
73.00760619297635
 20
-126.2048741351156
 30
0.0
 10
73.05237369183423
 20
-126.1600713573488
 30
0.0
 10
73.05237369183423
 20
-126.1049674684739
 30
0.0
  0
SPLINE
  5
5B
330
1F
100
AcDbEntity
  8
_U+30EC_U+30A4_U+30E4_U+30FC 1
 62
   179
420
  2234388
370
     9
100
AcDbSpline
210
0.0
220
0.0
230
1.0
 70
    11
 71
     3
 72
    17
 73
    13
 74
     0
 42
0.0000000001
 43
0.0000000001
 12
1.0
 22
0.0
 32
0.0
 13
1.0
 23
0.0
 33
0.0
 40
0.0
 40
0.0
 40
0.0
 40
0.0
 40
1.0
 40
1.0
 40
1.0
 40
2.0
 40
2.0
 40
2.0
 40
3.0
 40
3.0
 40
3.0
 40
4.0
 40
4.0
 40
4.0
 40
4.0
 10
73.05237369183423
 20
-111.1050327500016
 30
0.0
 10
73.05237369183423
 20
-111.049540805571
 30
0.0
 10
73.00760619297635
 20
-111.0047733055822
 30
0.0
 10
72.95229063883201
 20
-111.0047733055822
 30
0.0
 10
72.89718675134894
 20
-111.0047733055822
 30
0.0
 10
72.85238397471417
 20
-111.049540805571
 30
0.0
 10
72.85238397471417
 20
-111.1050327500016
 30
0.0
 10
72.85238397471417
 20
-111.1601366388765
 30
0.0
 10
72.89718675134894
 20
-111.2049394166432
 30
0.0
 10
72.95229063883201
 20
-111.2049394166432
 30
0.0
 10
73.00760619297635
 20
-111.2049394166432
 30
0.0
 10
73.05237369183423
 20
-111.1601366388765
 30
0.0
 10
73.05237369183423
 20
-111.1050327500016
 30
0.0
  0
INSERT
  5
5D
330
1F
100
AcDbEntity
  8
_U+30EC_U+30A4_U+30E4_U+30FC 1
100
AcDbBlockReference
  2
block 3
 10
0.0
 20
0.0
 30
0.0
  0
POLYLINE
  5
67
330
1F
100
AcDbEntity
  8
_U+30EC_U+30A4_U+30E4_U+30FC 1
 62
   179
420
  2234388
370
     9
100
AcDb2dPolyline
 66
     1
 10
0.0
 20
0.0
 30
0.0
  0
VERTEX
  5
68
330
67
100
AcDbEntity
  8
_U+30EC_U+30A4_U+30E4_U+30FC 1
 62
   179
420
  2234388
370
     9
100
AcDbVertex
100
AcDb2dVertex
 10
91.95233682076712
 20
-143.6453255196443
 30
0.0
  0
VERTEX
  5
69
330
67
100
AcDbEntity
  8
_U+30EC_U+30A4_U+30E4_U+30FC 1
 62
   179
420
  2234388
370
     9
100
AcDbVertex
100
AcDb2dVertex
 10
91.95233682076712
 20
-146.1051391301406
 30
0.0
  0
SEQEND
  5
6A
330
67
100
AcDbEntity
  8
_U+30EC_U+30A4_U+30E4_U+30FC 1
 62
   179
420
  2234388
370
     9
  0
POLYLINE
  5
6B
330
1F
100
AcDbEntity
  8
_U+30EC_U+30A4_U+30E4_U+30FC 1
 62
   179
420
  2234388
370
     9
100
AcDb2dPolyline
 66
     1
 10
0.0
 20
0.0
 30
0.0
  0
VERTEX
  5
6C
330
6B
100
AcDbEntity
  8
_U+30EC_U+30A4_U+30E4_U+30FC 1
 62
   179
420
  2234388
370
     9
100
AcDbVertex
100
AcDb2dVertex
 10
91.95233682076712
 20
-145.105366908168
 30
0.0
  0
VERTEX
  5
6D
330
6B
100
AcDbEntity
  8
_U+30EC_U+30A4_U+30E4_U+30FC 1
 62
   179
420
  2234388
370
     9
100
AcDbVertex
100
AcDb2dVertex
 10
106.952306438086
 20
-145.105366908168
 30
0.0
  0
SEQEND
  5
6E
330
6B
100
AcDbEntity
  8
_U+30EC_U+30A4_U+30E4_U+30FC 1
 62
   179
420
  2234388
370
     9
  0
POLYLINE
  5
6F
330
1F
100
AcDbEntity
  8
_U+30EC_U+30A4_U+30E4_U+30FC 1
 62
   179
420
  2234388
370
     9
100
AcDb2dPolyline
 66
     1
 10
0.0
 20
0.0
 30
0.0
  0
VERTEX
  5
70
330
6F
100
AcDbEntity
  8
_U+30EC_U+30A4_U+30E4_U+30FC 1
 62
   179
420
  2234388
370
     9
100
AcDbVertex
100
AcDb2dVertex
 10
106.952306438086
 20
-137.6453516322557
 30
0.0
  0
VERTEX
  5
71
330
6F
100
AcDbEntity
  8
_U+30EC_U+30A4_U+30E4_U+30FC 1
 62
   179
420
  2234388
370
     9
100
AcDbVertex
100
AcDb2dVertex
 10
106.952306438086
 20
-146.1051391301406
 30
0.0
  0
SEQEND
  5
72
330
6F
100
AcDbEntity
  8
_U+30EC_U+30A4_U+30E4_U+30FC 1
 62
   179
420
  2234388
370
     9
  0
INSERT
  5
74
330
1F
100
AcDbEntity
  8
_U+30EC_U+30A4_U+30E4_U+30FC 1
100
AcDbBlockReference
  2
block 4
 10
0.0
 20
0.0
 30
0.0
  0
POLYLINE
  5
7B
330
1F
100
AcDbEntity
  8
_U+30EC_U+30A4_U+30E4_U+30FC 1
 62
   179
420
  2234388
370
     9
100
AcDb2dPolyline
 66
     1
 10
0.0
 20
0.0
 30
0.0
  0
VERTEX
  5
7C
330
7B
100
AcDbEntity
  8
_U+30EC_U+30A4_U+30E4_U+30FC 1
 62
   179
420
  2234388
370
     9
100
AcDbVertex
100
AcDb2dVertex
 10
74.41233199047214
 20
-126.1049674684739
 30
0.0
  0
VERTEX
  5
7D
330
7B
100
AcDbEntity
  8
_U+30EC_U+30A4_U+30E4_U+30FC 1
 62
   179
420
  2234388
370
     9
100
AcDbVertex
100
AcDb2dVertex
 10
71.95237733100859
 20
-126.1049674684739
 30
0.0
  0
SEQEND
  5
7E
330
7B
100
AcDbEntity
  8
_U+30EC_U+30A4_U+30E4_U+30FC 1
 62
   179
420
  2234388
370
     9
  0
POLYLINE
  5
7F
330
1F
100
AcDbEntity
  8
_U+30EC_U+30A4_U+30E4_U+30FC 1
 62
   179
420
  2234388
370
     9
100
AcDb2dPolyline
 66
     1
 10
0.0
 20
0.0
 30
0.0
  0
VERTEX
  5
80
330
7F
100
AcDbEntity
  8
_U+30EC_U+30A4_U+30E4_U+30FC 1
 62
   179
420
  2234388
370
     9
100
AcDbVertex
100
AcDb2dVertex
 10
72.95229063883201
 20
-126.1049674684739
 30
0.0
  0
VERTEX
  5
81
330
7F
100
AcDbEntity
  8
_U+30EC_U+30A4_U+30E4_U+30FC 1
 62
   179
420
  2234388
370
     9
100
AcDbVertex
100
AcDb2dVertex
 10
72.95229063883201
 20
-111.1050327500016
 30
0.0
  0
SEQEND
  5
82
330
7F
100
AcDbEntity
  8
_U+30EC_U+30A4_U+30E4_U+30FC 1
 62
   179
420
  2234388
370
     9
  0
POLYLINE
  5
83
330
1F
100
AcDbEntity
  8
_U+30EC_U+30A4_U+30E4_U+30FC 1
 62
   179
420
  2234388
370
     9
100
AcDb2dPolyline
 66
     1
 10
0.0
 20
0.0
 30
0.0
  0
VERTEX
  5
84
330
83
100
AcDbEntity
  8
_U+30EC_U+30A4_U+30E4_U+30FC 1
 62
   179
420
  2234388
370
     9
100
AcDbVertex
100
AcDb2dVertex
 10
80.41230572628895
 20
-111.1050327500016
 30
0.0
  0
VERTEX
  5
85
330
83
100
AcDbEntity
  8
_U+30EC_U+30A4_U+30E4_U+30FC 1
 62
   179
420
  2234388
370
     9
100
AcDbVertex
100
AcDb2dVertex
 10
71.95237733100859
 20
-111.1050327500016
 30
0.0
  0
SEQEND
  5
86
330
83
100
AcDbEntity
  8
_U+30EC_U+30A4_U+30E4_U+30FC 1
 62
   179
420
  2234388
370
     9
  0
INSERT
  5
88
330
1F
100
AcDbEntity
  8
_U+30EC_U+30A4_U+30E4_U+30FC 1
100
AcDbBlockReference
  2
block 5
 10
0.0
 20
0.0
 30
0.0
  0
POLYLINE
  5
8F
330
1F
100
AcDbEntity
  8
_U+30EC_U+30A4_U+30E4_U+30FC 1
 62
   179
420
  2234388
370
     9
100
AcDb2dPolyline
 66
     1
 10
0.0
 20
0.0
 30
0.0
  0
VERTEX
  5
90
330
8F
100
AcDbEntity
  8
_U+30EC_U+30A4_U+30E4_U+30FC 1
 62
   179
420
  2234388
370
     9
100
AcDbVertex
100
AcDb2dVertex
 10
109.4926971948489
 20
-134.1051560775851
 30
0.0
  0
VERTEX
  5
91
330
8F
100
AcDbEntity
  8
_U+30EC_U+30A4_U+30E4_U+30FC 1
 62
   179
420
  2234388
370
     9
100
AcDbVertex
100
AcDb2dVertex
 10
111.9525079771869
 20
-134.1051560775851
 30
0.0
  0
SEQEND
  5
92
330
8F
100
AcDbEntity
  8
_U+30EC_U+30A4_U+30E4_U+30FC 1
 62
   179
420
  2234388
370
     9
  0
POLYLINE
  5
93
330
1F
100
AcDbEntity
  8
_U+30EC_U+30A4_U+30E4_U+30FC 1
 62
   179
420
  2234388
370
     9
100
AcDb2dPolyline
 66
     1
 10
0.0
 20
0.0
 30
0.0
  0
VERTEX
  5
94
330
93
100
AcDbEntity
  8
_U+30EC_U+30A4_U+30E4_U+30FC 1
 62
   179
420
  2234388
370
     9
100
AcDbVertex
100
AcDb2dVertex
 10
109.4926971948489
 20
-135.1049282995569
 30
0.0
  0
VERTEX
  5
95
330
93
100
AcDbEntity
  8
_U+30EC_U+30A4_U+30E4_U+30FC 1
 62
   179
420
  2234388
370
     9
100
AcDbVertex
100
AcDb2dVertex
 10
111.9525079771869
 20
-135.1049282995569
 30
0.0
  0
SEQEND
  5
96
330
93
100
AcDbEntity
  8
_U+30EC_U+30A4_U+30E4_U+30FC 1
 62
   179
420
  2234388
370
     9
  0
INSERT
  5
98
330
1F
100
AcDbEntity
  8
_U+30EC_U+30A4_U+30E4_U+30FC 1
100
AcDbBlockReference
  2
block 6
 10
0.0
 20
0.0
 30
0.0
  0
POLYLINE
  5
9D
330
1F
100
AcDbEntity
  8
_U+30EC_U+30A4_U+30E4_U+30FC 1
 62
   179
420
  2234388
370
     9
100
AcDb2dPolyline
 66
     1
 10
0.0
 20
0.0
 30
0.0
  0
VERTEX
  5
9E
330
9D
100
AcDbEntity
  8
_U+30EC_U+30A4_U+30E4_U+30FC 1
 62
   179
420
  2234388
370
     9
100
AcDbVertex
100
AcDb2dVertex
 10
110.9520655027103
 20
-131.3353213560551
 30
0.0
  0
VERTEX
  5
9F
330
9D
100
AcDbEntity
  8
_U+30EC_U+30A4_U+30E4_U+30FC 1
 62
   179
420
  2234388
370
     9
100
AcDbVertex
100
AcDb2dVertex
 10
110.9520655027103
 20
-141.1049021869463
 30
0.0
  0
SEQEND
  5
A0
330
9D
100
AcDbEntity
  8
_U+30EC_U+30A4_U+30E4_U+30FC 1
 62
   179
420
  2234388
370
     9
  0
POLYLINE
  5
A1
330
1F
100
AcDbEntity
  8
_U+30EC_U+30A4_U+30E4_U+30FC 1
 62
   179
420
  2234388
370
     9
100
AcDb2dPolyline
 66
     1
 10
0.0
 20
0.0
 30
0.0
  0
VERTEX
  5
A2
330
A1
100
AcDbEntity
  8
_U+30EC_U+30A4_U+30E4_U+30FC 1
 62
   179
420
  2234388
370
     9
100
AcDbVertex
100
AcDb2dVertex
 10
94.49208981152817
 20
-141.1049021869463
 30
0.0
  0
VERTEX
  5
A3
330
A1
100
AcDbEntity
  8
_U+30EC_U+30A4_U+30E4_U+30FC 1
 62
   179
420
  2234388
370
     9
100
AcDbVertex
100
AcDb2dVertex
 10
111.9525079771869
 20
-141.1049021869463
 30
0.0
  0
SEQEND
  5
A4
330
A1
100
AcDbEntity
  8
_U+30EC_U+30A4_U+30E4_U+30FC 1
 62
   179
420
  2234388
370
     9
  0
INSERT
  5
A6
330
1F
100
AcDbEntity
  8
_U+30EC_U+30A4_U+30E4_U+30FC 1
100
AcDbBlockReference
  2
block 7
 10
0.0
 20
0.0
 30
0.0
  0
POLYLINE
  5
AC
330
1F
100
AcDbEntity
  8
_U+30EC_U+30A4_U+30E4_U+30FC 1
 62
   179
420
  2234388
370
    25
100
AcDb2dPolyline
 66
     1
 10
0.0
 20
0.0
 30
0.0
  0
VERTEX
  5
AD
330
AC
100
AcDbEntity
  8
_U+30EC_U+30A4_U+30E4_U+30FC 1
 62
   179
420
  2234388
370
    25
100
AcDbVertex
100
AcDb2dVertex
 10
91.95233682076712
 20
-135.1052810773347
 30
0.0
  0
VERTEX
  5
AE
330
AC
100
AcDbEntity
  8
_U+30EC_U+30A4_U+30E4_U+30FC 1
 62
   179
420
  2234388
370
    25
100
AcDbVertex
100
AcDb2dVertex
 10
91.95233682076712
 20
-141.1045494091685
 30
0.0
  0
SEQEND
  5
AF
330
AC
100
AcDbEntity
  8
_U+30EC_U+30A4_U+30E4_U+30FC 1
 62
   179
420
  2234388
370
    25
  0
POLYLINE
  5
B0
330
1F
100
AcDbEntity
  8
_U+30EC_U+30A4_U+30E4_U+30FC 1
 62
   179
420
  2234388
370
    25
100
AcDb2dPolyline
 66
     1
 10
0.0
 20
0.0
 30
0.0
  0
VERTEX
  5
B1
330
B0
100
AcDbEntity
  8
_U+30EC_U+30A4_U+30E4_U+30FC 1
 62
   179
420
  2234388
370
    25
100
AcDbVertex
100
AcDb2dVertex
 10
76.95240248122509
 20
-126.1049674684739
 30
0.0
  0
VERTEX
  5
B2
330
B0
100
AcDbEntity
  8
_U+30EC_U+30A4_U+30E4_U+30FC 1
 62
   179
420
  2234388
370
    25
100
AcDbVertex
100
AcDb2dVertex
 10
82.9523762170419
 20
-126.1049674684739
 30
0.0
  0
SEQEND
  5
B3
330
B0
100
AcDbEntity
  8
_U+30EC_U+30A4_U+30E4_U+30FC 1
 62
   179
420
  2234388
370
    25
  0
POLYLINE
  5
B4
330
1F
100
AcDbEntity
  8
_U+30EC_U+30A4_U+30E4_U+30FC 1
 62
   179
420
  2234388
370
    25
100
AcDb2dPolyline
 66
     1
 10
0.0
 20
0.0
 30
0.0
  0
VERTEX
  5
B5
330
B4
100
AcDbEntity
  8
_U+30EC_U+30A4_U+30E4_U+30FC 1
 62
   179
420
  2234388
370
    25
100
AcDbVertex
100
AcDb2dVertex
 10
106.952306438086
 20
-134.1048032998073
 30
0.0
  0
VERTEX
  5
B6
330
B4
100
AcDbEntity
  8
_U+30EC_U+30A4_U+30E4_U+30FC 1
 62
   179
420
  2234388
370
    25
100
AcDbVertex
100
AcDb2dVertex
 10
106.952306438086
 20
-135.1052810773347
 30
0.0
  0
SEQEND
  5
B7
330
B4
100
AcDbEntity
  8
_U+30EC_U+30A4_U+30E4_U+30FC 1
 62
   179
420
  2234388
370
    25
  0
POLYLINE
  5
B8
330
1F
100
AcDbEntity
  8
_U+30EC_U+30A4_U+30E4_U+30FC 1
 62
   179
420
  2234388
370
    25
100
AcDb2dPolyline
 66
     1
 10
0.0
 20
0.0
 30
0.0
  0
VERTEX
  5
B9
330
B8
100
AcDbEntity
  8
_U+30EC_U+30A4_U+30E4_U+30FC 1
 62
   179
420
  2234388
370
    25
100
AcDbVertex
100
AcDb2dVertex
 10
82.9523762170419
 20
-111.1050327500016
 30
0.0
  0
VERTEX
  5
BA
330
B8
100
AcDbEntity
  8
_U+30EC_U+30A4_U+30E4_U+30FC 1
 62
   179
420
  2234388
370
    25
100
AcDbVertex
100
AcDb2dVertex
 10
83.95214841375781
 20
-111.1050327500016
 30
0.0
  0
SEQEND
  5
BB
330
B8
100
AcDbEntity
  8
_U+30EC_U+30A4_U+30E4_U+30FC 1
 62
   179
420
  2234388
370
    25
  0
POLYLINE
  5
BC
330
1F
100
AcDbEntity
  8
_U+30EC_U+30A4_U+30E4_U+30FC 1
 62
   179
420
  2234388
370
    25
100
AcDb2dPolyline
 66
     1
 10
0.0
 20
0.0
 30
0.0
  0
VERTEX
  5
BD
330
BC
100
AcDbEntity
  8
_U+30EC_U+30A4_U+30E4_U+30FC 1
 62
   179
420
  2234388
370
    25
100
AcDbVertex
100
AcDb2dVertex
 10
91.95233682076712
 20
-135.1052810773347
 30
0.0
  0
VERTEX
  5
BE
330
BC
100
AcDbEntity
  8
_U+30EC_U+30A4_U+30E4_U+30FC 1
 62
   179
420
  2234388
370
    25
100
AcDbVertex
100
AcDb2dVertex
 10
106.952306438086
 20
-135.1052810773347
 30
0.0
  0
SEQEND
  5
BF
330
BC
100
AcDbEntity
  8
_U+30EC_U+30A4_U+30E4_U+30FC 1
 62
   179
420
  2234388
370
    25
  0
POLYLINE
  5
C0
330
1F
100
AcDbEntity
  8
_U+30EC_U+30A4_U+30E4_U+30FC 1
 62
   179
420
  2234388
370
    25
100
AcDb2dPolyline
 66
     1
 10
0.0
 20
0.0
 30
0.0
  0
VERTEX
  5
C1
330
C0
100
AcDbEntity
  8
_U+30EC_U+30A4_U+30E4_U+30FC 1
 62
   179
420
  2234388
370
    25
100
AcDbVertex
100
AcDb2dVertex
 10
90.45236102570135
 20
-134.1048032998073
 30
0.0
  0
VERTEX
  5
C2
330
C0
100
AcDbEntity
  8
_U+30EC_U+30A4_U+30E4_U+30FC 1
 62
   179
420
  2234388
370
    25
100
AcDbVertex
100
AcDb2dVertex
 10
106.952306438086
 20
-134.1048032998073
 30
0.0
  0
SEQEND
  5
C3
330
C0
100
AcDbEntity
  8
_U+30EC_U+30A4_U+30E4_U+30FC 1
 62
   179
420
  2234388
370
    25
  0
POLYLINE
  5
C4
330
1F
100
AcDbEntity
  8
_U+30EC_U+30A4_U+30E4_U+30FC 1
 62
   179
420
  2234388
370
    25
100
AcDb2dPolyline
 66
     1
 10
0.0
 20
0.0
 30
0.0
  0
VERTEX
  5
C5
330
C4
100
AcDbEntity
  8
_U+30EC_U+30A4_U+30E4_U+30FC 1
 62
   179
420
  2234388
370
    25
100
AcDbVertex
100
AcDb2dVertex
 10
90.45236102570135
 20
-134.1048032998073
 30
0.0
  0
VERTEX
  5
C6
330
C4
100
AcDbEntity
  8
_U+30EC_U+30A4_U+30E4_U+30FC 1
 62
   179
420
  2234388
370
    25
100
AcDbVertex
100
AcDb2dVertex
 10
90.45236102570135
 20
-139.3000205207307
 30
0.0
  0
SEQEND
  5
C7
330
C4
100
AcDbEntity
  8
_U+30EC_U+30A4_U+30E4_U+30FC 1
 62
   179
420
  2234388
370
    25
  0
POLYLINE
  5
C8
330
1F
100
AcDbEntity
  8
_U+30EC_U+30A4_U+30E4_U+30FC 1
 62
   179
420
  2234388
370
    25
100
AcDb2dPolyline
 66
     1
 10
0.0
 20
0.0
 30
0.0
  0
VERTEX
  5
C9
330
C8
100
AcDbEntity
  8
_U+30EC_U+30A4_U+30E4_U+30FC 1
 62
   179
420
  2234388
370
    25
100
AcDbVertex
100
AcDb2dVertex
 10
78.75710771296102
 20
-127.604943301432
 30
0.0
  0
VERTEX
  5
CA
330
C8
100
AcDbEntity
  8
_U+30EC_U+30A4_U+30E4_U+30FC 1
 62
   179
420
  2234388
370
    25
100
AcDbVertex
100
AcDb2dVertex
 10
83.95232480264221
 20
-127.604943301432
 30
0.0
  0
SEQEND
  5
CB
330
C8
100
AcDbEntity
  8
_U+30EC_U+30A4_U+30E4_U+30FC 1
 62
   179
420
  2234388
370
    25
  0
POLYLINE
  5
CC
330
1F
100
AcDbEntity
  8
_U+30EC_U+30A4_U+30E4_U+30FC 1
 62
   179
420
  2234388
370
    25
100
AcDb2dPolyline
 66
     1
 10
0.0
 20
0.0
 30
0.0
  0
VERTEX
  5
CD
330
CC
100
AcDbEntity
  8
_U+30EC_U+30A4_U+30E4_U+30FC 1
 62
   179
420
  2234388
370
    25
100
AcDbVertex
100
AcDb2dVertex
 10
82.9523762170419
 20
-111.1050327500016
 30
0.0
  0
VERTEX
  5
CE
330
CC
100
AcDbEntity
  8
_U+30EC_U+30A4_U+30E4_U+30FC 1
 62
   179
420
  2234388
370
    25
100
AcDbVertex
100
AcDb2dVertex
 10
82.9523762170419
 20
-126.1049674684739
 30
0.0
  0
SEQEND
  5
CF
330
CC
100
AcDbEntity
  8
_U+30EC_U+30A4_U+30E4_U+30FC 1
 62
   179
420
  2234388
370
    25
  0
POLYLINE
  5
D0
330
1F
100
AcDbEntity
  8
_U+30EC_U+30A4_U+30E4_U+30FC 1
 62
   179
420
  2234388
370
    25
100
AcDb2dPolyline
 66
     1
 10
0.0
 20
0.0
 30
0.0
  0
VERTEX
  5
D1
330
D0
100
AcDbEntity
  8
_U+30EC_U+30A4_U+30E4_U+30FC 1
 62
   179
420
  2234388
370
    25
100
AcDbVertex
100
AcDb2dVertex
 10
83.95232480264221
 20
-111.1050327500016
 30
0.0
  0
VERTEX
  5
D2
330
D0
100
AcDbEntity
  8
_U+30EC_U+30A4_U+30E4_U+30FC 1
 62
   179
420
  2234388
370
    25
100
AcDbVertex
100
AcDb2dVertex
 10
83.95232480264221
 20
-127.604943301432
 30
0.0
  0
SEQEND
  5
D3
330
D0
100
AcDbEntity
  8
_U+30EC_U+30A4_U+30E4_U+30FC 1
 62
   179
420
  2234388
370
    25
  0
SPLINE
  5
D4
330
1F
100
AcDbEntity
  8
_U+30EC_U+30A4_U+30E4_U+30FC 1
 62
   179
420
  2234388
370
    25
100
AcDbSpline
210
0.0
220
0.0
230
1.0
 70
     8
 71
     3
 72
     8
 73
     4
 74
     0
 42
0.0000000001
 43
0.0000000001
 12
1.0
 22
0.0
 32
0.0
 13
1.0
 23
0.0
 33
0.0
 40
0.0
 40
0.0
 40
0.0
 40
0.0
 40
1.0
 40
1.0
 40
1.0
 40
1.0
 10
76.95240248122509
 20
-126.1049674684739
 30
0.0
 10
77.44297524648732
 20
-134.1771580220112
 30
0.0
 10
83.87997220125239
 20
-140.6139766315132
 30
0.0
 10
91.95233682076712
 20
-141.1045494091685
 30
0.0
  0
SPLINE
  5
D5
330
1F
100
AcDbEntity
  8
_U+30EC_U+30A4_U+30E4_U+30FC 1
 62
   179
420
  2234388
370
    25
100
AcDbSpline
210
0.0
220
0.0
230
1.0
 70
     8
 71
     3
 72
     8
 73
     4
 74
     0
 42
0.0000000001
 43
0.0000000001
 12
1.0
 22
0.0
 32
0.0
 13
1.0
 23
0.0
 33
0.0
 40
0.0
 40
0.0
 40
0.0
 40
0.0
 40
1.0
 40
1.0
 40
1.0
 40
1.0
 10
78.75523799078648
 20
-127.5846233014371
 30
0.0
 10
79.78997046438826
 20
-133.5577507999441
 30
0.0
 10
84.49888339980944
 20
-138.2664874654333
 30
0.0
 10
90.47285741406733
 20
-139.3017491318413
 30
0.0
  0
ENDSEC
  0
SECTION
  2
OBJECTS
  0
DICTIONARY
  5
C
330
0
100
AcDbDictionary
281
     1
  3
ACAD_GROUP
350
D
  3
ACAD_LAYOUT
350
1A
  3
ACAD_MATERIAL
350
3B
  3
ACAD_MLEADERSTYLE
350
D7
  3
ACAD_MLINESTYLE
350
17
  3
ACAD_PLOTSETTINGS
350
19
  3
ACAD_PLOTSTYLENAME
350
E
  3
ACAD_TABLESTYLE
350
D6
  3
ACAD_VISUALSTYLE
350
2A
  0
SUN
  5
3F
330
29
100
AcDbSun
 90
        1
290
     0
 63
     7
421
 16777215
 40
1.0
291
     1
 91
  2455826
 92
 54000000
292
     0
 70
     2
 71
   256
280
     1
  0
DICTIONARY
  5
D
102
{ACAD_REACTORS
330
C
102
}
330
C
100
AcDbDictionary
281
     1
  0
DICTIONARY
  5
1A
102
{ACAD_REACTORS
330
C
102
}
330
C
100
AcDbDictionary
281
     1
  3
Layout1
350
1E
  3
Layout2
350
26
  3
Model
350
22
  0
DICTIONARY
  5
3B
102
{ACAD_REACTORS
330
C
102
}
330
C
100
AcDbDictionary
281
     1
  3
ByBlock
350
3D
  3
ByLayer
350
3C
  3
Global
350
3E
  0
DICTIONARY
  5
D7
102
{ACAD_REACTORS
330
C
102
}
330
C
100
AcDbDictionary
281
     1
  0
DICTIONARY
  5
17
102
{ACAD_REACTORS
330
C
102
}
330
C
100
AcDbDictionary
281
     1
  3
Standard
350
18
  0
DICTIONARY
  5
19
102
{ACAD_REACTORS
330
C
102
}
330
C
100
AcDbDictionary
281
     1
  0
ACDBDICTIONARYWDFLT
  5
E
102
{ACAD_REACTORS
330
C
102
}
330
C
100
AcDbDictionary
281
     1
  3
Normal
350
F
100
AcDbDictionaryWithDefault
340
F
  0
DICTIONARY
  5
D6
102
{ACAD_REACTORS
330
C
102
}
330
C
100
AcDbDictionary
281
     1
  0
DICTIONARY
  5
2A
102
{ACAD_REACTORS
330
C
102
}
330
C
100
AcDbDictionary
281
     1
  3
2dWireframe
350
2F
  3
3D Hidden
350
31
  3
3dWireframe
350
30
  3
Basic
350
32
  3
Brighten
350
36
  3
ColorChange
350
3A
  3
Conceptual
350
34
  3
Dim
350
35
  3
Facepattern
350
39
  3
Flat
350
2B
  3
FlatWithEdges
350
2C
  3
Gouraud
350
2D
  3
GouraudWithEdges
350
2E
  3
Linepattern
350
38
  3
Realistic
350
33
  3
Thicken
350
37
  0
LAYOUT
  5
1E
102
{ACAD_REACTORS
330
1A
102
}
330
1A
100
AcDbPlotSettings
  1

  2
none_device
  4

  6

 40
0.0
 41
0.0
 42
0.0
 43
0.0
 44
0.0
 45
0.0
 46
0.0
 47
0.0
 48
0.0
 49
0.0
140
0.0
141
0.0
142
1.0
143
1.0
 70
   688
 72
     0
 73
     0
 74
     5
  7

 75
    16
 76
     0
 77
     2
 78
   300
147
1.0
148
0.0
149
0.0
100
AcDbLayout
  1
Layout1
 70
     1
 71
     1
 10
0.0
 20
0.0
 11
12.0
 21
9.0
 12
0.0
 22
0.0
 32
0.0
 14
1.000000000000000E+20
 24
1.000000000000000E+20
 34
1.000000000000000E+20
 15
-1.000000000000000E+20
 25
-1.000000000000000E+20
 35
-1.000000000000000E+20
146
0.0
 13
0.0
 23
0.0
 33
0.0
 16
1.0
 26
0.0
 36
0.0
 17
0.0
 27
1.0
 37
0.0
 76
     0
330
1B
  0
LAYOUT
  5
26
102
{ACAD_REACTORS
330
1A
102
}
330
1A
100
AcDbPlotSettings
  1

  2
none_device
  4

  6

 40
0.0
 41
0.0
 42
0.0
 43
0.0
 44
0.0
 45
0.0
 46
0.0
 47
0.0
 48
0.0
 49
0.0
140
0.0
141
0.0
142
1.0
143
1.0
 70
   688
 72
     0
 73
     0
 74
     5
  7

 75
    16
 76
     0
 77
     2
 78
   300
147
1.0
148
0.0
149
0.0
100
AcDbLayout
  1
Layout2
 70
     1
 71
     2
 10
0.0
 20
0.0
 11
0.0
 21
0.0
 12
0.0
 22
0.0
 32
0.0
 14
0.0
 24
0.0
 34
0.0
 15
0.0
 25
0.0
 35
0.0
146
0.0
 13
0.0
 23
0.0
 33
0.0
 16
1.0
 26
0.0
 36
0.0
 17
0.0
 27
1.0
 37
0.0
 76
     0
330
23
  0
LAYOUT
  5
22
102
{ACAD_REACTORS
330
1A
102
}
330
1A
100
AcDbPlotSettings
  1

  2
none_device
  4

  6

 40
0.0
 41
0.0
 42
0.0
 43
0.0
 44
0.0
 45
0.0
 46
0.0
 47
0.0
 48
0.0
 49
0.0
140
0.0
141
0.0
142
1.0
143
1.0
 70
  1712
 72
     0
 73
     0
 74
     0
  7

 75
     0
 76
     0
 77
     2
 78
   300
147
1.0
148
0.0
149
0.0
100
AcDbLayout
  1
Model
 70
     1
 71
     0
 10
0.0
 20
0.0
 11
12.0
 21
9.0
 12
0.0
 22
0.0
 32
0.0
 14
1.000000000000000E+20
 24
1.000000000000000E+20
 34
1.000000000000000E+20
 15
-1.000000000000000E+20
 25
-1.000000000000000E+20
 35
-1.000000000000000E+20
146
0.0
 13
0.0
 23
0.0
 33
0.0
 16
1.0
 26
0.0
 36
0.0
 17
0.0
 27
1.0
 37
0.0
 76
     0
330
1F
331
29
  0
MATERIAL
  5
3D
102
{ACAD_REACTORS
330
3B
102
}
330
3B
100
AcDbMaterial
  1
ByBlock
 72
     1
 94
      127
  0
MATERIAL
  5
3C
102
{ACAD_REACTORS
330
3B
102
}
330
3B
100
AcDbMaterial
  1
ByLayer
 72
     1
 94
      127
  0
MATERIAL
  5
3E
102
{ACAD_REACTORS
330
3B
102
}
330
3B
100
AcDbMaterial
  1
Global
 72
     1
 94
      127
  0
MLINESTYLE
  5
18
102
{ACAD_REACTORS
330
17
102
}
330
17
100
AcDbMlineStyle
  2
Standard
 70
     0
  3

 62
   256
 51
90.0
 52
90.0
 71
     2
 49
0.5
 62
   256
  6
BYLAYER
 49
-0.5
 62
   256
  6
BYLAYER
  0
ACDBPLACEHOLDER
  5
F
102
{ACAD_REACTORS
330
E
102
}
330
E
  0
VISUALSTYLE
  5
2F
102
{ACAD_REACTORS
330
2A
102
}
330
2A
100
AcDbVisualStyle
  2
2dWireframe
 70
     4
177
     2
291
     0
 71
     0
176
     1
 72
     2
176
     1
 73
     0
176
     1
 90
        0
176
     1
 40
-0.6
176
     1
 41
-30.0
176
     1
 62
     5
 63
     7
421
 16777215
176
     1
 74
     1
176
     1
 91
        4
176
     1
 64
     7
176
     1
 65
   257
176
     1
 75
     1
176
     1
175
     1
176
     1
 42
1.0
176
     1
 92
        0
176
     1
 66
   257
176
     1
 43
1.0
176
     1
 76
     1
176
     1
 77
     6
176
     1
 78
     2
176
     1
 67
     7
176
     1
 79
     5
176
     1
170
     0
176
     1
171
     0
176
     1
290
     0
176
     1
 93
        1
176
     1
 44
0.0
176
     1
173
     0
176
     1
  0
VISUALSTYLE
  5
31
102
{ACAD_REACTORS
330
2A
102
}
330
2A
100
AcDbVisualStyle
  2
3D Hidden
 70
     6
177
     2
291
     0
 71
     1
176
     1
 72
     2
176
     1
 73
     2
176
     1
 90
        0
176
     1
 40
-0.6
176
     1
 41
-30.0
176
     1
 62
     5
 63
     7
421
 16777215
176
     1
 74
     2
176
     1
 91
        2
176
     1
 64
     7
176
     1
 65
   257
176
     1
 75
     2
176
     1
175
     1
176
     1
 42
40.0
176
     1
 92
        0
176
     1
 66
   257
176
     1
 43
1.0
176
     1
 76
     1
176
     1
 77
     6
176
     1
 78
     2
176
     1
 67
     7
176
     1
 79
     3
176
     1
170
     0
176
     1
171
     0
176
     1
290
     0
176
     1
 93
        1
176
     1
 44
0.0
176
     1
173
     0
176
     1
  0
VISUALSTYLE
  5
30
102
{ACAD_REACTORS
330
2A
102
}
330
2A
100
AcDbVisualStyle
  2
3dWireframe
 70
     5
177
     2
291
     0
 71
     0
176
     1
 72
     2
176
     1
 73
     0
176
     1
 90
        0
176
     1
 40
-0.6
176
     1
 41
-30.0
176
     1
 62
     5
 63
     7
421
 16777215
176
     1
 74
     1
176
     1
 91
        4
176
     1
 64
     7
176
     1
 65
   257
176
     1
 75
     1
176
     1
175
     1
176
     1
 42
1.0
176
     1
 92
        0
176
     1
 66
   257
176
     1
 43
1.0
176
     1
 76
     1
176
     1
 77
     6
176
     1
 78
     2
176
     1
 67
     7
176
     1
 79
     5
176
     1
170
     0
176
     1
171
     0
176
     1
290
     0
176
     1
 93
        1
176
     1
 44
0.0
176
     1
173
     0
176
     1
  0
VISUALSTYLE
  5
32
102
{ACAD_REACTORS
330
2A
102
}
330
2A
100
AcDbVisualStyle
  2
Basic
 70
     7
177
     2
291
     1
 71
     1
176
     1
 72
     0
176
     1
 73
     1
176
     1
 90
        0
176
     1
 40
-0.6
176
     1
 41
-30.0
176
     1
 62
     5
 63
     7
421
 16777215
176
     1
 74
     0
176
     1
 91
        4
176
     1
 64
     7
176
     1
 65
   257
176
     1
 75
     1
176
     1
175
     1
176
     1
 42
1.0
176
     1
 92
        8
176
     1
 66
     7
176
     1
 43
1.0
176
     1
 76
     1
176
     1
 77
     6
176
     1
 78
     2
176
     1
 67
     7
176
     1
 79
     5
176
     1
170
     0
176
     1
171
     0
176
     1
290
     0
176
     1
 93
        1
176
     1
 44
0.0
176
     1
173
     0
176
     1
  0
VISUALSTYLE
  5
36
102
{ACAD_REACTORS
330
2A
102
}
330
2A
100
AcDbVisualStyle
  2
Brighten
 70
    12
177
     2
291
     1
 71
     2
176
     1
 72
     2
176
     1
 73
     0
176
     1
 90
        0
176
     1
 40
-0.6
176
     1
 41
-30.0
176
     1
 62
     5
 63
     7
421
 16777215
176
     1
 74
     1
176
     1
 91
        4
176
     1
 64
     7
176
     1
 65
   257
176
     1
 75
     1
176
     1
175
     1
176
     1
 42
1.0
176
     1
 92
        8
176
     1
 66
     7
176
     1
 43
1.0
176
     1
 76
     1
176
     1
 77
     6
176
     1
 78
     2
176
     1
 67
     7
176
     1
 79
     5
176
     1
170
     0
176
     1
171
     0
176
     1
290
     0
176
     1
 93
        1
176
     1
 44
50.0
176
     1
173
     0
176
     1
  0
VISUALSTYLE
  5
3A
102
{ACAD_REACTORS
330
2A
102
}
330
2A
100
AcDbVisualStyle
  2
ColorChange
 70
    16
177
     2
291
     1
 71
     2
176
     1
 72
     2
176
     1
 73
     3
176
     1
 90
        0
176
     1
 40
-0.6
176
     1
 41
-30.0
176
     1
 62
     5
 63
     8
421
  8421504
176
     1
 74
     1
176
     1
 91
        4
176
     1
 64
     7
176
     1
 65
   257
176
     1
 75
     1
176
     1
175
     1
176
     1
 42
1.0
176
     1
 92
        8
176
     1
 66
     8
424
  8421504
176
     1
 43
1.0
176
     1
 76
     1
176
     1
 77
     6
176
     1
 78
     2
176
     1
 67
     7
176
     1
 79
     5
176
     1
170
     0
176
     1
171
     0
176
     1
290
     0
176
     1
 93
        1
176
     1
 44
0.0
176
     1
173
     0
176
     1
  0
VISUALSTYLE
  5
34
102
{ACAD_REACTORS
330
2A
102
}
330
2A
100
AcDbVisualStyle
  2
Conceptual
 70
     9
177
     2
291
     0
 71
     3
176
     1
 72
     2
176
     1
 73
     0
176
     1
 90
        0
176
     1
 40
-0.6
176
     1
 41
-30.0
176
     1
 62
     5
 63
     7
421
 16777215
176
     1
 74
     2
176
     1
 91
        2
176
     1
 64
     7
176
     1
 65
   257
176
     1
 75
     1
176
     1
175
     1
176
     1
 42
40.0
176
     1
 92
        8
176
     1
 66
     7
176
     1
 43
1.0
176
     1
 76
     1
176
     1
 77
     6
176
     1
 78
     2
176
     1
 67
     7
176
     1
 79
     3
176
     1
170
     0
176
     1
171
     0
176
     1
290
     0
176
     1
 93
        1
176
     1
 44
0.0
176
     1
173
     0
176
     1
  0
VISUALSTYLE
  5
35
102
{ACAD_REACTORS
330
2A
102
}
330
2A
100
AcDbVisualStyle
  2
Dim
 70
    11
177
     2
291
     1
 71
     2
176
     1
 72
     2
176
     1
 73
     0
176
     1
 90
        0
176
     1
 40
-0.6
176
     1
 41
-30.0
176
     1
 62
     5
 63
     7
421
 16777215
176
     1
 74
     1
176
     1
 91
        4
176
     1
 64
     7
176
     1
 65
   257
176
     1
 75
     1
176
     1
175
     1
176
     1
 42
1.0
176
     1
 92
        8
176
     1
 66
     7
176
     1
 43
1.0
176
     1
 76
     1
176
     1
 77
     6
176
     1
 78
     2
176
     1
 67
     7
176
     1
 79
     5
176
     1
170
     0
176
     1
171
     0
176
     1
290
     0
176
     1
 93
        1
176
     1
 44
-50.0
176
     1
173
     0
176
     1
  0
VISUALSTYLE
  5
39
102
{ACAD_REACTORS
330
2A
102
}
330
2A
100
AcDbVisualStyle
  2
Facepattern
 70
    15
177
     2
291
     1
 71
     2
176
     1
 72
     2
176
     1
 73
     0
176
     1
 90
        0
176
     1
 40
-0.6
176
     1
 41
-30.0
176
     1
 62
     5
 63
     7
421
 16777215
176
     1
 74
     1
176
     1
 91
        4
176
     1
 64
     7
176
     1
 65
   257
176
     1
 75
     1
176
     1
175
     1
176
     1
 42
1.0
176
     1
 92
        8
176
     1
 66
     7
176
     1
 43
1.0
176
     1
 76
     1
176
     1
 77
     6
176
     1
 78
     2
176
     1
 67
     7
176
     1
 79
     5
176
     1
170
     0
176
     1
171
     0
176
     1
290
     0
176
     1
 93
        1
176
     1
 44
0.0
176
     1
173
     0
176
     1
  0
VISUALSTYLE
  5
2B
102
{ACAD_REACTORS
330
2A
102
}
330
2A
100
AcDbVisualStyle
  2
Flat
 70
     0
177
     2
291
     1
 71
     2
176
     1
 72
     1
176
     1
 73
     1
176
     1
 90
        2
176
     1
 40
-0.6
176
     1
 41
30.0
176
     1
 62
     5
 63
     7
421
 16777215
176
     1
 74
     0
176
     1
 91
        4
176
     1
 64
     7
176
     1
 65
   257
176
     1
 75
     1
176
     1
175
     1
176
     1
 42
1.0
176
     1
 92
        8
176
     1
 66
     7
176
     1
 43
1.0
176
     1
 76
     1
176
     1
 77
     6
176
     1
 78
     2
176
     1
 67
     7
176
     1
 79
     5
176
     1
170
     0
176
     1
171
     0
176
     1
290
     0
176
     1
 93
       13
176
     1
 44
0.0
176
     1
173
     0
176
     1
  0
VISUALSTYLE
  5
2C
102
{ACAD_REACTORS
330
2A
102
}
330
2A
100
AcDbVisualStyle
  2
FlatWithEdges
 70
     1
177
     2
291
     1
 71
     2
176
     1
 72
     1
176
     1
 73
     1
176
     1
 90
        2
176
     1
 40
-0.6
176
     1
 41
30.0
176
     1
 62
     5
 63
     7
421
 16777215
176
     1
 74
     1
176
     1
 91
        4
176
     1
 64
     7
176
     1
 65
   257
176
     1
 75
     1
176
     1
175
     1
176
     1
 42
1.0
176
     1
 92
        0
176
     1
 66
   257
176
     1
 43
1.0
176
     1
 76
     1
176
     1
 77
     6
176
     1
 78
     2
176
     1
 67
     7
176
     1
 79
     5
176
     1
170
     0
176
     1
171
     0
176
     1
290
     0
176
     1
 93
       13
176
     1
 44
0.0
176
     1
173
     0
176
     1
  0
VISUALSTYLE
  5
2D
102
{ACAD_REACTORS
330
2A
102
}
330
2A
100
AcDbVisualStyle
  2
Gouraud
 70
     2
177
     2
291
     1
 71
     2
176
     1
 72
     2
176
     1
 73
     1
176
     1
 90
        2
176
     1
 40
-0.6
176
     1
 41
30.0
176
     1
 62
     5
 63
     7
421
 16777215
176
     1
 74
     0
176
     1
 91
        4
176
     1
 64
     7
176
     1
 65
   257
176
     1
 75
     1
176
     1
175
     1
176
     1
 42
1.0
176
     1
 92
        0
176
     1
 66
     7
176
     1
 43
1.0
176
     1
 76
     1
176
     1
 77
     6
176
     1
 78
     2
176
     1
 67
     7
176
     1
 79
     5
176
     1
170
     0
176
     1
171
     0
176
     1
290
     0
176
     1
 93
       13
176
     1
 44
0.0
176
     1
173
     0
176
     1
  0
VISUALSTYLE
  5
2E
102
{ACAD_REACTORS
330
2A
102
}
330
2A
100
AcDbVisualStyle
  2
GouraudWithEdges
 70
     3
177
     2
291
     1
 71
     2
176
     1
 72
     2
176
     1
 73
     1
176
     1
 90
        2
176
     1
 40
-0.6
176
     1
 41
30.0
176
     1
 62
     5
 63
     7
421
 16777215
176
     1
 74
     1
176
     1
 91
        4
176
     1
 64
     7
176
     1
 65
   257
176
     1
 75
     1
176
     1
175
     1
176
     1
 42
1.0
176
     1
 92
        0
176
     1
 66
   257
176
     1
 43
1.0
176
     1
 76
     1
176
     1
 77
     6
176
     1
 78
     2
176
     1
 67
     7
176
     1
 79
     5
176
     1
170
     0
176
     1
171
     0
176
     1
290
     0
176
     1
 93
       13
176
     1
 44
0.0
176
     1
173
     0
176
     1
  0
VISUALSTYLE
  5
38
102
{ACAD_REACTORS
330
2A
102
}
330
2A
100
AcDbVisualStyle
  2
Linepattern
 70
    14
177
     2
291
     1
 71
     2
176
     1
 72
     2
176
     1
 73
     0
176
     1
 90
        0
176
     1
 40
-0.6
176
     1
 41
-30.0
176
     1
 62
     5
 63
     7
421
 16777215
176
     1
 74
     1
176
     1
 91
        4
176
     1
 64
     7
176
     1
 65
   257
176
     1
 75
     7
176
     1
175
     7
176
     1
 42
1.0
176
     1
 92
        8
176
     1
 66
     7
176
     1
 43
1.0
176
     1
 76
     1
176
     1
 77
     6
176
     1
 78
     2
176
     1
 67
     7
176
     1
 79
     5
176
     1
170
     0
176
     1
171
     0
176
     1
290
     0
176
     1
 93
        1
176
     1
 44
0.0
176
     1
173
     0
176
     1
  0
VISUALSTYLE
  5
33
102
{ACAD_REACTORS
330
2A
102
}
330
2A
100
AcDbVisualStyle
  2
Realistic
 70
     8
177
     2
291
     0
 71
     2
176
     1
 72
     2
176
     1
 73
     0
176
     1
 90
        0
176
     1
 40
-0.6
176
     1
 41
-30.0
176
     1
 62
     5
 63
     7
421
 16777215
176
     1
 74
     1
176
     1
 91
        0
176
     1
 64
     7
176
     1
 65
   257
176
     1
 75
     1
176
     1
175
     1
176
     1
 42
1.0
176
     1
 92
        8
176
     1
 66
     8
424
  7895160
176
     1
 43
1.0
176
     1
 76
     1
176
     1
 77
     6
176
     1
 78
     2
176
     1
 67
     7
176
     1
 79
     5
176
     1
170
     0
176
     1
171
     0
176
     1
290
     0
176
     1
 93
       13
176
     1
 44
0.0
176
     1
173
     0
176
     1
  0
VISUALSTYLE
  5
37
102
{ACAD_REACTORS
330
2A
102
}
330
2A
100
AcDbVisualStyle
  2
Thicken
 70
    13
177
     2
291
     1
 71
     2
176
     1
 72
     2
176
     1
 73
     0
176
     1
 90
        0
176
     1
 40
-0.6
176
     1
 41
-30.0
176
     1
 62
     5
 63
     7
421
 16777215
176
     1
 74
     1
176
     1
 91
        4
176
     1
 64
     7
176
     1
 65
   257
176
     1
 75
     1
176
     1
175
     1
176
     1
 42
1.0
176
     1
 92
       12
176
     1
 66
     7
176
     1
 43
1.0
176
     1
 76
     1
176
     1
 77
     6
176
     1
 78
     2
176
     1
 67
     7
176
     1
 79
     5
176
     1
170
     0
176
     1
171
     0
176
     1
290
     0
176
     1
 93
        1
176
     1
 44
0.0
176
     1
173
     0
176
     1
  0
ENDSEC
  0
EOF
