  0
SECTION
  2
HEADER
  9
$ACADVER
  1
AC1024
  9
$ACADMAINTVER
 70
     6
  9
$DWGCODEPAGE
  3
UNDEFINED
  9
$INSBASE
 10
0.0
 20
0.0
 30
0.0
  9
$EXTMIN
 10
1.000000000000000E+20
 20
1.000000000000000E+20
 30
1.000000000000000E+20
  9
$EXTMAX
 10
-1.000000000000000E+20
 20
-1.000000000000000E+20
 30
-1.000000000000000E+20
  9
$LIMMIN
 10
0.0
 20
0.0
  9
$LIMMAX
 10
12.0
 20
9.0
  9
$ORTHOMODE
 70
     0
  9
$REGENMODE
 70
     1
  9
$FILLMODE
 70
     1
  9
$QTEXTMODE
 70
     0
  9
$MIRRTEXT
 70
     1
  9
$LTSCALE
 40
1.0
  9
$ATTMODE
 70
     1
  9
$TEXTSIZE
 40
0.2
  9
$TRACEWID
 40
0.05
  9
$TEXTSTYLE
  7
Standard
  9
$CLAYER
  8
0
  9
$CELTYPE
  6
ByLayer
  9
$CECOLOR
 62
   256
  9
$CELTSCALE
 40
1.0
  9
$DISPSILH
 70
     0
  9
$DIMSCALE
 40
1.0
  9
$DIMASZ
 40
0.18
  9
$DIMEXO
 40
0.0625
  9
$DIMDLI
 40
0.38
  9
$DIMRND
 40
0.0
  9
$DIMDLE
 40
0.0
  9
$DIMEXE
 40
0.18
  9
$DIMTP
 40
0.0
  9
$DIMTM
 40
0.0
  9
$DIMTXT
 40
0.18
  9
$DIMCEN
 40
0.09
  9
$DIMTSZ
 40
0.0
  9
$DIMTOL
 70
     0
  9
$DIMLIM
 70
     0
  9
$DIMTIH
 70
     1
  9
$DIMTOH
 70
     1
  9
$DIMSE1
 70
     0
  9
$DIMSE2
 70
     0
  9
$DIMTAD
 70
     0
  9
$DIMZIN
 70
     0
  9
$DIMBLK
  1

  9
$DIMASO
 70
     1
  9
$DIMSHO
 70
     1
  9
$DIMPOST
  1

  9
$DIMAPOST
  1

  9
$DIMALT
 70
     0
  9
$DIMALTD
 70
     2
  9
$DIMALTF
 40
25.4
  9
$DIMLFAC
 40
1.0
  9
$DIMTOFL
 70
     0
  9
$DIMTVP
 40
0.0
  9
$DIMTIX
 70
     0
  9
$DIMSOXD
 70
     0
  9
$DIMSAH
 70
     0
  9
$DIMBLK1
  1

  9
$DIMBLK2
  1

  9
$DIMSTYLE
  2
Standard
  9
$DIMCLRD
 70
     0
  9
$DIMCLRE
 70
     0
  9
$DIMCLRT
 70
     0
  9
$DIMTFAC
 40
1.0
  9
$DIMGAP
 40
0.09
  9
$DIMJUST
 70
     0
  9
$DIMSD1
 70
     0
  9
$DIMSD2
 70
     0
  9
$DIMTOLJ
 70
     1
  9
$DIMTZIN
 70
     0
  9
$DIMALTZ
 70
     0
  9
$DIMALTTZ
 70
     0
  9
$DIMUPT
 70
     0
  9
$DIMDEC
 70
     4
  9
$DIMTDEC
 70
     4
  9
$DIMALTU
 70
     2
  9
$DIMALTTD
 70
     2
  9
$DIMTXSTY
  7
Standard
  9
$DIMAUNIT
 70
     0
  9
$DIMADEC
 70
     0
  9
$DIMALTRND
 40
0.0
  9
$DIMAZIN
 70
     0
  9
$DIMDSEP
 70
    46
  9
$DIMATFIT
 70
     3
  9
$DIMFRAC
 70
     0
  9
$DIMLDRBLK
  1

  9
$DIMLUNIT
 70
     2
  9
$DIMLWD
 70
    -2
  9
$DIMLWE
 70
    -2
  9
$DIMTMOVE
 70
     0
  9
$DIMFXL
 40
1.0
  9
$DIMFXLON
 70
     0
  9
$DIMJOGANG
 40
0.7853981633974483
  9
$DIMTFILL
 70
     0
  9
$DIMTFILLCLR
 70
     0
  9
$DIMARCSYM
 70
     0
  9
$DIMLTYPE
  6

  9
$DIMLTEX1
  6

  9
$DIMLTEX2
  6

  9
$DIMTXTDIRECTION
 70
     0
  9
$LUNITS
 70
     2
  9
$LUPREC
 70
     4
  9
$SKETCHINC
 40
0.1
  9
$FILLETRAD
 40
0.5
  9
$AUNITS
 70
     0
  9
$AUPREC
 70
     0
  9
$MENU
  1
.
  9
$ELEVATION
 40
0.0
  9
$PELEVATION
 40
0.0
  9
$THICKNESS
 40
0.0
  9
$LIMCHECK
 70
     0
  9
$CHAMFERA
 40
0.5
  9
$CHAMFERB
 40
0.5
  9
$CHAMFERC
 40
1.0
  9
$CHAMFERD
 40
0.0
  9
$SKPOLY
 70
     0
  9
$TDCREATE
 40
2457917.583379618
  9
$TDUCREATE
 40
2457917.20837963
  9
$TDUPDATE
 40
2457917.583379618
  9
$TDUUPDATE
 40
2457917.20837963
  9
$TDINDWG
 40
0.0000000116
  9
$TDUSRTIMER
 40
0.0000000116
  9
$USRTIMER
 70
     1
  9
$ANGBASE
 50
0.0
  9
$ANGDIR
 70
     0
  9
$PDMODE
 70
     0
  9
$PDSIZE
 40
0.0
  9
$PLINEWID
 40
0.0
  9
$SPLFRAME
 70
     0
  9
$SPLINETYPE
 70
     6
  9
$SPLINESEGS
 70
     8
  9
$HANDSEED
  5
AC
  9
$SURFTAB1
 70
     6
  9
$SURFTAB2
 70
     6
  9
$SURFTYPE
 70
     6
  9
$SURFU
 70
     6
  9
$SURFV
 70
     6
  9
$UCSBASE
  2

  9
$UCSNAME
  2

  9
$UCSORG
 10
0.0
 20
0.0
 30
0.0
  9
$UCSXDIR
 10
1.0
 20
0.0
 30
0.0
  9
$UCSYDIR
 10
0.0
 20
1.0
 30
0.0
  9
$UCSORTHOREF
  2

  9
$UCSORTHOVIEW
 70
     0
  9
$UCSORGTOP
 10
0.0
 20
0.0
 30
0.0
  9
$UCSORGBOTTOM
 10
0.0
 20
0.0
 30
0.0
  9
$UCSORGLEFT
 10
0.0
 20
0.0
 30
0.0
  9
$UCSORGRIGHT
 10
0.0
 20
0.0
 30
0.0
  9
$UCSORGFRONT
 10
0.0
 20
0.0
 30
0.0
  9
$UCSORGBACK
 10
0.0
 20
0.0
 30
0.0
  9
$PUCSBASE
  2

  9
$PUCSNAME
  2

  9
$PUCSORG
 10
0.0
 20
0.0
 30
0.0
  9
$PUCSXDIR
 10
1.0
 20
0.0
 30
0.0
  9
$PUCSYDIR
 10
0.0
 20
1.0
 30
0.0
  9
$PUCSORTHOREF
  2

  9
$PUCSORTHOVIEW
 70
     0
  9
$PUCSORGTOP
 10
0.0
 20
0.0
 30
0.0
  9
$PUCSORGBOTTOM
 10
0.0
 20
0.0
 30
0.0
  9
$PUCSORGLEFT
 10
0.0
 20
0.0
 30
0.0
  9
$PUCSORGRIGHT
 10
0.0
 20
0.0
 30
0.0
  9
$PUCSORGFRONT
 10
0.0
 20
0.0
 30
0.0
  9
$PUCSORGBACK
 10
0.0
 20
0.0
 30
0.0
  9
$USERI1
 70
     0
  9
$USERI2
 70
     0
  9
$USERI3
 70
     0
  9
$USERI4
 70
     0
  9
$USERI5
 70
     0
  9
$USERR1
 40
0.0
  9
$USERR2
 40
0.0
  9
$USERR3
 40
0.0
  9
$USERR4
 40
0.0
  9
$USERR5
 40
0.0
  9
$WORLDVIEW
 70
     1
  9
$SHADEDGE
 70
     3
  9
$SHADEDIF
 70
    70
  9
$TILEMODE
 70
     1
  9
$MAXACTVP
 70
    64
  9
$PINSBASE
 10
0.0
 20
0.0
 30
0.0
  9
$PLIMCHECK
 70
     0
  9
$PEXTMIN
 10
1.000000000000000E+20
 20
1.000000000000000E+20
 30
1.000000000000000E+20
  9
$PEXTMAX
 10
-1.000000000000000E+20
 20
-1.000000000000000E+20
 30
-1.000000000000000E+20
  9
$PLIMMIN
 10
0.0
 20
0.0
  9
$PLIMMAX
 10
12.0
 20
9.0
  9
$UNITMODE
 70
     0
  9
$VISRETAIN
 70
     1
  9
$PLINEGEN
 70
     0
  9
$PSLTSCALE
 70
     1
  9
$TREEDEPTH
 70
  3020
  9
$CMLSTYLE
  2
Standard
  9
$CMLJUST
 70
     0
  9
$CMLSCALE
 40
1.0
  9
$PROXYGRAPHICS
 70
     1
  9
$MEASUREMENT
 70
     0
  9
$CELWEIGHT
370
    -1
  9
$ENDCAPS
280
     0
  9
$JOINSTYLE
280
     0
  9
$LWDISPLAY
290
     1
  9
$INSUNITS
 70
     1
  9
$HYPERLINKBASE
  1

  9
$STYLESHEET
  1

  9
$XEDIT
290
     1
  9
$CEPSNTYPE
380
     0
  9
$PSTYLEMODE
290
     1
  9
$FINGERPRINTGUID
  2
{3B0E0095-1B1C-B0FD-01AF-2ABDB69596D9}
  9
$VERSIONGUID
  2
{FAEB1C32-E019-11D5-929B-00C0DF256EC4}
  9
$EXTNAMES
290
     1
  9
$PSVPSCALE
 40
0.0
  9
$OLESTARTUP
290
     0
  9
$SORTENTS
280
   127
  9
$INDEXCTL
280
     0
  9
$HIDETEXT
280
     1
  9
$XCLIPFRAME
280
     2
  9
$HALOGAP
280
     0
  9
$OBSCOLOR
 70
   257
  9
$OBSLTYPE
280
     0
  9
$INTERSECTIONDISPLAY
280
     0
  9
$INTERSECTIONCOLOR
 70
   257
  9
$DIMASSOC
280
     2
  9
$PROJECTNAME
  1

  9
$CAMERADISPLAY
290
     0
  9
$LENSLENGTH
 40
50.0
  9
$CAMERAHEIGHT
 40
0.0
  9
$STEPSPERSEC
 40
2.0
  9
$STEPSIZE
 40
6.0
  9
$3DDWFPREC
 40
2.0
  9
$PSOLWIDTH
 40
0.25
  9
$PSOLHEIGHT
 40
4.0
  9
$LOFTANG1
 40
1.570796326794897
  9
$LOFTANG2
 40
1.570796326794897
  9
$LOFTMAG1
 40
0.0
  9
$LOFTMAG2
 40
0.0
  9
$LOFTPARAM
 70
     7
  9
$LOFTNORMALS
280
     1
  9
$LATITUDE
 40
37.795
  9
$LONGITUDE
 40
-122.394
  9
$NORTHDIRECTION
 40
0.0
  9
$TIMEZONE
 70
 -8000
  9
$LIGHTGLYPHDISPLAY
280
     1
  9
$TILEMODELIGHTSYNCH
280
     1
  9
$CMATERIAL
347
3C
  9
$SOLIDHIST
280
     1
  9
$SHOWHIST
280
     1
  9
$DWFFRAME
280
     2
  9
$DGNFRAME
280
     2
  9
$REALWORLDSCALE
290
     1
  9
$INTERFERECOLOR
 62
   256
  9
$CSHADOW
280
     0
  9
$SHADOWPLANELOCATION
 40
0.0
  0
ENDSEC
  0
SECTION
  2
CLASSES
  0
CLASS
  1
ACDBDICTIONARYWDFLT
  2
AcDbDictionaryWithDefault
  3
ObjectDBX Classes
 90
        0
 91
        4
280
     0
281
     0
  0
CLASS
  1
VISUALSTYLE
  2
AcDbVisualStyle
  3
ObjectDBX Classes
 90
     4095
 91
        4
280
     0
281
     0
  0
CLASS
  1
MATERIAL
  2
AcDbMaterial
  3
ObjectDBX Classes
 90
     1153
 91
        4
280
     0
281
     0
  0
CLASS
  1
SUN
  2
AcDbSun
  3
SCENEOE
 90
     1024
 91
        4
280
     0
281
     0
  0
ENDSEC
  0
SECTION
  2
TABLES
  0
TABLE
  2
VPORT
  5
8
330
0
100
AcDbSymbolTable
 70
     1
  0
VPORT
  5
29
330
8
100
AcDbSymbolTableRecord
100
AcDbViewportTableRecord
  2
*Active
 70
     0
 10
0.0
 20
0.0
 11
1.0
 21
1.0
 12
0.0
 22
0.0
 13
0.0
 23
0.0
 14
0.5
 24
0.5
 15
0.5
 25
0.5
 16
0.0
 26
0.0
 36
1.0
 17
91.00082462281999
 27
-128.4993055234307
 37
0.0
 40
256.9986110468615
 41
0.7081814508812795
 42
50.0
 43
0.0
 44
0.0
 50
0.0
 51
0.0
 71
     0
 72
   100
 73
     1
 74
     3
 75
     0
 76
     0
 77
     0
 78
     0
281
     0
 65
     1
110
0.0
120
0.0
130
0.0
111
1.0
121
0.0
131
0.0
112
0.0
122
1.0
132
0.0
 79
     0
146
0.0
 60
     3
 61
     5
292
     1
282
     1
141
0.0
142
0.0
 63
   250
361
3F
  0
ENDTAB
  0
TABLE
  2
LTYPE
  5
5
330
0
100
AcDbSymbolTable
 70
     1
  0
LTYPE
  5
14
330
5
100
AcDbSymbolTableRecord
100
AcDbLinetypeTableRecord
  2
ByBlock
 70
     0
  3

 72
    65
 73
     0
 40
0.0
  0
LTYPE
  5
15
330
5
100
AcDbSymbolTableRecord
100
AcDbLinetypeTableRecord
  2
ByLayer
 70
     0
  3

 72
    65
 73
     0
 40
0.0
  0
LTYPE
  5
16
330
5
100
AcDbSymbolTableRecord
100
AcDbLinetypeTableRecord
  2
Continuous
 70
     0
  3
Solid line
 72
    65
 73
     0
 40
0.0
  0
ENDTAB
  0
TABLE
  2
LAYER
  5
2
330
0
100
AcDbSymbolTable
 70
     2
  0
LAYER
  5
10
330
2
100
AcDbSymbolTableRecord
100
AcDbLayerTableRecord
  2
0
 70
     0
 62
     7
  6
Continuous
370
    -3
390
F
347
3E
  0
LAYER
  5
40
330
2
100
AcDbSymbolTableRecord
100
AcDbLayerTableRecord
  2
_U+30EC_U+30A4_U+30E4_U+30FC 1
 70
     0
 62
     7
  6
Continuous
370
    -3
390
F
347
3E
  0
ENDTAB
  0
TABLE
  2
STYLE
  5
3
330
0
100
AcDbSymbolTable
 70
     1
  0
STYLE
  5
11
330
3
100
AcDbSymbolTableRecord
100
AcDbTextStyleTableRecord
  2
Standard
 70
     0
 40
0.0
 41
1.0
 50
0.0
 71
     0
 42
0.2
  3
txt
  4

  0
ENDTAB
  0
TABLE
  2
VIEW
  5
6
330
0
100
AcDbSymbolTable
 70
     0
  0
ENDTAB
  0
TABLE
  2
UCS
  5
7
330
0
100
AcDbSymbolTable
 70
     0
  0
ENDTAB
  0
TABLE
  2
APPID
  5
9
330
0
100
AcDbSymbolTable
 70
     1
  0
APPID
  5
12
330
9
100
AcDbSymbolTableRecord
100
AcDbRegAppTableRecord
  2
ACAD
 70
     0
  0
ENDTAB
  0
TABLE
  2
DIMSTYLE
  5
A
330
0
100
AcDbSymbolTable
 70
     1
100
AcDbDimStyleTable
  0
DIMSTYLE
105
27
330
A
100
AcDbSymbolTableRecord
100
AcDbDimStyleTableRecord
  2
Standard
 70
     0
178
     0
340
11
  0
ENDTAB
  0
TABLE
  2
BLOCK_RECORD
  5
1
330
0
100
AcDbSymbolTable
 70
     7
  0
BLOCK_RECORD
  5
1F
330
1
100
AcDbSymbolTableRecord
100
AcDbBlockTableRecord
  2
*Model_Space
340
22
 70
     0
280
     1
281
     0
  0
BLOCK_RECORD
  5
1B
330
1
100
AcDbSymbolTableRecord
100
AcDbBlockTableRecord
  2
*Paper_Space
340
1E
 70
     0
280
     1
281
     0
  0
BLOCK_RECORD
  5
23
330
1
100
AcDbSymbolTableRecord
100
AcDbBlockTableRecord
  2
*Paper_Space0
340
26
 70
     0
280
     1
281
     0
  0
BLOCK_RECORD
  5
41
330
1
100
AcDbSymbolTableRecord
100
AcDbBlockTableRecord
  2
block 2
340
0
102
{BLKREFS
331
42
102
}
 70
     0
280
     1
281
     0
  0
BLOCK_RECORD
  5
54
330
1
100
AcDbSymbolTableRecord
100
AcDbBlockTableRecord
  2
block 3
340
0
102
{BLKREFS
331
55
102
}
 70
     0
280
     1
281
     0
  0
BLOCK_RECORD
  5
80
330
1
100
AcDbSymbolTableRecord
100
AcDbBlockTableRecord
  2
block 4
340
0
102
{BLKREFS
331
81
102
}
 70
     0
280
     1
281
     0
  0
BLOCK_RECORD
  5
89
330
1
100
AcDbSymbolTableRecord
100
AcDbBlockTableRecord
  2
block 5
340
0
102
{BLKREFS
331
8A
102
}
 70
     0
280
     1
281
     0
  0
BLOCK_RECORD
  5
93
330
1
100
AcDbSymbolTableRecord
100
AcDbBlockTableRecord
  2
block 6
340
0
102
{BLKREFS
331
94
102
}
 70
     0
280
     1
281
     0
  0
BLOCK_RECORD
  5
A4
330
1
100
AcDbSymbolTableRecord
100
AcDbBlockTableRecord
  2
block 7
340
0
102
{BLKREFS
331
A5
102
}
 70
     0
280
     1
281
     0
  0
ENDTAB
  0
ENDSEC
  0
SECTION
  2
BLOCKS
  0
BLOCK
  5
20
330
1F
100
AcDbEntity
  8
0
100
AcDbBlockBegin
  2
*Model_Space
 70
     0
 10
0.0
 20
0.0
 30
0.0
  3
*Model_Space
  1

  0
ENDBLK
  5
21
330
1F
100
AcDbEntity
  8
0
100
AcDbBlockEnd
  0
BLOCK
  5
1C
330
1B
100
AcDbEntity
 67
     1
  8
0
100
AcDbBlockBegin
  2
*Paper_Space
 70
     0
 10
0.0
 20
0.0
 30
0.0
  3
*Paper_Space
  1

  0
ENDBLK
  5
1D
330
1B
100
AcDbEntity
 67
     1
  8
0
100
AcDbBlockEnd
  0
BLOCK
  5
24
330
23
100
AcDbEntity
  8
0
100
AcDbBlockBegin
  2
*Paper_Space0
 70
     0
 10
0.0
 20
0.0
 30
0.0
  3
*Paper_Space0
  1

  0
ENDBLK
  5
25
330
23
100
AcDbEntity
  8
0
100
AcDbBlockEnd
  0
BLOCK
  5
43
330
41
100
AcDbEntity
  8
0
100
AcDbBlockBegin
  2
block 2
 70
     0
 10
0.0
 20
0.0
 30
0.0
  3
block 2
  1

  0
POLYLINE
  5
45
330
41
100
AcDbEntity
  8
_U+30EC_U+30A4_U+30E4_U+30FC 1
 62
     7
420
 16777215
370
     9
100
AcDb2dPolyline
 66
     1
 10
0.0
 20
0.0
 30
0.0
  0
VERTEX
  5
46
330
45
100
AcDbEntity
  8
_U+30EC_U+30A4_U+30E4_U+30FC 1
 62
     7
420
 16777215
370
     9
100
AcDbVertex
100
AcDb2dVertex
 10
70.82581680419399
 20
-147.4924730186827
 30
0.0
  0
VERTEX
  5
47
330
45
100
AcDbEntity
  8
_U+30EC_U+30A4_U+30E4_U+30FC 1
 62
     7
420
 16777215
370
     9
100
AcDbVertex
100
AcDb2dVertex
 10
74.0490414441849
 20
-144.2743988528204
 30
0.0
  0
SEQEND
  5
48
330
45
100
AcDbEntity
  8
_U+30EC_U+30A4_U+30E4_U+30FC 1
 62
     7
420
 16777215
370
     9
  0
POLYLINE
  5
49
330
41
100
AcDbEntity
  8
_U+30EC_U+30A4_U+30E4_U+30FC 1
 62
     7
420
 16777215
370
     9
100
AcDb2dPolyline
 66
     1
 10
0.0
 20
0.0
 30
0.0
  0
VERTEX
  5
4A
330
49
100
AcDbEntity
  8
_U+30EC_U+30A4_U+30E4_U+30FC 1
 62
     7
420
 16777215
370
     9
100
AcDbVertex
100
AcDb2dVertex
 10
73.00983053730322
 20
-144.8745444082257
 30
0.0
  0
VERTEX
  5
4B
330
49
100
AcDbEntity
  8
_U+30EC_U+30A4_U+30E4_U+30FC 1
 62
     7
420
 16777215
370
     9
100
AcDbVertex
100
AcDb2dVertex
 10
74.0490414441849
 20
-144.2743988528204
 30
0.0
  0
SEQEND
  5
4C
330
49
100
AcDbEntity
  8
_U+30EC_U+30A4_U+30E4_U+30FC 1
 62
     7
420
 16777215
370
     9
  0
POLYLINE
  5
4D
330
41
100
AcDbEntity
  8
_U+30EC_U+30A4_U+30E4_U+30FC 1
 62
     7
420
 16777215
370
     9
100
AcDb2dPolyline
 66
     1
 10
0.0
 20
0.0
 30
0.0
  0
VERTEX
  5
4E
330
4D
100
AcDbEntity
  8
_U+30EC_U+30A4_U+30E4_U+30FC 1
 62
     7
420
 16777215
370
     9
100
AcDbVertex
100
AcDb2dVertex
 10
73.44907229282472
 20
-145.313788019227
 30
0.0
  0
VERTEX
  5
4F
330
4D
100
AcDbEntity
  8
_U+30EC_U+30A4_U+30E4_U+30FC 1
 62
     7
420
 16777215
370
     9
100
AcDbVertex
100
AcDb2dVertex
 10
74.0490414441849
 20
-144.2743988528204
 30
0.0
  0
SEQEND
  5
50
330
4D
100
AcDbEntity
  8
_U+30EC_U+30A4_U+30E4_U+30FC 1
 62
     7
420
 16777215
370
     9
  0
SPLINE
  5
51
330
41
100
AcDbEntity
  8
_U+30EC_U+30A4_U+30E4_U+30FC 1
 62
     7
420
 16777215
370
     9
100
AcDbSpline
210
0.0
220
0.0
230
1.0
 70
    11
 71
     3
 72
    17
 73
    13
 74
     0
 42
0.0000000001
 43
0.0000000001
 12
1.0
 22
0.0
 32
0.0
 13
1.0
 23
0.0
 33
0.0
 40
0.0
 40
0.0
 40
0.0
 40
0.0
 40
1.0
 40
1.0
 40
1.0
 40
2.0
 40
2.0
 40
2.0
 40
3.0
 40
3.0
 40
3.0
 40
4.0
 40
4.0
 40
4.0
 40
4.0
 10
117.2686249706832
 20
-138.5100805209282
 30
0.0
 10
117.2686249706832
 20
-138.4549413542751
 30
0.0
 10
117.2238545093703
 20
-138.4101738542865
 30
0.0
 10
117.1687153441104
 20
-138.4101738542865
 30
0.0
 10
117.1136114566273
 20
-138.4101738542865
 30
0.0
 10
117.0688086799925
 20
-138.4549413542751
 30
0.0
 10
117.0688086799925
 20
-138.5100805209282
 30
0.0
 10
117.0688086799925
 20
-138.5651844098031
 30
0.0
 10
117.1136114566273
 20
-138.6099871875698
 30
0.0
 10
117.1687153441104
 20
-138.6099871875698
 30
0.0
 10
117.2238545093703
 20
-138.6099871875698
 30
0.0
 10
117.2686249706832
 20
-138.5651844098031
 30
0.0
 10
117.2686249706832
 20
-138.5100805209282
 30
0.0
  0
SPLINE
  5
52
330
41
100
AcDbEntity
  8
_U+30EC_U+30A4_U+30E4_U+30FC 1
 62
     7
420
 16777215
370
     9
100
AcDbSpline
210
0.0
220
0.0
230
1.0
 70
    11
 71
     3
 72
    17
 73
    13
 74
     0
 42
0.0000000001
 43
0.0000000001
 12
1.0
 22
0.0
 32
0.0
 13
1.0
 23
0.0
 33
0.0
 40
0.0
 40
0.0
 40
0.0
 40
0.0
 40
1.0
 40
1.0
 40
1.0
 40
2.0
 40
2.0
 40
2.0
 40
3.0
 40
3.0
 40
3.0
 40
4.0
 40
4.0
 40
4.0
 40
4.0
 10
117.2686249706832
 20
-137.5099555211779
 30
0.0
 10
117.2686249706832
 20
-137.4548163545254
 30
0.0
 10
117.2238545093703
 20
-137.4100488545363
 30
0.0
 10
117.1687153441104
 20
-137.4100488545363
 30
0.0
 10
117.1136114566273
 20
-137.4100488545363
 30
0.0
 10
117.0688086799925
 20
-137.4548163545254
 30
0.0
 10
117.0688086799925
 20
-137.5099555211779
 30
0.0
 10
117.0688086799925
 20
-137.5650594100534
 30
0.0
 10
117.1136114566273
 20
-137.6098621878195
 30
0.0
 10
117.1687153441104
 20
-137.6098621878195
 30
0.0
 10
117.2238545093703
 20
-137.6098621878195
 30
0.0
 10
117.2686249706832
 20
-137.5650594100534
 30
0.0
 10
117.2686249706832
 20
-137.5099555211779
 30
0.0
  0
SPLINE
  5
53
330
41
100
AcDbEntity
  8
_U+30EC_U+30A4_U+30E4_U+30FC 1
 62
     7
420
 16777215
370
     9
100
AcDbSpline
210
0.0
220
0.0
230
1.0
 70
    11
 71
     3
 72
    17
 73
    13
 74
     0
 42
0.0000000001
 43
0.0000000001
 12
1.0
 22
0.0
 32
0.0
 13
1.0
 23
0.0
 33
0.0
 40
0.0
 40
0.0
 40
0.0
 40
0.0
 40
1.0
 40
1.0
 40
1.0
 40
2.0
 40
2.0
 40
2.0
 40
3.0
 40
3.0
 40
3.0
 40
4.0
 40
4.0
 40
4.0
 40
4.0
 10
117.2686249706832
 20
-145.0099405193028
 30
0.0
 10
117.2686249706832
 20
-144.9548013526504
 30
0.0
 10
117.2238545093703
 20
-144.9100338526612
 30
0.0
 10
117.1687153441104
 20
-144.9100338526612
 30
0.0
 10
117.1136114566273
 20
-144.9100338526612
 30
0.0
 10
117.0688086799925
 20
-144.9548013526504
 30
0.0
 10
117.0688086799925
 20
-145.0099405193028
 30
0.0
 10
117.0688086799925
 20
-145.0650444081784
 30
0.0
 10
117.1136114566273
 20
-145.1098471859445
 30
0.0
 10
117.1687153441104
 20
-145.1098471859445
 30
0.0
 10
117.2238545093703
 20
-145.1098471859445
 30
0.0
 10
117.2686249706832
 20
-145.0650444081784
 30
0.0
 10
117.2686249706832
 20
-145.0099405193028
 30
0.0
  0
INSERT
  5
55
330
41
100
AcDbEntity
  8
_U+30EC_U+30A4_U+30E4_U+30FC 1
100
AcDbBlockReference
  2
block 3
 10
0.0
 20
0.0
 30
0.0
  0
POLYLINE
  5
5D
330
41
100
AcDbEntity
  8
_U+30EC_U+30A4_U+30E4_U+30FC 1
 62
     7
420
 16777215
370
     9
100
AcDb2dPolyline
 66
     1
 10
0.0
 20
0.0
 30
0.0
  0
VERTEX
  5
5E
330
5D
100
AcDbEntity
  8
_U+30EC_U+30A4_U+30E4_U+30FC 1
 62
     7
420
 16777215
370
     9
100
AcDbVertex
100
AcDb2dVertex
 10
115.7087092702471
 20
-138.5100805209282
 30
0.0
  0
VERTEX
  5
5F
330
5D
100
AcDbEntity
  8
_U+30EC_U+30A4_U+30E4_U+30FC 1
 62
     7
420
 16777215
370
     9
100
AcDbVertex
100
AcDb2dVertex
 10
118.1684875408263
 20
-138.5100805209282
 30
0.0
  0
SEQEND
  5
60
330
5D
100
AcDbEntity
  8
_U+30EC_U+30A4_U+30E4_U+30FC 1
 62
     7
420
 16777215
370
     9
  0
POLYLINE
  5
61
330
41
100
AcDbEntity
  8
_U+30EC_U+30A4_U+30E4_U+30FC 1
 62
     7
420
 16777215
370
     9
100
AcDb2dPolyline
 66
     1
 10
0.0
 20
0.0
 30
0.0
  0
VERTEX
  5
62
330
61
100
AcDbEntity
  8
_U+30EC_U+30A4_U+30E4_U+30FC 1
 62
     7
420
 16777215
370
     9
100
AcDbVertex
100
AcDb2dVertex
 10
115.7087092702471
 20
-137.5099555211779
 30
0.0
  0
VERTEX
  5
63
330
61
100
AcDbEntity
  8
_U+30EC_U+30A4_U+30E4_U+30FC 1
 62
     7
420
 16777215
370
     9
100
AcDbVertex
100
AcDb2dVertex
 10
118.1684875408263
 20
-137.5099555211779
 30
0.0
  0
SEQEND
  5
64
330
61
100
AcDbEntity
  8
_U+30EC_U+30A4_U+30E4_U+30FC 1
 62
     7
420
 16777215
370
     9
  0
POLYLINE
  5
65
330
41
100
AcDbEntity
  8
_U+30EC_U+30A4_U+30E4_U+30FC 1
 62
     7
420
 16777215
370
     9
100
AcDb2dPolyline
 66
     1
 10
0.0
 20
0.0
 30
0.0
  0
VERTEX
  5
66
330
65
100
AcDbEntity
  8
_U+30EC_U+30A4_U+30E4_U+30FC 1
 62
     7
420
 16777215
370
     9
100
AcDbVertex
100
AcDb2dVertex
 10
117.1687153441104
 20
-134.7390624663152
 30
0.0
  0
VERTEX
  5
67
330
65
100
AcDbEntity
  8
_U+30EC_U+30A4_U+30E4_U+30FC 1
 62
     7
420
 16777215
370
     9
100
AcDbVertex
100
AcDb2dVertex
 10
117.1687153441104
 20
-145.0099405193028
 30
0.0
  0
SEQEND
  5
68
330
65
100
AcDbEntity
  8
_U+30EC_U+30A4_U+30E4_U+30FC 1
 62
     7
420
 16777215
370
     9
  0
POLYLINE
  5
69
330
41
100
AcDbEntity
  8
_U+30EC_U+30A4_U+30E4_U+30FC 1
 62
     7
420
 16777215
370
     9
100
AcDb2dPolyline
 66
     1
 10
0.0
 20
0.0
 30
0.0
  0
VERTEX
  5
6A
330
69
100
AcDbEntity
  8
_U+30EC_U+30A4_U+30E4_U+30FC 1
 62
     7
420
 16777215
370
     9
100
AcDbVertex
100
AcDb2dVertex
 10
95.70786783606665
 20
-145.0099405193028
 30
0.0
  0
VERTEX
  5
6B
330
69
100
AcDbEntity
  8
_U+30EC_U+30A4_U+30E4_U+30FC 1
 62
     7
420
 16777215
370
     9
100
AcDbVertex
100
AcDb2dVertex
 10
118.1684875408263
 20
-145.0099405193028
 30
0.0
  0
SEQEND
  5
6C
330
69
100
AcDbEntity
  8
_U+30EC_U+30A4_U+30E4_U+30FC 1
 62
     7
420
 16777215
370
     9
  0
SPLINE
  5
6D
330
41
100
AcDbEntity
  8
_U+30EC_U+30A4_U+30E4_U+30FC 1
 62
     7
420
 16777215
370
     9
100
AcDbSpline
210
0.0
220
0.0
230
1.0
 70
    11
 71
     3
 72
    17
 73
    13
 74
     0
 42
0.0000000001
 43
0.0000000001
 12
1.0
 22
0.0
 32
0.0
 13
1.0
 23
0.0
 33
0.0
 40
0.0
 40
0.0
 40
0.0
 40
0.0
 40
1.0
 40
1.0
 40
1.0
 40
2.0
 40
2.0
 40
2.0
 40
3.0
 40
3.0
 40
3.0
 40
4.0
 40
4.0
 40
4.0
 40
4.0
 10
68.42078964332912
 20
-145.1105174637225
 30
0.0
 10
68.47593053843642
 20
-145.1105174637225
 30
0.0
 10
68.52069630744695
 20
-145.0657499637333
 30
0.0
 10
68.52069630744695
 20
-145.0099405193028
 30
0.0
 10
68.52069630744695
 20
-144.9548013526504
 30
0.0
 10
68.47593053843642
 20
-144.9100338526612
 30
0.0
 10
68.42078964332912
 20
-144.9100338526612
 30
0.0
 10
68.36568575584604
 20
-144.9100338526612
 30
0.0
 10
68.32088297921129
 20
-144.9548013526504
 30
0.0
 10
68.32088297921129
 20
-145.0099405193028
 30
0.0
 10
68.32088297921129
 20
-145.0657499637333
 30
0.0
 10
68.36568575584604
 20
-145.1105174637225
 30
0.0
 10
68.42078964332912
 20
-145.1105174637225
 30
0.0
  0
SPLINE
  5
6E
330
41
100
AcDbEntity
  8
_U+30EC_U+30A4_U+30E4_U+30FC 1
 62
     7
420
 16777215
370
     9
100
AcDbSpline
210
0.0
220
0.0
230
1.0
 70
    11
 71
     3
 72
    17
 73
    13
 74
     0
 42
0.0000000001
 43
0.0000000001
 12
1.0
 22
0.0
 32
0.0
 13
1.0
 23
0.0
 33
0.0
 40
0.0
 40
0.0
 40
0.0
 40
0.0
 40
1.0
 40
1.0
 40
1.0
 40
2.0
 40
2.0
 40
2.0
 40
3.0
 40
3.0
 40
3.0
 40
4.0
 40
4.0
 40
4.0
 40
4.0
 10
68.42078964332912
 20
-125.1089699687229
 30
0.0
 10
68.47593053843642
 20
-125.1089699687229
 30
0.0
 10
68.52069630744695
 20
-125.064202468734
 30
0.0
 10
68.52069630744695
 20
-125.009063302081
 30
0.0
 10
68.52069630744695
 20
-124.953959413206
 30
0.0
 10
68.47593053843642
 20
-124.9091566354393
 30
0.0
 10
68.42078964332912
 20
-124.9091566354393
 30
0.0
 10
68.36568575584604
 20
-124.9091566354393
 30
0.0
 10
68.32088297921129
 20
-124.953959413206
 30
0.0
 10
68.32088297921129
 20
-125.009063302081
 30
0.0
 10
68.32088297921129
 20
-125.064202468734
 30
0.0
 10
68.36568575584604
 20
-125.1089699687229
 30
0.0
 10
68.42078964332912
 20
-125.1089699687229
 30
0.0
  0
SPLINE
  5
6F
330
41
100
AcDbEntity
  8
_U+30EC_U+30A4_U+30E4_U+30FC 1
 62
     7
420
 16777215
370
     9
100
AcDbSpline
210
0.0
220
0.0
230
1.0
 70
    11
 71
     3
 72
    17
 73
    13
 74
     0
 42
0.0000000001
 43
0.0000000001
 12
1.0
 22
0.0
 32
0.0
 13
1.0
 23
0.0
 33
0.0
 40
0.0
 40
0.0
 40
0.0
 40
0.0
 40
1.0
 40
1.0
 40
1.0
 40
2.0
 40
2.0
 40
2.0
 40
3.0
 40
3.0
 40
3.0
 40
4.0
 40
4.0
 40
4.0
 40
4.0
 10
68.42078964332912
 20
-105.1095038626114
 30
0.0
 10
68.47593053843642
 20
-105.1095038626114
 30
0.0
 10
68.52069630744695
 20
-105.0647363626226
 30
0.0
 10
68.52069630744695
 20
-105.0095971959698
 30
0.0
 10
68.52069630744695
 20
-104.9544933070946
 30
0.0
 10
68.47593053843642
 20
-104.9096905293282
 30
0.0
 10
68.42078964332912
 20
-104.9096905293282
 30
0.0
 10
68.36568575584604
 20
-104.9096905293282
 30
0.0
 10
68.32088297921129
 20
-104.9544933070946
 30
0.0
 10
68.32088297921129
 20
-105.0095971959698
 30
0.0
 10
68.32088297921129
 20
-105.0647363626226
 30
0.0
 10
68.36568575584604
 20
-105.1095038626114
 30
0.0
 10
68.42078964332912
 20
-105.1095038626114
 30
0.0
  0
POLYLINE
  5
70
330
41
100
AcDbEntity
  8
_U+30EC_U+30A4_U+30E4_U+30FC 1
 62
     7
420
 16777215
370
     9
100
AcDb2dPolyline
 66
     1
 10
0.0
 20
0.0
 30
0.0
  0
VERTEX
  5
71
330
70
100
AcDbEntity
  8
_U+30EC_U+30A4_U+30E4_U+30FC 1
 62
     7
420
 16777215
370
     9
100
AcDbVertex
100
AcDb2dVertex
 10
68.42078964332912
 20
-105.0095971959698
 30
0.0
  0
VERTEX
  5
72
330
70
100
AcDbEntity
  8
_U+30EC_U+30A4_U+30E4_U+30FC 1
 62
     7
420
 16777215
370
     9
100
AcDbVertex
100
AcDb2dVertex
 10
68.42078964332912
 20
-145.0099405193028
 30
0.0
  0
SEQEND
  5
73
330
70
100
AcDbEntity
  8
_U+30EC_U+30A4_U+30E4_U+30FC 1
 62
     7
420
 16777215
370
     9
  0
POLYLINE
  5
74
330
41
100
AcDbEntity
  8
_U+30EC_U+30A4_U+30E4_U+30FC 1
 62
     7
420
 16777215
370
     9
100
AcDb2dPolyline
 66
     1
 10
0.0
 20
0.0
 30
0.0
  0
VERTEX
  5
75
330
74
100
AcDbEntity
  8
_U+30EC_U+30A4_U+30E4_U+30FC 1
 62
     7
420
 16777215
370
     9
100
AcDbVertex
100
AcDb2dVertex
 10
70.66837208598852
 20
-125.009063302081
 30
0.0
  0
VERTEX
  5
76
330
74
100
AcDbEntity
  8
_U+30EC_U+30A4_U+30E4_U+30FC 1
 62
     7
420
 16777215
370
     9
100
AcDbVertex
100
AcDb2dVertex
 10
67.42034716885253
 20
-125.009063302081
 30
0.0
  0
SEQEND
  5
77
330
74
100
AcDbEntity
  8
_U+30EC_U+30A4_U+30E4_U+30FC 1
 62
     7
420
 16777215
370
     9
  0
POLYLINE
  5
78
330
41
100
AcDbEntity
  8
_U+30EC_U+30A4_U+30E4_U+30FC 1
 62
     7
420
 16777215
370
     9
100
AcDb2dPolyline
 66
     1
 10
0.0
 20
0.0
 30
0.0
  0
VERTEX
  5
79
330
78
100
AcDbEntity
  8
_U+30EC_U+30A4_U+30E4_U+30FC 1
 62
     7
420
 16777215
370
     9
100
AcDbVertex
100
AcDb2dVertex
 10
70.66837208598852
 20
-145.0099405193028
 30
0.0
  0
VERTEX
  5
7A
330
78
100
AcDbEntity
  8
_U+30EC_U+30A4_U+30E4_U+30FC 1
 62
     7
420
 16777215
370
     9
100
AcDbVertex
100
AcDb2dVertex
 10
67.42034716885253
 20
-145.0099405193028
 30
0.0
  0
SEQEND
  5
7B
330
78
100
AcDbEntity
  8
_U+30EC_U+30A4_U+30E4_U+30FC 1
 62
     7
420
 16777215
370
     9
  0
POLYLINE
  5
7C
330
41
100
AcDbEntity
  8
_U+30EC_U+30A4_U+30E4_U+30FC 1
 62
     7
420
 16777215
370
     9
100
AcDb2dPolyline
 66
     1
 10
0.0
 20
0.0
 30
0.0
  0
VERTEX
  5
7D
330
7C
100
AcDbEntity
  8
_U+30EC_U+30A4_U+30E4_U+30FC 1
 62
     7
420
 16777215
370
     9
100
AcDbVertex
100
AcDb2dVertex
 10
80.66845766419841
 20
-105.0095971959698
 30
0.0
  0
VERTEX
  5
7E
330
7C
100
AcDbEntity
  8
_U+30EC_U+30A4_U+30E4_U+30FC 1
 62
     7
420
 16777215
370
     9
100
AcDbVertex
100
AcDb2dVertex
 10
67.42034716885253
 20
-105.0095971959698
 30
0.0
  0
SEQEND
  5
7F
330
7C
100
AcDbEntity
  8
_U+30EC_U+30A4_U+30E4_U+30FC 1
 62
     7
420
 16777215
370
     9
  0
INSERT
  5
81
330
41
100
AcDbEntity
  8
_U+30EC_U+30A4_U+30E4_U+30FC 1
100
AcDbBlockReference
  2
block 4
 10
0.0
 20
0.0
 30
0.0
  0
INSERT
  5
8A
330
41
100
AcDbEntity
  8
_U+30EC_U+30A4_U+30E4_U+30FC 1
100
AcDbBlockReference
  2
block 5
 10
0.0
 20
0.0
 30
0.0
  0
SPLINE
  5
92
330
41
100
AcDbEntity
  8
_U+30EC_U+30A4_U+30E4_U+30FC 1
 62
     7
420
 16777215
370
    25
100
AcDbSpline
210
0.0
220
0.0
230
1.0
 70
    11
 71
     3
 72
    53
 73
    49
 74
     0
 42
0.0000000001
 43
0.0000000001
 12
1.0
 22
0.0
 32
0.0
 13
1.0
 23
0.0
 33
0.0
 40
0.0
 40
0.0
 40
0.0
 40
0.0
 40
1.0
 40
1.0
 40
1.0
 40
2.0
 40
2.0
 40
2.0
 40
3.0
 40
3.0
 40
3.0
 40
4.0
 40
4.0
 40
4.0
 40
5.0
 40
5.0
 40
5.0
 40
6.0
 40
6.0
 40
6.0
 40
7.0
 40
7.0
 40
7.0
 40
8.0
 40
8.0
 40
8.0
 40
9.0
 40
9.0
 40
9.0
 40
10.0
 40
10.0
 40
10.0
 40
11.0
 40
11.0
 40
11.0
 40
12.0
 40
12.0
 40
12.0
 40
13.0
 40
13.0
 40
13.0
 40
14.0
 40
14.0
 40
14.0
 40
15.0
 40
15.0
 40
15.0
 40
16.0
 40
16.0
 40
16.0
 40
16.0
 10
93.1681148453056
 20
-145.0099405193028
 30
0.0
 10
93.1681148453056
 20
-145.0099405193028
 30
0.0
 10
76.16796583457108
 20
-145.0099405193028
 30
0.0
 10
76.16796583457108
 20
-145.0099405193028
 30
0.0
 10
74.5179183766673
 20
-145.0099405193028
 30
0.0
 10
73.16797896666267
 20
-143.6597894085293
 30
0.0
 10
73.16797896666267
 20
-142.0099535756085
 30
0.0
 10
73.16797896666267
 20
-142.0099535756085
 30
0.0
 10
73.16797896666267
 20
-125.0097688576365
 30
0.0
 10
73.16797896666267
 20
-125.0097688576365
 30
0.0
 10
73.16797896666267
 20
-125.0097688576365
 30
0.0
 10
79.66783880083743
 20
-126.1631758017927
 30
0.0
 10
79.66783880083743
 20
-126.1631758017927
 30
0.0
 10
79.66783880083743
 20
-126.1631758017927
 30
0.0
 10
79.66783880083743
 20
-105.0095971959698
 30
0.0
 10
79.66783880083743
 20
-105.0095971959698
 30
0.0
 10
79.66783880083743
 20
-105.0095971959698
 30
0.0
 10
80.66778738643774
 20
-105.0095971959698
 30
0.0
 10
80.66778738643774
 20
-105.0095971959698
 30
0.0
 10
80.66778738643774
 20
-105.0095971959698
 30
0.0
 10
80.66778738643774
 20
-127.2738966348481
 30
0.0
 10
80.66778738643774
 20
-127.2738966348481
 30
0.0
 10
80.66778738643774
 20
-127.2738966348481
 30
0.0
 10
74.20063005142866
 20
-126.1239116351357
 30
0.0
 10
74.20063005142866
 20
-126.1239116351357
 30
0.0
 10
74.20063005142866
 20
-126.1239116351357
 30
0.0
 10
74.20063005142866
 20
-141.9768630200616
 30
0.0
 10
74.20063005142866
 20
-141.9768630200616
 30
0.0
 10
74.20063005142866
 20
-143.0772121864532
 30
0.0
 10
75.10067197291113
 20
-143.9770777417834
 30
0.0
 10
76.20070553650552
 20
-143.9770777417834
 30
0.0
 10
76.20070553650552
 20
-143.9770777417834
 30
0.0
 10
92.05397209595196
 20
-143.9770777417834
 30
0.0
 10
92.05397209595196
 20
-143.9770777417834
 30
0.0
 10
92.05397209595196
 20
-143.9770777417834
 30
0.0
 10
91.00011906728244
 20
-137.5099555211779
 30
0.0
 10
91.00011906728244
 20
-137.5099555211779
 30
0.0
 10
91.00011906728244
 20
-137.5099555211779
 30
0.0
 10
113.1682888605966
 20
-137.5099555211779
 30
0.0
 10
113.1682888605966
 20
-137.5099555211779
 30
0.0
 10
113.1682888605966
 20
-137.5099555211779
 30
0.0
 10
113.1682888605966
 20
-138.5097277431504
 30
0.0
 10
113.1682888605966
 20
-138.5097277431504
 30
0.0
 10
113.1682888605966
 20
-138.5097277431504
 30
0.0
 10
92.11083987227892
 20
-138.5097277431504
 30
0.0
 10
92.11083987227892
 20
-138.5097277431504
 30
0.0
 10
92.11083987227892
 20
-138.5097277431504
 30
0.0
 10
93.1681148453056
 20
-145.0099405193028
 30
0.0
 10
93.1681148453056
 20
-145.0099405193028
 30
0.0
  0
INSERT
  5
94
330
41
100
AcDbEntity
  8
_U+30EC_U+30A4_U+30E4_U+30FC 1
100
AcDbBlockReference
  2
block 6
 10
0.0
 20
0.0
 30
0.0
  0
INSERT
  5
A5
330
41
100
AcDbEntity
  8
_U+30EC_U+30A4_U+30E4_U+30FC 1
100
AcDbBlockReference
  2
block 7
 10
0.0
 20
0.0
 30
0.0
  0
ENDBLK
  5
44
330
41
100
AcDbEntity
  8
0
100
AcDbBlockEnd
  0
BLOCK
  5
56
330
54
100
AcDbEntity
  8
0
100
AcDbBlockBegin
  2
block 3
 70
     0
 10
0.0
 20
0.0
 30
0.0
  3
block 3
  1

  0
SPLINE
  5
58
330
54
100
AcDbEntity
  8
_U+30EC_U+30A4_U+30E4_U+30FC 1
370
     0
100
AcDbSpline
210
0.0
220
0.0
230
1.0
 70
    11
 71
     3
 72
    44
 73
    40
 74
     0
 42
0.0000000001
 43
0.0000000001
 12
1.0
 22
0.0
 32
0.0
 13
1.0
 23
0.0
 33
0.0
 40
0.0
 40
0.0
 40
0.0
 40
0.0
 40
1.0
 40
1.0
 40
1.0
 40
2.0
 40
2.0
 40
2.0
 40
3.0
 40
3.0
 40
3.0
 40
4.0
 40
4.0
 40
4.0
 40
5.0
 40
5.0
 40
5.0
 40
6.0
 40
6.0
 40
6.0
 40
7.0
 40
7.0
 40
7.0
 40
8.0
 40
8.0
 40
8.0
 40
9.0
 40
9.0
 40
9.0
 40
10.0
 40
10.0
 40
10.0
 40
11.0
 40
11.0
 40
11.0
 40
12.0
 40
12.0
 40
12.0
 40
13.0
 40
13.0
 40
13.0
 40
13.0
 10
69.17476126742854
 20
-149.4840711431845
 30
0.0
 10
69.15133461812884
 20
-149.4396294114248
 30
0.0
 10
69.13031953566882
 20
-149.3869194505005
 30
0.0
 10
69.1280802236034
 20
-149.1560980529888
 30
0.0
 10
69.1239461090211
 20
-148.9128743117301
 30
0.0
 10
69.0646904666748
 20
-148.8429388733796
 30
0.0
 10
68.88692353963592
 20
-148.8429388733796
 30
0.0
 10
68.88692353963592
 20
-148.8429388733796
 30
0.0
 10
68.4786797246338
 20
-148.8429388733796
 30
0.0
 10
68.4786797246338
 20
-148.8429388733796
 30
0.0
 10
68.4786797246338
 20
-148.8429388733796
 30
0.0
 10
68.4786797246338
 20
-149.4840711431845
 30
0.0
 10
68.4786797246338
 20
-149.4840711431845
 30
0.0
 10
68.4786797246338
 20
-149.4840711431845
 30
0.0
 10
68.24389646731403
 20
-149.4840711431845
 30
0.0
 10
68.24389646731403
 20
-149.4840711431845
 30
0.0
 10
68.24389646731403
 20
-149.4840711431845
 30
0.0
 10
68.24389646731403
 20
-147.9396348371471
 30
0.0
 10
68.24389646731403
 20
-147.9396348371471
 30
0.0
 10
68.24389646731403
 20
-147.9396348371471
 30
0.0
 10
68.91879067287448
 20
-147.9396348371471
 30
0.0
 10
68.91879067287448
 20
-147.9396348371471
 30
0.0
 10
69.22540417106171
 20
-147.9396348371471
 30
0.0
 10
69.39249130209633
 20
-148.1112005923125
 30
0.0
 10
69.39249130209633
 20
-148.3671711868666
 30
0.0
 10
69.39249130209633
 20
-148.4178140904997
 30
0.0
 10
69.38405081815746
 20
-148.5004963821457
 30
0.0
 10
69.33960908639774
 20
-148.580767106952
 30
0.0
 10
69.2805256988257
 20
-148.6844644810581
 30
0.0
 10
69.2148966298317
 20
-148.7034125062269
 30
0.0
 10
69.15357393019426
 20
-148.7202934741047
 30
0.0
 10
69.29103324005571
 20
-148.7626681485732
 30
0.0
 10
69.35872936634088
 20
-148.8112439949153
 30
0.0
 10
69.36303573569744
 20
-149.1264702318156
 30
0.0
 10
69.36716985027974
 20
-149.3972547369563
 30
0.0
 10
69.4031710981006
 20
-149.4289496154205
 30
0.0
 10
69.47086722438576
 20
-149.4840711431845
 30
0.0
 10
69.47086722438576
 20
-149.4840711431845
 30
0.0
 10
69.17476126742854
 20
-149.4840711431845
 30
0.0
 10
69.17476126742854
 20
-149.4840711431845
 30
0.0
  0
SPLINE
  5
59
330
54
100
AcDbEntity
  8
_U+30EC_U+30A4_U+30E4_U+30FC 1
370
     0
100
AcDbSpline
210
0.0
220
0.0
230
1.0
 70
    11
 71
     3
 72
    20
 73
    16
 74
     0
 42
0.0000000001
 43
0.0000000001
 12
1.0
 22
0.0
 32
0.0
 13
1.0
 23
0.0
 33
0.0
 40
0.0
 40
0.0
 40
0.0
 40
0.0
 40
1.0
 40
1.0
 40
1.0
 40
2.0
 40
2.0
 40
2.0
 40
3.0
 40
3.0
 40
3.0
 40
4.0
 40
4.0
 40
4.0
 40
5.0
 40
5.0
 40
5.0
 40
5.0
 10
68.92292478745678
 20
-148.1511636999414
 30
0.0
 10
68.92292478745678
 20
-148.1511636999414
 30
0.0
 10
68.4786797246338
 20
-148.1511636999414
 30
0.0
 10
68.4786797246338
 20
-148.1511636999414
 30
0.0
 10
68.4786797246338
 20
-148.1511636999414
 30
0.0
 10
68.4786797246338
 20
-148.6314100105852
 30
0.0
 10
68.4786797246338
 20
-148.6314100105852
 30
0.0
 10
68.4786797246338
 20
-148.6314100105852
 30
0.0
 10
68.92085773016562
 20
-148.6314100105852
 30
0.0
 10
68.92085773016562
 20
-148.6314100105852
 30
0.0
 10
69.02024873491509
 20
-148.6314100105852
 30
0.0
 10
69.1556409874854
 20
-148.5552734003612
 30
0.0
 10
69.1556409874854
 20
-148.3840521547443
 30
0.0
 10
69.1556409874854
 20
-148.3058484872291
 30
0.0
 10
69.12170679695569
 20
-148.1511636999414
 30
0.0
 10
68.92292478745678
 20
-148.1511636999414
 30
0.0
  0
HATCH
  5
5A
330
54
100
AcDbEntity
  8
_U+30EC_U+30A4_U+30E4_U+30FC 1
 62
     7
420
 16777215
100
AcDbHatch
 10
0.0
 20
0.0
 30
0.0
210
0.0
220
0.0
230
1.0
  2
SOLID
 70
     1
 71
     0
 91
        2
 92
        1
 93
        1
 72
     4
 94
        3
 73
     0
 74
     1
 95
       44
 96
       40
 40
0.0
 40
0.0
 40
0.0
 40
0.0
 40
1.0
 40
1.0
 40
1.0
 40
2.0
 40
2.0
 40
2.0
 40
3.0
 40
3.0
 40
3.0
 40
4.0
 40
4.0
 40
4.0
 40
5.0
 40
5.0
 40
5.0
 40
6.0
 40
6.0
 40
6.0
 40
7.0
 40
7.0
 40
7.0
 40
8.0
 40
8.0
 40
8.0
 40
9.0
 40
9.0
 40
9.0
 40
10.0
 40
10.0
 40
10.0
 40
11.0
 40
11.0
 40
11.0
 40
12.0
 40
12.0
 40
12.0
 40
13.0
 40
13.0
 40
13.0
 40
13.0
 10
69.17476126742854
 20
-149.4840711431845
 10
69.15133461812884
 20
-149.4396294114248
 10
69.13031953566882
 20
-149.3869194505005
 10
69.1280802236034
 20
-149.1560980529888
 10
69.1239461090211
 20
-148.9128743117301
 10
69.0646904666748
 20
-148.8429388733796
 10
68.88692353963592
 20
-148.8429388733796
 10
68.88692353963592
 20
-148.8429388733796
 10
68.4786797246338
 20
-148.8429388733796
 10
68.4786797246338
 20
-148.8429388733796
 10
68.4786797246338
 20
-148.8429388733796
 10
68.4786797246338
 20
-149.4840711431845
 10
68.4786797246338
 20
-149.4840711431845
 10
68.4786797246338
 20
-149.4840711431845
 10
68.24389646731403
 20
-149.4840711431845
 10
68.24389646731403
 20
-149.4840711431845
 10
68.24389646731403
 20
-149.4840711431845
 10
68.24389646731403
 20
-147.9396348371471
 10
68.24389646731403
 20
-147.9396348371471
 10
68.24389646731403
 20
-147.9396348371471
 10
68.91879067287448
 20
-147.9396348371471
 10
68.91879067287448
 20
-147.9396348371471
 10
69.22540417106171
 20
-147.9396348371471
 10
69.39249130209633
 20
-148.1112005923125
 10
69.39249130209633
 20
-148.3671711868666
 10
69.39249130209633
 20
-148.4178140904997
 10
69.38405081815746
 20
-148.5004963821457
 10
69.33960908639774
 20
-148.580767106952
 10
69.2805256988257
 20
-148.6844644810581
 10
69.2148966298317
 20
-148.7034125062269
 10
69.15357393019426
 20
-148.7202934741047
 10
69.29103324005571
 20
-148.7626681485732
 10
69.35872936634088
 20
-148.8112439949153
 10
69.36303573569744
 20
-149.1264702318156
 10
69.36716985027974
 20
-149.3972547369563
 10
69.4031710981006
 20
-149.4289496154205
 10
69.47086722438576
 20
-149.4840711431845
 10
69.47086722438576
 20
-149.4840711431845
 10
69.17476126742854
 20
-149.4840711431845
 10
69.17476126742854
 20
-149.4840711431845
 97
        0
 97
        0
 92
        1
 93
        1
 72
     4
 94
        3
 73
     0
 74
     1
 95
       20
 96
       16
 40
0.0
 40
0.0
 40
0.0
 40
0.0
 40
1.0
 40
1.0
 40
1.0
 40
2.0
 40
2.0
 40
2.0
 40
3.0
 40
3.0
 40
3.0
 40
4.0
 40
4.0
 40
4.0
 40
5.0
 40
5.0
 40
5.0
 40
5.0
 10
68.92292478745678
 20
-148.1511636999414
 10
68.92292478745678
 20
-148.1511636999414
 10
68.4786797246338
 20
-148.1511636999414
 10
68.4786797246338
 20
-148.1511636999414
 10
68.4786797246338
 20
-148.1511636999414
 10
68.4786797246338
 20
-148.6314100105852
 10
68.4786797246338
 20
-148.6314100105852
 10
68.4786797246338
 20
-148.6314100105852
 10
68.92085773016562
 20
-148.6314100105852
 10
68.92085773016562
 20
-148.6314100105852
 10
69.02024873491509
 20
-148.6314100105852
 10
69.1556409874854
 20
-148.5552734003612
 10
69.1556409874854
 20
-148.3840521547443
 10
69.1556409874854
 20
-148.3058484872291
 10
69.12170679695569
 20
-148.1511636999414
 10
68.92292478745678
 20
-148.1511636999414
 97
        0
 97
        0
 75
     2
 76
     1
 98
        0
  0
SPLINE
  5
5B
330
54
100
AcDbEntity
  8
_U+30EC_U+30A4_U+30E4_U+30FC 1
370
     0
100
AcDbSpline
210
0.0
220
0.0
230
1.0
 70
    11
 71
     3
 72
    62
 73
    58
 74
     0
 42
0.0000000001
 43
0.0000000001
 12
1.0
 22
0.0
 32
0.0
 13
1.0
 23
0.0
 33
0.0
 40
0.0
 40
0.0
 40
0.0
 40
0.0
 40
1.0
 40
1.0
 40
1.0
 40
2.0
 40
2.0
 40
2.0
 40
3.0
 40
3.0
 40
3.0
 40
4.0
 40
4.0
 40
4.0
 40
5.0
 40
5.0
 40
5.0
 40
6.0
 40
6.0
 40
6.0
 40
7.0
 40
7.0
 40
7.0
 40
8.0
 40
8.0
 40
8.0
 40
9.0
 40
9.0
 40
9.0
 40
10.0
 40
10.0
 40
10.0
 40
11.0
 40
11.0
 40
11.0
 40
12.0
 40
12.0
 40
12.0
 40
13.0
 40
13.0
 40
13.0
 40
14.0
 40
14.0
 40
14.0
 40
15.0
 40
15.0
 40
15.0
 40
16.0
 40
16.0
 40
16.0
 40
17.0
 40
17.0
 40
17.0
 40
18.0
 40
18.0
 40
18.0
 40
19.0
 40
19.0
 40
19.0
 40
19.0
 10
70.10200871728352
 20
-149.5347140468177
 30
0.0
 10
70.00675182711637
 20
-149.5347140468177
 30
0.0
 10
69.78884953767432
 20
-149.5136989643577
 30
0.0
 10
69.66413708110828
 20
-149.3276638081542
 30
0.0
 10
69.5900675281754
 20
-149.2153536953351
 30
0.0
 10
69.58576115881884
 20
-149.1161349453599
 30
0.0
 10
69.58162704423654
 20
-149.0313855964227
 30
0.0
 10
69.58162704423654
 20
-149.0313855964227
 30
0.0
 10
69.80159639096975
 20
-149.0313855964227
 30
0.0
 10
69.80159639096975
 20
-149.0313855964227
 30
0.0
 10
69.80366344826089
 20
-149.1054551493556
 30
0.0
 10
69.81434324426517
 20
-149.3400661519011
 30
0.0
 10
70.09770234792697
 20
-149.3400661519011
 30
0.0
 10
70.2353339125627
 20
-149.3400661519011
 30
0.0
 10
70.38760713301075
 20
-149.2704752230991
 30
0.0
 10
70.38760713301075
 20
-149.042065392427
 30
0.0
 10
70.38760713301075
 20
-148.9256211650255
 30
0.0
 10
70.34953882789873
 20
-148.8770453186835
 30
0.0
 10
70.31784394943443
 20
-148.8453504402192
 30
0.0
 10
70.24377439650156
 20
-148.7712808872864
 30
0.0
 10
70.12733016910012
 20
-148.7585340339909
 30
0.0
 10
70.07238089611037
 20
-148.7585340339909
 30
0.0
 10
70.0534328709415
 20
-148.7585340339909
 30
0.0
 10
70.01743162312064
 20
-148.7606010912821
 30
0.0
 10
69.98987085923865
 20
-148.7647352058644
 30
0.0
 10
69.98987085923865
 20
-148.7647352058644
 30
0.0
 10
69.98987085923865
 20
-148.5700873109478
 30
0.0
 10
69.98987085923865
 20
-148.5700873109478
 30
0.0
 10
70.02793916435066
 20
-148.5766329923697
 30
0.0
 10
70.07031383881923
 20
-148.5787000496609
 30
0.0
 10
70.07668726546694
 20
-148.5787000496609
 30
0.0
 10
70.14214407968669
 20
-148.5787000496609
 30
0.0
 10
70.34109834395987
 20
-148.5573404576523
 30
0.0
 10
70.34109834395987
 20
-148.3206623978157
 30
0.0
 10
70.34109834395987
 20
-148.1428954707768
 30
0.0
 10
70.20984020597184
 20
-148.0877739430128
 30
0.0
 10
70.09994165999238
 20
-148.0877739430128
 30
0.0
 10
69.83553058149946
 20
-148.0877739430128
 30
0.0
 10
69.82691784278633
 20
-148.3206623978157
 30
0.0
 10
69.82278372820403
 20
-148.3923203839089
 30
0.0
 10
69.82278372820403
 20
-148.3923203839089
 30
0.0
 10
69.61969534934855
 20
-148.3923203839089
 30
0.0
 10
69.61969534934855
 20
-148.3923203839089
 30
0.0
 10
69.62813583328742
 20
-148.2676079273428
 30
0.0
 10
69.65569659716941
 20
-147.891058990805
 30
0.0
 10
70.11251625851354
 20
-147.891058990805
 30
0.0
 10
70.3367919746033
 20
-147.891058990805
 30
0.0
 10
70.57794865857079
 20
-148.0181830142107
 30
0.0
 10
70.57794865857079
 20
-148.3141167163937
 30
0.0
 10
70.57794865857079
 20
-148.5004963821457
 30
0.0
 10
70.4828640231779
 20
-148.5828341642432
 30
0.0
 10
70.38330076365418
 20
-148.6441568638806
 30
0.0
 10
70.44479571806589
 20
-148.6717176277626
 30
0.0
 10
70.62669675968708
 20
-148.751988352569
 30
0.0
 10
70.62669675968708
 20
-149.0293185391316
 30
0.0
 10
70.62669675968708
 20
-149.3676269157831
 30
0.0
 10
70.37916664907188
 20
-149.5347140468177
 30
0.0
 10
70.10200871728352
 20
-149.5347140468177
 30
0.0
  0
HATCH
  5
5C
330
54
100
AcDbEntity
  8
_U+30EC_U+30A4_U+30E4_U+30FC 1
 62
     7
420
 16777215
100
AcDbHatch
 10
0.0
 20
0.0
 30
0.0
210
0.0
220
0.0
230
1.0
  2
SOLID
 70
     1
 71
     0
 91
        1
 92
        1
 93
        1
 72
     4
 94
        3
 73
     0
 74
     1
 95
       62
 96
       58
 40
0.0
 40
0.0
 40
0.0
 40
0.0
 40
1.0
 40
1.0
 40
1.0
 40
2.0
 40
2.0
 40
2.0
 40
3.0
 40
3.0
 40
3.0
 40
4.0
 40
4.0
 40
4.0
 40
5.0
 40
5.0
 40
5.0
 40
6.0
 40
6.0
 40
6.0
 40
7.0
 40
7.0
 40
7.0
 40
8.0
 40
8.0
 40
8.0
 40
9.0
 40
9.0
 40
9.0
 40
10.0
 40
10.0
 40
10.0
 40
11.0
 40
11.0
 40
11.0
 40
12.0
 40
12.0
 40
12.0
 40
13.0
 40
13.0
 40
13.0
 40
14.0
 40
14.0
 40
14.0
 40
15.0
 40
15.0
 40
15.0
 40
16.0
 40
16.0
 40
16.0
 40
17.0
 40
17.0
 40
17.0
 40
18.0
 40
18.0
 40
18.0
 40
19.0
 40
19.0
 40
19.0
 40
19.0
 10
70.10200871728352
 20
-149.5347140468177
 10
70.00675182711637
 20
-149.5347140468177
 10
69.78884953767432
 20
-149.5136989643577
 10
69.66413708110828
 20
-149.3276638081542
 10
69.5900675281754
 20
-149.2153536953351
 10
69.58576115881884
 20
-149.1161349453599
 10
69.58162704423654
 20
-149.0313855964227
 10
69.58162704423654
 20
-149.0313855964227
 10
69.80159639096975
 20
-149.0313855964227
 10
69.80159639096975
 20
-149.0313855964227
 10
69.80366344826089
 20
-149.1054551493556
 10
69.81434324426517
 20
-149.3400661519011
 10
70.09770234792697
 20
-149.3400661519011
 10
70.2353339125627
 20
-149.3400661519011
 10
70.38760713301075
 20
-149.2704752230991
 10
70.38760713301075
 20
-149.042065392427
 10
70.38760713301075
 20
-148.9256211650255
 10
70.34953882789873
 20
-148.8770453186835
 10
70.31784394943443
 20
-148.8453504402192
 10
70.24377439650156
 20
-148.7712808872864
 10
70.12733016910012
 20
-148.7585340339909
 10
70.07238089611037
 20
-148.7585340339909
 10
70.0534328709415
 20
-148.7585340339909
 10
70.01743162312064
 20
-148.7606010912821
 10
69.98987085923865
 20
-148.7647352058644
 10
69.98987085923865
 20
-148.7647352058644
 10
69.98987085923865
 20
-148.5700873109478
 10
69.98987085923865
 20
-148.5700873109478
 10
70.02793916435066
 20
-148.5766329923697
 10
70.07031383881923
 20
-148.5787000496609
 10
70.07668726546694
 20
-148.5787000496609
 10
70.14214407968669
 20
-148.5787000496609
 10
70.34109834395987
 20
-148.5573404576523
 10
70.34109834395987
 20
-148.3206623978157
 10
70.34109834395987
 20
-148.1428954707768
 10
70.20984020597184
 20
-148.0877739430128
 10
70.09994165999238
 20
-148.0877739430128
 10
69.83553058149946
 20
-148.0877739430128
 10
69.82691784278633
 20
-148.3206623978157
 10
69.82278372820403
 20
-148.3923203839089
 10
69.82278372820403
 20
-148.3923203839089
 10
69.61969534934855
 20
-148.3923203839089
 10
69.61969534934855
 20
-148.3923203839089
 10
69.62813583328742
 20
-148.2676079273428
 10
69.65569659716941
 20
-147.891058990805
 10
70.11251625851354
 20
-147.891058990805
 10
70.3367919746033
 20
-147.891058990805
 10
70.57794865857079
 20
-148.0181830142107
 10
70.57794865857079
 20
-148.3141167163937
 10
70.57794865857079
 20
-148.5004963821457
 10
70.4828640231779
 20
-148.5828341642432
 10
70.38330076365418
 20
-148.6441568638806
 10
70.44479571806589
 20
-148.6717176277626
 10
70.62669675968708
 20
-148.751988352569
 10
70.62669675968708
 20
-149.0293185391316
 10
70.62669675968708
 20
-149.3676269157831
 10
70.37916664907188
 20
-149.5347140468177
 10
70.10200871728352
 20
-149.5347140468177
 97
        0
 97
        0
 75
     2
 76
     1
 98
        0
  0
ENDBLK
  5
57
330
54
100
AcDbEntity
  8
0
100
AcDbBlockEnd
  0
BLOCK
  5
82
330
80
100
AcDbEntity
  8
0
100
AcDbBlockBegin
  2
block 4
 70
     0
 10
0.0
 20
0.0
 30
0.0
  3
block 4
  1

  0
SPLINE
  5
84
330
80
100
AcDbEntity
  8
_U+30EC_U+30A4_U+30E4_U+30FC 1
370
     0
100
AcDbSpline
210
0.0
220
0.0
230
1.0
 70
    11
 71
     3
 72
    44
 73
    40
 74
     0
 42
0.0000000001
 43
0.0000000001
 12
1.0
 22
0.0
 32
0.0
 13
1.0
 23
0.0
 33
0.0
 40
0.0
 40
0.0
 40
0.0
 40
0.0
 40
1.0
 40
1.0
 40
1.0
 40
2.0
 40
2.0
 40
2.0
 40
3.0
 40
3.0
 40
3.0
 40
4.0
 40
4.0
 40
4.0
 40
5.0
 40
5.0
 40
5.0
 40
6.0
 40
6.0
 40
6.0
 40
7.0
 40
7.0
 40
7.0
 40
8.0
 40
8.0
 40
8.0
 40
9.0
 40
9.0
 40
9.0
 40
10.0
 40
10.0
 40
10.0
 40
11.0
 40
11.0
 40
11.0
 40
12.0
 40
12.0
 40
12.0
 40
13.0
 40
13.0
 40
13.0
 40
13.0
 10
66.96817760912602
 20
-135.5052517022348
 30
0.0
 10
67.12699651099604
 20
-135.7229817369026
 30
0.0
 10
67.2010660639289
 20
-135.8159993150043
 30
0.0
 10
67.34472654566382
 20
-135.8649196708949
 30
0.0
 10
67.34472654566382
 20
-135.8649196708949
 30
0.0
 10
67.34472654566382
 20
-135.0863280912284
 30
0.0
 10
67.34472654566382
 20
-135.0863280912284
 30
0.0
 10
67.34472654566382
 20
-135.0863280912284
 30
0.0
 10
67.55005423658471
 20
-135.0863280912284
 30
0.0
 10
67.55005423658471
 20
-135.0863280912284
 30
0.0
 10
67.55005423658471
 20
-135.0863280912284
 30
0.0
 10
67.55005423658471
 20
-136.114344584027
 30
0.0
 10
67.55005423658471
 20
-136.114344584027
 30
0.0
 10
67.19245332521578
 20
-136.0826497055627
 30
0.0
 10
67.11424965770061
 20
-136.0171928913429
 30
0.0
 10
66.81590438867798
 20
-135.632031216092
 30
0.0
 10
66.61712237917905
 20
-135.3760606215379
 30
0.0
 10
66.54925399811964
 20
-135.3106038073182
 30
0.0
 10
66.41179468825817
 20
-135.3106038073182
 30
0.0
 10
66.29328340356557
 20
-135.3106038073182
 30
0.0
 10
66.16236977512608
 20
-135.3826063029599
 30
0.0
 10
66.16236977512608
 20
-135.5793212551677
 30
0.0
 10
66.16236977512608
 20
-135.839425964304
 30
0.0
 10
66.39284666308929
 20
-135.8476941934686
 30
0.0
 10
66.50929089049073
 20
-135.8521728175995
 30
0.0
 10
66.50929089049073
 20
-135.8521728175995
 30
0.0
 10
66.50929089049073
 20
-136.0764485336892
 30
0.0
 10
66.50929089049073
 20
-136.0764485336892
 30
0.0
 10
66.38216686708502
 20
-136.0678357949761
 30
0.0
 10
66.2702012638144
 20
-136.0571559989718
 30
0.0
 10
66.1516899791218
 20
-135.9768852741655
 30
0.0
 10
65.99080401996063
 20
-135.866986728186
 30
0.0
 10
65.95704208420518
 20
-135.680607062434
 30
0.0
 10
65.95704208420518
 20
-135.5645073445811
 30
0.0
 10
65.95704208420518
 20
-135.2871771580185
 30
0.0
 10
66.14101018311753
 20
-135.0797824098065
 30
0.0
 10
66.41386174554931
 20
-135.0797824098065
 30
0.0
 10
66.6426160857699
 20
-135.0797824098065
 30
0.0
 10
66.7418348357451
 20
-135.1962266372079
 30
0.0
 10
66.96817760912602
 20
-135.5052517022348
 30
0.0
  0
HATCH
  5
85
330
80
100
AcDbEntity
  8
_U+30EC_U+30A4_U+30E4_U+30FC 1
 62
     7
420
 16777215
100
AcDbHatch
 10
0.0
 20
0.0
 30
0.0
210
0.0
220
0.0
230
1.0
  2
SOLID
 70
     1
 71
     0
 91
        1
 92
        1
 93
        1
 72
     4
 94
        3
 73
     0
 74
     1
 95
       44
 96
       40
 40
0.0
 40
0.0
 40
0.0
 40
0.0
 40
1.0
 40
1.0
 40
1.0
 40
2.0
 40
2.0
 40
2.0
 40
3.0
 40
3.0
 40
3.0
 40
4.0
 40
4.0
 40
4.0
 40
5.0
 40
5.0
 40
5.0
 40
6.0
 40
6.0
 40
6.0
 40
7.0
 40
7.0
 40
7.0
 40
8.0
 40
8.0
 40
8.0
 40
9.0
 40
9.0
 40
9.0
 40
10.0
 40
10.0
 40
10.0
 40
11.0
 40
11.0
 40
11.0
 40
12.0
 40
12.0
 40
12.0
 40
13.0
 40
13.0
 40
13.0
 40
13.0
 10
66.96817760912602
 20
-135.5052517022348
 10
67.12699651099604
 20
-135.7229817369026
 10
67.2010660639289
 20
-135.8159993150043
 10
67.34472654566382
 20
-135.8649196708949
 10
67.34472654566382
 20
-135.8649196708949
 10
67.34472654566382
 20
-135.0863280912284
 10
67.34472654566382
 20
-135.0863280912284
 10
67.34472654566382
 20
-135.0863280912284
 10
67.55005423658471
 20
-135.0863280912284
 10
67.55005423658471
 20
-135.0863280912284
 10
67.55005423658471
 20
-135.0863280912284
 10
67.55005423658471
 20
-136.114344584027
 10
67.55005423658471
 20
-136.114344584027
 10
67.19245332521578
 20
-136.0826497055627
 10
67.11424965770061
 20
-136.0171928913429
 10
66.81590438867798
 20
-135.632031216092
 10
66.61712237917905
 20
-135.3760606215379
 10
66.54925399811964
 20
-135.3106038073182
 10
66.41179468825817
 20
-135.3106038073182
 10
66.29328340356557
 20
-135.3106038073182
 10
66.16236977512608
 20
-135.3826063029599
 10
66.16236977512608
 20
-135.5793212551677
 10
66.16236977512608
 20
-135.839425964304
 10
66.39284666308929
 20
-135.8476941934686
 10
66.50929089049073
 20
-135.8521728175995
 10
66.50929089049073
 20
-135.8521728175995
 10
66.50929089049073
 20
-136.0764485336892
 10
66.50929089049073
 20
-136.0764485336892
 10
66.38216686708502
 20
-136.0678357949761
 10
66.2702012638144
 20
-136.0571559989718
 10
66.1516899791218
 20
-135.9768852741655
 10
65.99080401996063
 20
-135.866986728186
 10
65.95704208420518
 20
-135.680607062434
 10
65.95704208420518
 20
-135.5645073445811
 10
65.95704208420518
 20
-135.2871771580185
 10
66.14101018311753
 20
-135.0797824098065
 10
66.41386174554931
 20
-135.0797824098065
 10
66.6426160857699
 20
-135.0797824098065
 10
66.7418348357451
 20
-135.1962266372079
 10
66.96817760912602
 20
-135.5052517022348
 97
        0
 97
        0
 75
     2
 76
     1
 98
        0
  0
SPLINE
  5
86
330
80
100
AcDbEntity
  8
_U+30EC_U+30A4_U+30E4_U+30FC 1
370
     0
100
AcDbSpline
210
0.0
220
0.0
230
1.0
 70
    11
 71
     3
 72
    29
 73
    25
 74
     0
 42
0.0000000001
 43
0.0000000001
 12
1.0
 22
0.0
 32
0.0
 13
1.0
 23
0.0
 33
0.0
 40
0.0
 40
0.0
 40
0.0
 40
0.0
 40
1.0
 40
1.0
 40
1.0
 40
2.0
 40
2.0
 40
2.0
 40
3.0
 40
3.0
 40
3.0
 40
4.0
 40
4.0
 40
4.0
 40
5.0
 40
5.0
 40
5.0
 40
6.0
 40
6.0
 40
6.0
 40
7.0
 40
7.0
 40
7.0
 40
8.0
 40
8.0
 40
8.0
 40
8.0
 10
67.37228730954583
 20
-134.0235161340289
 30
0.0
 10
67.581749115049
 20
-134.1316921322657
 30
0.0
 10
67.60069714021789
 20
-134.3049804351738
 30
0.0
 10
67.60069714021789
 20
-134.4214246625752
 30
0.0
 10
67.60069714021789
 20
-134.5823106217364
 30
0.0
 10
67.55418835116701
 20
-134.7239040461801
 30
0.0
 10
67.37228730954583
 20
-134.818988681573
 30
0.0
 10
67.1776394146292
 20
-134.9226860556791
 30
0.0
 10
66.94061684524401
 20
-134.9416340808479
 30
0.0
 10
66.77800833834023
 20
-134.9416340808479
 30
0.0
 10
66.63400334705678
 20
-134.9416340808479
 30
0.0
 10
66.38216686708502
 20
-134.9247531129702
 30
0.0
 10
66.1833848575861
 20
-134.818988681573
 30
0.0
 10
65.98046873350489
 20
-134.7111571928847
 30
0.0
 10
65.95704208420518
 20
-134.5502712337235
 30
0.0
 10
65.95704208420518
 20
-134.4214246625752
 30
0.0
 10
65.95704208420518
 20
-134.2626057607052
 30
0.0
 10
66.0014838159649
 20
-134.1189452789703
 30
0.0
 10
66.1833848575861
 20
-134.0235161340289
 30
0.0
 10
66.37596569521156
 20
-133.9242973840537
 30
0.0
 10
66.60437552588363
 20
-133.900870734754
 30
0.0
 10
66.77800833834023
 20
-133.900870734754
 30
0.0
 10
66.94922958395713
 20
-133.900870734754
 30
0.0
 10
67.17970647192035
 20
-133.9222303267625
 30
0.0
 10
67.37228730954583
 20
-134.0235161340289
 30
0.0
  0
SPLINE
  5
87
330
80
100
AcDbEntity
  8
_U+30EC_U+30A4_U+30E4_U+30FC 1
370
     0
100
AcDbSpline
210
0.0
220
0.0
230
1.0
 70
    11
 71
     3
 72
    17
 73
    13
 74
     0
 42
0.0000000001
 43
0.0000000001
 12
1.0
 22
0.0
 32
0.0
 13
1.0
 23
0.0
 33
0.0
 40
0.0
 40
0.0
 40
0.0
 40
0.0
 40
1.0
 40
1.0
 40
1.0
 40
2.0
 40
2.0
 40
2.0
 40
3.0
 40
3.0
 40
3.0
 40
4.0
 40
4.0
 40
4.0
 40
4.0
 10
66.14962292183066
 20
-134.4214246625752
 30
0.0
 10
66.14962292183066
 20
-134.6708495757073
 30
0.0
 10
66.43315428026672
 20
-134.7177028743067
 30
0.0
 10
66.77800833834023
 20
-134.7177028743067
 30
0.0
 10
67.09736868982289
 20
-134.7177028743067
 30
0.0
 10
67.40604924530128
 20
-134.6815293717116
 30
0.0
 10
67.40604924530128
 20
-134.4214246625752
 30
0.0
 10
67.40604924530128
 20
-134.1737222971857
 30
0.0
 10
67.12492945370488
 20
-134.1251464508437
 30
0.0
 10
66.77800833834023
 20
-134.1251464508437
 30
0.0
 10
66.45830347730904
 20
-134.1251464508437
 30
0.0
 10
66.14962292183066
 20
-134.16338701073
 30
0.0
 10
66.14962292183066
 20
-134.4214246625752
 30
0.0
  0
HATCH
  5
88
330
80
100
AcDbEntity
  8
_U+30EC_U+30A4_U+30E4_U+30FC 1
 62
     7
420
 16777215
100
AcDbHatch
 10
0.0
 20
0.0
 30
0.0
210
0.0
220
0.0
230
1.0
  2
SOLID
 70
     1
 71
     0
 91
        2
 92
        1
 93
        1
 72
     4
 94
        3
 73
     0
 74
     1
 95
       29
 96
       25
 40
0.0
 40
0.0
 40
0.0
 40
0.0
 40
1.0
 40
1.0
 40
1.0
 40
2.0
 40
2.0
 40
2.0
 40
3.0
 40
3.0
 40
3.0
 40
4.0
 40
4.0
 40
4.0
 40
5.0
 40
5.0
 40
5.0
 40
6.0
 40
6.0
 40
6.0
 40
7.0
 40
7.0
 40
7.0
 40
8.0
 40
8.0
 40
8.0
 40
8.0
 10
67.37228730954583
 20
-134.0235161340289
 10
67.581749115049
 20
-134.1316921322657
 10
67.60069714021789
 20
-134.3049804351738
 10
67.60069714021789
 20
-134.4214246625752
 10
67.60069714021789
 20
-134.5823106217364
 10
67.55418835116701
 20
-134.7239040461801
 10
67.37228730954583
 20
-134.818988681573
 10
67.1776394146292
 20
-134.9226860556791
 10
66.94061684524401
 20
-134.9416340808479
 10
66.77800833834023
 20
-134.9416340808479
 10
66.63400334705678
 20
-134.9416340808479
 10
66.38216686708502
 20
-134.9247531129702
 10
66.1833848575861
 20
-134.818988681573
 10
65.98046873350489
 20
-134.7111571928847
 10
65.95704208420518
 20
-134.5502712337235
 10
65.95704208420518
 20
-134.4214246625752
 10
65.95704208420518
 20
-134.2626057607052
 10
66.0014838159649
 20
-134.1189452789703
 10
66.1833848575861
 20
-134.0235161340289
 10
66.37596569521156
 20
-133.9242973840537
 10
66.60437552588363
 20
-133.900870734754
 10
66.77800833834023
 20
-133.900870734754
 10
66.94922958395713
 20
-133.900870734754
 10
67.17970647192035
 20
-133.9222303267625
 10
67.37228730954583
 20
-134.0235161340289
 97
        0
 97
        0
 92
        1
 93
        1
 72
     4
 94
        3
 73
     0
 74
     1
 95
       17
 96
       13
 40
0.0
 40
0.0
 40
0.0
 40
0.0
 40
1.0
 40
1.0
 40
1.0
 40
2.0
 40
2.0
 40
2.0
 40
3.0
 40
3.0
 40
3.0
 40
4.0
 40
4.0
 40
4.0
 40
4.0
 10
66.14962292183066
 20
-134.4214246625752
 10
66.14962292183066
 20
-134.6708495757073
 10
66.43315428026672
 20
-134.7177028743067
 10
66.77800833834023
 20
-134.7177028743067
 10
67.09736868982289
 20
-134.7177028743067
 10
67.40604924530128
 20
-134.6815293717116
 10
67.40604924530128
 20
-134.4214246625752
 10
67.40604924530128
 20
-134.1737222971857
 10
67.12492945370488
 20
-134.1251464508437
 10
66.77800833834023
 20
-134.1251464508437
 10
66.45830347730904
 20
-134.1251464508437
 10
66.14962292183066
 20
-134.16338701073
 10
66.14962292183066
 20
-134.4214246625752
 97
        0
 97
        0
 75
     2
 76
     1
 98
        0
  0
ENDBLK
  5
83
330
80
100
AcDbEntity
  8
0
100
AcDbBlockEnd
  0
BLOCK
  5
8B
330
89
100
AcDbEntity
  8
0
100
AcDbBlockBegin
  2
block 5
 70
     0
 10
0.0
 20
0.0
 30
0.0
  3
block 5
  1

  0
SPLINE
  5
8D
330
89
100
AcDbEntity
  8
_U+30EC_U+30A4_U+30E4_U+30FC 1
370
     0
100
AcDbSpline
210
0.0
220
0.0
230
1.0
 70
    11
 71
     3
 72
    44
 73
    40
 74
     0
 42
0.0000000001
 43
0.0000000001
 12
1.0
 22
0.0
 32
0.0
 13
1.0
 23
0.0
 33
0.0
 40
0.0
 40
0.0
 40
0.0
 40
0.0
 40
1.0
 40
1.0
 40
1.0
 40
2.0
 40
2.0
 40
2.0
 40
3.0
 40
3.0
 40
3.0
 40
4.0
 40
4.0
 40
4.0
 40
5.0
 40
5.0
 40
5.0
 40
6.0
 40
6.0
 40
6.0
 40
7.0
 40
7.0
 40
7.0
 40
8.0
 40
8.0
 40
8.0
 40
9.0
 40
9.0
 40
9.0
 40
10.0
 40
10.0
 40
10.0
 40
11.0
 40
11.0
 40
11.0
 40
12.0
 40
12.0
 40
12.0
 40
13.0
 40
13.0
 40
13.0
 40
13.0
 10
66.96817760912602
 20
-115.5050943721654
 30
0.0
 10
67.12699651099604
 20
-115.7228244068332
 30
0.0
 10
67.2010660639289
 20
-115.8158419849349
 30
0.0
 10
67.34472654566382
 20
-115.8647623408255
 30
0.0
 10
67.34472654566382
 20
-115.8647623408255
 30
0.0
 10
67.34472654566382
 20
-115.086170761159
 30
0.0
 10
67.34472654566382
 20
-115.086170761159
 30
0.0
 10
67.34472654566382
 20
-115.086170761159
 30
0.0
 10
67.55005423658471
 20
-115.086170761159
 30
0.0
 10
67.55005423658471
 20
-115.086170761159
 30
0.0
 10
67.55005423658471
 20
-115.086170761159
 30
0.0
 10
67.55005423658471
 20
-116.1141872539576
 30
0.0
 10
67.55005423658471
 20
-116.1141872539576
 30
0.0
 10
67.19245332521578
 20
-116.0824923754933
 30
0.0
 10
67.11424965770061
 20
-116.0170355612735
 30
0.0
 10
66.81590438867798
 20
-115.6318738860226
 30
0.0
 10
66.61712237917905
 20
-115.3759032914685
 30
0.0
 10
66.54925399811964
 20
-115.3104464772488
 30
0.0
 10
66.41179468825817
 20
-115.3104464772488
 30
0.0
 10
66.29328340356557
 20
-115.3104464772488
 30
0.0
 10
66.16236977512608
 20
-115.3824489728905
 30
0.0
 10
66.16236977512608
 20
-115.5791639250983
 30
0.0
 10
66.16236977512608
 20
-115.8392686342346
 30
0.0
 10
66.39284666308929
 20
-115.8475368633992
 30
0.0
 10
66.50929089049073
 20
-115.8520154875301
 30
0.0
 10
66.50929089049073
 20
-115.8520154875301
 30
0.0
 10
66.50929089049073
 20
-116.0762912036198
 30
0.0
 10
66.50929089049073
 20
-116.0762912036198
 30
0.0
 10
66.38216686708502
 20
-116.0676784649067
 30
0.0
 10
66.2702012638144
 20
-116.0569986689024
 30
0.0
 10
66.1516899791218
 20
-115.9767279440961
 30
0.0
 10
65.99080401996063
 20
-115.8668293981166
 30
0.0
 10
65.95704208420518
 20
-115.6804497323646
 30
0.0
 10
65.95704208420518
 20
-115.5643500145117
 30
0.0
 10
65.95704208420518
 20
-115.2870198279491
 30
0.0
 10
66.14101018311753
 20
-115.079625079737
 30
0.0
 10
66.41386174554931
 20
-115.079625079737
 30
0.0
 10
66.6426160857699
 20
-115.079625079737
 30
0.0
 10
66.7418348357451
 20
-115.1960693071385
 30
0.0
 10
66.96817760912602
 20
-115.5050943721654
 30
0.0
  0
HATCH
  5
8E
330
89
100
AcDbEntity
  8
_U+30EC_U+30A4_U+30E4_U+30FC 1
 62
     7
420
 16777215
100
AcDbHatch
 10
0.0
 20
0.0
 30
0.0
210
0.0
220
0.0
230
1.0
  2
SOLID
 70
     1
 71
     0
 91
        1
 92
        1
 93
        1
 72
     4
 94
        3
 73
     0
 74
     1
 95
       44
 96
       40
 40
0.0
 40
0.0
 40
0.0
 40
0.0
 40
1.0
 40
1.0
 40
1.0
 40
2.0
 40
2.0
 40
2.0
 40
3.0
 40
3.0
 40
3.0
 40
4.0
 40
4.0
 40
4.0
 40
5.0
 40
5.0
 40
5.0
 40
6.0
 40
6.0
 40
6.0
 40
7.0
 40
7.0
 40
7.0
 40
8.0
 40
8.0
 40
8.0
 40
9.0
 40
9.0
 40
9.0
 40
10.0
 40
10.0
 40
10.0
 40
11.0
 40
11.0
 40
11.0
 40
12.0
 40
12.0
 40
12.0
 40
13.0
 40
13.0
 40
13.0
 40
13.0
 10
66.96817760912602
 20
-115.5050943721654
 10
67.12699651099604
 20
-115.7228244068332
 10
67.2010660639289
 20
-115.8158419849349
 10
67.34472654566382
 20
-115.8647623408255
 10
67.34472654566382
 20
-115.8647623408255
 10
67.34472654566382
 20
-115.086170761159
 10
67.34472654566382
 20
-115.086170761159
 10
67.34472654566382
 20
-115.086170761159
 10
67.55005423658471
 20
-115.086170761159
 10
67.55005423658471
 20
-115.086170761159
 10
67.55005423658471
 20
-115.086170761159
 10
67.55005423658471
 20
-116.1141872539576
 10
67.55005423658471
 20
-116.1141872539576
 10
67.19245332521578
 20
-116.0824923754933
 10
67.11424965770061
 20
-116.0170355612735
 10
66.81590438867798
 20
-115.6318738860226
 10
66.61712237917905
 20
-115.3759032914685
 10
66.54925399811964
 20
-115.3104464772488
 10
66.41179468825817
 20
-115.3104464772488
 10
66.29328340356557
 20
-115.3104464772488
 10
66.16236977512608
 20
-115.3824489728905
 10
66.16236977512608
 20
-115.5791639250983
 10
66.16236977512608
 20
-115.8392686342346
 10
66.39284666308929
 20
-115.8475368633992
 10
66.50929089049073
 20
-115.8520154875301
 10
66.50929089049073
 20
-115.8520154875301
 10
66.50929089049073
 20
-116.0762912036198
 10
66.50929089049073
 20
-116.0762912036198
 10
66.38216686708502
 20
-116.0676784649067
 10
66.2702012638144
 20
-116.0569986689024
 10
66.1516899791218
 20
-115.9767279440961
 10
65.99080401996063
 20
-115.8668293981166
 10
65.95704208420518
 20
-115.6804497323646
 10
65.95704208420518
 20
-115.5643500145117
 10
65.95704208420518
 20
-115.2870198279491
 10
66.14101018311753
 20
-115.079625079737
 10
66.41386174554931
 20
-115.079625079737
 10
66.6426160857699
 20
-115.079625079737
 10
66.7418348357451
 20
-115.1960693071385
 10
66.96817760912602
 20
-115.5050943721654
 97
        0
 97
        0
 75
     2
 76
     1
 98
        0
  0
SPLINE
  5
8F
330
89
100
AcDbEntity
  8
_U+30EC_U+30A4_U+30E4_U+30FC 1
370
     0
100
AcDbSpline
210
0.0
220
0.0
230
1.0
 70
    11
 71
     3
 72
    29
 73
    25
 74
     0
 42
0.0000000001
 43
0.0000000001
 12
1.0
 22
0.0
 32
0.0
 13
1.0
 23
0.0
 33
0.0
 40
0.0
 40
0.0
 40
0.0
 40
0.0
 40
1.0
 40
1.0
 40
1.0
 40
2.0
 40
2.0
 40
2.0
 40
3.0
 40
3.0
 40
3.0
 40
4.0
 40
4.0
 40
4.0
 40
5.0
 40
5.0
 40
5.0
 40
6.0
 40
6.0
 40
6.0
 40
7.0
 40
7.0
 40
7.0
 40
8.0
 40
8.0
 40
8.0
 40
8.0
 10
67.37228730954583
 20
-114.0233588039594
 30
0.0
 10
67.581749115049
 20
-114.1315348021963
 30
0.0
 10
67.60069714021789
 20
-114.3048231051044
 30
0.0
 10
67.60069714021789
 20
-114.4212673325058
 30
0.0
 10
67.60069714021789
 20
-114.582153291667
 30
0.0
 10
67.55418835116701
 20
-114.7237467161107
 30
0.0
 10
67.37228730954583
 20
-114.8188313515036
 30
0.0
 10
67.1776394146292
 20
-114.9225287256097
 30
0.0
 10
66.94061684524401
 20
-114.9414767507785
 30
0.0
 10
66.77800833834023
 20
-114.9414767507785
 30
0.0
 10
66.63400334705678
 20
-114.9414767507785
 30
0.0
 10
66.38216686708502
 20
-114.9245957829008
 30
0.0
 10
66.1833848575861
 20
-114.8188313515036
 30
0.0
 10
65.98046873350489
 20
-114.7109998628153
 30
0.0
 10
65.95704208420518
 20
-114.5501139036542
 30
0.0
 10
65.95704208420518
 20
-114.4212673325058
 30
0.0
 10
65.95704208420518
 20
-114.2624484306358
 30
0.0
 10
66.0014838159649
 20
-114.1187879489009
 30
0.0
 10
66.1833848575861
 20
-114.0233588039594
 30
0.0
 10
66.37596569521156
 20
-113.9241400539842
 30
0.0
 10
66.60437552588363
 20
-113.9007134046846
 30
0.0
 10
66.77800833834023
 20
-113.9007134046846
 30
0.0
 10
66.94922958395713
 20
-113.9007134046846
 30
0.0
 10
67.17970647192035
 20
-113.9220729966931
 30
0.0
 10
67.37228730954583
 20
-114.0233588039594
 30
0.0
  0
SPLINE
  5
90
330
89
100
AcDbEntity
  8
_U+30EC_U+30A4_U+30E4_U+30FC 1
370
     0
100
AcDbSpline
210
0.0
220
0.0
230
1.0
 70
    11
 71
     3
 72
    17
 73
    13
 74
     0
 42
0.0000000001
 43
0.0000000001
 12
1.0
 22
0.0
 32
0.0
 13
1.0
 23
0.0
 33
0.0
 40
0.0
 40
0.0
 40
0.0
 40
0.0
 40
1.0
 40
1.0
 40
1.0
 40
2.0
 40
2.0
 40
2.0
 40
3.0
 40
3.0
 40
3.0
 40
4.0
 40
4.0
 40
4.0
 40
4.0
 10
66.14962292183066
 20
-114.4212673325058
 30
0.0
 10
66.14962292183066
 20
-114.6706922456379
 30
0.0
 10
66.43315428026672
 20
-114.7175455442373
 30
0.0
 10
66.77800833834023
 20
-114.7175455442373
 30
0.0
 10
67.09736868982289
 20
-114.7175455442373
 30
0.0
 10
67.40604924530128
 20
-114.6813720416422
 30
0.0
 10
67.40604924530128
 20
-114.4212673325058
 30
0.0
 10
67.40604924530128
 20
-114.1735649671163
 30
0.0
 10
67.12492945370488
 20
-114.1249891207743
 30
0.0
 10
66.77800833834023
 20
-114.1249891207743
 30
0.0
 10
66.45830347730904
 20
-114.1249891207743
 30
0.0
 10
66.14962292183066
 20
-114.1632296806606
 30
0.0
 10
66.14962292183066
 20
-114.4212673325058
 30
0.0
  0
HATCH
  5
91
330
89
100
AcDbEntity
  8
_U+30EC_U+30A4_U+30E4_U+30FC 1
 62
     7
420
 16777215
100
AcDbHatch
 10
0.0
 20
0.0
 30
0.0
210
0.0
220
0.0
230
1.0
  2
SOLID
 70
     1
 71
     0
 91
        2
 92
        1
 93
        1
 72
     4
 94
        3
 73
     0
 74
     1
 95
       29
 96
       25
 40
0.0
 40
0.0
 40
0.0
 40
0.0
 40
1.0
 40
1.0
 40
1.0
 40
2.0
 40
2.0
 40
2.0
 40
3.0
 40
3.0
 40
3.0
 40
4.0
 40
4.0
 40
4.0
 40
5.0
 40
5.0
 40
5.0
 40
6.0
 40
6.0
 40
6.0
 40
7.0
 40
7.0
 40
7.0
 40
8.0
 40
8.0
 40
8.0
 40
8.0
 10
67.37228730954583
 20
-114.0233588039594
 10
67.581749115049
 20
-114.1315348021963
 10
67.60069714021789
 20
-114.3048231051044
 10
67.60069714021789
 20
-114.4212673325058
 10
67.60069714021789
 20
-114.582153291667
 10
67.55418835116701
 20
-114.7237467161107
 10
67.37228730954583
 20
-114.8188313515036
 10
67.1776394146292
 20
-114.9225287256097
 10
66.94061684524401
 20
-114.9414767507785
 10
66.77800833834023
 20
-114.9414767507785
 10
66.63400334705678
 20
-114.9414767507785
 10
66.38216686708502
 20
-114.9245957829008
 10
66.1833848575861
 20
-114.8188313515036
 10
65.98046873350489
 20
-114.7109998628153
 10
65.95704208420518
 20
-114.5501139036542
 10
65.95704208420518
 20
-114.4212673325058
 10
65.95704208420518
 20
-114.2624484306358
 10
66.0014838159649
 20
-114.1187879489009
 10
66.1833848575861
 20
-114.0233588039594
 10
66.37596569521156
 20
-113.9241400539842
 10
66.60437552588363
 20
-113.9007134046846
 10
66.77800833834023
 20
-113.9007134046846
 10
66.94922958395713
 20
-113.9007134046846
 10
67.17970647192035
 20
-113.9220729966931
 10
67.37228730954583
 20
-114.0233588039594
 97
        0
 97
        0
 92
        1
 93
        1
 72
     4
 94
        3
 73
     0
 74
     1
 95
       17
 96
       13
 40
0.0
 40
0.0
 40
0.0
 40
0.0
 40
1.0
 40
1.0
 40
1.0
 40
2.0
 40
2.0
 40
2.0
 40
3.0
 40
3.0
 40
3.0
 40
4.0
 40
4.0
 40
4.0
 40
4.0
 10
66.14962292183066
 20
-114.4212673325058
 10
66.14962292183066
 20
-114.6706922456379
 10
66.43315428026672
 20
-114.7175455442373
 10
66.77800833834023
 20
-114.7175455442373
 10
67.09736868982289
 20
-114.7175455442373
 10
67.40604924530128
 20
-114.6813720416422
 10
67.40604924530128
 20
-114.4212673325058
 10
67.40604924530128
 20
-114.1735649671163
 10
67.12492945370488
 20
-114.1249891207743
 10
66.77800833834023
 20
-114.1249891207743
 10
66.45830347730904
 20
-114.1249891207743
 10
66.14962292183066
 20
-114.1632296806606
 10
66.14962292183066
 20
-114.4212673325058
 97
        0
 97
        0
 75
     2
 76
     1
 98
        0
  0
ENDBLK
  5
8C
330
89
100
AcDbEntity
  8
0
100
AcDbBlockEnd
  0
BLOCK
  5
95
330
93
100
AcDbEntity
  8
0
100
AcDbBlockBegin
  2
block 6
 70
     0
 10
0.0
 20
0.0
 30
0.0
  3
block 6
  1

  0
SPLINE
  5
97
330
93
100
AcDbEntity
  8
_U+30EC_U+30A4_U+30E4_U+30FC 1
370
     0
100
AcDbSpline
210
0.0
220
0.0
230
1.0
 70
    11
 71
     3
 72
    32
 73
    28
 74
     0
 42
0.0000000001
 43
0.0000000001
 12
1.0
 22
0.0
 32
0.0
 13
1.0
 23
0.0
 33
0.0
 40
0.0
 40
0.0
 40
0.0
 40
0.0
 40
1.0
 40
1.0
 40
1.0
 40
2.0
 40
2.0
 40
2.0
 40
3.0
 40
3.0
 40
3.0
 40
4.0
 40
4.0
 40
4.0
 40
5.0
 40
5.0
 40
5.0
 40
6.0
 40
6.0
 40
6.0
 40
7.0
 40
7.0
 40
7.0
 40
8.0
 40
8.0
 40
8.0
 40
9.0
 40
9.0
 40
9.0
 40
9.0
 10
116.7050211296779
 20
-142.6190293697272
 30
0.0
 10
116.7050211296779
 20
-143.1354491829661
 30
0.0
 10
116.1510497756497
 20
-143.1437174121307
 30
0.0
 10
115.9371093460157
 20
-143.1437174121307
 30
0.0
 10
115.7066324580525
 20
-143.1437174121307
 30
0.0
 10
115.0592990163741
 20
-143.1244248774133
 30
0.0
 10
115.0592990163741
 20
-142.5807888098409
 30
0.0
 10
115.0592990163741
 20
-142.4075005069328
 30
0.0
 10
115.1292344547246
 20
-142.1622097083831
 30
0.0
 10
115.4613416595027
 20
-142.1239691484968
 30
0.0
 10
115.4613416595027
 20
-142.1239691484968
 30
0.0
 10
115.4613416595027
 20
-142.3375650685823
 30
0.0
 10
115.4613416595027
 20
-142.3375650685823
 30
0.0
 10
115.4041530744476
 20
-142.3482448645865
 30
0.0
 10
115.2560139685818
 20
-142.3799397430509
 30
0.0
 10
115.2560139685818
 20
-142.5828558671321
 30
0.0
 10
115.2560139685818
 20
-142.8749999642812
 30
0.0
 10
115.5839870587776
 20
-142.9153075814587
 30
0.0
 10
115.78897024015
 20
-142.9280544347541
 30
0.0
 10
115.7107665726348
 20
-142.8350368566524
 30
0.0
 10
115.6515109302885
 20
-142.7671684755929
 30
0.0
 10
115.6515109302885
 20
-142.5852674339718
 30
0.0
 10
115.6515109302885
 20
-142.4054334496417
 30
0.0
 10
115.7596869285254
 20
-142.1029540660368
 30
0.0
 10
116.1658636862363
 20
-142.1029540660368
 30
0.0
 10
116.485224037719
 20
-142.1029540660368
 30
0.0
 10
116.7050211296779
 20
-142.3017360755357
 30
0.0
 10
116.7050211296779
 20
-142.6190293697272
 30
0.0
  0
SPLINE
  5
98
330
93
100
AcDbEntity
  8
_U+30EC_U+30A4_U+30E4_U+30FC 1
370
     0
100
AcDbSpline
210
0.0
220
0.0
230
1.0
 70
    11
 71
     3
 72
    17
 73
    13
 74
     0
 42
0.0000000001
 43
0.0000000001
 12
1.0
 22
0.0
 32
0.0
 13
1.0
 23
0.0
 33
0.0
 40
0.0
 40
0.0
 40
0.0
 40
0.0
 40
1.0
 40
1.0
 40
1.0
 40
2.0
 40
2.0
 40
2.0
 40
3.0
 40
3.0
 40
3.0
 40
4.0
 40
4.0
 40
4.0
 40
4.0
 10
115.8461588252051
 20
-142.6021484018495
 30
0.0
 10
115.8461588252051
 20
-142.8646646778255
 30
0.0
 10
116.0576876879995
 20
-142.9025607281633
 30
0.0
 10
116.1741319154009
 20
-142.9025607281633
 30
0.0
 10
116.3498317851487
 20
-142.9025607281633
 30
0.0
 10
116.512784801601
 20
-142.8074760927704
 30
0.0
 10
116.512784801601
 20
-142.623507993858
 30
0.0
 10
116.512784801601
 20
-142.5029296518743
 30
0.0
 10
116.4535291592547
 20
-142.3272297821265
 30
0.0
 10
116.1679307435275
 20
-142.3272297821265
 30
0.0
 10
115.9436550274377
 20
-142.3272297821265
 30
0.0
 10
115.8461588252051
 20
-142.4667561492791
 30
0.0
 10
115.8461588252051
 20
-142.6021484018495
 30
0.0
  0
HATCH
  5
99
330
93
100
AcDbEntity
  8
_U+30EC_U+30A4_U+30E4_U+30FC 1
 62
     7
420
 16777215
100
AcDbHatch
 10
0.0
 20
0.0
 30
0.0
210
0.0
220
0.0
230
1.0
  2
SOLID
 70
     1
 71
     0
 91
        2
 92
        1
 93
        1
 72
     4
 94
        3
 73
     0
 74
     1
 95
       32
 96
       28
 40
0.0
 40
0.0
 40
0.0
 40
0.0
 40
1.0
 40
1.0
 40
1.0
 40
2.0
 40
2.0
 40
2.0
 40
3.0
 40
3.0
 40
3.0
 40
4.0
 40
4.0
 40
4.0
 40
5.0
 40
5.0
 40
5.0
 40
6.0
 40
6.0
 40
6.0
 40
7.0
 40
7.0
 40
7.0
 40
8.0
 40
8.0
 40
8.0
 40
9.0
 40
9.0
 40
9.0
 40
9.0
 10
116.7050211296779
 20
-142.6190293697272
 10
116.7050211296779
 20
-143.1354491829661
 10
116.1510497756497
 20
-143.1437174121307
 10
115.9371093460157
 20
-143.1437174121307
 10
115.7066324580525
 20
-143.1437174121307
 10
115.0592990163741
 20
-143.1244248774133
 10
115.0592990163741
 20
-142.5807888098409
 10
115.0592990163741
 20
-142.4075005069328
 10
115.1292344547246
 20
-142.1622097083831
 10
115.4613416595027
 20
-142.1239691484968
 10
115.4613416595027
 20
-142.1239691484968
 10
115.4613416595027
 20
-142.3375650685823
 10
115.4613416595027
 20
-142.3375650685823
 10
115.4041530744476
 20
-142.3482448645865
 10
115.2560139685818
 20
-142.3799397430509
 10
115.2560139685818
 20
-142.5828558671321
 10
115.2560139685818
 20
-142.8749999642812
 10
115.5839870587776
 20
-142.9153075814587
 10
115.78897024015
 20
-142.9280544347541
 10
115.7107665726348
 20
-142.8350368566524
 10
115.6515109302885
 20
-142.7671684755929
 10
115.6515109302885
 20
-142.5852674339718
 10
115.6515109302885
 20
-142.4054334496417
 10
115.7596869285254
 20
-142.1029540660368
 10
116.1658636862363
 20
-142.1029540660368
 10
116.485224037719
 20
-142.1029540660368
 10
116.7050211296779
 20
-142.3017360755357
 10
116.7050211296779
 20
-142.6190293697272
 97
        0
 97
        0
 92
        1
 93
        1
 72
     4
 94
        3
 73
     0
 74
     1
 95
       17
 96
       13
 40
0.0
 40
0.0
 40
0.0
 40
0.0
 40
1.0
 40
1.0
 40
1.0
 40
2.0
 40
2.0
 40
2.0
 40
3.0
 40
3.0
 40
3.0
 40
4.0
 40
4.0
 40
4.0
 40
4.0
 10
115.8461588252051
 20
-142.6021484018495
 10
115.8461588252051
 20
-142.8646646778255
 10
116.0576876879995
 20
-142.9025607281633
 10
116.1741319154009
 20
-142.9025607281633
 10
116.3498317851487
 20
-142.9025607281633
 10
116.512784801601
 20
-142.8074760927704
 10
116.512784801601
 20
-142.623507993858
 10
116.512784801601
 20
-142.5029296518743
 10
116.4535291592547
 20
-142.3272297821265
 10
116.1679307435275
 20
-142.3272297821265
 10
115.9436550274377
 20
-142.3272297821265
 10
115.8461588252051
 20
-142.4667561492791
 10
115.8461588252051
 20
-142.6021484018495
 97
        0
 97
        0
 75
     2
 76
     1
 98
        0
  0
POLYLINE
  5
9A
330
93
100
AcDbEntity
  8
_U+30EC_U+30A4_U+30E4_U+30FC 1
370
     0
100
AcDb2dPolyline
 66
     1
 10
0.0
 20
0.0
 30
0.0
  0
VERTEX
  5
9B
330
9A
100
AcDbEntity
  8
_U+30EC_U+30A4_U+30E4_U+30FC 1
370
     0
100
AcDbVertex
100
AcDb2dVertex
 10
116.6543782260447
 20
-141.8862575600145
 30
0.0
  0
VERTEX
  5
9C
330
9A
100
AcDbEntity
  8
_U+30EC_U+30A4_U+30E4_U+30FC 1
370
     0
100
AcDbVertex
100
AcDb2dVertex
 10
116.402541746073
 20
-141.8862575600145
 30
0.0
  0
VERTEX
  5
9D
330
9A
100
AcDbEntity
  8
_U+30EC_U+30A4_U+30E4_U+30FC 1
370
     0
100
AcDbVertex
100
AcDb2dVertex
 10
116.402541746073
 20
-141.6347655895913
 30
0.0
  0
VERTEX
  5
9E
330
9A
100
AcDbEntity
  8
_U+30EC_U+30A4_U+30E4_U+30FC 1
370
     0
100
AcDbVertex
100
AcDb2dVertex
 10
116.6543782260447
 20
-141.6347655895913
 30
0.0
  0
VERTEX
  5
9F
330
9A
100
AcDbEntity
  8
_U+30EC_U+30A4_U+30E4_U+30FC 1
370
     0
100
AcDbVertex
100
AcDb2dVertex
 10
116.6543782260447
 20
-141.8862575600145
 30
0.0
  0
SEQEND
  5
A0
330
9A
100
AcDbEntity
  8
_U+30EC_U+30A4_U+30E4_U+30FC 1
370
     0
  0
HATCH
  5
A1
330
93
100
AcDbEntity
  8
_U+30EC_U+30A4_U+30E4_U+30FC 1
 62
     7
420
 16777215
100
AcDbHatch
 10
0.0
 20
0.0
 30
0.0
210
0.0
220
0.0
230
1.0
  2
SOLID
 70
     1
 71
     0
 91
        1
 92
        1
 93
        4
 72
     1
 10
116.6543782260447
 20
-141.8862575600145
 11
116.402541746073
 21
-141.8862575600145
 72
     1
 10
116.402541746073
 20
-141.8862575600145
 11
116.402541746073
 21
-141.6347655895913
 72
     1
 10
116.402541746073
 20
-141.6347655895913
 11
116.6543782260447
 21
-141.6347655895913
 72
     1
 10
116.6543782260447
 20
-141.6347655895913
 11
116.6543782260447
 21
-141.8862575600145
 97
        0
 75
     2
 76
     1
 98
        0
  0
SPLINE
  5
A2
330
93
100
AcDbEntity
  8
_U+30EC_U+30A4_U+30E4_U+30FC 1
370
     0
100
AcDbSpline
210
0.0
220
0.0
230
1.0
 70
    11
 71
     3
 72
    53
 73
    49
 74
     0
 42
0.0000000001
 43
0.0000000001
 12
1.0
 22
0.0
 32
0.0
 13
1.0
 23
0.0
 33
0.0
 40
0.0
 40
0.0
 40
0.0
 40
0.0
 40
1.0
 40
1.0
 40
1.0
 40
2.0
 40
2.0
 40
2.0
 40
3.0
 40
3.0
 40
3.0
 40
4.0
 40
4.0
 40
4.0
 40
5.0
 40
5.0
 40
5.0
 40
6.0
 40
6.0
 40
6.0
 40
7.0
 40
7.0
 40
7.0
 40
8.0
 40
8.0
 40
8.0
 40
9.0
 40
9.0
 40
9.0
 40
10.0
 40
10.0
 40
10.0
 40
11.0
 40
11.0
 40
11.0
 40
12.0
 40
12.0
 40
12.0
 40
13.0
 40
13.0
 40
13.0
 40
14.0
 40
14.0
 40
14.0
 40
15.0
 40
15.0
 40
15.0
 40
16.0
 40
16.0
 40
16.0
 40
16.0
 10
116.7050211296779
 20
-140.9171522000138
 30
0.0
 10
116.7050211296779
 20
-140.995355867529
 30
0.0
 10
116.6881401618002
 20
-141.0969861843438
 30
0.0
 10
116.6247504048716
 20
-141.1986165011587
 30
0.0
 10
116.5148518588921
 20
-141.3722493136153
 30
0.0
 10
116.3835937209041
 20
-141.3932643960753
 30
0.0
 10
116.2757622322158
 20
-141.4122124212442
 30
0.0
 10
116.2757622322158
 20
-141.4122124212442
 30
0.0
 10
116.2757622322158
 20
-141.1903482719941
 30
0.0
 10
116.2757622322158
 20
-141.1903482719941
 30
0.0
 10
116.4745442417147
 20
-141.1352267442301
 30
0.0
 10
116.5041720628878
 20
-141.0081027208244
 30
0.0
 10
116.5041720628878
 20
-140.9150851427226
 30
0.0
 10
116.5041720628878
 20
-140.77555877557
 30
0.0
 10
116.4046088033641
 20
-140.623285555122
 30
0.0
 10
116.1720648581098
 20
-140.623285555122
 30
0.0
 10
115.9160942635557
 20
-140.623285555122
 30
0.0
 10
115.8461588252051
 20
-140.803119539452
 30
0.0
 10
115.8461588252051
 20
-140.9236978814357
 30
0.0
 10
115.8461588252051
 20
-140.9553927599
 30
0.0
 10
115.8461588252051
 20
-141.0969861843438
 30
0.0
 10
115.975349905902
 20
-141.1858696478633
 30
0.0
 10
115.975349905902
 20
-141.1858696478633
 30
0.0
 10
115.9564018807331
 20
-141.3612250080625
 30
0.0
 10
115.9564018807331
 20
-141.3612250080625
 30
0.0
 10
115.9564018807331
 20
-141.3612250080625
 30
0.0
 10
115.1099419200072
 20
-141.2406466660787
 30
0.0
 10
115.1099419200072
 20
-141.2406466660787
 30
0.0
 10
115.1099419200072
 20
-141.2406466660787
 30
0.0
 10
115.1099419200072
 20
-140.4623995959608
 30
0.0
 10
115.1099419200072
 20
-140.4623995959608
 30
0.0
 10
115.1099419200072
 20
-140.4623995959608
 30
0.0
 10
115.3045898149239
 20
-140.4623995959608
 30
0.0
 10
115.3045898149239
 20
-140.4623995959608
 30
0.0
 10
115.3045898149239
 20
-140.4623995959608
 30
0.0
 10
115.3045898149239
 20
-141.078038159175
 30
0.0
 10
115.3045898149239
 20
-141.078038159175
 30
0.0
 10
115.3045898149239
 20
-141.078038159175
 30
0.0
 10
115.7276475405125
 20
-141.1434949733947
 30
0.0
 10
115.7276475405125
 20
-141.1434949733947
 30
0.0
 10
115.6938856047571
 20
-141.0821722737572
 30
0.0
 10
115.6535779875797
 20
-140.9994899821112
 30
0.0
 10
115.6535779875797
 20
-140.8813232069672
 30
0.0
 10
115.6535779875797
 20
-140.6274196697043
 30
0.0
 10
115.8399576533317
 20
-140.3903971003191
 30
0.0
 10
116.1531168329409
 20
-140.3903971003191
 30
0.0
 10
116.4704101271324
 20
-140.3903971003191
 30
0.0
 10
116.7050211296779
 20
-140.6146728164088
 30
0.0
 10
116.7050211296779
 20
-140.9171522000138
 30
0.0
  0
HATCH
  5
A3
330
93
100
AcDbEntity
  8
_U+30EC_U+30A4_U+30E4_U+30FC 1
 62
     7
420
 16777215
100
AcDbHatch
 10
0.0
 20
0.0
 30
0.0
210
0.0
220
0.0
230
1.0
  2
SOLID
 70
     1
 71
     0
 91
        1
 92
        1
 93
        1
 72
     4
 94
        3
 73
     0
 74
     1
 95
       53
 96
       49
 40
0.0
 40
0.0
 40
0.0
 40
0.0
 40
1.0
 40
1.0
 40
1.0
 40
2.0
 40
2.0
 40
2.0
 40
3.0
 40
3.0
 40
3.0
 40
4.0
 40
4.0
 40
4.0
 40
5.0
 40
5.0
 40
5.0
 40
6.0
 40
6.0
 40
6.0
 40
7.0
 40
7.0
 40
7.0
 40
8.0
 40
8.0
 40
8.0
 40
9.0
 40
9.0
 40
9.0
 40
10.0
 40
10.0
 40
10.0
 40
11.0
 40
11.0
 40
11.0
 40
12.0
 40
12.0
 40
12.0
 40
13.0
 40
13.0
 40
13.0
 40
14.0
 40
14.0
 40
14.0
 40
15.0
 40
15.0
 40
15.0
 40
16.0
 40
16.0
 40
16.0
 40
16.0
 10
116.7050211296779
 20
-140.9171522000138
 10
116.7050211296779
 20
-140.995355867529
 10
116.6881401618002
 20
-141.0969861843438
 10
116.6247504048716
 20
-141.1986165011587
 10
116.5148518588921
 20
-141.3722493136153
 10
116.3835937209041
 20
-141.3932643960753
 10
116.2757622322158
 20
-141.4122124212442
 10
116.2757622322158
 20
-141.4122124212442
 10
116.2757622322158
 20
-141.1903482719941
 10
116.2757622322158
 20
-141.1903482719941
 10
116.4745442417147
 20
-141.1352267442301
 10
116.5041720628878
 20
-141.0081027208244
 10
116.5041720628878
 20
-140.9150851427226
 10
116.5041720628878
 20
-140.77555877557
 10
116.4046088033641
 20
-140.623285555122
 10
116.1720648581098
 20
-140.623285555122
 10
115.9160942635557
 20
-140.623285555122
 10
115.8461588252051
 20
-140.803119539452
 10
115.8461588252051
 20
-140.9236978814357
 10
115.8461588252051
 20
-140.9553927599
 10
115.8461588252051
 20
-141.0969861843438
 10
115.975349905902
 20
-141.1858696478633
 10
115.975349905902
 20
-141.1858696478633
 10
115.9564018807331
 20
-141.3612250080625
 10
115.9564018807331
 20
-141.3612250080625
 10
115.9564018807331
 20
-141.3612250080625
 10
115.1099419200072
 20
-141.2406466660787
 10
115.1099419200072
 20
-141.2406466660787
 10
115.1099419200072
 20
-141.2406466660787
 10
115.1099419200072
 20
-140.4623995959608
 10
115.1099419200072
 20
-140.4623995959608
 10
115.1099419200072
 20
-140.4623995959608
 10
115.3045898149239
 20
-140.4623995959608
 10
115.3045898149239
 20
-140.4623995959608
 10
115.3045898149239
 20
-140.4623995959608
 10
115.3045898149239
 20
-141.078038159175
 10
115.3045898149239
 20
-141.078038159175
 10
115.3045898149239
 20
-141.078038159175
 10
115.7276475405125
 20
-141.1434949733947
 10
115.7276475405125
 20
-141.1434949733947
 10
115.6938856047571
 20
-141.0821722737572
 10
115.6535779875797
 20
-140.9994899821112
 10
115.6535779875797
 20
-140.8813232069672
 10
115.6535779875797
 20
-140.6274196697043
 10
115.8399576533317
 20
-140.3903971003191
 10
116.1531168329409
 20
-140.3903971003191
 10
116.4704101271324
 20
-140.3903971003191
 10
116.7050211296779
 20
-140.6146728164088
 10
116.7050211296779
 20
-140.9171522000138
 97
        0
 97
        0
 75
     2
 76
     1
 98
        0
  0
ENDBLK
  5
96
330
93
100
AcDbEntity
  8
0
100
AcDbBlockEnd
  0
BLOCK
  5
A6
330
A4
100
AcDbEntity
  8
0
100
AcDbBlockBegin
  2
block 7
 70
     0
 10
0.0
 20
0.0
 30
0.0
  3
block 7
  1

  0
SPLINE
  5
A8
330
A4
100
AcDbEntity
  8
_U+30EC_U+30A4_U+30E4_U+30FC 1
370
     0
100
AcDbSpline
210
0.0
220
0.0
230
1.0
 70
    11
 71
     3
 72
    26
 73
    22
 74
     0
 42
0.0000000001
 43
0.0000000001
 12
1.0
 22
0.0
 32
0.0
 13
1.0
 23
0.0
 33
0.0
 40
0.0
 40
0.0
 40
0.0
 40
0.0
 40
1.0
 40
1.0
 40
1.0
 40
2.0
 40
2.0
 40
2.0
 40
3.0
 40
3.0
 40
3.0
 40
4.0
 40
4.0
 40
4.0
 40
5.0
 40
5.0
 40
5.0
 40
6.0
 40
6.0
 40
6.0
 40
7.0
 40
7.0
 40
7.0
 40
7.0
 10
116.6543782260447
 20
-136.170155130888
 30
0.0
 10
116.6543782260447
 20
-136.170155130888
 30
0.0
 10
115.5502251230222
 20
-136.170155130888
 30
0.0
 10
115.5502251230222
 20
-136.170155130888
 30
0.0
 10
115.5502251230222
 20
-136.170155130888
 30
0.0
 10
115.5502251230222
 20
-136.5001952783749
 30
0.0
 10
115.5502251230222
 20
-136.5001952783749
 30
0.0
 10
115.5502251230222
 20
-136.5001952783749
 30
0.0
 10
115.4020860171564
 20
-136.5001952783749
 30
0.0
 10
115.4020860171564
 20
-136.5001952783749
 30
0.0
 10
115.3872721065699
 20
-136.1680880735969
 30
0.0
 10
115.2243190901175
 20
-136.121579284546
 30
0.0
 10
115.1099419200072
 20
-136.0919514633729
 30
0.0
 10
115.1099419200072
 20
-136.0919514633729
 30
0.0
 10
115.1099419200072
 20
-135.9458794147983
 30
0.0
 10
115.1099419200072
 20
-135.9458794147983
 30
0.0
 10
115.1099419200072
 20
-135.9458794147983
 30
0.0
 10
116.6543782260447
 20
-135.9458794147983
 30
0.0
 10
116.6543782260447
 20
-135.9458794147983
 30
0.0
 10
116.6543782260447
 20
-135.9458794147983
 30
0.0
 10
116.6543782260447
 20
-136.170155130888
 30
0.0
 10
116.6543782260447
 20
-136.170155130888
 30
0.0
  0
HATCH
  5
A9
330
A4
100
AcDbEntity
  8
_U+30EC_U+30A4_U+30E4_U+30FC 1
 62
     7
420
 16777215
100
AcDbHatch
 10
0.0
 20
0.0
 30
0.0
210
0.0
220
0.0
230
1.0
  2
SOLID
 70
     1
 71
     0
 91
        1
 92
        1
 93
        1
 72
     4
 94
        3
 73
     0
 74
     1
 95
       26
 96
       22
 40
0.0
 40
0.0
 40
0.0
 40
0.0
 40
1.0
 40
1.0
 40
1.0
 40
2.0
 40
2.0
 40
2.0
 40
3.0
 40
3.0
 40
3.0
 40
4.0
 40
4.0
 40
4.0
 40
5.0
 40
5.0
 40
5.0
 40
6.0
 40
6.0
 40
6.0
 40
7.0
 40
7.0
 40
7.0
 40
7.0
 10
116.6543782260447
 20
-136.170155130888
 10
116.6543782260447
 20
-136.170155130888
 10
115.5502251230222
 20
-136.170155130888
 10
115.5502251230222
 20
-136.170155130888
 10
115.5502251230222
 20
-136.170155130888
 10
115.5502251230222
 20
-136.5001952783749
 10
115.5502251230222
 20
-136.5001952783749
 10
115.5502251230222
 20
-136.5001952783749
 10
115.4020860171564
 20
-136.5001952783749
 10
115.4020860171564
 20
-136.5001952783749
 10
115.3872721065699
 20
-136.1680880735969
 10
115.2243190901175
 20
-136.121579284546
 10
115.1099419200072
 20
-136.0919514633729
 10
115.1099419200072
 20
-136.0919514633729
 10
115.1099419200072
 20
-135.9458794147983
 10
115.1099419200072
 20
-135.9458794147983
 10
115.1099419200072
 20
-135.9458794147983
 10
116.6543782260447
 20
-135.9458794147983
 10
116.6543782260447
 20
-135.9458794147983
 10
116.6543782260447
 20
-135.9458794147983
 10
116.6543782260447
 20
-136.170155130888
 10
116.6543782260447
 20
-136.170155130888
 97
        0
 97
        0
 75
     2
 76
     1
 98
        0
  0
ENDBLK
  5
A7
330
A4
100
AcDbEntity
  8
0
100
AcDbBlockEnd
  0
ENDSEC
  0
SECTION
  2
ENTITIES
  0
INSERT
  5
42
330
1F
100
AcDbEntity
  8
_U+30EC_U+30A4_U+30E4_U+30FC 1
100
AcDbBlockReference
  2
block 2
 10
0.0
 20
0.0
 30
0.0
  0
ENDSEC
  0
SECTION
  2
OBJECTS
  0
DICTIONARY
  5
C
330
0
100
AcDbDictionary
281
     1
  3
ACAD_GROUP
350
D
  3
ACAD_LAYOUT
350
1A
  3
ACAD_MATERIAL
350
3B
  3
ACAD_MLEADERSTYLE
350
AB
  3
ACAD_MLINESTYLE
350
17
  3
ACAD_PLOTSETTINGS
350
19
  3
ACAD_PLOTSTYLENAME
350
E
  3
ACAD_TABLESTYLE
350
AA
  3
ACAD_VISUALSTYLE
350
2A
  0
SUN
  5
3F
330
29
100
AcDbSun
 90
        1
290
     0
 63
     7
421
 16777215
 40
1.0
291
     1
 91
  2455826
 92
 54000000
292
     0
 70
     2
 71
   256
280
     1
  0
DICTIONARY
  5
D
102
{ACAD_REACTORS
330
C
102
}
330
C
100
AcDbDictionary
281
     1
  0
DICTIONARY
  5
1A
102
{ACAD_REACTORS
330
C
102
}
330
C
100
AcDbDictionary
281
     1
  3
Layout1
350
1E
  3
Layout2
350
26
  3
Model
350
22
  0
DICTIONARY
  5
3B
102
{ACAD_REACTORS
330
C
102
}
330
C
100
AcDbDictionary
281
     1
  3
ByBlock
350
3D
  3
ByLayer
350
3C
  3
Global
350
3E
  0
DICTIONARY
  5
AB
102
{ACAD_REACTORS
330
C
102
}
330
C
100
AcDbDictionary
281
     1
  0
DICTIONARY
  5
17
102
{ACAD_REACTORS
330
C
102
}
330
C
100
AcDbDictionary
281
     1
  3
Standard
350
18
  0
DICTIONARY
  5
19
102
{ACAD_REACTORS
330
C
102
}
330
C
100
AcDbDictionary
281
     1
  0
ACDBDICTIONARYWDFLT
  5
E
102
{ACAD_REACTORS
330
C
102
}
330
C
100
AcDbDictionary
281
     1
  3
Normal
350
F
100
AcDbDictionaryWithDefault
340
F
  0
DICTIONARY
  5
AA
102
{ACAD_REACTORS
330
C
102
}
330
C
100
AcDbDictionary
281
     1
  0
DICTIONARY
  5
2A
102
{ACAD_REACTORS
330
C
102
}
330
C
100
AcDbDictionary
281
     1
  3
2dWireframe
350
2F
  3
3D Hidden
350
31
  3
3dWireframe
350
30
  3
Basic
350
32
  3
Brighten
350
36
  3
ColorChange
350
3A
  3
Conceptual
350
34
  3
Dim
350
35
  3
Facepattern
350
39
  3
Flat
350
2B
  3
FlatWithEdges
350
2C
  3
Gouraud
350
2D
  3
GouraudWithEdges
350
2E
  3
Linepattern
350
38
  3
Realistic
350
33
  3
Thicken
350
37
  0
LAYOUT
  5
1E
102
{ACAD_REACTORS
330
1A
102
}
330
1A
100
AcDbPlotSettings
  1

  2
none_device
  4

  6

 40
0.0
 41
0.0
 42
0.0
 43
0.0
 44
0.0
 45
0.0
 46
0.0
 47
0.0
 48
0.0
 49
0.0
140
0.0
141
0.0
142
1.0
143
1.0
 70
   688
 72
     0
 73
     0
 74
     5
  7

 75
    16
 76
     0
 77
     2
 78
   300
147
1.0
148
0.0
149
0.0
100
AcDbLayout
  1
Layout1
 70
     1
 71
     1
 10
0.0
 20
0.0
 11
12.0
 21
9.0
 12
0.0
 22
0.0
 32
0.0
 14
1.000000000000000E+20
 24
1.000000000000000E+20
 34
1.000000000000000E+20
 15
-1.000000000000000E+20
 25
-1.000000000000000E+20
 35
-1.000000000000000E+20
146
0.0
 13
0.0
 23
0.0
 33
0.0
 16
1.0
 26
0.0
 36
0.0
 17
0.0
 27
1.0
 37
0.0
 76
     0
330
1B
  0
LAYOUT
  5
26
102
{ACAD_REACTORS
330
1A
102
}
330
1A
100
AcDbPlotSettings
  1

  2
none_device
  4

  6

 40
0.0
 41
0.0
 42
0.0
 43
0.0
 44
0.0
 45
0.0
 46
0.0
 47
0.0
 48
0.0
 49
0.0
140
0.0
141
0.0
142
1.0
143
1.0
 70
   688
 72
     0
 73
     0
 74
     5
  7

 75
    16
 76
     0
 77
     2
 78
   300
147
1.0
148
0.0
149
0.0
100
AcDbLayout
  1
Layout2
 70
     1
 71
     2
 10
0.0
 20
0.0
 11
0.0
 21
0.0
 12
0.0
 22
0.0
 32
0.0
 14
0.0
 24
0.0
 34
0.0
 15
0.0
 25
0.0
 35
0.0
146
0.0
 13
0.0
 23
0.0
 33
0.0
 16
1.0
 26
0.0
 36
0.0
 17
0.0
 27
1.0
 37
0.0
 76
     0
330
23
  0
LAYOUT
  5
22
102
{ACAD_REACTORS
330
1A
102
}
330
1A
100
AcDbPlotSettings
  1

  2
none_device
  4

  6

 40
0.0
 41
0.0
 42
0.0
 43
0.0
 44
0.0
 45
0.0
 46
0.0
 47
0.0
 48
0.0
 49
0.0
140
0.0
141
0.0
142
1.0
143
1.0
 70
  1712
 72
     0
 73
     0
 74
     0
  7

 75
     0
 76
     0
 77
     2
 78
   300
147
1.0
148
0.0
149
0.0
100
AcDbLayout
  1
Model
 70
     1
 71
     0
 10
0.0
 20
0.0
 11
12.0
 21
9.0
 12
0.0
 22
0.0
 32
0.0
 14
1.000000000000000E+20
 24
1.000000000000000E+20
 34
1.000000000000000E+20
 15
-1.000000000000000E+20
 25
-1.000000000000000E+20
 35
-1.000000000000000E+20
146
0.0
 13
0.0
 23
0.0
 33
0.0
 16
1.0
 26
0.0
 36
0.0
 17
0.0
 27
1.0
 37
0.0
 76
     0
330
1F
331
29
  0
MATERIAL
  5
3D
102
{ACAD_REACTORS
330
3B
102
}
330
3B
100
AcDbMaterial
  1
ByBlock
 72
     1
 94
      127
  0
MATERIAL
  5
3C
102
{ACAD_REACTORS
330
3B
102
}
330
3B
100
AcDbMaterial
  1
ByLayer
 72
     1
 94
      127
  0
MATERIAL
  5
3E
102
{ACAD_REACTORS
330
3B
102
}
330
3B
100
AcDbMaterial
  1
Global
 72
     1
 94
      127
  0
MLINESTYLE
  5
18
102
{ACAD_REACTORS
330
17
102
}
330
17
100
AcDbMlineStyle
  2
Standard
 70
     0
  3

 62
   256
 51
90.0
 52
90.0
 71
     2
 49
0.5
 62
   256
  6
BYLAYER
 49
-0.5
 62
   256
  6
BYLAYER
  0
ACDBPLACEHOLDER
  5
F
102
{ACAD_REACTORS
330
E
102
}
330
E
  0
VISUALSTYLE
  5
2F
102
{ACAD_REACTORS
330
2A
102
}
330
2A
100
AcDbVisualStyle
  2
2dWireframe
 70
     4
177
     2
291
     0
 71
     0
176
     1
 72
     2
176
     1
 73
     0
176
     1
 90
        0
176
     1
 40
-0.6
176
     1
 41
-30.0
176
     1
 62
     5
 63
     7
421
 16777215
176
     1
 74
     1
176
     1
 91
        4
176
     1
 64
     7
176
     1
 65
   257
176
     1
 75
     1
176
     1
175
     1
176
     1
 42
1.0
176
     1
 92
        0
176
     1
 66
   257
176
     1
 43
1.0
176
     1
 76
     1
176
     1
 77
     6
176
     1
 78
     2
176
     1
 67
     7
176
     1
 79
     5
176
     1
170
     0
176
     1
171
     0
176
     1
290
     0
176
     1
 93
        1
176
     1
 44
0.0
176
     1
173
     0
176
     1
  0
VISUALSTYLE
  5
31
102
{ACAD_REACTORS
330
2A
102
}
330
2A
100
AcDbVisualStyle
  2
3D Hidden
 70
     6
177
     2
291
     0
 71
     1
176
     1
 72
     2
176
     1
 73
     2
176
     1
 90
        0
176
     1
 40
-0.6
176
     1
 41
-30.0
176
     1
 62
     5
 63
     7
421
 16777215
176
     1
 74
     2
176
     1
 91
        2
176
     1
 64
     7
176
     1
 65
   257
176
     1
 75
     2
176
     1
175
     1
176
     1
 42
40.0
176
     1
 92
        0
176
     1
 66
   257
176
     1
 43
1.0
176
     1
 76
     1
176
     1
 77
     6
176
     1
 78
     2
176
     1
 67
     7
176
     1
 79
     3
176
     1
170
     0
176
     1
171
     0
176
     1
290
     0
176
     1
 93
        1
176
     1
 44
0.0
176
     1
173
     0
176
     1
  0
VISUALSTYLE
  5
30
102
{ACAD_REACTORS
330
2A
102
}
330
2A
100
AcDbVisualStyle
  2
3dWireframe
 70
     5
177
     2
291
     0
 71
     0
176
     1
 72
     2
176
     1
 73
     0
176
     1
 90
        0
176
     1
 40
-0.6
176
     1
 41
-30.0
176
     1
 62
     5
 63
     7
421
 16777215
176
     1
 74
     1
176
     1
 91
        4
176
     1
 64
     7
176
     1
 65
   257
176
     1
 75
     1
176
     1
175
     1
176
     1
 42
1.0
176
     1
 92
        0
176
     1
 66
   257
176
     1
 43
1.0
176
     1
 76
     1
176
     1
 77
     6
176
     1
 78
     2
176
     1
 67
     7
176
     1
 79
     5
176
     1
170
     0
176
     1
171
     0
176
     1
290
     0
176
     1
 93
        1
176
     1
 44
0.0
176
     1
173
     0
176
     1
  0
VISUALSTYLE
  5
32
102
{ACAD_REACTORS
330
2A
102
}
330
2A
100
AcDbVisualStyle
  2
Basic
 70
     7
177
     2
291
     1
 71
     1
176
     1
 72
     0
176
     1
 73
     1
176
     1
 90
        0
176
     1
 40
-0.6
176
     1
 41
-30.0
176
     1
 62
     5
 63
     7
421
 16777215
176
     1
 74
     0
176
     1
 91
        4
176
     1
 64
     7
176
     1
 65
   257
176
     1
 75
     1
176
     1
175
     1
176
     1
 42
1.0
176
     1
 92
        8
176
     1
 66
     7
176
     1
 43
1.0
176
     1
 76
     1
176
     1
 77
     6
176
     1
 78
     2
176
     1
 67
     7
176
     1
 79
     5
176
     1
170
     0
176
     1
171
     0
176
     1
290
     0
176
     1
 93
        1
176
     1
 44
0.0
176
     1
173
     0
176
     1
  0
VISUALSTYLE
  5
36
102
{ACAD_REACTORS
330
2A
102
}
330
2A
100
AcDbVisualStyle
  2
Brighten
 70
    12
177
     2
291
     1
 71
     2
176
     1
 72
     2
176
     1
 73
     0
176
     1
 90
        0
176
     1
 40
-0.6
176
     1
 41
-30.0
176
     1
 62
     5
 63
     7
421
 16777215
176
     1
 74
     1
176
     1
 91
        4
176
     1
 64
     7
176
     1
 65
   257
176
     1
 75
     1
176
     1
175
     1
176
     1
 42
1.0
176
     1
 92
        8
176
     1
 66
     7
176
     1
 43
1.0
176
     1
 76
     1
176
     1
 77
     6
176
     1
 78
     2
176
     1
 67
     7
176
     1
 79
     5
176
     1
170
     0
176
     1
171
     0
176
     1
290
     0
176
     1
 93
        1
176
     1
 44
50.0
176
     1
173
     0
176
     1
  0
VISUALSTYLE
  5
3A
102
{ACAD_REACTORS
330
2A
102
}
330
2A
100
AcDbVisualStyle
  2
ColorChange
 70
    16
177
     2
291
     1
 71
     2
176
     1
 72
     2
176
     1
 73
     3
176
     1
 90
        0
176
     1
 40
-0.6
176
     1
 41
-30.0
176
     1
 62
     5
 63
     8
421
  8421504
176
     1
 74
     1
176
     1
 91
        4
176
     1
 64
     7
176
     1
 65
   257
176
     1
 75
     1
176
     1
175
     1
176
     1
 42
1.0
176
     1
 92
        8
176
     1
 66
     8
424
  8421504
176
     1
 43
1.0
176
     1
 76
     1
176
     1
 77
     6
176
     1
 78
     2
176
     1
 67
     7
176
     1
 79
     5
176
     1
170
     0
176
     1
171
     0
176
     1
290
     0
176
     1
 93
        1
176
     1
 44
0.0
176
     1
173
     0
176
     1
  0
VISUALSTYLE
  5
34
102
{ACAD_REACTORS
330
2A
102
}
330
2A
100
AcDbVisualStyle
  2
Conceptual
 70
     9
177
     2
291
     0
 71
     3
176
     1
 72
     2
176
     1
 73
     0
176
     1
 90
        0
176
     1
 40
-0.6
176
     1
 41
-30.0
176
     1
 62
     5
 63
     7
421
 16777215
176
     1
 74
     2
176
     1
 91
        2
176
     1
 64
     7
176
     1
 65
   257
176
     1
 75
     1
176
     1
175
     1
176
     1
 42
40.0
176
     1
 92
        8
176
     1
 66
     7
176
     1
 43
1.0
176
     1
 76
     1
176
     1
 77
     6
176
     1
 78
     2
176
     1
 67
     7
176
     1
 79
     3
176
     1
170
     0
176
     1
171
     0
176
     1
290
     0
176
     1
 93
        1
176
     1
 44
0.0
176
     1
173
     0
176
     1
  0
VISUALSTYLE
  5
35
102
{ACAD_REACTORS
330
2A
102
}
330
2A
100
AcDbVisualStyle
  2
Dim
 70
    11
177
     2
291
     1
 71
     2
176
     1
 72
     2
176
     1
 73
     0
176
     1
 90
        0
176
     1
 40
-0.6
176
     1
 41
-30.0
176
     1
 62
     5
 63
     7
421
 16777215
176
     1
 74
     1
176
     1
 91
        4
176
     1
 64
     7
176
     1
 65
   257
176
     1
 75
     1
176
     1
175
     1
176
     1
 42
1.0
176
     1
 92
        8
176
     1
 66
     7
176
     1
 43
1.0
176
     1
 76
     1
176
     1
 77
     6
176
     1
 78
     2
176
     1
 67
     7
176
     1
 79
     5
176
     1
170
     0
176
     1
171
     0
176
     1
290
     0
176
     1
 93
        1
176
     1
 44
-50.0
176
     1
173
     0
176
     1
  0
VISUALSTYLE
  5
39
102
{ACAD_REACTORS
330
2A
102
}
330
2A
100
AcDbVisualStyle
  2
Facepattern
 70
    15
177
     2
291
     1
 71
     2
176
     1
 72
     2
176
     1
 73
     0
176
     1
 90
        0
176
     1
 40
-0.6
176
     1
 41
-30.0
176
     1
 62
     5
 63
     7
421
 16777215
176
     1
 74
     1
176
     1
 91
        4
176
     1
 64
     7
176
     1
 65
   257
176
     1
 75
     1
176
     1
175
     1
176
     1
 42
1.0
176
     1
 92
        8
176
     1
 66
     7
176
     1
 43
1.0
176
     1
 76
     1
176
     1
 77
     6
176
     1
 78
     2
176
     1
 67
     7
176
     1
 79
     5
176
     1
170
     0
176
     1
171
     0
176
     1
290
     0
176
     1
 93
        1
176
     1
 44
0.0
176
     1
173
     0
176
     1
  0
VISUALSTYLE
  5
2B
102
{ACAD_REACTORS
330
2A
102
}
330
2A
100
AcDbVisualStyle
  2
Flat
 70
     0
177
     2
291
     1
 71
     2
176
     1
 72
     1
176
     1
 73
     1
176
     1
 90
        2
176
     1
 40
-0.6
176
     1
 41
30.0
176
     1
 62
     5
 63
     7
421
 16777215
176
     1
 74
     0
176
     1
 91
        4
176
     1
 64
     7
176
     1
 65
   257
176
     1
 75
     1
176
     1
175
     1
176
     1
 42
1.0
176
     1
 92
        8
176
     1
 66
     7
176
     1
 43
1.0
176
     1
 76
     1
176
     1
 77
     6
176
     1
 78
     2
176
     1
 67
     7
176
     1
 79
     5
176
     1
170
     0
176
     1
171
     0
176
     1
290
     0
176
     1
 93
       13
176
     1
 44
0.0
176
     1
173
     0
176
     1
  0
VISUALSTYLE
  5
2C
102
{ACAD_REACTORS
330
2A
102
}
330
2A
100
AcDbVisualStyle
  2
FlatWithEdges
 70
     1
177
     2
291
     1
 71
     2
176
     1
 72
     1
176
     1
 73
     1
176
     1
 90
        2
176
     1
 40
-0.6
176
     1
 41
30.0
176
     1
 62
     5
 63
     7
421
 16777215
176
     1
 74
     1
176
     1
 91
        4
176
     1
 64
     7
176
     1
 65
   257
176
     1
 75
     1
176
     1
175
     1
176
     1
 42
1.0
176
     1
 92
        0
176
     1
 66
   257
176
     1
 43
1.0
176
     1
 76
     1
176
     1
 77
     6
176
     1
 78
     2
176
     1
 67
     7
176
     1
 79
     5
176
     1
170
     0
176
     1
171
     0
176
     1
290
     0
176
     1
 93
       13
176
     1
 44
0.0
176
     1
173
     0
176
     1
  0
VISUALSTYLE
  5
2D
102
{ACAD_REACTORS
330
2A
102
}
330
2A
100
AcDbVisualStyle
  2
Gouraud
 70
     2
177
     2
291
     1
 71
     2
176
     1
 72
     2
176
     1
 73
     1
176
     1
 90
        2
176
     1
 40
-0.6
176
     1
 41
30.0
176
     1
 62
     5
 63
     7
421
 16777215
176
     1
 74
     0
176
     1
 91
        4
176
     1
 64
     7
176
     1
 65
   257
176
     1
 75
     1
176
     1
175
     1
176
     1
 42
1.0
176
     1
 92
        0
176
     1
 66
     7
176
     1
 43
1.0
176
     1
 76
     1
176
     1
 77
     6
176
     1
 78
     2
176
     1
 67
     7
176
     1
 79
     5
176
     1
170
     0
176
     1
171
     0
176
     1
290
     0
176
     1
 93
       13
176
     1
 44
0.0
176
     1
173
     0
176
     1
  0
VISUALSTYLE
  5
2E
102
{ACAD_REACTORS
330
2A
102
}
330
2A
100
AcDbVisualStyle
  2
GouraudWithEdges
 70
     3
177
     2
291
     1
 71
     2
176
     1
 72
     2
176
     1
 73
     1
176
     1
 90
        2
176
     1
 40
-0.6
176
     1
 41
30.0
176
     1
 62
     5
 63
     7
421
 16777215
176
     1
 74
     1
176
     1
 91
        4
176
     1
 64
     7
176
     1
 65
   257
176
     1
 75
     1
176
     1
175
     1
176
     1
 42
1.0
176
     1
 92
        0
176
     1
 66
   257
176
     1
 43
1.0
176
     1
 76
     1
176
     1
 77
     6
176
     1
 78
     2
176
     1
 67
     7
176
     1
 79
     5
176
     1
170
     0
176
     1
171
     0
176
     1
290
     0
176
     1
 93
       13
176
     1
 44
0.0
176
     1
173
     0
176
     1
  0
VISUALSTYLE
  5
38
102
{ACAD_REACTORS
330
2A
102
}
330
2A
100
AcDbVisualStyle
  2
Linepattern
 70
    14
177
     2
291
     1
 71
     2
176
     1
 72
     2
176
     1
 73
     0
176
     1
 90
        0
176
     1
 40
-0.6
176
     1
 41
-30.0
176
     1
 62
     5
 63
     7
421
 16777215
176
     1
 74
     1
176
     1
 91
        4
176
     1
 64
     7
176
     1
 65
   257
176
     1
 75
     7
176
     1
175
     7
176
     1
 42
1.0
176
     1
 92
        8
176
     1
 66
     7
176
     1
 43
1.0
176
     1
 76
     1
176
     1
 77
     6
176
     1
 78
     2
176
     1
 67
     7
176
     1
 79
     5
176
     1
170
     0
176
     1
171
     0
176
     1
290
     0
176
     1
 93
        1
176
     1
 44
0.0
176
     1
173
     0
176
     1
  0
VISUALSTYLE
  5
33
102
{ACAD_REACTORS
330
2A
102
}
330
2A
100
AcDbVisualStyle
  2
Realistic
 70
     8
177
     2
291
     0
 71
     2
176
     1
 72
     2
176
     1
 73
     0
176
     1
 90
        0
176
     1
 40
-0.6
176
     1
 41
-30.0
176
     1
 62
     5
 63
     7
421
 16777215
176
     1
 74
     1
176
     1
 91
        0
176
     1
 64
     7
176
     1
 65
   257
176
     1
 75
     1
176
     1
175
     1
176
     1
 42
1.0
176
     1
 92
        8
176
     1
 66
     8
424
  7895160
176
     1
 43
1.0
176
     1
 76
     1
176
     1
 77
     6
176
     1
 78
     2
176
     1
 67
     7
176
     1
 79
     5
176
     1
170
     0
176
     1
171
     0
176
     1
290
     0
176
     1
 93
       13
176
     1
 44
0.0
176
     1
173
     0
176
     1
  0
VISUALSTYLE
  5
37
102
{ACAD_REACTORS
330
2A
102
}
330
2A
100
AcDbVisualStyle
  2
Thicken
 70
    13
177
     2
291
     1
 71
     2
176
     1
 72
     2
176
     1
 73
     0
176
     1
 90
        0
176
     1
 40
-0.6
176
     1
 41
-30.0
176
     1
 62
     5
 63
     7
421
 16777215
176
     1
 74
     1
176
     1
 91
        4
176
     1
 64
     7
176
     1
 65
   257
176
     1
 75
     1
176
     1
175
     1
176
     1
 42
1.0
176
     1
 92
       12
176
     1
 66
     7
176
     1
 43
1.0
176
     1
 76
     1
176
     1
 77
     6
176
     1
 78
     2
176
     1
 67
     7
176
     1
 79
     5
176
     1
170
     0
176
     1
171
     0
176
     1
290
     0
176
     1
 93
        1
176
     1
 44
0.0
176
     1
173
     0
176
     1
  0
ENDSEC
  0
EOF
