  0
SECTION
  2
HEADER
  9
$ACADVER
  1
AC1024
  9
$ACADMAINTVER
 70
     6
  9
$DWGCODEPAGE
  3
UNDEFINED
  9
$INSBASE
 10
0.0
 20
0.0
 30
0.0
  9
$EXTMIN
 10
1.000000000000000E+20
 20
1.000000000000000E+20
 30
1.000000000000000E+20
  9
$EXTMAX
 10
-1.000000000000000E+20
 20
-1.000000000000000E+20
 30
-1.000000000000000E+20
  9
$LIMMIN
 10
0.0
 20
0.0
  9
$LIMMAX
 10
12.0
 20
9.0
  9
$ORTHOMODE
 70
     0
  9
$REGENMODE
 70
     1
  9
$FILLMODE
 70
     1
  9
$QTEXTMODE
 70
     0
  9
$MIRRTEXT
 70
     1
  9
$LTSCALE
 40
1.0
  9
$ATTMODE
 70
     1
  9
$TEXTSIZE
 40
0.2
  9
$TRACEWID
 40
0.05
  9
$TEXTSTYLE
  7
Standard
  9
$CLAYER
  8
0
  9
$CELTYPE
  6
ByLayer
  9
$CECOLOR
 62
   256
  9
$CELTSCALE
 40
1.0
  9
$DISPSILH
 70
     0
  9
$DIMSCALE
 40
1.0
  9
$DIMASZ
 40
0.18
  9
$DIMEXO
 40
0.0625
  9
$DIMDLI
 40
0.38
  9
$DIMRND
 40
0.0
  9
$DIMDLE
 40
0.0
  9
$DIMEXE
 40
0.18
  9
$DIMTP
 40
0.0
  9
$DIMTM
 40
0.0
  9
$DIMTXT
 40
0.18
  9
$DIMCEN
 40
0.09
  9
$DIMTSZ
 40
0.0
  9
$DIMTOL
 70
     0
  9
$DIMLIM
 70
     0
  9
$DIMTIH
 70
     1
  9
$DIMTOH
 70
     1
  9
$DIMSE1
 70
     0
  9
$DIMSE2
 70
     0
  9
$DIMTAD
 70
     0
  9
$DIMZIN
 70
     0
  9
$DIMBLK
  1

  9
$DIMASO
 70
     1
  9
$DIMSHO
 70
     1
  9
$DIMPOST
  1

  9
$DIMAPOST
  1

  9
$DIMALT
 70
     0
  9
$DIMALTD
 70
     2
  9
$DIMALTF
 40
25.4
  9
$DIMLFAC
 40
1.0
  9
$DIMTOFL
 70
     0
  9
$DIMTVP
 40
0.0
  9
$DIMTIX
 70
     0
  9
$DIMSOXD
 70
     0
  9
$DIMSAH
 70
     0
  9
$DIMBLK1
  1

  9
$DIMBLK2
  1

  9
$DIMSTYLE
  2
Standard
  9
$DIMCLRD
 70
     0
  9
$DIMCLRE
 70
     0
  9
$DIMCLRT
 70
     0
  9
$DIMTFAC
 40
1.0
  9
$DIMGAP
 40
0.09
  9
$DIMJUST
 70
     0
  9
$DIMSD1
 70
     0
  9
$DIMSD2
 70
     0
  9
$DIMTOLJ
 70
     1
  9
$DIMTZIN
 70
     0
  9
$DIMALTZ
 70
     0
  9
$DIMALTTZ
 70
     0
  9
$DIMUPT
 70
     0
  9
$DIMDEC
 70
     4
  9
$DIMTDEC
 70
     4
  9
$DIMALTU
 70
     2
  9
$DIMALTTD
 70
     2
  9
$DIMTXSTY
  7
Standard
  9
$DIMAUNIT
 70
     0
  9
$DIMADEC
 70
     0
  9
$DIMALTRND
 40
0.0
  9
$DIMAZIN
 70
     0
  9
$DIMDSEP
 70
    46
  9
$DIMATFIT
 70
     3
  9
$DIMFRAC
 70
     0
  9
$DIMLDRBLK
  1

  9
$DIMLUNIT
 70
     2
  9
$DIMLWD
 70
    -2
  9
$DIMLWE
 70
    -2
  9
$DIMTMOVE
 70
     0
  9
$DIMFXL
 40
1.0
  9
$DIMFXLON
 70
     0
  9
$DIMJOGANG
 40
0.7853981633974483
  9
$DIMTFILL
 70
     0
  9
$DIMTFILLCLR
 70
     0
  9
$DIMARCSYM
 70
     0
  9
$DIMLTYPE
  6

  9
$DIMLTEX1
  6

  9
$DIMLTEX2
  6

  9
$DIMTXTDIRECTION
 70
     0
  9
$LUNITS
 70
     2
  9
$LUPREC
 70
     4
  9
$SKETCHINC
 40
0.1
  9
$FILLETRAD
 40
0.5
  9
$AUNITS
 70
     0
  9
$AUPREC
 70
     0
  9
$MENU
  1
.
  9
$ELEVATION
 40
0.0
  9
$PELEVATION
 40
0.0
  9
$THICKNESS
 40
0.0
  9
$LIMCHECK
 70
     0
  9
$CHAMFERA
 40
0.5
  9
$CHAMFERB
 40
0.5
  9
$CHAMFERC
 40
1.0
  9
$CHAMFERD
 40
0.0
  9
$SKPOLY
 70
     0
  9
$TDCREATE
 40
2457917.583356482
  9
$TDUCREATE
 40
2457917.208356482
  9
$TDUPDATE
 40
2457917.583368044
  9
$TDUUPDATE
 40
2457917.208368056
  9
$TDINDWG
 40
0.0000000116
  9
$TDUSRTIMER
 40
0.0000000116
  9
$USRTIMER
 70
     1
  9
$ANGBASE
 50
0.0
  9
$ANGDIR
 70
     0
  9
$PDMODE
 70
     0
  9
$PDSIZE
 40
0.0
  9
$PLINEWID
 40
0.0
  9
$SPLFRAME
 70
     0
  9
$SPLINETYPE
 70
     6
  9
$SPLINESEGS
 70
     8
  9
$HANDSEED
  5
AD
  9
$SURFTAB1
 70
     6
  9
$SURFTAB2
 70
     6
  9
$SURFTYPE
 70
     6
  9
$SURFU
 70
     6
  9
$SURFV
 70
     6
  9
$UCSBASE
  2

  9
$UCSNAME
  2

  9
$UCSORG
 10
0.0
 20
0.0
 30
0.0
  9
$UCSXDIR
 10
1.0
 20
0.0
 30
0.0
  9
$UCSYDIR
 10
0.0
 20
1.0
 30
0.0
  9
$UCSORTHOREF
  2

  9
$UCSORTHOVIEW
 70
     0
  9
$UCSORGTOP
 10
0.0
 20
0.0
 30
0.0
  9
$UCSORGBOTTOM
 10
0.0
 20
0.0
 30
0.0
  9
$UCSORGLEFT
 10
0.0
 20
0.0
 30
0.0
  9
$UCSORGRIGHT
 10
0.0
 20
0.0
 30
0.0
  9
$UCSORGFRONT
 10
0.0
 20
0.0
 30
0.0
  9
$UCSORGBACK
 10
0.0
 20
0.0
 30
0.0
  9
$PUCSBASE
  2

  9
$PUCSNAME
  2

  9
$PUCSORG
 10
0.0
 20
0.0
 30
0.0
  9
$PUCSXDIR
 10
1.0
 20
0.0
 30
0.0
  9
$PUCSYDIR
 10
0.0
 20
1.0
 30
0.0
  9
$PUCSORTHOREF
  2

  9
$PUCSORTHOVIEW
 70
     0
  9
$PUCSORGTOP
 10
0.0
 20
0.0
 30
0.0
  9
$PUCSORGBOTTOM
 10
0.0
 20
0.0
 30
0.0
  9
$PUCSORGLEFT
 10
0.0
 20
0.0
 30
0.0
  9
$PUCSORGRIGHT
 10
0.0
 20
0.0
 30
0.0
  9
$PUCSORGFRONT
 10
0.0
 20
0.0
 30
0.0
  9
$PUCSORGBACK
 10
0.0
 20
0.0
 30
0.0
  9
$USERI1
 70
     0
  9
$USERI2
 70
     0
  9
$USERI3
 70
     0
  9
$USERI4
 70
     0
  9
$USERI5
 70
     0
  9
$USERR1
 40
0.0
  9
$USERR2
 40
0.0
  9
$USERR3
 40
0.0
  9
$USERR4
 40
0.0
  9
$USERR5
 40
0.0
  9
$WORLDVIEW
 70
     1
  9
$SHADEDGE
 70
     3
  9
$SHADEDIF
 70
    70
  9
$TILEMODE
 70
     1
  9
$MAXACTVP
 70
    64
  9
$PINSBASE
 10
0.0
 20
0.0
 30
0.0
  9
$PLIMCHECK
 70
     0
  9
$PEXTMIN
 10
1.000000000000000E+20
 20
1.000000000000000E+20
 30
1.000000000000000E+20
  9
$PEXTMAX
 10
-1.000000000000000E+20
 20
-1.000000000000000E+20
 30
-1.000000000000000E+20
  9
$PLIMMIN
 10
0.0
 20
0.0
  9
$PLIMMAX
 10
12.0
 20
9.0
  9
$UNITMODE
 70
     0
  9
$VISRETAIN
 70
     1
  9
$PLINEGEN
 70
     0
  9
$PSLTSCALE
 70
     1
  9
$TREEDEPTH
 70
  3020
  9
$CMLSTYLE
  2
Standard
  9
$CMLJUST
 70
     0
  9
$CMLSCALE
 40
1.0
  9
$PROXYGRAPHICS
 70
     1
  9
$MEASUREMENT
 70
     0
  9
$CELWEIGHT
370
    -1
  9
$ENDCAPS
280
     0
  9
$JOINSTYLE
280
     0
  9
$LWDISPLAY
290
     1
  9
$INSUNITS
 70
     1
  9
$HYPERLINKBASE
  1

  9
$STYLESHEET
  1

  9
$XEDIT
290
     1
  9
$CEPSNTYPE
380
     0
  9
$PSTYLEMODE
290
     1
  9
$FINGERPRINTGUID
  2
{60645F14-2CC9-AB9D-8323-0A070438471D}
  9
$VERSIONGUID
  2
{FAEB1C32-E019-11D5-929B-00C0DF256EC4}
  9
$EXTNAMES
290
     1
  9
$PSVPSCALE
 40
0.0
  9
$OLESTARTUP
290
     0
  9
$SORTENTS
280
   127
  9
$INDEXCTL
280
     0
  9
$HIDETEXT
280
     1
  9
$XCLIPFRAME
280
     2
  9
$HALOGAP
280
     0
  9
$OBSCOLOR
 70
   257
  9
$OBSLTYPE
280
     0
  9
$INTERSECTIONDISPLAY
280
     0
  9
$INTERSECTIONCOLOR
 70
   257
  9
$DIMASSOC
280
     2
  9
$PROJECTNAME
  1

  9
$CAMERADISPLAY
290
     0
  9
$LENSLENGTH
 40
50.0
  9
$CAMERAHEIGHT
 40
0.0
  9
$STEPSPERSEC
 40
2.0
  9
$STEPSIZE
 40
6.0
  9
$3DDWFPREC
 40
2.0
  9
$PSOLWIDTH
 40
0.25
  9
$PSOLHEIGHT
 40
4.0
  9
$LOFTANG1
 40
1.570796326794897
  9
$LOFTANG2
 40
1.570796326794897
  9
$LOFTMAG1
 40
0.0
  9
$LOFTMAG2
 40
0.0
  9
$LOFTPARAM
 70
     7
  9
$LOFTNORMALS
280
     1
  9
$LATITUDE
 40
37.795
  9
$LONGITUDE
 40
-122.394
  9
$NORTHDIRECTION
 40
0.0
  9
$TIMEZONE
 70
 -8000
  9
$LIGHTGLYPHDISPLAY
280
     1
  9
$TILEMODELIGHTSYNCH
280
     1
  9
$CMATERIAL
347
3C
  9
$SOLIDHIST
280
     1
  9
$SHOWHIST
280
     1
  9
$DWFFRAME
280
     2
  9
$DGNFRAME
280
     2
  9
$REALWORLDSCALE
290
     1
  9
$INTERFERECOLOR
 62
   256
  9
$CSHADOW
280
     0
  9
$SHADOWPLANELOCATION
 40
0.0
  0
ENDSEC
  0
SECTION
  2
CLASSES
  0
CLASS
  1
ACDBDICTIONARYWDFLT
  2
AcDbDictionaryWithDefault
  3
ObjectDBX Classes
 90
        0
 91
        4
280
     0
281
     0
  0
CLASS
  1
VISUALSTYLE
  2
AcDbVisualStyle
  3
ObjectDBX Classes
 90
     4095
 91
        4
280
     0
281
     0
  0
CLASS
  1
MATERIAL
  2
AcDbMaterial
  3
ObjectDBX Classes
 90
     1153
 91
        4
280
     0
281
     0
  0
CLASS
  1
SUN
  2
AcDbSun
  3
SCENEOE
 90
     1024
 91
        4
280
     0
281
     0
  0
ENDSEC
  0
SECTION
  2
TABLES
  0
TABLE
  2
VPORT
  5
8
330
0
100
AcDbSymbolTable
 70
     1
  0
VPORT
  5
29
330
8
100
AcDbSymbolTableRecord
100
AcDbViewportTableRecord
  2
*Active
 70
     0
 10
0.0
 20
0.0
 11
1.0
 21
1.0
 12
0.0
 22
0.0
 13
0.0
 23
0.0
 14
0.5
 24
0.5
 15
0.5
 25
0.5
 16
0.0
 26
0.0
 36
1.0
 17
91.00082462281999
 27
-128.4993055234307
 37
0.0
 40
256.9986110468615
 41
0.7081814508812795
 42
50.0
 43
0.0
 44
0.0
 50
0.0
 51
0.0
 71
     0
 72
   100
 73
     1
 74
     3
 75
     0
 76
     0
 77
     0
 78
     0
281
     0
 65
     1
110
0.0
120
0.0
130
0.0
111
1.0
121
0.0
131
0.0
112
0.0
122
1.0
132
0.0
 79
     0
146
0.0
 60
     3
 61
     5
292
     1
282
     1
141
0.0
142
0.0
 63
   250
361
3F
  0
ENDTAB
  0
TABLE
  2
LTYPE
  5
5
330
0
100
AcDbSymbolTable
 70
     1
  0
LTYPE
  5
14
330
5
100
AcDbSymbolTableRecord
100
AcDbLinetypeTableRecord
  2
ByBlock
 70
     0
  3

 72
    65
 73
     0
 40
0.0
  0
LTYPE
  5
15
330
5
100
AcDbSymbolTableRecord
100
AcDbLinetypeTableRecord
  2
ByLayer
 70
     0
  3

 72
    65
 73
     0
 40
0.0
  0
LTYPE
  5
16
330
5
100
AcDbSymbolTableRecord
100
AcDbLinetypeTableRecord
  2
Continuous
 70
     0
  3
Solid line
 72
    65
 73
     0
 40
0.0
  0
ENDTAB
  0
TABLE
  2
LAYER
  5
2
330
0
100
AcDbSymbolTable
 70
     2
  0
LAYER
  5
10
330
2
100
AcDbSymbolTableRecord
100
AcDbLayerTableRecord
  2
0
 70
     0
 62
     7
  6
Continuous
370
    -3
390
F
347
3E
  0
LAYER
  5
40
330
2
100
AcDbSymbolTableRecord
100
AcDbLayerTableRecord
  2
_U+30EC_U+30A4_U+30E4_U+30FC 1
 70
     0
 62
     7
  6
Continuous
370
    -3
390
F
347
3E
  0
ENDTAB
  0
TABLE
  2
STYLE
  5
3
330
0
100
AcDbSymbolTable
 70
     1
  0
STYLE
  5
11
330
3
100
AcDbSymbolTableRecord
100
AcDbTextStyleTableRecord
  2
Standard
 70
     0
 40
0.0
 41
1.0
 50
0.0
 71
     0
 42
0.2
  3
txt
  4

  0
ENDTAB
  0
TABLE
  2
VIEW
  5
6
330
0
100
AcDbSymbolTable
 70
     0
  0
ENDTAB
  0
TABLE
  2
UCS
  5
7
330
0
100
AcDbSymbolTable
 70
     0
  0
ENDTAB
  0
TABLE
  2
APPID
  5
9
330
0
100
AcDbSymbolTable
 70
     1
  0
APPID
  5
12
330
9
100
AcDbSymbolTableRecord
100
AcDbRegAppTableRecord
  2
ACAD
 70
     0
  0
ENDTAB
  0
TABLE
  2
DIMSTYLE
  5
A
330
0
100
AcDbSymbolTable
 70
     1
100
AcDbDimStyleTable
  0
DIMSTYLE
105
27
330
A
100
AcDbSymbolTableRecord
100
AcDbDimStyleTableRecord
  2
Standard
 70
     0
178
     0
340
11
  0
ENDTAB
  0
TABLE
  2
BLOCK_RECORD
  5
1
330
0
100
AcDbSymbolTable
 70
     7
  0
BLOCK_RECORD
  5
1F
330
1
100
AcDbSymbolTableRecord
100
AcDbBlockTableRecord
  2
*Model_Space
340
22
 70
     0
280
     1
281
     0
  0
BLOCK_RECORD
  5
1B
330
1
100
AcDbSymbolTableRecord
100
AcDbBlockTableRecord
  2
*Paper_Space
340
1E
 70
     0
280
     1
281
     0
  0
BLOCK_RECORD
  5
23
330
1
100
AcDbSymbolTableRecord
100
AcDbBlockTableRecord
  2
*Paper_Space0
340
26
 70
     0
280
     1
281
     0
  0
BLOCK_RECORD
  5
41
330
1
100
AcDbSymbolTableRecord
100
AcDbBlockTableRecord
  2
block 2
340
0
102
{BLKREFS
331
42
102
}
 70
     0
280
     1
281
     0
  0
BLOCK_RECORD
  5
54
330
1
100
AcDbSymbolTableRecord
100
AcDbBlockTableRecord
  2
block 3
340
0
102
{BLKREFS
331
55
102
}
 70
     0
280
     1
281
     0
  0
BLOCK_RECORD
  5
80
330
1
100
AcDbSymbolTableRecord
100
AcDbBlockTableRecord
  2
block 4
340
0
102
{BLKREFS
331
81
102
}
 70
     0
280
     1
281
     0
  0
BLOCK_RECORD
  5
89
330
1
100
AcDbSymbolTableRecord
100
AcDbBlockTableRecord
  2
block 5
340
0
102
{BLKREFS
331
8A
102
}
 70
     0
280
     1
281
     0
  0
BLOCK_RECORD
  5
94
330
1
100
AcDbSymbolTableRecord
100
AcDbBlockTableRecord
  2
block 6
340
0
102
{BLKREFS
331
95
102
}
 70
     0
280
     1
281
     0
  0
BLOCK_RECORD
  5
A5
330
1
100
AcDbSymbolTableRecord
100
AcDbBlockTableRecord
  2
block 7
340
0
102
{BLKREFS
331
A6
102
}
 70
     0
280
     1
281
     0
  0
ENDTAB
  0
ENDSEC
  0
SECTION
  2
BLOCKS
  0
BLOCK
  5
20
330
1F
100
AcDbEntity
  8
0
100
AcDbBlockBegin
  2
*Model_Space
 70
     0
 10
0.0
 20
0.0
 30
0.0
  3
*Model_Space
  1

  0
ENDBLK
  5
21
330
1F
100
AcDbEntity
  8
0
100
AcDbBlockEnd
  0
BLOCK
  5
1C
330
1B
100
AcDbEntity
 67
     1
  8
0
100
AcDbBlockBegin
  2
*Paper_Space
 70
     0
 10
0.0
 20
0.0
 30
0.0
  3
*Paper_Space
  1

  0
ENDBLK
  5
1D
330
1B
100
AcDbEntity
 67
     1
  8
0
100
AcDbBlockEnd
  0
BLOCK
  5
24
330
23
100
AcDbEntity
  8
0
100
AcDbBlockBegin
  2
*Paper_Space0
 70
     0
 10
0.0
 20
0.0
 30
0.0
  3
*Paper_Space0
  1

  0
ENDBLK
  5
25
330
23
100
AcDbEntity
  8
0
100
AcDbBlockEnd
  0
BLOCK
  5
43
330
41
100
AcDbEntity
  8
0
100
AcDbBlockBegin
  2
block 2
 70
     0
 10
0.0
 20
0.0
 30
0.0
  3
block 2
  1

  0
POLYLINE
  5
45
330
41
100
AcDbEntity
  8
_U+30EC_U+30A4_U+30E4_U+30FC 1
 62
     7
420
 16777215
370
     9
100
AcDb2dPolyline
 66
     1
 10
0.0
 20
0.0
 30
0.0
  0
VERTEX
  5
46
330
45
100
AcDbEntity
  8
_U+30EC_U+30A4_U+30E4_U+30FC 1
 62
     7
420
 16777215
370
     9
100
AcDbVertex
100
AcDb2dVertex
 10
71.88415011052699
 20
-146.6515213522257
 30
0.0
  0
VERTEX
  5
47
330
45
100
AcDbEntity
  8
_U+30EC_U+30A4_U+30E4_U+30FC 1
 62
     7
420
 16777215
370
     9
100
AcDbVertex
100
AcDb2dVertex
 10
74.49417643282855
 20
-144.0690821862049
 30
0.0
  0
SEQEND
  5
48
330
45
100
AcDbEntity
  8
_U+30EC_U+30A4_U+30E4_U+30FC 1
 62
     7
420
 16777215
370
     9
  0
POLYLINE
  5
49
330
41
100
AcDbEntity
  8
_U+30EC_U+30A4_U+30E4_U+30FC 1
 62
     7
420
 16777215
370
     9
100
AcDb2dPolyline
 66
     1
 10
0.0
 20
0.0
 30
0.0
  0
VERTEX
  5
4A
330
49
100
AcDbEntity
  8
_U+30EC_U+30A4_U+30E4_U+30FC 1
 62
     7
420
 16777215
370
     9
100
AcDbVertex
100
AcDb2dVertex
 10
73.45510479267082
 20
-144.6691924638327
 30
0.0
  0
VERTEX
  5
4B
330
49
100
AcDbEntity
  8
_U+30EC_U+30A4_U+30E4_U+30FC 1
 62
     7
420
 16777215
370
     9
100
AcDbVertex
100
AcDb2dVertex
 10
74.49417643282855
 20
-144.0690821862049
 30
0.0
  0
SEQEND
  5
4C
330
49
100
AcDbEntity
  8
_U+30EC_U+30A4_U+30E4_U+30FC 1
 62
     7
420
 16777215
370
     9
  0
POLYLINE
  5
4D
330
41
100
AcDbEntity
  8
_U+30EC_U+30A4_U+30E4_U+30FC 1
 62
     7
420
 16777215
370
     9
100
AcDb2dPolyline
 66
     1
 10
0.0
 20
0.0
 30
0.0
  0
VERTEX
  5
4E
330
4D
100
AcDbEntity
  8
_U+30EC_U+30A4_U+30E4_U+30FC 1
 62
     7
420
 16777215
370
     9
100
AcDbVertex
100
AcDb2dVertex
 10
73.89438367035277
 20
-145.1087888526118
 30
0.0
  0
VERTEX
  5
4F
330
4D
100
AcDbEntity
  8
_U+30EC_U+30A4_U+30E4_U+30FC 1
 62
     7
420
 16777215
370
     9
100
AcDbVertex
100
AcDb2dVertex
 10
74.49417643282855
 20
-144.0690821862049
 30
0.0
  0
SEQEND
  5
50
330
4D
100
AcDbEntity
  8
_U+30EC_U+30A4_U+30E4_U+30FC 1
 62
     7
420
 16777215
370
     9
  0
SPLINE
  5
51
330
41
100
AcDbEntity
  8
_U+30EC_U+30A4_U+30E4_U+30FC 1
 62
     7
420
 16777215
370
     9
100
AcDbSpline
210
0.0
220
0.0
230
1.0
 70
    11
 71
     3
 72
    17
 73
    13
 74
     0
 42
0.0000000001
 43
0.0000000001
 12
1.0
 22
0.0
 32
0.0
 13
1.0
 23
0.0
 33
0.0
 40
0.0
 40
0.0
 40
0.0
 40
0.0
 40
1.0
 40
1.0
 40
1.0
 40
2.0
 40
2.0
 40
2.0
 40
3.0
 40
3.0
 40
3.0
 40
4.0
 40
4.0
 40
4.0
 40
4.0
 10
116.3263878655999
 20
-137.6687760766941
 30
0.0
 10
116.3263878655999
 20
-137.6136369100411
 30
0.0
 10
116.281620366742
 20
-137.5688694100525
 30
0.0
 10
116.2264812014821
 20
-137.5688694100525
 30
0.0
 10
116.171377313999
 20
-137.5688694100525
 30
0.0
 10
116.1265745373643
 20
-137.6136369100411
 30
0.0
 10
116.1265745373643
 20
-137.6687760766941
 30
0.0
 10
116.1265745373643
 20
-137.723879965569
 30
0.0
 10
116.171377313999
 20
-137.7686827433358
 30
0.0
 10
116.2264812014821
 20
-137.7686827433358
 30
0.0
 10
116.281620366742
 20
-137.7686827433358
 30
0.0
 10
116.3263878655999
 20
-137.723879965569
 30
0.0
 10
116.3263878655999
 20
-137.6687760766941
 30
0.0
  0
SPLINE
  5
52
330
41
100
AcDbEntity
  8
_U+30EC_U+30A4_U+30E4_U+30FC 1
 62
     7
420
 16777215
370
     9
100
AcDbSpline
210
0.0
220
0.0
230
1.0
 70
    11
 71
     3
 72
    17
 73
    13
 74
     0
 42
0.0000000001
 43
0.0000000001
 12
1.0
 22
0.0
 32
0.0
 13
1.0
 23
0.0
 33
0.0
 40
0.0
 40
0.0
 40
0.0
 40
0.0
 40
1.0
 40
1.0
 40
1.0
 40
2.0
 40
2.0
 40
2.0
 40
3.0
 40
3.0
 40
3.0
 40
4.0
 40
4.0
 40
4.0
 40
4.0
 10
116.3263878655999
 20
-136.6690038547216
 30
0.0
 10
116.3263878655999
 20
-136.6138999658467
 30
0.0
 10
116.281620366742
 20
-136.56909718808
 30
0.0
 10
116.2264812014821
 20
-136.56909718808
 30
0.0
 10
116.171377313999
 20
-136.56909718808
 30
0.0
 10
116.1265745373643
 20
-136.6138999658467
 30
0.0
 10
116.1265745373643
 20
-136.6690038547216
 30
0.0
 10
116.1265745373643
 20
-136.7241430213747
 30
0.0
 10
116.171377313999
 20
-136.7689105213632
 30
0.0
 10
116.2264812014821
 20
-136.7689105213632
 30
0.0
 10
116.281620366742
 20
-136.7689105213632
 30
0.0
 10
116.3263878655999
 20
-136.7241430213747
 30
0.0
 10
116.3263878655999
 20
-136.6690038547216
 30
0.0
  0
SPLINE
  5
53
330
41
100
AcDbEntity
  8
_U+30EC_U+30A4_U+30E4_U+30FC 1
 62
     7
420
 16777215
370
     9
100
AcDbSpline
210
0.0
220
0.0
230
1.0
 70
    11
 71
     3
 72
    17
 73
    13
 74
     0
 42
0.0000000001
 43
0.0000000001
 12
1.0
 22
0.0
 32
0.0
 13
1.0
 23
0.0
 33
0.0
 40
0.0
 40
0.0
 40
0.0
 40
0.0
 40
1.0
 40
1.0
 40
1.0
 40
2.0
 40
2.0
 40
2.0
 40
3.0
 40
3.0
 40
3.0
 40
4.0
 40
4.0
 40
4.0
 40
4.0
 10
116.3263878655999
 20
-144.1689888528465
 30
0.0
 10
116.3263878655999
 20
-144.1138496861934
 30
0.0
 10
116.281620366742
 20
-144.0690821862049
 30
0.0
 10
116.2264812014821
 20
-144.0690821862049
 30
0.0
 10
116.171377313999
 20
-144.0690821862049
 30
0.0
 10
116.1265745373643
 20
-144.1138496861934
 30
0.0
 10
116.1265745373643
 20
-144.1689888528465
 30
0.0
 10
116.1265745373643
 20
-144.2240927417214
 30
0.0
 10
116.171377313999
 20
-144.2688955194882
 30
0.0
 10
116.2264812014821
 20
-144.2688955194882
 30
0.0
 10
116.281620366742
 20
-144.2688955194882
 30
0.0
 10
116.3263878655999
 20
-144.2240927417214
 30
0.0
 10
116.3263878655999
 20
-144.1689888528465
 30
0.0
  0
INSERT
  5
55
330
41
100
AcDbEntity
  8
_U+30EC_U+30A4_U+30E4_U+30FC 1
100
AcDbBlockReference
  2
block 3
 10
0.0
 20
0.0
 30
0.0
  0
POLYLINE
  5
5D
330
41
100
AcDbEntity
  8
_U+30EC_U+30A4_U+30E4_U+30FC 1
 62
     7
420
 16777215
370
     9
100
AcDb2dPolyline
 66
     1
 10
0.0
 20
0.0
 30
0.0
  0
VERTEX
  5
5E
330
5D
100
AcDbEntity
  8
_U+30EC_U+30A4_U+30E4_U+30FC 1
 62
     7
420
 16777215
370
     9
100
AcDbVertex
100
AcDb2dVertex
 10
114.7664751276188
 20
-137.6687760766941
 30
0.0
  0
VERTEX
  5
5F
330
5D
100
AcDbEntity
  8
_U+30EC_U+30A4_U+30E4_U+30FC 1
 62
     7
420
 16777215
370
     9
100
AcDbVertex
100
AcDb2dVertex
 10
117.2269589537356
 20
-137.6687760766941
 30
0.0
  0
SEQEND
  5
60
330
5D
100
AcDbEntity
  8
_U+30EC_U+30A4_U+30E4_U+30FC 1
 62
     7
420
 16777215
370
     9
  0
POLYLINE
  5
61
330
41
100
AcDbEntity
  8
_U+30EC_U+30A4_U+30E4_U+30FC 1
 62
     7
420
 16777215
370
     9
100
AcDb2dPolyline
 66
     1
 10
0.0
 20
0.0
 30
0.0
  0
VERTEX
  5
62
330
61
100
AcDbEntity
  8
_U+30EC_U+30A4_U+30E4_U+30FC 1
 62
     7
420
 16777215
370
     9
100
AcDbVertex
100
AcDb2dVertex
 10
114.7664751276188
 20
-136.6690038547216
 30
0.0
  0
VERTEX
  5
63
330
61
100
AcDbEntity
  8
_U+30EC_U+30A4_U+30E4_U+30FC 1
 62
     7
420
 16777215
370
     9
100
AcDbVertex
100
AcDb2dVertex
 10
117.2269589537356
 20
-136.6690038547216
 30
0.0
  0
SEQEND
  5
64
330
61
100
AcDbEntity
  8
_U+30EC_U+30A4_U+30E4_U+30FC 1
 62
     7
420
 16777215
370
     9
  0
POLYLINE
  5
65
330
41
100
AcDbEntity
  8
_U+30EC_U+30A4_U+30E4_U+30FC 1
 62
     7
420
 16777215
370
     9
100
AcDb2dPolyline
 66
     1
 10
0.0
 20
0.0
 30
0.0
  0
VERTEX
  5
66
330
65
100
AcDbEntity
  8
_U+30EC_U+30A4_U+30E4_U+30FC 1
 62
     7
420
 16777215
370
     9
100
AcDbVertex
100
AcDb2dVertex
 10
116.2264812014821
 20
-133.8977580220812
 30
0.0
  0
VERTEX
  5
67
330
65
100
AcDbEntity
  8
_U+30EC_U+30A4_U+30E4_U+30FC 1
 62
     7
420
 16777215
370
     9
100
AcDbVertex
100
AcDb2dVertex
 10
116.2264812014821
 20
-144.1689888528465
 30
0.0
  0
SEQEND
  5
68
330
65
100
AcDbEntity
  8
_U+30EC_U+30A4_U+30E4_U+30FC 1
 62
     7
420
 16777215
370
     9
  0
POLYLINE
  5
69
330
41
100
AcDbEntity
  8
_U+30EC_U+30A4_U+30E4_U+30FC 1
 62
     7
420
 16777215
370
     9
100
AcDb2dPolyline
 66
     1
 10
0.0
 20
0.0
 30
0.0
  0
VERTEX
  5
6A
330
69
100
AcDbEntity
  8
_U+30EC_U+30A4_U+30E4_U+30FC 1
 62
     7
420
 16777215
370
     9
100
AcDbVertex
100
AcDb2dVertex
 10
96.76584836463087
 20
-144.1689888528465
 30
0.0
  0
VERTEX
  5
6B
330
69
100
AcDbEntity
  8
_U+30EC_U+30A4_U+30E4_U+30FC 1
 62
     7
420
 16777215
370
     9
100
AcDbVertex
100
AcDb2dVertex
 10
117.2269589537356
 20
-144.1689888528465
 30
0.0
  0
SEQEND
  5
6C
330
69
100
AcDbEntity
  8
_U+30EC_U+30A4_U+30E4_U+30FC 1
 62
     7
420
 16777215
370
     9
  0
SPLINE
  5
6D
330
41
100
AcDbEntity
  8
_U+30EC_U+30A4_U+30E4_U+30FC 1
 62
     7
420
 16777215
370
     9
100
AcDbSpline
210
0.0
220
0.0
230
1.0
 70
    11
 71
     3
 72
    17
 73
    13
 74
     0
 42
0.0000000001
 43
0.0000000001
 12
1.0
 22
0.0
 32
0.0
 13
1.0
 23
0.0
 33
0.0
 40
0.0
 40
0.0
 40
0.0
 40
0.0
 40
1.0
 40
1.0
 40
1.0
 40
2.0
 40
2.0
 40
2.0
 40
3.0
 40
3.0
 40
3.0
 40
4.0
 40
4.0
 40
4.0
 40
4.0
 10
69.47912294966213
 20
-144.2695657972662
 30
0.0
 10
69.53426387150517
 20
-144.2695657972662
 30
0.0
 10
69.57902961377995
 20
-144.224798297277
 30
0.0
 10
69.57902961377995
 20
-144.1689888528465
 30
0.0
 10
69.57902961377995
 20
-144.1138496861934
 30
0.0
 10
69.53426387150517
 20
-144.0690821862049
 30
0.0
 10
69.47912294966213
 20
-144.0690821862049
 30
0.0
 10
69.42401906217906
 20
-144.0690821862049
 30
0.0
 10
69.37921628554429
 20
-144.1138496861934
 30
0.0
 10
69.37921628554429
 20
-144.1689888528465
 30
0.0
 10
69.37921628554429
 20
-144.224798297277
 30
0.0
 10
69.42401906217906
 20
-144.2695657972662
 30
0.0
 10
69.47912294966213
 20
-144.2695657972662
 30
0.0
  0
SPLINE
  5
6E
330
41
100
AcDbEntity
  8
_U+30EC_U+30A4_U+30E4_U+30FC 1
 62
     7
420
 16777215
370
     9
100
AcDbSpline
210
0.0
220
0.0
230
1.0
 70
    11
 71
     3
 72
    17
 73
    13
 74
     0
 42
0.0000000001
 43
0.0000000001
 12
1.0
 22
0.0
 32
0.0
 13
1.0
 23
0.0
 33
0.0
 40
0.0
 40
0.0
 40
0.0
 40
0.0
 40
1.0
 40
1.0
 40
1.0
 40
2.0
 40
2.0
 40
2.0
 40
3.0
 40
3.0
 40
3.0
 40
4.0
 40
4.0
 40
4.0
 40
4.0
 10
69.47912294966213
 20
-124.2680535800441
 30
0.0
 10
69.53426387150517
 20
-124.2680535800441
 30
0.0
 10
69.57902961377995
 20
-124.2232508022774
 30
0.0
 10
69.57902961377995
 20
-124.1681469134025
 30
0.0
 10
69.57902961377995
 20
-124.1130077467494
 30
0.0
 10
69.53426387150517
 20
-124.0682402467609
 30
0.0
 10
69.47912294966213
 20
-124.0682402467609
 30
0.0
 10
69.42401906217906
 20
-124.0682402467609
 30
0.0
 10
69.37921628554429
 20
-124.1130077467494
 30
0.0
 10
69.37921628554429
 20
-124.1681469134025
 30
0.0
 10
69.37921628554429
 20
-124.2232508022774
 30
0.0
 10
69.42401906217906
 20
-124.2680535800441
 30
0.0
 10
69.47912294966213
 20
-124.2680535800441
 30
0.0
  0
SPLINE
  5
6F
330
41
100
AcDbEntity
  8
_U+30EC_U+30A4_U+30E4_U+30FC 1
 62
     7
420
 16777215
370
     9
100
AcDbSpline
210
0.0
220
0.0
230
1.0
 70
    11
 71
     3
 72
    17
 73
    13
 74
     0
 42
0.0000000001
 43
0.0000000001
 12
1.0
 22
0.0
 32
0.0
 13
1.0
 23
0.0
 33
0.0
 40
0.0
 40
0.0
 40
0.0
 40
0.0
 40
1.0
 40
1.0
 40
1.0
 40
2.0
 40
2.0
 40
2.0
 40
3.0
 40
3.0
 40
3.0
 40
4.0
 40
4.0
 40
4.0
 40
4.0
 10
69.47912294966213
 20
-106.2684494178774
 30
0.0
 10
69.53426387150517
 20
-106.2684494178774
 30
0.0
 10
69.57902961377995
 20
-106.2236466401106
 30
0.0
 10
69.57902961377995
 20
-106.1685427512357
 30
0.0
 10
69.57902961377995
 20
-106.1134035845826
 30
0.0
 10
69.53426387150517
 20
-106.0686360845941
 30
0.0
 10
69.47912294966213
 20
-106.0686360845941
 30
0.0
 10
69.42401906217906
 20
-106.0686360845941
 30
0.0
 10
69.37921628554429
 20
-106.1134035845826
 30
0.0
 10
69.37921628554429
 20
-106.1685427512357
 30
0.0
 10
69.37921628554429
 20
-106.2236466401106
 30
0.0
 10
69.42401906217906
 20
-106.2684494178774
 30
0.0
 10
69.47912294966213
 20
-106.2684494178774
 30
0.0
  0
POLYLINE
  5
70
330
41
100
AcDbEntity
  8
_U+30EC_U+30A4_U+30E4_U+30FC 1
 62
     7
420
 16777215
370
     9
100
AcDb2dPolyline
 66
     1
 10
0.0
 20
0.0
 30
0.0
  0
VERTEX
  5
71
330
70
100
AcDbEntity
  8
_U+30EC_U+30A4_U+30E4_U+30FC 1
 62
     7
420
 16777215
370
     9
100
AcDbVertex
100
AcDb2dVertex
 10
69.47912294966213
 20
-106.1685427512357
 30
0.0
  0
VERTEX
  5
72
330
70
100
AcDbEntity
  8
_U+30EC_U+30A4_U+30E4_U+30FC 1
 62
     7
420
 16777215
370
     9
100
AcDbVertex
100
AcDb2dVertex
 10
69.47912294966213
 20
-144.1689888528465
 30
0.0
  0
SEQEND
  5
73
330
70
100
AcDbEntity
  8
_U+30EC_U+30A4_U+30E4_U+30FC 1
 62
     7
420
 16777215
370
     9
  0
POLYLINE
  5
74
330
41
100
AcDbEntity
  8
_U+30EC_U+30A4_U+30E4_U+30FC 1
 62
     7
420
 16777215
370
     9
100
AcDb2dPolyline
 66
     1
 10
0.0
 20
0.0
 30
0.0
  0
VERTEX
  5
75
330
74
100
AcDbEntity
  8
_U+30EC_U+30A4_U+30E4_U+30FC 1
 62
     7
420
 16777215
370
     9
100
AcDbVertex
100
AcDb2dVertex
 10
71.72670539232152
 20
-124.1681469134025
 30
0.0
  0
VERTEX
  5
76
330
74
100
AcDbEntity
  8
_U+30EC_U+30A4_U+30E4_U+30FC 1
 62
     7
420
 16777215
370
     9
100
AcDbVertex
100
AcDb2dVertex
 10
68.47868047518554
 20
-124.1681469134025
 30
0.0
  0
SEQEND
  5
77
330
74
100
AcDbEntity
  8
_U+30EC_U+30A4_U+30E4_U+30FC 1
 62
     7
420
 16777215
370
     9
  0
POLYLINE
  5
78
330
41
100
AcDbEntity
  8
_U+30EC_U+30A4_U+30E4_U+30FC 1
 62
     7
420
 16777215
370
     9
100
AcDb2dPolyline
 66
     1
 10
0.0
 20
0.0
 30
0.0
  0
VERTEX
  5
79
330
78
100
AcDbEntity
  8
_U+30EC_U+30A4_U+30E4_U+30FC 1
 62
     7
420
 16777215
370
     9
100
AcDbVertex
100
AcDb2dVertex
 10
71.72670539232152
 20
-144.1689888528465
 30
0.0
  0
VERTEX
  5
7A
330
78
100
AcDbEntity
  8
_U+30EC_U+30A4_U+30E4_U+30FC 1
 62
     7
420
 16777215
370
     9
100
AcDbVertex
100
AcDb2dVertex
 10
68.47868047518554
 20
-144.1689888528465
 30
0.0
  0
SEQEND
  5
7B
330
78
100
AcDbEntity
  8
_U+30EC_U+30A4_U+30E4_U+30FC 1
 62
     7
420
 16777215
370
     9
  0
POLYLINE
  5
7C
330
41
100
AcDbEntity
  8
_U+30EC_U+30A4_U+30E4_U+30FC 1
 62
     7
420
 16777215
370
     9
100
AcDb2dPolyline
 66
     1
 10
0.0
 20
0.0
 30
0.0
  0
VERTEX
  5
7D
330
7C
100
AcDbEntity
  8
_U+30EC_U+30A4_U+30E4_U+30FC 1
 62
     7
420
 16777215
370
     9
100
AcDbVertex
100
AcDb2dVertex
 10
79.22633742321219
 20
-106.1685427512357
 30
0.0
  0
VERTEX
  5
7E
330
7C
100
AcDbEntity
  8
_U+30EC_U+30A4_U+30E4_U+30FC 1
 62
     7
420
 16777215
370
     9
100
AcDbVertex
100
AcDb2dVertex
 10
68.47868047518554
 20
-106.1685427512357
 30
0.0
  0
SEQEND
  5
7F
330
7C
100
AcDbEntity
  8
_U+30EC_U+30A4_U+30E4_U+30FC 1
 62
     7
420
 16777215
370
     9
  0
INSERT
  5
81
330
41
100
AcDbEntity
  8
_U+30EC_U+30A4_U+30E4_U+30FC 1
100
AcDbBlockReference
  2
block 4
 10
0.0
 20
0.0
 30
0.0
  0
INSERT
  5
8A
330
41
100
AcDbEntity
  8
_U+30EC_U+30A4_U+30E4_U+30FC 1
100
AcDbBlockReference
  2
block 5
 10
0.0
 20
0.0
 30
0.0
  0
SPLINE
  5
93
330
41
100
AcDbEntity
  8
_U+30EC_U+30A4_U+30E4_U+30FC 1
 62
     7
420
 16777215
370
    25
100
AcDbSpline
210
0.0
220
0.0
230
1.0
 70
    11
 71
     3
 72
    50
 73
    46
 74
     0
 42
0.0000000001
 43
0.0000000001
 12
1.0
 22
0.0
 32
0.0
 13
1.0
 23
0.0
 33
0.0
 40
0.0
 40
0.0
 40
0.0
 40
0.0
 40
1.0
 40
1.0
 40
1.0
 40
2.0
 40
2.0
 40
2.0
 40
3.0
 40
3.0
 40
3.0
 40
4.0
 40
4.0
 40
4.0
 40
5.0
 40
5.0
 40
5.0
 40
6.0
 40
6.0
 40
6.0
 40
7.0
 40
7.0
 40
7.0
 40
8.0
 40
8.0
 40
8.0
 40
9.0
 40
9.0
 40
9.0
 40
10.0
 40
10.0
 40
10.0
 40
11.0
 40
11.0
 40
11.0
 40
12.0
 40
12.0
 40
12.0
 40
13.0
 40
13.0
 40
13.0
 40
14.0
 40
14.0
 40
14.0
 40
15.0
 40
15.0
 40
15.0
 40
15.0
 10
94.22613065164668
 20
-144.1689888528465
 30
0.0
 10
94.22613065164668
 20
-144.1689888528465
 30
0.0
 10
75.22622558081909
 20
-144.1689888528465
 30
0.0
 10
75.22622558081909
 20
-144.1689888528465
 30
0.0
 10
74.67606865041033
 20
-144.1689888528465
 30
0.0
 10
74.22613588411129
 20
-143.7190560751811
 30
0.0
 10
74.22613588411129
 20
-143.1692166308746
 30
0.0
 10
74.22613588411129
 20
-143.1692166308746
 30
0.0
 10
74.22613588411129
 20
-124.1684644134024
 30
0.0
 10
74.22613588411129
 20
-124.1684644134024
 30
0.0
 10
74.22613588411129
 20
-124.1684644134024
 30
0.0
 10
80.72634849605483
 20
-125.3219066353362
 30
0.0
 10
80.72634849605483
 20
-125.3219066353362
 30
0.0
 10
80.72634849605483
 20
-125.3219066353362
 30
0.0
 10
80.72634849605483
 20
-106.1685427512357
 30
0.0
 10
80.72634849605483
 20
-106.1685427512357
 30
0.0
 10
80.72634849605483
 20
-106.1685427512357
 30
0.0
 10
81.72626386845731
 20
-106.1685427512357
 30
0.0
 10
81.72626386845731
 20
-106.1685427512357
 30
0.0
 10
81.72626386845731
 20
-106.1685427512357
 30
0.0
 10
81.72626386845731
 20
-126.4329449683918
 30
0.0
 10
81.72626386845731
 20
-126.4329449683918
 30
0.0
 10
81.72626386845731
 20
-126.4329449683918
 30
0.0
 10
75.25896335776166
 20
-125.2829599686794
 30
0.0
 10
75.25896335776166
 20
-125.2829599686794
 30
0.0
 10
75.25896335776166
 20
-125.2829599686794
 30
0.0
 10
75.25896335776166
 20
-143.1361260753272
 30
0.0
 10
75.25896335776166
 20
-143.1361260753272
 30
0.0
 10
75.25896335776166
 20
-143.1361260753272
 30
0.0
 10
93.11198790229307
 20
-143.1361260753272
 30
0.0
 10
93.11198790229307
 20
-143.1361260753272
 30
0.0
 10
93.11198790229307
 20
-143.1361260753272
 30
0.0
 10
92.05845237361544
 20
-136.6690038547216
 30
0.0
 10
92.05845237361544
 20
-136.6690038547216
 30
0.0
 10
92.05845237361544
 20
-136.6690038547216
 30
0.0
 10
112.2267249719432
 20
-136.6690038547216
 30
0.0
 10
112.2267249719432
 20
-136.6690038547216
 30
0.0
 10
112.2267249719432
 20
-136.6690038547216
 30
0.0
 10
112.2267249719432
 20
-137.6687760766941
 30
0.0
 10
112.2267249719432
 20
-137.6687760766941
 30
0.0
 10
112.2267249719432
 20
-137.6687760766941
 30
0.0
 10
93.16917317861193
 20
-137.6687760766941
 30
0.0
 10
93.16917317861193
 20
-137.6687760766941
 30
0.0
 10
93.16917317861193
 20
-137.6687760766941
 30
0.0
 10
94.22613065164668
 20
-144.1689888528465
 30
0.0
 10
94.22613065164668
 20
-144.1689888528465
 30
0.0
  0
INSERT
  5
95
330
41
100
AcDbEntity
  8
_U+30EC_U+30A4_U+30E4_U+30FC 1
100
AcDbBlockReference
  2
block 6
 10
0.0
 20
0.0
 30
0.0
  0
INSERT
  5
A6
330
41
100
AcDbEntity
  8
_U+30EC_U+30A4_U+30E4_U+30FC 1
100
AcDbBlockReference
  2
block 7
 10
0.0
 20
0.0
 30
0.0
  0
ENDBLK
  5
44
330
41
100
AcDbEntity
  8
0
100
AcDbBlockEnd
  0
BLOCK
  5
56
330
54
100
AcDbEntity
  8
0
100
AcDbBlockBegin
  2
block 3
 70
     0
 10
0.0
 20
0.0
 30
0.0
  3
block 3
  1

  0
SPLINE
  5
58
330
54
100
AcDbEntity
  8
_U+30EC_U+30A4_U+30E4_U+30FC 1
370
     0
100
AcDbSpline
210
0.0
220
0.0
230
1.0
 70
    11
 71
     3
 72
    44
 73
    40
 74
     0
 42
0.0000000001
 43
0.0000000001
 12
1.0
 22
0.0
 32
0.0
 13
1.0
 23
0.0
 33
0.0
 40
0.0
 40
0.0
 40
0.0
 40
0.0
 40
1.0
 40
1.0
 40
1.0
 40
2.0
 40
2.0
 40
2.0
 40
3.0
 40
3.0
 40
3.0
 40
4.0
 40
4.0
 40
4.0
 40
5.0
 40
5.0
 40
5.0
 40
6.0
 40
6.0
 40
6.0
 40
7.0
 40
7.0
 40
7.0
 40
8.0
 40
8.0
 40
8.0
 40
9.0
 40
9.0
 40
9.0
 40
10.0
 40
10.0
 40
10.0
 40
11.0
 40
11.0
 40
11.0
 40
12.0
 40
12.0
 40
12.0
 40
13.0
 40
13.0
 40
13.0
 40
13.0
 10
70.23326685527155
 20
-148.642434316138
 30
0.0
 10
70.20984020597184
 20
-148.5979925843783
 30
0.0
 10
70.18882512351182
 20
-148.545282623454
 30
0.0
 10
70.1865858114464
 20
-148.3144612259422
 30
0.0
 10
70.1824516968641
 20
-148.0712374846836
 30
0.0
 10
70.12319605451782
 20
-148.001302046333
 30
0.0
 10
69.94542912747892
 20
-148.001302046333
 30
0.0
 10
69.94542912747892
 20
-148.001302046333
 30
0.0
 10
69.53718531247682
 20
-148.001302046333
 30
0.0
 10
69.53718531247682
 20
-148.001302046333
 30
0.0
 10
69.53718531247682
 20
-148.001302046333
 30
0.0
 10
69.53718531247682
 20
-148.642434316138
 30
0.0
 10
69.53718531247682
 20
-148.642434316138
 30
0.0
 10
69.53718531247682
 20
-148.642434316138
 30
0.0
 10
69.30240205515705
 20
-148.642434316138
 30
0.0
 10
69.30240205515705
 20
-148.642434316138
 30
0.0
 10
69.30240205515705
 20
-148.642434316138
 30
0.0
 10
69.30240205515705
 20
-147.0979980101005
 30
0.0
 10
69.30240205515705
 20
-147.0979980101005
 30
0.0
 10
69.30240205515705
 20
-147.0979980101005
 30
0.0
 10
69.97712400594322
 20
-147.0979980101005
 30
0.0
 10
69.97712400594322
 20
-147.0979980101005
 30
0.0
 10
70.28390975890473
 20
-147.0979980101005
 30
0.0
 10
70.4511691447136
 20
-147.269563765266
 30
0.0
 10
70.4511691447136
 20
-147.52553435982
 30
0.0
 10
70.4511691447136
 20
-147.5761772634532
 30
0.0
 10
70.44255640600048
 20
-147.6588595550992
 30
0.0
 10
70.39811467424076
 20
-147.7391302799055
 30
0.0
 10
70.33903128666871
 20
-147.8428276540115
 30
0.0
 10
70.27340221767471
 20
-147.8617756791804
 30
0.0
 10
70.21207951803726
 20
-147.8786566470581
 30
0.0
 10
70.34953882789873
 20
-147.9210313215267
 30
0.0
 10
70.41723495418388
 20
-147.9696071678687
 30
0.0
 10
70.42154132354045
 20
-148.2848334047691
 30
0.0
 10
70.42567543812275
 20
-148.5556179099097
 30
0.0
 10
70.46167668594362
 20
-148.587312788374
 30
0.0
 10
70.52937281222877
 20
-148.642434316138
 30
0.0
 10
70.52937281222877
 20
-148.642434316138
 30
0.0
 10
70.23326685527155
 20
-148.642434316138
 30
0.0
 10
70.23326685527155
 20
-148.642434316138
 30
0.0
  0
SPLINE
  5
59
330
54
100
AcDbEntity
  8
_U+30EC_U+30A4_U+30E4_U+30FC 1
370
     0
100
AcDbSpline
210
0.0
220
0.0
230
1.0
 70
    11
 71
     3
 72
    20
 73
    16
 74
     0
 42
0.0000000001
 43
0.0000000001
 12
1.0
 22
0.0
 32
0.0
 13
1.0
 23
0.0
 33
0.0
 40
0.0
 40
0.0
 40
0.0
 40
0.0
 40
1.0
 40
1.0
 40
1.0
 40
2.0
 40
2.0
 40
2.0
 40
3.0
 40
3.0
 40
3.0
 40
4.0
 40
4.0
 40
4.0
 40
5.0
 40
5.0
 40
5.0
 40
5.0
 10
69.98143037529978
 20
-147.3095268728948
 30
0.0
 10
69.98143037529978
 20
-147.3095268728948
 30
0.0
 10
69.53718531247682
 20
-147.3095268728948
 30
0.0
 10
69.53718531247682
 20
-147.3095268728948
 30
0.0
 10
69.53718531247682
 20
-147.3095268728948
 30
0.0
 10
69.53718531247682
 20
-147.7897731835387
 30
0.0
 10
69.53718531247682
 20
-147.7897731835387
 30
0.0
 10
69.53718531247682
 20
-147.7897731835387
 30
0.0
 10
69.97936331800864
 20
-147.7897731835387
 30
0.0
 10
69.97936331800864
 20
-147.7897731835387
 30
0.0
 10
70.07875432275809
 20
-147.7897731835387
 30
0.0
 10
70.21414657532841
 20
-147.7136365733147
 30
0.0
 10
70.21414657532841
 20
-147.5424153276977
 30
0.0
 10
70.21414657532841
 20
-147.4642116601826
 30
0.0
 10
70.18038463957296
 20
-147.3095268728948
 30
0.0
 10
69.98143037529978
 20
-147.3095268728948
 30
0.0
  0
HATCH
  5
5A
330
54
100
AcDbEntity
  8
_U+30EC_U+30A4_U+30E4_U+30FC 1
 62
     7
420
 16777215
100
AcDbHatch
 10
0.0
 20
0.0
 30
0.0
210
0.0
220
0.0
230
1.0
  2
SOLID
 70
     1
 71
     0
 91
        2
 92
        1
 93
        1
 72
     4
 94
        3
 73
     0
 74
     1
 95
       44
 96
       40
 40
0.0
 40
0.0
 40
0.0
 40
0.0
 40
1.0
 40
1.0
 40
1.0
 40
2.0
 40
2.0
 40
2.0
 40
3.0
 40
3.0
 40
3.0
 40
4.0
 40
4.0
 40
4.0
 40
5.0
 40
5.0
 40
5.0
 40
6.0
 40
6.0
 40
6.0
 40
7.0
 40
7.0
 40
7.0
 40
8.0
 40
8.0
 40
8.0
 40
9.0
 40
9.0
 40
9.0
 40
10.0
 40
10.0
 40
10.0
 40
11.0
 40
11.0
 40
11.0
 40
12.0
 40
12.0
 40
12.0
 40
13.0
 40
13.0
 40
13.0
 40
13.0
 10
70.23326685527155
 20
-148.642434316138
 10
70.20984020597184
 20
-148.5979925843783
 10
70.18882512351182
 20
-148.545282623454
 10
70.1865858114464
 20
-148.3144612259422
 10
70.1824516968641
 20
-148.0712374846836
 10
70.12319605451782
 20
-148.001302046333
 10
69.94542912747892
 20
-148.001302046333
 10
69.94542912747892
 20
-148.001302046333
 10
69.53718531247682
 20
-148.001302046333
 10
69.53718531247682
 20
-148.001302046333
 10
69.53718531247682
 20
-148.001302046333
 10
69.53718531247682
 20
-148.642434316138
 10
69.53718531247682
 20
-148.642434316138
 10
69.53718531247682
 20
-148.642434316138
 10
69.30240205515705
 20
-148.642434316138
 10
69.30240205515705
 20
-148.642434316138
 10
69.30240205515705
 20
-148.642434316138
 10
69.30240205515705
 20
-147.0979980101005
 10
69.30240205515705
 20
-147.0979980101005
 10
69.30240205515705
 20
-147.0979980101005
 10
69.97712400594322
 20
-147.0979980101005
 10
69.97712400594322
 20
-147.0979980101005
 10
70.28390975890473
 20
-147.0979980101005
 10
70.4511691447136
 20
-147.269563765266
 10
70.4511691447136
 20
-147.52553435982
 10
70.4511691447136
 20
-147.5761772634532
 10
70.44255640600048
 20
-147.6588595550992
 10
70.39811467424076
 20
-147.7391302799055
 10
70.33903128666871
 20
-147.8428276540115
 10
70.27340221767471
 20
-147.8617756791804
 10
70.21207951803726
 20
-147.8786566470581
 10
70.34953882789873
 20
-147.9210313215267
 10
70.41723495418388
 20
-147.9696071678687
 10
70.42154132354045
 20
-148.2848334047691
 10
70.42567543812275
 20
-148.5556179099097
 10
70.46167668594362
 20
-148.587312788374
 10
70.52937281222877
 20
-148.642434316138
 10
70.52937281222877
 20
-148.642434316138
 10
70.23326685527155
 20
-148.642434316138
 10
70.23326685527155
 20
-148.642434316138
 97
        0
 97
        0
 92
        1
 93
        1
 72
     4
 94
        3
 73
     0
 74
     1
 95
       20
 96
       16
 40
0.0
 40
0.0
 40
0.0
 40
0.0
 40
1.0
 40
1.0
 40
1.0
 40
2.0
 40
2.0
 40
2.0
 40
3.0
 40
3.0
 40
3.0
 40
4.0
 40
4.0
 40
4.0
 40
5.0
 40
5.0
 40
5.0
 40
5.0
 10
69.98143037529978
 20
-147.3095268728948
 10
69.98143037529978
 20
-147.3095268728948
 10
69.53718531247682
 20
-147.3095268728948
 10
69.53718531247682
 20
-147.3095268728948
 10
69.53718531247682
 20
-147.3095268728948
 10
69.53718531247682
 20
-147.7897731835387
 10
69.53718531247682
 20
-147.7897731835387
 10
69.53718531247682
 20
-147.7897731835387
 10
69.97936331800864
 20
-147.7897731835387
 10
69.97936331800864
 20
-147.7897731835387
 10
70.07875432275809
 20
-147.7897731835387
 10
70.21414657532841
 20
-147.7136365733147
 10
70.21414657532841
 20
-147.5424153276977
 10
70.21414657532841
 20
-147.4642116601826
 10
70.18038463957296
 20
-147.3095268728948
 10
69.98143037529978
 20
-147.3095268728948
 97
        0
 97
        0
 75
     2
 76
     1
 98
        0
  0
SPLINE
  5
5B
330
54
100
AcDbEntity
  8
_U+30EC_U+30A4_U+30E4_U+30FC 1
370
     0
100
AcDbSpline
210
0.0
220
0.0
230
1.0
 70
    11
 71
     3
 72
    26
 73
    22
 74
     0
 42
0.0000000001
 43
0.0000000001
 12
1.0
 22
0.0
 32
0.0
 13
1.0
 23
0.0
 33
0.0
 40
0.0
 40
0.0
 40
0.0
 40
0.0
 40
1.0
 40
1.0
 40
1.0
 40
2.0
 40
2.0
 40
2.0
 40
3.0
 40
3.0
 40
3.0
 40
4.0
 40
4.0
 40
4.0
 40
5.0
 40
5.0
 40
5.0
 40
6.0
 40
6.0
 40
6.0
 40
7.0
 40
7.0
 40
7.0
 40
7.0
 10
71.12037894272338
 20
-148.642434316138
 30
0.0
 10
71.12037894272338
 20
-148.642434316138
 30
0.0
 10
71.12037894272338
 20
-147.5382812131154
 30
0.0
 10
71.12037894272338
 20
-147.5382812131154
 30
0.0
 10
71.12037894272338
 20
-147.5382812131154
 30
0.0
 10
70.79033879523645
 20
-147.5382812131154
 30
0.0
 10
70.79033879523645
 20
-147.5382812131154
 30
0.0
 10
70.79033879523645
 20
-147.5382812131154
 30
0.0
 10
70.79033879523645
 20
-147.3901421072497
 30
0.0
 10
70.79033879523645
 20
-147.3901421072497
 30
0.0
 10
71.12244600001453
 20
-147.3753281966631
 30
0.0
 10
71.16895478906541
 20
-147.2123751802108
 30
0.0
 10
71.19858261023855
 20
-147.0979980101005
 30
0.0
 10
71.19858261023855
 20
-147.0979980101005
 30
0.0
 10
71.34465465881314
 20
-147.0979980101005
 30
0.0
 10
71.34465465881314
 20
-147.0979980101005
 30
0.0
 10
71.34465465881314
 20
-147.0979980101005
 30
0.0
 10
71.34465465881314
 20
-148.642434316138
 30
0.0
 10
71.34465465881314
 20
-148.642434316138
 30
0.0
 10
71.34465465881314
 20
-148.642434316138
 30
0.0
 10
71.12037894272338
 20
-148.642434316138
 30
0.0
 10
71.12037894272338
 20
-148.642434316138
 30
0.0
  0
HATCH
  5
5C
330
54
100
AcDbEntity
  8
_U+30EC_U+30A4_U+30E4_U+30FC 1
 62
     7
420
 16777215
100
AcDbHatch
 10
0.0
 20
0.0
 30
0.0
210
0.0
220
0.0
230
1.0
  2
SOLID
 70
     1
 71
     0
 91
        1
 92
        1
 93
        1
 72
     4
 94
        3
 73
     0
 74
     1
 95
       26
 96
       22
 40
0.0
 40
0.0
 40
0.0
 40
0.0
 40
1.0
 40
1.0
 40
1.0
 40
2.0
 40
2.0
 40
2.0
 40
3.0
 40
3.0
 40
3.0
 40
4.0
 40
4.0
 40
4.0
 40
5.0
 40
5.0
 40
5.0
 40
6.0
 40
6.0
 40
6.0
 40
7.0
 40
7.0
 40
7.0
 40
7.0
 10
71.12037894272338
 20
-148.642434316138
 10
71.12037894272338
 20
-148.642434316138
 10
71.12037894272338
 20
-147.5382812131154
 10
71.12037894272338
 20
-147.5382812131154
 10
71.12037894272338
 20
-147.5382812131154
 10
70.79033879523645
 20
-147.5382812131154
 10
70.79033879523645
 20
-147.5382812131154
 10
70.79033879523645
 20
-147.5382812131154
 10
70.79033879523645
 20
-147.3901421072497
 10
70.79033879523645
 20
-147.3901421072497
 10
71.12244600001453
 20
-147.3753281966631
 10
71.16895478906541
 20
-147.2123751802108
 10
71.19858261023855
 20
-147.0979980101005
 10
71.19858261023855
 20
-147.0979980101005
 10
71.34465465881314
 20
-147.0979980101005
 10
71.34465465881314
 20
-147.0979980101005
 10
71.34465465881314
 20
-147.0979980101005
 10
71.34465465881314
 20
-148.642434316138
 10
71.34465465881314
 20
-148.642434316138
 10
71.34465465881314
 20
-148.642434316138
 10
71.12037894272338
 20
-148.642434316138
 10
71.12037894272338
 20
-148.642434316138
 97
        0
 97
        0
 75
     2
 76
     1
 98
        0
  0
ENDBLK
  5
57
330
54
100
AcDbEntity
  8
0
100
AcDbBlockEnd
  0
BLOCK
  5
82
330
80
100
AcDbEntity
  8
0
100
AcDbBlockBegin
  2
block 4
 70
     0
 10
0.0
 20
0.0
 30
0.0
  3
block 4
  1

  0
SPLINE
  5
84
330
80
100
AcDbEntity
  8
_U+30EC_U+30A4_U+30E4_U+30FC 1
370
     0
100
AcDbSpline
210
0.0
220
0.0
230
1.0
 70
    11
 71
     3
 72
    44
 73
    40
 74
     0
 42
0.0000000001
 43
0.0000000001
 12
1.0
 22
0.0
 32
0.0
 13
1.0
 23
0.0
 33
0.0
 40
0.0
 40
0.0
 40
0.0
 40
0.0
 40
1.0
 40
1.0
 40
1.0
 40
2.0
 40
2.0
 40
2.0
 40
3.0
 40
3.0
 40
3.0
 40
4.0
 40
4.0
 40
4.0
 40
5.0
 40
5.0
 40
5.0
 40
6.0
 40
6.0
 40
6.0
 40
7.0
 40
7.0
 40
7.0
 40
8.0
 40
8.0
 40
8.0
 40
9.0
 40
9.0
 40
9.0
 40
10.0
 40
10.0
 40
10.0
 40
11.0
 40
11.0
 40
11.0
 40
12.0
 40
12.0
 40
12.0
 40
13.0
 40
13.0
 40
13.0
 40
13.0
 10
68.02651094219476
 20
-134.6639593847368
 30
0.0
 10
68.18532984406478
 20
-134.8816894194046
 30
0.0
 10
68.25939939699765
 20
-134.9747069975063
 30
0.0
 10
68.40305987873258
 20
-135.0236273533969
 30
0.0
 10
68.40305987873258
 20
-135.0236273533969
 30
0.0
 10
68.40305987873258
 20
-134.2450357737304
 30
0.0
 10
68.40305987873258
 20
-134.2450357737304
 30
0.0
 10
68.40305987873258
 20
-134.2450357737304
 30
0.0
 10
68.60838756965346
 20
-134.2450357737304
 30
0.0
 10
68.60838756965346
 20
-134.2450357737304
 30
0.0
 10
68.60838756965346
 20
-134.2450357737304
 30
0.0
 10
68.60838756965346
 20
-135.273052266529
 30
0.0
 10
68.60838756965346
 20
-135.273052266529
 30
0.0
 10
68.25078665828453
 20
-135.2413573880647
 30
0.0
 10
68.17258299076936
 20
-135.1759005738449
 30
0.0
 10
67.87423772174672
 20
-134.790738898594
 30
0.0
 10
67.67545571224781
 20
-134.5347683040399
 30
0.0
 10
67.60758733118838
 20
-134.4693114898202
 30
0.0
 10
67.47012802132691
 20
-134.4693114898202
 30
0.0
 10
67.35161673663433
 20
-134.4693114898202
 30
0.0
 10
67.22070310819483
 20
-134.5413139854619
 30
0.0
 10
67.22070310819483
 20
-134.7380289376697
 30
0.0
 10
67.22070310819483
 20
-134.998133646806
 30
0.0
 10
67.45117999615805
 20
-135.0064018759706
 30
0.0
 10
67.56762422355949
 20
-135.0108805001015
 30
0.0
 10
67.56762422355949
 20
-135.0108805001015
 30
0.0
 10
67.56762422355949
 20
-135.2351562161912
 30
0.0
 10
67.56762422355949
 20
-135.2351562161912
 30
0.0
 10
67.44050020015376
 20
-135.2265434774781
 30
0.0
 10
67.32853459688315
 20
-135.2158636814738
 30
0.0
 10
67.21002331219056
 20
-135.1355929566675
 30
0.0
 10
67.04913735302938
 20
-135.025694410688
 30
0.0
 10
67.01537541727394
 20
-134.839314744936
 30
0.0
 10
67.01537541727394
 20
-134.7232150270831
 30
0.0
 10
67.01537541727394
 20
-134.4458848405205
 30
0.0
 10
67.19934351618627
 20
-134.2384900923084
 30
0.0
 10
67.47219507861807
 20
-134.2384900923084
 30
0.0
 10
67.70094941883866
 20
-134.2384900923084
 30
0.0
 10
67.80016816881385
 20
-134.3549343197099
 30
0.0
 10
68.02651094219476
 20
-134.6639593847368
 30
0.0
  0
HATCH
  5
85
330
80
100
AcDbEntity
  8
_U+30EC_U+30A4_U+30E4_U+30FC 1
 62
     7
420
 16777215
100
AcDbHatch
 10
0.0
 20
0.0
 30
0.0
210
0.0
220
0.0
230
1.0
  2
SOLID
 70
     1
 71
     0
 91
        1
 92
        1
 93
        1
 72
     4
 94
        3
 73
     0
 74
     1
 95
       44
 96
       40
 40
0.0
 40
0.0
 40
0.0
 40
0.0
 40
1.0
 40
1.0
 40
1.0
 40
2.0
 40
2.0
 40
2.0
 40
3.0
 40
3.0
 40
3.0
 40
4.0
 40
4.0
 40
4.0
 40
5.0
 40
5.0
 40
5.0
 40
6.0
 40
6.0
 40
6.0
 40
7.0
 40
7.0
 40
7.0
 40
8.0
 40
8.0
 40
8.0
 40
9.0
 40
9.0
 40
9.0
 40
10.0
 40
10.0
 40
10.0
 40
11.0
 40
11.0
 40
11.0
 40
12.0
 40
12.0
 40
12.0
 40
13.0
 40
13.0
 40
13.0
 40
13.0
 10
68.02651094219476
 20
-134.6639593847368
 10
68.18532984406478
 20
-134.8816894194046
 10
68.25939939699765
 20
-134.9747069975063
 10
68.40305987873258
 20
-135.0236273533969
 10
68.40305987873258
 20
-135.0236273533969
 10
68.40305987873258
 20
-134.2450357737304
 10
68.40305987873258
 20
-134.2450357737304
 10
68.40305987873258
 20
-134.2450357737304
 10
68.60838756965346
 20
-134.2450357737304
 10
68.60838756965346
 20
-134.2450357737304
 10
68.60838756965346
 20
-134.2450357737304
 10
68.60838756965346
 20
-135.273052266529
 10
68.60838756965346
 20
-135.273052266529
 10
68.25078665828453
 20
-135.2413573880647
 10
68.17258299076936
 20
-135.1759005738449
 10
67.87423772174672
 20
-134.790738898594
 10
67.67545571224781
 20
-134.5347683040399
 10
67.60758733118838
 20
-134.4693114898202
 10
67.47012802132691
 20
-134.4693114898202
 10
67.35161673663433
 20
-134.4693114898202
 10
67.22070310819483
 20
-134.5413139854619
 10
67.22070310819483
 20
-134.7380289376697
 10
67.22070310819483
 20
-134.998133646806
 10
67.45117999615805
 20
-135.0064018759706
 10
67.56762422355949
 20
-135.0108805001015
 10
67.56762422355949
 20
-135.0108805001015
 10
67.56762422355949
 20
-135.2351562161912
 10
67.56762422355949
 20
-135.2351562161912
 10
67.44050020015376
 20
-135.2265434774781
 10
67.32853459688315
 20
-135.2158636814738
 10
67.21002331219056
 20
-135.1355929566675
 10
67.04913735302938
 20
-135.025694410688
 10
67.01537541727394
 20
-134.839314744936
 10
67.01537541727394
 20
-134.7232150270831
 10
67.01537541727394
 20
-134.4458848405205
 10
67.19934351618627
 20
-134.2384900923084
 10
67.47219507861807
 20
-134.2384900923084
 10
67.70094941883866
 20
-134.2384900923084
 10
67.80016816881385
 20
-134.3549343197099
 10
68.02651094219476
 20
-134.6639593847368
 97
        0
 97
        0
 75
     2
 76
     1
 98
        0
  0
SPLINE
  5
86
330
80
100
AcDbEntity
  8
_U+30EC_U+30A4_U+30E4_U+30FC 1
370
     0
100
AcDbSpline
210
0.0
220
0.0
230
1.0
 70
    11
 71
     3
 72
    29
 73
    25
 74
     0
 42
0.0000000001
 43
0.0000000001
 12
1.0
 22
0.0
 32
0.0
 13
1.0
 23
0.0
 33
0.0
 40
0.0
 40
0.0
 40
0.0
 40
0.0
 40
1.0
 40
1.0
 40
1.0
 40
2.0
 40
2.0
 40
2.0
 40
3.0
 40
3.0
 40
3.0
 40
4.0
 40
4.0
 40
4.0
 40
5.0
 40
5.0
 40
5.0
 40
6.0
 40
6.0
 40
6.0
 40
7.0
 40
7.0
 40
7.0
 40
8.0
 40
8.0
 40
8.0
 40
8.0
 10
68.43062064261457
 20
-133.1822238165308
 30
0.0
 10
68.64008244811777
 20
-133.2903998147677
 30
0.0
 10
68.65903047328663
 20
-133.4636881176758
 30
0.0
 10
68.65903047328663
 20
-133.5801323450772
 30
0.0
 10
68.65903047328663
 20
-133.7410183042384
 30
0.0
 10
68.61252168423576
 20
-133.8826117286821
 30
0.0
 10
68.43062064261457
 20
-133.977696364075
 30
0.0
 10
68.23597274769796
 20
-134.081393738181
 30
0.0
 10
67.99895017831277
 20
-134.1003417633499
 30
0.0
 10
67.83634167140897
 20
-134.1003417633499
 30
0.0
 10
67.69233668012554
 20
-134.1003417633499
 30
0.0
 10
67.44050020015376
 20
-134.0834607954722
 30
0.0
 10
67.24171819065485
 20
-133.977696364075
 30
0.0
 10
67.03880206657364
 20
-133.8698648753867
 30
0.0
 10
67.01537541727394
 20
-133.7089789162255
 30
0.0
 10
67.01537541727394
 20
-133.5801323450772
 30
0.0
 10
67.01537541727394
 20
-133.4213134432072
 30
0.0
 10
67.05981714903366
 20
-133.2776529614723
 30
0.0
 10
67.24171819065485
 20
-133.1822238165308
 30
0.0
 10
67.43429902828032
 20
-133.0830050665556
 30
0.0
 10
67.66270885895239
 20
-133.0595784172559
 30
0.0
 10
67.83634167140897
 20
-133.0595784172559
 30
0.0
 10
68.0075629170259
 20
-133.0595784172559
 30
0.0
 10
68.2380398049891
 20
-133.0809380092645
 30
0.0
 10
68.43062064261457
 20
-133.1822238165308
 30
0.0
  0
SPLINE
  5
87
330
80
100
AcDbEntity
  8
_U+30EC_U+30A4_U+30E4_U+30FC 1
370
     0
100
AcDbSpline
210
0.0
220
0.0
230
1.0
 70
    11
 71
     3
 72
    17
 73
    13
 74
     0
 42
0.0000000001
 43
0.0000000001
 12
1.0
 22
0.0
 32
0.0
 13
1.0
 23
0.0
 33
0.0
 40
0.0
 40
0.0
 40
0.0
 40
0.0
 40
1.0
 40
1.0
 40
1.0
 40
2.0
 40
2.0
 40
2.0
 40
3.0
 40
3.0
 40
3.0
 40
4.0
 40
4.0
 40
4.0
 40
4.0
 10
67.2079562548994
 20
-133.5801323450772
 30
0.0
 10
67.2079562548994
 20
-133.8295572582093
 30
0.0
 10
67.49148761333547
 20
-133.8764105568087
 30
0.0
 10
67.83634167140897
 20
-133.8764105568087
 30
0.0
 10
68.15570202289163
 20
-133.8764105568087
 30
0.0
 10
68.46438257837002
 20
-133.8402370542136
 30
0.0
 10
68.46438257837002
 20
-133.5801323450772
 30
0.0
 10
68.46438257837002
 20
-133.3324299796877
 30
0.0
 10
68.18326278677362
 20
-133.2838541333457
 30
0.0
 10
67.83634167140897
 20
-133.2838541333457
 30
0.0
 10
67.51663681037779
 20
-133.2838541333457
 30
0.0
 10
67.2079562548994
 20
-133.322094693232
 30
0.0
 10
67.2079562548994
 20
-133.5801323450772
 30
0.0
  0
HATCH
  5
88
330
80
100
AcDbEntity
  8
_U+30EC_U+30A4_U+30E4_U+30FC 1
 62
     7
420
 16777215
100
AcDbHatch
 10
0.0
 20
0.0
 30
0.0
210
0.0
220
0.0
230
1.0
  2
SOLID
 70
     1
 71
     0
 91
        2
 92
        1
 93
        1
 72
     4
 94
        3
 73
     0
 74
     1
 95
       29
 96
       25
 40
0.0
 40
0.0
 40
0.0
 40
0.0
 40
1.0
 40
1.0
 40
1.0
 40
2.0
 40
2.0
 40
2.0
 40
3.0
 40
3.0
 40
3.0
 40
4.0
 40
4.0
 40
4.0
 40
5.0
 40
5.0
 40
5.0
 40
6.0
 40
6.0
 40
6.0
 40
7.0
 40
7.0
 40
7.0
 40
8.0
 40
8.0
 40
8.0
 40
8.0
 10
68.43062064261457
 20
-133.1822238165308
 10
68.64008244811777
 20
-133.2903998147677
 10
68.65903047328663
 20
-133.4636881176758
 10
68.65903047328663
 20
-133.5801323450772
 10
68.65903047328663
 20
-133.7410183042384
 10
68.61252168423576
 20
-133.8826117286821
 10
68.43062064261457
 20
-133.977696364075
 10
68.23597274769796
 20
-134.081393738181
 10
67.99895017831277
 20
-134.1003417633499
 10
67.83634167140897
 20
-134.1003417633499
 10
67.69233668012554
 20
-134.1003417633499
 10
67.44050020015376
 20
-134.0834607954722
 10
67.24171819065485
 20
-133.977696364075
 10
67.03880206657364
 20
-133.8698648753867
 10
67.01537541727394
 20
-133.7089789162255
 10
67.01537541727394
 20
-133.5801323450772
 10
67.01537541727394
 20
-133.4213134432072
 10
67.05981714903366
 20
-133.2776529614723
 10
67.24171819065485
 20
-133.1822238165308
 10
67.43429902828032
 20
-133.0830050665556
 10
67.66270885895239
 20
-133.0595784172559
 10
67.83634167140897
 20
-133.0595784172559
 10
68.0075629170259
 20
-133.0595784172559
 10
68.2380398049891
 20
-133.0809380092645
 10
68.43062064261457
 20
-133.1822238165308
 97
        0
 97
        0
 92
        1
 93
        1
 72
     4
 94
        3
 73
     0
 74
     1
 95
       17
 96
       13
 40
0.0
 40
0.0
 40
0.0
 40
0.0
 40
1.0
 40
1.0
 40
1.0
 40
2.0
 40
2.0
 40
2.0
 40
3.0
 40
3.0
 40
3.0
 40
4.0
 40
4.0
 40
4.0
 40
4.0
 10
67.2079562548994
 20
-133.5801323450772
 10
67.2079562548994
 20
-133.8295572582093
 10
67.49148761333547
 20
-133.8764105568087
 10
67.83634167140897
 20
-133.8764105568087
 10
68.15570202289163
 20
-133.8764105568087
 10
68.46438257837002
 20
-133.8402370542136
 10
68.46438257837002
 20
-133.5801323450772
 10
68.46438257837002
 20
-133.3324299796877
 10
68.18326278677362
 20
-133.2838541333457
 10
67.83634167140897
 20
-133.2838541333457
 10
67.51663681037779
 20
-133.2838541333457
 10
67.2079562548994
 20
-133.322094693232
 10
67.2079562548994
 20
-133.5801323450772
 97
        0
 97
        0
 75
     2
 76
     1
 98
        0
  0
ENDBLK
  5
83
330
80
100
AcDbEntity
  8
0
100
AcDbBlockEnd
  0
BLOCK
  5
8B
330
89
100
AcDbEntity
  8
0
100
AcDbBlockBegin
  2
block 5
 70
     0
 10
0.0
 20
0.0
 30
0.0
  3
block 5
  1

  0
SPLINE
  5
8D
330
89
100
AcDbEntity
  8
_U+30EC_U+30A4_U+30E4_U+30FC 1
370
     0
100
AcDbSpline
210
0.0
220
0.0
230
1.0
 70
    11
 71
     3
 72
    26
 73
    22
 74
     0
 42
0.0000000001
 43
0.0000000001
 12
1.0
 22
0.0
 32
0.0
 13
1.0
 23
0.0
 33
0.0
 40
0.0
 40
0.0
 40
0.0
 40
0.0
 40
1.0
 40
1.0
 40
1.0
 40
2.0
 40
2.0
 40
2.0
 40
3.0
 40
3.0
 40
3.0
 40
4.0
 40
4.0
 40
4.0
 40
5.0
 40
5.0
 40
5.0
 40
6.0
 40
6.0
 40
6.0
 40
7.0
 40
7.0
 40
7.0
 40
7.0
 10
68.60838756965346
 20
-115.8058512080277
 30
0.0
 10
68.60838756965346
 20
-115.8058512080277
 30
0.0
 10
67.50423446663089
 20
-115.8058512080277
 30
0.0
 10
67.50423446663089
 20
-115.8058512080277
 30
0.0
 10
67.50423446663089
 20
-115.8058512080277
 30
0.0
 10
67.50423446663089
 20
-116.1358913555146
 30
0.0
 10
67.50423446663089
 20
-116.1358913555146
 30
0.0
 10
67.50423446663089
 20
-116.1358913555146
 30
0.0
 10
67.35609536076515
 20
-116.1358913555146
 30
0.0
 10
67.35609536076515
 20
-116.1358913555146
 30
0.0
 10
67.34128145017857
 20
-115.8037841507366
 30
0.0
 10
67.17832843372625
 20
-115.7572753616857
 30
0.0
 10
67.06395126361596
 20
-115.7276475405125
 30
0.0
 10
67.06395126361596
 20
-115.7276475405125
 30
0.0
 10
67.06395126361596
 20
-115.5815754919379
 30
0.0
 10
67.06395126361596
 20
-115.5815754919379
 30
0.0
 10
67.06395126361596
 20
-115.5815754919379
 30
0.0
 10
68.60838756965346
 20
-115.5815754919379
 30
0.0
 10
68.60838756965346
 20
-115.5815754919379
 30
0.0
 10
68.60838756965346
 20
-115.5815754919379
 30
0.0
 10
68.60838756965346
 20
-115.8058512080277
 30
0.0
 10
68.60838756965346
 20
-115.8058512080277
 30
0.0
  0
HATCH
  5
8E
330
89
100
AcDbEntity
  8
_U+30EC_U+30A4_U+30E4_U+30FC 1
 62
     7
420
 16777215
100
AcDbHatch
 10
0.0
 20
0.0
 30
0.0
210
0.0
220
0.0
230
1.0
  2
SOLID
 70
     1
 71
     0
 91
        1
 92
        1
 93
        1
 72
     4
 94
        3
 73
     0
 74
     1
 95
       26
 96
       22
 40
0.0
 40
0.0
 40
0.0
 40
0.0
 40
1.0
 40
1.0
 40
1.0
 40
2.0
 40
2.0
 40
2.0
 40
3.0
 40
3.0
 40
3.0
 40
4.0
 40
4.0
 40
4.0
 40
5.0
 40
5.0
 40
5.0
 40
6.0
 40
6.0
 40
6.0
 40
7.0
 40
7.0
 40
7.0
 40
7.0
 10
68.60838756965346
 20
-115.8058512080277
 10
68.60838756965346
 20
-115.8058512080277
 10
67.50423446663089
 20
-115.8058512080277
 10
67.50423446663089
 20
-115.8058512080277
 10
67.50423446663089
 20
-115.8058512080277
 10
67.50423446663089
 20
-116.1358913555146
 10
67.50423446663089
 20
-116.1358913555146
 10
67.50423446663089
 20
-116.1358913555146
 10
67.35609536076515
 20
-116.1358913555146
 10
67.35609536076515
 20
-116.1358913555146
 10
67.34128145017857
 20
-115.8037841507366
 10
67.17832843372625
 20
-115.7572753616857
 10
67.06395126361596
 20
-115.7276475405125
 10
67.06395126361596
 20
-115.7276475405125
 10
67.06395126361596
 20
-115.5815754919379
 10
67.06395126361596
 20
-115.5815754919379
 10
67.06395126361596
 20
-115.5815754919379
 10
68.60838756965346
 20
-115.5815754919379
 10
68.60838756965346
 20
-115.5815754919379
 10
68.60838756965346
 20
-115.5815754919379
 10
68.60838756965346
 20
-115.8058512080277
 10
68.60838756965346
 20
-115.8058512080277
 97
        0
 97
        0
 75
     2
 76
     1
 98
        0
  0
SPLINE
  5
8F
330
89
100
AcDbEntity
  8
_U+30EC_U+30A4_U+30E4_U+30FC 1
370
     0
100
AcDbSpline
210
0.0
220
0.0
230
1.0
 70
    11
 71
     3
 72
    29
 73
    25
 74
     0
 42
0.0000000001
 43
0.0000000001
 12
1.0
 22
0.0
 32
0.0
 13
1.0
 23
0.0
 33
0.0
 40
0.0
 40
0.0
 40
0.0
 40
0.0
 40
1.0
 40
1.0
 40
1.0
 40
2.0
 40
2.0
 40
2.0
 40
3.0
 40
3.0
 40
3.0
 40
4.0
 40
4.0
 40
4.0
 40
5.0
 40
5.0
 40
5.0
 40
6.0
 40
6.0
 40
6.0
 40
7.0
 40
7.0
 40
7.0
 40
8.0
 40
8.0
 40
8.0
 40
8.0
 10
68.65903047328663
 20
-114.5804307439243
 30
0.0
 10
68.65903047328663
 20
-114.8470811344827
 30
0.0
 10
68.52157116342516
 20
-115.1006401621971
 30
0.0
 10
68.17258299076936
 20
-115.1006401621971
 30
0.0
 10
67.9166123962153
 20
-115.1006401621971
 30
0.0
 10
67.8215277608224
 20
-114.9590467377533
 30
0.0
 10
67.76020506118495
 20
-114.8532823063561
 30
0.0
 10
67.70094941883866
 20
-114.9779947629222
 30
0.0
 10
67.58657224872836
 20
-115.0541313731462
 30
0.0
 10
67.4256862895672
 20
-115.0541313731462
 30
0.0
 10
67.15076766984426
 20
-115.0541313731462
 30
0.0
 10
67.01537541727394
 20
-114.8553493636473
 30
0.0
 10
67.01537541727394
 20
-114.5804307439243
 30
0.0
 10
67.01537541727394
 20
-114.2968993854883
 30
0.0
 10
67.15938040855738
 20
-114.106385605154
 30
0.0
 10
67.4256862895672
 20
-114.106385605154
 30
0.0
 10
67.58657224872836
 20
-114.106385605154
 30
0.0
 10
67.70094941883866
 20
-114.1849337822177
 30
0.0
 10
67.76020506118495
 20
-114.3096462387837
 30
0.0
 10
67.81084796481812
 20
-114.2207627752643
 30
0.0
 10
67.90593260021102
 20
-114.0619438733942
 30
0.0
 10
68.16844887618706
 20
-114.0619438733942
 30
0.0
 10
68.54293075543372
 20
-114.0619438733942
 30
0.0
 10
68.65903047328663
 20
-114.341341117248
 30
0.0
 10
68.65903047328663
 20
-114.5804307439243
 30
0.0
  0
SPLINE
  5
90
330
89
100
AcDbEntity
  8
_U+30EC_U+30A4_U+30E4_U+30FC 1
370
     0
100
AcDbSpline
210
0.0
220
0.0
230
1.0
 70
    11
 71
     3
 72
    17
 73
    13
 74
     0
 42
0.0000000001
 43
0.0000000001
 12
1.0
 22
0.0
 32
0.0
 13
1.0
 23
0.0
 33
0.0
 40
0.0
 40
0.0
 40
0.0
 40
0.0
 40
1.0
 40
1.0
 40
1.0
 40
2.0
 40
2.0
 40
2.0
 40
3.0
 40
3.0
 40
3.0
 40
4.0
 40
4.0
 40
4.0
 40
4.0
 10
67.2079562548994
 20
-114.5804307439243
 30
0.0
 10
67.2079562548994
 20
-114.7454508176678
 30
0.0
 10
67.3030408902923
 20
-114.8298556570564
 30
0.0
 10
67.43843314286262
 20
-114.8298556570564
 30
0.0
 10
67.56107854213751
 20
-114.8298556570564
 30
0.0
 10
67.67958982683011
 20
-114.7581976709632
 30
0.0
 10
67.67958982683011
 20
-114.5804307439243
 30
0.0
 10
67.67958982683011
 20
-114.4026638168855
 30
0.0
 10
67.56107854213751
 20
-114.3306613212437
 30
0.0
 10
67.43843314286262
 20
-114.3306613212437
 30
0.0
 10
67.3030408902923
 20
-114.3306613212437
 30
0.0
 10
67.2079562548994
 20
-114.417477727472
 30
0.0
 10
67.2079562548994
 20
-114.5804307439243
 30
0.0
  0
SPLINE
  5
91
330
89
100
AcDbEntity
  8
_U+30EC_U+30A4_U+30E4_U+30FC 1
370
     0
100
AcDbSpline
210
0.0
220
0.0
230
1.0
 70
    11
 71
     3
 72
    17
 73
    13
 74
     0
 42
0.0000000001
 43
0.0000000001
 12
1.0
 22
0.0
 32
0.0
 13
1.0
 23
0.0
 33
0.0
 40
0.0
 40
0.0
 40
0.0
 40
0.0
 40
1.0
 40
1.0
 40
1.0
 40
2.0
 40
2.0
 40
2.0
 40
3.0
 40
3.0
 40
3.0
 40
4.0
 40
4.0
 40
4.0
 40
4.0
 10
67.86803654987327
 20
-114.5804307439243
 30
0.0
 10
67.86803654987327
 20
-114.7240912256593
 30
0.0
 10
67.95485295610156
 20
-114.8767089556558
 30
0.0
 10
68.15776908018279
 20
-114.8767089556558
 30
0.0
 10
68.36309677110367
 20
-114.8767089556558
 30
0.0
 10
68.46438257837002
 20
-114.7495849322501
 30
0.0
 10
68.46438257837002
 20
-114.5804307439243
 30
0.0
 10
68.46438257837002
 20
-114.3943955877209
 30
0.0
 10
68.34173717909512
 20
-114.2841525321929
 30
0.0
 10
68.16397025205623
 20
-114.2841525321929
 30
0.0
 10
67.94210610280615
 20
-114.2841525321929
 30
0.0
 10
67.86803654987327
 20
-114.4471055486452
 30
0.0
 10
67.86803654987327
 20
-114.5804307439243
 30
0.0
  0
HATCH
  5
92
330
89
100
AcDbEntity
  8
_U+30EC_U+30A4_U+30E4_U+30FC 1
 62
     7
420
 16777215
100
AcDbHatch
 10
0.0
 20
0.0
 30
0.0
210
0.0
220
0.0
230
1.0
  2
SOLID
 70
     1
 71
     0
 91
        3
 92
        1
 93
        1
 72
     4
 94
        3
 73
     0
 74
     1
 95
       29
 96
       25
 40
0.0
 40
0.0
 40
0.0
 40
0.0
 40
1.0
 40
1.0
 40
1.0
 40
2.0
 40
2.0
 40
2.0
 40
3.0
 40
3.0
 40
3.0
 40
4.0
 40
4.0
 40
4.0
 40
5.0
 40
5.0
 40
5.0
 40
6.0
 40
6.0
 40
6.0
 40
7.0
 40
7.0
 40
7.0
 40
8.0
 40
8.0
 40
8.0
 40
8.0
 10
68.65903047328663
 20
-114.5804307439243
 10
68.65903047328663
 20
-114.8470811344827
 10
68.52157116342516
 20
-115.1006401621971
 10
68.17258299076936
 20
-115.1006401621971
 10
67.9166123962153
 20
-115.1006401621971
 10
67.8215277608224
 20
-114.9590467377533
 10
67.76020506118495
 20
-114.8532823063561
 10
67.70094941883866
 20
-114.9779947629222
 10
67.58657224872836
 20
-115.0541313731462
 10
67.4256862895672
 20
-115.0541313731462
 10
67.15076766984426
 20
-115.0541313731462
 10
67.01537541727394
 20
-114.8553493636473
 10
67.01537541727394
 20
-114.5804307439243
 10
67.01537541727394
 20
-114.2968993854883
 10
67.15938040855738
 20
-114.106385605154
 10
67.4256862895672
 20
-114.106385605154
 10
67.58657224872836
 20
-114.106385605154
 10
67.70094941883866
 20
-114.1849337822177
 10
67.76020506118495
 20
-114.3096462387837
 10
67.81084796481812
 20
-114.2207627752643
 10
67.90593260021102
 20
-114.0619438733942
 10
68.16844887618706
 20
-114.0619438733942
 10
68.54293075543372
 20
-114.0619438733942
 10
68.65903047328663
 20
-114.341341117248
 10
68.65903047328663
 20
-114.5804307439243
 97
        0
 97
        0
 92
        1
 93
        1
 72
     4
 94
        3
 73
     0
 74
     1
 95
       17
 96
       13
 40
0.0
 40
0.0
 40
0.0
 40
0.0
 40
1.0
 40
1.0
 40
1.0
 40
2.0
 40
2.0
 40
2.0
 40
3.0
 40
3.0
 40
3.0
 40
4.0
 40
4.0
 40
4.0
 40
4.0
 10
67.2079562548994
 20
-114.5804307439243
 10
67.2079562548994
 20
-114.7454508176678
 10
67.3030408902923
 20
-114.8298556570564
 10
67.43843314286262
 20
-114.8298556570564
 10
67.56107854213751
 20
-114.8298556570564
 10
67.67958982683011
 20
-114.7581976709632
 10
67.67958982683011
 20
-114.5804307439243
 10
67.67958982683011
 20
-114.4026638168855
 10
67.56107854213751
 20
-114.3306613212437
 10
67.43843314286262
 20
-114.3306613212437
 10
67.3030408902923
 20
-114.3306613212437
 10
67.2079562548994
 20
-114.417477727472
 10
67.2079562548994
 20
-114.5804307439243
 97
        0
 97
        0
 92
        1
 93
        1
 72
     4
 94
        3
 73
     0
 74
     1
 95
       17
 96
       13
 40
0.0
 40
0.0
 40
0.0
 40
0.0
 40
1.0
 40
1.0
 40
1.0
 40
2.0
 40
2.0
 40
2.0
 40
3.0
 40
3.0
 40
3.0
 40
4.0
 40
4.0
 40
4.0
 40
4.0
 10
67.86803654987327
 20
-114.5804307439243
 10
67.86803654987327
 20
-114.7240912256593
 10
67.95485295610156
 20
-114.8767089556558
 10
68.15776908018279
 20
-114.8767089556558
 10
68.36309677110367
 20
-114.8767089556558
 10
68.46438257837002
 20
-114.7495849322501
 10
68.46438257837002
 20
-114.5804307439243
 10
68.46438257837002
 20
-114.3943955877209
 10
68.34173717909512
 20
-114.2841525321929
 10
68.16397025205623
 20
-114.2841525321929
 10
67.94210610280615
 20
-114.2841525321929
 10
67.86803654987327
 20
-114.4471055486452
 10
67.86803654987327
 20
-114.5804307439243
 97
        0
 97
        0
 75
     2
 76
     1
 98
        0
  0
ENDBLK
  5
8C
330
89
100
AcDbEntity
  8
0
100
AcDbBlockEnd
  0
BLOCK
  5
96
330
94
100
AcDbEntity
  8
0
100
AcDbBlockBegin
  2
block 6
 70
     0
 10
0.0
 20
0.0
 30
0.0
  3
block 6
  1

  0
SPLINE
  5
98
330
94
100
AcDbEntity
  8
_U+30EC_U+30A4_U+30E4_U+30FC 1
370
     0
100
AcDbSpline
210
0.0
220
0.0
230
1.0
 70
    11
 71
     3
 72
    32
 73
    28
 74
     0
 42
0.0000000001
 43
0.0000000001
 12
1.0
 22
0.0
 32
0.0
 13
1.0
 23
0.0
 33
0.0
 40
0.0
 40
0.0
 40
0.0
 40
0.0
 40
1.0
 40
1.0
 40
1.0
 40
2.0
 40
2.0
 40
2.0
 40
3.0
 40
3.0
 40
3.0
 40
4.0
 40
4.0
 40
4.0
 40
5.0
 40
5.0
 40
5.0
 40
6.0
 40
6.0
 40
6.0
 40
7.0
 40
7.0
 40
7.0
 40
8.0
 40
8.0
 40
8.0
 40
9.0
 40
9.0
 40
9.0
 40
9.0
 10
114.9307969547743
 20
-141.8042642874656
 30
0.0
 10
114.9307969547743
 20
-142.320339591156
 30
0.0
 10
114.3768256007461
 20
-142.3289523298692
 30
0.0
 10
114.1628851711121
 20
-142.3289523298692
 30
0.0
 10
113.9324082831488
 20
-142.3289523298692
 30
0.0
 10
113.2850748414704
 20
-142.3100043047003
 30
0.0
 10
113.2850748414704
 20
-141.7663682371279
 30
0.0
 10
113.2850748414704
 20
-141.5927354246713
 30
0.0
 10
113.355010279821
 20
-141.3474446261215
 30
0.0
 10
113.6871174845991
 20
-141.3092040662352
 30
0.0
 10
113.6871174845991
 20
-141.3092040662352
 30
0.0
 10
113.6871174845991
 20
-141.5231444958692
 30
0.0
 10
113.6871174845991
 20
-141.5231444958692
 30
0.0
 10
113.6299288995439
 20
-141.533479782325
 30
0.0
 10
113.4817897936782
 20
-141.5651746607893
 30
0.0
 10
113.4817897936782
 20
-141.768435294419
 30
0.0
 10
113.4817897936782
 20
-142.0602348820197
 30
0.0
 10
113.809762883874
 20
-142.1005424991971
 30
0.0
 10
114.0147460652463
 20
-142.112944842944
 30
0.0
 10
113.9365423977311
 20
-142.0199272648422
 30
0.0
 10
113.8772867553848
 20
-141.9524033933313
 30
0.0
 10
113.8772867553848
 20
-141.7705023517101
 30
0.0
 10
113.8772867553848
 20
-141.5906683673801
 30
0.0
 10
113.9854627536217
 20
-141.2881889837752
 30
0.0
 10
114.3916395113327
 20
-141.2881889837752
 30
0.0
 10
114.7109998628153
 20
-141.2881889837752
 30
0.0
 10
114.9307969547743
 20
-141.4869709932741
 30
0.0
 10
114.9307969547743
 20
-141.8042642874656
 30
0.0
  0
SPLINE
  5
99
330
94
100
AcDbEntity
  8
_U+30EC_U+30A4_U+30E4_U+30FC 1
370
     0
100
AcDbSpline
210
0.0
220
0.0
230
1.0
 70
    11
 71
     3
 72
    17
 73
    13
 74
     0
 42
0.0000000001
 43
0.0000000001
 12
1.0
 22
0.0
 32
0.0
 13
1.0
 23
0.0
 33
0.0
 40
0.0
 40
0.0
 40
0.0
 40
0.0
 40
1.0
 40
1.0
 40
1.0
 40
2.0
 40
2.0
 40
2.0
 40
3.0
 40
3.0
 40
3.0
 40
4.0
 40
4.0
 40
4.0
 40
4.0
 10
114.0719346503015
 20
-141.7873833195879
 30
0.0
 10
114.0719346503015
 20
-142.0495550860154
 30
0.0
 10
114.2834635130958
 20
-142.0877956459017
 30
0.0
 10
114.3999077404973
 20
-142.0877956459017
 30
0.0
 10
114.575607610245
 20
-142.0877956459017
 30
0.0
 10
114.7385606266973
 20
-141.9923665009603
 30
0.0
 10
114.7385606266973
 20
-141.8083984020479
 30
0.0
 10
114.7385606266973
 20
-141.6878200600642
 30
0.0
 10
114.679304984351
 20
-141.5121201903164
 30
0.0
 10
114.3937065686238
 20
-141.5121201903164
 30
0.0
 10
114.169430852534
 20
-141.5121201903164
 30
0.0
 10
114.0719346503015
 20
-141.6519910670176
 30
0.0
 10
114.0719346503015
 20
-141.7873833195879
 30
0.0
  0
HATCH
  5
9A
330
94
100
AcDbEntity
  8
_U+30EC_U+30A4_U+30E4_U+30FC 1
 62
     7
420
 16777215
100
AcDbHatch
 10
0.0
 20
0.0
 30
0.0
210
0.0
220
0.0
230
1.0
  2
SOLID
 70
     1
 71
     0
 91
        2
 92
        1
 93
        1
 72
     4
 94
        3
 73
     0
 74
     1
 95
       32
 96
       28
 40
0.0
 40
0.0
 40
0.0
 40
0.0
 40
1.0
 40
1.0
 40
1.0
 40
2.0
 40
2.0
 40
2.0
 40
3.0
 40
3.0
 40
3.0
 40
4.0
 40
4.0
 40
4.0
 40
5.0
 40
5.0
 40
5.0
 40
6.0
 40
6.0
 40
6.0
 40
7.0
 40
7.0
 40
7.0
 40
8.0
 40
8.0
 40
8.0
 40
9.0
 40
9.0
 40
9.0
 40
9.0
 10
114.9307969547743
 20
-141.8042642874656
 10
114.9307969547743
 20
-142.320339591156
 10
114.3768256007461
 20
-142.3289523298692
 10
114.1628851711121
 20
-142.3289523298692
 10
113.9324082831488
 20
-142.3289523298692
 10
113.2850748414704
 20
-142.3100043047003
 10
113.2850748414704
 20
-141.7663682371279
 10
113.2850748414704
 20
-141.5927354246713
 10
113.355010279821
 20
-141.3474446261215
 10
113.6871174845991
 20
-141.3092040662352
 10
113.6871174845991
 20
-141.3092040662352
 10
113.6871174845991
 20
-141.5231444958692
 10
113.6871174845991
 20
-141.5231444958692
 10
113.6299288995439
 20
-141.533479782325
 10
113.4817897936782
 20
-141.5651746607893
 10
113.4817897936782
 20
-141.768435294419
 10
113.4817897936782
 20
-142.0602348820197
 10
113.809762883874
 20
-142.1005424991971
 10
114.0147460652463
 20
-142.112944842944
 10
113.9365423977311
 20
-142.0199272648422
 10
113.8772867553848
 20
-141.9524033933313
 10
113.8772867553848
 20
-141.7705023517101
 10
113.8772867553848
 20
-141.5906683673801
 10
113.9854627536217
 20
-141.2881889837752
 10
114.3916395113327
 20
-141.2881889837752
 10
114.7109998628153
 20
-141.2881889837752
 10
114.9307969547743
 20
-141.4869709932741
 10
114.9307969547743
 20
-141.8042642874656
 97
        0
 97
        0
 92
        1
 93
        1
 72
     4
 94
        3
 73
     0
 74
     1
 95
       17
 96
       13
 40
0.0
 40
0.0
 40
0.0
 40
0.0
 40
1.0
 40
1.0
 40
1.0
 40
2.0
 40
2.0
 40
2.0
 40
3.0
 40
3.0
 40
3.0
 40
4.0
 40
4.0
 40
4.0
 40
4.0
 10
114.0719346503015
 20
-141.7873833195879
 10
114.0719346503015
 20
-142.0495550860154
 10
114.2834635130958
 20
-142.0877956459017
 10
114.3999077404973
 20
-142.0877956459017
 10
114.575607610245
 20
-142.0877956459017
 10
114.7385606266973
 20
-141.9923665009603
 10
114.7385606266973
 20
-141.8083984020479
 10
114.7385606266973
 20
-141.6878200600642
 10
114.679304984351
 20
-141.5121201903164
 10
114.3937065686238
 20
-141.5121201903164
 10
114.169430852534
 20
-141.5121201903164
 10
114.0719346503015
 20
-141.6519910670176
 10
114.0719346503015
 20
-141.7873833195879
 97
        0
 97
        0
 75
     2
 76
     1
 98
        0
  0
POLYLINE
  5
9B
330
94
100
AcDbEntity
  8
_U+30EC_U+30A4_U+30E4_U+30FC 1
370
     0
100
AcDb2dPolyline
 66
     1
 10
0.0
 20
0.0
 30
0.0
  0
VERTEX
  5
9C
330
9B
100
AcDbEntity
  8
_U+30EC_U+30A4_U+30E4_U+30FC 1
370
     0
100
AcDbVertex
100
AcDb2dVertex
 10
114.8801540511411
 20
-141.0718369873015
 30
0.0
  0
VERTEX
  5
9D
330
9B
100
AcDbEntity
  8
_U+30EC_U+30A4_U+30E4_U+30FC 1
370
     0
100
AcDbVertex
100
AcDb2dVertex
 10
114.6283175711693
 20
-141.0718369873015
 30
0.0
  0
VERTEX
  5
9E
330
9B
100
AcDbEntity
  8
_U+30EC_U+30A4_U+30E4_U+30FC 1
370
     0
100
AcDbVertex
100
AcDb2dVertex
 10
114.6283175711693
 20
-140.8200005073297
 30
0.0
  0
VERTEX
  5
9F
330
9B
100
AcDbEntity
  8
_U+30EC_U+30A4_U+30E4_U+30FC 1
370
     0
100
AcDbVertex
100
AcDb2dVertex
 10
114.8801540511411
 20
-140.8200005073297
 30
0.0
  0
VERTEX
  5
A0
330
9B
100
AcDbEntity
  8
_U+30EC_U+30A4_U+30E4_U+30FC 1
370
     0
100
AcDbVertex
100
AcDb2dVertex
 10
114.8801540511411
 20
-141.0718369873015
 30
0.0
  0
SEQEND
  5
A1
330
9B
100
AcDbEntity
  8
_U+30EC_U+30A4_U+30E4_U+30FC 1
370
     0
  0
HATCH
  5
A2
330
94
100
AcDbEntity
  8
_U+30EC_U+30A4_U+30E4_U+30FC 1
 62
     7
420
 16777215
100
AcDbHatch
 10
0.0
 20
0.0
 30
0.0
210
0.0
220
0.0
230
1.0
  2
SOLID
 70
     1
 71
     0
 91
        1
 92
        1
 93
        4
 72
     1
 10
114.8801540511411
 20
-141.0718369873015
 11
114.6283175711693
 21
-141.0718369873015
 72
     1
 10
114.6283175711693
 20
-141.0718369873015
 11
114.6283175711693
 21
-140.8200005073297
 72
     1
 10
114.6283175711693
 20
-140.8200005073297
 11
114.8801540511411
 21
-140.8200005073297
 72
     1
 10
114.8801540511411
 20
-140.8200005073297
 11
114.8801540511411
 21
-141.0718369873015
 97
        0
 75
     2
 76
     1
 98
        0
  0
SPLINE
  5
A3
330
94
100
AcDbEntity
  8
_U+30EC_U+30A4_U+30E4_U+30FC 1
370
     0
100
AcDbSpline
210
0.0
220
0.0
230
1.0
 70
    11
 71
     3
 72
    53
 73
    49
 74
     0
 42
0.0000000001
 43
0.0000000001
 12
1.0
 22
0.0
 32
0.0
 13
1.0
 23
0.0
 33
0.0
 40
0.0
 40
0.0
 40
0.0
 40
0.0
 40
1.0
 40
1.0
 40
1.0
 40
2.0
 40
2.0
 40
2.0
 40
3.0
 40
3.0
 40
3.0
 40
4.0
 40
4.0
 40
4.0
 40
5.0
 40
5.0
 40
5.0
 40
6.0
 40
6.0
 40
6.0
 40
7.0
 40
7.0
 40
7.0
 40
8.0
 40
8.0
 40
8.0
 40
9.0
 40
9.0
 40
9.0
 40
10.0
 40
10.0
 40
10.0
 40
11.0
 40
11.0
 40
11.0
 40
12.0
 40
12.0
 40
12.0
 40
13.0
 40
13.0
 40
13.0
 40
14.0
 40
14.0
 40
14.0
 40
15.0
 40
15.0
 40
15.0
 40
16.0
 40
16.0
 40
16.0
 40
16.0
 10
114.9307969547743
 20
-140.1023871177522
 30
0.0
 10
114.9307969547743
 20
-140.1809352948159
 30
0.0
 10
114.9139159868965
 20
-140.2822211020822
 30
0.0
 10
114.8505262299679
 20
-140.3838514188971
 30
0.0
 10
114.7406276839885
 20
-140.5571397218052
 30
0.0
 10
114.6093695460004
 20
-140.5784993138137
 30
0.0
 10
114.5015380573121
 20
-140.5974473389826
 30
0.0
 10
114.5015380573121
 20
-140.5974473389826
 30
0.0
 10
114.5015380573121
 20
-140.375238680184
 30
0.0
 10
114.5015380573121
 20
-140.375238680184
 30
0.0
 10
114.700320066811
 20
-140.32011715242
 30
0.0
 10
114.7299478879842
 20
-140.1933376385628
 30
0.0
 10
114.7299478879842
 20
-140.100320060461
 30
0.0
 10
114.7299478879842
 20
-139.9607936933084
 30
0.0
 10
114.6303846284605
 20
-139.8081759633118
 30
0.0
 10
114.3978406832061
 20
-139.8081759633118
 30
0.0
 10
114.141870088652
 20
-139.8081759633118
 30
0.0
 10
114.0719346503015
 20
-139.9880099476419
 30
0.0
 10
114.0719346503015
 20
-140.1085882896256
 30
0.0
 10
114.0719346503015
 20
-140.1402831680899
 30
0.0
 10
114.0719346503015
 20
-140.2822211020822
 30
0.0
 10
114.2011257309983
 20
-140.3711045656017
 30
0.0
 10
114.2011257309983
 20
-140.3711045656017
 30
0.0
 10
114.1821777058295
 20
-140.5468044353494
 30
0.0
 10
114.1821777058295
 20
-140.5468044353494
 30
0.0
 10
114.1821777058295
 20
-140.5468044353494
 30
0.0
 10
113.3357177451036
 20
-140.4262260933657
 30
0.0
 10
113.3357177451036
 20
-140.4262260933657
 30
0.0
 10
113.3357177451036
 20
-140.4262260933657
 30
0.0
 10
113.3357177451036
 20
-139.6476345136992
 30
0.0
 10
113.3357177451036
 20
-139.6476345136992
 30
0.0
 10
113.3357177451036
 20
-139.6476345136992
 30
0.0
 10
113.5303656400202
 20
-139.6476345136992
 30
0.0
 10
113.5303656400202
 20
-139.6476345136992
 30
0.0
 10
113.5303656400202
 20
-139.6476345136992
 30
0.0
 10
113.5303656400202
 20
-140.2632730769134
 30
0.0
 10
113.5303656400202
 20
-140.2632730769134
 30
0.0
 10
113.5303656400202
 20
-140.2632730769134
 30
0.0
 10
113.9534233656089
 20
-140.3287298911331
 30
0.0
 10
113.9534233656089
 20
-140.3287298911331
 30
0.0
 10
113.9196614298534
 20
-140.2674071914957
 30
0.0
 10
113.879353812676
 20
-140.1850694093982
 30
0.0
 10
113.879353812676
 20
-140.0665581247056
 30
0.0
 10
113.879353812676
 20
-139.8126545874427
 30
0.0
 10
114.065733478428
 20
-139.5756320180575
 30
0.0
 10
114.3788926580372
 20
-139.5756320180575
 30
0.0
 10
114.6961859522287
 20
-139.5756320180575
 30
0.0
 10
114.9307969547743
 20
-139.7999077341472
 30
0.0
 10
114.9307969547743
 20
-140.1023871177522
 30
0.0
  0
HATCH
  5
A4
330
94
100
AcDbEntity
  8
_U+30EC_U+30A4_U+30E4_U+30FC 1
 62
     7
420
 16777215
100
AcDbHatch
 10
0.0
 20
0.0
 30
0.0
210
0.0
220
0.0
230
1.0
  2
SOLID
 70
     1
 71
     0
 91
        1
 92
        1
 93
        1
 72
     4
 94
        3
 73
     0
 74
     1
 95
       53
 96
       49
 40
0.0
 40
0.0
 40
0.0
 40
0.0
 40
1.0
 40
1.0
 40
1.0
 40
2.0
 40
2.0
 40
2.0
 40
3.0
 40
3.0
 40
3.0
 40
4.0
 40
4.0
 40
4.0
 40
5.0
 40
5.0
 40
5.0
 40
6.0
 40
6.0
 40
6.0
 40
7.0
 40
7.0
 40
7.0
 40
8.0
 40
8.0
 40
8.0
 40
9.0
 40
9.0
 40
9.0
 40
10.0
 40
10.0
 40
10.0
 40
11.0
 40
11.0
 40
11.0
 40
12.0
 40
12.0
 40
12.0
 40
13.0
 40
13.0
 40
13.0
 40
14.0
 40
14.0
 40
14.0
 40
15.0
 40
15.0
 40
15.0
 40
16.0
 40
16.0
 40
16.0
 40
16.0
 10
114.9307969547743
 20
-140.1023871177522
 10
114.9307969547743
 20
-140.1809352948159
 10
114.9139159868965
 20
-140.2822211020822
 10
114.8505262299679
 20
-140.3838514188971
 10
114.7406276839885
 20
-140.5571397218052
 10
114.6093695460004
 20
-140.5784993138137
 10
114.5015380573121
 20
-140.5974473389826
 10
114.5015380573121
 20
-140.5974473389826
 10
114.5015380573121
 20
-140.375238680184
 10
114.5015380573121
 20
-140.375238680184
 10
114.700320066811
 20
-140.32011715242
 10
114.7299478879842
 20
-140.1933376385628
 10
114.7299478879842
 20
-140.100320060461
 10
114.7299478879842
 20
-139.9607936933084
 10
114.6303846284605
 20
-139.8081759633118
 10
114.3978406832061
 20
-139.8081759633118
 10
114.141870088652
 20
-139.8081759633118
 10
114.0719346503015
 20
-139.9880099476419
 10
114.0719346503015
 20
-140.1085882896256
 10
114.0719346503015
 20
-140.1402831680899
 10
114.0719346503015
 20
-140.2822211020822
 10
114.2011257309983
 20
-140.3711045656017
 10
114.2011257309983
 20
-140.3711045656017
 10
114.1821777058295
 20
-140.5468044353494
 10
114.1821777058295
 20
-140.5468044353494
 10
114.1821777058295
 20
-140.5468044353494
 10
113.3357177451036
 20
-140.4262260933657
 10
113.3357177451036
 20
-140.4262260933657
 10
113.3357177451036
 20
-140.4262260933657
 10
113.3357177451036
 20
-139.6476345136992
 10
113.3357177451036
 20
-139.6476345136992
 10
113.3357177451036
 20
-139.6476345136992
 10
113.5303656400202
 20
-139.6476345136992
 10
113.5303656400202
 20
-139.6476345136992
 10
113.5303656400202
 20
-139.6476345136992
 10
113.5303656400202
 20
-140.2632730769134
 10
113.5303656400202
 20
-140.2632730769134
 10
113.5303656400202
 20
-140.2632730769134
 10
113.9534233656089
 20
-140.3287298911331
 10
113.9534233656089
 20
-140.3287298911331
 10
113.9196614298534
 20
-140.2674071914957
 10
113.879353812676
 20
-140.1850694093982
 10
113.879353812676
 20
-140.0665581247056
 10
113.879353812676
 20
-139.8126545874427
 10
114.065733478428
 20
-139.5756320180575
 10
114.3788926580372
 20
-139.5756320180575
 10
114.6961859522287
 20
-139.5756320180575
 10
114.9307969547743
 20
-139.7999077341472
 10
114.9307969547743
 20
-140.1023871177522
 97
        0
 97
        0
 75
     2
 76
     1
 98
        0
  0
ENDBLK
  5
97
330
94
100
AcDbEntity
  8
0
100
AcDbBlockEnd
  0
BLOCK
  5
A7
330
A5
100
AcDbEntity
  8
0
100
AcDbBlockBegin
  2
block 7
 70
     0
 10
0.0
 20
0.0
 30
0.0
  3
block 7
  1

  0
SPLINE
  5
A9
330
A5
100
AcDbEntity
  8
_U+30EC_U+30A4_U+30E4_U+30FC 1
370
     0
100
AcDbSpline
210
0.0
220
0.0
230
1.0
 70
    11
 71
     3
 72
    26
 73
    22
 74
     0
 42
0.0000000001
 43
0.0000000001
 12
1.0
 22
0.0
 32
0.0
 13
1.0
 23
0.0
 33
0.0
 40
0.0
 40
0.0
 40
0.0
 40
0.0
 40
1.0
 40
1.0
 40
1.0
 40
2.0
 40
2.0
 40
2.0
 40
3.0
 40
3.0
 40
3.0
 40
4.0
 40
4.0
 40
4.0
 40
5.0
 40
5.0
 40
5.0
 40
6.0
 40
6.0
 40
6.0
 40
7.0
 40
7.0
 40
7.0
 40
7.0
 10
114.879465032044
 20
-135.5107638550112
 30
0.0
 10
114.879465032044
 20
-135.5107638550112
 30
0.0
 10
113.7753119290215
 20
-135.5107638550112
 30
0.0
 10
113.7753119290215
 20
-135.5107638550112
 30
0.0
 10
113.7753119290215
 20
-135.5107638550112
 30
0.0
 10
113.7753119290215
 20
-135.8408040024981
 30
0.0
 10
113.7753119290215
 20
-135.8408040024981
 30
0.0
 10
113.7753119290215
 20
-135.8408040024981
 30
0.0
 10
113.6271728231557
 20
-135.8408040024981
 30
0.0
 10
113.6271728231557
 20
-135.8408040024981
 30
0.0
 10
113.6123589125691
 20
-135.5086967977201
 30
0.0
 10
113.4494058961168
 20
-135.4621880086692
 30
0.0
 10
113.3350287260065
 20
-135.432560187496
 30
0.0
 10
113.3350287260065
 20
-135.432560187496
 30
0.0
 10
113.3350287260065
 20
-135.2864881389214
 30
0.0
 10
113.3350287260065
 20
-135.2864881389214
 30
0.0
 10
113.3350287260065
 20
-135.2864881389214
 30
0.0
 10
114.879465032044
 20
-135.2864881389214
 30
0.0
 10
114.879465032044
 20
-135.2864881389214
 30
0.0
 10
114.879465032044
 20
-135.2864881389214
 30
0.0
 10
114.879465032044
 20
-135.5107638550112
 30
0.0
 10
114.879465032044
 20
-135.5107638550112
 30
0.0
  0
HATCH
  5
AA
330
A5
100
AcDbEntity
  8
_U+30EC_U+30A4_U+30E4_U+30FC 1
 62
     7
420
 16777215
100
AcDbHatch
 10
0.0
 20
0.0
 30
0.0
210
0.0
220
0.0
230
1.0
  2
SOLID
 70
     1
 71
     0
 91
        1
 92
        1
 93
        1
 72
     4
 94
        3
 73
     0
 74
     1
 95
       26
 96
       22
 40
0.0
 40
0.0
 40
0.0
 40
0.0
 40
1.0
 40
1.0
 40
1.0
 40
2.0
 40
2.0
 40
2.0
 40
3.0
 40
3.0
 40
3.0
 40
4.0
 40
4.0
 40
4.0
 40
5.0
 40
5.0
 40
5.0
 40
6.0
 40
6.0
 40
6.0
 40
7.0
 40
7.0
 40
7.0
 40
7.0
 10
114.879465032044
 20
-135.5107638550112
 10
114.879465032044
 20
-135.5107638550112
 10
113.7753119290215
 20
-135.5107638550112
 10
113.7753119290215
 20
-135.5107638550112
 10
113.7753119290215
 20
-135.5107638550112
 10
113.7753119290215
 20
-135.8408040024981
 10
113.7753119290215
 20
-135.8408040024981
 10
113.7753119290215
 20
-135.8408040024981
 10
113.6271728231557
 20
-135.8408040024981
 10
113.6271728231557
 20
-135.8408040024981
 10
113.6123589125691
 20
-135.5086967977201
 10
113.4494058961168
 20
-135.4621880086692
 10
113.3350287260065
 20
-135.432560187496
 10
113.3350287260065
 20
-135.432560187496
 10
113.3350287260065
 20
-135.2864881389214
 10
113.3350287260065
 20
-135.2864881389214
 10
113.3350287260065
 20
-135.2864881389214
 10
114.879465032044
 20
-135.2864881389214
 10
114.879465032044
 20
-135.2864881389214
 10
114.879465032044
 20
-135.2864881389214
 10
114.879465032044
 20
-135.5107638550112
 10
114.879465032044
 20
-135.5107638550112
 97
        0
 97
        0
 75
     2
 76
     1
 98
        0
  0
ENDBLK
  5
A8
330
A5
100
AcDbEntity
  8
0
100
AcDbBlockEnd
  0
ENDSEC
  0
SECTION
  2
ENTITIES
  0
INSERT
  5
42
330
1F
100
AcDbEntity
  8
_U+30EC_U+30A4_U+30E4_U+30FC 1
100
AcDbBlockReference
  2
block 2
 10
0.0
 20
0.0
 30
0.0
  0
ENDSEC
  0
SECTION
  2
OBJECTS
  0
DICTIONARY
  5
C
330
0
100
AcDbDictionary
281
     1
  3
ACAD_GROUP
350
D
  3
ACAD_LAYOUT
350
1A
  3
ACAD_MATERIAL
350
3B
  3
ACAD_MLEADERSTYLE
350
AC
  3
ACAD_MLINESTYLE
350
17
  3
ACAD_PLOTSETTINGS
350
19
  3
ACAD_PLOTSTYLENAME
350
E
  3
ACAD_TABLESTYLE
350
AB
  3
ACAD_VISUALSTYLE
350
2A
  0
SUN
  5
3F
330
29
100
AcDbSun
 90
        1
290
     0
 63
     7
421
 16777215
 40
1.0
291
     1
 91
  2455826
 92
 54000000
292
     0
 70
     2
 71
   256
280
     1
  0
DICTIONARY
  5
D
102
{ACAD_REACTORS
330
C
102
}
330
C
100
AcDbDictionary
281
     1
  0
DICTIONARY
  5
1A
102
{ACAD_REACTORS
330
C
102
}
330
C
100
AcDbDictionary
281
     1
  3
Layout1
350
1E
  3
Layout2
350
26
  3
Model
350
22
  0
DICTIONARY
  5
3B
102
{ACAD_REACTORS
330
C
102
}
330
C
100
AcDbDictionary
281
     1
  3
ByBlock
350
3D
  3
ByLayer
350
3C
  3
Global
350
3E
  0
DICTIONARY
  5
AC
102
{ACAD_REACTORS
330
C
102
}
330
C
100
AcDbDictionary
281
     1
  0
DICTIONARY
  5
17
102
{ACAD_REACTORS
330
C
102
}
330
C
100
AcDbDictionary
281
     1
  3
Standard
350
18
  0
DICTIONARY
  5
19
102
{ACAD_REACTORS
330
C
102
}
330
C
100
AcDbDictionary
281
     1
  0
ACDBDICTIONARYWDFLT
  5
E
102
{ACAD_REACTORS
330
C
102
}
330
C
100
AcDbDictionary
281
     1
  3
Normal
350
F
100
AcDbDictionaryWithDefault
340
F
  0
DICTIONARY
  5
AB
102
{ACAD_REACTORS
330
C
102
}
330
C
100
AcDbDictionary
281
     1
  0
DICTIONARY
  5
2A
102
{ACAD_REACTORS
330
C
102
}
330
C
100
AcDbDictionary
281
     1
  3
2dWireframe
350
2F
  3
3D Hidden
350
31
  3
3dWireframe
350
30
  3
Basic
350
32
  3
Brighten
350
36
  3
ColorChange
350
3A
  3
Conceptual
350
34
  3
Dim
350
35
  3
Facepattern
350
39
  3
Flat
350
2B
  3
FlatWithEdges
350
2C
  3
Gouraud
350
2D
  3
GouraudWithEdges
350
2E
  3
Linepattern
350
38
  3
Realistic
350
33
  3
Thicken
350
37
  0
LAYOUT
  5
1E
102
{ACAD_REACTORS
330
1A
102
}
330
1A
100
AcDbPlotSettings
  1

  2
none_device
  4

  6

 40
0.0
 41
0.0
 42
0.0
 43
0.0
 44
0.0
 45
0.0
 46
0.0
 47
0.0
 48
0.0
 49
0.0
140
0.0
141
0.0
142
1.0
143
1.0
 70
   688
 72
     0
 73
     0
 74
     5
  7

 75
    16
 76
     0
 77
     2
 78
   300
147
1.0
148
0.0
149
0.0
100
AcDbLayout
  1
Layout1
 70
     1
 71
     1
 10
0.0
 20
0.0
 11
12.0
 21
9.0
 12
0.0
 22
0.0
 32
0.0
 14
1.000000000000000E+20
 24
1.000000000000000E+20
 34
1.000000000000000E+20
 15
-1.000000000000000E+20
 25
-1.000000000000000E+20
 35
-1.000000000000000E+20
146
0.0
 13
0.0
 23
0.0
 33
0.0
 16
1.0
 26
0.0
 36
0.0
 17
0.0
 27
1.0
 37
0.0
 76
     0
330
1B
  0
LAYOUT
  5
26
102
{ACAD_REACTORS
330
1A
102
}
330
1A
100
AcDbPlotSettings
  1

  2
none_device
  4

  6

 40
0.0
 41
0.0
 42
0.0
 43
0.0
 44
0.0
 45
0.0
 46
0.0
 47
0.0
 48
0.0
 49
0.0
140
0.0
141
0.0
142
1.0
143
1.0
 70
   688
 72
     0
 73
     0
 74
     5
  7

 75
    16
 76
     0
 77
     2
 78
   300
147
1.0
148
0.0
149
0.0
100
AcDbLayout
  1
Layout2
 70
     1
 71
     2
 10
0.0
 20
0.0
 11
0.0
 21
0.0
 12
0.0
 22
0.0
 32
0.0
 14
0.0
 24
0.0
 34
0.0
 15
0.0
 25
0.0
 35
0.0
146
0.0
 13
0.0
 23
0.0
 33
0.0
 16
1.0
 26
0.0
 36
0.0
 17
0.0
 27
1.0
 37
0.0
 76
     0
330
23
  0
LAYOUT
  5
22
102
{ACAD_REACTORS
330
1A
102
}
330
1A
100
AcDbPlotSettings
  1

  2
none_device
  4

  6

 40
0.0
 41
0.0
 42
0.0
 43
0.0
 44
0.0
 45
0.0
 46
0.0
 47
0.0
 48
0.0
 49
0.0
140
0.0
141
0.0
142
1.0
143
1.0
 70
  1712
 72
     0
 73
     0
 74
     0
  7

 75
     0
 76
     0
 77
     2
 78
   300
147
1.0
148
0.0
149
0.0
100
AcDbLayout
  1
Model
 70
     1
 71
     0
 10
0.0
 20
0.0
 11
12.0
 21
9.0
 12
0.0
 22
0.0
 32
0.0
 14
1.000000000000000E+20
 24
1.000000000000000E+20
 34
1.000000000000000E+20
 15
-1.000000000000000E+20
 25
-1.000000000000000E+20
 35
-1.000000000000000E+20
146
0.0
 13
0.0
 23
0.0
 33
0.0
 16
1.0
 26
0.0
 36
0.0
 17
0.0
 27
1.0
 37
0.0
 76
     0
330
1F
331
29
  0
MATERIAL
  5
3D
102
{ACAD_REACTORS
330
3B
102
}
330
3B
100
AcDbMaterial
  1
ByBlock
 72
     1
 94
      127
  0
MATERIAL
  5
3C
102
{ACAD_REACTORS
330
3B
102
}
330
3B
100
AcDbMaterial
  1
ByLayer
 72
     1
 94
      127
  0
MATERIAL
  5
3E
102
{ACAD_REACTORS
330
3B
102
}
330
3B
100
AcDbMaterial
  1
Global
 72
     1
 94
      127
  0
MLINESTYLE
  5
18
102
{ACAD_REACTORS
330
17
102
}
330
17
100
AcDbMlineStyle
  2
Standard
 70
     0
  3

 62
   256
 51
90.0
 52
90.0
 71
     2
 49
0.5
 62
   256
  6
BYLAYER
 49
-0.5
 62
   256
  6
BYLAYER
  0
ACDBPLACEHOLDER
  5
F
102
{ACAD_REACTORS
330
E
102
}
330
E
  0
VISUALSTYLE
  5
2F
102
{ACAD_REACTORS
330
2A
102
}
330
2A
100
AcDbVisualStyle
  2
2dWireframe
 70
     4
177
     2
291
     0
 71
     0
176
     1
 72
     2
176
     1
 73
     0
176
     1
 90
        0
176
     1
 40
-0.6
176
     1
 41
-30.0
176
     1
 62
     5
 63
     7
421
 16777215
176
     1
 74
     1
176
     1
 91
        4
176
     1
 64
     7
176
     1
 65
   257
176
     1
 75
     1
176
     1
175
     1
176
     1
 42
1.0
176
     1
 92
        0
176
     1
 66
   257
176
     1
 43
1.0
176
     1
 76
     1
176
     1
 77
     6
176
     1
 78
     2
176
     1
 67
     7
176
     1
 79
     5
176
     1
170
     0
176
     1
171
     0
176
     1
290
     0
176
     1
 93
        1
176
     1
 44
0.0
176
     1
173
     0
176
     1
  0
VISUALSTYLE
  5
31
102
{ACAD_REACTORS
330
2A
102
}
330
2A
100
AcDbVisualStyle
  2
3D Hidden
 70
     6
177
     2
291
     0
 71
     1
176
     1
 72
     2
176
     1
 73
     2
176
     1
 90
        0
176
     1
 40
-0.6
176
     1
 41
-30.0
176
     1
 62
     5
 63
     7
421
 16777215
176
     1
 74
     2
176
     1
 91
        2
176
     1
 64
     7
176
     1
 65
   257
176
     1
 75
     2
176
     1
175
     1
176
     1
 42
40.0
176
     1
 92
        0
176
     1
 66
   257
176
     1
 43
1.0
176
     1
 76
     1
176
     1
 77
     6
176
     1
 78
     2
176
     1
 67
     7
176
     1
 79
     3
176
     1
170
     0
176
     1
171
     0
176
     1
290
     0
176
     1
 93
        1
176
     1
 44
0.0
176
     1
173
     0
176
     1
  0
VISUALSTYLE
  5
30
102
{ACAD_REACTORS
330
2A
102
}
330
2A
100
AcDbVisualStyle
  2
3dWireframe
 70
     5
177
     2
291
     0
 71
     0
176
     1
 72
     2
176
     1
 73
     0
176
     1
 90
        0
176
     1
 40
-0.6
176
     1
 41
-30.0
176
     1
 62
     5
 63
     7
421
 16777215
176
     1
 74
     1
176
     1
 91
        4
176
     1
 64
     7
176
     1
 65
   257
176
     1
 75
     1
176
     1
175
     1
176
     1
 42
1.0
176
     1
 92
        0
176
     1
 66
   257
176
     1
 43
1.0
176
     1
 76
     1
176
     1
 77
     6
176
     1
 78
     2
176
     1
 67
     7
176
     1
 79
     5
176
     1
170
     0
176
     1
171
     0
176
     1
290
     0
176
     1
 93
        1
176
     1
 44
0.0
176
     1
173
     0
176
     1
  0
VISUALSTYLE
  5
32
102
{ACAD_REACTORS
330
2A
102
}
330
2A
100
AcDbVisualStyle
  2
Basic
 70
     7
177
     2
291
     1
 71
     1
176
     1
 72
     0
176
     1
 73
     1
176
     1
 90
        0
176
     1
 40
-0.6
176
     1
 41
-30.0
176
     1
 62
     5
 63
     7
421
 16777215
176
     1
 74
     0
176
     1
 91
        4
176
     1
 64
     7
176
     1
 65
   257
176
     1
 75
     1
176
     1
175
     1
176
     1
 42
1.0
176
     1
 92
        8
176
     1
 66
     7
176
     1
 43
1.0
176
     1
 76
     1
176
     1
 77
     6
176
     1
 78
     2
176
     1
 67
     7
176
     1
 79
     5
176
     1
170
     0
176
     1
171
     0
176
     1
290
     0
176
     1
 93
        1
176
     1
 44
0.0
176
     1
173
     0
176
     1
  0
VISUALSTYLE
  5
36
102
{ACAD_REACTORS
330
2A
102
}
330
2A
100
AcDbVisualStyle
  2
Brighten
 70
    12
177
     2
291
     1
 71
     2
176
     1
 72
     2
176
     1
 73
     0
176
     1
 90
        0
176
     1
 40
-0.6
176
     1
 41
-30.0
176
     1
 62
     5
 63
     7
421
 16777215
176
     1
 74
     1
176
     1
 91
        4
176
     1
 64
     7
176
     1
 65
   257
176
     1
 75
     1
176
     1
175
     1
176
     1
 42
1.0
176
     1
 92
        8
176
     1
 66
     7
176
     1
 43
1.0
176
     1
 76
     1
176
     1
 77
     6
176
     1
 78
     2
176
     1
 67
     7
176
     1
 79
     5
176
     1
170
     0
176
     1
171
     0
176
     1
290
     0
176
     1
 93
        1
176
     1
 44
50.0
176
     1
173
     0
176
     1
  0
VISUALSTYLE
  5
3A
102
{ACAD_REACTORS
330
2A
102
}
330
2A
100
AcDbVisualStyle
  2
ColorChange
 70
    16
177
     2
291
     1
 71
     2
176
     1
 72
     2
176
     1
 73
     3
176
     1
 90
        0
176
     1
 40
-0.6
176
     1
 41
-30.0
176
     1
 62
     5
 63
     8
421
  8421504
176
     1
 74
     1
176
     1
 91
        4
176
     1
 64
     7
176
     1
 65
   257
176
     1
 75
     1
176
     1
175
     1
176
     1
 42
1.0
176
     1
 92
        8
176
     1
 66
     8
424
  8421504
176
     1
 43
1.0
176
     1
 76
     1
176
     1
 77
     6
176
     1
 78
     2
176
     1
 67
     7
176
     1
 79
     5
176
     1
170
     0
176
     1
171
     0
176
     1
290
     0
176
     1
 93
        1
176
     1
 44
0.0
176
     1
173
     0
176
     1
  0
VISUALSTYLE
  5
34
102
{ACAD_REACTORS
330
2A
102
}
330
2A
100
AcDbVisualStyle
  2
Conceptual
 70
     9
177
     2
291
     0
 71
     3
176
     1
 72
     2
176
     1
 73
     0
176
     1
 90
        0
176
     1
 40
-0.6
176
     1
 41
-30.0
176
     1
 62
     5
 63
     7
421
 16777215
176
     1
 74
     2
176
     1
 91
        2
176
     1
 64
     7
176
     1
 65
   257
176
     1
 75
     1
176
     1
175
     1
176
     1
 42
40.0
176
     1
 92
        8
176
     1
 66
     7
176
     1
 43
1.0
176
     1
 76
     1
176
     1
 77
     6
176
     1
 78
     2
176
     1
 67
     7
176
     1
 79
     3
176
     1
170
     0
176
     1
171
     0
176
     1
290
     0
176
     1
 93
        1
176
     1
 44
0.0
176
     1
173
     0
176
     1
  0
VISUALSTYLE
  5
35
102
{ACAD_REACTORS
330
2A
102
}
330
2A
100
AcDbVisualStyle
  2
Dim
 70
    11
177
     2
291
     1
 71
     2
176
     1
 72
     2
176
     1
 73
     0
176
     1
 90
        0
176
     1
 40
-0.6
176
     1
 41
-30.0
176
     1
 62
     5
 63
     7
421
 16777215
176
     1
 74
     1
176
     1
 91
        4
176
     1
 64
     7
176
     1
 65
   257
176
     1
 75
     1
176
     1
175
     1
176
     1
 42
1.0
176
     1
 92
        8
176
     1
 66
     7
176
     1
 43
1.0
176
     1
 76
     1
176
     1
 77
     6
176
     1
 78
     2
176
     1
 67
     7
176
     1
 79
     5
176
     1
170
     0
176
     1
171
     0
176
     1
290
     0
176
     1
 93
        1
176
     1
 44
-50.0
176
     1
173
     0
176
     1
  0
VISUALSTYLE
  5
39
102
{ACAD_REACTORS
330
2A
102
}
330
2A
100
AcDbVisualStyle
  2
Facepattern
 70
    15
177
     2
291
     1
 71
     2
176
     1
 72
     2
176
     1
 73
     0
176
     1
 90
        0
176
     1
 40
-0.6
176
     1
 41
-30.0
176
     1
 62
     5
 63
     7
421
 16777215
176
     1
 74
     1
176
     1
 91
        4
176
     1
 64
     7
176
     1
 65
   257
176
     1
 75
     1
176
     1
175
     1
176
     1
 42
1.0
176
     1
 92
        8
176
     1
 66
     7
176
     1
 43
1.0
176
     1
 76
     1
176
     1
 77
     6
176
     1
 78
     2
176
     1
 67
     7
176
     1
 79
     5
176
     1
170
     0
176
     1
171
     0
176
     1
290
     0
176
     1
 93
        1
176
     1
 44
0.0
176
     1
173
     0
176
     1
  0
VISUALSTYLE
  5
2B
102
{ACAD_REACTORS
330
2A
102
}
330
2A
100
AcDbVisualStyle
  2
Flat
 70
     0
177
     2
291
     1
 71
     2
176
     1
 72
     1
176
     1
 73
     1
176
     1
 90
        2
176
     1
 40
-0.6
176
     1
 41
30.0
176
     1
 62
     5
 63
     7
421
 16777215
176
     1
 74
     0
176
     1
 91
        4
176
     1
 64
     7
176
     1
 65
   257
176
     1
 75
     1
176
     1
175
     1
176
     1
 42
1.0
176
     1
 92
        8
176
     1
 66
     7
176
     1
 43
1.0
176
     1
 76
     1
176
     1
 77
     6
176
     1
 78
     2
176
     1
 67
     7
176
     1
 79
     5
176
     1
170
     0
176
     1
171
     0
176
     1
290
     0
176
     1
 93
       13
176
     1
 44
0.0
176
     1
173
     0
176
     1
  0
VISUALSTYLE
  5
2C
102
{ACAD_REACTORS
330
2A
102
}
330
2A
100
AcDbVisualStyle
  2
FlatWithEdges
 70
     1
177
     2
291
     1
 71
     2
176
     1
 72
     1
176
     1
 73
     1
176
     1
 90
        2
176
     1
 40
-0.6
176
     1
 41
30.0
176
     1
 62
     5
 63
     7
421
 16777215
176
     1
 74
     1
176
     1
 91
        4
176
     1
 64
     7
176
     1
 65
   257
176
     1
 75
     1
176
     1
175
     1
176
     1
 42
1.0
176
     1
 92
        0
176
     1
 66
   257
176
     1
 43
1.0
176
     1
 76
     1
176
     1
 77
     6
176
     1
 78
     2
176
     1
 67
     7
176
     1
 79
     5
176
     1
170
     0
176
     1
171
     0
176
     1
290
     0
176
     1
 93
       13
176
     1
 44
0.0
176
     1
173
     0
176
     1
  0
VISUALSTYLE
  5
2D
102
{ACAD_REACTORS
330
2A
102
}
330
2A
100
AcDbVisualStyle
  2
Gouraud
 70
     2
177
     2
291
     1
 71
     2
176
     1
 72
     2
176
     1
 73
     1
176
     1
 90
        2
176
     1
 40
-0.6
176
     1
 41
30.0
176
     1
 62
     5
 63
     7
421
 16777215
176
     1
 74
     0
176
     1
 91
        4
176
     1
 64
     7
176
     1
 65
   257
176
     1
 75
     1
176
     1
175
     1
176
     1
 42
1.0
176
     1
 92
        0
176
     1
 66
     7
176
     1
 43
1.0
176
     1
 76
     1
176
     1
 77
     6
176
     1
 78
     2
176
     1
 67
     7
176
     1
 79
     5
176
     1
170
     0
176
     1
171
     0
176
     1
290
     0
176
     1
 93
       13
176
     1
 44
0.0
176
     1
173
     0
176
     1
  0
VISUALSTYLE
  5
2E
102
{ACAD_REACTORS
330
2A
102
}
330
2A
100
AcDbVisualStyle
  2
GouraudWithEdges
 70
     3
177
     2
291
     1
 71
     2
176
     1
 72
     2
176
     1
 73
     1
176
     1
 90
        2
176
     1
 40
-0.6
176
     1
 41
30.0
176
     1
 62
     5
 63
     7
421
 16777215
176
     1
 74
     1
176
     1
 91
        4
176
     1
 64
     7
176
     1
 65
   257
176
     1
 75
     1
176
     1
175
     1
176
     1
 42
1.0
176
     1
 92
        0
176
     1
 66
   257
176
     1
 43
1.0
176
     1
 76
     1
176
     1
 77
     6
176
     1
 78
     2
176
     1
 67
     7
176
     1
 79
     5
176
     1
170
     0
176
     1
171
     0
176
     1
290
     0
176
     1
 93
       13
176
     1
 44
0.0
176
     1
173
     0
176
     1
  0
VISUALSTYLE
  5
38
102
{ACAD_REACTORS
330
2A
102
}
330
2A
100
AcDbVisualStyle
  2
Linepattern
 70
    14
177
     2
291
     1
 71
     2
176
     1
 72
     2
176
     1
 73
     0
176
     1
 90
        0
176
     1
 40
-0.6
176
     1
 41
-30.0
176
     1
 62
     5
 63
     7
421
 16777215
176
     1
 74
     1
176
     1
 91
        4
176
     1
 64
     7
176
     1
 65
   257
176
     1
 75
     7
176
     1
175
     7
176
     1
 42
1.0
176
     1
 92
        8
176
     1
 66
     7
176
     1
 43
1.0
176
     1
 76
     1
176
     1
 77
     6
176
     1
 78
     2
176
     1
 67
     7
176
     1
 79
     5
176
     1
170
     0
176
     1
171
     0
176
     1
290
     0
176
     1
 93
        1
176
     1
 44
0.0
176
     1
173
     0
176
     1
  0
VISUALSTYLE
  5
33
102
{ACAD_REACTORS
330
2A
102
}
330
2A
100
AcDbVisualStyle
  2
Realistic
 70
     8
177
     2
291
     0
 71
     2
176
     1
 72
     2
176
     1
 73
     0
176
     1
 90
        0
176
     1
 40
-0.6
176
     1
 41
-30.0
176
     1
 62
     5
 63
     7
421
 16777215
176
     1
 74
     1
176
     1
 91
        0
176
     1
 64
     7
176
     1
 65
   257
176
     1
 75
     1
176
     1
175
     1
176
     1
 42
1.0
176
     1
 92
        8
176
     1
 66
     8
424
  7895160
176
     1
 43
1.0
176
     1
 76
     1
176
     1
 77
     6
176
     1
 78
     2
176
     1
 67
     7
176
     1
 79
     5
176
     1
170
     0
176
     1
171
     0
176
     1
290
     0
176
     1
 93
       13
176
     1
 44
0.0
176
     1
173
     0
176
     1
  0
VISUALSTYLE
  5
37
102
{ACAD_REACTORS
330
2A
102
}
330
2A
100
AcDbVisualStyle
  2
Thicken
 70
    13
177
     2
291
     1
 71
     2
176
     1
 72
     2
176
     1
 73
     0
176
     1
 90
        0
176
     1
 40
-0.6
176
     1
 41
-30.0
176
     1
 62
     5
 63
     7
421
 16777215
176
     1
 74
     1
176
     1
 91
        4
176
     1
 64
     7
176
     1
 65
   257
176
     1
 75
     1
176
     1
175
     1
176
     1
 42
1.0
176
     1
 92
       12
176
     1
 66
     7
176
     1
 43
1.0
176
     1
 76
     1
176
     1
 77
     6
176
     1
 78
     2
176
     1
 67
     7
176
     1
 79
     5
176
     1
170
     0
176
     1
171
     0
176
     1
290
     0
176
     1
 93
        1
176
     1
 44
0.0
176
     1
173
     0
176
     1
  0
ENDSEC
  0
EOF
