  0
SECTION
  2
HEADER
  9
$ACADVER
  1
AC1024
  9
$ACADMAINTVER
 70
     6
  9
$DWGCODEPAGE
  3
UNDEFINED
  9
$INSBASE
 10
0.0
 20
0.0
 30
0.0
  9
$EXTMIN
 10
1.000000000000000E+20
 20
1.000000000000000E+20
 30
1.000000000000000E+20
  9
$EXTMAX
 10
-1.000000000000000E+20
 20
-1.000000000000000E+20
 30
-1.000000000000000E+20
  9
$LIMMIN
 10
0.0
 20
0.0
  9
$LIMMAX
 10
12.0
 20
9.0
  9
$ORTHOMODE
 70
     0
  9
$REGENMODE
 70
     1
  9
$FILLMODE
 70
     1
  9
$QTEXTMODE
 70
     0
  9
$MIRRTEXT
 70
     1
  9
$LTSCALE
 40
1.0
  9
$ATTMODE
 70
     1
  9
$TEXTSIZE
 40
0.2
  9
$TRACEWID
 40
0.05
  9
$TEXTSTYLE
  7
Standard
  9
$CLAYER
  8
0
  9
$CELTYPE
  6
ByLayer
  9
$CECOLOR
 62
   256
  9
$CELTSCALE
 40
1.0
  9
$DISPSILH
 70
     0
  9
$DIMSCALE
 40
1.0
  9
$DIMASZ
 40
0.18
  9
$DIMEXO
 40
0.0625
  9
$DIMDLI
 40
0.38
  9
$DIMRND
 40
0.0
  9
$DIMDLE
 40
0.0
  9
$DIMEXE
 40
0.18
  9
$DIMTP
 40
0.0
  9
$DIMTM
 40
0.0
  9
$DIMTXT
 40
0.18
  9
$DIMCEN
 40
0.09
  9
$DIMTSZ
 40
0.0
  9
$DIMTOL
 70
     0
  9
$DIMLIM
 70
     0
  9
$DIMTIH
 70
     1
  9
$DIMTOH
 70
     1
  9
$DIMSE1
 70
     0
  9
$DIMSE2
 70
     0
  9
$DIMTAD
 70
     0
  9
$DIMZIN
 70
     0
  9
$DIMBLK
  1

  9
$DIMASO
 70
     1
  9
$DIMSHO
 70
     1
  9
$DIMPOST
  1

  9
$DIMAPOST
  1

  9
$DIMALT
 70
     0
  9
$DIMALTD
 70
     2
  9
$DIMALTF
 40
25.4
  9
$DIMLFAC
 40
1.0
  9
$DIMTOFL
 70
     0
  9
$DIMTVP
 40
0.0
  9
$DIMTIX
 70
     0
  9
$DIMSOXD
 70
     0
  9
$DIMSAH
 70
     0
  9
$DIMBLK1
  1

  9
$DIMBLK2
  1

  9
$DIMSTYLE
  2
Standard
  9
$DIMCLRD
 70
     0
  9
$DIMCLRE
 70
     0
  9
$DIMCLRT
 70
     0
  9
$DIMTFAC
 40
1.0
  9
$DIMGAP
 40
0.09
  9
$DIMJUST
 70
     0
  9
$DIMSD1
 70
     0
  9
$DIMSD2
 70
     0
  9
$DIMTOLJ
 70
     1
  9
$DIMTZIN
 70
     0
  9
$DIMALTZ
 70
     0
  9
$DIMALTTZ
 70
     0
  9
$DIMUPT
 70
     0
  9
$DIMDEC
 70
     4
  9
$DIMTDEC
 70
     4
  9
$DIMALTU
 70
     2
  9
$DIMALTTD
 70
     2
  9
$DIMTXSTY
  7
Standard
  9
$DIMAUNIT
 70
     0
  9
$DIMADEC
 70
     0
  9
$DIMALTRND
 40
0.0
  9
$DIMAZIN
 70
     0
  9
$DIMDSEP
 70
    46
  9
$DIMATFIT
 70
     3
  9
$DIMFRAC
 70
     0
  9
$DIMLDRBLK
  1

  9
$DIMLUNIT
 70
     2
  9
$DIMLWD
 70
    -2
  9
$DIMLWE
 70
    -2
  9
$DIMTMOVE
 70
     0
  9
$DIMFXL
 40
1.0
  9
$DIMFXLON
 70
     0
  9
$DIMJOGANG
 40
0.7853981633974483
  9
$DIMTFILL
 70
     0
  9
$DIMTFILLCLR
 70
     0
  9
$DIMARCSYM
 70
     0
  9
$DIMLTYPE
  6

  9
$DIMLTEX1
  6

  9
$DIMLTEX2
  6

  9
$DIMTXTDIRECTION
 70
     0
  9
$LUNITS
 70
     2
  9
$LUPREC
 70
     4
  9
$SKETCHINC
 40
0.1
  9
$FILLETRAD
 40
0.5
  9
$AUNITS
 70
     0
  9
$AUPREC
 70
     0
  9
$MENU
  1
.
  9
$ELEVATION
 40
0.0
  9
$PELEVATION
 40
0.0
  9
$THICKNESS
 40
0.0
  9
$LIMCHECK
 70
     0
  9
$CHAMFERA
 40
0.5
  9
$CHAMFERB
 40
0.5
  9
$CHAMFERC
 40
1.0
  9
$CHAMFERD
 40
0.0
  9
$SKPOLY
 70
     0
  9
$TDCREATE
 40
2457917.583344907
  9
$TDUCREATE
 40
2457917.208344907
  9
$TDUPDATE
 40
2457917.583344907
  9
$TDUUPDATE
 40
2457917.208344907
  9
$TDINDWG
 40
0.0000000116
  9
$TDUSRTIMER
 40
0.0000000116
  9
$USRTIMER
 70
     1
  9
$ANGBASE
 50
0.0
  9
$ANGDIR
 70
     0
  9
$PDMODE
 70
     0
  9
$PDSIZE
 40
0.0
  9
$PLINEWID
 40
0.0
  9
$SPLFRAME
 70
     0
  9
$SPLINETYPE
 70
     6
  9
$SPLINESEGS
 70
     8
  9
$HANDSEED
  5
BF
  9
$SURFTAB1
 70
     6
  9
$SURFTAB2
 70
     6
  9
$SURFTYPE
 70
     6
  9
$SURFU
 70
     6
  9
$SURFV
 70
     6
  9
$UCSBASE
  2

  9
$UCSNAME
  2

  9
$UCSORG
 10
0.0
 20
0.0
 30
0.0
  9
$UCSXDIR
 10
1.0
 20
0.0
 30
0.0
  9
$UCSYDIR
 10
0.0
 20
1.0
 30
0.0
  9
$UCSORTHOREF
  2

  9
$UCSORTHOVIEW
 70
     0
  9
$UCSORGTOP
 10
0.0
 20
0.0
 30
0.0
  9
$UCSORGBOTTOM
 10
0.0
 20
0.0
 30
0.0
  9
$UCSORGLEFT
 10
0.0
 20
0.0
 30
0.0
  9
$UCSORGRIGHT
 10
0.0
 20
0.0
 30
0.0
  9
$UCSORGFRONT
 10
0.0
 20
0.0
 30
0.0
  9
$UCSORGBACK
 10
0.0
 20
0.0
 30
0.0
  9
$PUCSBASE
  2

  9
$PUCSNAME
  2

  9
$PUCSORG
 10
0.0
 20
0.0
 30
0.0
  9
$PUCSXDIR
 10
1.0
 20
0.0
 30
0.0
  9
$PUCSYDIR
 10
0.0
 20
1.0
 30
0.0
  9
$PUCSORTHOREF
  2

  9
$PUCSORTHOVIEW
 70
     0
  9
$PUCSORGTOP
 10
0.0
 20
0.0
 30
0.0
  9
$PUCSORGBOTTOM
 10
0.0
 20
0.0
 30
0.0
  9
$PUCSORGLEFT
 10
0.0
 20
0.0
 30
0.0
  9
$PUCSORGRIGHT
 10
0.0
 20
0.0
 30
0.0
  9
$PUCSORGFRONT
 10
0.0
 20
0.0
 30
0.0
  9
$PUCSORGBACK
 10
0.0
 20
0.0
 30
0.0
  9
$USERI1
 70
     0
  9
$USERI2
 70
     0
  9
$USERI3
 70
     0
  9
$USERI4
 70
     0
  9
$USERI5
 70
     0
  9
$USERR1
 40
0.0
  9
$USERR2
 40
0.0
  9
$USERR3
 40
0.0
  9
$USERR4
 40
0.0
  9
$USERR5
 40
0.0
  9
$WORLDVIEW
 70
     1
  9
$SHADEDGE
 70
     3
  9
$SHADEDIF
 70
    70
  9
$TILEMODE
 70
     1
  9
$MAXACTVP
 70
    64
  9
$PINSBASE
 10
0.0
 20
0.0
 30
0.0
  9
$PLIMCHECK
 70
     0
  9
$PEXTMIN
 10
1.000000000000000E+20
 20
1.000000000000000E+20
 30
1.000000000000000E+20
  9
$PEXTMAX
 10
-1.000000000000000E+20
 20
-1.000000000000000E+20
 30
-1.000000000000000E+20
  9
$PLIMMIN
 10
0.0
 20
0.0
  9
$PLIMMAX
 10
12.0
 20
9.0
  9
$UNITMODE
 70
     0
  9
$VISRETAIN
 70
     1
  9
$PLINEGEN
 70
     0
  9
$PSLTSCALE
 70
     1
  9
$TREEDEPTH
 70
  3020
  9
$CMLSTYLE
  2
Standard
  9
$CMLJUST
 70
     0
  9
$CMLSCALE
 40
1.0
  9
$PROXYGRAPHICS
 70
     1
  9
$MEASUREMENT
 70
     0
  9
$CELWEIGHT
370
    -1
  9
$ENDCAPS
280
     0
  9
$JOINSTYLE
280
     0
  9
$LWDISPLAY
290
     1
  9
$INSUNITS
 70
     1
  9
$HYPERLINKBASE
  1

  9
$STYLESHEET
  1

  9
$XEDIT
290
     1
  9
$CEPSNTYPE
380
     0
  9
$PSTYLEMODE
290
     1
  9
$FINGERPRINTGUID
  2
{CEA458C8-389E-24AE-F992-704D833D9E91}
  9
$VERSIONGUID
  2
{FAEB1C32-E019-11D5-929B-00C0DF256EC4}
  9
$EXTNAMES
290
     1
  9
$PSVPSCALE
 40
0.0
  9
$OLESTARTUP
290
     0
  9
$SORTENTS
280
   127
  9
$INDEXCTL
280
     0
  9
$HIDETEXT
280
     1
  9
$XCLIPFRAME
280
     2
  9
$HALOGAP
280
     0
  9
$OBSCOLOR
 70
   257
  9
$OBSLTYPE
280
     0
  9
$INTERSECTIONDISPLAY
280
     0
  9
$INTERSECTIONCOLOR
 70
   257
  9
$DIMASSOC
280
     2
  9
$PROJECTNAME
  1

  9
$CAMERADISPLAY
290
     0
  9
$LENSLENGTH
 40
50.0
  9
$CAMERAHEIGHT
 40
0.0
  9
$STEPSPERSEC
 40
2.0
  9
$STEPSIZE
 40
6.0
  9
$3DDWFPREC
 40
2.0
  9
$PSOLWIDTH
 40
0.25
  9
$PSOLHEIGHT
 40
4.0
  9
$LOFTANG1
 40
1.570796326794897
  9
$LOFTANG2
 40
1.570796326794897
  9
$LOFTMAG1
 40
0.0
  9
$LOFTMAG2
 40
0.0
  9
$LOFTPARAM
 70
     7
  9
$LOFTNORMALS
280
     1
  9
$LATITUDE
 40
37.795
  9
$LONGITUDE
 40
-122.394
  9
$NORTHDIRECTION
 40
0.0
  9
$TIMEZONE
 70
 -8000
  9
$LIGHTGLYPHDISPLAY
280
     1
  9
$TILEMODELIGHTSYNCH
280
     1
  9
$CMATERIAL
347
3C
  9
$SOLIDHIST
280
     1
  9
$SHOWHIST
280
     1
  9
$DWFFRAME
280
     2
  9
$DGNFRAME
280
     2
  9
$REALWORLDSCALE
290
     1
  9
$INTERFERECOLOR
 62
   256
  9
$CSHADOW
280
     0
  9
$SHADOWPLANELOCATION
 40
0.0
  0
ENDSEC
  0
SECTION
  2
CLASSES
  0
CLASS
  1
ACDBDICTIONARYWDFLT
  2
AcDbDictionaryWithDefault
  3
ObjectDBX Classes
 90
        0
 91
        4
280
     0
281
     0
  0
CLASS
  1
VISUALSTYLE
  2
AcDbVisualStyle
  3
ObjectDBX Classes
 90
     4095
 91
        4
280
     0
281
     0
  0
CLASS
  1
MATERIAL
  2
AcDbMaterial
  3
ObjectDBX Classes
 90
     1153
 91
        4
280
     0
281
     0
  0
CLASS
  1
SUN
  2
AcDbSun
  3
SCENEOE
 90
     1024
 91
        4
280
     0
281
     0
  0
ENDSEC
  0
SECTION
  2
TABLES
  0
TABLE
  2
VPORT
  5
8
330
0
100
AcDbSymbolTable
 70
     1
  0
VPORT
  5
29
330
8
100
AcDbSymbolTableRecord
100
AcDbViewportTableRecord
  2
*Active
 70
     0
 10
0.0
 20
0.0
 11
1.0
 21
1.0
 12
0.0
 22
0.0
 13
0.0
 23
0.0
 14
0.5
 24
0.5
 15
0.5
 25
0.5
 16
0.0
 26
0.0
 36
1.0
 17
91.00082462281999
 27
-128.4993055234307
 37
0.0
 40
256.9986110468615
 41
0.7081814508812795
 42
50.0
 43
0.0
 44
0.0
 50
0.0
 51
0.0
 71
     0
 72
   100
 73
     1
 74
     3
 75
     0
 76
     0
 77
     0
 78
     0
281
     0
 65
     1
110
0.0
120
0.0
130
0.0
111
1.0
121
0.0
131
0.0
112
0.0
122
1.0
132
0.0
 79
     0
146
0.0
 60
     3
 61
     5
292
     1
282
     1
141
0.0
142
0.0
 63
   250
361
3F
  0
ENDTAB
  0
TABLE
  2
LTYPE
  5
5
330
0
100
AcDbSymbolTable
 70
     1
  0
LTYPE
  5
14
330
5
100
AcDbSymbolTableRecord
100
AcDbLinetypeTableRecord
  2
ByBlock
 70
     0
  3

 72
    65
 73
     0
 40
0.0
  0
LTYPE
  5
15
330
5
100
AcDbSymbolTableRecord
100
AcDbLinetypeTableRecord
  2
ByLayer
 70
     0
  3

 72
    65
 73
     0
 40
0.0
  0
LTYPE
  5
16
330
5
100
AcDbSymbolTableRecord
100
AcDbLinetypeTableRecord
  2
Continuous
 70
     0
  3
Solid line
 72
    65
 73
     0
 40
0.0
  0
ENDTAB
  0
TABLE
  2
LAYER
  5
2
330
0
100
AcDbSymbolTable
 70
     2
  0
LAYER
  5
10
330
2
100
AcDbSymbolTableRecord
100
AcDbLayerTableRecord
  2
0
 70
     0
 62
     7
  6
Continuous
370
    -3
390
F
347
3E
  0
LAYER
  5
40
330
2
100
AcDbSymbolTableRecord
100
AcDbLayerTableRecord
  2
_U+30EC_U+30A4_U+30E4_U+30FC 1
 70
     0
 62
     7
  6
Continuous
370
    -3
390
F
347
3E
  0
ENDTAB
  0
TABLE
  2
STYLE
  5
3
330
0
100
AcDbSymbolTable
 70
     1
  0
STYLE
  5
11
330
3
100
AcDbSymbolTableRecord
100
AcDbTextStyleTableRecord
  2
Standard
 70
     0
 40
0.0
 41
1.0
 50
0.0
 71
     0
 42
0.2
  3
txt
  4

  0
ENDTAB
  0
TABLE
  2
VIEW
  5
6
330
0
100
AcDbSymbolTable
 70
     0
  0
ENDTAB
  0
TABLE
  2
UCS
  5
7
330
0
100
AcDbSymbolTable
 70
     0
  0
ENDTAB
  0
TABLE
  2
APPID
  5
9
330
0
100
AcDbSymbolTable
 70
     1
  0
APPID
  5
12
330
9
100
AcDbSymbolTableRecord
100
AcDbRegAppTableRecord
  2
ACAD
 70
     0
  0
ENDTAB
  0
TABLE
  2
DIMSTYLE
  5
A
330
0
100
AcDbSymbolTable
 70
     1
100
AcDbDimStyleTable
  0
DIMSTYLE
105
27
330
A
100
AcDbSymbolTableRecord
100
AcDbDimStyleTableRecord
  2
Standard
 70
     0
178
     0
340
11
  0
ENDTAB
  0
TABLE
  2
BLOCK_RECORD
  5
1
330
0
100
AcDbSymbolTable
 70
     8
  0
BLOCK_RECORD
  5
1F
330
1
100
AcDbSymbolTableRecord
100
AcDbBlockTableRecord
  2
*Model_Space
340
22
 70
     0
280
     1
281
     0
  0
BLOCK_RECORD
  5
1B
330
1
100
AcDbSymbolTableRecord
100
AcDbBlockTableRecord
  2
*Paper_Space
340
1E
 70
     0
280
     1
281
     0
  0
BLOCK_RECORD
  5
23
330
1
100
AcDbSymbolTableRecord
100
AcDbBlockTableRecord
  2
*Paper_Space0
340
26
 70
     0
280
     1
281
     0
  0
BLOCK_RECORD
  5
41
330
1
100
AcDbSymbolTableRecord
100
AcDbBlockTableRecord
  2
block 2
340
0
102
{BLKREFS
331
42
102
}
 70
     0
280
     1
281
     0
  0
BLOCK_RECORD
  5
5D
330
1
100
AcDbSymbolTableRecord
100
AcDbBlockTableRecord
  2
block 3
340
0
102
{BLKREFS
331
5E
102
}
 70
     0
280
     1
281
     0
  0
BLOCK_RECORD
  5
65
330
1
100
AcDbSymbolTableRecord
100
AcDbBlockTableRecord
  2
block 4
340
0
102
{BLKREFS
331
66
102
}
 70
     0
280
     1
281
     0
  0
BLOCK_RECORD
  5
79
330
1
100
AcDbSymbolTableRecord
100
AcDbBlockTableRecord
  2
block 5
340
0
102
{BLKREFS
331
7A
102
}
 70
     0
280
     1
281
     0
  0
BLOCK_RECORD
  5
8F
330
1
100
AcDbSymbolTableRecord
100
AcDbBlockTableRecord
  2
block 6
340
0
102
{BLKREFS
331
90
102
}
 70
     0
280
     1
281
     0
  0
BLOCK_RECORD
  5
95
330
1
100
AcDbSymbolTableRecord
100
AcDbBlockTableRecord
  2
block 7
340
0
102
{BLKREFS
331
96
102
}
 70
     0
280
     1
281
     0
  0
BLOCK_RECORD
  5
A5
330
1
100
AcDbSymbolTableRecord
100
AcDbBlockTableRecord
  2
block 8
340
0
102
{BLKREFS
331
A6
102
}
 70
     0
280
     1
281
     0
  0
ENDTAB
  0
ENDSEC
  0
SECTION
  2
BLOCKS
  0
BLOCK
  5
20
330
1F
100
AcDbEntity
  8
0
100
AcDbBlockBegin
  2
*Model_Space
 70
     0
 10
0.0
 20
0.0
 30
0.0
  3
*Model_Space
  1

  0
ENDBLK
  5
21
330
1F
100
AcDbEntity
  8
0
100
AcDbBlockEnd
  0
BLOCK
  5
1C
330
1B
100
AcDbEntity
 67
     1
  8
0
100
AcDbBlockBegin
  2
*Paper_Space
 70
     0
 10
0.0
 20
0.0
 30
0.0
  3
*Paper_Space
  1

  0
ENDBLK
  5
1D
330
1B
100
AcDbEntity
 67
     1
  8
0
100
AcDbBlockEnd
  0
BLOCK
  5
24
330
23
100
AcDbEntity
  8
0
100
AcDbBlockBegin
  2
*Paper_Space0
 70
     0
 10
0.0
 20
0.0
 30
0.0
  3
*Paper_Space0
  1

  0
ENDBLK
  5
25
330
23
100
AcDbEntity
  8
0
100
AcDbBlockEnd
  0
BLOCK
  5
43
330
41
100
AcDbEntity
  8
0
100
AcDbBlockBegin
  2
block 2
 70
     0
 10
0.0
 20
0.0
 30
0.0
  3
block 2
  1

  0
SPLINE
  5
45
330
41
100
AcDbEntity
  8
_U+30EC_U+30A4_U+30E4_U+30FC 1
 62
   179
420
  2234388
370
    25
100
AcDbSpline
210
0.0
220
0.0
230
1.0
 70
    11
 71
     3
 72
    89
 73
    85
 74
     0
 42
0.0000000001
 43
0.0000000001
 12
1.0
 22
0.0
 32
0.0
 13
1.0
 23
0.0
 33
0.0
 40
0.0
 40
0.0
 40
0.0
 40
0.0
 40
1.0
 40
1.0
 40
1.0
 40
2.0
 40
2.0
 40
2.0
 40
3.0
 40
3.0
 40
3.0
 40
4.0
 40
4.0
 40
4.0
 40
5.0
 40
5.0
 40
5.0
 40
6.0
 40
6.0
 40
6.0
 40
7.0
 40
7.0
 40
7.0
 40
8.0
 40
8.0
 40
8.0
 40
9.0
 40
9.0
 40
9.0
 40
10.0
 40
10.0
 40
10.0
 40
11.0
 40
11.0
 40
11.0
 40
12.0
 40
12.0
 40
12.0
 40
13.0
 40
13.0
 40
13.0
 40
14.0
 40
14.0
 40
14.0
 40
15.0
 40
15.0
 40
15.0
 40
16.0
 40
16.0
 40
16.0
 40
17.0
 40
17.0
 40
17.0
 40
18.0
 40
18.0
 40
18.0
 40
19.0
 40
19.0
 40
19.0
 40
20.0
 40
20.0
 40
20.0
 40
21.0
 40
21.0
 40
21.0
 40
22.0
 40
22.0
 40
22.0
 40
23.0
 40
23.0
 40
23.0
 40
24.0
 40
24.0
 40
24.0
 40
25.0
 40
25.0
 40
25.0
 40
26.0
 40
26.0
 40
26.0
 40
27.0
 40
27.0
 40
27.0
 40
28.0
 40
28.0
 40
28.0
 40
28.0
 10
88.74188273600596
 20
-133.7386199665653
 30
0.0
 10
88.74188273600596
 20
-133.7386199665653
 30
0.0
 10
114.2462690297793
 20
-133.7386199665653
 30
0.0
 10
114.2462690297793
 20
-133.7386199665653
 30
0.0
 10
114.2462690297793
 20
-133.7386199665653
 30
0.0
 10
114.2462690297793
 20
-132.7381421890379
 30
0.0
 10
114.2462690297793
 20
-132.7381421890379
 30
0.0
 10
114.2462690297793
 20
-132.7381421890379
 30
0.0
 10
86.24590946635021
 20
-132.7381421890379
 30
0.0
 10
86.24590946635021
 20
-132.7381421890379
 30
0.0
 10
86.24590946635021
 20
-132.7381421890379
 30
0.0
 10
86.24590946635021
 20
-104.7383110849264
 30
0.0
 10
86.24590946635021
 20
-104.7383110849264
 30
0.0
 10
86.24590946635021
 20
-104.7383110849264
 30
0.0
 10
85.2461372696343
 20
-104.7383110849264
 30
0.0
 10
85.2461372696343
 20
-104.7383110849264
 30
0.0
 10
85.2461372696343
 20
-104.7383110849264
 30
0.0
 10
85.2461372696343
 20
-130.1377819119101
 30
0.0
 10
85.2461372696343
 20
-130.1377819119101
 30
0.0
 10
84.14042590895446
 20
-131.2505488560764
 30
0.0
 10
73.77828450664803
 20
-141.7505207978957
 30
0.0
 10
73.29561396340644
 20
-142.0812499644797
 30
0.0
 10
72.73716675543139
 20
-142.46295551994
 30
0.0
 10
72.24659399016916
 20
-142.1398110755759
 30
0.0
 10
72.24659399016916
 20
-141.4928166312936
 30
0.0
 10
72.24659399016916
 20
-141.4928166312936
 30
0.0
 10
72.24659399016916
 20
-120.0291816366594
 30
0.0
 10
72.24659399016916
 20
-120.0291816366594
 30
0.0
 10
72.24659399016916
 20
-120.0291816366594
 30
0.0
 10
71.74635511404243
 20
-120.0291816366594
 30
0.0
 10
71.74635511404243
 20
-120.0291816366594
 30
0.0
 10
71.74635511404243
 20
-120.0291816366594
 30
0.0
 10
71.26749457070363
 20
-141.7284721867901
 30
0.0
 10
71.26749457070363
 20
-141.7284721867901
 30
0.0
 10
71.26749457070363
 20
-141.7284721867901
 30
0.0
 10
71.23165234939582
 20
-143.4916555196825
 30
0.0
 10
71.25094929334796
 20
-143.8775238529196
 30
0.0
 10
71.27507929273234
 20
-144.3612174639099
 30
0.0
 10
71.3246798470225
 20
-144.6513066305039
 30
0.0
 10
71.56203053766508
 20
-144.7649716304757
 30
0.0
 10
71.82661387093226
 20
-144.8917599637771
 30
0.0
 10
72.0608917726846
 20
-144.815277741574
 30
0.0
 10
72.38438898665372
 20
-144.5210610749806
 30
0.0
 10
72.68823647890193
 20
-144.2447655194942
 30
0.0
 10
84.07357452177109
 20
-132.908322188995
 30
0.0
 10
85.2461372696343
 20
-131.752163578173
 30
0.0
 10
85.2461372696343
 20
-131.752163578173
 30
0.0
 10
85.2461372696343
 20
-133.7386199665653
 30
0.0
 10
85.2461372696343
 20
-133.7386199665653
 30
0.0
 10
85.2461372696343
 20
-133.7386199665653
 30
0.0
 10
85.7753039228008
 20
-133.7386199665653
 30
0.0
 10
85.7753039228008
 20
-133.7386199665653
 30
0.0
 10
85.7753039228008
 20
-133.7386199665653
 30
0.0
 10
86.24590946635021
 20
-133.7386199665653
 30
0.0
 10
86.24590946635021
 20
-133.7386199665653
 30
0.0
 10
86.24590946635021
 20
-133.7386199665653
 30
0.0
 10
87.13247527706537
 20
-133.7386199665653
 30
0.0
 10
87.13247527706537
 20
-133.7386199665653
 30
0.0
 10
85.22719310345094
 20
-135.6699371883046
 30
0.0
 10
74.73254837119163
 20
-146.3132074634218
 30
0.0
 10
74.4714222667424
 20
-146.600509685572
 30
0.0
 10
74.17720560758183
 20
-146.9236894077135
 30
0.0
 10
74.03701172226958
 20
-147.1586394076545
 30
0.0
 10
74.16376664812576
 20
-147.4287260742539
 30
0.0
 10
74.30949727087345
 20
-147.7387824630651
 30
0.0
 10
74.63126587377556
 20
-147.7098546852945
 30
0.0
 10
75.11460669477785
 20
-147.733949407511
 30
0.0
 10
75.50082779603564
 20
-147.7532463519508
 30
0.0
 10
77.26401108438641
 20
-147.7174394075151
 30
0.0
 10
77.26401108438641
 20
-147.7174394075151
 30
0.0
 10
77.26401108438641
 20
-147.7174394075151
 30
0.0
 10
98.95518719766507
 20
-147.2357919076357
 30
0.0
 10
98.95518719766507
 20
-147.2357919076357
 30
0.0
 10
98.95518719766507
 20
-147.2357919076357
 30
0.0
 10
98.95518719766507
 20
-146.7383399633152
 30
0.0
 10
98.95518719766507
 20
-146.7383399633152
 30
0.0
 10
98.95518719766507
 20
-146.7383399633152
 30
0.0
 10
77.49896107839234
 20
-146.7383399633152
 30
0.0
 10
77.49896107839234
 20
-146.7383399633152
 30
0.0
 10
76.85267220599165
 20
-146.7383399633152
 30
0.0
 10
76.52882221425375
 20
-146.2477319078824
 30
0.0
 10
76.91123331560874
 20
-145.6889671858
 30
0.0
 10
77.22231275211689
 20
-145.2342013525804
 30
0.0
 10
86.91407056041511
 20
-135.5541555216669
 30
0.0
 10
88.74188273600596
 20
-133.7386199665653
 30
0.0
  0
SPLINE
  5
46
330
41
100
AcDbEntity
  8
_U+30EC_U+30A4_U+30E4_U+30FC 1
 62
     7
420
 16777215
370
     9
100
AcDbSpline
210
0.0
220
0.0
230
1.0
 70
    11
 71
     3
 72
    17
 73
    13
 74
     0
 42
0.0000000001
 43
0.0000000001
 12
1.0
 22
0.0
 32
0.0
 13
1.0
 23
0.0
 33
0.0
 40
0.0
 40
0.0
 40
0.0
 40
0.0
 40
1.0
 40
1.0
 40
1.0
 40
2.0
 40
2.0
 40
2.0
 40
3.0
 40
3.0
 40
3.0
 40
4.0
 40
4.0
 40
4.0
 40
4.0
 10
117.6375922765928
 20
-146.7383399633152
 30
0.0
 10
117.6375922765928
 20
-146.6825305188848
 30
0.0
 10
117.5928277483798
 20
-146.6384332966736
 30
0.0
 10
117.5376856124749
 20
-146.6384332966736
 30
0.0
 10
117.4825817249919
 20
-146.6384332966736
 30
0.0
 10
117.4377789483571
 20
-146.6825305188848
 30
0.0
 10
117.4377789483571
 20
-146.7383399633152
 30
0.0
 10
117.4377789483571
 20
-146.7934438521908
 30
0.0
 10
117.4825817249919
 20
-146.8382466299569
 30
0.0
 10
117.5376856124749
 20
-146.8382466299569
 30
0.0
 10
117.5928277483798
 20
-146.8382466299569
 30
0.0
 10
117.6375922765928
 20
-146.7934438521908
 30
0.0
 10
117.6375922765928
 20
-146.7383399633152
 30
0.0
  0
SPLINE
  5
47
330
41
100
AcDbEntity
  8
_U+30EC_U+30A4_U+30E4_U+30FC 1
 62
     7
420
 16777215
370
     9
100
AcDbSpline
210
0.0
220
0.0
230
1.0
 70
    11
 71
     3
 72
    17
 73
    13
 74
     0
 42
0.0000000001
 43
0.0000000001
 12
1.0
 22
0.0
 32
0.0
 13
1.0
 23
0.0
 33
0.0
 40
0.0
 40
0.0
 40
0.0
 40
0.0
 40
1.0
 40
1.0
 40
1.0
 40
2.0
 40
2.0
 40
2.0
 40
3.0
 40
3.0
 40
3.0
 40
4.0
 40
4.0
 40
4.0
 40
4.0
 10
117.6375922765928
 20
-133.7386199665653
 30
0.0
 10
117.6375922765928
 20
-133.6828105221349
 30
0.0
 10
117.5928277483798
 20
-133.6387132999237
 30
0.0
 10
117.5376856124749
 20
-133.6387132999237
 30
0.0
 10
117.4825817249919
 20
-133.6387132999237
 30
0.0
 10
117.4377789483571
 20
-133.6828105221349
 30
0.0
 10
117.4377789483571
 20
-133.7386199665653
 30
0.0
 10
117.4377789483571
 20
-133.7937238554402
 30
0.0
 10
117.4825817249919
 20
-133.838526633207
 30
0.0
 10
117.5376856124749
 20
-133.838526633207
 30
0.0
 10
117.5928277483798
 20
-133.838526633207
 30
0.0
 10
117.6375922765928
 20
-133.7937238554402
 30
0.0
 10
117.6375922765928
 20
-133.7386199665653
 30
0.0
  0
SPLINE
  5
48
330
41
100
AcDbEntity
  8
_U+30EC_U+30A4_U+30E4_U+30FC 1
 62
     7
420
 16777215
370
     9
100
AcDbSpline
210
0.0
220
0.0
230
1.0
 70
    11
 71
     3
 72
    17
 73
    13
 74
     0
 42
0.0000000001
 43
0.0000000001
 12
1.0
 22
0.0
 32
0.0
 13
1.0
 23
0.0
 33
0.0
 40
0.0
 40
0.0
 40
0.0
 40
0.0
 40
1.0
 40
1.0
 40
1.0
 40
2.0
 40
2.0
 40
2.0
 40
3.0
 40
3.0
 40
3.0
 40
4.0
 40
4.0
 40
4.0
 40
4.0
 10
117.6375922765928
 20
-132.7801933001382
 30
0.0
 10
117.6375922765928
 20
-132.7243838557078
 30
0.0
 10
117.5928277483798
 20
-132.6795810779411
 30
0.0
 10
117.5376856124749
 20
-132.6795810779411
 30
0.0
 10
117.4825817249919
 20
-132.6795810779411
 30
0.0
 10
117.4377789483571
 20
-132.7243838557078
 30
0.0
 10
117.4377789483571
 20
-132.7801933001382
 30
0.0
 10
117.4377789483571
 20
-132.8352971890131
 30
0.0
 10
117.4825817249919
 20
-132.8800999667799
 30
0.0
 10
117.5376856124749
 20
-132.8800999667799
 30
0.0
 10
117.5928277483798
 20
-132.8800999667799
 30
0.0
 10
117.6375922765928
 20
-132.8352971890131
 30
0.0
 10
117.6375922765928
 20
-132.7801933001382
 30
0.0
  0
POLYLINE
  5
49
330
41
100
AcDbEntity
  8
_U+30EC_U+30A4_U+30E4_U+30FC 1
 62
     7
420
 16777215
370
     9
100
AcDb2dPolyline
 66
     1
 10
0.0
 20
0.0
 30
0.0
  0
VERTEX
  5
4A
330
49
100
AcDbEntity
  8
_U+30EC_U+30A4_U+30E4_U+30FC 1
 62
     7
420
 16777215
370
     9
100
AcDbVertex
100
AcDb2dVertex
 10
117.5376856124749
 20
-133.7330813554556
 30
0.0
  0
VERTEX
  5
4B
330
49
100
AcDbEntity
  8
_U+30EC_U+30A4_U+30E4_U+30FC 1
 62
     7
420
 16777215
370
     9
100
AcDbVertex
100
AcDb2dVertex
 10
117.5376856124749
 20
-146.7328013522055
 30
0.0
  0
SEQEND
  5
4C
330
49
100
AcDbEntity
  8
_U+30EC_U+30A4_U+30E4_U+30FC 1
 62
     7
420
 16777215
370
     9
  0
POLYLINE
  5
4D
330
41
100
AcDbEntity
  8
_U+30EC_U+30A4_U+30E4_U+30FC 1
 62
     7
420
 16777215
370
     9
100
AcDb2dPolyline
 66
     1
 10
0.0
 20
0.0
 30
0.0
  0
VERTEX
  5
4E
330
4D
100
AcDbEntity
  8
_U+30EC_U+30A4_U+30E4_U+30FC 1
 62
     7
420
 16777215
370
     9
100
AcDbVertex
100
AcDb2dVertex
 10
117.5376856124749
 20
-132.7271355223735
 30
0.0
  0
VERTEX
  5
4F
330
4D
100
AcDbEntity
  8
_U+30EC_U+30A4_U+30E4_U+30FC 1
 62
     7
420
 16777215
370
     9
100
AcDbVertex
100
AcDb2dVertex
 10
117.5376856124749
 20
-133.7275780221235
 30
0.0
  0
SEQEND
  5
50
330
4D
100
AcDbEntity
  8
_U+30EC_U+30A4_U+30E4_U+30FC 1
 62
     7
420
 16777215
370
     9
  0
POLYLINE
  5
51
330
41
100
AcDbEntity
  8
_U+30EC_U+30A4_U+30E4_U+30FC 1
 62
     7
420
 16777215
370
     9
100
AcDb2dPolyline
 66
     1
 10
0.0
 20
0.0
 30
0.0
  0
VERTEX
  5
52
330
51
100
AcDbEntity
  8
_U+30EC_U+30A4_U+30E4_U+30FC 1
 62
     7
420
 16777215
370
     9
100
AcDbVertex
100
AcDb2dVertex
 10
118.5050728100171
 20
-132.7484785779243
 30
0.0
  0
VERTEX
  5
53
330
51
100
AcDbEntity
  8
_U+30EC_U+30A4_U+30E4_U+30FC 1
 62
     7
420
 16777215
370
     9
100
AcDbVertex
100
AcDb2dVertex
 10
115.5450556633112
 20
-132.7484785779243
 30
0.0
  0
SEQEND
  5
54
330
51
100
AcDbEntity
  8
_U+30EC_U+30A4_U+30E4_U+30FC 1
 62
     7
420
 16777215
370
     9
  0
POLYLINE
  5
55
330
41
100
AcDbEntity
  8
_U+30EC_U+30A4_U+30E4_U+30FC 1
 62
     7
420
 16777215
370
     9
100
AcDb2dPolyline
 66
     1
 10
0.0
 20
0.0
 30
0.0
  0
VERTEX
  5
56
330
55
100
AcDbEntity
  8
_U+30EC_U+30A4_U+30E4_U+30FC 1
 62
     7
420
 16777215
370
     9
100
AcDbVertex
100
AcDb2dVertex
 10
118.5050728100171
 20
-146.7383399633152
 30
0.0
  0
VERTEX
  5
57
330
55
100
AcDbEntity
  8
_U+30EC_U+30A4_U+30E4_U+30FC 1
 62
     7
420
 16777215
370
     9
100
AcDbVertex
100
AcDb2dVertex
 10
100.4696621590276
 20
-146.7383399633152
 30
0.0
  0
SEQEND
  5
58
330
55
100
AcDbEntity
  8
_U+30EC_U+30A4_U+30E4_U+30FC 1
 62
     7
420
 16777215
370
     9
  0
POLYLINE
  5
59
330
41
100
AcDbEntity
  8
_U+30EC_U+30A4_U+30E4_U+30FC 1
 62
     7
420
 16777215
370
     9
100
AcDb2dPolyline
 66
     1
 10
0.0
 20
0.0
 30
0.0
  0
VERTEX
  5
5A
330
59
100
AcDbEntity
  8
_U+30EC_U+30A4_U+30E4_U+30FC 1
 62
     7
420
 16777215
370
     9
100
AcDbVertex
100
AcDb2dVertex
 10
118.5050728100171
 20
-133.7386199665653
 30
0.0
  0
VERTEX
  5
5B
330
59
100
AcDbEntity
  8
_U+30EC_U+30A4_U+30E4_U+30FC 1
 62
     7
420
 16777215
370
     9
100
AcDbVertex
100
AcDb2dVertex
 10
115.5450556633112
 20
-133.7386199665653
 30
0.0
  0
SEQEND
  5
5C
330
59
100
AcDbEntity
  8
_U+30EC_U+30A4_U+30E4_U+30FC 1
 62
     7
420
 16777215
370
     9
  0
INSERT
  5
5E
330
41
100
AcDbEntity
  8
_U+30EC_U+30A4_U+30E4_U+30FC 1
100
AcDbBlockReference
  2
block 3
 10
0.0
 20
0.0
 30
0.0
  0
INSERT
  5
66
330
41
100
AcDbEntity
  8
_U+30EC_U+30A4_U+30E4_U+30FC 1
100
AcDbBlockReference
  2
block 4
 10
0.0
 20
0.0
 30
0.0
  0
SPLINE
  5
6B
330
41
100
AcDbEntity
  8
_U+30EC_U+30A4_U+30E4_U+30FC 1
 62
     7
420
 16777215
370
     9
100
AcDbSpline
210
0.0
220
0.0
230
1.0
 70
    11
 71
     3
 72
    17
 73
    13
 74
     0
 42
0.0000000001
 43
0.0000000001
 12
1.0
 22
0.0
 32
0.0
 13
1.0
 23
0.0
 33
0.0
 40
0.0
 40
0.0
 40
0.0
 40
0.0
 40
1.0
 40
1.0
 40
1.0
 40
2.0
 40
2.0
 40
2.0
 40
3.0
 40
3.0
 40
3.0
 40
4.0
 40
4.0
 40
4.0
 40
4.0
 10
99.05509386178291
 20
-150.9833855178095
 30
0.0
 10
99.05509386178291
 20
-150.9282463511571
 30
0.0
 10
99.01032636292503
 20
-150.8834788511679
 30
0.0
 10
98.95518719766507
 20
-150.8834788511679
 30
0.0
 10
98.900083310182
 20
-150.8834788511679
 30
0.0
 10
98.85528053354724
 20
-150.9282463511571
 30
0.0
 10
98.85528053354724
 20
-150.9833855178095
 30
0.0
 10
98.85528053354724
 20
-151.038489406685
 30
0.0
 10
98.900083310182
 20
-151.0832921844511
 30
0.0
 10
98.95518719766507
 20
-151.0832921844511
 30
0.0
 10
99.01032636292503
 20
-151.0832921844511
 30
0.0
 10
99.05509386178291
 20
-151.038489406685
 30
0.0
 10
99.05509386178291
 20
-150.9833855178095
 30
0.0
  0
POLYLINE
  5
6C
330
41
100
AcDbEntity
  8
_U+30EC_U+30A4_U+30E4_U+30FC 1
 62
     7
420
 16777215
370
     9
100
AcDb2dPolyline
 66
     1
 10
0.0
 20
0.0
 30
0.0
  0
VERTEX
  5
6D
330
6C
100
AcDbEntity
  8
_U+30EC_U+30A4_U+30E4_U+30FC 1
 62
     7
420
 16777215
370
     9
100
AcDbVertex
100
AcDb2dVertex
 10
73.9560492243351
 20
-150.9833855178095
 30
0.0
  0
VERTEX
  5
6E
330
6C
100
AcDbEntity
  8
_U+30EC_U+30A4_U+30E4_U+30FC 1
 62
     7
420
 16777215
370
     9
100
AcDbVertex
100
AcDb2dVertex
 10
98.9562455309714
 20
-150.9833855178095
 30
0.0
  0
SEQEND
  5
6F
330
6C
100
AcDbEntity
  8
_U+30EC_U+30A4_U+30E4_U+30FC 1
 62
     7
420
 16777215
370
     9
  0
SPLINE
  5
70
330
41
100
AcDbEntity
  8
_U+30EC_U+30A4_U+30E4_U+30FC 1
 62
     7
420
 16777215
370
     9
100
AcDbSpline
210
0.0
220
0.0
230
1.0
 70
    11
 71
     3
 72
    17
 73
    13
 74
     0
 42
0.0000000001
 43
0.0000000001
 12
1.0
 22
0.0
 32
0.0
 13
1.0
 23
0.0
 33
0.0
 40
0.0
 40
0.0
 40
0.0
 40
0.0
 40
1.0
 40
1.0
 40
1.0
 40
2.0
 40
2.0
 40
2.0
 40
3.0
 40
3.0
 40
3.0
 40
4.0
 40
4.0
 40
4.0
 40
4.0
 10
74.05595588845294
 20
-150.9833855178095
 30
0.0
 10
74.05595588845294
 20
-150.9282463511571
 30
0.0
 10
74.01115311181817
 20
-150.8834788511679
 30
0.0
 10
73.9560492243351
 20
-150.8834788511679
 30
0.0
 10
73.90091005907516
 20
-150.8834788511679
 30
0.0
 10
73.85614442598033
 20
-150.9282463511571
 30
0.0
 10
73.85614442598033
 20
-150.9833855178095
 30
0.0
 10
73.85614442598033
 20
-151.038489406685
 30
0.0
 10
73.90091005907516
 20
-151.0832921844511
 30
0.0
 10
73.9560492243351
 20
-151.0832921844511
 30
0.0
 10
74.01115311181817
 20
-151.0832921844511
 30
0.0
 10
74.05595588845294
 20
-151.038489406685
 30
0.0
 10
74.05595588845294
 20
-150.9833855178095
 30
0.0
  0
POLYLINE
  5
71
330
41
100
AcDbEntity
  8
_U+30EC_U+30A4_U+30E4_U+30FC 1
 62
     7
420
 16777215
370
     9
100
AcDb2dPolyline
 66
     1
 10
0.0
 20
0.0
 30
0.0
  0
VERTEX
  5
72
330
71
100
AcDbEntity
  8
_U+30EC_U+30A4_U+30E4_U+30FC 1
 62
     7
420
 16777215
370
     9
100
AcDbVertex
100
AcDb2dVertex
 10
73.9560492243351
 20
-148.7233852405972
 30
0.0
  0
VERTEX
  5
73
330
71
100
AcDbEntity
  8
_U+30EC_U+30A4_U+30E4_U+30FC 1
 62
     7
420
 16777215
370
     9
100
AcDbVertex
100
AcDb2dVertex
 10
73.9560492243351
 20
-151.983157739782
 30
0.0
  0
SEQEND
  5
74
330
71
100
AcDbEntity
  8
_U+30EC_U+30A4_U+30E4_U+30FC 1
 62
     7
420
 16777215
370
     9
  0
POLYLINE
  5
75
330
41
100
AcDbEntity
  8
_U+30EC_U+30A4_U+30E4_U+30FC 1
 62
     7
420
 16777215
370
     9
100
AcDb2dPolyline
 66
     1
 10
0.0
 20
0.0
 30
0.0
  0
VERTEX
  5
76
330
75
100
AcDbEntity
  8
_U+30EC_U+30A4_U+30E4_U+30FC 1
 62
     7
420
 16777215
370
     9
100
AcDbVertex
100
AcDb2dVertex
 10
98.95518719766507
 20
-149.0231052405221
 30
0.0
  0
VERTEX
  5
77
330
75
100
AcDbEntity
  8
_U+30EC_U+30A4_U+30E4_U+30FC 1
 62
     7
420
 16777215
370
     9
100
AcDbVertex
100
AcDb2dVertex
 10
98.95518719766507
 20
-151.983157739782
 30
0.0
  0
SEQEND
  5
78
330
75
100
AcDbEntity
  8
_U+30EC_U+30A4_U+30E4_U+30FC 1
 62
     7
420
 16777215
370
     9
  0
INSERT
  5
7A
330
41
100
AcDbEntity
  8
_U+30EC_U+30A4_U+30E4_U+30FC 1
100
AcDbBlockReference
  2
block 5
 10
0.0
 20
0.0
 30
0.0
  0
SPLINE
  5
81
330
41
100
AcDbEntity
  8
_U+30EC_U+30A4_U+30E4_U+30FC 1
 62
     7
420
 16777215
370
     9
100
AcDbSpline
210
0.0
220
0.0
230
1.0
 70
    11
 71
     3
 72
    17
 73
    13
 74
     0
 42
0.0000000001
 43
0.0000000001
 12
1.0
 22
0.0
 32
0.0
 13
1.0
 23
0.0
 33
0.0
 40
0.0
 40
0.0
 40
0.0
 40
0.0
 40
1.0
 40
1.0
 40
1.0
 40
2.0
 40
2.0
 40
2.0
 40
3.0
 40
3.0
 40
3.0
 40
4.0
 40
4.0
 40
4.0
 40
4.0
 10
69.74338877625347
 20
-147.1303819076618
 30
0.0
 10
69.78265294191843
 20
-147.1696460743189
 30
0.0
 10
69.84569432919899
 20
-147.1689757965409
 30
0.0
 10
69.88460571709517
 20
-147.1303819076618
 30
0.0
 10
69.923905160537
 20
-147.0911177410048
 30
0.0
 10
69.92422266052891
 20
-147.0283938521318
 30
0.0
 10
69.88460571709517
 20
-146.9884594076974
 30
0.0
 10
69.84569432919899
 20
-146.9498655188184
 30
0.0
 10
69.78230016414965
 20
-146.9498655188184
 30
0.0
 10
69.74338877625347
 20
-146.9884594076974
 30
0.0
 10
69.70408933281163
 20
-147.0277235743544
 30
0.0
 10
69.70408933281163
 20
-147.0911177410048
 30
0.0
 10
69.74338877625347
 20
-147.1303819076618
 30
0.0
  0
SPLINE
  5
82
330
41
100
AcDbEntity
  8
_U+30EC_U+30A4_U+30E4_U+30FC 1
 62
     7
420
 16777215
370
     9
100
AcDbSpline
210
0.0
220
0.0
230
1.0
 70
    11
 71
     3
 72
    17
 73
    13
 74
     0
 42
0.0000000001
 43
0.0000000001
 12
1.0
 22
0.0
 32
0.0
 13
1.0
 23
0.0
 33
0.0
 40
0.0
 40
0.0
 40
0.0
 40
0.0
 40
1.0
 40
1.0
 40
1.0
 40
2.0
 40
2.0
 40
2.0
 40
3.0
 40
3.0
 40
3.0
 40
4.0
 40
4.0
 40
4.0
 40
4.0
 10
71.83521983399753
 20
-149.222248296028
 30
0.0
 10
71.87451927743936
 20
-149.2615124626844
 30
0.0
 10
71.9379134424887
 20
-149.2615124626844
 30
0.0
 10
71.97682483038488
 20
-149.222248296028
 30
0.0
 10
72.01577149605794
 20
-149.182984129371
 30
0.0
 10
72.01577149605794
 20
-149.1195899627199
 30
0.0
 10
71.9764720526161
 20
-149.0802905182854
 30
0.0
 10
71.93756066471992
 20
-149.0417319071839
 30
0.0
 10
71.87416649967058
 20
-149.0417319071839
 30
0.0
 10
71.83521983399753
 20
-149.0802905182854
 30
0.0
 10
71.79595566833257
 20
-149.1195899627199
 30
0.0
 10
71.79595566833257
 20
-149.182984129371
 30
0.0
 10
71.83521983399753
 20
-149.222248296028
 30
0.0
  0
POLYLINE
  5
83
330
41
100
AcDbEntity
  8
_U+30EC_U+30A4_U+30E4_U+30FC 1
 62
     7
420
 16777215
370
     9
100
AcDb2dPolyline
 66
     1
 10
0.0
 20
0.0
 30
0.0
  0
VERTEX
  5
84
330
83
100
AcDbEntity
  8
_U+30EC_U+30A4_U+30E4_U+30FC 1
 62
     7
420
 16777215
370
     9
100
AcDbVertex
100
AcDb2dVertex
 10
71.94341677568164
 20
-149.1884874627031
 30
0.0
  0
VERTEX
  5
85
330
83
100
AcDbEntity
  8
_U+30EC_U+30A4_U+30E4_U+30FC 1
 62
     7
420
 16777215
370
     9
100
AcDbVertex
100
AcDb2dVertex
 10
69.82191710758339
 20
-147.0669877410108
 30
0.0
  0
SEQEND
  5
86
330
83
100
AcDbEntity
  8
_U+30EC_U+30A4_U+30E4_U+30FC 1
 62
     7
420
 16777215
370
     9
  0
POLYLINE
  5
87
330
41
100
AcDbEntity
  8
_U+30EC_U+30A4_U+30E4_U+30FC 1
 62
     7
420
 16777215
370
     9
100
AcDb2dPolyline
 66
     1
 10
0.0
 20
0.0
 30
0.0
  0
VERTEX
  5
88
330
87
100
AcDbEntity
  8
_U+30EC_U+30A4_U+30E4_U+30FC 1
 62
     7
420
 16777215
370
     9
100
AcDbVertex
100
AcDb2dVertex
 10
71.2440701268568
 20
-149.8575305180911
 30
0.0
  0
VERTEX
  5
89
330
87
100
AcDbEntity
  8
_U+30EC_U+30A4_U+30E4_U+30FC 1
 62
     7
420
 16777215
370
     9
100
AcDbVertex
100
AcDb2dVertex
 10
73.33731229567596
 20
-147.76495857417
 30
0.0
  0
SEQEND
  5
8A
330
87
100
AcDbEntity
  8
_U+30EC_U+30A4_U+30E4_U+30FC 1
 62
     7
420
 16777215
370
     9
  0
POLYLINE
  5
8B
330
41
100
AcDbEntity
  8
_U+30EC_U+30A4_U+30E4_U+30FC 1
 62
     7
420
 16777215
370
     9
100
AcDb2dPolyline
 66
     1
 10
0.0
 20
0.0
 30
0.0
  0
VERTEX
  5
8C
330
8B
100
AcDbEntity
  8
_U+30EC_U+30A4_U+30E4_U+30FC 1
 62
     7
420
 16777215
370
     9
100
AcDbVertex
100
AcDb2dVertex
 10
69.12980240301847
 20
-147.74361551862
 30
0.0
  0
VERTEX
  5
8D
330
8B
100
AcDbEntity
  8
_U+30EC_U+30A4_U+30E4_U+30FC 1
 62
     7
420
 16777215
370
     9
100
AcDbVertex
100
AcDb2dVertex
 10
71.22269179406887
 20
-145.6503732969209
 30
0.0
  0
SEQEND
  5
8E
330
8B
100
AcDbEntity
  8
_U+30EC_U+30A4_U+30E4_U+30FC 1
 62
     7
420
 16777215
370
     9
  0
INSERT
  5
90
330
41
100
AcDbEntity
  8
_U+30EC_U+30A4_U+30E4_U+30FC 1
100
AcDbBlockReference
  2
block 6
 10
0.0
 20
0.0
 30
0.0
  0
INSERT
  5
96
330
41
100
AcDbEntity
  8
_U+30EC_U+30A4_U+30E4_U+30FC 1
100
AcDbBlockReference
  2
block 7
 10
0.0
 20
0.0
 30
0.0
  0
INSERT
  5
A6
330
41
100
AcDbEntity
  8
_U+30EC_U+30A4_U+30E4_U+30FC 1
100
AcDbBlockReference
  2
block 8
 10
0.0
 20
0.0
 30
0.0
  0
POLYLINE
  5
B9
330
41
100
AcDbEntity
  8
_U+30EC_U+30A4_U+30E4_U+30FC 1
 62
     7
420
 16777215
370
     9
100
AcDb2dPolyline
 66
     1
 10
0.0
 20
0.0
 30
0.0
  0
VERTEX
  5
BA
330
B9
100
AcDbEntity
  8
_U+30EC_U+30A4_U+30E4_U+30FC 1
 62
     7
420
 16777215
370
     9
100
AcDbVertex
100
AcDb2dVertex
 10
103.4296793057335
 20
-146.7383399633152
 30
0.0
  0
VERTEX
  5
BB
330
B9
100
AcDbEntity
  8
_U+30EC_U+30A4_U+30E4_U+30FC 1
 62
     7
420
 16777215
370
     9
100
AcDbVertex
100
AcDb2dVertex
 10
100.4696621590276
 20
-146.7383399633152
 30
0.0
  0
SEQEND
  5
BC
330
B9
100
AcDbEntity
  8
_U+30EC_U+30A4_U+30E4_U+30FC 1
 62
     7
420
 16777215
370
     9
  0
ENDBLK
  5
44
330
41
100
AcDbEntity
  8
0
100
AcDbBlockEnd
  0
BLOCK
  5
5F
330
5D
100
AcDbEntity
  8
0
100
AcDbBlockBegin
  2
block 3
 70
     0
 10
0.0
 20
0.0
 30
0.0
  3
block 3
  1

  0
SPLINE
  5
61
330
5D
100
AcDbEntity
  8
_U+30EC_U+30A4_U+30E4_U+30FC 1
370
     0
100
AcDbSpline
210
0.0
220
0.0
230
1.0
 70
    11
 71
     3
 72
    26
 73
    22
 74
     0
 42
0.0000000001
 43
0.0000000001
 12
1.0
 22
0.0
 32
0.0
 13
1.0
 23
0.0
 33
0.0
 40
0.0
 40
0.0
 40
0.0
 40
0.0
 40
1.0
 40
1.0
 40
1.0
 40
2.0
 40
2.0
 40
2.0
 40
3.0
 40
3.0
 40
3.0
 40
4.0
 40
4.0
 40
4.0
 40
5.0
 40
5.0
 40
5.0
 40
6.0
 40
6.0
 40
6.0
 40
7.0
 40
7.0
 40
7.0
 40
7.0
 10
117.0664116460806
 20
-140.9881211670099
 30
0.0
 10
117.0664116460806
 20
-140.9881211670099
 30
0.0
 10
115.9619140335095
 20
-140.9881211670099
 30
0.0
 10
115.9619140335095
 20
-140.9881211670099
 30
0.0
 10
115.9619140335095
 20
-140.9881211670099
 30
0.0
 10
115.9619140335095
 20
-141.3181613144968
 30
0.0
 10
115.9619140335095
 20
-141.3181613144968
 30
0.0
 10
115.9619140335095
 20
-141.3181613144968
 30
0.0
 10
115.8141194371923
 20
-141.3181613144968
 30
0.0
 10
115.8141194371923
 20
-141.3181613144968
 30
0.0
 10
115.7993055266057
 20
-140.9860541097188
 30
0.0
 10
115.6363525101534
 20
-140.9395453206679
 30
0.0
 10
115.5223198495917
 20
-140.9099174994948
 30
0.0
 10
115.5223198495917
 20
-140.9099174994948
 30
0.0
 10
115.5223198495917
 20
-140.7638454509201
 30
0.0
 10
115.5223198495917
 20
-140.7638454509201
 30
0.0
 10
115.5223198495917
 20
-140.7638454509201
 30
0.0
 10
117.0664116460806
 20
-140.7638454509201
 30
0.0
 10
117.0664116460806
 20
-140.7638454509201
 30
0.0
 10
117.0664116460806
 20
-140.7638454509201
 30
0.0
 10
117.0664116460806
 20
-140.9881211670099
 30
0.0
 10
117.0664116460806
 20
-140.9881211670099
 30
0.0
  0
HATCH
  5
62
330
5D
100
AcDbEntity
  8
_U+30EC_U+30A4_U+30E4_U+30FC 1
 62
     7
420
 16777215
100
AcDbHatch
 10
0.0
 20
0.0
 30
0.0
210
0.0
220
0.0
230
1.0
  2
SOLID
 70
     1
 71
     0
 91
        1
 92
        1
 93
        1
 72
     4
 94
        3
 73
     0
 74
     1
 95
       26
 96
       22
 40
0.0
 40
0.0
 40
0.0
 40
0.0
 40
1.0
 40
1.0
 40
1.0
 40
2.0
 40
2.0
 40
2.0
 40
3.0
 40
3.0
 40
3.0
 40
4.0
 40
4.0
 40
4.0
 40
5.0
 40
5.0
 40
5.0
 40
6.0
 40
6.0
 40
6.0
 40
7.0
 40
7.0
 40
7.0
 40
7.0
 10
117.0664116460806
 20
-140.9881211670099
 10
117.0664116460806
 20
-140.9881211670099
 10
115.9619140335095
 20
-140.9881211670099
 10
115.9619140335095
 20
-140.9881211670099
 10
115.9619140335095
 20
-140.9881211670099
 10
115.9619140335095
 20
-141.3181613144968
 10
115.9619140335095
 20
-141.3181613144968
 10
115.9619140335095
 20
-141.3181613144968
 10
115.8141194371923
 20
-141.3181613144968
 10
115.8141194371923
 20
-141.3181613144968
 10
115.7993055266057
 20
-140.9860541097188
 10
115.6363525101534
 20
-140.9395453206679
 10
115.5223198495917
 20
-140.9099174994948
 10
115.5223198495917
 20
-140.9099174994948
 10
115.5223198495917
 20
-140.7638454509201
 10
115.5223198495917
 20
-140.7638454509201
 10
115.5223198495917
 20
-140.7638454509201
 10
117.0664116460806
 20
-140.7638454509201
 10
117.0664116460806
 20
-140.7638454509201
 10
117.0664116460806
 20
-140.7638454509201
 10
117.0664116460806
 20
-140.9881211670099
 10
117.0664116460806
 20
-140.9881211670099
 97
        0
 97
        0
 75
     2
 76
     1
 98
        0
  0
SPLINE
  5
63
330
5D
100
AcDbEntity
  8
_U+30EC_U+30A4_U+30E4_U+30FC 1
370
     0
100
AcDbSpline
210
0.0
220
0.0
230
1.0
 70
    11
 71
     3
 72
    62
 73
    58
 74
     0
 42
0.0000000001
 43
0.0000000001
 12
1.0
 22
0.0
 32
0.0
 13
1.0
 23
0.0
 33
0.0
 40
0.0
 40
0.0
 40
0.0
 40
0.0
 40
1.0
 40
1.0
 40
1.0
 40
2.0
 40
2.0
 40
2.0
 40
3.0
 40
3.0
 40
3.0
 40
4.0
 40
4.0
 40
4.0
 40
5.0
 40
5.0
 40
5.0
 40
6.0
 40
6.0
 40
6.0
 40
7.0
 40
7.0
 40
7.0
 40
8.0
 40
8.0
 40
8.0
 40
9.0
 40
9.0
 40
9.0
 40
10.0
 40
10.0
 40
10.0
 40
11.0
 40
11.0
 40
11.0
 40
12.0
 40
12.0
 40
12.0
 40
13.0
 40
13.0
 40
13.0
 40
14.0
 40
14.0
 40
14.0
 40
15.0
 40
15.0
 40
15.0
 40
16.0
 40
16.0
 40
16.0
 40
17.0
 40
17.0
 40
17.0
 40
18.0
 40
18.0
 40
18.0
 40
19.0
 40
19.0
 40
19.0
 40
19.0
 10
117.1173990592623
 20
-139.7709689320712
 30
0.0
 10
117.1173990592623
 20
-139.8663980770126
 30
0.0
 10
117.0960394672538
 20
-140.0841281116804
 30
0.0
 10
116.9100043110503
 20
-140.2091850777949
 30
0.0
 10
116.7976941982311
 20
-140.2832546307278
 30
0.0
 10
116.6984754482559
 20
-140.2873887453101
 30
0.0
 10
116.6137260993188
 20
-140.2915228598924
 30
0.0
 10
116.6137260993188
 20
-140.2915228598924
 30
0.0
 10
116.6137260993188
 20
-140.0713812583849
 30
0.0
 10
116.6137260993188
 20
-140.0713812583849
 30
0.0
 10
116.6877956522517
 20
-140.0693142010938
 30
0.0
 10
116.9224066547972
 20
-140.058978914638
 30
0.0
 10
116.9224066547972
 20
-139.775447556202
 30
0.0
 10
116.9224066547972
 20
-139.6379882463405
 30
0.0
 10
116.8528157259951
 20
-139.4853705163439
 30
0.0
 10
116.6240613857745
 20
-139.4853705163439
 30
0.0
 10
116.5079616679216
 20
-139.4853705163439
 30
0.0
 10
116.4593858215796
 20
-139.5236110762302
 30
0.0
 10
116.4276909431153
 20
-139.5553059546945
 30
0.0
 10
116.3532768806339
 20
-139.6293755076274
 30
0.0
 10
116.340874536887
 20
-139.7458197350288
 30
0.0
 10
116.340874536887
 20
-139.8005967532443
 30
0.0
 10
116.340874536887
 20
-139.8198892879617
 30
0.0
 10
116.3429415941782
 20
-139.8557182810083
 30
0.0
 10
116.3470757087605
 20
-139.8832790448903
 30
0.0
 10
116.3470757087605
 20
-139.8832790448903
 30
0.0
 10
116.1524278138438
 20
-139.8832790448903
 30
0.0
 10
116.1524278138438
 20
-139.8832790448903
 30
0.0
 10
116.1589734952658
 20
-139.845038485004
 30
0.0
 10
116.161040552557
 20
-139.803008320084
 30
0.0
 10
116.161040552557
 20
-139.796462638662
 30
0.0
 10
116.161040552557
 20
-139.7310058244423
 30
0.0
 10
116.1396809605484
 20
-139.5322238149433
 30
0.0
 10
115.9026583911632
 20
-139.5322238149433
 30
0.0
 10
115.7252359736729
 20
-139.5322238149433
 30
0.0
 10
115.6701144459089
 20
-139.6631374433828
 30
0.0
 10
115.6701144459089
 20
-139.7733804989108
 30
0.0
 10
115.6701144459089
 20
-140.0376193226295
 30
0.0
 10
115.9026583911632
 20
-140.0462320613426
 30
0.0
 10
115.9750053963535
 20
-140.0503661759249
 30
0.0
 10
115.9750053963535
 20
-140.0503661759249
 30
0.0
 10
115.9750053963535
 20
-140.2536268095546
 30
0.0
 10
115.9750053963535
 20
-140.2536268095546
 30
0.0
 10
115.8499484302389
 20
-140.2450140708415
 30
0.0
 10
115.4733994937011
 20
-140.2174533069595
 30
0.0
 10
115.4733994937011
 20
-139.7606336456154
 30
0.0
 10
115.4733994937011
 20
-139.5363579295256
 30
0.0
 10
115.6001790075583
 20
-139.2952012455582
 30
0.0
 10
115.8964572192898
 20
-139.2952012455582
 30
0.0
 10
116.0824923754933
 20
-139.2952012455582
 30
0.0
 10
116.1651746671393
 20
-139.390285880951
 30
0.0
 10
116.2264973667767
 20
-139.4898491404748
 30
0.0
 10
116.2540581306587
 20
-139.4285264408373
 30
0.0
 10
116.3346733650136
 20
-139.2466253992161
 30
0.0
 10
116.6116590420276
 20
-139.2466253992161
 30
0.0
 10
116.9499674186792
 20
-139.2466253992161
 30
0.0
 10
117.1173990592623
 20
-139.4939832550571
 30
0.0
 10
117.1173990592623
 20
-139.7709689320712
 30
0.0
  0
HATCH
  5
64
330
5D
100
AcDbEntity
  8
_U+30EC_U+30A4_U+30E4_U+30FC 1
 62
     7
420
 16777215
100
AcDbHatch
 10
0.0
 20
0.0
 30
0.0
210
0.0
220
0.0
230
1.0
  2
SOLID
 70
     1
 71
     0
 91
        1
 92
        1
 93
        1
 72
     4
 94
        3
 73
     0
 74
     1
 95
       62
 96
       58
 40
0.0
 40
0.0
 40
0.0
 40
0.0
 40
1.0
 40
1.0
 40
1.0
 40
2.0
 40
2.0
 40
2.0
 40
3.0
 40
3.0
 40
3.0
 40
4.0
 40
4.0
 40
4.0
 40
5.0
 40
5.0
 40
5.0
 40
6.0
 40
6.0
 40
6.0
 40
7.0
 40
7.0
 40
7.0
 40
8.0
 40
8.0
 40
8.0
 40
9.0
 40
9.0
 40
9.0
 40
10.0
 40
10.0
 40
10.0
 40
11.0
 40
11.0
 40
11.0
 40
12.0
 40
12.0
 40
12.0
 40
13.0
 40
13.0
 40
13.0
 40
14.0
 40
14.0
 40
14.0
 40
15.0
 40
15.0
 40
15.0
 40
16.0
 40
16.0
 40
16.0
 40
17.0
 40
17.0
 40
17.0
 40
18.0
 40
18.0
 40
18.0
 40
19.0
 40
19.0
 40
19.0
 40
19.0
 10
117.1173990592623
 20
-139.7709689320712
 10
117.1173990592623
 20
-139.8663980770126
 10
117.0960394672538
 20
-140.0841281116804
 10
116.9100043110503
 20
-140.2091850777949
 10
116.7976941982311
 20
-140.2832546307278
 10
116.6984754482559
 20
-140.2873887453101
 10
116.6137260993188
 20
-140.2915228598924
 10
116.6137260993188
 20
-140.2915228598924
 10
116.6137260993188
 20
-140.0713812583849
 10
116.6137260993188
 20
-140.0713812583849
 10
116.6877956522517
 20
-140.0693142010938
 10
116.9224066547972
 20
-140.058978914638
 10
116.9224066547972
 20
-139.775447556202
 10
116.9224066547972
 20
-139.6379882463405
 10
116.8528157259951
 20
-139.4853705163439
 10
116.6240613857745
 20
-139.4853705163439
 10
116.5079616679216
 20
-139.4853705163439
 10
116.4593858215796
 20
-139.5236110762302
 10
116.4276909431153
 20
-139.5553059546945
 10
116.3532768806339
 20
-139.6293755076274
 10
116.340874536887
 20
-139.7458197350288
 10
116.340874536887
 20
-139.8005967532443
 10
116.340874536887
 20
-139.8198892879617
 10
116.3429415941782
 20
-139.8557182810083
 10
116.3470757087605
 20
-139.8832790448903
 10
116.3470757087605
 20
-139.8832790448903
 10
116.1524278138438
 20
-139.8832790448903
 10
116.1524278138438
 20
-139.8832790448903
 10
116.1589734952658
 20
-139.845038485004
 10
116.161040552557
 20
-139.803008320084
 10
116.161040552557
 20
-139.796462638662
 10
116.161040552557
 20
-139.7310058244423
 10
116.1396809605484
 20
-139.5322238149433
 10
115.9026583911632
 20
-139.5322238149433
 10
115.7252359736729
 20
-139.5322238149433
 10
115.6701144459089
 20
-139.6631374433828
 10
115.6701144459089
 20
-139.7733804989108
 10
115.6701144459089
 20
-140.0376193226295
 10
115.9026583911632
 20
-140.0462320613426
 10
115.9750053963535
 20
-140.0503661759249
 10
115.9750053963535
 20
-140.0503661759249
 10
115.9750053963535
 20
-140.2536268095546
 10
115.9750053963535
 20
-140.2536268095546
 10
115.8499484302389
 20
-140.2450140708415
 10
115.4733994937011
 20
-140.2174533069595
 10
115.4733994937011
 20
-139.7606336456154
 10
115.4733994937011
 20
-139.5363579295256
 10
115.6001790075583
 20
-139.2952012455582
 10
115.8964572192898
 20
-139.2952012455582
 10
116.0824923754933
 20
-139.2952012455582
 10
116.1651746671393
 20
-139.390285880951
 10
116.2264973667767
 20
-139.4898491404748
 10
116.2540581306587
 20
-139.4285264408373
 10
116.3346733650136
 20
-139.2466253992161
 10
116.6116590420276
 20
-139.2466253992161
 10
116.9499674186792
 20
-139.2466253992161
 10
117.1173990592623
 20
-139.4939832550571
 10
117.1173990592623
 20
-139.7709689320712
 97
        0
 97
        0
 75
     2
 76
     1
 98
        0
  0
ENDBLK
  5
60
330
5D
100
AcDbEntity
  8
0
100
AcDbBlockEnd
  0
BLOCK
  5
67
330
65
100
AcDbEntity
  8
0
100
AcDbBlockBegin
  2
block 4
 70
     0
 10
0.0
 20
0.0
 30
0.0
  3
block 4
  1

  0
SPLINE
  5
69
330
65
100
AcDbEntity
  8
_U+30EC_U+30A4_U+30E4_U+30FC 1
370
     0
100
AcDbSpline
210
0.0
220
0.0
230
1.0
 70
    11
 71
     3
 72
    26
 73
    22
 74
     0
 42
0.0000000001
 43
0.0000000001
 12
1.0
 22
0.0
 32
0.0
 13
1.0
 23
0.0
 33
0.0
 40
0.0
 40
0.0
 40
0.0
 40
0.0
 40
1.0
 40
1.0
 40
1.0
 40
2.0
 40
2.0
 40
2.0
 40
3.0
 40
3.0
 40
3.0
 40
4.0
 40
4.0
 40
4.0
 40
5.0
 40
5.0
 40
5.0
 40
6.0
 40
6.0
 40
6.0
 40
7.0
 40
7.0
 40
7.0
 40
7.0
 10
118.1964029652426
 20
-131.6315863386199
 30
0.0
 10
118.1964029652426
 20
-131.6315863386199
 30
0.0
 10
117.0919053526715
 20
-131.6315863386199
 30
0.0
 10
117.0919053526715
 20
-131.6315863386199
 30
0.0
 10
117.0919053526715
 20
-131.6315863386199
 30
0.0
 10
117.0919053526715
 20
-131.9616264861068
 30
0.0
 10
117.0919053526715
 20
-131.9616264861068
 30
0.0
 10
117.0919053526715
 20
-131.9616264861068
 30
0.0
 10
116.9441107563542
 20
-131.9616264861068
 30
0.0
 10
116.9441107563542
 20
-131.9616264861068
 30
0.0
 10
116.9292968457677
 20
-131.6295192813287
 30
0.0
 10
116.7663438293154
 20
-131.5830104922779
 30
0.0
 10
116.6523111687536
 20
-131.5533826711047
 30
0.0
 10
116.6523111687536
 20
-131.5533826711047
 30
0.0
 10
116.6523111687536
 20
-131.4073106225301
 30
0.0
 10
116.6523111687536
 20
-131.4073106225301
 30
0.0
 10
116.6523111687536
 20
-131.4073106225301
 30
0.0
 10
118.1964029652426
 20
-131.4073106225301
 30
0.0
 10
118.1964029652426
 20
-131.4073106225301
 30
0.0
 10
118.1964029652426
 20
-131.4073106225301
 30
0.0
 10
118.1964029652426
 20
-131.6315863386199
 30
0.0
 10
118.1964029652426
 20
-131.6315863386199
 30
0.0
  0
HATCH
  5
6A
330
65
100
AcDbEntity
  8
_U+30EC_U+30A4_U+30E4_U+30FC 1
 62
     7
420
 16777215
100
AcDbHatch
 10
0.0
 20
0.0
 30
0.0
210
0.0
220
0.0
230
1.0
  2
SOLID
 70
     1
 71
     0
 91
        1
 92
        1
 93
        1
 72
     4
 94
        3
 73
     0
 74
     1
 95
       26
 96
       22
 40
0.0
 40
0.0
 40
0.0
 40
0.0
 40
1.0
 40
1.0
 40
1.0
 40
2.0
 40
2.0
 40
2.0
 40
3.0
 40
3.0
 40
3.0
 40
4.0
 40
4.0
 40
4.0
 40
5.0
 40
5.0
 40
5.0
 40
6.0
 40
6.0
 40
6.0
 40
7.0
 40
7.0
 40
7.0
 40
7.0
 10
118.1964029652426
 20
-131.6315863386199
 10
118.1964029652426
 20
-131.6315863386199
 10
117.0919053526715
 20
-131.6315863386199
 10
117.0919053526715
 20
-131.6315863386199
 10
117.0919053526715
 20
-131.6315863386199
 10
117.0919053526715
 20
-131.9616264861068
 10
117.0919053526715
 20
-131.9616264861068
 10
117.0919053526715
 20
-131.9616264861068
 10
116.9441107563542
 20
-131.9616264861068
 10
116.9441107563542
 20
-131.9616264861068
 10
116.9292968457677
 20
-131.6295192813287
 10
116.7663438293154
 20
-131.5830104922779
 10
116.6523111687536
 20
-131.5533826711047
 10
116.6523111687536
 20
-131.5533826711047
 10
116.6523111687536
 20
-131.4073106225301
 10
116.6523111687536
 20
-131.4073106225301
 10
116.6523111687536
 20
-131.4073106225301
 10
118.1964029652426
 20
-131.4073106225301
 10
118.1964029652426
 20
-131.4073106225301
 10
118.1964029652426
 20
-131.4073106225301
 10
118.1964029652426
 20
-131.6315863386199
 10
118.1964029652426
 20
-131.6315863386199
 97
        0
 97
        0
 75
     2
 76
     1
 98
        0
  0
ENDBLK
  5
68
330
65
100
AcDbEntity
  8
0
100
AcDbBlockEnd
  0
BLOCK
  5
7B
330
79
100
AcDbEntity
  8
0
100
AcDbBlockBegin
  2
block 5
 70
     0
 10
0.0
 20
0.0
 30
0.0
  3
block 5
  1

  0
SPLINE
  5
7D
330
79
100
AcDbEntity
  8
_U+30EC_U+30A4_U+30E4_U+30FC 1
370
     0
100
AcDbSpline
210
0.0
220
0.0
230
1.0
 70
    11
 71
     3
 72
    44
 73
    40
 74
     0
 42
0.0000000001
 43
0.0000000001
 12
1.0
 22
0.0
 32
0.0
 13
1.0
 23
0.0
 33
0.0
 40
0.0
 40
0.0
 40
0.0
 40
0.0
 40
1.0
 40
1.0
 40
1.0
 40
2.0
 40
2.0
 40
2.0
 40
3.0
 40
3.0
 40
3.0
 40
4.0
 40
4.0
 40
4.0
 40
5.0
 40
5.0
 40
5.0
 40
6.0
 40
6.0
 40
6.0
 40
7.0
 40
7.0
 40
7.0
 40
8.0
 40
8.0
 40
8.0
 40
9.0
 40
9.0
 40
9.0
 40
10.0
 40
10.0
 40
10.0
 40
11.0
 40
11.0
 40
11.0
 40
12.0
 40
12.0
 40
12.0
 40
13.0
 40
13.0
 40
13.0
 40
13.0
 10
85.96012774543705
 20
-149.6876762863628
 30
0.0
 10
85.74239771076927
 20
-149.8464951882328
 30
0.0
 10
85.64938013266752
 20
-149.9205647411657
 30
0.0
 10
85.60045977677697
 20
-150.0642252229006
 30
0.0
 10
85.60045977677697
 20
-150.0642252229006
 30
0.0
 10
86.37905135644344
 20
-150.0642252229006
 30
0.0
 10
86.37905135644344
 20
-150.0642252229006
 30
0.0
 10
86.37905135644344
 20
-150.0642252229006
 30
0.0
 10
86.37905135644344
 20
-150.2695529138215
 30
0.0
 10
86.37905135644344
 20
-150.2695529138215
 30
0.0
 10
86.37905135644344
 20
-150.2695529138215
 30
0.0
 10
85.35103486364488
 20
-150.2695529138215
 30
0.0
 10
85.35103486364488
 20
-150.2695529138215
 30
0.0
 10
85.38272974210918
 20
-149.9119520024526
 30
0.0
 10
85.44818655632893
 20
-149.8337483349374
 30
0.0
 10
85.83334823157986
 20
-149.5354030659148
 30
0.0
 10
86.08931882613392
 20
-149.3366210564159
 30
0.0
 10
86.15477564035368
 20
-149.2687526753564
 30
0.0
 10
86.15477564035368
 20
-149.131293365495
 30
0.0
 10
86.15477564035368
 20
-149.0127820808024
 30
0.0
 10
86.08277314471195
 20
-148.8818684523629
 30
0.0
 10
85.88605819250418
 20
-148.8818684523629
 30
0.0
 10
85.62595348336782
 20
-148.8818684523629
 30
0.0
 10
85.6173407446547
 20
-149.1123453403261
 30
0.0
 10
85.6132066300724
 20
-149.2287895677275
 30
0.0
 10
85.6132066300724
 20
-149.2287895677275
 30
0.0
 10
85.38893091398263
 20
-149.2287895677275
 30
0.0
 10
85.38893091398263
 20
-149.2287895677275
 30
0.0
 10
85.39754365269576
 20
-149.1016655443218
 30
0.0
 10
85.40822344870003
 20
-148.9896999410512
 30
0.0
 10
85.48849417350635
 20
-148.8711886563586
 30
0.0
 10
85.59839271948582
 20
-148.7103026971974
 30
0.0
 10
85.78477238523784
 20
-148.676540761442
 30
0.0
 10
85.90087210309076
 20
-148.676540761442
 30
0.0
 10
86.17820228965337
 20
-148.676540761442
 30
0.0
 10
86.38559703786541
 20
-148.8605088603543
 30
0.0
 10
86.38559703786541
 20
-149.1333604227861
 30
0.0
 10
86.38559703786541
 20
-149.3621147630067
 30
0.0
 10
86.26915281046396
 20
-149.4613335129819
 30
0.0
 10
85.96012774543705
 20
-149.6876762863628
 30
0.0
  0
HATCH
  5
7E
330
79
100
AcDbEntity
  8
_U+30EC_U+30A4_U+30E4_U+30FC 1
 62
     7
420
 16777215
100
AcDbHatch
 10
0.0
 20
0.0
 30
0.0
210
0.0
220
0.0
230
1.0
  2
SOLID
 70
     1
 71
     0
 91
        1
 92
        1
 93
        1
 72
     4
 94
        3
 73
     0
 74
     1
 95
       44
 96
       40
 40
0.0
 40
0.0
 40
0.0
 40
0.0
 40
1.0
 40
1.0
 40
1.0
 40
2.0
 40
2.0
 40
2.0
 40
3.0
 40
3.0
 40
3.0
 40
4.0
 40
4.0
 40
4.0
 40
5.0
 40
5.0
 40
5.0
 40
6.0
 40
6.0
 40
6.0
 40
7.0
 40
7.0
 40
7.0
 40
8.0
 40
8.0
 40
8.0
 40
9.0
 40
9.0
 40
9.0
 40
10.0
 40
10.0
 40
10.0
 40
11.0
 40
11.0
 40
11.0
 40
12.0
 40
12.0
 40
12.0
 40
13.0
 40
13.0
 40
13.0
 40
13.0
 10
85.96012774543705
 20
-149.6876762863628
 10
85.74239771076927
 20
-149.8464951882328
 10
85.64938013266752
 20
-149.9205647411657
 10
85.60045977677697
 20
-150.0642252229006
 10
85.60045977677697
 20
-150.0642252229006
 10
86.37905135644344
 20
-150.0642252229006
 10
86.37905135644344
 20
-150.0642252229006
 10
86.37905135644344
 20
-150.0642252229006
 10
86.37905135644344
 20
-150.2695529138215
 10
86.37905135644344
 20
-150.2695529138215
 10
86.37905135644344
 20
-150.2695529138215
 10
85.35103486364488
 20
-150.2695529138215
 10
85.35103486364488
 20
-150.2695529138215
 10
85.38272974210918
 20
-149.9119520024526
 10
85.44818655632893
 20
-149.8337483349374
 10
85.83334823157986
 20
-149.5354030659148
 10
86.08931882613392
 20
-149.3366210564159
 10
86.15477564035368
 20
-149.2687526753564
 10
86.15477564035368
 20
-149.131293365495
 10
86.15477564035368
 20
-149.0127820808024
 10
86.08277314471195
 20
-148.8818684523629
 10
85.88605819250418
 20
-148.8818684523629
 10
85.62595348336782
 20
-148.8818684523629
 10
85.6173407446547
 20
-149.1123453403261
 10
85.6132066300724
 20
-149.2287895677275
 10
85.6132066300724
 20
-149.2287895677275
 10
85.38893091398263
 20
-149.2287895677275
 10
85.38893091398263
 20
-149.2287895677275
 10
85.39754365269576
 20
-149.1016655443218
 10
85.40822344870003
 20
-148.9896999410512
 10
85.48849417350635
 20
-148.8711886563586
 10
85.59839271948582
 20
-148.7103026971974
 10
85.78477238523784
 20
-148.676540761442
 10
85.90087210309076
 20
-148.676540761442
 10
86.17820228965337
 20
-148.676540761442
 10
86.38559703786541
 20
-148.8605088603543
 10
86.38559703786541
 20
-149.1333604227861
 10
86.38559703786541
 20
-149.3621147630067
 10
86.26915281046396
 20
-149.4613335129819
 10
85.96012774543705
 20
-149.6876762863628
 97
        0
 97
        0
 75
     2
 76
     1
 98
        0
  0
SPLINE
  5
7F
330
79
100
AcDbEntity
  8
_U+30EC_U+30A4_U+30E4_U+30FC 1
370
     0
100
AcDbSpline
210
0.0
220
0.0
230
1.0
 70
    11
 71
     3
 72
    53
 73
    49
 74
     0
 42
0.0000000001
 43
0.0000000001
 12
1.0
 22
0.0
 32
0.0
 13
1.0
 23
0.0
 33
0.0
 40
0.0
 40
0.0
 40
0.0
 40
0.0
 40
1.0
 40
1.0
 40
1.0
 40
2.0
 40
2.0
 40
2.0
 40
3.0
 40
3.0
 40
3.0
 40
4.0
 40
4.0
 40
4.0
 40
5.0
 40
5.0
 40
5.0
 40
6.0
 40
6.0
 40
6.0
 40
7.0
 40
7.0
 40
7.0
 40
8.0
 40
8.0
 40
8.0
 40
9.0
 40
9.0
 40
9.0
 40
10.0
 40
10.0
 40
10.0
 40
11.0
 40
11.0
 40
11.0
 40
12.0
 40
12.0
 40
12.0
 40
13.0
 40
13.0
 40
13.0
 40
14.0
 40
14.0
 40
14.0
 40
15.0
 40
15.0
 40
15.0
 40
16.0
 40
16.0
 40
16.0
 40
16.0
 10
87.02500675992778
 20
-150.3201958174547
 30
0.0
 10
86.94680309241261
 20
-150.3201958174547
 30
0.0
 10
86.84517277559773
 20
-150.303314849577
 30
0.0
 10
86.74354245878287
 20
-150.2399250926483
 30
0.0
 10
86.5702541558748
 20
-150.1300265466689
 30
0.0
 10
86.54889456386626
 20
-149.9987684086809
 30
0.0
 10
86.52994653869737
 20
-149.8909369199926
 30
0.0
 10
86.52994653869737
 20
-149.8909369199926
 30
0.0
 10
86.752155197496
 20
-149.8909369199926
 30
0.0
 10
86.752155197496
 20
-149.8909369199926
 30
0.0
 10
86.80693221571147
 20
-150.0897189294915
 30
0.0
 10
86.93405623911718
 20
-150.1193467506646
 30
0.0
 10
87.02707381721893
 20
-150.1193467506646
 30
0.0
 10
87.16660018437155
 20
-150.1193467506646
 30
0.0
 10
87.3188734048196
 20
-150.0197834911409
 30
0.0
 10
87.3188734048196
 20
-149.7872395458865
 30
0.0
 10
87.3188734048196
 20
-149.5312689513325
 30
0.0
 10
87.13903942048955
 20
-149.4613335129819
 30
0.0
 10
87.01846107850581
 20
-149.4613335129819
 30
0.0
 10
86.9867662000415
 20
-149.4613335129819
 30
0.0
 10
86.84517277559773
 20
-149.4613335129819
 30
0.0
 10
86.7562893120783
 20
-149.5905245936788
 30
0.0
 10
86.7562893120783
 20
-149.5905245936788
 30
0.0
 10
86.58058944233055
 20
-149.5715765685099
 30
0.0
 10
86.58058944233055
 20
-149.5715765685099
 30
0.0
 10
86.58058944233055
 20
-149.5715765685099
 30
0.0
 10
86.7011677843143
 20
-148.725116607784
 30
0.0
 10
86.7011677843143
 20
-148.725116607784
 30
0.0
 10
86.7011677843143
 20
-148.725116607784
 30
0.0
 10
87.47975936398076
 20
-148.725116607784
 30
0.0
 10
87.47975936398076
 20
-148.725116607784
 30
0.0
 10
87.47975936398076
 20
-148.725116607784
 30
0.0
 10
87.47975936398076
 20
-148.9197645027006
 30
0.0
 10
87.47975936398076
 20
-148.9197645027006
 30
0.0
 10
87.47975936398076
 20
-148.9197645027006
 30
0.0
 10
86.86412080076661
 20
-148.9197645027006
 30
0.0
 10
86.86412080076661
 20
-148.9197645027006
 30
0.0
 10
86.86412080076661
 20
-148.9197645027006
 30
0.0
 10
86.79866398654687
 20
-149.3428222282893
 30
0.0
 10
86.79866398654687
 20
-149.3428222282893
 30
0.0
 10
86.85998668618431
 20
-149.3090602925338
 30
0.0
 10
86.94232446828178
 20
-149.2687526753564
 30
0.0
 10
87.06083575297438
 20
-149.2687526753564
 30
0.0
 10
87.31473929023728
 20
-149.2687526753564
 30
0.0
 10
87.55176185962247
 20
-149.4551323411085
 30
0.0
 10
87.55176185962247
 20
-149.7682915207177
 30
0.0
 10
87.55176185962247
 20
-150.0855848149092
 30
0.0
 10
87.32748614353271
 20
-150.3201958174547
 30
0.0
 10
87.02500675992778
 20
-150.3201958174547
 30
0.0
  0
HATCH
  5
80
330
79
100
AcDbEntity
  8
_U+30EC_U+30A4_U+30E4_U+30FC 1
 62
     7
420
 16777215
100
AcDbHatch
 10
0.0
 20
0.0
 30
0.0
210
0.0
220
0.0
230
1.0
  2
SOLID
 70
     1
 71
     0
 91
        1
 92
        1
 93
        1
 72
     4
 94
        3
 73
     0
 74
     1
 95
       53
 96
       49
 40
0.0
 40
0.0
 40
0.0
 40
0.0
 40
1.0
 40
1.0
 40
1.0
 40
2.0
 40
2.0
 40
2.0
 40
3.0
 40
3.0
 40
3.0
 40
4.0
 40
4.0
 40
4.0
 40
5.0
 40
5.0
 40
5.0
 40
6.0
 40
6.0
 40
6.0
 40
7.0
 40
7.0
 40
7.0
 40
8.0
 40
8.0
 40
8.0
 40
9.0
 40
9.0
 40
9.0
 40
10.0
 40
10.0
 40
10.0
 40
11.0
 40
11.0
 40
11.0
 40
12.0
 40
12.0
 40
12.0
 40
13.0
 40
13.0
 40
13.0
 40
14.0
 40
14.0
 40
14.0
 40
15.0
 40
15.0
 40
15.0
 40
16.0
 40
16.0
 40
16.0
 40
16.0
 10
87.02500675992778
 20
-150.3201958174547
 10
86.94680309241261
 20
-150.3201958174547
 10
86.84517277559773
 20
-150.303314849577
 10
86.74354245878287
 20
-150.2399250926483
 10
86.5702541558748
 20
-150.1300265466689
 10
86.54889456386626
 20
-149.9987684086809
 10
86.52994653869737
 20
-149.8909369199926
 10
86.52994653869737
 20
-149.8909369199926
 10
86.752155197496
 20
-149.8909369199926
 10
86.752155197496
 20
-149.8909369199926
 10
86.80693221571147
 20
-150.0897189294915
 10
86.93405623911718
 20
-150.1193467506646
 10
87.02707381721893
 20
-150.1193467506646
 10
87.16660018437155
 20
-150.1193467506646
 10
87.3188734048196
 20
-150.0197834911409
 10
87.3188734048196
 20
-149.7872395458865
 10
87.3188734048196
 20
-149.5312689513325
 10
87.13903942048955
 20
-149.4613335129819
 10
87.01846107850581
 20
-149.4613335129819
 10
86.9867662000415
 20
-149.4613335129819
 10
86.84517277559773
 20
-149.4613335129819
 10
86.7562893120783
 20
-149.5905245936788
 10
86.7562893120783
 20
-149.5905245936788
 10
86.58058944233055
 20
-149.5715765685099
 10
86.58058944233055
 20
-149.5715765685099
 10
86.58058944233055
 20
-149.5715765685099
 10
86.7011677843143
 20
-148.725116607784
 10
86.7011677843143
 20
-148.725116607784
 10
86.7011677843143
 20
-148.725116607784
 10
87.47975936398076
 20
-148.725116607784
 10
87.47975936398076
 20
-148.725116607784
 10
87.47975936398076
 20
-148.725116607784
 10
87.47975936398076
 20
-148.9197645027006
 10
87.47975936398076
 20
-148.9197645027006
 10
87.47975936398076
 20
-148.9197645027006
 10
86.86412080076661
 20
-148.9197645027006
 10
86.86412080076661
 20
-148.9197645027006
 10
86.86412080076661
 20
-148.9197645027006
 10
86.79866398654687
 20
-149.3428222282893
 10
86.79866398654687
 20
-149.3428222282893
 10
86.85998668618431
 20
-149.3090602925338
 10
86.94232446828178
 20
-149.2687526753564
 10
87.06083575297438
 20
-149.2687526753564
 10
87.31473929023728
 20
-149.2687526753564
 10
87.55176185962247
 20
-149.4551323411085
 10
87.55176185962247
 20
-149.7682915207177
 10
87.55176185962247
 20
-150.0855848149092
 10
87.32748614353271
 20
-150.3201958174547
 10
87.02500675992778
 20
-150.3201958174547
 97
        0
 97
        0
 75
     2
 76
     1
 98
        0
  0
ENDBLK
  5
7C
330
79
100
AcDbEntity
  8
0
100
AcDbBlockEnd
  0
BLOCK
  5
91
330
8F
100
AcDbEntity
  8
0
100
AcDbBlockBegin
  2
block 6
 70
     0
 10
0.0
 20
0.0
 30
0.0
  3
block 6
  1

  0
SPLINE
  5
93
330
8F
100
AcDbEntity
  8
_U+30EC_U+30A4_U+30E4_U+30FC 1
370
     0
100
AcDbSpline
210
0.0
220
0.0
230
1.0
 70
    11
 71
     3
 72
    62
 73
    58
 74
     0
 42
0.0000000001
 43
0.0000000001
 12
1.0
 22
0.0
 32
0.0
 13
1.0
 23
0.0
 33
0.0
 40
0.0
 40
0.0
 40
0.0
 40
0.0
 40
1.0
 40
1.0
 40
1.0
 40
2.0
 40
2.0
 40
2.0
 40
3.0
 40
3.0
 40
3.0
 40
4.0
 40
4.0
 40
4.0
 40
5.0
 40
5.0
 40
5.0
 40
6.0
 40
6.0
 40
6.0
 40
7.0
 40
7.0
 40
7.0
 40
8.0
 40
8.0
 40
8.0
 40
9.0
 40
9.0
 40
9.0
 40
10.0
 40
10.0
 40
10.0
 40
11.0
 40
11.0
 40
11.0
 40
12.0
 40
12.0
 40
12.0
 40
13.0
 40
13.0
 40
13.0
 40
14.0
 40
14.0
 40
14.0
 40
15.0
 40
15.0
 40
15.0
 40
16.0
 40
16.0
 40
16.0
 40
17.0
 40
17.0
 40
17.0
 40
18.0
 40
18.0
 40
18.0
 40
19.0
 40
19.0
 40
19.0
 40
19.0
 10
68.81784937515665
 20
-150.1606878964876
 30
0.0
 10
68.75032550364575
 20
-150.0931640249767
 30
0.0
 10
68.61148815559018
 20
-149.9243543461995
 30
0.0
 10
68.65455184915581
 20
-149.704212744692
 30
0.0
 10
68.68142359394076
 20
-149.5726100971555
 30
0.0
 10
68.74894746545165
 20
-149.4992295633196
 30
0.0
 10
68.80579154095828
 20
-149.4365288254881
 30
0.0
 10
68.80579154095828
 20
-149.4365288254881
 30
0.0
 10
68.96150985689157
 20
-149.5922471414214
 30
0.0
 10
68.96150985689157
 20
-149.5922471414214
 30
0.0
 10
68.91052244370987
 20
-149.6459906309913
 30
0.0
 10
68.75170354183986
 20
-149.8196234434479
 30
0.0
 10
68.95220809908139
 20
-150.0201280006894
 30
0.0
 10
69.04935979176544
 20
-150.1172796933735
 30
0.0
 10
69.20645614589283
 20
-150.1758463166227
 30
0.0
 10
69.36837563369957
 20
-150.013926828816
 30
0.0
 10
69.45036890624853
 20
-149.931933556267
 30
0.0
 10
69.45794811631608
 20
-149.870266347081
 30
0.0
 10
69.45794811631608
 20
-149.8254801057728
 30
0.0
 10
69.45794811631608
 20
-149.7207492030212
 30
0.0
 10
69.38456758248024
 20
-149.6294541726621
 30
0.0
 10
69.34563800349693
 20
-149.5908691032273
 30
0.0
 10
69.33220213110445
 20
-149.5770887212863
 30
0.0
 10
69.3053303863195
 20
-149.5533175624381
 30
0.0
 10
69.28293726566538
 20
-149.5367811041089
 30
0.0
 10
69.28293726566538
 20
-149.5367811041089
 30
0.0
 10
69.42074108507538
 20
-149.3993217942474
 30
0.0
 10
69.42074108507538
 20
-149.3993217942474
 30
0.0
 10
69.44313420572949
 20
-149.4306721631632
 30
0.0
 10
69.47138398870855
 20
-149.4620225320789
 30
0.0
 10
69.47586261283936
 20
-149.4665011562098
 30
0.0
 10
69.52202689234171
 20
-149.5130099452606
 30
0.0
 10
69.67774520827501
 20
-149.6384114209237
 30
0.0
 10
69.84517684885816
 20
-149.4709797803406
 30
0.0
 10
69.97092283406977
 20
-149.345233795129
 30
0.0
 10
69.9175238540484
 20
-149.213975657141
 30
0.0
 10
69.83932018653323
 20
-149.1357719896258
 30
0.0
 10
69.65225150168416
 20
-148.9487033047767
 30
0.0
 10
69.48206378471282
 20
-149.1071776970982
 30
0.0
 10
69.4279757855944
 20
-149.1554090338917
 30
0.0
 10
69.4279757855944
 20
-149.1554090338917
 30
0.0
 10
69.28431530385949
 20
-149.0117485521568
 30
0.0
 10
69.28431530385949
 20
-149.0117485521568
 30
0.0
 10
69.37871092015533
 20
-148.9294107700593
 30
0.0
 10
69.66465384543106
 20
-148.6827419333154
 30
0.0
 10
69.98745929239897
 20
-149.0055473802833
 30
0.0
 10
70.14627819426899
 20
-149.1643662821534
 30
0.0
 10
70.22689342862384
 20
-149.4244709912897
 30
0.0
 10
70.01743162312064
 20
-149.6339327967929
 30
0.0
 10
69.8858289755841
 20
-149.7655354443295
 30
0.0
 10
69.76042749992101
 20
-149.7569227056163
 30
0.0
 10
69.64639483935923
 20
-149.7297064512829
 30
0.0
 10
69.67016599820747
 20
-149.7927516986629
 30
0.0
 10
69.74182398430065
 20
-149.9780978357694
 30
0.0
 10
69.54614256073847
 20
-150.1737792593316
 30
0.0
 10
69.3067084245136
 20
-150.4132133955564
 30
0.0
 10
69.01353079871885
 20
-150.3563693200498
 30
0.0
 10
68.81784937515665
 20
-150.1606878964876
 30
0.0
  0
HATCH
  5
94
330
8F
100
AcDbEntity
  8
_U+30EC_U+30A4_U+30E4_U+30FC 1
 62
     7
420
 16777215
100
AcDbHatch
 10
0.0
 20
0.0
 30
0.0
210
0.0
220
0.0
230
1.0
  2
SOLID
 70
     1
 71
     0
 91
        1
 92
        1
 93
        1
 72
     4
 94
        3
 73
     0
 74
     1
 95
       62
 96
       58
 40
0.0
 40
0.0
 40
0.0
 40
0.0
 40
1.0
 40
1.0
 40
1.0
 40
2.0
 40
2.0
 40
2.0
 40
3.0
 40
3.0
 40
3.0
 40
4.0
 40
4.0
 40
4.0
 40
5.0
 40
5.0
 40
5.0
 40
6.0
 40
6.0
 40
6.0
 40
7.0
 40
7.0
 40
7.0
 40
8.0
 40
8.0
 40
8.0
 40
9.0
 40
9.0
 40
9.0
 40
10.0
 40
10.0
 40
10.0
 40
11.0
 40
11.0
 40
11.0
 40
12.0
 40
12.0
 40
12.0
 40
13.0
 40
13.0
 40
13.0
 40
14.0
 40
14.0
 40
14.0
 40
15.0
 40
15.0
 40
15.0
 40
16.0
 40
16.0
 40
16.0
 40
17.0
 40
17.0
 40
17.0
 40
18.0
 40
18.0
 40
18.0
 40
19.0
 40
19.0
 40
19.0
 40
19.0
 10
68.81784937515665
 20
-150.1606878964876
 10
68.75032550364575
 20
-150.0931640249767
 10
68.61148815559018
 20
-149.9243543461995
 10
68.65455184915581
 20
-149.704212744692
 10
68.68142359394076
 20
-149.5726100971555
 10
68.74894746545165
 20
-149.4992295633196
 10
68.80579154095828
 20
-149.4365288254881
 10
68.80579154095828
 20
-149.4365288254881
 10
68.96150985689157
 20
-149.5922471414214
 10
68.96150985689157
 20
-149.5922471414214
 10
68.91052244370987
 20
-149.6459906309913
 10
68.75170354183986
 20
-149.8196234434479
 10
68.95220809908139
 20
-150.0201280006894
 10
69.04935979176544
 20
-150.1172796933735
 10
69.20645614589283
 20
-150.1758463166227
 10
69.36837563369957
 20
-150.013926828816
 10
69.45036890624853
 20
-149.931933556267
 10
69.45794811631608
 20
-149.870266347081
 10
69.45794811631608
 20
-149.8254801057728
 10
69.45794811631608
 20
-149.7207492030212
 10
69.38456758248024
 20
-149.6294541726621
 10
69.34563800349693
 20
-149.5908691032273
 10
69.33220213110445
 20
-149.5770887212863
 10
69.3053303863195
 20
-149.5533175624381
 10
69.28293726566538
 20
-149.5367811041089
 10
69.28293726566538
 20
-149.5367811041089
 10
69.42074108507538
 20
-149.3993217942474
 10
69.42074108507538
 20
-149.3993217942474
 10
69.44313420572949
 20
-149.4306721631632
 10
69.47138398870855
 20
-149.4620225320789
 10
69.47586261283936
 20
-149.4665011562098
 10
69.52202689234171
 20
-149.5130099452606
 10
69.67774520827501
 20
-149.6384114209237
 10
69.84517684885816
 20
-149.4709797803406
 10
69.97092283406977
 20
-149.345233795129
 10
69.9175238540484
 20
-149.213975657141
 10
69.83932018653323
 20
-149.1357719896258
 10
69.65225150168416
 20
-148.9487033047767
 10
69.48206378471282
 20
-149.1071776970982
 10
69.4279757855944
 20
-149.1554090338917
 10
69.4279757855944
 20
-149.1554090338917
 10
69.28431530385949
 20
-149.0117485521568
 10
69.28431530385949
 20
-149.0117485521568
 10
69.37871092015533
 20
-148.9294107700593
 10
69.66465384543106
 20
-148.6827419333154
 10
69.98745929239897
 20
-149.0055473802833
 10
70.14627819426899
 20
-149.1643662821534
 10
70.22689342862384
 20
-149.4244709912897
 10
70.01743162312064
 20
-149.6339327967929
 10
69.8858289755841
 20
-149.7655354443295
 10
69.76042749992101
 20
-149.7569227056163
 10
69.64639483935923
 20
-149.7297064512829
 10
69.67016599820747
 20
-149.7927516986629
 10
69.74182398430065
 20
-149.9780978357694
 10
69.54614256073847
 20
-150.1737792593316
 10
69.3067084245136
 20
-150.4132133955564
 10
69.01353079871885
 20
-150.3563693200498
 10
68.81784937515665
 20
-150.1606878964876
 97
        0
 97
        0
 75
     2
 76
     1
 98
        0
  0
ENDBLK
  5
92
330
8F
100
AcDbEntity
  8
0
100
AcDbBlockEnd
  0
BLOCK
  5
97
330
95
100
AcDbEntity
  8
0
100
AcDbBlockBegin
  2
block 7
 70
     0
 10
0.0
 20
0.0
 30
0.0
  3
block 7
  1

  0
POLYLINE
  5
99
330
95
100
AcDbEntity
  8
_U+30EC_U+30A4_U+30E4_U+30FC 1
 62
   179
420
  2234388
370
     9
100
AcDb2dPolyline
 66
     1
 10
0.0
 20
0.0
 30
0.0
  0
VERTEX
  5
9A
330
99
100
AcDbEntity
  8
_U+30EC_U+30A4_U+30E4_U+30FC 1
 62
   179
420
  2234388
370
     9
100
AcDbVertex
100
AcDb2dVertex
 10
70.73141347326909
 20
-144.7849741304704
 30
0.0
  0
VERTEX
  5
9B
330
99
100
AcDbEntity
  8
_U+30EC_U+30A4_U+30E4_U+30FC 1
 62
   179
420
  2234388
370
     9
100
AcDbVertex
100
AcDb2dVertex
 10
69.76402627572696
 20
-144.5313974638669
 30
0.0
  0
SEQEND
  5
9C
330
99
100
AcDbEntity
  8
_U+30EC_U+30A4_U+30E4_U+30FC 1
 62
   179
420
  2234388
370
     9
  0
POLYLINE
  5
9D
330
95
100
AcDbEntity
  8
_U+30EC_U+30A4_U+30E4_U+30FC 1
 62
   179
420
  2234388
370
     9
100
AcDb2dPolyline
 66
     1
 10
0.0
 20
0.0
 30
0.0
  0
VERTEX
  5
9E
330
9D
100
AcDbEntity
  8
_U+30EC_U+30A4_U+30E4_U+30FC 1
 62
   179
420
  2234388
370
     9
100
AcDbVertex
100
AcDb2dVertex
 10
70.73141347326909
 20
-144.7849741304704
 30
0.0
  0
VERTEX
  5
9F
330
9D
100
AcDbEntity
  8
_U+30EC_U+30A4_U+30E4_U+30FC 1
 62
   179
420
  2234388
370
     9
100
AcDbVertex
100
AcDb2dVertex
 10
69.7668132201003
 20
-145.0488519081821
 30
0.0
  0
SEQEND
  5
A0
330
9D
100
AcDbEntity
  8
_U+30EC_U+30A4_U+30E4_U+30FC 1
 62
   179
420
  2234388
370
     9
  0
POLYLINE
  5
A1
330
95
100
AcDbEntity
  8
_U+30EC_U+30A4_U+30E4_U+30FC 1
 62
   179
420
  2234388
370
     9
100
AcDb2dPolyline
 66
     1
 10
0.0
 20
0.0
 30
0.0
  0
VERTEX
  5
A2
330
A1
100
AcDbEntity
  8
_U+30EC_U+30A4_U+30E4_U+30FC 1
 62
   179
420
  2234388
370
     9
100
AcDbVertex
100
AcDb2dVertex
 10
70.73141347326909
 20
-144.7849741304704
 30
0.0
  0
VERTEX
  5
A3
330
A1
100
AcDbEntity
  8
_U+30EC_U+30A4_U+30E4_U+30FC 1
 62
   179
420
  2234388
370
     9
100
AcDbVertex
100
AcDb2dVertex
 10
67.90919132304775
 20
-144.8118205193527
 30
0.0
  0
SEQEND
  5
A4
330
A1
100
AcDbEntity
  8
_U+30EC_U+30A4_U+30E4_U+30FC 1
 62
   179
420
  2234388
370
     9
  0
ENDBLK
  5
98
330
95
100
AcDbEntity
  8
0
100
AcDbBlockEnd
  0
BLOCK
  5
A7
330
A5
100
AcDbEntity
  8
0
100
AcDbBlockBegin
  2
block 8
 70
     0
 10
0.0
 20
0.0
 30
0.0
  3
block 8
  1

  0
SPLINE
  5
A9
330
A5
100
AcDbEntity
  8
_U+30EC_U+30A4_U+30E4_U+30FC 1
370
     0
100
AcDbSpline
210
0.0
220
0.0
230
1.0
 70
    11
 71
     3
 72
    44
 73
    40
 74
     0
 42
0.0000000001
 43
0.0000000001
 12
1.0
 22
0.0
 32
0.0
 13
1.0
 23
0.0
 33
0.0
 40
0.0
 40
0.0
 40
0.0
 40
0.0
 40
1.0
 40
1.0
 40
1.0
 40
2.0
 40
2.0
 40
2.0
 40
3.0
 40
3.0
 40
3.0
 40
4.0
 40
4.0
 40
4.0
 40
5.0
 40
5.0
 40
5.0
 40
6.0
 40
6.0
 40
6.0
 40
7.0
 40
7.0
 40
7.0
 40
8.0
 40
8.0
 40
8.0
 40
9.0
 40
9.0
 40
9.0
 40
10.0
 40
10.0
 40
10.0
 40
11.0
 40
11.0
 40
11.0
 40
12.0
 40
12.0
 40
12.0
 40
13.0
 40
13.0
 40
13.0
 40
13.0
 10
64.21761337370255
 20
-145.5869791302699
 30
0.0
 10
64.19453123395137
 20
-145.5421928889617
 30
0.0
 10
64.17317164194282
 20
-145.4894829280373
 30
0.0
 10
64.17110458465167
 20
-145.2590060400742
 30
0.0
 10
64.16697047006937
 20
-145.0157822988155
 30
0.0
 10
64.10771482772307
 20
-144.9458468604649
 30
0.0
 10
63.92994790068418
 20
-144.9458468604649
 30
0.0
 10
63.92994790068418
 20
-144.9458468604649
 30
0.0
 10
63.52170408568207
 20
-144.9458468604649
 30
0.0
 10
63.52170408568207
 20
-144.9458468604649
 30
0.0
 10
63.52170408568207
 20
-144.9458468604649
 30
0.0
 10
63.52170408568207
 20
-145.5869791302699
 30
0.0
 10
63.52170408568207
 20
-145.5869791302699
 30
0.0
 10
63.52170408568207
 20
-145.5869791302699
 30
0.0
 10
63.28674857358804
 20
-145.5869791302699
 30
0.0
 10
63.28674857358804
 20
-145.5869791302699
 30
0.0
 10
63.28674857358804
 20
-145.5869791302699
 30
0.0
 10
63.28674857358804
 20
-144.0425428242324
 30
0.0
 10
63.28674857358804
 20
-144.0425428242324
 30
0.0
 10
63.28674857358804
 20
-144.0425428242324
 30
0.0
 10
63.96164277914848
 20
-144.0425428242324
 30
0.0
 10
63.96164277914848
 20
-144.0425428242324
 30
0.0
 10
64.26860078688424
 20
-144.0425428242324
 30
0.0
 10
64.43568791791886
 20
-144.2137640698493
 30
0.0
 10
64.43568791791886
 20
-144.4697346644034
 30
0.0
 10
64.43568791791886
 20
-144.5203775680366
 30
0.0
 10
64.42707517920573
 20
-144.6030598596826
 30
0.0
 10
64.38263344744601
 20
-144.6836750940374
 30
0.0
 10
64.32337780509971
 20
-144.7870279585949
 30
0.0
 10
64.25792099087997
 20
-144.8063204933123
 30
0.0
 10
64.19659829124252
 20
-144.8228569516415
 30
0.0
 10
64.33405760110399
 20
-144.8655761356586
 30
0.0
 10
64.40158147261488
 20
-144.9141519820006
 30
0.0
 10
64.4060600967457
 20
-145.229378218901
 30
0.0
 10
64.410194211328
 20
-145.5001627240416
 30
0.0
 10
64.44602320437461
 20
-145.5318576025059
 30
0.0
 10
64.51389158543402
 20
-145.5869791302699
 30
0.0
 10
64.51389158543402
 20
-145.5869791302699
 30
0.0
 10
64.21761337370255
 20
-145.5869791302699
 30
0.0
 10
64.21761337370255
 20
-145.5869791302699
 30
0.0
  0
SPLINE
  5
AA
330
A5
100
AcDbEntity
  8
_U+30EC_U+30A4_U+30E4_U+30FC 1
370
     0
100
AcDbSpline
210
0.0
220
0.0
230
1.0
 70
    11
 71
     3
 72
    20
 73
    16
 74
     0
 42
0.0000000001
 43
0.0000000001
 12
1.0
 22
0.0
 32
0.0
 13
1.0
 23
0.0
 33
0.0
 40
0.0
 40
0.0
 40
0.0
 40
0.0
 40
1.0
 40
1.0
 40
1.0
 40
2.0
 40
2.0
 40
2.0
 40
3.0
 40
3.0
 40
3.0
 40
4.0
 40
4.0
 40
4.0
 40
5.0
 40
5.0
 40
5.0
 40
5.0
 10
63.9661214032793
 20
-144.2540716870268
 30
0.0
 10
63.9661214032793
 20
-144.2540716870268
 30
0.0
 10
63.52170408568207
 20
-144.2540716870268
 30
0.0
 10
63.52170408568207
 20
-144.2540716870268
 30
0.0
 10
63.52170408568207
 20
-144.2540716870268
 30
0.0
 10
63.52170408568207
 20
-144.7343179976706
 30
0.0
 10
63.52170408568207
 20
-144.7343179976706
 30
0.0
 10
63.52170408568207
 20
-144.7343179976706
 30
0.0
 10
63.96370983643963
 20
-144.7343179976706
 30
0.0
 10
63.96370983643963
 20
-144.7343179976706
 30
0.0
 10
64.06327309596335
 20
-144.7343179976706
 30
0.0
 10
64.19866534853367
 20
-144.6581813874466
 30
0.0
 10
64.19866534853367
 20
-144.4866156322811
 30
0.0
 10
64.19866534853367
 20
-144.4084119647659
 30
0.0
 10
64.16490341277822
 20
-144.2540716870268
 30
0.0
 10
63.9661214032793
 20
-144.2540716870268
 30
0.0
  0
HATCH
  5
AB
330
A5
100
AcDbEntity
  8
_U+30EC_U+30A4_U+30E4_U+30FC 1
 62
   179
420
  2234388
100
AcDbHatch
 10
0.0
 20
0.0
 30
0.0
210
0.0
220
0.0
230
1.0
  2
SOLID
 70
     1
 71
     0
 91
        2
 92
        1
 93
        1
 72
     4
 94
        3
 73
     0
 74
     1
 95
       44
 96
       40
 40
0.0
 40
0.0
 40
0.0
 40
0.0
 40
1.0
 40
1.0
 40
1.0
 40
2.0
 40
2.0
 40
2.0
 40
3.0
 40
3.0
 40
3.0
 40
4.0
 40
4.0
 40
4.0
 40
5.0
 40
5.0
 40
5.0
 40
6.0
 40
6.0
 40
6.0
 40
7.0
 40
7.0
 40
7.0
 40
8.0
 40
8.0
 40
8.0
 40
9.0
 40
9.0
 40
9.0
 40
10.0
 40
10.0
 40
10.0
 40
11.0
 40
11.0
 40
11.0
 40
12.0
 40
12.0
 40
12.0
 40
13.0
 40
13.0
 40
13.0
 40
13.0
 10
64.21761337370255
 20
-145.5869791302699
 10
64.19453123395137
 20
-145.5421928889617
 10
64.17317164194282
 20
-145.4894829280373
 10
64.17110458465167
 20
-145.2590060400742
 10
64.16697047006937
 20
-145.0157822988155
 10
64.10771482772307
 20
-144.9458468604649
 10
63.92994790068418
 20
-144.9458468604649
 10
63.92994790068418
 20
-144.9458468604649
 10
63.52170408568207
 20
-144.9458468604649
 10
63.52170408568207
 20
-144.9458468604649
 10
63.52170408568207
 20
-144.9458468604649
 10
63.52170408568207
 20
-145.5869791302699
 10
63.52170408568207
 20
-145.5869791302699
 10
63.52170408568207
 20
-145.5869791302699
 10
63.28674857358804
 20
-145.5869791302699
 10
63.28674857358804
 20
-145.5869791302699
 10
63.28674857358804
 20
-145.5869791302699
 10
63.28674857358804
 20
-144.0425428242324
 10
63.28674857358804
 20
-144.0425428242324
 10
63.28674857358804
 20
-144.0425428242324
 10
63.96164277914848
 20
-144.0425428242324
 10
63.96164277914848
 20
-144.0425428242324
 10
64.26860078688424
 20
-144.0425428242324
 10
64.43568791791886
 20
-144.2137640698493
 10
64.43568791791886
 20
-144.4697346644034
 10
64.43568791791886
 20
-144.5203775680366
 10
64.42707517920573
 20
-144.6030598596826
 10
64.38263344744601
 20
-144.6836750940374
 10
64.32337780509971
 20
-144.7870279585949
 10
64.25792099087997
 20
-144.8063204933123
 10
64.19659829124252
 20
-144.8228569516415
 10
64.33405760110399
 20
-144.8655761356586
 10
64.40158147261488
 20
-144.9141519820006
 10
64.4060600967457
 20
-145.229378218901
 10
64.410194211328
 20
-145.5001627240416
 10
64.44602320437461
 20
-145.5318576025059
 10
64.51389158543402
 20
-145.5869791302699
 10
64.51389158543402
 20
-145.5869791302699
 10
64.21761337370255
 20
-145.5869791302699
 10
64.21761337370255
 20
-145.5869791302699
 97
        0
 97
        0
 92
        1
 93
        1
 72
     4
 94
        3
 73
     0
 74
     1
 95
       20
 96
       16
 40
0.0
 40
0.0
 40
0.0
 40
0.0
 40
1.0
 40
1.0
 40
1.0
 40
2.0
 40
2.0
 40
2.0
 40
3.0
 40
3.0
 40
3.0
 40
4.0
 40
4.0
 40
4.0
 40
5.0
 40
5.0
 40
5.0
 40
5.0
 10
63.9661214032793
 20
-144.2540716870268
 10
63.9661214032793
 20
-144.2540716870268
 10
63.52170408568207
 20
-144.2540716870268
 10
63.52170408568207
 20
-144.2540716870268
 10
63.52170408568207
 20
-144.2540716870268
 10
63.52170408568207
 20
-144.7343179976706
 10
63.52170408568207
 20
-144.7343179976706
 10
63.52170408568207
 20
-144.7343179976706
 10
63.96370983643963
 20
-144.7343179976706
 10
63.96370983643963
 20
-144.7343179976706
 10
64.06327309596335
 20
-144.7343179976706
 10
64.19866534853367
 20
-144.6581813874466
 10
64.19866534853367
 20
-144.4866156322811
 10
64.19866534853367
 20
-144.4084119647659
 10
64.16490341277822
 20
-144.2540716870268
 10
63.9661214032793
 20
-144.2540716870268
 97
        0
 97
        0
 75
     2
 76
     1
 98
        0
  0
SPLINE
  5
AC
330
A5
100
AcDbEntity
  8
_U+30EC_U+30A4_U+30E4_U+30FC 1
370
     0
100
AcDbSpline
210
0.0
220
0.0
230
1.0
 70
    11
 71
     3
 72
    29
 73
    25
 74
     0
 42
0.0000000001
 43
0.0000000001
 12
1.0
 22
0.0
 32
0.0
 13
1.0
 23
0.0
 33
0.0
 40
0.0
 40
0.0
 40
0.0
 40
0.0
 40
1.0
 40
1.0
 40
1.0
 40
2.0
 40
2.0
 40
2.0
 40
3.0
 40
3.0
 40
3.0
 40
4.0
 40
4.0
 40
4.0
 40
5.0
 40
5.0
 40
5.0
 40
6.0
 40
6.0
 40
6.0
 40
7.0
 40
7.0
 40
7.0
 40
8.0
 40
8.0
 40
8.0
 40
8.0
 10
65.55155434559128
 20
-145.409212203231
 30
0.0
 10
65.44337834735444
 20
-145.6186740087342
 30
0.0
 10
65.27009004444636
 20
-145.6376220339031
 30
0.0
 10
65.15364581704492
 20
-145.6376220339031
 30
0.0
 10
64.99275985788375
 20
-145.6376220339031
 30
0.0
 10
64.85116643343999
 20
-145.5911132448522
 30
0.0
 10
64.75608179804709
 20
-145.409212203231
 30
0.0
 10
64.65238442394107
 20
-145.2145643083144
 30
0.0
 10
64.63309188922368
 20
-144.9775417389292
 30
0.0
 10
64.63309188922368
 20
-144.8145887224769
 30
0.0
 10
64.63309188922368
 20
-144.6705837311935
 30
0.0
 10
64.65031736664993
 20
-144.4190917607702
 30
0.0
 10
64.75608179804709
 20
-144.2199652417228
 30
0.0
 10
64.86391328673541
 20
-144.0170491176416
 30
0.0
 10
65.02479924589657
 20
-143.9939669778904
 30
0.0
 10
65.15364581704492
 20
-143.9939669778904
 30
0.0
 10
65.31246471891494
 20
-143.9939669778904
 30
0.0
 10
65.45612520064986
 20
-144.0380642001016
 30
0.0
 10
65.55155434559128
 20
-144.2199652417228
 30
0.0
 10
65.65077309556648
 20
-144.4128905888968
 30
0.0
 10
65.67419974486617
 20
-144.6409559100203
 30
0.0
 10
65.67419974486617
 20
-144.8145887224769
 30
0.0
 10
65.67419974486617
 20
-144.9861544776423
 30
0.0
 10
65.65284015285762
 20
-145.2166313656056
 30
0.0
 10
65.55155434559128
 20
-145.409212203231
 30
0.0
  0
SPLINE
  5
AD
330
A5
100
AcDbEntity
  8
_U+30EC_U+30A4_U+30E4_U+30FC 1
370
     0
100
AcDbSpline
210
0.0
220
0.0
230
1.0
 70
    11
 71
     3
 72
    17
 73
    13
 74
     0
 42
0.0000000001
 43
0.0000000001
 12
1.0
 22
0.0
 32
0.0
 13
1.0
 23
0.0
 33
0.0
 40
0.0
 40
0.0
 40
0.0
 40
0.0
 40
1.0
 40
1.0
 40
1.0
 40
2.0
 40
2.0
 40
2.0
 40
3.0
 40
3.0
 40
3.0
 40
4.0
 40
4.0
 40
4.0
 40
4.0
 10
65.15364581704492
 20
-144.1862033059674
 30
0.0
 10
64.90387639436432
 20
-144.1862033059674
 30
0.0
 10
64.85736760531344
 20
-144.4697346644034
 30
0.0
 10
64.85736760531344
 20
-144.8145887224769
 30
0.0
 10
64.85736760531344
 20
-145.1342935835081
 30
0.0
 10
64.89354110790856
 20
-145.4429741389865
 30
0.0
 10
65.15364581704492
 20
-145.4429741389865
 30
0.0
 10
65.40134818243439
 20
-145.4429741389865
 30
0.0
 10
65.44992402877641
 20
-145.1615098378416
 30
0.0
 10
65.44992402877641
 20
-144.8145887224769
 30
0.0
 10
65.44992402877641
 20
-144.4952283709943
 30
0.0
 10
65.41168346889013
 20
-144.1862033059674
 30
0.0
 10
65.15364581704492
 20
-144.1862033059674
 30
0.0
  0
HATCH
  5
AE
330
A5
100
AcDbEntity
  8
_U+30EC_U+30A4_U+30E4_U+30FC 1
 62
   179
420
  2234388
100
AcDbHatch
 10
0.0
 20
0.0
 30
0.0
210
0.0
220
0.0
230
1.0
  2
SOLID
 70
     1
 71
     0
 91
        2
 92
        1
 93
        1
 72
     4
 94
        3
 73
     0
 74
     1
 95
       29
 96
       25
 40
0.0
 40
0.0
 40
0.0
 40
0.0
 40
1.0
 40
1.0
 40
1.0
 40
2.0
 40
2.0
 40
2.0
 40
3.0
 40
3.0
 40
3.0
 40
4.0
 40
4.0
 40
4.0
 40
5.0
 40
5.0
 40
5.0
 40
6.0
 40
6.0
 40
6.0
 40
7.0
 40
7.0
 40
7.0
 40
8.0
 40
8.0
 40
8.0
 40
8.0
 10
65.55155434559128
 20
-145.409212203231
 10
65.44337834735444
 20
-145.6186740087342
 10
65.27009004444636
 20
-145.6376220339031
 10
65.15364581704492
 20
-145.6376220339031
 10
64.99275985788375
 20
-145.6376220339031
 10
64.85116643343999
 20
-145.5911132448522
 10
64.75608179804709
 20
-145.409212203231
 10
64.65238442394107
 20
-145.2145643083144
 10
64.63309188922368
 20
-144.9775417389292
 10
64.63309188922368
 20
-144.8145887224769
 10
64.63309188922368
 20
-144.6705837311935
 10
64.65031736664993
 20
-144.4190917607702
 10
64.75608179804709
 20
-144.2199652417228
 10
64.86391328673541
 20
-144.0170491176416
 10
65.02479924589657
 20
-143.9939669778904
 10
65.15364581704492
 20
-143.9939669778904
 10
65.31246471891494
 20
-143.9939669778904
 10
65.45612520064986
 20
-144.0380642001016
 10
65.55155434559128
 20
-144.2199652417228
 10
65.65077309556648
 20
-144.4128905888968
 10
65.67419974486617
 20
-144.6409559100203
 10
65.67419974486617
 20
-144.8145887224769
 10
65.67419974486617
 20
-144.9861544776423
 10
65.65284015285762
 20
-145.2166313656056
 10
65.55155434559128
 20
-145.409212203231
 97
        0
 97
        0
 92
        1
 93
        1
 72
     4
 94
        3
 73
     0
 74
     1
 95
       17
 96
       13
 40
0.0
 40
0.0
 40
0.0
 40
0.0
 40
1.0
 40
1.0
 40
1.0
 40
2.0
 40
2.0
 40
2.0
 40
3.0
 40
3.0
 40
3.0
 40
4.0
 40
4.0
 40
4.0
 40
4.0
 10
65.15364581704492
 20
-144.1862033059674
 10
64.90387639436432
 20
-144.1862033059674
 10
64.85736760531344
 20
-144.4697346644034
 10
64.85736760531344
 20
-144.8145887224769
 10
64.85736760531344
 20
-145.1342935835081
 10
64.89354110790856
 20
-145.4429741389865
 10
65.15364581704492
 20
-145.4429741389865
 10
65.40134818243439
 20
-145.4429741389865
 10
65.44992402877641
 20
-145.1615098378416
 10
65.44992402877641
 20
-144.8145887224769
 10
65.44992402877641
 20
-144.4952283709943
 10
65.41168346889013
 20
-144.1862033059674
 10
65.15364581704492
 20
-144.1862033059674
 97
        0
 97
        0
 75
     2
 76
     1
 98
        0
  0
POLYLINE
  5
AF
330
A5
100
AcDbEntity
  8
_U+30EC_U+30A4_U+30E4_U+30FC 1
370
     0
100
AcDb2dPolyline
 66
     1
 10
0.0
 20
0.0
 30
0.0
  0
VERTEX
  5
B0
330
AF
100
AcDbEntity
  8
_U+30EC_U+30A4_U+30E4_U+30FC 1
370
     0
100
AcDbVertex
100
AcDb2dVertex
 10
65.89055174133986
 20
-145.5869791302699
 30
0.0
  0
VERTEX
  5
B1
330
AF
100
AcDbEntity
  8
_U+30EC_U+30A4_U+30E4_U+30FC 1
370
     0
100
AcDbVertex
100
AcDb2dVertex
 10
65.89055174133986
 20
-145.3351426502982
 30
0.0
  0
VERTEX
  5
B2
330
AF
100
AcDbEntity
  8
_U+30EC_U+30A4_U+30E4_U+30FC 1
370
     0
100
AcDbVertex
100
AcDb2dVertex
 10
66.14238822131163
 20
-145.3351426502982
 30
0.0
  0
VERTEX
  5
B3
330
AF
100
AcDbEntity
  8
_U+30EC_U+30A4_U+30E4_U+30FC 1
370
     0
100
AcDbVertex
100
AcDb2dVertex
 10
66.14238822131163
 20
-145.5869791302699
 30
0.0
  0
VERTEX
  5
B4
330
AF
100
AcDbEntity
  8
_U+30EC_U+30A4_U+30E4_U+30FC 1
370
     0
100
AcDbVertex
100
AcDb2dVertex
 10
65.89055174133986
 20
-145.5869791302699
 30
0.0
  0
SEQEND
  5
B5
330
AF
100
AcDbEntity
  8
_U+30EC_U+30A4_U+30E4_U+30FC 1
370
     0
  0
HATCH
  5
B6
330
A5
100
AcDbEntity
  8
_U+30EC_U+30A4_U+30E4_U+30FC 1
 62
   179
420
  2234388
100
AcDbHatch
 10
0.0
 20
0.0
 30
0.0
210
0.0
220
0.0
230
1.0
  2
SOLID
 70
     1
 71
     0
 91
        1
 92
        1
 93
        4
 72
     1
 10
65.89055174133986
 20
-145.5869791302699
 11
65.89055174133986
 21
-145.3351426502982
 72
     1
 10
65.89055174133986
 20
-145.3351426502982
 11
66.14238822131163
 21
-145.3351426502982
 72
     1
 10
66.14238822131163
 20
-145.3351426502982
 11
66.14238822131163
 21
-145.5869791302699
 72
     1
 10
66.14238822131163
 20
-145.5869791302699
 11
65.89055174133986
 21
-145.5869791302699
 97
        0
 75
     2
 76
     1
 98
        0
  0
SPLINE
  5
B7
330
A5
100
AcDbEntity
  8
_U+30EC_U+30A4_U+30E4_U+30FC 1
370
     0
100
AcDbSpline
210
0.0
220
0.0
230
1.0
 70
    11
 71
     3
 72
    53
 73
    49
 74
     0
 42
0.0000000001
 43
0.0000000001
 12
1.0
 22
0.0
 32
0.0
 13
1.0
 23
0.0
 33
0.0
 40
0.0
 40
0.0
 40
0.0
 40
0.0
 40
1.0
 40
1.0
 40
1.0
 40
2.0
 40
2.0
 40
2.0
 40
3.0
 40
3.0
 40
3.0
 40
4.0
 40
4.0
 40
4.0
 40
5.0
 40
5.0
 40
5.0
 40
6.0
 40
6.0
 40
6.0
 40
7.0
 40
7.0
 40
7.0
 40
8.0
 40
8.0
 40
8.0
 40
9.0
 40
9.0
 40
9.0
 40
10.0
 40
10.0
 40
10.0
 40
11.0
 40
11.0
 40
11.0
 40
12.0
 40
12.0
 40
12.0
 40
13.0
 40
13.0
 40
13.0
 40
14.0
 40
14.0
 40
14.0
 40
15.0
 40
15.0
 40
15.0
 40
16.0
 40
16.0
 40
16.0
 40
16.0
 10
66.85965710134064
 20
-145.6376220339031
 30
0.0
 10
66.78145343382548
 20
-145.6376220339031
 30
0.0
 10
66.6798231170106
 20
-145.6207410660254
 30
0.0
 10
66.57819280019574
 20
-145.5573513090968
 30
0.0
 10
66.40490449728766
 20
-145.4471082535688
 30
0.0
 10
66.38354490527912
 20
-145.3161946251293
 30
0.0
 10
66.36459688011024
 20
-145.2080186268925
 30
0.0
 10
66.36459688011024
 20
-145.2080186268925
 30
0.0
 10
66.58680553890886
 20
-145.2080186268925
 30
0.0
 10
66.58680553890886
 20
-145.2080186268925
 30
0.0
 10
66.64158255712432
 20
-145.4071451459399
 30
0.0
 10
66.76870658053005
 20
-145.436772967113
 30
0.0
 10
66.86172415863179
 20
-145.436772967113
 30
0.0
 10
67.00125052578441
 20
-145.436772967113
 30
0.0
 10
67.15352374623245
 20
-145.3372097075893
 30
0.0
 10
67.15352374623245
 20
-145.1046657623349
 30
0.0
 10
67.15352374623245
 20
-144.8483506582324
 30
0.0
 10
66.97368976190242
 20
-144.7787597294303
 30
0.0
 10
66.85311141991868
 20
-144.7787597294303
 30
0.0
 10
66.82141654145437
 20
-144.7787597294303
 30
0.0
 10
66.6798231170106
 20
-144.7787597294303
 30
0.0
 10
66.59093965349116
 20
-144.9076063005787
 30
0.0
 10
66.59093965349116
 20
-144.9076063005787
 30
0.0
 10
66.41523978374342
 20
-144.8886582754098
 30
0.0
 10
66.41523978374342
 20
-144.8886582754098
 30
0.0
 10
66.41523978374342
 20
-144.8886582754098
 30
0.0
 10
66.53581812572716
 20
-144.0425428242324
 30
0.0
 10
66.53581812572716
 20
-144.0425428242324
 30
0.0
 10
66.53581812572716
 20
-144.0425428242324
 30
0.0
 10
67.31440970539363
 20
-144.0425428242324
 30
0.0
 10
67.31440970539363
 20
-144.0425428242324
 30
0.0
 10
67.31440970539363
 20
-144.0425428242324
 30
0.0
 10
67.31440970539363
 20
-144.2371907191491
 30
0.0
 10
67.31440970539363
 20
-144.2371907191491
 30
0.0
 10
67.31440970539363
 20
-144.2371907191491
 30
0.0
 10
66.69877114217948
 20
-144.2371907191491
 30
0.0
 10
66.69877114217948
 20
-144.2371907191491
 30
0.0
 10
66.69877114217948
 20
-144.2371907191491
 30
0.0
 10
66.63331432795972
 20
-144.6602484447377
 30
0.0
 10
66.63331432795972
 20
-144.6602484447377
 30
0.0
 10
66.69463702759718
 20
-144.6264865089823
 30
0.0
 10
66.77697480969465
 20
-144.5861788918048
 30
0.0
 10
66.89548609438724
 20
-144.5861788918048
 30
0.0
 10
67.14938963165015
 20
-144.5861788918048
 30
0.0
 10
67.38641220103534
 20
-144.7725585575569
 30
0.0
 10
67.38641220103534
 20
-145.0853732276176
 30
0.0
 10
67.38641220103534
 20
-145.4030110313576
 30
0.0
 10
67.16213648494558
 20
-145.6376220339031
 30
0.0
 10
66.85965710134064
 20
-145.6376220339031
 30
0.0
  0
HATCH
  5
B8
330
A5
100
AcDbEntity
  8
_U+30EC_U+30A4_U+30E4_U+30FC 1
 62
   179
420
  2234388
100
AcDbHatch
 10
0.0
 20
0.0
 30
0.0
210
0.0
220
0.0
230
1.0
  2
SOLID
 70
     1
 71
     0
 91
        1
 92
        1
 93
        1
 72
     4
 94
        3
 73
     0
 74
     1
 95
       53
 96
       49
 40
0.0
 40
0.0
 40
0.0
 40
0.0
 40
1.0
 40
1.0
 40
1.0
 40
2.0
 40
2.0
 40
2.0
 40
3.0
 40
3.0
 40
3.0
 40
4.0
 40
4.0
 40
4.0
 40
5.0
 40
5.0
 40
5.0
 40
6.0
 40
6.0
 40
6.0
 40
7.0
 40
7.0
 40
7.0
 40
8.0
 40
8.0
 40
8.0
 40
9.0
 40
9.0
 40
9.0
 40
10.0
 40
10.0
 40
10.0
 40
11.0
 40
11.0
 40
11.0
 40
12.0
 40
12.0
 40
12.0
 40
13.0
 40
13.0
 40
13.0
 40
14.0
 40
14.0
 40
14.0
 40
15.0
 40
15.0
 40
15.0
 40
16.0
 40
16.0
 40
16.0
 40
16.0
 10
66.85965710134064
 20
-145.6376220339031
 10
66.78145343382548
 20
-145.6376220339031
 10
66.6798231170106
 20
-145.6207410660254
 10
66.57819280019574
 20
-145.5573513090968
 10
66.40490449728766
 20
-145.4471082535688
 10
66.38354490527912
 20
-145.3161946251293
 10
66.36459688011024
 20
-145.2080186268925
 10
66.36459688011024
 20
-145.2080186268925
 10
66.58680553890886
 20
-145.2080186268925
 10
66.58680553890886
 20
-145.2080186268925
 10
66.64158255712432
 20
-145.4071451459399
 10
66.76870658053005
 20
-145.436772967113
 10
66.86172415863179
 20
-145.436772967113
 10
67.00125052578441
 20
-145.436772967113
 10
67.15352374623245
 20
-145.3372097075893
 10
67.15352374623245
 20
-145.1046657623349
 10
67.15352374623245
 20
-144.8483506582324
 10
66.97368976190242
 20
-144.7787597294303
 10
66.85311141991868
 20
-144.7787597294303
 10
66.82141654145437
 20
-144.7787597294303
 10
66.6798231170106
 20
-144.7787597294303
 10
66.59093965349116
 20
-144.9076063005787
 10
66.59093965349116
 20
-144.9076063005787
 10
66.41523978374342
 20
-144.8886582754098
 10
66.41523978374342
 20
-144.8886582754098
 10
66.41523978374342
 20
-144.8886582754098
 10
66.53581812572716
 20
-144.0425428242324
 10
66.53581812572716
 20
-144.0425428242324
 10
66.53581812572716
 20
-144.0425428242324
 10
67.31440970539363
 20
-144.0425428242324
 10
67.31440970539363
 20
-144.0425428242324
 10
67.31440970539363
 20
-144.0425428242324
 10
67.31440970539363
 20
-144.2371907191491
 10
67.31440970539363
 20
-144.2371907191491
 10
67.31440970539363
 20
-144.2371907191491
 10
66.69877114217948
 20
-144.2371907191491
 10
66.69877114217948
 20
-144.2371907191491
 10
66.69877114217948
 20
-144.2371907191491
 10
66.63331432795972
 20
-144.6602484447377
 10
66.63331432795972
 20
-144.6602484447377
 10
66.69463702759718
 20
-144.6264865089823
 10
66.77697480969465
 20
-144.5861788918048
 10
66.89548609438724
 20
-144.5861788918048
 10
67.14938963165015
 20
-144.5861788918048
 10
67.38641220103534
 20
-144.7725585575569
 10
67.38641220103534
 20
-145.0853732276176
 10
67.38641220103534
 20
-145.4030110313576
 10
67.16213648494558
 20
-145.6376220339031
 10
66.85965710134064
 20
-145.6376220339031
 97
        0
 97
        0
 75
     2
 76
     1
 98
        0
  0
ENDBLK
  5
A8
330
A5
100
AcDbEntity
  8
0
100
AcDbBlockEnd
  0
ENDSEC
  0
SECTION
  2
ENTITIES
  0
INSERT
  5
42
330
1F
100
AcDbEntity
  8
_U+30EC_U+30A4_U+30E4_U+30FC 1
100
AcDbBlockReference
  2
block 2
 10
0.0
 20
0.0
 30
0.0
  0
ENDSEC
  0
SECTION
  2
OBJECTS
  0
DICTIONARY
  5
C
330
0
100
AcDbDictionary
281
     1
  3
ACAD_GROUP
350
D
  3
ACAD_LAYOUT
350
1A
  3
ACAD_MATERIAL
350
3B
  3
ACAD_MLEADERSTYLE
350
BE
  3
ACAD_MLINESTYLE
350
17
  3
ACAD_PLOTSETTINGS
350
19
  3
ACAD_PLOTSTYLENAME
350
E
  3
ACAD_TABLESTYLE
350
BD
  3
ACAD_VISUALSTYLE
350
2A
  0
SUN
  5
3F
330
29
100
AcDbSun
 90
        1
290
     0
 63
     7
421
 16777215
 40
1.0
291
     1
 91
  2455826
 92
 54000000
292
     0
 70
     2
 71
   256
280
     1
  0
DICTIONARY
  5
D
102
{ACAD_REACTORS
330
C
102
}
330
C
100
AcDbDictionary
281
     1
  0
DICTIONARY
  5
1A
102
{ACAD_REACTORS
330
C
102
}
330
C
100
AcDbDictionary
281
     1
  3
Layout1
350
1E
  3
Layout2
350
26
  3
Model
350
22
  0
DICTIONARY
  5
3B
102
{ACAD_REACTORS
330
C
102
}
330
C
100
AcDbDictionary
281
     1
  3
ByBlock
350
3D
  3
ByLayer
350
3C
  3
Global
350
3E
  0
DICTIONARY
  5
BE
102
{ACAD_REACTORS
330
C
102
}
330
C
100
AcDbDictionary
281
     1
  0
DICTIONARY
  5
17
102
{ACAD_REACTORS
330
C
102
}
330
C
100
AcDbDictionary
281
     1
  3
Standard
350
18
  0
DICTIONARY
  5
19
102
{ACAD_REACTORS
330
C
102
}
330
C
100
AcDbDictionary
281
     1
  0
ACDBDICTIONARYWDFLT
  5
E
102
{ACAD_REACTORS
330
C
102
}
330
C
100
AcDbDictionary
281
     1
  3
Normal
350
F
100
AcDbDictionaryWithDefault
340
F
  0
DICTIONARY
  5
BD
102
{ACAD_REACTORS
330
C
102
}
330
C
100
AcDbDictionary
281
     1
  0
DICTIONARY
  5
2A
102
{ACAD_REACTORS
330
C
102
}
330
C
100
AcDbDictionary
281
     1
  3
2dWireframe
350
2F
  3
3D Hidden
350
31
  3
3dWireframe
350
30
  3
Basic
350
32
  3
Brighten
350
36
  3
ColorChange
350
3A
  3
Conceptual
350
34
  3
Dim
350
35
  3
Facepattern
350
39
  3
Flat
350
2B
  3
FlatWithEdges
350
2C
  3
Gouraud
350
2D
  3
GouraudWithEdges
350
2E
  3
Linepattern
350
38
  3
Realistic
350
33
  3
Thicken
350
37
  0
LAYOUT
  5
1E
102
{ACAD_REACTORS
330
1A
102
}
330
1A
100
AcDbPlotSettings
  1

  2
none_device
  4

  6

 40
0.0
 41
0.0
 42
0.0
 43
0.0
 44
0.0
 45
0.0
 46
0.0
 47
0.0
 48
0.0
 49
0.0
140
0.0
141
0.0
142
1.0
143
1.0
 70
   688
 72
     0
 73
     0
 74
     5
  7

 75
    16
 76
     0
 77
     2
 78
   300
147
1.0
148
0.0
149
0.0
100
AcDbLayout
  1
Layout1
 70
     1
 71
     1
 10
0.0
 20
0.0
 11
12.0
 21
9.0
 12
0.0
 22
0.0
 32
0.0
 14
1.000000000000000E+20
 24
1.000000000000000E+20
 34
1.000000000000000E+20
 15
-1.000000000000000E+20
 25
-1.000000000000000E+20
 35
-1.000000000000000E+20
146
0.0
 13
0.0
 23
0.0
 33
0.0
 16
1.0
 26
0.0
 36
0.0
 17
0.0
 27
1.0
 37
0.0
 76
     0
330
1B
  0
LAYOUT
  5
26
102
{ACAD_REACTORS
330
1A
102
}
330
1A
100
AcDbPlotSettings
  1

  2
none_device
  4

  6

 40
0.0
 41
0.0
 42
0.0
 43
0.0
 44
0.0
 45
0.0
 46
0.0
 47
0.0
 48
0.0
 49
0.0
140
0.0
141
0.0
142
1.0
143
1.0
 70
   688
 72
     0
 73
     0
 74
     5
  7

 75
    16
 76
     0
 77
     2
 78
   300
147
1.0
148
0.0
149
0.0
100
AcDbLayout
  1
Layout2
 70
     1
 71
     2
 10
0.0
 20
0.0
 11
0.0
 21
0.0
 12
0.0
 22
0.0
 32
0.0
 14
0.0
 24
0.0
 34
0.0
 15
0.0
 25
0.0
 35
0.0
146
0.0
 13
0.0
 23
0.0
 33
0.0
 16
1.0
 26
0.0
 36
0.0
 17
0.0
 27
1.0
 37
0.0
 76
     0
330
23
  0
LAYOUT
  5
22
102
{ACAD_REACTORS
330
1A
102
}
330
1A
100
AcDbPlotSettings
  1

  2
none_device
  4

  6

 40
0.0
 41
0.0
 42
0.0
 43
0.0
 44
0.0
 45
0.0
 46
0.0
 47
0.0
 48
0.0
 49
0.0
140
0.0
141
0.0
142
1.0
143
1.0
 70
  1712
 72
     0
 73
     0
 74
     0
  7

 75
     0
 76
     0
 77
     2
 78
   300
147
1.0
148
0.0
149
0.0
100
AcDbLayout
  1
Model
 70
     1
 71
     0
 10
0.0
 20
0.0
 11
12.0
 21
9.0
 12
0.0
 22
0.0
 32
0.0
 14
1.000000000000000E+20
 24
1.000000000000000E+20
 34
1.000000000000000E+20
 15
-1.000000000000000E+20
 25
-1.000000000000000E+20
 35
-1.000000000000000E+20
146
0.0
 13
0.0
 23
0.0
 33
0.0
 16
1.0
 26
0.0
 36
0.0
 17
0.0
 27
1.0
 37
0.0
 76
     0
330
1F
331
29
  0
MATERIAL
  5
3D
102
{ACAD_REACTORS
330
3B
102
}
330
3B
100
AcDbMaterial
  1
ByBlock
 72
     1
 94
      127
  0
MATERIAL
  5
3C
102
{ACAD_REACTORS
330
3B
102
}
330
3B
100
AcDbMaterial
  1
ByLayer
 72
     1
 94
      127
  0
MATERIAL
  5
3E
102
{ACAD_REACTORS
330
3B
102
}
330
3B
100
AcDbMaterial
  1
Global
 72
     1
 94
      127
  0
MLINESTYLE
  5
18
102
{ACAD_REACTORS
330
17
102
}
330
17
100
AcDbMlineStyle
  2
Standard
 70
     0
  3

 62
   256
 51
90.0
 52
90.0
 71
     2
 49
0.5
 62
   256
  6
BYLAYER
 49
-0.5
 62
   256
  6
BYLAYER
  0
ACDBPLACEHOLDER
  5
F
102
{ACAD_REACTORS
330
E
102
}
330
E
  0
VISUALSTYLE
  5
2F
102
{ACAD_REACTORS
330
2A
102
}
330
2A
100
AcDbVisualStyle
  2
2dWireframe
 70
     4
177
     2
291
     0
 71
     0
176
     1
 72
     2
176
     1
 73
     0
176
     1
 90
        0
176
     1
 40
-0.6
176
     1
 41
-30.0
176
     1
 62
     5
 63
     7
421
 16777215
176
     1
 74
     1
176
     1
 91
        4
176
     1
 64
     7
176
     1
 65
   257
176
     1
 75
     1
176
     1
175
     1
176
     1
 42
1.0
176
     1
 92
        0
176
     1
 66
   257
176
     1
 43
1.0
176
     1
 76
     1
176
     1
 77
     6
176
     1
 78
     2
176
     1
 67
     7
176
     1
 79
     5
176
     1
170
     0
176
     1
171
     0
176
     1
290
     0
176
     1
 93
        1
176
     1
 44
0.0
176
     1
173
     0
176
     1
  0
VISUALSTYLE
  5
31
102
{ACAD_REACTORS
330
2A
102
}
330
2A
100
AcDbVisualStyle
  2
3D Hidden
 70
     6
177
     2
291
     0
 71
     1
176
     1
 72
     2
176
     1
 73
     2
176
     1
 90
        0
176
     1
 40
-0.6
176
     1
 41
-30.0
176
     1
 62
     5
 63
     7
421
 16777215
176
     1
 74
     2
176
     1
 91
        2
176
     1
 64
     7
176
     1
 65
   257
176
     1
 75
     2
176
     1
175
     1
176
     1
 42
40.0
176
     1
 92
        0
176
     1
 66
   257
176
     1
 43
1.0
176
     1
 76
     1
176
     1
 77
     6
176
     1
 78
     2
176
     1
 67
     7
176
     1
 79
     3
176
     1
170
     0
176
     1
171
     0
176
     1
290
     0
176
     1
 93
        1
176
     1
 44
0.0
176
     1
173
     0
176
     1
  0
VISUALSTYLE
  5
30
102
{ACAD_REACTORS
330
2A
102
}
330
2A
100
AcDbVisualStyle
  2
3dWireframe
 70
     5
177
     2
291
     0
 71
     0
176
     1
 72
     2
176
     1
 73
     0
176
     1
 90
        0
176
     1
 40
-0.6
176
     1
 41
-30.0
176
     1
 62
     5
 63
     7
421
 16777215
176
     1
 74
     1
176
     1
 91
        4
176
     1
 64
     7
176
     1
 65
   257
176
     1
 75
     1
176
     1
175
     1
176
     1
 42
1.0
176
     1
 92
        0
176
     1
 66
   257
176
     1
 43
1.0
176
     1
 76
     1
176
     1
 77
     6
176
     1
 78
     2
176
     1
 67
     7
176
     1
 79
     5
176
     1
170
     0
176
     1
171
     0
176
     1
290
     0
176
     1
 93
        1
176
     1
 44
0.0
176
     1
173
     0
176
     1
  0
VISUALSTYLE
  5
32
102
{ACAD_REACTORS
330
2A
102
}
330
2A
100
AcDbVisualStyle
  2
Basic
 70
     7
177
     2
291
     1
 71
     1
176
     1
 72
     0
176
     1
 73
     1
176
     1
 90
        0
176
     1
 40
-0.6
176
     1
 41
-30.0
176
     1
 62
     5
 63
     7
421
 16777215
176
     1
 74
     0
176
     1
 91
        4
176
     1
 64
     7
176
     1
 65
   257
176
     1
 75
     1
176
     1
175
     1
176
     1
 42
1.0
176
     1
 92
        8
176
     1
 66
     7
176
     1
 43
1.0
176
     1
 76
     1
176
     1
 77
     6
176
     1
 78
     2
176
     1
 67
     7
176
     1
 79
     5
176
     1
170
     0
176
     1
171
     0
176
     1
290
     0
176
     1
 93
        1
176
     1
 44
0.0
176
     1
173
     0
176
     1
  0
VISUALSTYLE
  5
36
102
{ACAD_REACTORS
330
2A
102
}
330
2A
100
AcDbVisualStyle
  2
Brighten
 70
    12
177
     2
291
     1
 71
     2
176
     1
 72
     2
176
     1
 73
     0
176
     1
 90
        0
176
     1
 40
-0.6
176
     1
 41
-30.0
176
     1
 62
     5
 63
     7
421
 16777215
176
     1
 74
     1
176
     1
 91
        4
176
     1
 64
     7
176
     1
 65
   257
176
     1
 75
     1
176
     1
175
     1
176
     1
 42
1.0
176
     1
 92
        8
176
     1
 66
     7
176
     1
 43
1.0
176
     1
 76
     1
176
     1
 77
     6
176
     1
 78
     2
176
     1
 67
     7
176
     1
 79
     5
176
     1
170
     0
176
     1
171
     0
176
     1
290
     0
176
     1
 93
        1
176
     1
 44
50.0
176
     1
173
     0
176
     1
  0
VISUALSTYLE
  5
3A
102
{ACAD_REACTORS
330
2A
102
}
330
2A
100
AcDbVisualStyle
  2
ColorChange
 70
    16
177
     2
291
     1
 71
     2
176
     1
 72
     2
176
     1
 73
     3
176
     1
 90
        0
176
     1
 40
-0.6
176
     1
 41
-30.0
176
     1
 62
     5
 63
     8
421
  8421504
176
     1
 74
     1
176
     1
 91
        4
176
     1
 64
     7
176
     1
 65
   257
176
     1
 75
     1
176
     1
175
     1
176
     1
 42
1.0
176
     1
 92
        8
176
     1
 66
     8
424
  8421504
176
     1
 43
1.0
176
     1
 76
     1
176
     1
 77
     6
176
     1
 78
     2
176
     1
 67
     7
176
     1
 79
     5
176
     1
170
     0
176
     1
171
     0
176
     1
290
     0
176
     1
 93
        1
176
     1
 44
0.0
176
     1
173
     0
176
     1
  0
VISUALSTYLE
  5
34
102
{ACAD_REACTORS
330
2A
102
}
330
2A
100
AcDbVisualStyle
  2
Conceptual
 70
     9
177
     2
291
     0
 71
     3
176
     1
 72
     2
176
     1
 73
     0
176
     1
 90
        0
176
     1
 40
-0.6
176
     1
 41
-30.0
176
     1
 62
     5
 63
     7
421
 16777215
176
     1
 74
     2
176
     1
 91
        2
176
     1
 64
     7
176
     1
 65
   257
176
     1
 75
     1
176
     1
175
     1
176
     1
 42
40.0
176
     1
 92
        8
176
     1
 66
     7
176
     1
 43
1.0
176
     1
 76
     1
176
     1
 77
     6
176
     1
 78
     2
176
     1
 67
     7
176
     1
 79
     3
176
     1
170
     0
176
     1
171
     0
176
     1
290
     0
176
     1
 93
        1
176
     1
 44
0.0
176
     1
173
     0
176
     1
  0
VISUALSTYLE
  5
35
102
{ACAD_REACTORS
330
2A
102
}
330
2A
100
AcDbVisualStyle
  2
Dim
 70
    11
177
     2
291
     1
 71
     2
176
     1
 72
     2
176
     1
 73
     0
176
     1
 90
        0
176
     1
 40
-0.6
176
     1
 41
-30.0
176
     1
 62
     5
 63
     7
421
 16777215
176
     1
 74
     1
176
     1
 91
        4
176
     1
 64
     7
176
     1
 65
   257
176
     1
 75
     1
176
     1
175
     1
176
     1
 42
1.0
176
     1
 92
        8
176
     1
 66
     7
176
     1
 43
1.0
176
     1
 76
     1
176
     1
 77
     6
176
     1
 78
     2
176
     1
 67
     7
176
     1
 79
     5
176
     1
170
     0
176
     1
171
     0
176
     1
290
     0
176
     1
 93
        1
176
     1
 44
-50.0
176
     1
173
     0
176
     1
  0
VISUALSTYLE
  5
39
102
{ACAD_REACTORS
330
2A
102
}
330
2A
100
AcDbVisualStyle
  2
Facepattern
 70
    15
177
     2
291
     1
 71
     2
176
     1
 72
     2
176
     1
 73
     0
176
     1
 90
        0
176
     1
 40
-0.6
176
     1
 41
-30.0
176
     1
 62
     5
 63
     7
421
 16777215
176
     1
 74
     1
176
     1
 91
        4
176
     1
 64
     7
176
     1
 65
   257
176
     1
 75
     1
176
     1
175
     1
176
     1
 42
1.0
176
     1
 92
        8
176
     1
 66
     7
176
     1
 43
1.0
176
     1
 76
     1
176
     1
 77
     6
176
     1
 78
     2
176
     1
 67
     7
176
     1
 79
     5
176
     1
170
     0
176
     1
171
     0
176
     1
290
     0
176
     1
 93
        1
176
     1
 44
0.0
176
     1
173
     0
176
     1
  0
VISUALSTYLE
  5
2B
102
{ACAD_REACTORS
330
2A
102
}
330
2A
100
AcDbVisualStyle
  2
Flat
 70
     0
177
     2
291
     1
 71
     2
176
     1
 72
     1
176
     1
 73
     1
176
     1
 90
        2
176
     1
 40
-0.6
176
     1
 41
30.0
176
     1
 62
     5
 63
     7
421
 16777215
176
     1
 74
     0
176
     1
 91
        4
176
     1
 64
     7
176
     1
 65
   257
176
     1
 75
     1
176
     1
175
     1
176
     1
 42
1.0
176
     1
 92
        8
176
     1
 66
     7
176
     1
 43
1.0
176
     1
 76
     1
176
     1
 77
     6
176
     1
 78
     2
176
     1
 67
     7
176
     1
 79
     5
176
     1
170
     0
176
     1
171
     0
176
     1
290
     0
176
     1
 93
       13
176
     1
 44
0.0
176
     1
173
     0
176
     1
  0
VISUALSTYLE
  5
2C
102
{ACAD_REACTORS
330
2A
102
}
330
2A
100
AcDbVisualStyle
  2
FlatWithEdges
 70
     1
177
     2
291
     1
 71
     2
176
     1
 72
     1
176
     1
 73
     1
176
     1
 90
        2
176
     1
 40
-0.6
176
     1
 41
30.0
176
     1
 62
     5
 63
     7
421
 16777215
176
     1
 74
     1
176
     1
 91
        4
176
     1
 64
     7
176
     1
 65
   257
176
     1
 75
     1
176
     1
175
     1
176
     1
 42
1.0
176
     1
 92
        0
176
     1
 66
   257
176
     1
 43
1.0
176
     1
 76
     1
176
     1
 77
     6
176
     1
 78
     2
176
     1
 67
     7
176
     1
 79
     5
176
     1
170
     0
176
     1
171
     0
176
     1
290
     0
176
     1
 93
       13
176
     1
 44
0.0
176
     1
173
     0
176
     1
  0
VISUALSTYLE
  5
2D
102
{ACAD_REACTORS
330
2A
102
}
330
2A
100
AcDbVisualStyle
  2
Gouraud
 70
     2
177
     2
291
     1
 71
     2
176
     1
 72
     2
176
     1
 73
     1
176
     1
 90
        2
176
     1
 40
-0.6
176
     1
 41
30.0
176
     1
 62
     5
 63
     7
421
 16777215
176
     1
 74
     0
176
     1
 91
        4
176
     1
 64
     7
176
     1
 65
   257
176
     1
 75
     1
176
     1
175
     1
176
     1
 42
1.0
176
     1
 92
        0
176
     1
 66
     7
176
     1
 43
1.0
176
     1
 76
     1
176
     1
 77
     6
176
     1
 78
     2
176
     1
 67
     7
176
     1
 79
     5
176
     1
170
     0
176
     1
171
     0
176
     1
290
     0
176
     1
 93
       13
176
     1
 44
0.0
176
     1
173
     0
176
     1
  0
VISUALSTYLE
  5
2E
102
{ACAD_REACTORS
330
2A
102
}
330
2A
100
AcDbVisualStyle
  2
GouraudWithEdges
 70
     3
177
     2
291
     1
 71
     2
176
     1
 72
     2
176
     1
 73
     1
176
     1
 90
        2
176
     1
 40
-0.6
176
     1
 41
30.0
176
     1
 62
     5
 63
     7
421
 16777215
176
     1
 74
     1
176
     1
 91
        4
176
     1
 64
     7
176
     1
 65
   257
176
     1
 75
     1
176
     1
175
     1
176
     1
 42
1.0
176
     1
 92
        0
176
     1
 66
   257
176
     1
 43
1.0
176
     1
 76
     1
176
     1
 77
     6
176
     1
 78
     2
176
     1
 67
     7
176
     1
 79
     5
176
     1
170
     0
176
     1
171
     0
176
     1
290
     0
176
     1
 93
       13
176
     1
 44
0.0
176
     1
173
     0
176
     1
  0
VISUALSTYLE
  5
38
102
{ACAD_REACTORS
330
2A
102
}
330
2A
100
AcDbVisualStyle
  2
Linepattern
 70
    14
177
     2
291
     1
 71
     2
176
     1
 72
     2
176
     1
 73
     0
176
     1
 90
        0
176
     1
 40
-0.6
176
     1
 41
-30.0
176
     1
 62
     5
 63
     7
421
 16777215
176
     1
 74
     1
176
     1
 91
        4
176
     1
 64
     7
176
     1
 65
   257
176
     1
 75
     7
176
     1
175
     7
176
     1
 42
1.0
176
     1
 92
        8
176
     1
 66
     7
176
     1
 43
1.0
176
     1
 76
     1
176
     1
 77
     6
176
     1
 78
     2
176
     1
 67
     7
176
     1
 79
     5
176
     1
170
     0
176
     1
171
     0
176
     1
290
     0
176
     1
 93
        1
176
     1
 44
0.0
176
     1
173
     0
176
     1
  0
VISUALSTYLE
  5
33
102
{ACAD_REACTORS
330
2A
102
}
330
2A
100
AcDbVisualStyle
  2
Realistic
 70
     8
177
     2
291
     0
 71
     2
176
     1
 72
     2
176
     1
 73
     0
176
     1
 90
        0
176
     1
 40
-0.6
176
     1
 41
-30.0
176
     1
 62
     5
 63
     7
421
 16777215
176
     1
 74
     1
176
     1
 91
        0
176
     1
 64
     7
176
     1
 65
   257
176
     1
 75
     1
176
     1
175
     1
176
     1
 42
1.0
176
     1
 92
        8
176
     1
 66
     8
424
  7895160
176
     1
 43
1.0
176
     1
 76
     1
176
     1
 77
     6
176
     1
 78
     2
176
     1
 67
     7
176
     1
 79
     5
176
     1
170
     0
176
     1
171
     0
176
     1
290
     0
176
     1
 93
       13
176
     1
 44
0.0
176
     1
173
     0
176
     1
  0
VISUALSTYLE
  5
37
102
{ACAD_REACTORS
330
2A
102
}
330
2A
100
AcDbVisualStyle
  2
Thicken
 70
    13
177
     2
291
     1
 71
     2
176
     1
 72
     2
176
     1
 73
     0
176
     1
 90
        0
176
     1
 40
-0.6
176
     1
 41
-30.0
176
     1
 62
     5
 63
     7
421
 16777215
176
     1
 74
     1
176
     1
 91
        4
176
     1
 64
     7
176
     1
 65
   257
176
     1
 75
     1
176
     1
175
     1
176
     1
 42
1.0
176
     1
 92
       12
176
     1
 66
     7
176
     1
 43
1.0
176
     1
 76
     1
176
     1
 77
     6
176
     1
 78
     2
176
     1
 67
     7
176
     1
 79
     5
176
     1
170
     0
176
     1
171
     0
176
     1
290
     0
176
     1
 93
        1
176
     1
 44
0.0
176
     1
173
     0
176
     1
  0
ENDSEC
  0
EOF
