  0
SECTION
  2
HEADER
  9
$ACADVER
  1
AC1024
  9
$ACADMAINTVER
 70
     6
  9
$DWGCODEPAGE
  3
UNDEFINED
  9
$INSBASE
 10
0.0
 20
0.0
 30
0.0
  9
$EXTMIN
 10
1.000000000000000E+20
 20
1.000000000000000E+20
 30
1.000000000000000E+20
  9
$EXTMAX
 10
-1.000000000000000E+20
 20
-1.000000000000000E+20
 30
-1.000000000000000E+20
  9
$LIMMIN
 10
0.0
 20
0.0
  9
$LIMMAX
 10
12.0
 20
9.0
  9
$ORTHOMODE
 70
     0
  9
$REGENMODE
 70
     1
  9
$FILLMODE
 70
     1
  9
$QTEXTMODE
 70
     0
  9
$MIRRTEXT
 70
     1
  9
$LTSCALE
 40
1.0
  9
$ATTMODE
 70
     1
  9
$TEXTSIZE
 40
0.2
  9
$TRACEWID
 40
0.05
  9
$TEXTSTYLE
  7
Standard
  9
$CLAYER
  8
0
  9
$CELTYPE
  6
ByLayer
  9
$CECOLOR
 62
   256
  9
$CELTSCALE
 40
1.0
  9
$DISPSILH
 70
     0
  9
$DIMSCALE
 40
1.0
  9
$DIMASZ
 40
0.18
  9
$DIMEXO
 40
0.0625
  9
$DIMDLI
 40
0.38
  9
$DIMRND
 40
0.0
  9
$DIMDLE
 40
0.0
  9
$DIMEXE
 40
0.18
  9
$DIMTP
 40
0.0
  9
$DIMTM
 40
0.0
  9
$DIMTXT
 40
0.18
  9
$DIMCEN
 40
0.09
  9
$DIMTSZ
 40
0.0
  9
$DIMTOL
 70
     0
  9
$DIMLIM
 70
     0
  9
$DIMTIH
 70
     1
  9
$DIMTOH
 70
     1
  9
$DIMSE1
 70
     0
  9
$DIMSE2
 70
     0
  9
$DIMTAD
 70
     0
  9
$DIMZIN
 70
     0
  9
$DIMBLK
  1

  9
$DIMASO
 70
     1
  9
$DIMSHO
 70
     1
  9
$DIMPOST
  1

  9
$DIMAPOST
  1

  9
$DIMALT
 70
     0
  9
$DIMALTD
 70
     2
  9
$DIMALTF
 40
25.4
  9
$DIMLFAC
 40
1.0
  9
$DIMTOFL
 70
     0
  9
$DIMTVP
 40
0.0
  9
$DIMTIX
 70
     0
  9
$DIMSOXD
 70
     0
  9
$DIMSAH
 70
     0
  9
$DIMBLK1
  1

  9
$DIMBLK2
  1

  9
$DIMSTYLE
  2
Standard
  9
$DIMCLRD
 70
     0
  9
$DIMCLRE
 70
     0
  9
$DIMCLRT
 70
     0
  9
$DIMTFAC
 40
1.0
  9
$DIMGAP
 40
0.09
  9
$DIMJUST
 70
     0
  9
$DIMSD1
 70
     0
  9
$DIMSD2
 70
     0
  9
$DIMTOLJ
 70
     1
  9
$DIMTZIN
 70
     0
  9
$DIMALTZ
 70
     0
  9
$DIMALTTZ
 70
     0
  9
$DIMUPT
 70
     0
  9
$DIMDEC
 70
     4
  9
$DIMTDEC
 70
     4
  9
$DIMALTU
 70
     2
  9
$DIMALTTD
 70
     2
  9
$DIMTXSTY
  7
Standard
  9
$DIMAUNIT
 70
     0
  9
$DIMADEC
 70
     0
  9
$DIMALTRND
 40
0.0
  9
$DIMAZIN
 70
     0
  9
$DIMDSEP
 70
    46
  9
$DIMATFIT
 70
     3
  9
$DIMFRAC
 70
     0
  9
$DIMLDRBLK
  1

  9
$DIMLUNIT
 70
     2
  9
$DIMLWD
 70
    -2
  9
$DIMLWE
 70
    -2
  9
$DIMTMOVE
 70
     0
  9
$DIMFXL
 40
1.0
  9
$DIMFXLON
 70
     0
  9
$DIMJOGANG
 40
0.7853981633974483
  9
$DIMTFILL
 70
     0
  9
$DIMTFILLCLR
 70
     0
  9
$DIMARCSYM
 70
     0
  9
$DIMLTYPE
  6

  9
$DIMLTEX1
  6

  9
$DIMLTEX2
  6

  9
$DIMTXTDIRECTION
 70
     0
  9
$LUNITS
 70
     2
  9
$LUPREC
 70
     4
  9
$SKETCHINC
 40
0.1
  9
$FILLETRAD
 40
0.5
  9
$AUNITS
 70
     0
  9
$AUPREC
 70
     0
  9
$MENU
  1
.
  9
$ELEVATION
 40
0.0
  9
$PELEVATION
 40
0.0
  9
$THICKNESS
 40
0.0
  9
$LIMCHECK
 70
     0
  9
$CHAMFERA
 40
0.5
  9
$CHAMFERB
 40
0.5
  9
$CHAMFERC
 40
1.0
  9
$CHAMFERD
 40
0.0
  9
$SKPOLY
 70
     0
  9
$TDCREATE
 40
2457917.583321759
  9
$TDUCREATE
 40
2457917.208321759
  9
$TDUPDATE
 40
2457917.583321759
  9
$TDUUPDATE
 40
2457917.208321759
  9
$TDINDWG
 40
0.0000000116
  9
$TDUSRTIMER
 40
0.0000000116
  9
$USRTIMER
 70
     1
  9
$ANGBASE
 50
0.0
  9
$ANGDIR
 70
     0
  9
$PDMODE
 70
     0
  9
$PDSIZE
 40
0.0
  9
$PLINEWID
 40
0.0
  9
$SPLFRAME
 70
     0
  9
$SPLINETYPE
 70
     6
  9
$SPLINESEGS
 70
     8
  9
$HANDSEED
  5
BD
  9
$SURFTAB1
 70
     6
  9
$SURFTAB2
 70
     6
  9
$SURFTYPE
 70
     6
  9
$SURFU
 70
     6
  9
$SURFV
 70
     6
  9
$UCSBASE
  2

  9
$UCSNAME
  2

  9
$UCSORG
 10
0.0
 20
0.0
 30
0.0
  9
$UCSXDIR
 10
1.0
 20
0.0
 30
0.0
  9
$UCSYDIR
 10
0.0
 20
1.0
 30
0.0
  9
$UCSORTHOREF
  2

  9
$UCSORTHOVIEW
 70
     0
  9
$UCSORGTOP
 10
0.0
 20
0.0
 30
0.0
  9
$UCSORGBOTTOM
 10
0.0
 20
0.0
 30
0.0
  9
$UCSORGLEFT
 10
0.0
 20
0.0
 30
0.0
  9
$UCSORGRIGHT
 10
0.0
 20
0.0
 30
0.0
  9
$UCSORGFRONT
 10
0.0
 20
0.0
 30
0.0
  9
$UCSORGBACK
 10
0.0
 20
0.0
 30
0.0
  9
$PUCSBASE
  2

  9
$PUCSNAME
  2

  9
$PUCSORG
 10
0.0
 20
0.0
 30
0.0
  9
$PUCSXDIR
 10
1.0
 20
0.0
 30
0.0
  9
$PUCSYDIR
 10
0.0
 20
1.0
 30
0.0
  9
$PUCSORTHOREF
  2

  9
$PUCSORTHOVIEW
 70
     0
  9
$PUCSORGTOP
 10
0.0
 20
0.0
 30
0.0
  9
$PUCSORGBOTTOM
 10
0.0
 20
0.0
 30
0.0
  9
$PUCSORGLEFT
 10
0.0
 20
0.0
 30
0.0
  9
$PUCSORGRIGHT
 10
0.0
 20
0.0
 30
0.0
  9
$PUCSORGFRONT
 10
0.0
 20
0.0
 30
0.0
  9
$PUCSORGBACK
 10
0.0
 20
0.0
 30
0.0
  9
$USERI1
 70
     0
  9
$USERI2
 70
     0
  9
$USERI3
 70
     0
  9
$USERI4
 70
     0
  9
$USERI5
 70
     0
  9
$USERR1
 40
0.0
  9
$USERR2
 40
0.0
  9
$USERR3
 40
0.0
  9
$USERR4
 40
0.0
  9
$USERR5
 40
0.0
  9
$WORLDVIEW
 70
     1
  9
$SHADEDGE
 70
     3
  9
$SHADEDIF
 70
    70
  9
$TILEMODE
 70
     1
  9
$MAXACTVP
 70
    64
  9
$PINSBASE
 10
0.0
 20
0.0
 30
0.0
  9
$PLIMCHECK
 70
     0
  9
$PEXTMIN
 10
1.000000000000000E+20
 20
1.000000000000000E+20
 30
1.000000000000000E+20
  9
$PEXTMAX
 10
-1.000000000000000E+20
 20
-1.000000000000000E+20
 30
-1.000000000000000E+20
  9
$PLIMMIN
 10
0.0
 20
0.0
  9
$PLIMMAX
 10
12.0
 20
9.0
  9
$UNITMODE
 70
     0
  9
$VISRETAIN
 70
     1
  9
$PLINEGEN
 70
     0
  9
$PSLTSCALE
 70
     1
  9
$TREEDEPTH
 70
  3020
  9
$CMLSTYLE
  2
Standard
  9
$CMLJUST
 70
     0
  9
$CMLSCALE
 40
1.0
  9
$PROXYGRAPHICS
 70
     1
  9
$MEASUREMENT
 70
     0
  9
$CELWEIGHT
370
    -1
  9
$ENDCAPS
280
     0
  9
$JOINSTYLE
280
     0
  9
$LWDISPLAY
290
     1
  9
$INSUNITS
 70
     1
  9
$HYPERLINKBASE
  1

  9
$STYLESHEET
  1

  9
$XEDIT
290
     1
  9
$CEPSNTYPE
380
     0
  9
$PSTYLEMODE
290
     1
  9
$FINGERPRINTGUID
  2
{549349A2-DE62-73D5-9E98-CC109FB65976}
  9
$VERSIONGUID
  2
{FAEB1C32-E019-11D5-929B-00C0DF256EC4}
  9
$EXTNAMES
290
     1
  9
$PSVPSCALE
 40
0.0
  9
$OLESTARTUP
290
     0
  9
$SORTENTS
280
   127
  9
$INDEXCTL
280
     0
  9
$HIDETEXT
280
     1
  9
$XCLIPFRAME
280
     2
  9
$HALOGAP
280
     0
  9
$OBSCOLOR
 70
   257
  9
$OBSLTYPE
280
     0
  9
$INTERSECTIONDISPLAY
280
     0
  9
$INTERSECTIONCOLOR
 70
   257
  9
$DIMASSOC
280
     2
  9
$PROJECTNAME
  1

  9
$CAMERADISPLAY
290
     0
  9
$LENSLENGTH
 40
50.0
  9
$CAMERAHEIGHT
 40
0.0
  9
$STEPSPERSEC
 40
2.0
  9
$STEPSIZE
 40
6.0
  9
$3DDWFPREC
 40
2.0
  9
$PSOLWIDTH
 40
0.25
  9
$PSOLHEIGHT
 40
4.0
  9
$LOFTANG1
 40
1.570796326794897
  9
$LOFTANG2
 40
1.570796326794897
  9
$LOFTMAG1
 40
0.0
  9
$LOFTMAG2
 40
0.0
  9
$LOFTPARAM
 70
     7
  9
$LOFTNORMALS
280
     1
  9
$LATITUDE
 40
37.795
  9
$LONGITUDE
 40
-122.394
  9
$NORTHDIRECTION
 40
0.0
  9
$TIMEZONE
 70
 -8000
  9
$LIGHTGLYPHDISPLAY
280
     1
  9
$TILEMODELIGHTSYNCH
280
     1
  9
$CMATERIAL
347
3C
  9
$SOLIDHIST
280
     1
  9
$SHOWHIST
280
     1
  9
$DWFFRAME
280
     2
  9
$DGNFRAME
280
     2
  9
$REALWORLDSCALE
290
     1
  9
$INTERFERECOLOR
 62
   256
  9
$CSHADOW
280
     0
  9
$SHADOWPLANELOCATION
 40
0.0
  0
ENDSEC
  0
SECTION
  2
CLASSES
  0
CLASS
  1
ACDBDICTIONARYWDFLT
  2
AcDbDictionaryWithDefault
  3
ObjectDBX Classes
 90
        0
 91
        4
280
     0
281
     0
  0
CLASS
  1
VISUALSTYLE
  2
AcDbVisualStyle
  3
ObjectDBX Classes
 90
     4095
 91
        4
280
     0
281
     0
  0
CLASS
  1
MATERIAL
  2
AcDbMaterial
  3
ObjectDBX Classes
 90
     1153
 91
        4
280
     0
281
     0
  0
CLASS
  1
SUN
  2
AcDbSun
  3
SCENEOE
 90
     1024
 91
        4
280
     0
281
     0
  0
ENDSEC
  0
SECTION
  2
TABLES
  0
TABLE
  2
VPORT
  5
8
330
0
100
AcDbSymbolTable
 70
     1
  0
VPORT
  5
29
330
8
100
AcDbSymbolTableRecord
100
AcDbViewportTableRecord
  2
*Active
 70
     0
 10
0.0
 20
0.0
 11
1.0
 21
1.0
 12
0.0
 22
0.0
 13
0.0
 23
0.0
 14
0.5
 24
0.5
 15
0.5
 25
0.5
 16
0.0
 26
0.0
 36
1.0
 17
91.00082462281999
 27
-128.4993055234307
 37
0.0
 40
256.9986110468615
 41
0.7081814508812795
 42
50.0
 43
0.0
 44
0.0
 50
0.0
 51
0.0
 71
     0
 72
   100
 73
     1
 74
     3
 75
     0
 76
     0
 77
     0
 78
     0
281
     0
 65
     1
110
0.0
120
0.0
130
0.0
111
1.0
121
0.0
131
0.0
112
0.0
122
1.0
132
0.0
 79
     0
146
0.0
 60
     3
 61
     5
292
     1
282
     1
141
0.0
142
0.0
 63
   250
361
3F
  0
ENDTAB
  0
TABLE
  2
LTYPE
  5
5
330
0
100
AcDbSymbolTable
 70
     1
  0
LTYPE
  5
14
330
5
100
AcDbSymbolTableRecord
100
AcDbLinetypeTableRecord
  2
ByBlock
 70
     0
  3

 72
    65
 73
     0
 40
0.0
  0
LTYPE
  5
15
330
5
100
AcDbSymbolTableRecord
100
AcDbLinetypeTableRecord
  2
ByLayer
 70
     0
  3

 72
    65
 73
     0
 40
0.0
  0
LTYPE
  5
16
330
5
100
AcDbSymbolTableRecord
100
AcDbLinetypeTableRecord
  2
Continuous
 70
     0
  3
Solid line
 72
    65
 73
     0
 40
0.0
  0
ENDTAB
  0
TABLE
  2
LAYER
  5
2
330
0
100
AcDbSymbolTable
 70
     2
  0
LAYER
  5
10
330
2
100
AcDbSymbolTableRecord
100
AcDbLayerTableRecord
  2
0
 70
     0
 62
     7
  6
Continuous
370
    -3
390
F
347
3E
  0
LAYER
  5
40
330
2
100
AcDbSymbolTableRecord
100
AcDbLayerTableRecord
  2
_U+30EC_U+30A4_U+30E4_U+30FC 1
 70
     0
 62
     7
  6
Continuous
370
    -3
390
F
347
3E
  0
ENDTAB
  0
TABLE
  2
STYLE
  5
3
330
0
100
AcDbSymbolTable
 70
     1
  0
STYLE
  5
11
330
3
100
AcDbSymbolTableRecord
100
AcDbTextStyleTableRecord
  2
Standard
 70
     0
 40
0.0
 41
1.0
 50
0.0
 71
     0
 42
0.2
  3
txt
  4

  0
ENDTAB
  0
TABLE
  2
VIEW
  5
6
330
0
100
AcDbSymbolTable
 70
     0
  0
ENDTAB
  0
TABLE
  2
UCS
  5
7
330
0
100
AcDbSymbolTable
 70
     0
  0
ENDTAB
  0
TABLE
  2
APPID
  5
9
330
0
100
AcDbSymbolTable
 70
     1
  0
APPID
  5
12
330
9
100
AcDbSymbolTableRecord
100
AcDbRegAppTableRecord
  2
ACAD
 70
     0
  0
ENDTAB
  0
TABLE
  2
DIMSTYLE
  5
A
330
0
100
AcDbSymbolTable
 70
     1
100
AcDbDimStyleTable
  0
DIMSTYLE
105
27
330
A
100
AcDbSymbolTableRecord
100
AcDbDimStyleTableRecord
  2
Standard
 70
     0
178
     0
340
11
  0
ENDTAB
  0
TABLE
  2
BLOCK_RECORD
  5
1
330
0
100
AcDbSymbolTable
 70
     8
  0
BLOCK_RECORD
  5
1F
330
1
100
AcDbSymbolTableRecord
100
AcDbBlockTableRecord
  2
*Model_Space
340
22
 70
     0
280
     1
281
     0
  0
BLOCK_RECORD
  5
1B
330
1
100
AcDbSymbolTableRecord
100
AcDbBlockTableRecord
  2
*Paper_Space
340
1E
 70
     0
280
     1
281
     0
  0
BLOCK_RECORD
  5
23
330
1
100
AcDbSymbolTableRecord
100
AcDbBlockTableRecord
  2
*Paper_Space0
340
26
 70
     0
280
     1
281
     0
  0
BLOCK_RECORD
  5
41
330
1
100
AcDbSymbolTableRecord
100
AcDbBlockTableRecord
  2
block 2
340
0
102
{BLKREFS
331
42
102
}
 70
     0
280
     1
281
     0
  0
BLOCK_RECORD
  5
5D
330
1
100
AcDbSymbolTableRecord
100
AcDbBlockTableRecord
  2
block 3
340
0
102
{BLKREFS
331
5E
102
}
 70
     0
280
     1
281
     0
  0
BLOCK_RECORD
  5
66
330
1
100
AcDbSymbolTableRecord
100
AcDbBlockTableRecord
  2
block 4
340
0
102
{BLKREFS
331
67
102
}
 70
     0
280
     1
281
     0
  0
BLOCK_RECORD
  5
7A
330
1
100
AcDbSymbolTableRecord
100
AcDbBlockTableRecord
  2
block 5
340
0
102
{BLKREFS
331
7B
102
}
 70
     0
280
     1
281
     0
  0
BLOCK_RECORD
  5
91
330
1
100
AcDbSymbolTableRecord
100
AcDbBlockTableRecord
  2
block 6
340
0
102
{BLKREFS
331
92
102
}
 70
     0
280
     1
281
     0
  0
BLOCK_RECORD
  5
97
330
1
100
AcDbSymbolTableRecord
100
AcDbBlockTableRecord
  2
block 7
340
0
102
{BLKREFS
331
98
102
}
 70
     0
280
     1
281
     0
  0
BLOCK_RECORD
  5
A7
330
1
100
AcDbSymbolTableRecord
100
AcDbBlockTableRecord
  2
block 8
340
0
102
{BLKREFS
331
A8
102
}
 70
     0
280
     1
281
     0
  0
ENDTAB
  0
ENDSEC
  0
SECTION
  2
BLOCKS
  0
BLOCK
  5
20
330
1F
100
AcDbEntity
  8
0
100
AcDbBlockBegin
  2
*Model_Space
 70
     0
 10
0.0
 20
0.0
 30
0.0
  3
*Model_Space
  1

  0
ENDBLK
  5
21
330
1F
100
AcDbEntity
  8
0
100
AcDbBlockEnd
  0
BLOCK
  5
1C
330
1B
100
AcDbEntity
 67
     1
  8
0
100
AcDbBlockBegin
  2
*Paper_Space
 70
     0
 10
0.0
 20
0.0
 30
0.0
  3
*Paper_Space
  1

  0
ENDBLK
  5
1D
330
1B
100
AcDbEntity
 67
     1
  8
0
100
AcDbBlockEnd
  0
BLOCK
  5
24
330
23
100
AcDbEntity
  8
0
100
AcDbBlockBegin
  2
*Paper_Space0
 70
     0
 10
0.0
 20
0.0
 30
0.0
  3
*Paper_Space0
  1

  0
ENDBLK
  5
25
330
23
100
AcDbEntity
  8
0
100
AcDbBlockEnd
  0
BLOCK
  5
43
330
41
100
AcDbEntity
  8
0
100
AcDbBlockBegin
  2
block 2
 70
     0
 10
0.0
 20
0.0
 30
0.0
  3
block 2
  1

  0
SPLINE
  5
45
330
41
100
AcDbEntity
  8
_U+30EC_U+30A4_U+30E4_U+30FC 1
 62
   179
420
  2234388
370
    25
100
AcDbSpline
210
0.0
220
0.0
230
1.0
 70
    11
 71
     3
 72
    89
 73
    85
 74
     0
 42
0.0000000001
 43
0.0000000001
 12
1.0
 22
0.0
 32
0.0
 13
1.0
 23
0.0
 33
0.0
 40
0.0
 40
0.0
 40
0.0
 40
0.0
 40
1.0
 40
1.0
 40
1.0
 40
2.0
 40
2.0
 40
2.0
 40
3.0
 40
3.0
 40
3.0
 40
4.0
 40
4.0
 40
4.0
 40
5.0
 40
5.0
 40
5.0
 40
6.0
 40
6.0
 40
6.0
 40
7.0
 40
7.0
 40
7.0
 40
8.0
 40
8.0
 40
8.0
 40
9.0
 40
9.0
 40
9.0
 40
10.0
 40
10.0
 40
10.0
 40
11.0
 40
11.0
 40
11.0
 40
12.0
 40
12.0
 40
12.0
 40
13.0
 40
13.0
 40
13.0
 40
14.0
 40
14.0
 40
14.0
 40
15.0
 40
15.0
 40
15.0
 40
16.0
 40
16.0
 40
16.0
 40
17.0
 40
17.0
 40
17.0
 40
18.0
 40
18.0
 40
18.0
 40
19.0
 40
19.0
 40
19.0
 40
20.0
 40
20.0
 40
20.0
 40
21.0
 40
21.0
 40
21.0
 40
22.0
 40
22.0
 40
22.0
 40
23.0
 40
23.0
 40
23.0
 40
24.0
 40
24.0
 40
24.0
 40
25.0
 40
25.0
 40
25.0
 40
26.0
 40
26.0
 40
26.0
 40
27.0
 40
27.0
 40
27.0
 40
28.0
 40
28.0
 40
28.0
 40
28.0
 10
88.41683329985422
 20
-134.2691624664326
 30
0.0
 10
88.41683329985422
 20
-134.2691624664326
 30
0.0
 10
111.9214988113114
 20
-134.2691624664326
 30
0.0
 10
111.9214988113114
 20
-134.2691624664326
 30
0.0
 10
111.9214988113114
 20
-134.2691624664326
 30
0.0
 10
111.9214988113114
 20
-133.2686846889052
 30
0.0
 10
111.9214988113114
 20
-133.2686846889052
 30
0.0
 10
111.9214988113114
 20
-133.2686846889052
 30
0.0
 10
85.92121280796724
 20
-133.2686846889052
 30
0.0
 10
85.92121280796724
 20
-133.2686846889052
 30
0.0
 10
85.92121280796724
 20
-133.2686846889052
 30
0.0
 10
85.92121280796724
 20
-107.2688919176273
 30
0.0
 10
85.92121280796724
 20
-107.2688919176273
 30
0.0
 10
85.92121280796724
 20
-107.2688919176273
 30
0.0
 10
84.92126422236694
 20
-107.2688919176273
 30
0.0
 10
84.92126422236694
 20
-107.2688919176273
 30
0.0
 10
84.92126422236694
 20
-107.2688919176273
 30
0.0
 10
84.92126422236694
 20
-130.6683244117774
 30
0.0
 10
84.92126422236694
 20
-130.6683244117774
 30
0.0
 10
83.8155528616871
 20
-131.7810913559437
 30
0.0
 10
76.45357471617348
 20
-139.2810763540686
 30
0.0
 10
75.97072778404748
 20
-139.6118055206526
 30
0.0
 10
75.41228057607243
 20
-139.9935110761129
 30
0.0
 10
74.92153331460302
 20
-139.6703666317488
 30
0.0
 10
74.92153331460302
 20
-139.0233721874665
 30
0.0
 10
74.92153331460302
 20
-139.0233721874665
 30
0.0
 10
74.92153331460302
 20
-122.5599741360267
 30
0.0
 10
74.92153331460302
 20
-122.5599741360267
 30
0.0
 10
74.92153331460302
 20
-122.5599741360267
 30
0.0
 10
74.42146893468349
 20
-122.5599741360267
 30
0.0
 10
74.42146893468349
 20
-122.5599741360267
 30
0.0
 10
74.42146893468349
 20
-122.5599741360267
 30
0.0
 10
73.9424320024603
 20
-139.259027742963
 30
0.0
 10
73.9424320024603
 20
-139.259027742963
 30
0.0
 10
73.9424320024603
 20
-139.259027742963
 30
0.0
 10
73.90676617003686
 20
-141.0222110758554
 30
0.0
 10
73.926063113989
 20
-141.4080794090925
 30
0.0
 10
73.9501931133734
 20
-141.8917730200828
 30
0.0
 10
73.99997005654792
 20
-142.1818621866769
 30
0.0
 10
74.23714442588505
 20
-142.2955271866486
 30
0.0
 10
74.50172775915225
 20
-142.42231551995
 30
0.0
 10
74.73600559332566
 20
-142.3458332977469
 30
0.0
 10
75.05950280729478
 20
-142.0516166311535
 30
0.0
 10
75.36335029954297
 20
-141.7753210756671
 30
0.0
 10
83.74887786338812
 20
-133.4388999666404
 30
0.0
 10
84.92126422236694
 20
-132.2827060780403
 30
0.0
 10
84.92126422236694
 20
-132.2827060780403
 30
0.0
 10
84.92126422236694
 20
-134.2691624664326
 30
0.0
 10
84.92126422236694
 20
-134.2691624664326
 30
0.0
 10
84.92126422236694
 20
-134.2691624664326
 30
0.0
 10
85.45043087553344
 20
-134.2691624664326
 30
0.0
 10
85.45043087553344
 20
-134.2691624664326
 30
0.0
 10
85.45043087553344
 20
-134.2691624664326
 30
0.0
 10
85.92121280796724
 20
-134.2691624664326
 30
0.0
 10
85.92121280796724
 20
-134.2691624664326
 30
0.0
 10
85.92121280796724
 20
-134.2691624664326
 30
0.0
 10
86.80760222979801
 20
-134.2691624664326
 30
0.0
 10
86.80760222979801
 20
-134.2691624664326
 30
0.0
 10
84.90249644506797
 20
-136.2004796881718
 30
0.0
 10
77.40752108072518
 20
-143.8437630195947
 30
0.0
 10
77.14635969849905
 20
-144.1310652417449
 30
0.0
 10
76.85231942822287
 20
-144.4542449638864
 30
0.0
 10
76.71212554291063
 20
-144.6891949638274
 30
0.0
 10
76.83888053634573
 20
-144.9592816304268
 30
0.0
 10
76.98443470263011
 20
-145.2693380192381
 30
0.0
 10
77.3063796944166
 20
-145.2404102414674
 30
0.0
 10
77.78972051541889
 20
-145.2645049636839
 30
0.0
 10
78.1757652277923
 20
-145.2838019081237
 30
0.0
 10
79.93912490502747
 20
-145.247994963688
 30
0.0
 10
79.93912490502747
 20
-145.247994963688
 30
0.0
 10
79.93912490502747
 20
-145.247994963688
 30
0.0
 10
96.63009947920523
 20
-144.7690991304744
 30
0.0
 10
96.63009947920523
 20
-144.7690991304744
 30
0.0
 10
96.63009947920523
 20
-144.7690991304744
 30
0.0
 10
96.63009947920523
 20
-144.2688955194882
 30
0.0
 10
96.63009947920523
 20
-144.2688955194882
 30
0.0
 10
96.63009947920523
 20
-144.2688955194882
 30
0.0
 10
80.17425128791778
 20
-144.2688955194882
 30
0.0
 10
80.17425128791778
 20
-144.2688955194882
 30
0.0
 10
79.52760963774831
 20
-144.2688955194882
 30
0.0
 10
79.2041124237792
 20
-143.7782874640553
 30
0.0
 10
79.5863471362498
 20
-143.2195227419729
 30
0.0
 10
79.89746386891444
 20
-142.7647569087533
 30
0.0
 10
86.58919751314775
 20
-136.0847332993123
 30
0.0
 10
88.41683329985422
 20
-134.2691624664326
 30
0.0
  0
SPLINE
  5
46
330
41
100
AcDbEntity
  8
_U+30EC_U+30A4_U+30E4_U+30FC 1
 62
     7
420
 16777215
370
     9
100
AcDbSpline
210
0.0
220
0.0
230
1.0
 70
    11
 71
     3
 72
    17
 73
    13
 74
     0
 42
0.0000000001
 43
0.0000000001
 12
1.0
 22
0.0
 32
0.0
 13
1.0
 23
0.0
 33
0.0
 40
0.0
 40
0.0
 40
0.0
 40
0.0
 40
1.0
 40
1.0
 40
1.0
 40
2.0
 40
2.0
 40
2.0
 40
3.0
 40
3.0
 40
3.0
 40
4.0
 40
4.0
 40
4.0
 40
4.0
 10
115.3128573359017
 20
-144.2688955194882
 30
0.0
 10
115.3128573359017
 20
-144.2130860750577
 30
0.0
 10
115.2680545592669
 20
-144.1689888528465
 30
0.0
 10
115.2129506717839
 20
-144.1689888528465
 30
0.0
 10
115.1578115065239
 20
-144.1689888528465
 30
0.0
 10
115.113044007666
 20
-144.2130860750577
 30
0.0
 10
115.113044007666
 20
-144.2688955194882
 30
0.0
 10
115.113044007666
 20
-144.3239994083637
 30
0.0
 10
115.1578115065239
 20
-144.3688021861298
 30
0.0
 10
115.2129506717839
 20
-144.3688021861298
 30
0.0
 10
115.2680545592669
 20
-144.3688021861298
 30
0.0
 10
115.3128573359017
 20
-144.3239994083637
 30
0.0
 10
115.3128573359017
 20
-144.2688955194882
 30
0.0
  0
SPLINE
  5
47
330
41
100
AcDbEntity
  8
_U+30EC_U+30A4_U+30E4_U+30FC 1
 62
     7
420
 16777215
370
     9
100
AcDbSpline
210
0.0
220
0.0
230
1.0
 70
    11
 71
     3
 72
    17
 73
    13
 74
     0
 42
0.0000000001
 43
0.0000000001
 12
1.0
 22
0.0
 32
0.0
 13
1.0
 23
0.0
 33
0.0
 40
0.0
 40
0.0
 40
0.0
 40
0.0
 40
1.0
 40
1.0
 40
1.0
 40
2.0
 40
2.0
 40
2.0
 40
3.0
 40
3.0
 40
3.0
 40
4.0
 40
4.0
 40
4.0
 40
4.0
 10
115.3128573359017
 20
-134.2691624664326
 30
0.0
 10
115.3128573359017
 20
-134.2133530220022
 30
0.0
 10
115.2680545592669
 20
-134.169255799791
 30
0.0
 10
115.2129506717839
 20
-134.169255799791
 30
0.0
 10
115.1578115065239
 20
-134.169255799791
 30
0.0
 10
115.113044007666
 20
-134.2133530220022
 30
0.0
 10
115.113044007666
 20
-134.2691624664326
 30
0.0
 10
115.113044007666
 20
-134.3242663553075
 30
0.0
 10
115.1578115065239
 20
-134.3690691330742
 30
0.0
 10
115.2129506717839
 20
-134.3690691330742
 30
0.0
 10
115.2680545592669
 20
-134.3690691330742
 30
0.0
 10
115.3128573359017
 20
-134.3242663553075
 30
0.0
 10
115.3128573359017
 20
-134.2691624664326
 30
0.0
  0
SPLINE
  5
48
330
41
100
AcDbEntity
  8
_U+30EC_U+30A4_U+30E4_U+30FC 1
 62
     7
420
 16777215
370
     9
100
AcDbSpline
210
0.0
220
0.0
230
1.0
 70
    11
 71
     3
 72
    17
 73
    13
 74
     0
 42
0.0000000001
 43
0.0000000001
 12
1.0
 22
0.0
 32
0.0
 13
1.0
 23
0.0
 33
0.0
 40
0.0
 40
0.0
 40
0.0
 40
0.0
 40
1.0
 40
1.0
 40
1.0
 40
2.0
 40
2.0
 40
2.0
 40
3.0
 40
3.0
 40
3.0
 40
4.0
 40
4.0
 40
4.0
 40
4.0
 10
115.3128573359017
 20
-133.3107358000055
 30
0.0
 10
115.3128573359017
 20
-133.254926355575
 30
0.0
 10
115.2680545592669
 20
-133.2101235778083
 30
0.0
 10
115.2129506717839
 20
-133.2101235778083
 30
0.0
 10
115.1578115065239
 20
-133.2101235778083
 30
0.0
 10
115.113044007666
 20
-133.254926355575
 30
0.0
 10
115.113044007666
 20
-133.3107358000055
 30
0.0
 10
115.113044007666
 20
-133.365839688881
 30
0.0
 10
115.1578115065239
 20
-133.4106424666471
 30
0.0
 10
115.2129506717839
 20
-133.4106424666471
 30
0.0
 10
115.2680545592669
 20
-133.4106424666471
 30
0.0
 10
115.3128573359017
 20
-133.365839688881
 30
0.0
 10
115.3128573359017
 20
-133.3107358000055
 30
0.0
  0
POLYLINE
  5
49
330
41
100
AcDbEntity
  8
_U+30EC_U+30A4_U+30E4_U+30FC 1
 62
     7
420
 16777215
370
     9
100
AcDb2dPolyline
 66
     1
 10
0.0
 20
0.0
 30
0.0
  0
VERTEX
  5
4A
330
49
100
AcDbEntity
  8
_U+30EC_U+30A4_U+30E4_U+30FC 1
 62
     7
420
 16777215
370
     9
100
AcDbVertex
100
AcDb2dVertex
 10
115.2129506717839
 20
-134.2636238553229
 30
0.0
  0
VERTEX
  5
4B
330
49
100
AcDbEntity
  8
_U+30EC_U+30A4_U+30E4_U+30FC 1
 62
     7
420
 16777215
370
     9
100
AcDbVertex
100
AcDb2dVertex
 10
115.2129506717839
 20
-144.2633569083785
 30
0.0
  0
SEQEND
  5
4C
330
49
100
AcDbEntity
  8
_U+30EC_U+30A4_U+30E4_U+30FC 1
 62
     7
420
 16777215
370
     9
  0
POLYLINE
  5
4D
330
41
100
AcDbEntity
  8
_U+30EC_U+30A4_U+30E4_U+30FC 1
 62
     7
420
 16777215
370
     9
100
AcDb2dPolyline
 66
     1
 10
0.0
 20
0.0
 30
0.0
  0
VERTEX
  5
4E
330
4D
100
AcDbEntity
  8
_U+30EC_U+30A4_U+30E4_U+30FC 1
 62
     7
420
 16777215
370
     9
100
AcDbVertex
100
AcDb2dVertex
 10
115.2129506717839
 20
-133.2576780222415
 30
0.0
  0
VERTEX
  5
4F
330
4D
100
AcDbEntity
  8
_U+30EC_U+30A4_U+30E4_U+30FC 1
 62
     7
420
 16777215
370
     9
100
AcDbVertex
100
AcDb2dVertex
 10
115.2129506717839
 20
-134.2581205219907
 30
0.0
  0
SEQEND
  5
50
330
4D
100
AcDbEntity
  8
_U+30EC_U+30A4_U+30E4_U+30FC 1
 62
     7
420
 16777215
370
     9
  0
POLYLINE
  5
51
330
41
100
AcDbEntity
  8
_U+30EC_U+30A4_U+30E4_U+30FC 1
 62
     7
420
 16777215
370
     9
100
AcDb2dPolyline
 66
     1
 10
0.0
 20
0.0
 30
0.0
  0
VERTEX
  5
52
330
51
100
AcDbEntity
  8
_U+30EC_U+30A4_U+30E4_U+30FC 1
 62
     7
420
 16777215
370
     9
100
AcDbVertex
100
AcDb2dVertex
 10
116.180337869326
 20
-133.2790210777915
 30
0.0
  0
VERTEX
  5
53
330
51
100
AcDbEntity
  8
_U+30EC_U+30A4_U+30E4_U+30FC 1
 62
     7
420
 16777215
370
     9
100
AcDbVertex
100
AcDb2dVertex
 10
113.2203207226201
 20
-133.2790210777915
 30
0.0
  0
SEQEND
  5
54
330
51
100
AcDbEntity
  8
_U+30EC_U+30A4_U+30E4_U+30FC 1
 62
     7
420
 16777215
370
     9
  0
POLYLINE
  5
55
330
41
100
AcDbEntity
  8
_U+30EC_U+30A4_U+30E4_U+30FC 1
 62
     7
420
 16777215
370
     9
100
AcDb2dPolyline
 66
     1
 10
0.0
 20
0.0
 30
0.0
  0
VERTEX
  5
56
330
55
100
AcDbEntity
  8
_U+30EC_U+30A4_U+30E4_U+30FC 1
 62
     7
420
 16777215
370
     9
100
AcDbVertex
100
AcDb2dVertex
 10
116.180337869326
 20
-144.2688955194882
 30
0.0
  0
VERTEX
  5
57
330
55
100
AcDbEntity
  8
_U+30EC_U+30A4_U+30E4_U+30FC 1
 62
     7
420
 16777215
370
     9
100
AcDbVertex
100
AcDb2dVertex
 10
98.14457444056775
 20
-144.2688955194882
 30
0.0
  0
SEQEND
  5
58
330
55
100
AcDbEntity
  8
_U+30EC_U+30A4_U+30E4_U+30FC 1
 62
     7
420
 16777215
370
     9
  0
POLYLINE
  5
59
330
41
100
AcDbEntity
  8
_U+30EC_U+30A4_U+30E4_U+30FC 1
 62
     7
420
 16777215
370
     9
100
AcDb2dPolyline
 66
     1
 10
0.0
 20
0.0
 30
0.0
  0
VERTEX
  5
5A
330
59
100
AcDbEntity
  8
_U+30EC_U+30A4_U+30E4_U+30FC 1
 62
     7
420
 16777215
370
     9
100
AcDbVertex
100
AcDb2dVertex
 10
116.180337869326
 20
-134.2691624664326
 30
0.0
  0
VERTEX
  5
5B
330
59
100
AcDbEntity
  8
_U+30EC_U+30A4_U+30E4_U+30FC 1
 62
     7
420
 16777215
370
     9
100
AcDbVertex
100
AcDb2dVertex
 10
113.2203207226201
 20
-134.2691624664326
 30
0.0
  0
SEQEND
  5
5C
330
59
100
AcDbEntity
  8
_U+30EC_U+30A4_U+30E4_U+30FC 1
 62
     7
420
 16777215
370
     9
  0
INSERT
  5
5E
330
41
100
AcDbEntity
  8
_U+30EC_U+30A4_U+30E4_U+30FC 1
100
AcDbBlockReference
  2
block 3
 10
0.0
 20
0.0
 30
0.0
  0
INSERT
  5
67
330
41
100
AcDbEntity
  8
_U+30EC_U+30A4_U+30E4_U+30FC 1
100
AcDbBlockReference
  2
block 4
 10
0.0
 20
0.0
 30
0.0
  0
SPLINE
  5
6C
330
41
100
AcDbEntity
  8
_U+30EC_U+30A4_U+30E4_U+30FC 1
 62
     7
420
 16777215
370
     9
100
AcDbSpline
210
0.0
220
0.0
230
1.0
 70
    11
 71
     3
 72
    17
 73
    13
 74
     0
 42
0.0000000001
 43
0.0000000001
 12
1.0
 22
0.0
 32
0.0
 13
1.0
 23
0.0
 33
0.0
 40
0.0
 40
0.0
 40
0.0
 40
0.0
 40
1.0
 40
1.0
 40
1.0
 40
2.0
 40
2.0
 40
2.0
 40
3.0
 40
3.0
 40
3.0
 40
4.0
 40
4.0
 40
4.0
 40
4.0
 10
96.73000614332307
 20
-148.5139410739824
 30
0.0
 10
96.73000614332307
 20
-148.45880190733
 30
0.0
 10
96.68523864446517
 20
-148.4140344073408
 30
0.0
 10
96.63009947920523
 20
-148.4140344073408
 30
0.0
 10
96.57499559172216
 20
-148.4140344073408
 30
0.0
 10
96.53019281508739
 20
-148.45880190733
 30
0.0
 10
96.53019281508739
 20
-148.5139410739824
 30
0.0
 10
96.53019281508739
 20
-148.569044962858
 30
0.0
 10
96.57499559172216
 20
-148.613847740624
 30
0.0
 10
96.63009947920523
 20
-148.613847740624
 30
0.0
 10
96.68523864446517
 20
-148.613847740624
 30
0.0
 10
96.73000614332307
 20
-148.569044962858
 30
0.0
 10
96.73000614332307
 20
-148.5139410739824
 30
0.0
  0
POLYLINE
  5
6D
330
41
100
AcDbEntity
  8
_U+30EC_U+30A4_U+30E4_U+30FC 1
 62
     7
420
 16777215
370
     9
100
AcDb2dPolyline
 66
     1
 10
0.0
 20
0.0
 30
0.0
  0
VERTEX
  5
6E
330
6D
100
AcDbEntity
  8
_U+30EC_U+30A4_U+30E4_U+30FC 1
 62
     7
420
 16777215
370
     9
100
AcDbVertex
100
AcDb2dVertex
 10
76.63133943386055
 20
-148.5139410739824
 30
0.0
  0
VERTEX
  5
6F
330
6D
100
AcDbEntity
  8
_U+30EC_U+30A4_U+30E4_U+30FC 1
 62
     7
420
 16777215
370
     9
100
AcDbVertex
100
AcDb2dVertex
 10
96.63147775361965
 20
-148.5139410739824
 30
0.0
  0
SEQEND
  5
70
330
6D
100
AcDbEntity
  8
_U+30EC_U+30A4_U+30E4_U+30FC 1
 62
     7
420
 16777215
370
     9
  0
SPLINE
  5
71
330
41
100
AcDbEntity
  8
_U+30EC_U+30A4_U+30E4_U+30FC 1
 62
     7
420
 16777215
370
     9
100
AcDbSpline
210
0.0
220
0.0
230
1.0
 70
    11
 71
     3
 72
    17
 73
    13
 74
     0
 42
0.0000000001
 43
0.0000000001
 12
1.0
 22
0.0
 32
0.0
 13
1.0
 23
0.0
 33
0.0
 40
0.0
 40
0.0
 40
0.0
 40
0.0
 40
1.0
 40
1.0
 40
1.0
 40
2.0
 40
2.0
 40
2.0
 40
3.0
 40
3.0
 40
3.0
 40
4.0
 40
4.0
 40
4.0
 40
4.0
 10
76.73124609797839
 20
-148.5139410739824
 30
0.0
 10
76.73124609797839
 20
-148.45880190733
 30
0.0
 10
76.68644332134362
 20
-148.4140344073408
 30
0.0
 10
76.63133943386055
 20
-148.4140344073408
 30
0.0
 10
76.5762002686006
 20
-148.4140344073408
 30
0.0
 10
76.53143276974271
 20
-148.45880190733
 30
0.0
 10
76.53143276974271
 20
-148.5139410739824
 30
0.0
 10
76.53143276974271
 20
-148.569044962858
 30
0.0
 10
76.5762002686006
 20
-148.613847740624
 30
0.0
 10
76.63133943386055
 20
-148.613847740624
 30
0.0
 10
76.68644332134362
 20
-148.613847740624
 30
0.0
 10
76.73124609797839
 20
-148.569044962858
 30
0.0
 10
76.73124609797839
 20
-148.5139410739824
 30
0.0
  0
POLYLINE
  5
72
330
41
100
AcDbEntity
  8
_U+30EC_U+30A4_U+30E4_U+30FC 1
 62
     7
420
 16777215
370
     9
100
AcDb2dPolyline
 66
     1
 10
0.0
 20
0.0
 30
0.0
  0
VERTEX
  5
73
330
72
100
AcDbEntity
  8
_U+30EC_U+30A4_U+30E4_U+30FC 1
 62
     7
420
 16777215
370
     9
100
AcDbVertex
100
AcDb2dVertex
 10
76.63133943386055
 20
-146.2539407967701
 30
0.0
  0
VERTEX
  5
74
330
72
100
AcDbEntity
  8
_U+30EC_U+30A4_U+30E4_U+30FC 1
 62
     7
420
 16777215
370
     9
100
AcDbVertex
100
AcDb2dVertex
 10
76.63133943386055
 20
-149.5137132959549
 30
0.0
  0
SEQEND
  5
75
330
72
100
AcDbEntity
  8
_U+30EC_U+30A4_U+30E4_U+30FC 1
 62
     7
420
 16777215
370
     9
  0
POLYLINE
  5
76
330
41
100
AcDbEntity
  8
_U+30EC_U+30A4_U+30E4_U+30FC 1
 62
     7
420
 16777215
370
     9
100
AcDb2dPolyline
 66
     1
 10
0.0
 20
0.0
 30
0.0
  0
VERTEX
  5
77
330
76
100
AcDbEntity
  8
_U+30EC_U+30A4_U+30E4_U+30FC 1
 62
     7
420
 16777215
370
     9
100
AcDbVertex
100
AcDb2dVertex
 10
96.63009947920523
 20
-146.553660796695
 30
0.0
  0
VERTEX
  5
78
330
76
100
AcDbEntity
  8
_U+30EC_U+30A4_U+30E4_U+30FC 1
 62
     7
420
 16777215
370
     9
100
AcDbVertex
100
AcDb2dVertex
 10
96.63009947920523
 20
-149.5137132959549
 30
0.0
  0
SEQEND
  5
79
330
76
100
AcDbEntity
  8
_U+30EC_U+30A4_U+30E4_U+30FC 1
 62
     7
420
 16777215
370
     9
  0
INSERT
  5
7B
330
41
100
AcDbEntity
  8
_U+30EC_U+30A4_U+30E4_U+30FC 1
100
AcDbBlockReference
  2
block 5
 10
0.0
 20
0.0
 30
0.0
  0
SPLINE
  5
83
330
41
100
AcDbEntity
  8
_U+30EC_U+30A4_U+30E4_U+30FC 1
 62
     7
420
 16777215
370
     9
100
AcDbSpline
210
0.0
220
0.0
230
1.0
 70
    11
 71
     3
 72
    17
 73
    13
 74
     0
 42
0.0000000001
 43
0.0000000001
 12
1.0
 22
0.0
 32
0.0
 13
1.0
 23
0.0
 33
0.0
 40
0.0
 40
0.0
 40
0.0
 40
0.0
 40
1.0
 40
1.0
 40
1.0
 40
2.0
 40
2.0
 40
2.0
 40
3.0
 40
3.0
 40
3.0
 40
4.0
 40
4.0
 40
4.0
 40
4.0
 10
72.41832620801013
 20
-144.6609374638348
 30
0.0
 10
72.45794315144387
 20
-144.7002016304918
 30
0.0
 10
72.52080814984005
 20
-144.6995313527138
 30
0.0
 10
72.55989592662061
 20
-144.6609374638348
 30
0.0
 10
72.59884442629487
 20
-144.6216732971778
 30
0.0
 10
72.59937175894683
 20
-144.5589494083047
 30
0.0
 10
72.5597548155131
 20
-144.5190149638703
 30
0.0
 10
72.52080814984005
 20
-144.4804210749913
 30
0.0
 10
72.4574139847907
 20
-144.4804210749913
 30
0.0
 10
72.41850259689453
 20
-144.5190149638703
 30
0.0
 10
72.37937954233708
 20
-144.5582791305274
 30
0.0
 10
72.37937954233708
 20
-144.6216732971778
 30
0.0
 10
72.41832620801013
 20
-144.6609374638348
 30
0.0
  0
SPLINE
  5
84
330
41
100
AcDbEntity
  8
_U+30EC_U+30A4_U+30E4_U+30FC 1
 62
     7
420
 16777215
370
     9
100
AcDbSpline
210
0.0
220
0.0
230
1.0
 70
    11
 71
     3
 72
    17
 73
    13
 74
     0
 42
0.0000000001
 43
0.0000000001
 12
1.0
 22
0.0
 32
0.0
 13
1.0
 23
0.0
 33
0.0
 40
0.0
 40
0.0
 40
0.0
 40
0.0
 40
1.0
 40
1.0
 40
1.0
 40
2.0
 40
2.0
 40
2.0
 40
3.0
 40
3.0
 40
3.0
 40
4.0
 40
4.0
 40
4.0
 40
4.0
 10
74.5101944258169
 20
-146.7528038522009
 30
0.0
 10
74.54945670919602
 20
-146.7920680188573
 30
0.0
 10
74.61285275912464
 20
-146.7920680188573
 30
0.0
 10
74.65193865102593
 20
-146.7528038522009
 30
0.0
 10
74.69088531669898
 20
-146.7135396855439
 30
0.0
 10
74.69088531669898
 20
-146.6501455188929
 30
0.0
 10
74.65158587325716
 20
-146.6108460744583
 30
0.0
 10
74.61267448536098
 20
-146.5722874633568
 30
0.0
 10
74.54928032031164
 20
-146.5722874633568
 30
0.0
 10
74.51033365463857
 20
-146.6108460744583
 30
0.0
 10
74.47124587785801
 20
-146.6501455188929
 30
0.0
 10
74.47124587785801
 20
-146.7135396855439
 30
0.0
 10
74.5101944258169
 20
-146.7528038522009
 30
0.0
  0
POLYLINE
  5
85
330
41
100
AcDbEntity
  8
_U+30EC_U+30A4_U+30E4_U+30FC 1
 62
     7
420
 16777215
370
     9
100
AcDb2dPolyline
 66
     1
 10
0.0
 20
0.0
 30
0.0
  0
VERTEX
  5
86
330
85
100
AcDbEntity
  8
_U+30EC_U+30A4_U+30E4_U+30FC 1
 62
     7
420
 16777215
370
     9
100
AcDbVertex
100
AcDb2dVertex
 10
74.6183542074383
 20
-146.7190430188761
 30
0.0
  0
VERTEX
  5
87
330
85
100
AcDbEntity
  8
_U+30EC_U+30A4_U+30E4_U+30FC 1
 62
     7
420
 16777215
370
     9
100
AcDbVertex
100
AcDb2dVertex
 10
72.49703092822443
 20
-144.5975432971837
 30
0.0
  0
SEQEND
  5
88
330
85
100
AcDbEntity
  8
_U+30EC_U+30A4_U+30E4_U+30FC 1
 62
     7
420
 16777215
370
     9
  0
POLYLINE
  5
89
330
41
100
AcDbEntity
  8
_U+30EC_U+30A4_U+30E4_U+30FC 1
 62
     7
420
 16777215
370
     9
100
AcDb2dPolyline
 66
     1
 10
0.0
 20
0.0
 30
0.0
  0
VERTEX
  5
8A
330
89
100
AcDbEntity
  8
_U+30EC_U+30A4_U+30E4_U+30FC 1
 62
     7
420
 16777215
370
     9
100
AcDbVertex
100
AcDb2dVertex
 10
73.91918394749784
 20
-147.388086074264
 30
0.0
  0
VERTEX
  5
8B
330
89
100
AcDbEntity
  8
_U+30EC_U+30A4_U+30E4_U+30FC 1
 62
     7
420
 16777215
370
     9
100
AcDbVertex
100
AcDb2dVertex
 10
76.01224972743262
 20
-145.295514130343
 30
0.0
  0
SEQEND
  5
8C
330
89
100
AcDbEntity
  8
_U+30EC_U+30A4_U+30E4_U+30FC 1
 62
     7
420
 16777215
370
     9
  0
POLYLINE
  5
8D
330
41
100
AcDbEntity
  8
_U+30EC_U+30A4_U+30E4_U+30FC 1
 62
     7
420
 16777215
370
     9
100
AcDb2dPolyline
 66
     1
 10
0.0
 20
0.0
 30
0.0
  0
VERTEX
  5
8E
330
8D
100
AcDbEntity
  8
_U+30EC_U+30A4_U+30E4_U+30FC 1
 62
     7
420
 16777215
370
     9
100
AcDbVertex
100
AcDb2dVertex
 10
71.80491622365953
 20
-145.2741710747929
 30
0.0
  0
VERTEX
  5
8F
330
8D
100
AcDbEntity
  8
_U+30EC_U+30A4_U+30E4_U+30FC 1
 62
     7
420
 16777215
370
     9
100
AcDbVertex
100
AcDb2dVertex
 10
73.89798200359431
 20
-143.1809288530939
 30
0.0
  0
SEQEND
  5
90
330
8D
100
AcDbEntity
  8
_U+30EC_U+30A4_U+30E4_U+30FC 1
 62
     7
420
 16777215
370
     9
  0
INSERT
  5
92
330
41
100
AcDbEntity
  8
_U+30EC_U+30A4_U+30E4_U+30FC 1
100
AcDbBlockReference
  2
block 6
 10
0.0
 20
0.0
 30
0.0
  0
INSERT
  5
98
330
41
100
AcDbEntity
  8
_U+30EC_U+30A4_U+30E4_U+30FC 1
100
AcDbBlockReference
  2
block 7
 10
0.0
 20
0.0
 30
0.0
  0
INSERT
  5
A8
330
41
100
AcDbEntity
  8
_U+30EC_U+30A4_U+30E4_U+30FC 1
100
AcDbBlockReference
  2
block 8
 10
0.0
 20
0.0
 30
0.0
  0
ENDBLK
  5
44
330
41
100
AcDbEntity
  8
0
100
AcDbBlockEnd
  0
BLOCK
  5
5F
330
5D
100
AcDbEntity
  8
0
100
AcDbBlockBegin
  2
block 3
 70
     0
 10
0.0
 20
0.0
 30
0.0
  3
block 3
  1

  0
SPLINE
  5
61
330
5D
100
AcDbEntity
  8
_U+30EC_U+30A4_U+30E4_U+30FC 1
370
     0
100
AcDbSpline
210
0.0
220
0.0
230
1.0
 70
    11
 71
     3
 72
    26
 73
    22
 74
     0
 42
0.0000000001
 43
0.0000000001
 12
1.0
 22
0.0
 32
0.0
 13
1.0
 23
0.0
 33
0.0
 40
0.0
 40
0.0
 40
0.0
 40
0.0
 40
1.0
 40
1.0
 40
1.0
 40
2.0
 40
2.0
 40
2.0
 40
3.0
 40
3.0
 40
3.0
 40
4.0
 40
4.0
 40
4.0
 40
5.0
 40
5.0
 40
5.0
 40
6.0
 40
6.0
 40
6.0
 40
7.0
 40
7.0
 40
7.0
 40
7.0
 10
114.741661212634
 20
-140.0186712974606
 30
0.0
 10
114.741661212634
 20
-140.0186712974606
 30
0.0
 10
113.6371636000629
 20
-140.0186712974606
 30
0.0
 10
113.6371636000629
 20
-140.0186712974606
 30
0.0
 10
113.6371636000629
 20
-140.0186712974606
 30
0.0
 10
113.6371636000629
 20
-140.3487114449476
 30
0.0
 10
113.6371636000629
 20
-140.3487114449476
 30
0.0
 10
113.6371636000629
 20
-140.3487114449476
 30
0.0
 10
113.4893690037457
 20
-140.3487114449476
 30
0.0
 10
113.4893690037457
 20
-140.3487114449476
 30
0.0
 10
113.4745550931591
 20
-140.0166042401695
 30
0.0
 10
113.3116020767068
 20
-139.9700954511186
 30
0.0
 10
113.1972249065965
 20
-139.9404676299454
 30
0.0
 10
113.1972249065965
 20
-139.9404676299454
 30
0.0
 10
113.1972249065965
 20
-139.7943955813708
 30
0.0
 10
113.1972249065965
 20
-139.7943955813708
 30
0.0
 10
113.1972249065965
 20
-139.7943955813708
 30
0.0
 10
114.741661212634
 20
-139.7943955813708
 30
0.0
 10
114.741661212634
 20
-139.7943955813708
 30
0.0
 10
114.741661212634
 20
-139.7943955813708
 30
0.0
 10
114.741661212634
 20
-140.0186712974606
 30
0.0
 10
114.741661212634
 20
-140.0186712974606
 30
0.0
  0
HATCH
  5
62
330
5D
100
AcDbEntity
  8
_U+30EC_U+30A4_U+30E4_U+30FC 1
 62
     7
420
 16777215
100
AcDbHatch
 10
0.0
 20
0.0
 30
0.0
210
0.0
220
0.0
230
1.0
  2
SOLID
 70
     1
 71
     0
 91
        1
 92
        1
 93
        1
 72
     4
 94
        3
 73
     0
 74
     1
 95
       26
 96
       22
 40
0.0
 40
0.0
 40
0.0
 40
0.0
 40
1.0
 40
1.0
 40
1.0
 40
2.0
 40
2.0
 40
2.0
 40
3.0
 40
3.0
 40
3.0
 40
4.0
 40
4.0
 40
4.0
 40
5.0
 40
5.0
 40
5.0
 40
6.0
 40
6.0
 40
6.0
 40
7.0
 40
7.0
 40
7.0
 40
7.0
 10
114.741661212634
 20
-140.0186712974606
 10
114.741661212634
 20
-140.0186712974606
 10
113.6371636000629
 20
-140.0186712974606
 10
113.6371636000629
 20
-140.0186712974606
 10
113.6371636000629
 20
-140.0186712974606
 10
113.6371636000629
 20
-140.3487114449476
 10
113.6371636000629
 20
-140.3487114449476
 10
113.6371636000629
 20
-140.3487114449476
 10
113.4893690037457
 20
-140.3487114449476
 10
113.4893690037457
 20
-140.3487114449476
 10
113.4745550931591
 20
-140.0166042401695
 10
113.3116020767068
 20
-139.9700954511186
 10
113.1972249065965
 20
-139.9404676299454
 10
113.1972249065965
 20
-139.9404676299454
 10
113.1972249065965
 20
-139.7943955813708
 10
113.1972249065965
 20
-139.7943955813708
 10
113.1972249065965
 20
-139.7943955813708
 10
114.741661212634
 20
-139.7943955813708
 10
114.741661212634
 20
-139.7943955813708
 10
114.741661212634
 20
-139.7943955813708
 10
114.741661212634
 20
-140.0186712974606
 10
114.741661212634
 20
-140.0186712974606
 97
        0
 97
        0
 75
     2
 76
     1
 98
        0
  0
SPLINE
  5
63
330
5D
100
AcDbEntity
  8
_U+30EC_U+30A4_U+30E4_U+30FC 1
370
     0
100
AcDbSpline
210
0.0
220
0.0
230
1.0
 70
    11
 71
     3
 72
    29
 73
    25
 74
     0
 42
0.0000000001
 43
0.0000000001
 12
1.0
 22
0.0
 32
0.0
 13
1.0
 23
0.0
 33
0.0
 40
0.0
 40
0.0
 40
0.0
 40
0.0
 40
1.0
 40
1.0
 40
1.0
 40
2.0
 40
2.0
 40
2.0
 40
3.0
 40
3.0
 40
3.0
 40
4.0
 40
4.0
 40
4.0
 40
5.0
 40
5.0
 40
5.0
 40
6.0
 40
6.0
 40
6.0
 40
7.0
 40
7.0
 40
7.0
 40
8.0
 40
8.0
 40
8.0
 40
8.0
 10
114.5638942855951
 20
-138.3953423048109
 30
0.0
 10
114.7733560910983
 20
-138.5035183030477
 30
0.0
 10
114.7923041162672
 20
-138.6768066059558
 30
0.0
 10
114.7923041162672
 20
-138.7932508333573
 30
0.0
 10
114.7923041162672
 20
-138.9541367925184
 30
0.0
 10
114.7457953272163
 20
-139.0957302169622
 30
0.0
 10
114.5638942855951
 20
-139.1908148523551
 30
0.0
 10
114.3692463906785
 20
-139.2945122264611
 30
0.0
 10
114.1322238212933
 20
-139.3138047611785
 30
0.0
 10
113.969270804841
 20
-139.3138047611785
 30
0.0
 10
113.8256103231061
 20
-139.3138047611785
 30
0.0
 10
113.5737738431343
 20
-139.2965792837522
 30
0.0
 10
113.3749918336354
 20
-139.1908148523551
 30
0.0
 10
113.1717312000057
 20
-139.0829833636668
 30
0.0
 10
113.1486490602545
 20
-138.9220974045056
 30
0.0
 10
113.1486490602545
 20
-138.7932508333573
 30
0.0
 10
113.1486490602545
 20
-138.6344319314872
 30
0.0
 10
113.1930907920142
 20
-138.4907714497523
 30
0.0
 10
113.3749918336354
 20
-138.3953423048109
 30
0.0
 10
113.5675726712609
 20
-138.2961235548357
 30
0.0
 10
113.795982501933
 20
-138.272696905536
 30
0.0
 10
113.969270804841
 20
-138.272696905536
 30
0.0
 10
114.1408365600065
 20
-138.272696905536
 30
0.0
 10
114.3713134479697
 20
-138.2940564975445
 30
0.0
 10
114.5638942855951
 20
-138.3953423048109
 30
0.0
  0
SPLINE
  5
64
330
5D
100
AcDbEntity
  8
_U+30EC_U+30A4_U+30E4_U+30FC 1
370
     0
100
AcDbSpline
210
0.0
220
0.0
230
1.0
 70
    11
 71
     3
 72
    17
 73
    13
 74
     0
 42
0.0000000001
 43
0.0000000001
 12
1.0
 22
0.0
 32
0.0
 13
1.0
 23
0.0
 33
0.0
 40
0.0
 40
0.0
 40
0.0
 40
0.0
 40
1.0
 40
1.0
 40
1.0
 40
2.0
 40
2.0
 40
2.0
 40
3.0
 40
3.0
 40
3.0
 40
4.0
 40
4.0
 40
4.0
 40
4.0
 10
113.34122989788
 20
-138.7932508333573
 30
0.0
 10
113.34122989788
 20
-139.0430202560379
 30
0.0
 10
113.624761256316
 20
-139.0895290450887
 30
0.0
 10
113.969270804841
 20
-139.0895290450887
 30
0.0
 10
114.2889756658722
 20
-139.0895290450887
 30
0.0
 10
114.5976562213506
 20
-139.0533555424936
 30
0.0
 10
114.5976562213506
 20
-138.7932508333573
 30
0.0
 10
114.5976562213506
 20
-138.5455484679678
 30
0.0
 10
114.3161919202057
 20
-138.4969726216258
 30
0.0
 10
113.969270804841
 20
-138.4969726216258
 30
0.0
 10
113.6499104533584
 20
-138.4969726216258
 30
0.0
 10
113.34122989788
 20
-138.535213181512
 30
0.0
 10
113.34122989788
 20
-138.7932508333573
 30
0.0
  0
HATCH
  5
65
330
5D
100
AcDbEntity
  8
_U+30EC_U+30A4_U+30E4_U+30FC 1
 62
     7
420
 16777215
100
AcDbHatch
 10
0.0
 20
0.0
 30
0.0
210
0.0
220
0.0
230
1.0
  2
SOLID
 70
     1
 71
     0
 91
        2
 92
        1
 93
        1
 72
     4
 94
        3
 73
     0
 74
     1
 95
       29
 96
       25
 40
0.0
 40
0.0
 40
0.0
 40
0.0
 40
1.0
 40
1.0
 40
1.0
 40
2.0
 40
2.0
 40
2.0
 40
3.0
 40
3.0
 40
3.0
 40
4.0
 40
4.0
 40
4.0
 40
5.0
 40
5.0
 40
5.0
 40
6.0
 40
6.0
 40
6.0
 40
7.0
 40
7.0
 40
7.0
 40
8.0
 40
8.0
 40
8.0
 40
8.0
 10
114.5638942855951
 20
-138.3953423048109
 10
114.7733560910983
 20
-138.5035183030477
 10
114.7923041162672
 20
-138.6768066059558
 10
114.7923041162672
 20
-138.7932508333573
 10
114.7923041162672
 20
-138.9541367925184
 10
114.7457953272163
 20
-139.0957302169622
 10
114.5638942855951
 20
-139.1908148523551
 10
114.3692463906785
 20
-139.2945122264611
 10
114.1322238212933
 20
-139.3138047611785
 10
113.969270804841
 20
-139.3138047611785
 10
113.8256103231061
 20
-139.3138047611785
 10
113.5737738431343
 20
-139.2965792837522
 10
113.3749918336354
 20
-139.1908148523551
 10
113.1717312000057
 20
-139.0829833636668
 10
113.1486490602545
 20
-138.9220974045056
 10
113.1486490602545
 20
-138.7932508333573
 10
113.1486490602545
 20
-138.6344319314872
 10
113.1930907920142
 20
-138.4907714497523
 10
113.3749918336354
 20
-138.3953423048109
 10
113.5675726712609
 20
-138.2961235548357
 10
113.795982501933
 20
-138.272696905536
 10
113.969270804841
 20
-138.272696905536
 10
114.1408365600065
 20
-138.272696905536
 10
114.3713134479697
 20
-138.2940564975445
 10
114.5638942855951
 20
-138.3953423048109
 97
        0
 97
        0
 92
        1
 93
        1
 72
     4
 94
        3
 73
     0
 74
     1
 95
       17
 96
       13
 40
0.0
 40
0.0
 40
0.0
 40
0.0
 40
1.0
 40
1.0
 40
1.0
 40
2.0
 40
2.0
 40
2.0
 40
3.0
 40
3.0
 40
3.0
 40
4.0
 40
4.0
 40
4.0
 40
4.0
 10
113.34122989788
 20
-138.7932508333573
 10
113.34122989788
 20
-139.0430202560379
 10
113.624761256316
 20
-139.0895290450887
 10
113.969270804841
 20
-139.0895290450887
 10
114.2889756658722
 20
-139.0895290450887
 10
114.5976562213506
 20
-139.0533555424936
 10
114.5976562213506
 20
-138.7932508333573
 10
114.5976562213506
 20
-138.5455484679678
 10
114.3161919202057
 20
-138.4969726216258
 10
113.969270804841
 20
-138.4969726216258
 10
113.6499104533584
 20
-138.4969726216258
 10
113.34122989788
 20
-138.535213181512
 10
113.34122989788
 20
-138.7932508333573
 97
        0
 97
        0
 75
     2
 76
     1
 98
        0
  0
ENDBLK
  5
60
330
5D
100
AcDbEntity
  8
0
100
AcDbBlockEnd
  0
BLOCK
  5
68
330
66
100
AcDbEntity
  8
0
100
AcDbBlockBegin
  2
block 4
 70
     0
 10
0.0
 20
0.0
 30
0.0
  3
block 4
  1

  0
SPLINE
  5
6A
330
66
100
AcDbEntity
  8
_U+30EC_U+30A4_U+30E4_U+30FC 1
370
     0
100
AcDbSpline
210
0.0
220
0.0
230
1.0
 70
    11
 71
     3
 72
    26
 73
    22
 74
     0
 42
0.0000000001
 43
0.0000000001
 12
1.0
 22
0.0
 32
0.0
 13
1.0
 23
0.0
 33
0.0
 40
0.0
 40
0.0
 40
0.0
 40
0.0
 40
1.0
 40
1.0
 40
1.0
 40
2.0
 40
2.0
 40
2.0
 40
3.0
 40
3.0
 40
3.0
 40
4.0
 40
4.0
 40
4.0
 40
5.0
 40
5.0
 40
5.0
 40
6.0
 40
6.0
 40
6.0
 40
7.0
 40
7.0
 40
7.0
 40
7.0
 10
115.871652531796
 20
-132.1621310433484
 30
0.0
 10
115.871652531796
 20
-132.1621310433484
 30
0.0
 10
114.7671549192249
 20
-132.1621310433484
 30
0.0
 10
114.7671549192249
 20
-132.1621310433484
 30
0.0
 10
114.7671549192249
 20
-132.1621310433484
 30
0.0
 10
114.7671549192249
 20
-132.4921711908353
 30
0.0
 10
114.7671549192249
 20
-132.4921711908353
 30
0.0
 10
114.7671549192249
 20
-132.4921711908353
 30
0.0
 10
114.6190158133591
 20
-132.4921711908353
 30
0.0
 10
114.6190158133591
 20
-132.4921711908353
 30
0.0
 10
114.6045464123211
 20
-132.1600639860572
 30
0.0
 10
114.4412488863203
 20
-132.1135551970063
 30
0.0
 10
114.3272162257585
 20
-132.0839273758332
 30
0.0
 10
114.3272162257585
 20
-132.0839273758332
 30
0.0
 10
114.3272162257585
 20
-131.9378553272586
 30
0.0
 10
114.3272162257585
 20
-131.9378553272586
 30
0.0
 10
114.3272162257585
 20
-131.9378553272586
 30
0.0
 10
115.871652531796
 20
-131.9378553272586
 30
0.0
 10
115.871652531796
 20
-131.9378553272586
 30
0.0
 10
115.871652531796
 20
-131.9378553272586
 30
0.0
 10
115.871652531796
 20
-132.1621310433484
 30
0.0
 10
115.871652531796
 20
-132.1621310433484
 30
0.0
  0
HATCH
  5
6B
330
66
100
AcDbEntity
  8
_U+30EC_U+30A4_U+30E4_U+30FC 1
 62
     7
420
 16777215
100
AcDbHatch
 10
0.0
 20
0.0
 30
0.0
210
0.0
220
0.0
230
1.0
  2
SOLID
 70
     1
 71
     0
 91
        1
 92
        1
 93
        1
 72
     4
 94
        3
 73
     0
 74
     1
 95
       26
 96
       22
 40
0.0
 40
0.0
 40
0.0
 40
0.0
 40
1.0
 40
1.0
 40
1.0
 40
2.0
 40
2.0
 40
2.0
 40
3.0
 40
3.0
 40
3.0
 40
4.0
 40
4.0
 40
4.0
 40
5.0
 40
5.0
 40
5.0
 40
6.0
 40
6.0
 40
6.0
 40
7.0
 40
7.0
 40
7.0
 40
7.0
 10
115.871652531796
 20
-132.1621310433484
 10
115.871652531796
 20
-132.1621310433484
 10
114.7671549192249
 20
-132.1621310433484
 10
114.7671549192249
 20
-132.1621310433484
 10
114.7671549192249
 20
-132.1621310433484
 10
114.7671549192249
 20
-132.4921711908353
 10
114.7671549192249
 20
-132.4921711908353
 10
114.7671549192249
 20
-132.4921711908353
 10
114.6190158133591
 20
-132.4921711908353
 10
114.6190158133591
 20
-132.4921711908353
 10
114.6045464123211
 20
-132.1600639860572
 10
114.4412488863203
 20
-132.1135551970063
 10
114.3272162257585
 20
-132.0839273758332
 10
114.3272162257585
 20
-132.0839273758332
 10
114.3272162257585
 20
-131.9378553272586
 10
114.3272162257585
 20
-131.9378553272586
 10
114.3272162257585
 20
-131.9378553272586
 10
115.871652531796
 20
-131.9378553272586
 10
115.871652531796
 20
-131.9378553272586
 10
115.871652531796
 20
-131.9378553272586
 10
115.871652531796
 20
-132.1621310433484
 10
115.871652531796
 20
-132.1621310433484
 97
        0
 97
        0
 75
     2
 76
     1
 98
        0
  0
ENDBLK
  5
69
330
66
100
AcDbEntity
  8
0
100
AcDbBlockEnd
  0
BLOCK
  5
7C
330
7A
100
AcDbEntity
  8
0
100
AcDbBlockBegin
  2
block 5
 70
     0
 10
0.0
 20
0.0
 30
0.0
  3
block 5
  1

  0
SPLINE
  5
7E
330
7A
100
AcDbEntity
  8
_U+30EC_U+30A4_U+30E4_U+30FC 1
370
     0
100
AcDbSpline
210
0.0
220
0.0
230
1.0
 70
    11
 71
     3
 72
    44
 73
    40
 74
     0
 42
0.0000000001
 43
0.0000000001
 12
1.0
 22
0.0
 32
0.0
 13
1.0
 23
0.0
 33
0.0
 40
0.0
 40
0.0
 40
0.0
 40
0.0
 40
1.0
 40
1.0
 40
1.0
 40
2.0
 40
2.0
 40
2.0
 40
3.0
 40
3.0
 40
3.0
 40
4.0
 40
4.0
 40
4.0
 40
5.0
 40
5.0
 40
5.0
 40
6.0
 40
6.0
 40
6.0
 40
7.0
 40
7.0
 40
7.0
 40
8.0
 40
8.0
 40
8.0
 40
9.0
 40
9.0
 40
9.0
 40
10.0
 40
10.0
 40
10.0
 40
11.0
 40
11.0
 40
11.0
 40
12.0
 40
12.0
 40
12.0
 40
13.0
 40
13.0
 40
13.0
 40
13.0
 10
86.13531085086201
 20
-147.2182318425357
 30
0.0
 10
85.91758081619422
 20
-147.3770507444058
 30
0.0
 10
85.82456323809248
 20
-147.4511202973386
 30
0.0
 10
85.77564288220192
 20
-147.5947807790735
 30
0.0
 10
85.77564288220192
 20
-147.5947807790735
 30
0.0
 10
86.55423446186839
 20
-147.5947807790735
 30
0.0
 10
86.55423446186839
 20
-147.5947807790735
 30
0.0
 10
86.55423446186839
 20
-147.5947807790735
 30
0.0
 10
86.55423446186839
 20
-147.8001084699944
 30
0.0
 10
86.55423446186839
 20
-147.8001084699944
 30
0.0
 10
86.55423446186839
 20
-147.8001084699944
 30
0.0
 10
85.52621796906983
 20
-147.8001084699944
 30
0.0
 10
85.52621796906983
 20
-147.8001084699944
 30
0.0
 10
85.55791284753414
 20
-147.4425075586255
 30
0.0
 10
85.62336966175388
 20
-147.3643038911103
 30
0.0
 10
86.00853133700481
 20
-147.0659586220877
 30
0.0
 10
86.26450193155888
 20
-146.8671766125888
 30
0.0
 10
86.32995874577863
 20
-146.7993082315294
 30
0.0
 10
86.32995874577863
 20
-146.6618489216679
 30
0.0
 10
86.32995874577863
 20
-146.5433376369753
 30
0.0
 10
86.2579562501369
 20
-146.4124240085358
 30
0.0
 10
86.06124129792914
 20
-146.4124240085358
 30
0.0
 10
85.80113658879277
 20
-146.4124240085358
 30
0.0
 10
85.79252385007965
 20
-146.642900896499
 30
0.0
 10
85.78838973549735
 20
-146.7593451239005
 30
0.0
 10
85.78838973549735
 20
-146.7593451239005
 30
0.0
 10
85.56411401940758
 20
-146.7593451239005
 30
0.0
 10
85.56411401940758
 20
-146.7593451239005
 30
0.0
 10
85.57272675812071
 20
-146.6322211004947
 30
0.0
 10
85.58340655412499
 20
-146.5202554972241
 30
0.0
 10
85.6636772789313
 20
-146.4017442125315
 30
0.0
 10
85.77357582491078
 20
-146.2408582533703
 30
0.0
 10
85.9599554906628
 20
-146.2070963176149
 30
0.0
 10
86.07605520851571
 20
-146.2070963176149
 30
0.0
 10
86.35338539507832
 20
-146.2070963176149
 30
0.0
 10
86.56078014329036
 20
-146.3910644165272
 30
0.0
 10
86.56078014329036
 20
-146.663915978959
 30
0.0
 10
86.56078014329036
 20
-146.8926703191796
 30
0.0
 10
86.44433591588891
 20
-146.9918890691548
 30
0.0
 10
86.13531085086201
 20
-147.2182318425357
 30
0.0
  0
HATCH
  5
7F
330
7A
100
AcDbEntity
  8
_U+30EC_U+30A4_U+30E4_U+30FC 1
 62
     7
420
 16777215
100
AcDbHatch
 10
0.0
 20
0.0
 30
0.0
210
0.0
220
0.0
230
1.0
  2
SOLID
 70
     1
 71
     0
 91
        1
 92
        1
 93
        1
 72
     4
 94
        3
 73
     0
 74
     1
 95
       44
 96
       40
 40
0.0
 40
0.0
 40
0.0
 40
0.0
 40
1.0
 40
1.0
 40
1.0
 40
2.0
 40
2.0
 40
2.0
 40
3.0
 40
3.0
 40
3.0
 40
4.0
 40
4.0
 40
4.0
 40
5.0
 40
5.0
 40
5.0
 40
6.0
 40
6.0
 40
6.0
 40
7.0
 40
7.0
 40
7.0
 40
8.0
 40
8.0
 40
8.0
 40
9.0
 40
9.0
 40
9.0
 40
10.0
 40
10.0
 40
10.0
 40
11.0
 40
11.0
 40
11.0
 40
12.0
 40
12.0
 40
12.0
 40
13.0
 40
13.0
 40
13.0
 40
13.0
 10
86.13531085086201
 20
-147.2182318425357
 10
85.91758081619422
 20
-147.3770507444058
 10
85.82456323809248
 20
-147.4511202973386
 10
85.77564288220192
 20
-147.5947807790735
 10
85.77564288220192
 20
-147.5947807790735
 10
86.55423446186839
 20
-147.5947807790735
 10
86.55423446186839
 20
-147.5947807790735
 10
86.55423446186839
 20
-147.5947807790735
 10
86.55423446186839
 20
-147.8001084699944
 10
86.55423446186839
 20
-147.8001084699944
 10
86.55423446186839
 20
-147.8001084699944
 10
85.52621796906983
 20
-147.8001084699944
 10
85.52621796906983
 20
-147.8001084699944
 10
85.55791284753414
 20
-147.4425075586255
 10
85.62336966175388
 20
-147.3643038911103
 10
86.00853133700481
 20
-147.0659586220877
 10
86.26450193155888
 20
-146.8671766125888
 10
86.32995874577863
 20
-146.7993082315294
 10
86.32995874577863
 20
-146.6618489216679
 10
86.32995874577863
 20
-146.5433376369753
 10
86.2579562501369
 20
-146.4124240085358
 10
86.06124129792914
 20
-146.4124240085358
 10
85.80113658879277
 20
-146.4124240085358
 10
85.79252385007965
 20
-146.642900896499
 10
85.78838973549735
 20
-146.7593451239005
 10
85.78838973549735
 20
-146.7593451239005
 10
85.56411401940758
 20
-146.7593451239005
 10
85.56411401940758
 20
-146.7593451239005
 10
85.57272675812071
 20
-146.6322211004947
 10
85.58340655412499
 20
-146.5202554972241
 10
85.6636772789313
 20
-146.4017442125315
 10
85.77357582491078
 20
-146.2408582533703
 10
85.9599554906628
 20
-146.2070963176149
 10
86.07605520851571
 20
-146.2070963176149
 10
86.35338539507832
 20
-146.2070963176149
 10
86.56078014329036
 20
-146.3910644165272
 10
86.56078014329036
 20
-146.663915978959
 10
86.56078014329036
 20
-146.8926703191796
 10
86.44433591588891
 20
-146.9918890691548
 10
86.13531085086201
 20
-147.2182318425357
 97
        0
 97
        0
 75
     2
 76
     1
 98
        0
  0
SPLINE
  5
80
330
7A
100
AcDbEntity
  8
_U+30EC_U+30A4_U+30E4_U+30FC 1
370
     0
100
AcDbSpline
210
0.0
220
0.0
230
1.0
 70
    11
 71
     3
 72
    29
 73
    25
 74
     0
 42
0.0000000001
 43
0.0000000001
 12
1.0
 22
0.0
 32
0.0
 13
1.0
 23
0.0
 33
0.0
 40
0.0
 40
0.0
 40
0.0
 40
0.0
 40
1.0
 40
1.0
 40
1.0
 40
2.0
 40
2.0
 40
2.0
 40
3.0
 40
3.0
 40
3.0
 40
4.0
 40
4.0
 40
4.0
 40
5.0
 40
5.0
 40
5.0
 40
6.0
 40
6.0
 40
6.0
 40
7.0
 40
7.0
 40
7.0
 40
8.0
 40
8.0
 40
8.0
 40
8.0
 10
87.61704641906796
 20
-147.6223415429555
 30
0.0
 10
87.50887042083112
 20
-147.8318033484587
 30
0.0
 10
87.33558211792305
 20
-147.8507513736276
 30
0.0
 10
87.21913789052161
 20
-147.8507513736276
 30
0.0
 10
87.05825193136045
 20
-147.8507513736276
 30
0.0
 10
86.91665850691668
 20
-147.8042425845767
 30
0.0
 10
86.82157387152378
 20
-147.6223415429555
 30
0.0
 10
86.71787649741776
 20
-147.4276936480389
 30
0.0
 10
86.69858396270035
 20
-147.1906710786537
 30
0.0
 10
86.69858396270035
 20
-147.0280625717499
 30
0.0
 10
86.69858396270035
 20
-146.8840575804665
 30
0.0
 10
86.7158094401266
 20
-146.6322211004947
 30
0.0
 10
86.82157387152378
 20
-146.4334390909958
 30
0.0
 10
86.9294053602121
 20
-146.2305229669146
 30
0.0
 10
87.09029131937326
 20
-146.2070963176149
 30
0.0
 10
87.21913789052161
 20
-146.2070963176149
 30
0.0
 10
87.37795679239163
 20
-146.2070963176149
 30
0.0
 10
87.52161727412654
 20
-146.2515380493746
 30
0.0
 10
87.61704641906796
 20
-146.4334390909958
 30
0.0
 10
87.71626516904315
 20
-146.6260199286213
 30
0.0
 10
87.73969181834286
 20
-146.8544297592933
 30
0.0
 10
87.73969181834286
 20
-147.0280625717499
 30
0.0
 10
87.73969181834286
 20
-147.1992838173668
 30
0.0
 10
87.71833222633431
 20
-147.4297607053301
 30
0.0
 10
87.61704641906796
 20
-147.6223415429555
 30
0.0
  0
SPLINE
  5
81
330
7A
100
AcDbEntity
  8
_U+30EC_U+30A4_U+30E4_U+30FC 1
370
     0
100
AcDbSpline
210
0.0
220
0.0
230
1.0
 70
    11
 71
     3
 72
    17
 73
    13
 74
     0
 42
0.0000000001
 43
0.0000000001
 12
1.0
 22
0.0
 32
0.0
 13
1.0
 23
0.0
 33
0.0
 40
0.0
 40
0.0
 40
0.0
 40
0.0
 40
1.0
 40
1.0
 40
1.0
 40
2.0
 40
2.0
 40
2.0
 40
3.0
 40
3.0
 40
3.0
 40
4.0
 40
4.0
 40
4.0
 40
4.0
 10
87.21913789052161
 20
-146.3996771552404
 30
0.0
 10
86.969368467841
 20
-146.3996771552404
 30
0.0
 10
86.92285967879012
 20
-146.6832085136764
 30
0.0
 10
86.92285967879012
 20
-147.0280625717499
 30
0.0
 10
86.92285967879012
 20
-147.3474229232326
 30
0.0
 10
86.95903318138525
 20
-147.656103478711
 30
0.0
 10
87.21913789052161
 20
-147.656103478711
 30
0.0
 10
87.46684025591107
 20
-147.656103478711
 30
0.0
 10
87.5154161022531
 20
-147.3749836871146
 30
0.0
 10
87.5154161022531
 20
-147.0280625717499
 30
0.0
 10
87.5154161022531
 20
-146.7083577107188
 30
0.0
 10
87.47717554236682
 20
-146.3996771552404
 30
0.0
 10
87.21913789052161
 20
-146.3996771552404
 30
0.0
  0
HATCH
  5
82
330
7A
100
AcDbEntity
  8
_U+30EC_U+30A4_U+30E4_U+30FC 1
 62
     7
420
 16777215
100
AcDbHatch
 10
0.0
 20
0.0
 30
0.0
210
0.0
220
0.0
230
1.0
  2
SOLID
 70
     1
 71
     0
 91
        2
 92
        1
 93
        1
 72
     4
 94
        3
 73
     0
 74
     1
 95
       29
 96
       25
 40
0.0
 40
0.0
 40
0.0
 40
0.0
 40
1.0
 40
1.0
 40
1.0
 40
2.0
 40
2.0
 40
2.0
 40
3.0
 40
3.0
 40
3.0
 40
4.0
 40
4.0
 40
4.0
 40
5.0
 40
5.0
 40
5.0
 40
6.0
 40
6.0
 40
6.0
 40
7.0
 40
7.0
 40
7.0
 40
8.0
 40
8.0
 40
8.0
 40
8.0
 10
87.61704641906796
 20
-147.6223415429555
 10
87.50887042083112
 20
-147.8318033484587
 10
87.33558211792305
 20
-147.8507513736276
 10
87.21913789052161
 20
-147.8507513736276
 10
87.05825193136045
 20
-147.8507513736276
 10
86.91665850691668
 20
-147.8042425845767
 10
86.82157387152378
 20
-147.6223415429555
 10
86.71787649741776
 20
-147.4276936480389
 10
86.69858396270035
 20
-147.1906710786537
 10
86.69858396270035
 20
-147.0280625717499
 10
86.69858396270035
 20
-146.8840575804665
 10
86.7158094401266
 20
-146.6322211004947
 10
86.82157387152378
 20
-146.4334390909958
 10
86.9294053602121
 20
-146.2305229669146
 10
87.09029131937326
 20
-146.2070963176149
 10
87.21913789052161
 20
-146.2070963176149
 10
87.37795679239163
 20
-146.2070963176149
 10
87.52161727412654
 20
-146.2515380493746
 10
87.61704641906796
 20
-146.4334390909958
 10
87.71626516904315
 20
-146.6260199286213
 10
87.73969181834286
 20
-146.8544297592933
 10
87.73969181834286
 20
-147.0280625717499
 10
87.73969181834286
 20
-147.1992838173668
 10
87.71833222633431
 20
-147.4297607053301
 10
87.61704641906796
 20
-147.6223415429555
 97
        0
 97
        0
 92
        1
 93
        1
 72
     4
 94
        3
 73
     0
 74
     1
 95
       17
 96
       13
 40
0.0
 40
0.0
 40
0.0
 40
0.0
 40
1.0
 40
1.0
 40
1.0
 40
2.0
 40
2.0
 40
2.0
 40
3.0
 40
3.0
 40
3.0
 40
4.0
 40
4.0
 40
4.0
 40
4.0
 10
87.21913789052161
 20
-146.3996771552404
 10
86.969368467841
 20
-146.3996771552404
 10
86.92285967879012
 20
-146.6832085136764
 10
86.92285967879012
 20
-147.0280625717499
 10
86.92285967879012
 20
-147.3474229232326
 10
86.95903318138525
 20
-147.656103478711
 10
87.21913789052161
 20
-147.656103478711
 10
87.46684025591107
 20
-147.656103478711
 10
87.5154161022531
 20
-147.3749836871146
 10
87.5154161022531
 20
-147.0280625717499
 10
87.5154161022531
 20
-146.7083577107188
 10
87.47717554236682
 20
-146.3996771552404
 10
87.21913789052161
 20
-146.3996771552404
 97
        0
 97
        0
 75
     2
 76
     1
 98
        0
  0
ENDBLK
  5
7D
330
7A
100
AcDbEntity
  8
0
100
AcDbBlockEnd
  0
BLOCK
  5
93
330
91
100
AcDbEntity
  8
0
100
AcDbBlockBegin
  2
block 6
 70
     0
 10
0.0
 20
0.0
 30
0.0
  3
block 6
  1

  0
SPLINE
  5
95
330
91
100
AcDbEntity
  8
_U+30EC_U+30A4_U+30E4_U+30FC 1
370
     0
100
AcDbSpline
210
0.0
220
0.0
230
1.0
 70
    11
 71
     3
 72
    62
 73
    58
 74
     0
 42
0.0000000001
 43
0.0000000001
 12
1.0
 22
0.0
 32
0.0
 13
1.0
 23
0.0
 33
0.0
 40
0.0
 40
0.0
 40
0.0
 40
0.0
 40
1.0
 40
1.0
 40
1.0
 40
2.0
 40
2.0
 40
2.0
 40
3.0
 40
3.0
 40
3.0
 40
4.0
 40
4.0
 40
4.0
 40
5.0
 40
5.0
 40
5.0
 40
6.0
 40
6.0
 40
6.0
 40
7.0
 40
7.0
 40
7.0
 40
8.0
 40
8.0
 40
8.0
 40
9.0
 40
9.0
 40
9.0
 40
10.0
 40
10.0
 40
10.0
 40
11.0
 40
11.0
 40
11.0
 40
12.0
 40
12.0
 40
12.0
 40
13.0
 40
13.0
 40
13.0
 40
14.0
 40
14.0
 40
14.0
 40
15.0
 40
15.0
 40
15.0
 40
16.0
 40
16.0
 40
16.0
 40
17.0
 40
17.0
 40
17.0
 40
18.0
 40
18.0
 40
18.0
 40
19.0
 40
19.0
 40
19.0
 40
19.0
 10
71.49399954809873
 20
-147.6912434526605
 30
0.0
 10
71.42647567658783
 20
-147.6237195811496
 30
0.0
 10
71.28763832853225
 20
-147.4549099023724
 30
0.0
 10
71.33070202209788
 20
-147.2347683008649
 30
0.0
 10
71.35757376688284
 20
-147.1031656533284
 30
0.0
 10
71.42509763839372
 20
-147.0297851194926
 30
0.0
 10
71.48194171390035
 20
-146.967084381661
 30
0.0
 10
71.48194171390035
 20
-146.967084381661
 30
0.0
 10
71.63766002983364
 20
-147.1228026975943
 30
0.0
 10
71.63766002983364
 20
-147.1228026975943
 30
0.0
 10
71.58667261665195
 20
-147.1765461871642
 30
0.0
 10
71.42785371478193
 20
-147.3501789996208
 30
0.0
 10
71.62835827202348
 20
-147.5506835568623
 30
0.0
 10
71.72550996470751
 20
-147.6478352495464
 30
0.0
 10
71.8826063188349
 20
-147.7064018727956
 30
0.0
 10
72.04452580664164
 20
-147.5444823849889
 30
0.0
 10
72.1265190791906
 20
-147.46248911244
 30
0.0
 10
72.13409828925815
 20
-147.400821903254
 30
0.0
 10
72.13409828925815
 20
-147.3560356619457
 30
0.0
 10
72.13409828925815
 20
-147.2513047591941
 30
0.0
 10
72.06071775542232
 20
-147.160009728835
 30
0.0
 10
72.021788176439
 20
-147.1214246594002
 30
0.0
 10
72.00835230404653
 20
-147.1076442774592
 30
0.0
 10
71.98148055926158
 20
-147.083873118611
 30
0.0
 10
71.95908743860745
 20
-147.0673366602818
 30
0.0
 10
71.95908743860745
 20
-147.0673366602818
 30
0.0
 10
72.09689125801745
 20
-146.9298773504203
 30
0.0
 10
72.09689125801745
 20
-146.9298773504203
 30
0.0
 10
72.11928437867157
 20
-146.9612277193361
 30
0.0
 10
72.14753416165063
 20
-146.9925780882519
 30
0.0
 10
72.15201278578145
 20
-146.9970567123827
 30
0.0
 10
72.19817706528379
 20
-147.0435655014336
 30
0.0
 10
72.35389538121709
 20
-147.1689669770967
 30
0.0
 10
72.52132702180023
 20
-147.0015353365135
 30
0.0
 10
72.64707300701184
 20
-146.8757893513019
 30
0.0
 10
72.59367402699047
 20
-146.7445312133139
 30
0.0
 10
72.5154703594753
 20
-146.6663275457987
 30
0.0
 10
72.32840167462624
 20
-146.4792588609496
 30
0.0
 10
72.1582139576549
 20
-146.6377332532711
 30
0.0
 10
72.10412595853647
 20
-146.6859645900646
 30
0.0
 10
72.10412595853647
 20
-146.6859645900646
 30
0.0
 10
71.96046547680156
 20
-146.5423041083297
 30
0.0
 10
71.96046547680156
 20
-146.5423041083297
 30
0.0
 10
72.0548610930974
 20
-146.4599663262322
 30
0.0
 10
72.34080401837313
 20
-146.2132974894884
 30
0.0
 10
72.66360946534104
 20
-146.5361029364562
 30
0.0
 10
72.82242836721106
 20
-146.6949218383263
 30
0.0
 10
72.90304360156591
 20
-146.9550265474626
 30
0.0
 10
72.69358179606272
 20
-147.1644883529658
 30
0.0
 10
72.56197914852618
 20
-147.2960910005024
 30
0.0
 10
72.43657767286308
 20
-147.2874782617893
 30
0.0
 10
72.3225450123013
 20
-147.2602620074558
 30
0.0
 10
72.34631617114954
 20
-147.3233072548358
 30
0.0
 10
72.41797415724274
 20
-147.5086533919423
 30
0.0
 10
72.22229273368055
 20
-147.7043348155045
 30
0.0
 10
71.98285859745567
 20
-147.9437689517293
 30
0.0
 10
71.68968097166092
 20
-147.8869248762227
 30
0.0
 10
71.49399954809873
 20
-147.6912434526605
 30
0.0
  0
HATCH
  5
96
330
91
100
AcDbEntity
  8
_U+30EC_U+30A4_U+30E4_U+30FC 1
 62
     7
420
 16777215
100
AcDbHatch
 10
0.0
 20
0.0
 30
0.0
210
0.0
220
0.0
230
1.0
  2
SOLID
 70
     1
 71
     0
 91
        1
 92
        1
 93
        1
 72
     4
 94
        3
 73
     0
 74
     1
 95
       62
 96
       58
 40
0.0
 40
0.0
 40
0.0
 40
0.0
 40
1.0
 40
1.0
 40
1.0
 40
2.0
 40
2.0
 40
2.0
 40
3.0
 40
3.0
 40
3.0
 40
4.0
 40
4.0
 40
4.0
 40
5.0
 40
5.0
 40
5.0
 40
6.0
 40
6.0
 40
6.0
 40
7.0
 40
7.0
 40
7.0
 40
8.0
 40
8.0
 40
8.0
 40
9.0
 40
9.0
 40
9.0
 40
10.0
 40
10.0
 40
10.0
 40
11.0
 40
11.0
 40
11.0
 40
12.0
 40
12.0
 40
12.0
 40
13.0
 40
13.0
 40
13.0
 40
14.0
 40
14.0
 40
14.0
 40
15.0
 40
15.0
 40
15.0
 40
16.0
 40
16.0
 40
16.0
 40
17.0
 40
17.0
 40
17.0
 40
18.0
 40
18.0
 40
18.0
 40
19.0
 40
19.0
 40
19.0
 40
19.0
 10
71.49399954809873
 20
-147.6912434526605
 10
71.42647567658783
 20
-147.6237195811496
 10
71.28763832853225
 20
-147.4549099023724
 10
71.33070202209788
 20
-147.2347683008649
 10
71.35757376688284
 20
-147.1031656533284
 10
71.42509763839372
 20
-147.0297851194926
 10
71.48194171390035
 20
-146.967084381661
 10
71.48194171390035
 20
-146.967084381661
 10
71.63766002983364
 20
-147.1228026975943
 10
71.63766002983364
 20
-147.1228026975943
 10
71.58667261665195
 20
-147.1765461871642
 10
71.42785371478193
 20
-147.3501789996208
 10
71.62835827202348
 20
-147.5506835568623
 10
71.72550996470751
 20
-147.6478352495464
 10
71.8826063188349
 20
-147.7064018727956
 10
72.04452580664164
 20
-147.5444823849889
 10
72.1265190791906
 20
-147.46248911244
 10
72.13409828925815
 20
-147.400821903254
 10
72.13409828925815
 20
-147.3560356619457
 10
72.13409828925815
 20
-147.2513047591941
 10
72.06071775542232
 20
-147.160009728835
 10
72.021788176439
 20
-147.1214246594002
 10
72.00835230404653
 20
-147.1076442774592
 10
71.98148055926158
 20
-147.083873118611
 10
71.95908743860745
 20
-147.0673366602818
 10
71.95908743860745
 20
-147.0673366602818
 10
72.09689125801745
 20
-146.9298773504203
 10
72.09689125801745
 20
-146.9298773504203
 10
72.11928437867157
 20
-146.9612277193361
 10
72.14753416165063
 20
-146.9925780882519
 10
72.15201278578145
 20
-146.9970567123827
 10
72.19817706528379
 20
-147.0435655014336
 10
72.35389538121709
 20
-147.1689669770967
 10
72.52132702180023
 20
-147.0015353365135
 10
72.64707300701184
 20
-146.8757893513019
 10
72.59367402699047
 20
-146.7445312133139
 10
72.5154703594753
 20
-146.6663275457987
 10
72.32840167462624
 20
-146.4792588609496
 10
72.1582139576549
 20
-146.6377332532711
 10
72.10412595853647
 20
-146.6859645900646
 10
72.10412595853647
 20
-146.6859645900646
 10
71.96046547680156
 20
-146.5423041083297
 10
71.96046547680156
 20
-146.5423041083297
 10
72.0548610930974
 20
-146.4599663262322
 10
72.34080401837313
 20
-146.2132974894884
 10
72.66360946534104
 20
-146.5361029364562
 10
72.82242836721106
 20
-146.6949218383263
 10
72.90304360156591
 20
-146.9550265474626
 10
72.69358179606272
 20
-147.1644883529658
 10
72.56197914852618
 20
-147.2960910005024
 10
72.43657767286308
 20
-147.2874782617893
 10
72.3225450123013
 20
-147.2602620074558
 10
72.34631617114954
 20
-147.3233072548358
 10
72.41797415724274
 20
-147.5086533919423
 10
72.22229273368055
 20
-147.7043348155045
 10
71.98285859745567
 20
-147.9437689517293
 10
71.68968097166092
 20
-147.8869248762227
 10
71.49399954809873
 20
-147.6912434526605
 97
        0
 97
        0
 75
     2
 76
     1
 98
        0
  0
ENDBLK
  5
94
330
91
100
AcDbEntity
  8
0
100
AcDbBlockEnd
  0
BLOCK
  5
99
330
97
100
AcDbEntity
  8
0
100
AcDbBlockBegin
  2
block 7
 70
     0
 10
0.0
 20
0.0
 30
0.0
  3
block 7
  1

  0
POLYLINE
  5
9B
330
97
100
AcDbEntity
  8
_U+30EC_U+30A4_U+30E4_U+30FC 1
 62
   179
420
  2234388
370
     9
100
AcDb2dPolyline
 66
     1
 10
0.0
 20
0.0
 30
0.0
  0
VERTEX
  5
9C
330
9B
100
AcDbEntity
  8
_U+30EC_U+30A4_U+30E4_U+30FC 1
 62
   179
420
  2234388
370
     9
100
AcDbVertex
100
AcDb2dVertex
 10
73.40652729391013
 20
-142.3155296866433
 30
0.0
  0
VERTEX
  5
9D
330
9B
100
AcDbEntity
  8
_U+30EC_U+30A4_U+30E4_U+30FC 1
 62
   179
420
  2234388
370
     9
100
AcDbVertex
100
AcDb2dVertex
 10
72.4391753741449
 20
-142.0619530200399
 30
0.0
  0
SEQEND
  5
9E
330
9B
100
AcDbEntity
  8
_U+30EC_U+30A4_U+30E4_U+30FC 1
 62
   179
420
  2234388
370
     9
  0
POLYLINE
  5
9F
330
97
100
AcDbEntity
  8
_U+30EC_U+30A4_U+30E4_U+30FC 1
 62
   179
420
  2234388
370
     9
100
AcDb2dPolyline
 66
     1
 10
0.0
 20
0.0
 30
0.0
  0
VERTEX
  5
A0
330
9F
100
AcDbEntity
  8
_U+30EC_U+30A4_U+30E4_U+30FC 1
 62
   179
420
  2234388
370
     9
100
AcDbVertex
100
AcDb2dVertex
 10
73.40652729391013
 20
-142.3155296866433
 30
0.0
  0
VERTEX
  5
A1
330
9F
100
AcDbEntity
  8
_U+30EC_U+30A4_U+30E4_U+30FC 1
 62
   179
420
  2234388
370
     9
100
AcDbVertex
100
AcDb2dVertex
 10
72.44192704074136
 20
-142.579407464355
 30
0.0
  0
SEQEND
  5
A2
330
9F
100
AcDbEntity
  8
_U+30EC_U+30A4_U+30E4_U+30FC 1
 62
   179
420
  2234388
370
     9
  0
POLYLINE
  5
A3
330
97
100
AcDbEntity
  8
_U+30EC_U+30A4_U+30E4_U+30FC 1
 62
   179
420
  2234388
370
     9
100
AcDb2dPolyline
 66
     1
 10
0.0
 20
0.0
 30
0.0
  0
VERTEX
  5
A4
330
A3
100
AcDbEntity
  8
_U+30EC_U+30A4_U+30E4_U+30FC 1
 62
   179
420
  2234388
370
     9
100
AcDbVertex
100
AcDb2dVertex
 10
73.40652729391013
 20
-142.3155296866433
 30
0.0
  0
VERTEX
  5
A5
330
A3
100
AcDbEntity
  8
_U+30EC_U+30A4_U+30E4_U+30FC 1
 62
   179
420
  2234388
370
     9
100
AcDbVertex
100
AcDb2dVertex
 10
70.5843051436888
 20
-142.3423760755256
 30
0.0
  0
SEQEND
  5
A6
330
A3
100
AcDbEntity
  8
_U+30EC_U+30A4_U+30E4_U+30FC 1
 62
   179
420
  2234388
370
     9
  0
ENDBLK
  5
9A
330
97
100
AcDbEntity
  8
0
100
AcDbBlockEnd
  0
BLOCK
  5
A9
330
A7
100
AcDbEntity
  8
0
100
AcDbBlockBegin
  2
block 8
 70
     0
 10
0.0
 20
0.0
 30
0.0
  3
block 8
  1

  0
SPLINE
  5
AB
330
A7
100
AcDbEntity
  8
_U+30EC_U+30A4_U+30E4_U+30FC 1
370
     0
100
AcDbSpline
210
0.0
220
0.0
230
1.0
 70
    11
 71
     3
 72
    44
 73
    40
 74
     0
 42
0.0000000001
 43
0.0000000001
 12
1.0
 22
0.0
 32
0.0
 13
1.0
 23
0.0
 33
0.0
 40
0.0
 40
0.0
 40
0.0
 40
0.0
 40
1.0
 40
1.0
 40
1.0
 40
2.0
 40
2.0
 40
2.0
 40
3.0
 40
3.0
 40
3.0
 40
4.0
 40
4.0
 40
4.0
 40
5.0
 40
5.0
 40
5.0
 40
6.0
 40
6.0
 40
6.0
 40
7.0
 40
7.0
 40
7.0
 40
8.0
 40
8.0
 40
8.0
 40
9.0
 40
9.0
 40
9.0
 40
10.0
 40
10.0
 40
10.0
 40
11.0
 40
11.0
 40
11.0
 40
12.0
 40
12.0
 40
12.0
 40
13.0
 40
13.0
 40
13.0
 40
13.0
 10
66.89273001799904
 20
-143.1175346864428
 30
0.0
 10
66.86964787824787
 20
-143.0730929546831
 30
0.0
 10
66.84828828623932
 20
-143.0200384842103
 30
0.0
 10
66.84622122894817
 20
-142.7895615962471
 30
0.0
 10
66.84208711436587
 20
-142.5463378549884
 30
0.0
 10
66.78283147201957
 20
-142.4764024166379
 30
0.0
 10
66.60506454498068
 20
-142.4764024166379
 30
0.0
 10
66.60506454498068
 20
-142.4764024166379
 30
0.0
 10
66.19682072997857
 20
-142.4764024166379
 30
0.0
 10
66.19682072997857
 20
-142.4764024166379
 30
0.0
 10
66.19682072997857
 20
-142.4764024166379
 30
0.0
 10
66.19682072997857
 20
-143.1175346864428
 30
0.0
 10
66.19682072997857
 20
-143.1175346864428
 30
0.0
 10
66.19682072997857
 20
-143.1175346864428
 30
0.0
 10
65.96186521788454
 20
-143.1175346864428
 30
0.0
 10
65.96186521788454
 20
-143.1175346864428
 30
0.0
 10
65.96186521788454
 20
-143.1175346864428
 30
0.0
 10
65.96186521788454
 20
-141.5730983804054
 30
0.0
 10
65.96186521788454
 20
-141.5730983804054
 30
0.0
 10
65.96186521788454
 20
-141.5730983804054
 30
0.0
 10
66.63675942344499
 20
-141.5730983804054
 30
0.0
 10
66.63675942344499
 20
-141.5730983804054
 30
0.0
 10
66.94371743118074
 20
-141.5730983804054
 30
0.0
 10
67.11080456221536
 20
-141.7443196260222
 30
0.0
 10
67.11080456221536
 20
-142.0002902205763
 30
0.0
 10
67.11080456221536
 20
-142.051277633758
 30
0.0
 10
67.10219182350224
 20
-142.1336154158555
 30
0.0
 10
67.0577500917425
 20
-142.2142306502103
 30
0.0
 10
66.99849444939622
 20
-142.3179280243164
 30
0.0
 10
66.93303763517646
 20
-142.3368760494852
 30
0.0
 10
66.87171493553902
 20
-142.353757017363
 30
0.0
 10
67.00917424540049
 20
-142.3961316918315
 30
0.0
 10
67.07669811691139
 20
-142.4447075381736
 30
0.0
 10
67.08117674104221
 20
-142.7599337750739
 30
0.0
 10
67.08531085562451
 20
-143.0307182802146
 30
0.0
 10
67.1211398486711
 20
-143.0624131586789
 30
0.0
 10
67.18900822973053
 20
-143.1175346864428
 30
0.0
 10
67.18900822973053
 20
-143.1175346864428
 30
0.0
 10
66.89273001799904
 20
-143.1175346864428
 30
0.0
 10
66.89273001799904
 20
-143.1175346864428
 30
0.0
  0
SPLINE
  5
AC
330
A7
100
AcDbEntity
  8
_U+30EC_U+30A4_U+30E4_U+30FC 1
370
     0
100
AcDbSpline
210
0.0
220
0.0
230
1.0
 70
    11
 71
     3
 72
    20
 73
    16
 74
     0
 42
0.0000000001
 43
0.0000000001
 12
1.0
 22
0.0
 32
0.0
 13
1.0
 23
0.0
 33
0.0
 40
0.0
 40
0.0
 40
0.0
 40
0.0
 40
1.0
 40
1.0
 40
1.0
 40
2.0
 40
2.0
 40
2.0
 40
3.0
 40
3.0
 40
3.0
 40
4.0
 40
4.0
 40
4.0
 40
5.0
 40
5.0
 40
5.0
 40
5.0
 10
66.64123804757581
 20
-141.7846272431997
 30
0.0
 10
66.64123804757581
 20
-141.7846272431997
 30
0.0
 10
66.19682072997857
 20
-141.7846272431997
 30
0.0
 10
66.19682072997857
 20
-141.7846272431997
 30
0.0
 10
66.19682072997857
 20
-141.7846272431997
 30
0.0
 10
66.19682072997857
 20
-142.2648735538435
 30
0.0
 10
66.19682072997857
 20
-142.2648735538435
 30
0.0
 10
66.19682072997857
 20
-142.2648735538435
 30
0.0
 10
66.63882648073613
 20
-142.2648735538435
 30
0.0
 10
66.63882648073613
 20
-142.2648735538435
 30
0.0
 10
66.73838974025985
 20
-142.2648735538435
 30
0.0
 10
66.87378199283017
 20
-142.1887369436195
 30
0.0
 10
66.87378199283017
 20
-142.0175156980026
 30
0.0
 10
66.87378199283017
 20
-141.9389675209389
 30
0.0
 10
66.84002005707472
 20
-141.7846272431997
 30
0.0
 10
66.64123804757581
 20
-141.7846272431997
 30
0.0
  0
HATCH
  5
AD
330
A7
100
AcDbEntity
  8
_U+30EC_U+30A4_U+30E4_U+30FC 1
 62
   179
420
  2234388
100
AcDbHatch
 10
0.0
 20
0.0
 30
0.0
210
0.0
220
0.0
230
1.0
  2
SOLID
 70
     1
 71
     0
 91
        2
 92
        1
 93
        1
 72
     4
 94
        3
 73
     0
 74
     1
 95
       44
 96
       40
 40
0.0
 40
0.0
 40
0.0
 40
0.0
 40
1.0
 40
1.0
 40
1.0
 40
2.0
 40
2.0
 40
2.0
 40
3.0
 40
3.0
 40
3.0
 40
4.0
 40
4.0
 40
4.0
 40
5.0
 40
5.0
 40
5.0
 40
6.0
 40
6.0
 40
6.0
 40
7.0
 40
7.0
 40
7.0
 40
8.0
 40
8.0
 40
8.0
 40
9.0
 40
9.0
 40
9.0
 40
10.0
 40
10.0
 40
10.0
 40
11.0
 40
11.0
 40
11.0
 40
12.0
 40
12.0
 40
12.0
 40
13.0
 40
13.0
 40
13.0
 40
13.0
 10
66.89273001799904
 20
-143.1175346864428
 10
66.86964787824787
 20
-143.0730929546831
 10
66.84828828623932
 20
-143.0200384842103
 10
66.84622122894817
 20
-142.7895615962471
 10
66.84208711436587
 20
-142.5463378549884
 10
66.78283147201957
 20
-142.4764024166379
 10
66.60506454498068
 20
-142.4764024166379
 10
66.60506454498068
 20
-142.4764024166379
 10
66.19682072997857
 20
-142.4764024166379
 10
66.19682072997857
 20
-142.4764024166379
 10
66.19682072997857
 20
-142.4764024166379
 10
66.19682072997857
 20
-143.1175346864428
 10
66.19682072997857
 20
-143.1175346864428
 10
66.19682072997857
 20
-143.1175346864428
 10
65.96186521788454
 20
-143.1175346864428
 10
65.96186521788454
 20
-143.1175346864428
 10
65.96186521788454
 20
-143.1175346864428
 10
65.96186521788454
 20
-141.5730983804054
 10
65.96186521788454
 20
-141.5730983804054
 10
65.96186521788454
 20
-141.5730983804054
 10
66.63675942344499
 20
-141.5730983804054
 10
66.63675942344499
 20
-141.5730983804054
 10
66.94371743118074
 20
-141.5730983804054
 10
67.11080456221536
 20
-141.7443196260222
 10
67.11080456221536
 20
-142.0002902205763
 10
67.11080456221536
 20
-142.051277633758
 10
67.10219182350224
 20
-142.1336154158555
 10
67.0577500917425
 20
-142.2142306502103
 10
66.99849444939622
 20
-142.3179280243164
 10
66.93303763517646
 20
-142.3368760494852
 10
66.87171493553902
 20
-142.353757017363
 10
67.00917424540049
 20
-142.3961316918315
 10
67.07669811691139
 20
-142.4447075381736
 10
67.08117674104221
 20
-142.7599337750739
 10
67.08531085562451
 20
-143.0307182802146
 10
67.1211398486711
 20
-143.0624131586789
 10
67.18900822973053
 20
-143.1175346864428
 10
67.18900822973053
 20
-143.1175346864428
 10
66.89273001799904
 20
-143.1175346864428
 10
66.89273001799904
 20
-143.1175346864428
 97
        0
 97
        0
 92
        1
 93
        1
 72
     4
 94
        3
 73
     0
 74
     1
 95
       20
 96
       16
 40
0.0
 40
0.0
 40
0.0
 40
0.0
 40
1.0
 40
1.0
 40
1.0
 40
2.0
 40
2.0
 40
2.0
 40
3.0
 40
3.0
 40
3.0
 40
4.0
 40
4.0
 40
4.0
 40
5.0
 40
5.0
 40
5.0
 40
5.0
 10
66.64123804757581
 20
-141.7846272431997
 10
66.64123804757581
 20
-141.7846272431997
 10
66.19682072997857
 20
-141.7846272431997
 10
66.19682072997857
 20
-141.7846272431997
 10
66.19682072997857
 20
-141.7846272431997
 10
66.19682072997857
 20
-142.2648735538435
 10
66.19682072997857
 20
-142.2648735538435
 10
66.19682072997857
 20
-142.2648735538435
 10
66.63882648073613
 20
-142.2648735538435
 10
66.63882648073613
 20
-142.2648735538435
 10
66.73838974025985
 20
-142.2648735538435
 10
66.87378199283017
 20
-142.1887369436195
 10
66.87378199283017
 20
-142.0175156980026
 10
66.87378199283017
 20
-141.9389675209389
 10
66.84002005707472
 20
-141.7846272431997
 10
66.64123804757581
 20
-141.7846272431997
 97
        0
 97
        0
 75
     2
 76
     1
 98
        0
  0
SPLINE
  5
AE
330
A7
100
AcDbEntity
  8
_U+30EC_U+30A4_U+30E4_U+30FC 1
370
     0
100
AcDbSpline
210
0.0
220
0.0
230
1.0
 70
    11
 71
     3
 72
    29
 73
    25
 74
     0
 42
0.0000000001
 43
0.0000000001
 12
1.0
 22
0.0
 32
0.0
 13
1.0
 23
0.0
 33
0.0
 40
0.0
 40
0.0
 40
0.0
 40
0.0
 40
1.0
 40
1.0
 40
1.0
 40
2.0
 40
2.0
 40
2.0
 40
3.0
 40
3.0
 40
3.0
 40
4.0
 40
4.0
 40
4.0
 40
5.0
 40
5.0
 40
5.0
 40
6.0
 40
6.0
 40
6.0
 40
7.0
 40
7.0
 40
7.0
 40
8.0
 40
8.0
 40
8.0
 40
8.0
 10
68.22667098988778
 20
-142.939767759404
 30
0.0
 10
68.11849499165093
 20
-143.1492295649071
 30
0.0
 10
67.94520668874287
 20
-143.168177590076
 30
0.0
 10
67.82876246134143
 20
-143.168177590076
 30
0.0
 10
67.66787650218026
 20
-143.168177590076
 30
0.0
 10
67.5262830777365
 20
-143.1216688010252
 30
0.0
 10
67.43119844234359
 20
-142.939767759404
 30
0.0
 10
67.32750106823757
 20
-142.7451198644874
 30
0.0
 10
67.30820853352017
 20
-142.5080972951021
 30
0.0
 10
67.30820853352017
 20
-142.3451442786498
 30
0.0
 10
67.30820853352017
 20
-142.2014837969149
 30
0.0
 10
67.32543401094642
 20
-141.9496473169432
 30
0.0
 10
67.43119844234359
 20
-141.7508653074442
 30
0.0
 10
67.53902993103192
 20
-141.5476046738145
 30
0.0
 10
67.69991589019308
 20
-141.5245225340633
 30
0.0
 10
67.82876246134143
 20
-141.5245225340633
 30
0.0
 10
67.98758136321145
 20
-141.5245225340633
 30
0.0
 10
68.13124184494636
 20
-141.568964265823
 30
0.0
 10
68.22667098988778
 20
-141.7508653074442
 30
0.0
 10
68.32588973986297
 20
-141.9434461450697
 30
0.0
 10
68.34931638916268
 20
-142.1718559757418
 30
0.0
 10
68.34931638916268
 20
-142.3451442786498
 30
0.0
 10
68.34931638916268
 20
-142.5167100338153
 30
0.0
 10
68.32795679715413
 20
-142.7471869217785
 30
0.0
 10
68.22667098988778
 20
-142.939767759404
 30
0.0
  0
SPLINE
  5
AF
330
A7
100
AcDbEntity
  8
_U+30EC_U+30A4_U+30E4_U+30FC 1
370
     0
100
AcDbSpline
210
0.0
220
0.0
230
1.0
 70
    11
 71
     3
 72
    17
 73
    13
 74
     0
 42
0.0000000001
 43
0.0000000001
 12
1.0
 22
0.0
 32
0.0
 13
1.0
 23
0.0
 33
0.0
 40
0.0
 40
0.0
 40
0.0
 40
0.0
 40
1.0
 40
1.0
 40
1.0
 40
2.0
 40
2.0
 40
2.0
 40
3.0
 40
3.0
 40
3.0
 40
4.0
 40
4.0
 40
4.0
 40
4.0
 10
67.82876246134143
 20
-141.7171033716888
 30
0.0
 10
67.57899303866081
 20
-141.7171033716888
 30
0.0
 10
67.53248424960994
 20
-142.0002902205763
 30
0.0
 10
67.53248424960994
 20
-142.3451442786498
 30
0.0
 10
67.53248424960994
 20
-142.664849139681
 30
0.0
 10
67.56865775220506
 20
-142.9735296951594
 30
0.0
 10
67.82876246134143
 20
-142.9735296951594
 30
0.0
 10
68.07646482673088
 20
-142.9735296951594
 30
0.0
 10
68.1250406730729
 20
-142.6920653940145
 30
0.0
 10
68.1250406730729
 20
-142.3451442786498
 30
0.0
 10
68.1250406730729
 20
-142.0257839271672
 30
0.0
 10
68.08680011318664
 20
-141.7171033716888
 30
0.0
 10
67.82876246134143
 20
-141.7171033716888
 30
0.0
  0
HATCH
  5
B0
330
A7
100
AcDbEntity
  8
_U+30EC_U+30A4_U+30E4_U+30FC 1
 62
   179
420
  2234388
100
AcDbHatch
 10
0.0
 20
0.0
 30
0.0
210
0.0
220
0.0
230
1.0
  2
SOLID
 70
     1
 71
     0
 91
        2
 92
        1
 93
        1
 72
     4
 94
        3
 73
     0
 74
     1
 95
       29
 96
       25
 40
0.0
 40
0.0
 40
0.0
 40
0.0
 40
1.0
 40
1.0
 40
1.0
 40
2.0
 40
2.0
 40
2.0
 40
3.0
 40
3.0
 40
3.0
 40
4.0
 40
4.0
 40
4.0
 40
5.0
 40
5.0
 40
5.0
 40
6.0
 40
6.0
 40
6.0
 40
7.0
 40
7.0
 40
7.0
 40
8.0
 40
8.0
 40
8.0
 40
8.0
 10
68.22667098988778
 20
-142.939767759404
 10
68.11849499165093
 20
-143.1492295649071
 10
67.94520668874287
 20
-143.168177590076
 10
67.82876246134143
 20
-143.168177590076
 10
67.66787650218026
 20
-143.168177590076
 10
67.5262830777365
 20
-143.1216688010252
 10
67.43119844234359
 20
-142.939767759404
 10
67.32750106823757
 20
-142.7451198644874
 10
67.30820853352017
 20
-142.5080972951021
 10
67.30820853352017
 20
-142.3451442786498
 10
67.30820853352017
 20
-142.2014837969149
 10
67.32543401094642
 20
-141.9496473169432
 10
67.43119844234359
 20
-141.7508653074442
 10
67.53902993103192
 20
-141.5476046738145
 10
67.69991589019308
 20
-141.5245225340633
 10
67.82876246134143
 20
-141.5245225340633
 10
67.98758136321145
 20
-141.5245225340633
 10
68.13124184494636
 20
-141.568964265823
 10
68.22667098988778
 20
-141.7508653074442
 10
68.32588973986297
 20
-141.9434461450697
 10
68.34931638916268
 20
-142.1718559757418
 10
68.34931638916268
 20
-142.3451442786498
 10
68.34931638916268
 20
-142.5167100338153
 10
68.32795679715413
 20
-142.7471869217785
 10
68.22667098988778
 20
-142.939767759404
 97
        0
 97
        0
 92
        1
 93
        1
 72
     4
 94
        3
 73
     0
 74
     1
 95
       17
 96
       13
 40
0.0
 40
0.0
 40
0.0
 40
0.0
 40
1.0
 40
1.0
 40
1.0
 40
2.0
 40
2.0
 40
2.0
 40
3.0
 40
3.0
 40
3.0
 40
4.0
 40
4.0
 40
4.0
 40
4.0
 10
67.82876246134143
 20
-141.7171033716888
 10
67.57899303866081
 20
-141.7171033716888
 10
67.53248424960994
 20
-142.0002902205763
 10
67.53248424960994
 20
-142.3451442786498
 10
67.53248424960994
 20
-142.664849139681
 10
67.56865775220506
 20
-142.9735296951594
 10
67.82876246134143
 20
-142.9735296951594
 10
68.07646482673088
 20
-142.9735296951594
 10
68.1250406730729
 20
-142.6920653940145
 10
68.1250406730729
 20
-142.3451442786498
 10
68.1250406730729
 20
-142.0257839271672
 10
68.08680011318664
 20
-141.7171033716888
 10
67.82876246134143
 20
-141.7171033716888
 97
        0
 97
        0
 75
     2
 76
     1
 98
        0
  0
POLYLINE
  5
B1
330
A7
100
AcDbEntity
  8
_U+30EC_U+30A4_U+30E4_U+30FC 1
370
     0
100
AcDb2dPolyline
 66
     1
 10
0.0
 20
0.0
 30
0.0
  0
VERTEX
  5
B2
330
B1
100
AcDbEntity
  8
_U+30EC_U+30A4_U+30E4_U+30FC 1
370
     0
100
AcDbVertex
100
AcDb2dVertex
 10
68.56566838563636
 20
-143.1175346864428
 30
0.0
  0
VERTEX
  5
B3
330
B1
100
AcDbEntity
  8
_U+30EC_U+30A4_U+30E4_U+30FC 1
370
     0
100
AcDbVertex
100
AcDb2dVertex
 10
68.56566838563636
 20
-142.8656982064711
 30
0.0
  0
VERTEX
  5
B4
330
B1
100
AcDbEntity
  8
_U+30EC_U+30A4_U+30E4_U+30FC 1
370
     0
100
AcDbVertex
100
AcDb2dVertex
 10
68.81750486560813
 20
-142.8656982064711
 30
0.0
  0
VERTEX
  5
B5
330
B1
100
AcDbEntity
  8
_U+30EC_U+30A4_U+30E4_U+30FC 1
370
     0
100
AcDbVertex
100
AcDb2dVertex
 10
68.81750486560813
 20
-143.1175346864428
 30
0.0
  0
VERTEX
  5
B6
330
B1
100
AcDbEntity
  8
_U+30EC_U+30A4_U+30E4_U+30FC 1
370
     0
100
AcDbVertex
100
AcDb2dVertex
 10
68.56566838563636
 20
-143.1175346864428
 30
0.0
  0
SEQEND
  5
B7
330
B1
100
AcDbEntity
  8
_U+30EC_U+30A4_U+30E4_U+30FC 1
370
     0
  0
HATCH
  5
B8
330
A7
100
AcDbEntity
  8
_U+30EC_U+30A4_U+30E4_U+30FC 1
 62
   179
420
  2234388
100
AcDbHatch
 10
0.0
 20
0.0
 30
0.0
210
0.0
220
0.0
230
1.0
  2
SOLID
 70
     1
 71
     0
 91
        1
 92
        1
 93
        4
 72
     1
 10
68.56566838563636
 20
-143.1175346864428
 11
68.56566838563636
 21
-142.8656982064711
 72
     1
 10
68.56566838563636
 20
-142.8656982064711
 11
68.81750486560813
 21
-142.8656982064711
 72
     1
 10
68.81750486560813
 20
-142.8656982064711
 11
68.81750486560813
 21
-143.1175346864428
 72
     1
 10
68.81750486560813
 20
-143.1175346864428
 11
68.56566838563636
 21
-143.1175346864428
 97
        0
 75
     2
 76
     1
 98
        0
  0
SPLINE
  5
B9
330
A7
100
AcDbEntity
  8
_U+30EC_U+30A4_U+30E4_U+30FC 1
370
     0
100
AcDbSpline
210
0.0
220
0.0
230
1.0
 70
    11
 71
     3
 72
    53
 73
    49
 74
     0
 42
0.0000000001
 43
0.0000000001
 12
1.0
 22
0.0
 32
0.0
 13
1.0
 23
0.0
 33
0.0
 40
0.0
 40
0.0
 40
0.0
 40
0.0
 40
1.0
 40
1.0
 40
1.0
 40
2.0
 40
2.0
 40
2.0
 40
3.0
 40
3.0
 40
3.0
 40
4.0
 40
4.0
 40
4.0
 40
5.0
 40
5.0
 40
5.0
 40
6.0
 40
6.0
 40
6.0
 40
7.0
 40
7.0
 40
7.0
 40
8.0
 40
8.0
 40
8.0
 40
9.0
 40
9.0
 40
9.0
 40
10.0
 40
10.0
 40
10.0
 40
11.0
 40
11.0
 40
11.0
 40
12.0
 40
12.0
 40
12.0
 40
13.0
 40
13.0
 40
13.0
 40
14.0
 40
14.0
 40
14.0
 40
15.0
 40
15.0
 40
15.0
 40
16.0
 40
16.0
 40
16.0
 40
16.0
 10
69.53477374563714
 20
-143.168177590076
 30
0.0
 10
69.45657007812197
 20
-143.168177590076
 30
0.0
 10
69.35493976130711
 20
-143.1512966221983
 30
0.0
 10
69.25330944449223
 20
-143.0879068652697
 30
0.0
 10
69.08002114158417
 20
-142.9776638097417
 30
0.0
 10
69.05866154957562
 20
-142.8467501813022
 30
0.0
 10
69.03971352440674
 20
-142.7389186926139
 30
0.0
 10
69.03971352440674
 20
-142.7389186926139
 30
0.0
 10
69.26192218320536
 20
-142.7389186926139
 30
0.0
 10
69.26192218320536
 20
-142.7389186926139
 30
0.0
 10
69.31669920142083
 20
-142.9377007021128
 30
0.0
 10
69.44382322482655
 20
-142.9673285232859
 30
0.0
 10
69.5368408029283
 20
-142.9673285232859
 30
0.0
 10
69.67636717008091
 20
-142.9673285232859
 30
0.0
 10
69.82864039052896
 20
-142.8677652637622
 30
0.0
 10
69.82864039052896
 20
-142.6352213185079
 30
0.0
 10
69.82864039052896
 20
-142.3792507239538
 30
0.0
 10
69.64880640619891
 20
-142.3093152856032
 30
0.0
 10
69.52822806421517
 20
-142.3093152856032
 30
0.0
 10
69.49653318575086
 20
-142.3093152856032
 30
0.0
 10
69.35493976130711
 20
-142.3093152856032
 30
0.0
 10
69.26605629778766
 20
-142.4385063663001
 30
0.0
 10
69.26605629778766
 20
-142.4385063663001
 30
0.0
 10
69.09035642803991
 20
-142.4192138315827
 30
0.0
 10
69.09035642803991
 20
-142.4192138315827
 30
0.0
 10
69.09035642803991
 20
-142.4192138315827
 30
0.0
 10
69.21093477002366
 20
-141.5730983804054
 30
0.0
 10
69.21093477002366
 20
-141.5730983804054
 30
0.0
 10
69.21093477002366
 20
-141.5730983804054
 30
0.0
 10
69.98952634969012
 20
-141.5730983804054
 30
0.0
 10
69.98952634969012
 20
-141.5730983804054
 30
0.0
 10
69.98952634969012
 20
-141.5730983804054
 30
0.0
 10
69.98952634969012
 20
-141.767746275322
 30
0.0
 10
69.98952634969012
 20
-141.767746275322
 30
0.0
 10
69.98952634969012
 20
-141.767746275322
 30
0.0
 10
69.37388778647598
 20
-141.767746275322
 30
0.0
 10
69.37388778647598
 20
-141.767746275322
 30
0.0
 10
69.37388778647598
 20
-141.767746275322
 30
0.0
 10
69.30843097225623
 20
-142.1908040009106
 30
0.0
 10
69.30843097225623
 20
-142.1908040009106
 30
0.0
 10
69.36975367189368
 20
-142.1570420651552
 30
0.0
 10
69.45209145399114
 20
-142.1167344479778
 30
0.0
 10
69.57060273868375
 20
-142.1167344479778
 30
0.0
 10
69.82450627594666
 20
-142.1167344479778
 30
0.0
 10
70.06152884533185
 20
-142.3031141137298
 30
0.0
 10
70.06152884533185
 20
-142.6159287837905
 30
0.0
 10
70.06152884533185
 20
-142.9335665875305
 30
0.0
 10
69.83725312924207
 20
-143.168177590076
 30
0.0
 10
69.53477374563714
 20
-143.168177590076
 30
0.0
  0
HATCH
  5
BA
330
A7
100
AcDbEntity
  8
_U+30EC_U+30A4_U+30E4_U+30FC 1
 62
   179
420
  2234388
100
AcDbHatch
 10
0.0
 20
0.0
 30
0.0
210
0.0
220
0.0
230
1.0
  2
SOLID
 70
     1
 71
     0
 91
        1
 92
        1
 93
        1
 72
     4
 94
        3
 73
     0
 74
     1
 95
       53
 96
       49
 40
0.0
 40
0.0
 40
0.0
 40
0.0
 40
1.0
 40
1.0
 40
1.0
 40
2.0
 40
2.0
 40
2.0
 40
3.0
 40
3.0
 40
3.0
 40
4.0
 40
4.0
 40
4.0
 40
5.0
 40
5.0
 40
5.0
 40
6.0
 40
6.0
 40
6.0
 40
7.0
 40
7.0
 40
7.0
 40
8.0
 40
8.0
 40
8.0
 40
9.0
 40
9.0
 40
9.0
 40
10.0
 40
10.0
 40
10.0
 40
11.0
 40
11.0
 40
11.0
 40
12.0
 40
12.0
 40
12.0
 40
13.0
 40
13.0
 40
13.0
 40
14.0
 40
14.0
 40
14.0
 40
15.0
 40
15.0
 40
15.0
 40
16.0
 40
16.0
 40
16.0
 40
16.0
 10
69.53477374563714
 20
-143.168177590076
 10
69.45657007812197
 20
-143.168177590076
 10
69.35493976130711
 20
-143.1512966221983
 10
69.25330944449223
 20
-143.0879068652697
 10
69.08002114158417
 20
-142.9776638097417
 10
69.05866154957562
 20
-142.8467501813022
 10
69.03971352440674
 20
-142.7389186926139
 10
69.03971352440674
 20
-142.7389186926139
 10
69.26192218320536
 20
-142.7389186926139
 10
69.26192218320536
 20
-142.7389186926139
 10
69.31669920142083
 20
-142.9377007021128
 10
69.44382322482655
 20
-142.9673285232859
 10
69.5368408029283
 20
-142.9673285232859
 10
69.67636717008091
 20
-142.9673285232859
 10
69.82864039052896
 20
-142.8677652637622
 10
69.82864039052896
 20
-142.6352213185079
 10
69.82864039052896
 20
-142.3792507239538
 10
69.64880640619891
 20
-142.3093152856032
 10
69.52822806421517
 20
-142.3093152856032
 10
69.49653318575086
 20
-142.3093152856032
 10
69.35493976130711
 20
-142.3093152856032
 10
69.26605629778766
 20
-142.4385063663001
 10
69.26605629778766
 20
-142.4385063663001
 10
69.09035642803991
 20
-142.4192138315827
 10
69.09035642803991
 20
-142.4192138315827
 10
69.09035642803991
 20
-142.4192138315827
 10
69.21093477002366
 20
-141.5730983804054
 10
69.21093477002366
 20
-141.5730983804054
 10
69.21093477002366
 20
-141.5730983804054
 10
69.98952634969012
 20
-141.5730983804054
 10
69.98952634969012
 20
-141.5730983804054
 10
69.98952634969012
 20
-141.5730983804054
 10
69.98952634969012
 20
-141.767746275322
 10
69.98952634969012
 20
-141.767746275322
 10
69.98952634969012
 20
-141.767746275322
 10
69.37388778647598
 20
-141.767746275322
 10
69.37388778647598
 20
-141.767746275322
 10
69.37388778647598
 20
-141.767746275322
 10
69.30843097225623
 20
-142.1908040009106
 10
69.30843097225623
 20
-142.1908040009106
 10
69.36975367189368
 20
-142.1570420651552
 10
69.45209145399114
 20
-142.1167344479778
 10
69.57060273868375
 20
-142.1167344479778
 10
69.82450627594666
 20
-142.1167344479778
 10
70.06152884533185
 20
-142.3031141137298
 10
70.06152884533185
 20
-142.6159287837905
 10
70.06152884533185
 20
-142.9335665875305
 10
69.83725312924207
 20
-143.168177590076
 10
69.53477374563714
 20
-143.168177590076
 97
        0
 97
        0
 75
     2
 76
     1
 98
        0
  0
ENDBLK
  5
AA
330
A7
100
AcDbEntity
  8
0
100
AcDbBlockEnd
  0
ENDSEC
  0
SECTION
  2
ENTITIES
  0
INSERT
  5
42
330
1F
100
AcDbEntity
  8
_U+30EC_U+30A4_U+30E4_U+30FC 1
100
AcDbBlockReference
  2
block 2
 10
0.0
 20
0.0
 30
0.0
  0
ENDSEC
  0
SECTION
  2
OBJECTS
  0
DICTIONARY
  5
C
330
0
100
AcDbDictionary
281
     1
  3
ACAD_GROUP
350
D
  3
ACAD_LAYOUT
350
1A
  3
ACAD_MATERIAL
350
3B
  3
ACAD_MLEADERSTYLE
350
BC
  3
ACAD_MLINESTYLE
350
17
  3
ACAD_PLOTSETTINGS
350
19
  3
ACAD_PLOTSTYLENAME
350
E
  3
ACAD_TABLESTYLE
350
BB
  3
ACAD_VISUALSTYLE
350
2A
  0
SUN
  5
3F
330
29
100
AcDbSun
 90
        1
290
     0
 63
     7
421
 16777215
 40
1.0
291
     1
 91
  2455826
 92
 54000000
292
     0
 70
     2
 71
   256
280
     1
  0
DICTIONARY
  5
D
102
{ACAD_REACTORS
330
C
102
}
330
C
100
AcDbDictionary
281
     1
  0
DICTIONARY
  5
1A
102
{ACAD_REACTORS
330
C
102
}
330
C
100
AcDbDictionary
281
     1
  3
Layout1
350
1E
  3
Layout2
350
26
  3
Model
350
22
  0
DICTIONARY
  5
3B
102
{ACAD_REACTORS
330
C
102
}
330
C
100
AcDbDictionary
281
     1
  3
ByBlock
350
3D
  3
ByLayer
350
3C
  3
Global
350
3E
  0
DICTIONARY
  5
BC
102
{ACAD_REACTORS
330
C
102
}
330
C
100
AcDbDictionary
281
     1
  0
DICTIONARY
  5
17
102
{ACAD_REACTORS
330
C
102
}
330
C
100
AcDbDictionary
281
     1
  3
Standard
350
18
  0
DICTIONARY
  5
19
102
{ACAD_REACTORS
330
C
102
}
330
C
100
AcDbDictionary
281
     1
  0
ACDBDICTIONARYWDFLT
  5
E
102
{ACAD_REACTORS
330
C
102
}
330
C
100
AcDbDictionary
281
     1
  3
Normal
350
F
100
AcDbDictionaryWithDefault
340
F
  0
DICTIONARY
  5
BB
102
{ACAD_REACTORS
330
C
102
}
330
C
100
AcDbDictionary
281
     1
  0
DICTIONARY
  5
2A
102
{ACAD_REACTORS
330
C
102
}
330
C
100
AcDbDictionary
281
     1
  3
2dWireframe
350
2F
  3
3D Hidden
350
31
  3
3dWireframe
350
30
  3
Basic
350
32
  3
Brighten
350
36
  3
ColorChange
350
3A
  3
Conceptual
350
34
  3
Dim
350
35
  3
Facepattern
350
39
  3
Flat
350
2B
  3
FlatWithEdges
350
2C
  3
Gouraud
350
2D
  3
GouraudWithEdges
350
2E
  3
Linepattern
350
38
  3
Realistic
350
33
  3
Thicken
350
37
  0
LAYOUT
  5
1E
102
{ACAD_REACTORS
330
1A
102
}
330
1A
100
AcDbPlotSettings
  1

  2
none_device
  4

  6

 40
0.0
 41
0.0
 42
0.0
 43
0.0
 44
0.0
 45
0.0
 46
0.0
 47
0.0
 48
0.0
 49
0.0
140
0.0
141
0.0
142
1.0
143
1.0
 70
   688
 72
     0
 73
     0
 74
     5
  7

 75
    16
 76
     0
 77
     2
 78
   300
147
1.0
148
0.0
149
0.0
100
AcDbLayout
  1
Layout1
 70
     1
 71
     1
 10
0.0
 20
0.0
 11
12.0
 21
9.0
 12
0.0
 22
0.0
 32
0.0
 14
1.000000000000000E+20
 24
1.000000000000000E+20
 34
1.000000000000000E+20
 15
-1.000000000000000E+20
 25
-1.000000000000000E+20
 35
-1.000000000000000E+20
146
0.0
 13
0.0
 23
0.0
 33
0.0
 16
1.0
 26
0.0
 36
0.0
 17
0.0
 27
1.0
 37
0.0
 76
     0
330
1B
  0
LAYOUT
  5
26
102
{ACAD_REACTORS
330
1A
102
}
330
1A
100
AcDbPlotSettings
  1

  2
none_device
  4

  6

 40
0.0
 41
0.0
 42
0.0
 43
0.0
 44
0.0
 45
0.0
 46
0.0
 47
0.0
 48
0.0
 49
0.0
140
0.0
141
0.0
142
1.0
143
1.0
 70
   688
 72
     0
 73
     0
 74
     5
  7

 75
    16
 76
     0
 77
     2
 78
   300
147
1.0
148
0.0
149
0.0
100
AcDbLayout
  1
Layout2
 70
     1
 71
     2
 10
0.0
 20
0.0
 11
0.0
 21
0.0
 12
0.0
 22
0.0
 32
0.0
 14
0.0
 24
0.0
 34
0.0
 15
0.0
 25
0.0
 35
0.0
146
0.0
 13
0.0
 23
0.0
 33
0.0
 16
1.0
 26
0.0
 36
0.0
 17
0.0
 27
1.0
 37
0.0
 76
     0
330
23
  0
LAYOUT
  5
22
102
{ACAD_REACTORS
330
1A
102
}
330
1A
100
AcDbPlotSettings
  1

  2
none_device
  4

  6

 40
0.0
 41
0.0
 42
0.0
 43
0.0
 44
0.0
 45
0.0
 46
0.0
 47
0.0
 48
0.0
 49
0.0
140
0.0
141
0.0
142
1.0
143
1.0
 70
  1712
 72
     0
 73
     0
 74
     0
  7

 75
     0
 76
     0
 77
     2
 78
   300
147
1.0
148
0.0
149
0.0
100
AcDbLayout
  1
Model
 70
     1
 71
     0
 10
0.0
 20
0.0
 11
12.0
 21
9.0
 12
0.0
 22
0.0
 32
0.0
 14
1.000000000000000E+20
 24
1.000000000000000E+20
 34
1.000000000000000E+20
 15
-1.000000000000000E+20
 25
-1.000000000000000E+20
 35
-1.000000000000000E+20
146
0.0
 13
0.0
 23
0.0
 33
0.0
 16
1.0
 26
0.0
 36
0.0
 17
0.0
 27
1.0
 37
0.0
 76
     0
330
1F
331
29
  0
MATERIAL
  5
3D
102
{ACAD_REACTORS
330
3B
102
}
330
3B
100
AcDbMaterial
  1
ByBlock
 72
     1
 94
      127
  0
MATERIAL
  5
3C
102
{ACAD_REACTORS
330
3B
102
}
330
3B
100
AcDbMaterial
  1
ByLayer
 72
     1
 94
      127
  0
MATERIAL
  5
3E
102
{ACAD_REACTORS
330
3B
102
}
330
3B
100
AcDbMaterial
  1
Global
 72
     1
 94
      127
  0
MLINESTYLE
  5
18
102
{ACAD_REACTORS
330
17
102
}
330
17
100
AcDbMlineStyle
  2
Standard
 70
     0
  3

 62
   256
 51
90.0
 52
90.0
 71
     2
 49
0.5
 62
   256
  6
BYLAYER
 49
-0.5
 62
   256
  6
BYLAYER
  0
ACDBPLACEHOLDER
  5
F
102
{ACAD_REACTORS
330
E
102
}
330
E
  0
VISUALSTYLE
  5
2F
102
{ACAD_REACTORS
330
2A
102
}
330
2A
100
AcDbVisualStyle
  2
2dWireframe
 70
     4
177
     2
291
     0
 71
     0
176
     1
 72
     2
176
     1
 73
     0
176
     1
 90
        0
176
     1
 40
-0.6
176
     1
 41
-30.0
176
     1
 62
     5
 63
     7
421
 16777215
176
     1
 74
     1
176
     1
 91
        4
176
     1
 64
     7
176
     1
 65
   257
176
     1
 75
     1
176
     1
175
     1
176
     1
 42
1.0
176
     1
 92
        0
176
     1
 66
   257
176
     1
 43
1.0
176
     1
 76
     1
176
     1
 77
     6
176
     1
 78
     2
176
     1
 67
     7
176
     1
 79
     5
176
     1
170
     0
176
     1
171
     0
176
     1
290
     0
176
     1
 93
        1
176
     1
 44
0.0
176
     1
173
     0
176
     1
  0
VISUALSTYLE
  5
31
102
{ACAD_REACTORS
330
2A
102
}
330
2A
100
AcDbVisualStyle
  2
3D Hidden
 70
     6
177
     2
291
     0
 71
     1
176
     1
 72
     2
176
     1
 73
     2
176
     1
 90
        0
176
     1
 40
-0.6
176
     1
 41
-30.0
176
     1
 62
     5
 63
     7
421
 16777215
176
     1
 74
     2
176
     1
 91
        2
176
     1
 64
     7
176
     1
 65
   257
176
     1
 75
     2
176
     1
175
     1
176
     1
 42
40.0
176
     1
 92
        0
176
     1
 66
   257
176
     1
 43
1.0
176
     1
 76
     1
176
     1
 77
     6
176
     1
 78
     2
176
     1
 67
     7
176
     1
 79
     3
176
     1
170
     0
176
     1
171
     0
176
     1
290
     0
176
     1
 93
        1
176
     1
 44
0.0
176
     1
173
     0
176
     1
  0
VISUALSTYLE
  5
30
102
{ACAD_REACTORS
330
2A
102
}
330
2A
100
AcDbVisualStyle
  2
3dWireframe
 70
     5
177
     2
291
     0
 71
     0
176
     1
 72
     2
176
     1
 73
     0
176
     1
 90
        0
176
     1
 40
-0.6
176
     1
 41
-30.0
176
     1
 62
     5
 63
     7
421
 16777215
176
     1
 74
     1
176
     1
 91
        4
176
     1
 64
     7
176
     1
 65
   257
176
     1
 75
     1
176
     1
175
     1
176
     1
 42
1.0
176
     1
 92
        0
176
     1
 66
   257
176
     1
 43
1.0
176
     1
 76
     1
176
     1
 77
     6
176
     1
 78
     2
176
     1
 67
     7
176
     1
 79
     5
176
     1
170
     0
176
     1
171
     0
176
     1
290
     0
176
     1
 93
        1
176
     1
 44
0.0
176
     1
173
     0
176
     1
  0
VISUALSTYLE
  5
32
102
{ACAD_REACTORS
330
2A
102
}
330
2A
100
AcDbVisualStyle
  2
Basic
 70
     7
177
     2
291
     1
 71
     1
176
     1
 72
     0
176
     1
 73
     1
176
     1
 90
        0
176
     1
 40
-0.6
176
     1
 41
-30.0
176
     1
 62
     5
 63
     7
421
 16777215
176
     1
 74
     0
176
     1
 91
        4
176
     1
 64
     7
176
     1
 65
   257
176
     1
 75
     1
176
     1
175
     1
176
     1
 42
1.0
176
     1
 92
        8
176
     1
 66
     7
176
     1
 43
1.0
176
     1
 76
     1
176
     1
 77
     6
176
     1
 78
     2
176
     1
 67
     7
176
     1
 79
     5
176
     1
170
     0
176
     1
171
     0
176
     1
290
     0
176
     1
 93
        1
176
     1
 44
0.0
176
     1
173
     0
176
     1
  0
VISUALSTYLE
  5
36
102
{ACAD_REACTORS
330
2A
102
}
330
2A
100
AcDbVisualStyle
  2
Brighten
 70
    12
177
     2
291
     1
 71
     2
176
     1
 72
     2
176
     1
 73
     0
176
     1
 90
        0
176
     1
 40
-0.6
176
     1
 41
-30.0
176
     1
 62
     5
 63
     7
421
 16777215
176
     1
 74
     1
176
     1
 91
        4
176
     1
 64
     7
176
     1
 65
   257
176
     1
 75
     1
176
     1
175
     1
176
     1
 42
1.0
176
     1
 92
        8
176
     1
 66
     7
176
     1
 43
1.0
176
     1
 76
     1
176
     1
 77
     6
176
     1
 78
     2
176
     1
 67
     7
176
     1
 79
     5
176
     1
170
     0
176
     1
171
     0
176
     1
290
     0
176
     1
 93
        1
176
     1
 44
50.0
176
     1
173
     0
176
     1
  0
VISUALSTYLE
  5
3A
102
{ACAD_REACTORS
330
2A
102
}
330
2A
100
AcDbVisualStyle
  2
ColorChange
 70
    16
177
     2
291
     1
 71
     2
176
     1
 72
     2
176
     1
 73
     3
176
     1
 90
        0
176
     1
 40
-0.6
176
     1
 41
-30.0
176
     1
 62
     5
 63
     8
421
  8421504
176
     1
 74
     1
176
     1
 91
        4
176
     1
 64
     7
176
     1
 65
   257
176
     1
 75
     1
176
     1
175
     1
176
     1
 42
1.0
176
     1
 92
        8
176
     1
 66
     8
424
  8421504
176
     1
 43
1.0
176
     1
 76
     1
176
     1
 77
     6
176
     1
 78
     2
176
     1
 67
     7
176
     1
 79
     5
176
     1
170
     0
176
     1
171
     0
176
     1
290
     0
176
     1
 93
        1
176
     1
 44
0.0
176
     1
173
     0
176
     1
  0
VISUALSTYLE
  5
34
102
{ACAD_REACTORS
330
2A
102
}
330
2A
100
AcDbVisualStyle
  2
Conceptual
 70
     9
177
     2
291
     0
 71
     3
176
     1
 72
     2
176
     1
 73
     0
176
     1
 90
        0
176
     1
 40
-0.6
176
     1
 41
-30.0
176
     1
 62
     5
 63
     7
421
 16777215
176
     1
 74
     2
176
     1
 91
        2
176
     1
 64
     7
176
     1
 65
   257
176
     1
 75
     1
176
     1
175
     1
176
     1
 42
40.0
176
     1
 92
        8
176
     1
 66
     7
176
     1
 43
1.0
176
     1
 76
     1
176
     1
 77
     6
176
     1
 78
     2
176
     1
 67
     7
176
     1
 79
     3
176
     1
170
     0
176
     1
171
     0
176
     1
290
     0
176
     1
 93
        1
176
     1
 44
0.0
176
     1
173
     0
176
     1
  0
VISUALSTYLE
  5
35
102
{ACAD_REACTORS
330
2A
102
}
330
2A
100
AcDbVisualStyle
  2
Dim
 70
    11
177
     2
291
     1
 71
     2
176
     1
 72
     2
176
     1
 73
     0
176
     1
 90
        0
176
     1
 40
-0.6
176
     1
 41
-30.0
176
     1
 62
     5
 63
     7
421
 16777215
176
     1
 74
     1
176
     1
 91
        4
176
     1
 64
     7
176
     1
 65
   257
176
     1
 75
     1
176
     1
175
     1
176
     1
 42
1.0
176
     1
 92
        8
176
     1
 66
     7
176
     1
 43
1.0
176
     1
 76
     1
176
     1
 77
     6
176
     1
 78
     2
176
     1
 67
     7
176
     1
 79
     5
176
     1
170
     0
176
     1
171
     0
176
     1
290
     0
176
     1
 93
        1
176
     1
 44
-50.0
176
     1
173
     0
176
     1
  0
VISUALSTYLE
  5
39
102
{ACAD_REACTORS
330
2A
102
}
330
2A
100
AcDbVisualStyle
  2
Facepattern
 70
    15
177
     2
291
     1
 71
     2
176
     1
 72
     2
176
     1
 73
     0
176
     1
 90
        0
176
     1
 40
-0.6
176
     1
 41
-30.0
176
     1
 62
     5
 63
     7
421
 16777215
176
     1
 74
     1
176
     1
 91
        4
176
     1
 64
     7
176
     1
 65
   257
176
     1
 75
     1
176
     1
175
     1
176
     1
 42
1.0
176
     1
 92
        8
176
     1
 66
     7
176
     1
 43
1.0
176
     1
 76
     1
176
     1
 77
     6
176
     1
 78
     2
176
     1
 67
     7
176
     1
 79
     5
176
     1
170
     0
176
     1
171
     0
176
     1
290
     0
176
     1
 93
        1
176
     1
 44
0.0
176
     1
173
     0
176
     1
  0
VISUALSTYLE
  5
2B
102
{ACAD_REACTORS
330
2A
102
}
330
2A
100
AcDbVisualStyle
  2
Flat
 70
     0
177
     2
291
     1
 71
     2
176
     1
 72
     1
176
     1
 73
     1
176
     1
 90
        2
176
     1
 40
-0.6
176
     1
 41
30.0
176
     1
 62
     5
 63
     7
421
 16777215
176
     1
 74
     0
176
     1
 91
        4
176
     1
 64
     7
176
     1
 65
   257
176
     1
 75
     1
176
     1
175
     1
176
     1
 42
1.0
176
     1
 92
        8
176
     1
 66
     7
176
     1
 43
1.0
176
     1
 76
     1
176
     1
 77
     6
176
     1
 78
     2
176
     1
 67
     7
176
     1
 79
     5
176
     1
170
     0
176
     1
171
     0
176
     1
290
     0
176
     1
 93
       13
176
     1
 44
0.0
176
     1
173
     0
176
     1
  0
VISUALSTYLE
  5
2C
102
{ACAD_REACTORS
330
2A
102
}
330
2A
100
AcDbVisualStyle
  2
FlatWithEdges
 70
     1
177
     2
291
     1
 71
     2
176
     1
 72
     1
176
     1
 73
     1
176
     1
 90
        2
176
     1
 40
-0.6
176
     1
 41
30.0
176
     1
 62
     5
 63
     7
421
 16777215
176
     1
 74
     1
176
     1
 91
        4
176
     1
 64
     7
176
     1
 65
   257
176
     1
 75
     1
176
     1
175
     1
176
     1
 42
1.0
176
     1
 92
        0
176
     1
 66
   257
176
     1
 43
1.0
176
     1
 76
     1
176
     1
 77
     6
176
     1
 78
     2
176
     1
 67
     7
176
     1
 79
     5
176
     1
170
     0
176
     1
171
     0
176
     1
290
     0
176
     1
 93
       13
176
     1
 44
0.0
176
     1
173
     0
176
     1
  0
VISUALSTYLE
  5
2D
102
{ACAD_REACTORS
330
2A
102
}
330
2A
100
AcDbVisualStyle
  2
Gouraud
 70
     2
177
     2
291
     1
 71
     2
176
     1
 72
     2
176
     1
 73
     1
176
     1
 90
        2
176
     1
 40
-0.6
176
     1
 41
30.0
176
     1
 62
     5
 63
     7
421
 16777215
176
     1
 74
     0
176
     1
 91
        4
176
     1
 64
     7
176
     1
 65
   257
176
     1
 75
     1
176
     1
175
     1
176
     1
 42
1.0
176
     1
 92
        0
176
     1
 66
     7
176
     1
 43
1.0
176
     1
 76
     1
176
     1
 77
     6
176
     1
 78
     2
176
     1
 67
     7
176
     1
 79
     5
176
     1
170
     0
176
     1
171
     0
176
     1
290
     0
176
     1
 93
       13
176
     1
 44
0.0
176
     1
173
     0
176
     1
  0
VISUALSTYLE
  5
2E
102
{ACAD_REACTORS
330
2A
102
}
330
2A
100
AcDbVisualStyle
  2
GouraudWithEdges
 70
     3
177
     2
291
     1
 71
     2
176
     1
 72
     2
176
     1
 73
     1
176
     1
 90
        2
176
     1
 40
-0.6
176
     1
 41
30.0
176
     1
 62
     5
 63
     7
421
 16777215
176
     1
 74
     1
176
     1
 91
        4
176
     1
 64
     7
176
     1
 65
   257
176
     1
 75
     1
176
     1
175
     1
176
     1
 42
1.0
176
     1
 92
        0
176
     1
 66
   257
176
     1
 43
1.0
176
     1
 76
     1
176
     1
 77
     6
176
     1
 78
     2
176
     1
 67
     7
176
     1
 79
     5
176
     1
170
     0
176
     1
171
     0
176
     1
290
     0
176
     1
 93
       13
176
     1
 44
0.0
176
     1
173
     0
176
     1
  0
VISUALSTYLE
  5
38
102
{ACAD_REACTORS
330
2A
102
}
330
2A
100
AcDbVisualStyle
  2
Linepattern
 70
    14
177
     2
291
     1
 71
     2
176
     1
 72
     2
176
     1
 73
     0
176
     1
 90
        0
176
     1
 40
-0.6
176
     1
 41
-30.0
176
     1
 62
     5
 63
     7
421
 16777215
176
     1
 74
     1
176
     1
 91
        4
176
     1
 64
     7
176
     1
 65
   257
176
     1
 75
     7
176
     1
175
     7
176
     1
 42
1.0
176
     1
 92
        8
176
     1
 66
     7
176
     1
 43
1.0
176
     1
 76
     1
176
     1
 77
     6
176
     1
 78
     2
176
     1
 67
     7
176
     1
 79
     5
176
     1
170
     0
176
     1
171
     0
176
     1
290
     0
176
     1
 93
        1
176
     1
 44
0.0
176
     1
173
     0
176
     1
  0
VISUALSTYLE
  5
33
102
{ACAD_REACTORS
330
2A
102
}
330
2A
100
AcDbVisualStyle
  2
Realistic
 70
     8
177
     2
291
     0
 71
     2
176
     1
 72
     2
176
     1
 73
     0
176
     1
 90
        0
176
     1
 40
-0.6
176
     1
 41
-30.0
176
     1
 62
     5
 63
     7
421
 16777215
176
     1
 74
     1
176
     1
 91
        0
176
     1
 64
     7
176
     1
 65
   257
176
     1
 75
     1
176
     1
175
     1
176
     1
 42
1.0
176
     1
 92
        8
176
     1
 66
     8
424
  7895160
176
     1
 43
1.0
176
     1
 76
     1
176
     1
 77
     6
176
     1
 78
     2
176
     1
 67
     7
176
     1
 79
     5
176
     1
170
     0
176
     1
171
     0
176
     1
290
     0
176
     1
 93
       13
176
     1
 44
0.0
176
     1
173
     0
176
     1
  0
VISUALSTYLE
  5
37
102
{ACAD_REACTORS
330
2A
102
}
330
2A
100
AcDbVisualStyle
  2
Thicken
 70
    13
177
     2
291
     1
 71
     2
176
     1
 72
     2
176
     1
 73
     0
176
     1
 90
        0
176
     1
 40
-0.6
176
     1
 41
-30.0
176
     1
 62
     5
 63
     7
421
 16777215
176
     1
 74
     1
176
     1
 91
        4
176
     1
 64
     7
176
     1
 65
   257
176
     1
 75
     1
176
     1
175
     1
176
     1
 42
1.0
176
     1
 92
       12
176
     1
 66
     7
176
     1
 43
1.0
176
     1
 76
     1
176
     1
 77
     6
176
     1
 78
     2
176
     1
 67
     7
176
     1
 79
     5
176
     1
170
     0
176
     1
171
     0
176
     1
290
     0
176
     1
 93
        1
176
     1
 44
0.0
176
     1
173
     0
176
     1
  0
ENDSEC
  0
EOF
