  0
SECTION
  2
HEADER
  9
$ACADVER
  1
AC1024
  9
$ACADMAINTVER
 70
     6
  9
$DWGCODEPAGE
  3
UNDEFINED
  9
$INSBASE
 10
0.0
 20
0.0
 30
0.0
  9
$EXTMIN
 10
1.000000000000000E+20
 20
1.000000000000000E+20
 30
1.000000000000000E+20
  9
$EXTMAX
 10
-1.000000000000000E+20
 20
-1.000000000000000E+20
 30
-1.000000000000000E+20
  9
$LIMMIN
 10
0.0
 20
0.0
  9
$LIMMAX
 10
12.0
 20
9.0
  9
$ORTHOMODE
 70
     0
  9
$REGENMODE
 70
     1
  9
$FILLMODE
 70
     1
  9
$QTEXTMODE
 70
     0
  9
$MIRRTEXT
 70
     1
  9
$LTSCALE
 40
1.0
  9
$ATTMODE
 70
     1
  9
$TEXTSIZE
 40
0.2
  9
$TRACEWID
 40
0.05
  9
$TEXTSTYLE
  7
Standard
  9
$CLAYER
  8
0
  9
$CELTYPE
  6
ByLayer
  9
$CECOLOR
 62
   256
  9
$CELTSCALE
 40
1.0
  9
$DISPSILH
 70
     0
  9
$DIMSCALE
 40
1.0
  9
$DIMASZ
 40
0.18
  9
$DIMEXO
 40
0.0625
  9
$DIMDLI
 40
0.38
  9
$DIMRND
 40
0.0
  9
$DIMDLE
 40
0.0
  9
$DIMEXE
 40
0.18
  9
$DIMTP
 40
0.0
  9
$DIMTM
 40
0.0
  9
$DIMTXT
 40
0.18
  9
$DIMCEN
 40
0.09
  9
$DIMTSZ
 40
0.0
  9
$DIMTOL
 70
     0
  9
$DIMLIM
 70
     0
  9
$DIMTIH
 70
     1
  9
$DIMTOH
 70
     1
  9
$DIMSE1
 70
     0
  9
$DIMSE2
 70
     0
  9
$DIMTAD
 70
     0
  9
$DIMZIN
 70
     0
  9
$DIMBLK
  1

  9
$DIMASO
 70
     1
  9
$DIMSHO
 70
     1
  9
$DIMPOST
  1

  9
$DIMAPOST
  1

  9
$DIMALT
 70
     0
  9
$DIMALTD
 70
     2
  9
$DIMALTF
 40
25.4
  9
$DIMLFAC
 40
1.0
  9
$DIMTOFL
 70
     0
  9
$DIMTVP
 40
0.0
  9
$DIMTIX
 70
     0
  9
$DIMSOXD
 70
     0
  9
$DIMSAH
 70
     0
  9
$DIMBLK1
  1

  9
$DIMBLK2
  1

  9
$DIMSTYLE
  2
Standard
  9
$DIMCLRD
 70
     0
  9
$DIMCLRE
 70
     0
  9
$DIMCLRT
 70
     0
  9
$DIMTFAC
 40
1.0
  9
$DIMGAP
 40
0.09
  9
$DIMJUST
 70
     0
  9
$DIMSD1
 70
     0
  9
$DIMSD2
 70
     0
  9
$DIMTOLJ
 70
     1
  9
$DIMTZIN
 70
     0
  9
$DIMALTZ
 70
     0
  9
$DIMALTTZ
 70
     0
  9
$DIMUPT
 70
     0
  9
$DIMDEC
 70
     4
  9
$DIMTDEC
 70
     4
  9
$DIMALTU
 70
     2
  9
$DIMALTTD
 70
     2
  9
$DIMTXSTY
  7
Standard
  9
$DIMAUNIT
 70
     0
  9
$DIMADEC
 70
     0
  9
$DIMALTRND
 40
0.0
  9
$DIMAZIN
 70
     0
  9
$DIMDSEP
 70
    46
  9
$DIMATFIT
 70
     3
  9
$DIMFRAC
 70
     0
  9
$DIMLDRBLK
  1

  9
$DIMLUNIT
 70
     2
  9
$DIMLWD
 70
    -2
  9
$DIMLWE
 70
    -2
  9
$DIMTMOVE
 70
     0
  9
$DIMFXL
 40
1.0
  9
$DIMFXLON
 70
     0
  9
$DIMJOGANG
 40
0.7853981633974483
  9
$DIMTFILL
 70
     0
  9
$DIMTFILLCLR
 70
     0
  9
$DIMARCSYM
 70
     0
  9
$DIMLTYPE
  6

  9
$DIMLTEX1
  6

  9
$DIMLTEX2
  6

  9
$DIMTXTDIRECTION
 70
     0
  9
$LUNITS
 70
     2
  9
$LUPREC
 70
     4
  9
$SKETCHINC
 40
0.1
  9
$FILLETRAD
 40
0.5
  9
$AUNITS
 70
     0
  9
$AUPREC
 70
     0
  9
$MENU
  1
.
  9
$ELEVATION
 40
0.0
  9
$PELEVATION
 40
0.0
  9
$THICKNESS
 40
0.0
  9
$LIMCHECK
 70
     0
  9
$CHAMFERA
 40
0.5
  9
$CHAMFERB
 40
0.5
  9
$CHAMFERC
 40
1.0
  9
$CHAMFERD
 40
0.0
  9
$SKPOLY
 70
     0
  9
$TDCREATE
 40
2458263.773611099
  9
$TDUCREATE
 40
2458263.398611111
  9
$TDUPDATE
 40
2458263.773611099
  9
$TDUUPDATE
 40
2458263.398611111
  9
$TDINDWG
 40
0.0000000116
  9
$TDUSRTIMER
 40
0.0000000116
  9
$USRTIMER
 70
     1
  9
$ANGBASE
 50
0.0
  9
$ANGDIR
 70
     0
  9
$PDMODE
 70
     0
  9
$PDSIZE
 40
0.0
  9
$PLINEWID
 40
0.0
  9
$SPLFRAME
 70
     0
  9
$SPLINETYPE
 70
     6
  9
$SPLINESEGS
 70
     8
  9
$HANDSEED
  5
D4
  9
$SURFTAB1
 70
     6
  9
$SURFTAB2
 70
     6
  9
$SURFTYPE
 70
     6
  9
$SURFU
 70
     6
  9
$SURFV
 70
     6
  9
$UCSBASE
  2

  9
$UCSNAME
  2

  9
$UCSORG
 10
0.0
 20
0.0
 30
0.0
  9
$UCSXDIR
 10
1.0
 20
0.0
 30
0.0
  9
$UCSYDIR
 10
0.0
 20
1.0
 30
0.0
  9
$UCSORTHOREF
  2

  9
$UCSORTHOVIEW
 70
     0
  9
$UCSORGTOP
 10
0.0
 20
0.0
 30
0.0
  9
$UCSORGBOTTOM
 10
0.0
 20
0.0
 30
0.0
  9
$UCSORGLEFT
 10
0.0
 20
0.0
 30
0.0
  9
$UCSORGRIGHT
 10
0.0
 20
0.0
 30
0.0
  9
$UCSORGFRONT
 10
0.0
 20
0.0
 30
0.0
  9
$UCSORGBACK
 10
0.0
 20
0.0
 30
0.0
  9
$PUCSBASE
  2

  9
$PUCSNAME
  2

  9
$PUCSORG
 10
0.0
 20
0.0
 30
0.0
  9
$PUCSXDIR
 10
1.0
 20
0.0
 30
0.0
  9
$PUCSYDIR
 10
0.0
 20
1.0
 30
0.0
  9
$PUCSORTHOREF
  2

  9
$PUCSORTHOVIEW
 70
     0
  9
$PUCSORGTOP
 10
0.0
 20
0.0
 30
0.0
  9
$PUCSORGBOTTOM
 10
0.0
 20
0.0
 30
0.0
  9
$PUCSORGLEFT
 10
0.0
 20
0.0
 30
0.0
  9
$PUCSORGRIGHT
 10
0.0
 20
0.0
 30
0.0
  9
$PUCSORGFRONT
 10
0.0
 20
0.0
 30
0.0
  9
$PUCSORGBACK
 10
0.0
 20
0.0
 30
0.0
  9
$USERI1
 70
     0
  9
$USERI2
 70
     0
  9
$USERI3
 70
     0
  9
$USERI4
 70
     0
  9
$USERI5
 70
     0
  9
$USERR1
 40
0.0
  9
$USERR2
 40
0.0
  9
$USERR3
 40
0.0
  9
$USERR4
 40
0.0
  9
$USERR5
 40
0.0
  9
$WORLDVIEW
 70
     1
  9
$SHADEDGE
 70
     3
  9
$SHADEDIF
 70
    70
  9
$TILEMODE
 70
     1
  9
$MAXACTVP
 70
    64
  9
$PINSBASE
 10
0.0
 20
0.0
 30
0.0
  9
$PLIMCHECK
 70
     0
  9
$PEXTMIN
 10
1.000000000000000E+20
 20
1.000000000000000E+20
 30
1.000000000000000E+20
  9
$PEXTMAX
 10
-1.000000000000000E+20
 20
-1.000000000000000E+20
 30
-1.000000000000000E+20
  9
$PLIMMIN
 10
0.0
 20
0.0
  9
$PLIMMAX
 10
12.0
 20
9.0
  9
$UNITMODE
 70
     0
  9
$VISRETAIN
 70
     1
  9
$PLINEGEN
 70
     0
  9
$PSLTSCALE
 70
     1
  9
$TREEDEPTH
 70
  3020
  9
$CMLSTYLE
  2
Standard
  9
$CMLJUST
 70
     0
  9
$CMLSCALE
 40
1.0
  9
$PROXYGRAPHICS
 70
     1
  9
$MEASUREMENT
 70
     0
  9
$CELWEIGHT
370
    -1
  9
$ENDCAPS
280
     0
  9
$JOINSTYLE
280
     0
  9
$LWDISPLAY
290
     1
  9
$INSUNITS
 70
     1
  9
$HYPERLINKBASE
  1

  9
$STYLESHEET
  1

  9
$XEDIT
290
     1
  9
$CEPSNTYPE
380
     0
  9
$PSTYLEMODE
290
     1
  9
$FINGERPRINTGUID
  2
{81609C02-DAC7-AAD5-E3D3-8B9472F9B262}
  9
$VERSIONGUID
  2
{FAEB1C32-E019-11D5-929B-00C0DF256EC4}
  9
$EXTNAMES
290
     1
  9
$PSVPSCALE
 40
0.0
  9
$OLESTARTUP
290
     0
  9
$SORTENTS
280
   127
  9
$INDEXCTL
280
     0
  9
$HIDETEXT
280
     1
  9
$XCLIPFRAME
280
     2
  9
$HALOGAP
280
     0
  9
$OBSCOLOR
 70
   257
  9
$OBSLTYPE
280
     0
  9
$INTERSECTIONDISPLAY
280
     0
  9
$INTERSECTIONCOLOR
 70
   257
  9
$DIMASSOC
280
     2
  9
$PROJECTNAME
  1

  9
$CAMERADISPLAY
290
     0
  9
$LENSLENGTH
 40
50.0
  9
$CAMERAHEIGHT
 40
0.0
  9
$STEPSPERSEC
 40
2.0
  9
$STEPSIZE
 40
6.0
  9
$3DDWFPREC
 40
2.0
  9
$PSOLWIDTH
 40
0.25
  9
$PSOLHEIGHT
 40
4.0
  9
$LOFTANG1
 40
1.570796326794897
  9
$LOFTANG2
 40
1.570796326794897
  9
$LOFTMAG1
 40
0.0
  9
$LOFTMAG2
 40
0.0
  9
$LOFTPARAM
 70
     7
  9
$LOFTNORMALS
280
     1
  9
$LATITUDE
 40
37.795
  9
$LONGITUDE
 40
-122.394
  9
$NORTHDIRECTION
 40
0.0
  9
$TIMEZONE
 70
 -8000
  9
$LIGHTGLYPHDISPLAY
280
     1
  9
$TILEMODELIGHTSYNCH
280
     1
  9
$CMATERIAL
347
3C
  9
$SOLIDHIST
280
     1
  9
$SHOWHIST
280
     1
  9
$DWFFRAME
280
     2
  9
$DGNFRAME
280
     2
  9
$REALWORLDSCALE
290
     1
  9
$INTERFERECOLOR
 62
   256
  9
$CSHADOW
280
     0
  9
$SHADOWPLANELOCATION
 40
0.0
  0
ENDSEC
  0
SECTION
  2
CLASSES
  0
CLASS
  1
ACDBDICTIONARYWDFLT
  2
AcDbDictionaryWithDefault
  3
ObjectDBX Classes
 90
        0
 91
        4
280
     0
281
     0
  0
CLASS
  1
VISUALSTYLE
  2
AcDbVisualStyle
  3
ObjectDBX Classes
 90
     4095
 91
        4
280
     0
281
     0
  0
CLASS
  1
MATERIAL
  2
AcDbMaterial
  3
ObjectDBX Classes
 90
     1153
 91
        4
280
     0
281
     0
  0
CLASS
  1
SUN
  2
AcDbSun
  3
SCENEOE
 90
     1024
 91
        4
280
     0
281
     0
  0
ENDSEC
  0
SECTION
  2
TABLES
  0
TABLE
  2
VPORT
  5
8
330
0
100
AcDbSymbolTable
 70
     1
  0
VPORT
  5
29
330
8
100
AcDbSymbolTableRecord
100
AcDbViewportTableRecord
  2
*Active
 70
     0
 10
0.0
 20
0.0
 11
1.0
 21
1.0
 12
0.0
 22
0.0
 13
0.0
 23
0.0
 14
0.5
 24
0.5
 15
0.5
 25
0.5
 16
0.0
 26
0.0
 36
1.0
 17
105.0007777515277
 27
-148.5000416295416
 37
0.0
 40
297.0000832590831
 41
0.7070757462376333
 42
50.0
 43
0.0
 44
0.0
 50
0.0
 51
0.0
 71
     0
 72
   100
 73
     1
 74
     3
 75
     0
 76
     0
 77
     0
 78
     0
281
     0
 65
     1
110
0.0
120
0.0
130
0.0
111
1.0
121
0.0
131
0.0
112
0.0
122
1.0
132
0.0
 79
     0
146
0.0
 60
     3
 61
     5
292
     1
282
     1
141
0.0
142
0.0
 63
   250
361
3F
  0
ENDTAB
  0
TABLE
  2
LTYPE
  5
5
330
0
100
AcDbSymbolTable
 70
     2
  0
LTYPE
  5
14
330
5
100
AcDbSymbolTableRecord
100
AcDbLinetypeTableRecord
  2
ByBlock
 70
     0
  3

 72
    65
 73
     0
 40
0.0
  0
LTYPE
  5
15
330
5
100
AcDbSymbolTableRecord
100
AcDbLinetypeTableRecord
  2
ByLayer
 70
     0
  3

 72
    65
 73
     0
 40
0.0
  0
LTYPE
  5
16
330
5
100
AcDbSymbolTableRecord
100
AcDbLinetypeTableRecord
  2
Continuous
 70
     0
  3
Solid line
 72
    65
 73
     0
 40
0.0
  0
LTYPE
  5
8E
330
5
100
AcDbSymbolTableRecord
100
AcDbLinetypeTableRecord
  2
AI-Linetype-1
 70
     0
  3
Adobe Illustrator Linetype No. 1
 72
    65
 73
     2
 40
1.411111110758333
 49
0.7055555553791667
 74
     0
 49
-0.7055555553791667
 74
     0
  0
ENDTAB
  0
TABLE
  2
LAYER
  5
2
330
0
100
AcDbSymbolTable
 70
     2
  0
LAYER
  5
10
330
2
100
AcDbSymbolTableRecord
100
AcDbLayerTableRecord
  2
0
 70
     0
 62
     7
  6
Continuous
370
    -3
390
F
347
3E
  0
LAYER
  5
40
330
2
100
AcDbSymbolTableRecord
100
AcDbLayerTableRecord
  2
_U+30EC_U+30A4_U+30E4_U+30FC 1
 70
     0
 62
     7
  6
Continuous
370
    -3
390
F
347
3E
  0
ENDTAB
  0
TABLE
  2
STYLE
  5
3
330
0
100
AcDbSymbolTable
 70
     1
  0
STYLE
  5
11
330
3
100
AcDbSymbolTableRecord
100
AcDbTextStyleTableRecord
  2
Standard
 70
     0
 40
0.0
 41
1.0
 50
0.0
 71
     0
 42
0.2
  3
txt
  4

  0
ENDTAB
  0
TABLE
  2
VIEW
  5
6
330
0
100
AcDbSymbolTable
 70
     0
  0
ENDTAB
  0
TABLE
  2
UCS
  5
7
330
0
100
AcDbSymbolTable
 70
     0
  0
ENDTAB
  0
TABLE
  2
APPID
  5
9
330
0
100
AcDbSymbolTable
 70
     1
  0
APPID
  5
12
330
9
100
AcDbSymbolTableRecord
100
AcDbRegAppTableRecord
  2
ACAD
 70
     0
  0
ENDTAB
  0
TABLE
  2
DIMSTYLE
  5
A
330
0
100
AcDbSymbolTable
 70
     1
100
AcDbDimStyleTable
  0
DIMSTYLE
105
27
330
A
100
AcDbSymbolTableRecord
100
AcDbDimStyleTableRecord
  2
Standard
 70
     0
178
     0
340
11
  0
ENDTAB
  0
TABLE
  2
BLOCK_RECORD
  5
1
330
0
100
AcDbSymbolTable
 70
     4
  0
BLOCK_RECORD
  5
1F
330
1
100
AcDbSymbolTableRecord
100
AcDbBlockTableRecord
  2
*Model_Space
340
22
 70
     0
280
     1
281
     0
  0
BLOCK_RECORD
  5
1B
330
1
100
AcDbSymbolTableRecord
100
AcDbBlockTableRecord
  2
*Paper_Space
340
1E
 70
     0
280
     1
281
     0
  0
BLOCK_RECORD
  5
23
330
1
100
AcDbSymbolTableRecord
100
AcDbBlockTableRecord
  2
*Paper_Space0
340
26
 70
     0
280
     1
281
     0
  0
BLOCK_RECORD
  5
6A
330
1
100
AcDbSymbolTableRecord
100
AcDbBlockTableRecord
  2
block 2
340
0
102
{BLKREFS
331
6B
102
}
 70
     0
280
     1
281
     0
  0
BLOCK_RECORD
  5
80
330
1
100
AcDbSymbolTableRecord
100
AcDbBlockTableRecord
  2
block 3
340
0
102
{BLKREFS
331
81
102
}
 70
     0
280
     1
281
     0
  0
BLOCK_RECORD
  5
94
330
1
100
AcDbSymbolTableRecord
100
AcDbBlockTableRecord
  2
block 4
340
0
102
{BLKREFS
331
95
102
}
 70
     0
280
     1
281
     0
  0
ENDTAB
  0
ENDSEC
  0
SECTION
  2
BLOCKS
  0
BLOCK
  5
20
330
1F
100
AcDbEntity
  8
0
100
AcDbBlockBegin
  2
*Model_Space
 70
     0
 10
0.0
 20
0.0
 30
0.0
  3
*Model_Space
  1

  0
ENDBLK
  5
21
330
1F
100
AcDbEntity
  8
0
100
AcDbBlockEnd
  0
BLOCK
  5
1C
330
1B
100
AcDbEntity
 67
     1
  8
0
100
AcDbBlockBegin
  2
*Paper_Space
 70
     0
 10
0.0
 20
0.0
 30
0.0
  3
*Paper_Space
  1

  0
ENDBLK
  5
1D
330
1B
100
AcDbEntity
 67
     1
  8
0
100
AcDbBlockEnd
  0
BLOCK
  5
24
330
23
100
AcDbEntity
  8
0
100
AcDbBlockBegin
  2
*Paper_Space0
 70
     0
 10
0.0
 20
0.0
 30
0.0
  3
*Paper_Space0
  1

  0
ENDBLK
  5
25
330
23
100
AcDbEntity
  8
0
100
AcDbBlockEnd
  0
BLOCK
  5
6C
330
6A
100
AcDbEntity
  8
0
100
AcDbBlockBegin
  2
block 2
 70
     0
 10
0.0
 20
0.0
 30
0.0
  3
block 2
  1

  0
SPLINE
  5
6E
330
6A
100
AcDbEntity
  8
_U+30EC_U+30A4_U+30E4_U+30FC 1
370
     0
100
AcDbSpline
210
0.0
220
0.0
230
1.0
 70
    11
 71
     3
 72
    26
 73
    22
 74
     0
 42
0.0000000001
 43
0.0000000001
 12
1.0
 22
0.0
 32
0.0
 13
1.0
 23
0.0
 33
0.0
 40
0.0
 40
0.0
 40
0.0
 40
0.0
 40
1.0
 40
1.0
 40
1.0
 40
2.0
 40
2.0
 40
2.0
 40
3.0
 40
3.0
 40
3.0
 40
4.0
 40
4.0
 40
4.0
 40
5.0
 40
5.0
 40
5.0
 40
6.0
 40
6.0
 40
6.0
 40
7.0
 40
7.0
 40
7.0
 40
7.0
 10
92.28377276338739
 20
-146.8030978365631
 30
0.0
 10
92.28377276338739
 20
-146.8030978365631
 30
0.0
 10
91.1792751508163
 20
-146.8030978365631
 30
0.0
 10
91.1792751508163
 20
-146.8030978365631
 30
0.0
 10
91.1792751508163
 20
-146.8030978365631
 30
0.0
 10
91.1792751508163
 20
-147.1331379840501
 30
0.0
 10
91.1792751508163
 20
-147.1331379840501
 30
0.0
 10
91.1792751508163
 20
-147.1331379840501
 30
0.0
 10
91.03113604495056
 20
-147.1331379840501
 30
0.0
 10
91.03113604495056
 20
-147.1331379840501
 30
0.0
 10
91.0166666439125
 20
-146.801030779272
 30
0.0
 10
90.85371362746018
 20
-146.7545219902211
 30
0.0
 10
90.73933645734989
 20
-146.724894169048
 30
0.0
 10
90.73933645734989
 20
-146.724894169048
 30
0.0
 10
90.73933645734989
 20
-146.5788221204733
 30
0.0
 10
90.73933645734989
 20
-146.5788221204733
 30
0.0
 10
90.73933645734989
 20
-146.5788221204733
 30
0.0
 10
92.28377276338739
 20
-146.5788221204733
 30
0.0
 10
92.28377276338739
 20
-146.5788221204733
 30
0.0
 10
92.28377276338739
 20
-146.5788221204733
 30
0.0
 10
92.28377276338739
 20
-146.8030978365631
 30
0.0
 10
92.28377276338739
 20
-146.8030978365631
 30
0.0
  0
HATCH
  5
6F
330
6A
100
AcDbEntity
  8
_U+30EC_U+30A4_U+30E4_U+30FC 1
 62
   179
420
  2234388
100
AcDbHatch
 10
0.0
 20
0.0
 30
0.0
210
0.0
220
0.0
230
1.0
  2
SOLID
 70
     1
 71
     0
 91
        1
 92
        1
 93
        1
 72
     4
 94
        3
 73
     0
 74
     1
 95
       26
 96
       22
 40
0.0
 40
0.0
 40
0.0
 40
0.0
 40
1.0
 40
1.0
 40
1.0
 40
2.0
 40
2.0
 40
2.0
 40
3.0
 40
3.0
 40
3.0
 40
4.0
 40
4.0
 40
4.0
 40
5.0
 40
5.0
 40
5.0
 40
6.0
 40
6.0
 40
6.0
 40
7.0
 40
7.0
 40
7.0
 40
7.0
 10
92.28377276338739
 20
-146.8030978365631
 10
92.28377276338739
 20
-146.8030978365631
 10
91.1792751508163
 20
-146.8030978365631
 10
91.1792751508163
 20
-146.8030978365631
 10
91.1792751508163
 20
-146.8030978365631
 10
91.1792751508163
 20
-147.1331379840501
 10
91.1792751508163
 20
-147.1331379840501
 10
91.1792751508163
 20
-147.1331379840501
 10
91.03113604495056
 20
-147.1331379840501
 10
91.03113604495056
 20
-147.1331379840501
 10
91.0166666439125
 20
-146.801030779272
 10
90.85371362746018
 20
-146.7545219902211
 10
90.73933645734989
 20
-146.724894169048
 10
90.73933645734989
 20
-146.724894169048
 10
90.73933645734989
 20
-146.5788221204733
 10
90.73933645734989
 20
-146.5788221204733
 10
90.73933645734989
 20
-146.5788221204733
 10
92.28377276338739
 20
-146.5788221204733
 10
92.28377276338739
 20
-146.5788221204733
 10
92.28377276338739
 20
-146.5788221204733
 10
92.28377276338739
 20
-146.8030978365631
 10
92.28377276338739
 20
-146.8030978365631
 97
        0
 97
        0
 75
     2
 76
     1
 98
        0
  0
SPLINE
  5
70
330
6A
100
AcDbEntity
  8
_U+30EC_U+30A4_U+30E4_U+30FC 1
370
     0
100
AcDbSpline
210
0.0
220
0.0
230
1.0
 70
    11
 71
     3
 72
    29
 73
    25
 74
     0
 42
0.0000000001
 43
0.0000000001
 12
1.0
 22
0.0
 32
0.0
 13
1.0
 23
0.0
 33
0.0
 40
0.0
 40
0.0
 40
0.0
 40
0.0
 40
1.0
 40
1.0
 40
1.0
 40
2.0
 40
2.0
 40
2.0
 40
3.0
 40
3.0
 40
3.0
 40
4.0
 40
4.0
 40
4.0
 40
5.0
 40
5.0
 40
5.0
 40
6.0
 40
6.0
 40
6.0
 40
7.0
 40
7.0
 40
7.0
 40
8.0
 40
8.0
 40
8.0
 40
8.0
 10
92.33441566702056
 20
-145.5776773724598
 30
0.0
 10
92.33441566702056
 20
-145.8443277630181
 30
0.0
 10
92.1969563571591
 20
-146.098231300281
 30
0.0
 10
91.84796818450329
 20
-146.098231300281
 30
0.0
 10
91.59199758994923
 20
-146.098231300281
 30
0.0
 10
91.49656844500781
 20
-145.9562933662887
 30
0.0
 10
91.43524574537037
 20
-145.8505289348915
 30
0.0
 10
91.37599010302407
 20
-145.9752413914576
 30
0.0
 10
91.26195744246229
 20
-146.0513780016816
 30
0.0
 10
91.10107148330113
 20
-146.0513780016816
 30
0.0
 10
90.82615286357819
 20
-146.0513780016816
 30
0.0
 10
90.69076061100787
 20
-145.8525959921827
 30
0.0
 10
90.69076061100787
 20
-145.5776773724598
 30
0.0
 10
90.69076061100787
 20
-145.2941460140237
 30
0.0
 10
90.83442109274279
 20
-145.1036322336894
 30
0.0
 10
91.10107148330113
 20
-145.1036322336894
 30
0.0
 10
91.26195744246229
 20
-145.1036322336894
 30
0.0
 10
91.37599010302407
 20
-145.1821804107531
 30
0.0
 10
91.43524574537037
 20
-145.3068928673191
 30
0.0
 10
91.48623315855205
 20
-145.2180094037997
 30
0.0
 10
91.58131779394495
 20
-145.0591905019297
 30
0.0
 10
91.84348956037246
 20
-145.0591905019297
 30
0.0
 10
92.21797143961912
 20
-145.0591905019297
 30
0.0
 10
92.33441566702056
 20
-145.3385877457834
 30
0.0
 10
92.33441566702056
 20
-145.5776773724598
 30
0.0
  0
SPLINE
  5
71
330
6A
100
AcDbEntity
  8
_U+30EC_U+30A4_U+30E4_U+30FC 1
370
     0
100
AcDbSpline
210
0.0
220
0.0
230
1.0
 70
    11
 71
     3
 72
    17
 73
    13
 74
     0
 42
0.0000000001
 43
0.0000000001
 12
1.0
 22
0.0
 32
0.0
 13
1.0
 23
0.0
 33
0.0
 40
0.0
 40
0.0
 40
0.0
 40
0.0
 40
1.0
 40
1.0
 40
1.0
 40
2.0
 40
2.0
 40
2.0
 40
3.0
 40
3.0
 40
3.0
 40
4.0
 40
4.0
 40
4.0
 40
4.0
 10
90.88334144863333
 20
-145.5776773724598
 30
0.0
 10
90.88334144863333
 20
-145.7426974462032
 30
0.0
 10
90.97842608402622
 20
-145.8274467951404
 30
0.0
 10
91.11381833659655
 20
-145.8274467951404
 30
0.0
 10
91.23646373587144
 20
-145.8274467951404
 30
0.0
 10
91.35497502056404
 20
-145.7554442994986
 30
0.0
 10
91.35497502056404
 20
-145.5776773724598
 30
0.0
 10
91.35497502056404
 20
-145.3999104454209
 30
0.0
 10
91.23646373587144
 20
-145.3279079497791
 30
0.0
 10
91.11381833659655
 20
-145.3279079497791
 30
0.0
 10
90.97842608402622
 20
-145.3279079497791
 30
0.0
 10
90.88334144863333
 20
-145.4147243560074
 30
0.0
 10
90.88334144863333
 20
-145.5776773724598
 30
0.0
  0
SPLINE
  5
72
330
6A
100
AcDbEntity
  8
_U+30EC_U+30A4_U+30E4_U+30FC 1
370
     0
100
AcDbSpline
210
0.0
220
0.0
230
1.0
 70
    11
 71
     3
 72
    17
 73
    13
 74
     0
 42
0.0000000001
 43
0.0000000001
 12
1.0
 22
0.0
 32
0.0
 13
1.0
 23
0.0
 33
0.0
 40
0.0
 40
0.0
 40
0.0
 40
0.0
 40
1.0
 40
1.0
 40
1.0
 40
2.0
 40
2.0
 40
2.0
 40
3.0
 40
3.0
 40
3.0
 40
4.0
 40
4.0
 40
4.0
 40
4.0
 10
91.5434217436072
 20
-145.5776773724598
 30
0.0
 10
91.5434217436072
 20
-145.7213378541947
 30
0.0
 10
91.62989364028698
 20
-145.8739555841912
 30
0.0
 10
91.83315427391672
 20
-145.8739555841912
 30
0.0
 10
92.03813745528907
 20
-145.8739555841912
 30
0.0
 10
92.13976777210395
 20
-145.7468315607855
 30
0.0
 10
92.13976777210395
 20
-145.5776773724598
 30
0.0
 10
92.13976777210395
 20
-145.3916422162563
 30
0.0
 10
92.01712237282905
 20
-145.2813991607283
 30
0.0
 10
91.83935544579016
 20
-145.2813991607283
 30
0.0
 10
91.61714678699155
 20
-145.2813991607283
 30
0.0
 10
91.5434217436072
 20
-145.4443521771806
 30
0.0
 10
91.5434217436072
 20
-145.5776773724598
 30
0.0
  0
HATCH
  5
73
330
6A
100
AcDbEntity
  8
_U+30EC_U+30A4_U+30E4_U+30FC 1
 62
   179
420
  2234388
100
AcDbHatch
 10
0.0
 20
0.0
 30
0.0
210
0.0
220
0.0
230
1.0
  2
SOLID
 70
     1
 71
     0
 91
        3
 92
        1
 93
        1
 72
     4
 94
        3
 73
     0
 74
     1
 95
       29
 96
       25
 40
0.0
 40
0.0
 40
0.0
 40
0.0
 40
1.0
 40
1.0
 40
1.0
 40
2.0
 40
2.0
 40
2.0
 40
3.0
 40
3.0
 40
3.0
 40
4.0
 40
4.0
 40
4.0
 40
5.0
 40
5.0
 40
5.0
 40
6.0
 40
6.0
 40
6.0
 40
7.0
 40
7.0
 40
7.0
 40
8.0
 40
8.0
 40
8.0
 40
8.0
 10
92.33441566702056
 20
-145.5776773724598
 10
92.33441566702056
 20
-145.8443277630181
 10
92.1969563571591
 20
-146.098231300281
 10
91.84796818450329
 20
-146.098231300281
 10
91.59199758994923
 20
-146.098231300281
 10
91.49656844500781
 20
-145.9562933662887
 10
91.43524574537037
 20
-145.8505289348915
 10
91.37599010302407
 20
-145.9752413914576
 10
91.26195744246229
 20
-146.0513780016816
 10
91.10107148330113
 20
-146.0513780016816
 10
90.82615286357819
 20
-146.0513780016816
 10
90.69076061100787
 20
-145.8525959921827
 10
90.69076061100787
 20
-145.5776773724598
 10
90.69076061100787
 20
-145.2941460140237
 10
90.83442109274279
 20
-145.1036322336894
 10
91.10107148330113
 20
-145.1036322336894
 10
91.26195744246229
 20
-145.1036322336894
 10
91.37599010302407
 20
-145.1821804107531
 10
91.43524574537037
 20
-145.3068928673191
 10
91.48623315855205
 20
-145.2180094037997
 10
91.58131779394495
 20
-145.0591905019297
 10
91.84348956037246
 20
-145.0591905019297
 10
92.21797143961912
 20
-145.0591905019297
 10
92.33441566702056
 20
-145.3385877457834
 10
92.33441566702056
 20
-145.5776773724598
 97
        0
 97
        0
 92
        1
 93
        1
 72
     4
 94
        3
 73
     0
 74
     1
 95
       17
 96
       13
 40
0.0
 40
0.0
 40
0.0
 40
0.0
 40
1.0
 40
1.0
 40
1.0
 40
2.0
 40
2.0
 40
2.0
 40
3.0
 40
3.0
 40
3.0
 40
4.0
 40
4.0
 40
4.0
 40
4.0
 10
90.88334144863333
 20
-145.5776773724598
 10
90.88334144863333
 20
-145.7426974462032
 10
90.97842608402622
 20
-145.8274467951404
 10
91.11381833659655
 20
-145.8274467951404
 10
91.23646373587144
 20
-145.8274467951404
 10
91.35497502056404
 20
-145.7554442994986
 10
91.35497502056404
 20
-145.5776773724598
 10
91.35497502056404
 20
-145.3999104454209
 10
91.23646373587144
 20
-145.3279079497791
 10
91.11381833659655
 20
-145.3279079497791
 10
90.97842608402622
 20
-145.3279079497791
 10
90.88334144863333
 20
-145.4147243560074
 10
90.88334144863333
 20
-145.5776773724598
 97
        0
 97
        0
 92
        1
 93
        1
 72
     4
 94
        3
 73
     0
 74
     1
 95
       17
 96
       13
 40
0.0
 40
0.0
 40
0.0
 40
0.0
 40
1.0
 40
1.0
 40
1.0
 40
2.0
 40
2.0
 40
2.0
 40
3.0
 40
3.0
 40
3.0
 40
4.0
 40
4.0
 40
4.0
 40
4.0
 10
91.5434217436072
 20
-145.5776773724598
 10
91.5434217436072
 20
-145.7213378541947
 10
91.62989364028698
 20
-145.8739555841912
 10
91.83315427391672
 20
-145.8739555841912
 10
92.03813745528907
 20
-145.8739555841912
 10
92.13976777210395
 20
-145.7468315607855
 10
92.13976777210395
 20
-145.5776773724598
 10
92.13976777210395
 20
-145.3916422162563
 10
92.01712237282905
 20
-145.2813991607283
 10
91.83935544579016
 20
-145.2813991607283
 10
91.61714678699155
 20
-145.2813991607283
 10
91.5434217436072
 20
-145.4443521771806
 10
91.5434217436072
 20
-145.5776773724598
 97
        0
 97
        0
 75
     2
 76
     1
 98
        0
  0
ENDBLK
  5
6D
330
6A
100
AcDbEntity
  8
0
100
AcDbBlockEnd
  0
BLOCK
  5
82
330
80
100
AcDbEntity
  8
0
100
AcDbBlockBegin
  2
block 3
 70
     0
 10
0.0
 20
0.0
 30
0.0
  3
block 3
  1

  0
SPLINE
  5
84
330
80
100
AcDbEntity
  8
_U+30EC_U+30A4_U+30E4_U+30FC 1
370
     0
100
AcDbSpline
210
0.0
220
0.0
230
1.0
 70
    11
 71
     3
 72
    26
 73
    22
 74
     0
 42
0.0000000001
 43
0.0000000001
 12
1.0
 22
0.0
 32
0.0
 13
1.0
 23
0.0
 33
0.0
 40
0.0
 40
0.0
 40
0.0
 40
0.0
 40
1.0
 40
1.0
 40
1.0
 40
2.0
 40
2.0
 40
2.0
 40
3.0
 40
3.0
 40
3.0
 40
4.0
 40
4.0
 40
4.0
 40
5.0
 40
5.0
 40
5.0
 40
6.0
 40
6.0
 40
6.0
 40
7.0
 40
7.0
 40
7.0
 40
7.0
 10
105.3572211108135
 20
-158.4550997867751
 30
0.0
 10
105.3572211108135
 20
-158.4550997867751
 30
0.0
 10
105.3572211108135
 20
-157.3509466837525
 30
0.0
 10
105.3572211108135
 20
-157.3509466837525
 30
0.0
 10
105.3572211108135
 20
-157.3509466837525
 30
0.0
 10
105.0271809633265
 20
-157.3509466837525
 30
0.0
 10
105.0271809633265
 20
-157.3509466837525
 30
0.0
 10
105.0271809633265
 20
-157.3509466837525
 30
0.0
 10
105.0271809633265
 20
-157.2028075778868
 30
0.0
 10
105.0271809633265
 20
-157.2028075778868
 30
0.0
 10
105.3592881681046
 20
-157.1879936673002
 30
0.0
 10
105.4057969571555
 20
-157.0250406508479
 30
0.0
 10
105.4354247783287
 20
-156.9110079902862
 30
0.0
 10
105.4354247783287
 20
-156.9110079902862
 30
0.0
 10
105.5814968269032
 20
-156.9110079902862
 30
0.0
 10
105.5814968269032
 20
-156.9110079902862
 30
0.0
 10
105.5814968269032
 20
-156.9110079902862
 30
0.0
 10
105.5814968269032
 20
-158.4550997867751
 30
0.0
 10
105.5814968269032
 20
-158.4550997867751
 30
0.0
 10
105.5814968269032
 20
-158.4550997867751
 30
0.0
 10
105.3572211108135
 20
-158.4550997867751
 30
0.0
 10
105.3572211108135
 20
-158.4550997867751
 30
0.0
  0
HATCH
  5
85
330
80
100
AcDbEntity
  8
_U+30EC_U+30A4_U+30E4_U+30FC 1
 62
   179
420
  2234388
100
AcDbHatch
 10
0.0
 20
0.0
 30
0.0
210
0.0
220
0.0
230
1.0
  2
SOLID
 70
     1
 71
     0
 91
        1
 92
        1
 93
        1
 72
     4
 94
        3
 73
     0
 74
     1
 95
       26
 96
       22
 40
0.0
 40
0.0
 40
0.0
 40
0.0
 40
1.0
 40
1.0
 40
1.0
 40
2.0
 40
2.0
 40
2.0
 40
3.0
 40
3.0
 40
3.0
 40
4.0
 40
4.0
 40
4.0
 40
5.0
 40
5.0
 40
5.0
 40
6.0
 40
6.0
 40
6.0
 40
7.0
 40
7.0
 40
7.0
 40
7.0
 10
105.3572211108135
 20
-158.4550997867751
 10
105.3572211108135
 20
-158.4550997867751
 10
105.3572211108135
 20
-157.3509466837525
 10
105.3572211108135
 20
-157.3509466837525
 10
105.3572211108135
 20
-157.3509466837525
 10
105.0271809633265
 20
-157.3509466837525
 10
105.0271809633265
 20
-157.3509466837525
 10
105.0271809633265
 20
-157.3509466837525
 10
105.0271809633265
 20
-157.2028075778868
 10
105.0271809633265
 20
-157.2028075778868
 10
105.3592881681046
 20
-157.1879936673002
 10
105.4057969571555
 20
-157.0250406508479
 10
105.4354247783287
 20
-156.9110079902862
 10
105.4354247783287
 20
-156.9110079902862
 10
105.5814968269032
 20
-156.9110079902862
 10
105.5814968269032
 20
-156.9110079902862
 10
105.5814968269032
 20
-156.9110079902862
 10
105.5814968269032
 20
-158.4550997867751
 10
105.5814968269032
 20
-158.4550997867751
 10
105.5814968269032
 20
-158.4550997867751
 10
105.3572211108135
 20
-158.4550997867751
 10
105.3572211108135
 20
-158.4550997867751
 97
        0
 97
        0
 75
     2
 76
     1
 98
        0
  0
SPLINE
  5
86
330
80
100
AcDbEntity
  8
_U+30EC_U+30A4_U+30E4_U+30FC 1
370
     0
100
AcDbSpline
210
0.0
220
0.0
230
1.0
 70
    11
 71
     3
 72
    29
 73
    25
 74
     0
 42
0.0000000001
 43
0.0000000001
 12
1.0
 22
0.0
 32
0.0
 13
1.0
 23
0.0
 33
0.0
 40
0.0
 40
0.0
 40
0.0
 40
0.0
 40
1.0
 40
1.0
 40
1.0
 40
2.0
 40
2.0
 40
2.0
 40
3.0
 40
3.0
 40
3.0
 40
4.0
 40
4.0
 40
4.0
 40
5.0
 40
5.0
 40
5.0
 40
6.0
 40
6.0
 40
6.0
 40
7.0
 40
7.0
 40
7.0
 40
8.0
 40
8.0
 40
8.0
 40
8.0
 10
106.5826415749168
 20
-158.5060871999568
 30
0.0
 10
106.3159911843585
 20
-158.5060871999568
 30
0.0
 10
106.0620876470956
 20
-158.3682833805468
 30
0.0
 10
106.0620876470956
 20
-158.019295207891
 30
0.0
 10
106.0620876470956
 20
-157.7633246133369
 30
0.0
 10
106.2040255810879
 20
-157.6682399779441
 30
0.0
 10
106.3097900124851
 20
-157.6069172783066
 30
0.0
 10
106.185077555919
 20
-157.5476616359603
 30
0.0
 10
106.108940945695
 20
-157.43328446585
 30
0.0
 10
106.108940945695
 20
-157.2727430162374
 30
0.0
 10
106.108940945695
 20
-156.9974798869659
 30
0.0
 10
106.3077229551939
 20
-156.8620876343956
 30
0.0
 10
106.5826415749168
 20
-156.8620876343956
 30
0.0
 10
106.8661729333529
 20
-156.8620876343956
 30
0.0
 10
107.0566867136872
 20
-157.006092625679
 30
0.0
 10
107.0566867136872
 20
-157.2727430162374
 30
0.0
 10
107.0566867136872
 20
-157.43328446585
 30
0.0
 10
106.9781385366235
 20
-157.5476616359603
 30
0.0
 10
106.8534260800575
 20
-157.6069172783066
 30
0.0
 10
106.9423095435769
 20
-157.6575601819398
 30
0.0
 10
107.1011284454469
 20
-157.7529893268812
 30
0.0
 10
107.1011284454469
 20
-158.0151610933087
 30
0.0
 10
107.1011284454469
 20
-158.3896429725554
 30
0.0
 10
106.8217312015932
 20
-158.5060871999568
 30
0.0
 10
106.5826415749168
 20
-158.5060871999568
 30
0.0
  0
SPLINE
  5
87
330
80
100
AcDbEntity
  8
_U+30EC_U+30A4_U+30E4_U+30FC 1
370
     0
100
AcDbSpline
210
0.0
220
0.0
230
1.0
 70
    11
 71
     3
 72
    17
 73
    13
 74
     0
 42
0.0000000001
 43
0.0000000001
 12
1.0
 22
0.0
 32
0.0
 13
1.0
 23
0.0
 33
0.0
 40
0.0
 40
0.0
 40
0.0
 40
0.0
 40
1.0
 40
1.0
 40
1.0
 40
2.0
 40
2.0
 40
2.0
 40
3.0
 40
3.0
 40
3.0
 40
4.0
 40
4.0
 40
4.0
 40
4.0
 10
106.5826415749168
 20
-157.7147487669949
 30
0.0
 10
106.4389810931819
 20
-157.7147487669949
 30
0.0
 10
106.2863633631854
 20
-157.8015651732232
 30
0.0
 10
106.2863633631854
 20
-158.0044812973044
 30
0.0
 10
106.2863633631854
 20
-158.2098089882253
 30
0.0
 10
106.4134873865911
 20
-158.3114393050402
 30
0.0
 10
106.5826415749168
 20
-158.3114393050402
 30
0.0
 10
106.7686767311203
 20
-158.3114393050402
 30
0.0
 10
106.8789197866483
 20
-158.1887939057653
 30
0.0
 10
106.8789197866483
 20
-158.0110269787264
 30
0.0
 10
106.8789197866483
 20
-157.7888183199278
 30
0.0
 10
106.715966770196
 20
-157.7147487669949
 30
0.0
 10
106.5826415749168
 20
-157.7147487669949
 30
0.0
  0
SPLINE
  5
88
330
80
100
AcDbEntity
  8
_U+30EC_U+30A4_U+30E4_U+30FC 1
370
     0
100
AcDbSpline
210
0.0
220
0.0
230
1.0
 70
    11
 71
     3
 72
    17
 73
    13
 74
     0
 42
0.0000000001
 43
0.0000000001
 12
1.0
 22
0.0
 32
0.0
 13
1.0
 23
0.0
 33
0.0
 40
0.0
 40
0.0
 40
0.0
 40
0.0
 40
1.0
 40
1.0
 40
1.0
 40
2.0
 40
2.0
 40
2.0
 40
3.0
 40
3.0
 40
3.0
 40
4.0
 40
4.0
 40
4.0
 40
4.0
 10
106.5826415749168
 20
-157.0546684720211
 30
0.0
 10
106.4176215011734
 20
-157.0546684720211
 30
0.0
 10
106.3328721522362
 20
-157.149753107414
 30
0.0
 10
106.3328721522362
 20
-157.2851453599843
 30
0.0
 10
106.3328721522362
 20
-157.4081352688077
 30
0.0
 10
106.4048746478779
 20
-157.5266465535003
 30
0.0
 10
106.5826415749168
 20
-157.5266465535003
 30
0.0
 10
106.7604085019557
 20
-157.5266465535003
 30
0.0
 10
106.8324109975975
 20
-157.4081352688077
 30
0.0
 10
106.8324109975975
 20
-157.2851453599843
 30
0.0
 10
106.8324109975975
 20
-157.149753107414
 30
0.0
 10
106.7455945913692
 20
-157.0546684720211
 30
0.0
 10
106.5826415749168
 20
-157.0546684720211
 30
0.0
  0
HATCH
  5
89
330
80
100
AcDbEntity
  8
_U+30EC_U+30A4_U+30E4_U+30FC 1
 62
   179
420
  2234388
100
AcDbHatch
 10
0.0
 20
0.0
 30
0.0
210
0.0
220
0.0
230
1.0
  2
SOLID
 70
     1
 71
     0
 91
        3
 92
        1
 93
        1
 72
     4
 94
        3
 73
     0
 74
     1
 95
       29
 96
       25
 40
0.0
 40
0.0
 40
0.0
 40
0.0
 40
1.0
 40
1.0
 40
1.0
 40
2.0
 40
2.0
 40
2.0
 40
3.0
 40
3.0
 40
3.0
 40
4.0
 40
4.0
 40
4.0
 40
5.0
 40
5.0
 40
5.0
 40
6.0
 40
6.0
 40
6.0
 40
7.0
 40
7.0
 40
7.0
 40
8.0
 40
8.0
 40
8.0
 40
8.0
 10
106.5826415749168
 20
-158.5060871999568
 10
106.3159911843585
 20
-158.5060871999568
 10
106.0620876470956
 20
-158.3682833805468
 10
106.0620876470956
 20
-158.019295207891
 10
106.0620876470956
 20
-157.7633246133369
 10
106.2040255810879
 20
-157.6682399779441
 10
106.3097900124851
 20
-157.6069172783066
 10
106.185077555919
 20
-157.5476616359603
 10
106.108940945695
 20
-157.43328446585
 10
106.108940945695
 20
-157.2727430162374
 10
106.108940945695
 20
-156.9974798869659
 10
106.3077229551939
 20
-156.8620876343956
 10
106.5826415749168
 20
-156.8620876343956
 10
106.8661729333529
 20
-156.8620876343956
 10
107.0566867136872
 20
-157.006092625679
 10
107.0566867136872
 20
-157.2727430162374
 10
107.0566867136872
 20
-157.43328446585
 10
106.9781385366235
 20
-157.5476616359603
 10
106.8534260800575
 20
-157.6069172783066
 10
106.9423095435769
 20
-157.6575601819398
 10
107.1011284454469
 20
-157.7529893268812
 10
107.1011284454469
 20
-158.0151610933087
 10
107.1011284454469
 20
-158.3896429725554
 10
106.8217312015932
 20
-158.5060871999568
 10
106.5826415749168
 20
-158.5060871999568
 97
        0
 97
        0
 92
        1
 93
        1
 72
     4
 94
        3
 73
     0
 74
     1
 95
       17
 96
       13
 40
0.0
 40
0.0
 40
0.0
 40
0.0
 40
1.0
 40
1.0
 40
1.0
 40
2.0
 40
2.0
 40
2.0
 40
3.0
 40
3.0
 40
3.0
 40
4.0
 40
4.0
 40
4.0
 40
4.0
 10
106.5826415749168
 20
-157.7147487669949
 10
106.4389810931819
 20
-157.7147487669949
 10
106.2863633631854
 20
-157.8015651732232
 10
106.2863633631854
 20
-158.0044812973044
 10
106.2863633631854
 20
-158.2098089882253
 10
106.4134873865911
 20
-158.3114393050402
 10
106.5826415749168
 20
-158.3114393050402
 10
106.7686767311203
 20
-158.3114393050402
 10
106.8789197866483
 20
-158.1887939057653
 10
106.8789197866483
 20
-158.0110269787264
 10
106.8789197866483
 20
-157.7888183199278
 10
106.715966770196
 20
-157.7147487669949
 10
106.5826415749168
 20
-157.7147487669949
 97
        0
 97
        0
 92
        1
 93
        1
 72
     4
 94
        3
 73
     0
 74
     1
 95
       17
 96
       13
 40
0.0
 40
0.0
 40
0.0
 40
0.0
 40
1.0
 40
1.0
 40
1.0
 40
2.0
 40
2.0
 40
2.0
 40
3.0
 40
3.0
 40
3.0
 40
4.0
 40
4.0
 40
4.0
 40
4.0
 10
106.5826415749168
 20
-157.0546684720211
 10
106.4176215011734
 20
-157.0546684720211
 10
106.3328721522362
 20
-157.149753107414
 10
106.3328721522362
 20
-157.2851453599843
 10
106.3328721522362
 20
-157.4081352688077
 10
106.4048746478779
 20
-157.5266465535003
 10
106.5826415749168
 20
-157.5266465535003
 10
106.7604085019557
 20
-157.5266465535003
 10
106.8324109975975
 20
-157.4081352688077
 10
106.8324109975975
 20
-157.2851453599843
 10
106.8324109975975
 20
-157.149753107414
 10
106.7455945913692
 20
-157.0546684720211
 10
106.5826415749168
 20
-157.0546684720211
 97
        0
 97
        0
 75
     2
 76
     1
 98
        0
  0
ENDBLK
  5
83
330
80
100
AcDbEntity
  8
0
100
AcDbBlockEnd
  0
BLOCK
  5
96
330
94
100
AcDbEntity
  8
0
100
AcDbBlockBegin
  2
block 4
 70
     0
 10
0.0
 20
0.0
 30
0.0
  3
block 4
  1

  0
SPLINE
  5
98
330
94
100
AcDbEntity
  8
_U+30EC_U+30A4_U+30E4_U+30FC 1
370
     0
100
AcDbSpline
210
0.0
220
0.0
230
1.0
 70
    11
 71
     3
 72
    17
 73
    13
 74
     0
 42
0.0000000001
 43
0.0000000001
 12
1.0
 22
0.0
 32
0.0
 13
1.0
 23
0.0
 33
0.0
 40
0.0
 40
0.0
 40
0.0
 40
0.0
 40
1.0
 40
1.0
 40
1.0
 40
2.0
 40
2.0
 40
2.0
 40
3.0
 40
3.0
 40
3.0
 40
4.0
 40
4.0
 40
4.0
 40
4.0
 10
102.709665230399
 20
-150.0376979876642
 30
0.0
 10
102.6039007990018
 20
-149.931933556267
 30
0.0
 10
102.523285564647
 20
-149.8940375059293
 30
0.0
 10
102.4302679865452
 20
-149.862342627465
 30
0.0
 10
102.4302679865452
 20
-149.862342627465
 30
0.0
 10
102.5405110420732
 20
-149.6973225537215
 30
0.0
 10
102.5405110420732
 20
-149.6973225537215
 30
0.0
 10
102.6376627347573
 20
-149.7396972281901
 30
0.0
 10
102.758241076741
 20
-149.8179008957053
 30
0.0
 10
102.8112955472138
 20
-149.8726779139207
 30
0.0
 10
102.8112955472138
 20
-149.8726779139207
 30
0.0
 10
102.709665230399
 20
-150.0376979876642
 30
0.0
 10
102.709665230399
 20
-150.0376979876642
 30
0.0
  0
SPLINE
  5
99
330
94
100
AcDbEntity
  8
_U+30EC_U+30A4_U+30E4_U+30FC 1
370
     0
100
AcDbSpline
210
0.0
220
0.0
230
1.0
 70
    11
 71
     3
 72
   182
 73
   178
 74
     0
 42
0.0000000001
 43
0.0000000001
 12
1.0
 22
0.0
 32
0.0
 13
1.0
 23
0.0
 33
0.0
 40
0.0
 40
0.0
 40
0.0
 40
0.0
 40
1.0
 40
1.0
 40
1.0
 40
2.0
 40
2.0
 40
2.0
 40
3.0
 40
3.0
 40
3.0
 40
4.0
 40
4.0
 40
4.0
 40
5.0
 40
5.0
 40
5.0
 40
6.0
 40
6.0
 40
6.0
 40
7.0
 40
7.0
 40
7.0
 40
8.0
 40
8.0
 40
8.0
 40
9.0
 40
9.0
 40
9.0
 40
10.0
 40
10.0
 40
10.0
 40
11.0
 40
11.0
 40
11.0
 40
12.0
 40
12.0
 40
12.0
 40
13.0
 40
13.0
 40
13.0
 40
14.0
 40
14.0
 40
14.0
 40
15.0
 40
15.0
 40
15.0
 40
16.0
 40
16.0
 40
16.0
 40
17.0
 40
17.0
 40
17.0
 40
18.0
 40
18.0
 40
18.0
 40
19.0
 40
19.0
 40
19.0
 40
20.0
 40
20.0
 40
20.0
 40
21.0
 40
21.0
 40
21.0
 40
22.0
 40
22.0
 40
22.0
 40
23.0
 40
23.0
 40
23.0
 40
24.0
 40
24.0
 40
24.0
 40
25.0
 40
25.0
 40
25.0
 40
26.0
 40
26.0
 40
26.0
 40
27.0
 40
27.0
 40
27.0
 40
28.0
 40
28.0
 40
28.0
 40
29.0
 40
29.0
 40
29.0
 40
30.0
 40
30.0
 40
30.0
 40
31.0
 40
31.0
 40
31.0
 40
32.0
 40
32.0
 40
32.0
 40
33.0
 40
33.0
 40
33.0
 40
34.0
 40
34.0
 40
34.0
 40
35.0
 40
35.0
 40
35.0
 40
36.0
 40
36.0
 40
36.0
 40
37.0
 40
37.0
 40
37.0
 40
38.0
 40
38.0
 40
38.0
 40
39.0
 40
39.0
 40
39.0
 40
40.0
 40
40.0
 40
40.0
 40
41.0
 40
41.0
 40
41.0
 40
42.0
 40
42.0
 40
42.0
 40
43.0
 40
43.0
 40
43.0
 40
44.0
 40
44.0
 40
44.0
 40
45.0
 40
45.0
 40
45.0
 40
46.0
 40
46.0
 40
46.0
 40
47.0
 40
47.0
 40
47.0
 40
48.0
 40
48.0
 40
48.0
 40
49.0
 40
49.0
 40
49.0
 40
50.0
 40
50.0
 40
50.0
 40
51.0
 40
51.0
 40
51.0
 40
52.0
 40
52.0
 40
52.0
 40
53.0
 40
53.0
 40
53.0
 40
54.0
 40
54.0
 40
54.0
 40
55.0
 40
55.0
 40
55.0
 40
56.0
 40
56.0
 40
56.0
 40
57.0
 40
57.0
 40
57.0
 40
58.0
 40
58.0
 40
58.0
 40
59.0
 40
59.0
 40
59.0
 40
59.0
 10
103.7545626910753
 20
-151.2162651531682
 30
0.0
 10
103.7545626910753
 20
-151.2162651531682
 30
0.0
 10
103.1179090454011
 20
-151.2162651531682
 30
0.0
 10
103.1179090454011
 20
-151.2162651531682
 30
0.0
 10
102.9043131253156
 20
-151.2162651531682
 30
0.0
 10
102.6883056383904
 20
-151.2203992677505
 30
0.0
 10
102.4747097183049
 20
-151.2331461210459
 30
0.0
 10
102.4747097183049
 20
-151.2331461210459
 30
0.0
 10
102.4747097183049
 20
-151.0257513728338
 30
0.0
 10
102.4747097183049
 20
-151.0257513728338
 30
0.0
 10
102.6969183771036
 20
-151.0384982261293
 30
0.0
 10
103.0204128431685
 20
-151.0426323407116
 30
0.0
 10
103.1179090454011
 20
-151.0426323407116
 30
0.0
 10
103.1179090454011
 20
-151.0426323407116
 30
0.0
 10
103.3380506469085
 20
-151.0426323407116
 30
0.0
 10
103.3380506469085
 20
-151.0426323407116
 30
0.0
 10
103.3380506469085
 20
-151.0426323407116
 30
0.0
 10
103.3380506469085
 20
-150.9010389162678
 30
0.0
 10
103.3380506469085
 20
-150.9010389162678
 30
0.0
 10
103.3380506469085
 20
-150.9010389162678
 30
0.0
 10
103.1771646877474
 20
-150.9010389162678
 30
0.0
 10
103.1771646877474
 20
-150.9010389162678
 30
0.0
 10
103.0121446140039
 20
-150.9010389162678
 30
0.0
 10
102.8471245402605
 20
-150.9051730308501
 30
0.0
 10
102.682104466517
 20
-150.9199869414367
 30
0.0
 10
102.682104466517
 20
-150.9199869414367
 30
0.0
 10
102.682104466517
 20
-150.7105251359335
 30
0.0
 10
102.682104466517
 20
-150.7105251359335
 30
0.0
 10
102.8533257121339
 20
-150.72533904652
 30
0.0
 10
103.1010280775234
 20
-150.7294731611024
 30
0.0
 10
103.1771646877474
 20
-150.7294731611024
 30
0.0
 10
103.1771646877474
 20
-150.7294731611024
 30
0.0
 10
103.3380506469085
 20
-150.7294731611024
 30
0.0
 10
103.3380506469085
 20
-150.7294731611024
 30
0.0
 10
103.3335720227777
 20
-150.6578151750092
 30
0.0
 10
103.3335720227777
 20
-150.6512694935872
 30
0.0
 10
103.3273708509043
 20
-150.5985595326629
 30
0.0
 10
103.3273708509043
 20
-150.5985595326629
 30
0.0
 10
103.4668972180569
 20
-150.6133734432494
 30
0.0
 10
103.4668972180569
 20
-150.6133734432494
 30
0.0
 10
103.4668972180569
 20
-150.6133734432494
 30
0.0
 10
103.3676784680817
 20
-150.441807688084
 30
0.0
 10
103.3676784680817
 20
-150.441807688084
 30
0.0
 10
103.4141872571326
 20
-150.448353369506
 30
0.0
 10
103.4882568100654
 20
-150.4566215986706
 30
0.0
 10
103.5051377779432
 20
-150.4566215986706
 30
0.0
 10
103.5557806815763
 20
-150.4566215986706
 30
0.0
 10
103.5726616494541
 20
-150.4356065162106
 30
0.0
 10
103.5726616494541
 20
-150.3784179311554
 30
0.0
 10
103.5726616494541
 20
-150.3784179311554
 30
0.0
 10
103.5726616494541
 20
-150.2409586212939
 30
0.0
 10
103.5726616494541
 20
-150.2409586212939
 30
0.0
 10
103.5726616494541
 20
-150.2409586212939
 30
0.0
 10
103.4668972180569
 20
-150.2409586212939
 30
0.0
 10
103.4668972180569
 20
-150.2409586212939
 30
0.0
 10
103.3335720227777
 20
-150.2409586212939
 30
0.0
 10
103.1771646877474
 20
-150.2409586212939
 30
0.0
 10
103.0545192884725
 20
-150.2537054745894
 30
0.0
 10
103.0545192884725
 20
-150.2537054745894
 30
0.0
 10
103.0545192884725
 20
-150.063191694255
 30
0.0
 10
103.0545192884725
 20
-150.063191694255
 30
0.0
 10
103.2216064195071
 20
-150.0800726621328
 30
0.0
 10
103.4520833074703
 20
-150.0821397194239
 30
0.0
 10
103.4668972180569
 20
-150.0821397194239
 30
0.0
 10
103.4668972180569
 20
-150.0821397194239
 30
0.0
 10
103.5726616494541
 20
-150.0821397194239
 30
0.0
 10
103.5726616494541
 20
-150.0821397194239
 30
0.0
 10
103.5726616494541
 20
-150.0821397194239
 30
0.0
 10
103.5726616494541
 20
-149.9512260909844
 30
0.0
 10
103.5726616494541
 20
-149.9512260909844
 30
0.0
 10
103.5726616494541
 20
-149.9512260909844
 30
0.0
 10
103.5347655991163
 20
-149.9512260909844
 30
0.0
 10
103.5347655991163
 20
-149.9512260909844
 30
0.0
 10
103.4903238673566
 20
-149.9512260909844
 30
0.0
 10
103.365266901242
 20
-149.9553602055667
 30
0.0
 10
103.2763834377226
 20
-149.9636284347313
 30
0.0
 10
103.2763834377226
 20
-149.9636284347313
 30
0.0
 10
103.2763834377226
 20
-149.883357709925
 30
0.0
 10
103.2763834377226
 20
-149.883357709925
 30
0.0
 10
103.2236734767983
 20
-149.9215982698113
 30
0.0
 10
103.1981797702074
 20
-149.9364121803978
 30
0.0
 10
103.1558050957388
 20
-149.959494320149
 30
0.0
 10
103.1558050957388
 20
-149.959494320149
 30
0.0
 10
102.9677028822442
 20
-149.8306477490007
 30
0.0
 10
102.9677028822442
 20
-149.8306477490007
 30
0.0
 10
103.0459065497594
 20
-149.7965413036967
 30
0.0
 10
103.2026583943382
 20
-149.7331515467681
 30
0.0
 10
103.3590657293686
 20
-149.5894910650332
 30
0.0
 10
103.441403511466
 20
-149.5109428879695
 30
0.0
 10
103.5199516885297
 20
-149.4265380485809
 30
0.0
 10
103.5726616494541
 20
-149.324907731766
 30
0.0
 10
103.5726616494541
 20
-149.324907731766
 30
0.0
 10
103.7841905122484
 20
-149.3862304314034
 30
0.0
 10
103.7841905122484
 20
-149.3862304314034
 30
0.0
 10
103.8034830469658
 20
-149.3924316032769
 30
0.0
 10
103.8138183334216
 20
-149.40104434199
 30
0.0
 10
103.8138183334216
 20
-149.4137911952855
 30
0.0
 10
103.8138183334216
 20
-149.4306721631632
 30
0.0
 10
103.8010714801261
 20
-149.4368733350366
 30
0.0
 10
103.7759222830838
 20
-149.449620188332
 30
0.0
 10
103.8561930078901
 20
-149.5471163905646
 30
0.0
 10
104.0191460243424
 20
-149.6442680832487
 30
0.0
 10
104.0529079600979
 20
-149.6632161084175
 30
0.0
 10
104.2031141232548
 20
-149.752099571937
 30
0.0
 10
104.3174912933651
 20
-149.779660335819
 30
0.0
 10
104.3956949608802
 20
-149.7986083609879
 30
0.0
 10
104.3956949608802
 20
-149.7986083609879
 30
0.0
 10
104.2771836761876
 20
-149.9681070588622
 30
0.0
 10
104.2771836761876
 20
-149.9681070588622
 30
0.0
 10
104.1924343272505
 20
-149.938479237689
 30
0.0
 10
104.1417914236173
 20
-149.9195312125201
 30
0.0
 10
104.0232801389247
 20
-149.8537298887518
 30
0.0
 10
104.0232801389247
 20
-149.8537298887518
 30
0.0
 10
104.0232801389247
 20
-149.9636284347313
 30
0.0
 10
104.0232801389247
 20
-149.9636284347313
 30
0.0
 10
103.9409423568273
 20
-149.9553602055667
 30
0.0
 10
103.8138183334216
 20
-149.9512260909844
 30
0.0
 10
103.7611083724972
 20
-149.9512260909844
 30
0.0
 10
103.7611083724972
 20
-149.9512260909844
 30
0.0
 10
103.7611083724972
 20
-150.0821397194239
 30
0.0
 10
103.7611083724972
 20
-150.0821397194239
 30
0.0
 10
103.7611083724972
 20
-150.0821397194239
 30
0.0
 10
103.881686714481
 20
-150.0821397194239
 30
0.0
 10
103.881686714481
 20
-150.0821397194239
 30
0.0
 10
103.8837537717721
 20
-150.0821397194239
 30
0.0
 10
104.1162977170265
 20
-150.0800726621328
 30
0.0
 10
104.2940646440654
 20
-150.063191694255
 30
0.0
 10
104.2940646440654
 20
-150.063191694255
 30
0.0
 10
104.2940646440654
 20
-150.2537054745894
 30
0.0
 10
104.2940646440654
 20
-150.2537054745894
 30
0.0
 10
104.165218072917
 20
-150.2409586212939
 30
0.0
 10
104.0084662283382
 20
-150.2409586212939
 30
0.0
 10
103.881686714481
 20
-150.2409586212939
 30
0.0
 10
103.881686714481
 20
-150.2409586212939
 30
0.0
 10
103.7611083724972
 20
-150.2409586212939
 30
0.0
 10
103.7611083724972
 20
-150.2409586212939
 30
0.0
 10
103.7611083724972
 20
-150.2409586212939
 30
0.0
 10
103.7611083724972
 20
-150.4673013946748
 30
0.0
 10
103.7611083724972
 20
-150.4673013946748
 30
0.0
 10
103.7611083724972
 20
-150.5858126793675
 30
0.0
 10
103.7356146659064
 20
-150.621641672414
 30
0.0
 10
103.5747287067452
 20
-150.6364555830006
 30
0.0
 10
103.579207330876
 20
-150.6554036081695
 30
0.0
 10
103.5726616494541
 20
-150.6660834041738
 30
0.0
 10
103.5347655991163
 20
-150.6895100534735
 30
0.0
 10
103.5326985418252
 20
-150.7084580786423
 30
0.0
 10
103.5326985418252
 20
-150.7146592505158
 30
0.0
 10
103.5302869749855
 20
-150.7294731611024
 30
0.0
 10
103.5302869749855
 20
-150.7294731611024
 30
0.0
 10
103.667746284847
 20
-150.7294731611024
 30
0.0
 10
103.667746284847
 20
-150.7294731611024
 30
0.0
 10
103.8327663585904
 20
-150.7294731611024
 30
0.0
 10
104.0001979991736
 20
-150.72533904652
 30
0.0
 10
104.1672851302082
 20
-150.7105251359335
 30
0.0
 10
104.1672851302082
 20
-150.7105251359335
 30
0.0
 10
104.1672851302082
 20
-150.9179198841455
 30
0.0
 10
104.1672851302082
 20
-150.9179198841455
 30
0.0
 10
103.951277643283
 20
-150.9010389162678
 30
0.0
 10
103.6870388195643
 20
-150.9010389162678
 30
0.0
 10
103.667746284847
 20
-150.9010389162678
 30
0.0
 10
103.667746284847
 20
-150.9010389162678
 30
0.0
 10
103.5282199176943
 20
-150.9010389162678
 30
0.0
 10
103.5282199176943
 20
-150.9010389162678
 30
0.0
 10
103.5282199176943
 20
-150.9010389162678
 30
0.0
 10
103.5282199176943
 20
-151.0426323407116
 30
0.0
 10
103.5282199176943
 20
-151.0426323407116
 30
0.0
 10
103.5282199176943
 20
-151.0426323407116
 30
0.0
 10
103.7545626910753
 20
-151.0426323407116
 30
0.0
 10
103.7545626910753
 20
-151.0426323407116
 30
0.0
 10
103.9705701780004
 20
-151.0426323407116
 30
0.0
 10
104.1883002126682
 20
-151.0384982261293
 30
0.0
 10
104.4039631900448
 20
-151.0257513728338
 30
0.0
 10
104.4039631900448
 20
-151.0257513728338
 30
0.0
 10
104.4039631900448
 20
-151.2331461210459
 30
0.0
 10
104.4039631900448
 20
-151.2331461210459
 30
0.0
 10
104.1228433984485
 20
-151.2162651531682
 30
0.0
 10
103.777989340375
 20
-151.2162651531682
 30
0.0
 10
103.7545626910753
 20
-151.2162651531682
 30
0.0
  0
SPLINE
  5
9A
330
94
100
AcDbEntity
  8
_U+30EC_U+30A4_U+30E4_U+30FC 1
370
     0
100
AcDbSpline
210
0.0
220
0.0
230
1.0
 70
    11
 71
     3
 72
    23
 73
    19
 74
     0
 42
0.0000000001
 43
0.0000000001
 12
1.0
 22
0.0
 32
0.0
 13
1.0
 23
0.0
 33
0.0
 40
0.0
 40
0.0
 40
0.0
 40
0.0
 40
1.0
 40
1.0
 40
1.0
 40
2.0
 40
2.0
 40
2.0
 40
3.0
 40
3.0
 40
3.0
 40
4.0
 40
4.0
 40
4.0
 40
5.0
 40
5.0
 40
5.0
 40
6.0
 40
6.0
 40
6.0
 40
6.0
 10
102.6355956774661
 20
-150.5878797366586
 30
0.0
 10
102.6355956774661
 20
-150.6088948191186
 30
0.0
 10
102.6376627347573
 20
-150.6471353790049
 30
0.0
 10
102.6121690281664
 20
-150.6471353790049
 30
0.0
 10
102.6018337417107
 20
-150.6471353790049
 30
0.0
 10
102.5932210029975
 20
-150.6405896975829
 30
0.0
 10
102.5825412069933
 20
-150.6237087297052
 30
0.0
 10
102.5825412069933
 20
-150.6237087297052
 30
0.0
 10
102.4788438328872
 20
-150.441807688084
 30
0.0
 10
102.4788438328872
 20
-150.441807688084
 30
0.0
 10
102.6948513198124
 20
-150.3129611169357
 30
0.0
 10
102.8915662720202
 20
-150.035630930373
 30
0.0
 10
102.938075061071
 20
-149.9636284347313
 30
0.0
 10
102.938075061071
 20
-149.9636284347313
 30
0.0
 10
103.0100775567128
 20
-150.1434624190614
 30
0.0
 10
103.0100775567128
 20
-150.1434624190614
 30
0.0
 10
102.8767523614336
 20
-150.3401773712691
 30
0.0
 10
102.7010524916859
 20
-150.52448997973
 30
0.0
 10
102.6355956774661
 20
-150.5878797366586
 30
0.0
  0
SPLINE
  5
9B
330
94
100
AcDbEntity
  8
_U+30EC_U+30A4_U+30E4_U+30FC 1
370
     0
100
AcDbSpline
210
0.0
220
0.0
230
1.0
 70
    11
 71
     3
 72
    17
 73
    13
 74
     0
 42
0.0000000001
 43
0.0000000001
 12
1.0
 22
0.0
 32
0.0
 13
1.0
 23
0.0
 33
0.0
 40
0.0
 40
0.0
 40
0.0
 40
0.0
 40
1.0
 40
1.0
 40
1.0
 40
2.0
 40
2.0
 40
2.0
 40
3.0
 40
3.0
 40
3.0
 40
4.0
 40
4.0
 40
4.0
 40
4.0
 10
102.889499214729
 20
-149.6928439295907
 30
0.0
 10
102.8281765150916
 20
-149.6167073193667
 30
0.0
 10
102.6989854343947
 20
-149.5405707091426
 30
0.0
 10
102.5952880602887
 20
-149.5109428879695
 30
0.0
 10
102.5952880602887
 20
-149.5109428879695
 30
0.0
 10
102.6907172052301
 20
-149.345922814226
 30
0.0
 10
102.6907172052301
 20
-149.345922814226
 30
0.0
 10
102.7920030124965
 20
-149.3820963168212
 30
0.0
 10
102.8977674438936
 20
-149.4392849018763
 30
0.0
 10
102.9866509074131
 20
-149.5195556266826
 30
0.0
 10
102.9866509074131
 20
-149.5195556266826
 30
0.0
 10
102.889499214729
 20
-149.6928439295907
 30
0.0
 10
102.889499214729
 20
-149.6928439295907
 30
0.0
  0
SPLINE
  5
9C
330
94
100
AcDbEntity
  8
_U+30EC_U+30A4_U+30E4_U+30FC 1
370
     0
100
AcDbSpline
210
0.0
220
0.0
230
1.0
 70
    11
 71
     3
 72
    23
 73
    19
 74
     0
 42
0.0000000001
 43
0.0000000001
 12
1.0
 22
0.0
 32
0.0
 13
1.0
 23
0.0
 33
0.0
 40
0.0
 40
0.0
 40
0.0
 40
0.0
 40
1.0
 40
1.0
 40
1.0
 40
2.0
 40
2.0
 40
2.0
 40
3.0
 40
3.0
 40
3.0
 40
4.0
 40
4.0
 40
4.0
 40
5.0
 40
5.0
 40
5.0
 40
6.0
 40
6.0
 40
6.0
 40
6.0
 10
103.3421847614908
 20
-150.3973659563243
 30
0.0
 10
103.3208251694823
 20
-150.420792605624
 30
0.0
 10
103.2236734767983
 20
-150.5327582088946
 30
0.0
 10
103.0841471096456
 20
-150.6133734432494
 30
0.0
 10
103.0841471096456
 20
-150.6133734432494
 30
0.0
 10
102.917059978611
 20
-150.4927951012657
 30
0.0
 10
102.917059978611
 20
-150.4927951012657
 30
0.0
 10
103.0672661417679
 20
-150.4166584910417
 30
0.0
 10
103.1664848917431
 20
-150.3212293461003
 30
0.0
 10
103.2150607380851
 20
-150.2685193851759
 30
0.0
 10
103.2150607380851
 20
-150.2685193851759
 30
0.0
 10
103.3886935505417
 20
-150.3508571672734
 30
0.0
 10
103.3886935505417
 20
-150.3508571672734
 30
0.0
 10
103.3969617797063
 20
-150.3549912818557
 30
0.0
 10
103.4055745184194
 20
-150.3615369632777
 30
0.0
 10
103.4055745184194
 20
-150.3722167592819
 30
0.0
 10
103.4055745184194
 20
-150.3973659563243
 30
0.0
 10
103.3697455253728
 20
-150.3973659563243
 30
0.0
 10
103.3421847614908
 20
-150.3973659563243
 30
0.0
  0
SPLINE
  5
9D
330
94
100
AcDbEntity
  8
_U+30EC_U+30A4_U+30E4_U+30FC 1
370
     0
100
AcDbSpline
210
0.0
220
0.0
230
1.0
 70
    11
 71
     3
 72
    20
 73
    16
 74
     0
 42
0.0000000001
 43
0.0000000001
 12
1.0
 22
0.0
 32
0.0
 13
1.0
 23
0.0
 33
0.0
 40
0.0
 40
0.0
 40
0.0
 40
0.0
 40
1.0
 40
1.0
 40
1.0
 40
2.0
 40
2.0
 40
2.0
 40
3.0
 40
3.0
 40
3.0
 40
4.0
 40
4.0
 40
4.0
 40
5.0
 40
5.0
 40
5.0
 40
5.0
 10
103.6405300305135
 20
-149.5553846197292
 30
0.0
 10
103.6022894706272
 20
-149.6043049756198
 30
0.0
 10
103.5409667709898
 20
-149.6825086431349
 30
0.0
 10
103.4014404038371
 20
-149.7924071891144
 30
0.0
 10
103.4817111286435
 20
-149.7965413036967
 30
0.0
 10
103.5113389498166
 20
-149.7965413036967
 30
0.0
 10
103.5347655991163
 20
-149.7965413036967
 30
0.0
 10
103.5347655991163
 20
-149.7965413036967
 30
0.0
 10
103.7631754297884
 20
-149.7965413036967
 30
0.0
 10
103.7631754297884
 20
-149.7965413036967
 30
0.0
 10
103.7948703082527
 20
-149.7965413036967
 30
0.0
 10
103.8434461545947
 20
-149.7944742464055
 30
0.0
 10
103.9175157075276
 20
-149.7924071891144
 30
0.0
 10
103.805550104257
 20
-149.7183376361815
 30
0.0
 10
103.7566297483664
 20
-149.6718288471307
 30
0.0
 10
103.6405300305135
 20
-149.5553846197292
 30
0.0
  0
SPLINE
  5
9E
330
94
100
AcDbEntity
  8
_U+30EC_U+30A4_U+30E4_U+30FC 1
370
     0
100
AcDbSpline
210
0.0
220
0.0
230
1.0
 70
    11
 71
     3
 72
    17
 73
    13
 74
     0
 42
0.0000000001
 43
0.0000000001
 12
1.0
 22
0.0
 32
0.0
 13
1.0
 23
0.0
 33
0.0
 40
0.0
 40
0.0
 40
0.0
 40
0.0
 40
1.0
 40
1.0
 40
1.0
 40
2.0
 40
2.0
 40
2.0
 40
3.0
 40
3.0
 40
3.0
 40
4.0
 40
4.0
 40
4.0
 40
4.0
 10
104.2010470659636
 20
-150.6109618764098
 30
0.0
 10
104.0656548133933
 20
-150.4989962731391
 30
0.0
 10
103.9598903819961
 20
-150.4356065162106
 30
0.0
 10
103.8413790973035
 20
-150.3722167592819
 30
0.0
 10
103.8413790973035
 20
-150.3722167592819
 30
0.0
 10
103.9681586111607
 20
-150.2599066464628
 30
0.0
 10
103.9681586111607
 20
-150.2599066464628
 30
0.0
 10
104.0994167491488
 20
-150.3064154355137
 30
0.0
 10
104.2093152951282
 20
-150.3636040205688
 30
0.0
 10
104.3343722612428
 20
-150.4652343373837
 30
0.0
 10
104.3343722612428
 20
-150.4652343373837
 30
0.0
 10
104.2010470659636
 20
-150.6109618764098
 30
0.0
 10
104.2010470659636
 20
-150.6109618764098
 30
0.0
  0
HATCH
  5
9F
330
94
100
AcDbEntity
  8
_U+30EC_U+30A4_U+30E4_U+30FC 1
 62
   179
420
  2234388
100
AcDbHatch
 10
0.0
 20
0.0
 30
0.0
210
0.0
220
0.0
230
1.0
  2
SOLID
 70
     1
 71
     0
 91
        7
 92
        1
 93
        1
 72
     4
 94
        3
 73
     0
 74
     1
 95
       17
 96
       13
 40
0.0
 40
0.0
 40
0.0
 40
0.0
 40
1.0
 40
1.0
 40
1.0
 40
2.0
 40
2.0
 40
2.0
 40
3.0
 40
3.0
 40
3.0
 40
4.0
 40
4.0
 40
4.0
 40
4.0
 10
102.709665230399
 20
-150.0376979876642
 10
102.6039007990018
 20
-149.931933556267
 10
102.523285564647
 20
-149.8940375059293
 10
102.4302679865452
 20
-149.862342627465
 10
102.4302679865452
 20
-149.862342627465
 10
102.5405110420732
 20
-149.6973225537215
 10
102.5405110420732
 20
-149.6973225537215
 10
102.6376627347573
 20
-149.7396972281901
 10
102.758241076741
 20
-149.8179008957053
 10
102.8112955472138
 20
-149.8726779139207
 10
102.8112955472138
 20
-149.8726779139207
 10
102.709665230399
 20
-150.0376979876642
 10
102.709665230399
 20
-150.0376979876642
 97
        0
 97
        0
 92
        1
 93
        1
 72
     4
 94
        3
 73
     0
 74
     1
 95
      182
 96
      178
 40
0.0
 40
0.0
 40
0.0
 40
0.0
 40
1.0
 40
1.0
 40
1.0
 40
2.0
 40
2.0
 40
2.0
 40
3.0
 40
3.0
 40
3.0
 40
4.0
 40
4.0
 40
4.0
 40
5.0
 40
5.0
 40
5.0
 40
6.0
 40
6.0
 40
6.0
 40
7.0
 40
7.0
 40
7.0
 40
8.0
 40
8.0
 40
8.0
 40
9.0
 40
9.0
 40
9.0
 40
10.0
 40
10.0
 40
10.0
 40
11.0
 40
11.0
 40
11.0
 40
12.0
 40
12.0
 40
12.0
 40
13.0
 40
13.0
 40
13.0
 40
14.0
 40
14.0
 40
14.0
 40
15.0
 40
15.0
 40
15.0
 40
16.0
 40
16.0
 40
16.0
 40
17.0
 40
17.0
 40
17.0
 40
18.0
 40
18.0
 40
18.0
 40
19.0
 40
19.0
 40
19.0
 40
20.0
 40
20.0
 40
20.0
 40
21.0
 40
21.0
 40
21.0
 40
22.0
 40
22.0
 40
22.0
 40
23.0
 40
23.0
 40
23.0
 40
24.0
 40
24.0
 40
24.0
 40
25.0
 40
25.0
 40
25.0
 40
26.0
 40
26.0
 40
26.0
 40
27.0
 40
27.0
 40
27.0
 40
28.0
 40
28.0
 40
28.0
 40
29.0
 40
29.0
 40
29.0
 40
30.0
 40
30.0
 40
30.0
 40
31.0
 40
31.0
 40
31.0
 40
32.0
 40
32.0
 40
32.0
 40
33.0
 40
33.0
 40
33.0
 40
34.0
 40
34.0
 40
34.0
 40
35.0
 40
35.0
 40
35.0
 40
36.0
 40
36.0
 40
36.0
 40
37.0
 40
37.0
 40
37.0
 40
38.0
 40
38.0
 40
38.0
 40
39.0
 40
39.0
 40
39.0
 40
40.0
 40
40.0
 40
40.0
 40
41.0
 40
41.0
 40
41.0
 40
42.0
 40
42.0
 40
42.0
 40
43.0
 40
43.0
 40
43.0
 40
44.0
 40
44.0
 40
44.0
 40
45.0
 40
45.0
 40
45.0
 40
46.0
 40
46.0
 40
46.0
 40
47.0
 40
47.0
 40
47.0
 40
48.0
 40
48.0
 40
48.0
 40
49.0
 40
49.0
 40
49.0
 40
50.0
 40
50.0
 40
50.0
 40
51.0
 40
51.0
 40
51.0
 40
52.0
 40
52.0
 40
52.0
 40
53.0
 40
53.0
 40
53.0
 40
54.0
 40
54.0
 40
54.0
 40
55.0
 40
55.0
 40
55.0
 40
56.0
 40
56.0
 40
56.0
 40
57.0
 40
57.0
 40
57.0
 40
58.0
 40
58.0
 40
58.0
 40
59.0
 40
59.0
 40
59.0
 40
59.0
 10
103.7545626910753
 20
-151.2162651531682
 10
103.7545626910753
 20
-151.2162651531682
 10
103.1179090454011
 20
-151.2162651531682
 10
103.1179090454011
 20
-151.2162651531682
 10
102.9043131253156
 20
-151.2162651531682
 10
102.6883056383904
 20
-151.2203992677505
 10
102.4747097183049
 20
-151.2331461210459
 10
102.4747097183049
 20
-151.2331461210459
 10
102.4747097183049
 20
-151.0257513728338
 10
102.4747097183049
 20
-151.0257513728338
 10
102.6969183771036
 20
-151.0384982261293
 10
103.0204128431685
 20
-151.0426323407116
 10
103.1179090454011
 20
-151.0426323407116
 10
103.1179090454011
 20
-151.0426323407116
 10
103.3380506469085
 20
-151.0426323407116
 10
103.3380506469085
 20
-151.0426323407116
 10
103.3380506469085
 20
-151.0426323407116
 10
103.3380506469085
 20
-150.9010389162678
 10
103.3380506469085
 20
-150.9010389162678
 10
103.3380506469085
 20
-150.9010389162678
 10
103.1771646877474
 20
-150.9010389162678
 10
103.1771646877474
 20
-150.9010389162678
 10
103.0121446140039
 20
-150.9010389162678
 10
102.8471245402605
 20
-150.9051730308501
 10
102.682104466517
 20
-150.9199869414367
 10
102.682104466517
 20
-150.9199869414367
 10
102.682104466517
 20
-150.7105251359335
 10
102.682104466517
 20
-150.7105251359335
 10
102.8533257121339
 20
-150.72533904652
 10
103.1010280775234
 20
-150.7294731611024
 10
103.1771646877474
 20
-150.7294731611024
 10
103.1771646877474
 20
-150.7294731611024
 10
103.3380506469085
 20
-150.7294731611024
 10
103.3380506469085
 20
-150.7294731611024
 10
103.3335720227777
 20
-150.6578151750092
 10
103.3335720227777
 20
-150.6512694935872
 10
103.3273708509043
 20
-150.5985595326629
 10
103.3273708509043
 20
-150.5985595326629
 10
103.4668972180569
 20
-150.6133734432494
 10
103.4668972180569
 20
-150.6133734432494
 10
103.4668972180569
 20
-150.6133734432494
 10
103.3676784680817
 20
-150.441807688084
 10
103.3676784680817
 20
-150.441807688084
 10
103.4141872571326
 20
-150.448353369506
 10
103.4882568100654
 20
-150.4566215986706
 10
103.5051377779432
 20
-150.4566215986706
 10
103.5557806815763
 20
-150.4566215986706
 10
103.5726616494541
 20
-150.4356065162106
 10
103.5726616494541
 20
-150.3784179311554
 10
103.5726616494541
 20
-150.3784179311554
 10
103.5726616494541
 20
-150.2409586212939
 10
103.5726616494541
 20
-150.2409586212939
 10
103.5726616494541
 20
-150.2409586212939
 10
103.4668972180569
 20
-150.2409586212939
 10
103.4668972180569
 20
-150.2409586212939
 10
103.3335720227777
 20
-150.2409586212939
 10
103.1771646877474
 20
-150.2409586212939
 10
103.0545192884725
 20
-150.2537054745894
 10
103.0545192884725
 20
-150.2537054745894
 10
103.0545192884725
 20
-150.063191694255
 10
103.0545192884725
 20
-150.063191694255
 10
103.2216064195071
 20
-150.0800726621328
 10
103.4520833074703
 20
-150.0821397194239
 10
103.4668972180569
 20
-150.0821397194239
 10
103.4668972180569
 20
-150.0821397194239
 10
103.5726616494541
 20
-150.0821397194239
 10
103.5726616494541
 20
-150.0821397194239
 10
103.5726616494541
 20
-150.0821397194239
 10
103.5726616494541
 20
-149.9512260909844
 10
103.5726616494541
 20
-149.9512260909844
 10
103.5726616494541
 20
-149.9512260909844
 10
103.5347655991163
 20
-149.9512260909844
 10
103.5347655991163
 20
-149.9512260909844
 10
103.4903238673566
 20
-149.9512260909844
 10
103.365266901242
 20
-149.9553602055667
 10
103.2763834377226
 20
-149.9636284347313
 10
103.2763834377226
 20
-149.9636284347313
 10
103.2763834377226
 20
-149.883357709925
 10
103.2763834377226
 20
-149.883357709925
 10
103.2236734767983
 20
-149.9215982698113
 10
103.1981797702074
 20
-149.9364121803978
 10
103.1558050957388
 20
-149.959494320149
 10
103.1558050957388
 20
-149.959494320149
 10
102.9677028822442
 20
-149.8306477490007
 10
102.9677028822442
 20
-149.8306477490007
 10
103.0459065497594
 20
-149.7965413036967
 10
103.2026583943382
 20
-149.7331515467681
 10
103.3590657293686
 20
-149.5894910650332
 10
103.441403511466
 20
-149.5109428879695
 10
103.5199516885297
 20
-149.4265380485809
 10
103.5726616494541
 20
-149.324907731766
 10
103.5726616494541
 20
-149.324907731766
 10
103.7841905122484
 20
-149.3862304314034
 10
103.7841905122484
 20
-149.3862304314034
 10
103.8034830469658
 20
-149.3924316032769
 10
103.8138183334216
 20
-149.40104434199
 10
103.8138183334216
 20
-149.4137911952855
 10
103.8138183334216
 20
-149.4306721631632
 10
103.8010714801261
 20
-149.4368733350366
 10
103.7759222830838
 20
-149.449620188332
 10
103.8561930078901
 20
-149.5471163905646
 10
104.0191460243424
 20
-149.6442680832487
 10
104.0529079600979
 20
-149.6632161084175
 10
104.2031141232548
 20
-149.752099571937
 10
104.3174912933651
 20
-149.779660335819
 10
104.3956949608802
 20
-149.7986083609879
 10
104.3956949608802
 20
-149.7986083609879
 10
104.2771836761876
 20
-149.9681070588622
 10
104.2771836761876
 20
-149.9681070588622
 10
104.1924343272505
 20
-149.938479237689
 10
104.1417914236173
 20
-149.9195312125201
 10
104.0232801389247
 20
-149.8537298887518
 10
104.0232801389247
 20
-149.8537298887518
 10
104.0232801389247
 20
-149.9636284347313
 10
104.0232801389247
 20
-149.9636284347313
 10
103.9409423568273
 20
-149.9553602055667
 10
103.8138183334216
 20
-149.9512260909844
 10
103.7611083724972
 20
-149.9512260909844
 10
103.7611083724972
 20
-149.9512260909844
 10
103.7611083724972
 20
-150.0821397194239
 10
103.7611083724972
 20
-150.0821397194239
 10
103.7611083724972
 20
-150.0821397194239
 10
103.881686714481
 20
-150.0821397194239
 10
103.881686714481
 20
-150.0821397194239
 10
103.8837537717721
 20
-150.0821397194239
 10
104.1162977170265
 20
-150.0800726621328
 10
104.2940646440654
 20
-150.063191694255
 10
104.2940646440654
 20
-150.063191694255
 10
104.2940646440654
 20
-150.2537054745894
 10
104.2940646440654
 20
-150.2537054745894
 10
104.165218072917
 20
-150.2409586212939
 10
104.0084662283382
 20
-150.2409586212939
 10
103.881686714481
 20
-150.2409586212939
 10
103.881686714481
 20
-150.2409586212939
 10
103.7611083724972
 20
-150.2409586212939
 10
103.7611083724972
 20
-150.2409586212939
 10
103.7611083724972
 20
-150.2409586212939
 10
103.7611083724972
 20
-150.4673013946748
 10
103.7611083724972
 20
-150.4673013946748
 10
103.7611083724972
 20
-150.5858126793675
 10
103.7356146659064
 20
-150.621641672414
 10
103.5747287067452
 20
-150.6364555830006
 10
103.579207330876
 20
-150.6554036081695
 10
103.5726616494541
 20
-150.6660834041738
 10
103.5347655991163
 20
-150.6895100534735
 10
103.5326985418252
 20
-150.7084580786423
 10
103.5326985418252
 20
-150.7146592505158
 10
103.5302869749855
 20
-150.7294731611024
 10
103.5302869749855
 20
-150.7294731611024
 10
103.667746284847
 20
-150.7294731611024
 10
103.667746284847
 20
-150.7294731611024
 10
103.8327663585904
 20
-150.7294731611024
 10
104.0001979991736
 20
-150.72533904652
 10
104.1672851302082
 20
-150.7105251359335
 10
104.1672851302082
 20
-150.7105251359335
 10
104.1672851302082
 20
-150.9179198841455
 10
104.1672851302082
 20
-150.9179198841455
 10
103.951277643283
 20
-150.9010389162678
 10
103.6870388195643
 20
-150.9010389162678
 10
103.667746284847
 20
-150.9010389162678
 10
103.667746284847
 20
-150.9010389162678
 10
103.5282199176943
 20
-150.9010389162678
 10
103.5282199176943
 20
-150.9010389162678
 10
103.5282199176943
 20
-150.9010389162678
 10
103.5282199176943
 20
-151.0426323407116
 10
103.5282199176943
 20
-151.0426323407116
 10
103.5282199176943
 20
-151.0426323407116
 10
103.7545626910753
 20
-151.0426323407116
 10
103.7545626910753
 20
-151.0426323407116
 10
103.9705701780004
 20
-151.0426323407116
 10
104.1883002126682
 20
-151.0384982261293
 10
104.4039631900448
 20
-151.0257513728338
 10
104.4039631900448
 20
-151.0257513728338
 10
104.4039631900448
 20
-151.2331461210459
 10
104.4039631900448
 20
-151.2331461210459
 10
104.1228433984485
 20
-151.2162651531682
 10
103.777989340375
 20
-151.2162651531682
 10
103.7545626910753
 20
-151.2162651531682
 97
        0
 97
        0
 92
        1
 93
        1
 72
     4
 94
        3
 73
     0
 74
     1
 95
       23
 96
       19
 40
0.0
 40
0.0
 40
0.0
 40
0.0
 40
1.0
 40
1.0
 40
1.0
 40
2.0
 40
2.0
 40
2.0
 40
3.0
 40
3.0
 40
3.0
 40
4.0
 40
4.0
 40
4.0
 40
5.0
 40
5.0
 40
5.0
 40
6.0
 40
6.0
 40
6.0
 40
6.0
 10
102.6355956774661
 20
-150.5878797366586
 10
102.6355956774661
 20
-150.6088948191186
 10
102.6376627347573
 20
-150.6471353790049
 10
102.6121690281664
 20
-150.6471353790049
 10
102.6018337417107
 20
-150.6471353790049
 10
102.5932210029975
 20
-150.6405896975829
 10
102.5825412069933
 20
-150.6237087297052
 10
102.5825412069933
 20
-150.6237087297052
 10
102.4788438328872
 20
-150.441807688084
 10
102.4788438328872
 20
-150.441807688084
 10
102.6948513198124
 20
-150.3129611169357
 10
102.8915662720202
 20
-150.035630930373
 10
102.938075061071
 20
-149.9636284347313
 10
102.938075061071
 20
-149.9636284347313
 10
103.0100775567128
 20
-150.1434624190614
 10
103.0100775567128
 20
-150.1434624190614
 10
102.8767523614336
 20
-150.3401773712691
 10
102.7010524916859
 20
-150.52448997973
 10
102.6355956774661
 20
-150.5878797366586
 97
        0
 97
        0
 92
        1
 93
        1
 72
     4
 94
        3
 73
     0
 74
     1
 95
       17
 96
       13
 40
0.0
 40
0.0
 40
0.0
 40
0.0
 40
1.0
 40
1.0
 40
1.0
 40
2.0
 40
2.0
 40
2.0
 40
3.0
 40
3.0
 40
3.0
 40
4.0
 40
4.0
 40
4.0
 40
4.0
 10
102.889499214729
 20
-149.6928439295907
 10
102.8281765150916
 20
-149.6167073193667
 10
102.6989854343947
 20
-149.5405707091426
 10
102.5952880602887
 20
-149.5109428879695
 10
102.5952880602887
 20
-149.5109428879695
 10
102.6907172052301
 20
-149.345922814226
 10
102.6907172052301
 20
-149.345922814226
 10
102.7920030124965
 20
-149.3820963168212
 10
102.8977674438936
 20
-149.4392849018763
 10
102.9866509074131
 20
-149.5195556266826
 10
102.9866509074131
 20
-149.5195556266826
 10
102.889499214729
 20
-149.6928439295907
 10
102.889499214729
 20
-149.6928439295907
 97
        0
 97
        0
 92
        1
 93
        1
 72
     4
 94
        3
 73
     0
 74
     1
 95
       23
 96
       19
 40
0.0
 40
0.0
 40
0.0
 40
0.0
 40
1.0
 40
1.0
 40
1.0
 40
2.0
 40
2.0
 40
2.0
 40
3.0
 40
3.0
 40
3.0
 40
4.0
 40
4.0
 40
4.0
 40
5.0
 40
5.0
 40
5.0
 40
6.0
 40
6.0
 40
6.0
 40
6.0
 10
103.3421847614908
 20
-150.3973659563243
 10
103.3208251694823
 20
-150.420792605624
 10
103.2236734767983
 20
-150.5327582088946
 10
103.0841471096456
 20
-150.6133734432494
 10
103.0841471096456
 20
-150.6133734432494
 10
102.917059978611
 20
-150.4927951012657
 10
102.917059978611
 20
-150.4927951012657
 10
103.0672661417679
 20
-150.4166584910417
 10
103.1664848917431
 20
-150.3212293461003
 10
103.2150607380851
 20
-150.2685193851759
 10
103.2150607380851
 20
-150.2685193851759
 10
103.3886935505417
 20
-150.3508571672734
 10
103.3886935505417
 20
-150.3508571672734
 10
103.3969617797063
 20
-150.3549912818557
 10
103.4055745184194
 20
-150.3615369632777
 10
103.4055745184194
 20
-150.3722167592819
 10
103.4055745184194
 20
-150.3973659563243
 10
103.3697455253728
 20
-150.3973659563243
 10
103.3421847614908
 20
-150.3973659563243
 97
        0
 97
        0
 92
        1
 93
        1
 72
     4
 94
        3
 73
     0
 74
     1
 95
       20
 96
       16
 40
0.0
 40
0.0
 40
0.0
 40
0.0
 40
1.0
 40
1.0
 40
1.0
 40
2.0
 40
2.0
 40
2.0
 40
3.0
 40
3.0
 40
3.0
 40
4.0
 40
4.0
 40
4.0
 40
5.0
 40
5.0
 40
5.0
 40
5.0
 10
103.6405300305135
 20
-149.5553846197292
 10
103.6022894706272
 20
-149.6043049756198
 10
103.5409667709898
 20
-149.6825086431349
 10
103.4014404038371
 20
-149.7924071891144
 10
103.4817111286435
 20
-149.7965413036967
 10
103.5113389498166
 20
-149.7965413036967
 10
103.5347655991163
 20
-149.7965413036967
 10
103.5347655991163
 20
-149.7965413036967
 10
103.7631754297884
 20
-149.7965413036967
 10
103.7631754297884
 20
-149.7965413036967
 10
103.7948703082527
 20
-149.7965413036967
 10
103.8434461545947
 20
-149.7944742464055
 10
103.9175157075276
 20
-149.7924071891144
 10
103.805550104257
 20
-149.7183376361815
 10
103.7566297483664
 20
-149.6718288471307
 10
103.6405300305135
 20
-149.5553846197292
 97
        0
 97
        0
 92
        1
 93
        1
 72
     4
 94
        3
 73
     0
 74
     1
 95
       17
 96
       13
 40
0.0
 40
0.0
 40
0.0
 40
0.0
 40
1.0
 40
1.0
 40
1.0
 40
2.0
 40
2.0
 40
2.0
 40
3.0
 40
3.0
 40
3.0
 40
4.0
 40
4.0
 40
4.0
 40
4.0
 10
104.2010470659636
 20
-150.6109618764098
 10
104.0656548133933
 20
-150.4989962731391
 10
103.9598903819961
 20
-150.4356065162106
 10
103.8413790973035
 20
-150.3722167592819
 10
103.8413790973035
 20
-150.3722167592819
 10
103.9681586111607
 20
-150.2599066464628
 10
103.9681586111607
 20
-150.2599066464628
 10
104.0994167491488
 20
-150.3064154355137
 10
104.2093152951282
 20
-150.3636040205688
 10
104.3343722612428
 20
-150.4652343373837
 10
104.3343722612428
 20
-150.4652343373837
 10
104.2010470659636
 20
-150.6109618764098
 10
104.2010470659636
 20
-150.6109618764098
 97
        0
 97
        0
 75
     2
 76
     1
 98
        0
  0
SPLINE
  5
A0
330
94
100
AcDbEntity
  8
_U+30EC_U+30A4_U+30E4_U+30FC 1
370
     0
100
AcDbSpline
210
0.0
220
0.0
230
1.0
 70
    11
 71
     3
 72
   113
 73
   109
 74
     0
 42
0.0000000001
 43
0.0000000001
 12
1.0
 22
0.0
 32
0.0
 13
1.0
 23
0.0
 33
0.0
 40
0.0
 40
0.0
 40
0.0
 40
0.0
 40
1.0
 40
1.0
 40
1.0
 40
2.0
 40
2.0
 40
2.0
 40
3.0
 40
3.0
 40
3.0
 40
4.0
 40
4.0
 40
4.0
 40
5.0
 40
5.0
 40
5.0
 40
6.0
 40
6.0
 40
6.0
 40
7.0
 40
7.0
 40
7.0
 40
8.0
 40
8.0
 40
8.0
 40
9.0
 40
9.0
 40
9.0
 40
10.0
 40
10.0
 40
10.0
 40
11.0
 40
11.0
 40
11.0
 40
12.0
 40
12.0
 40
12.0
 40
13.0
 40
13.0
 40
13.0
 40
14.0
 40
14.0
 40
14.0
 40
15.0
 40
15.0
 40
15.0
 40
16.0
 40
16.0
 40
16.0
 40
17.0
 40
17.0
 40
17.0
 40
18.0
 40
18.0
 40
18.0
 40
19.0
 40
19.0
 40
19.0
 40
20.0
 40
20.0
 40
20.0
 40
21.0
 40
21.0
 40
21.0
 40
22.0
 40
22.0
 40
22.0
 40
23.0
 40
23.0
 40
23.0
 40
24.0
 40
24.0
 40
24.0
 40
25.0
 40
25.0
 40
25.0
 40
26.0
 40
26.0
 40
26.0
 40
27.0
 40
27.0
 40
27.0
 40
28.0
 40
28.0
 40
28.0
 40
29.0
 40
29.0
 40
29.0
 40
30.0
 40
30.0
 40
30.0
 40
31.0
 40
31.0
 40
31.0
 40
32.0
 40
32.0
 40
32.0
 40
33.0
 40
33.0
 40
33.0
 40
34.0
 40
34.0
 40
34.0
 40
35.0
 40
35.0
 40
35.0
 40
36.0
 40
36.0
 40
36.0
 40
36.0
 10
106.0806911627159
 20
-150.5878797366586
 30
0.0
 10
106.0806911627159
 20
-150.5878797366586
 30
0.0
 10
106.1802544222397
 20
-150.6874429961823
 30
0.0
 10
106.1802544222397
 20
-150.6874429961823
 30
0.0
 10
106.1909342182439
 20
-150.6977782826381
 30
0.0
 10
106.2012695046997
 20
-150.7105251359335
 30
0.0
 10
106.2012695046997
 20
-150.72533904652
 30
0.0
 10
106.2012695046997
 20
-150.7274061038112
 30
0.0
 10
106.2012695046997
 20
-150.7570339249844
 30
0.0
 10
106.1633734543619
 20
-150.7570339249844
 30
0.0
 10
106.1547607156488
 20
-150.7570339249844
 30
0.0
 10
106.1144530984714
 20
-150.7528998104021
 30
0.0
 10
106.1082519265979
 20
-150.7528998104021
 30
0.0
 10
106.0679443094205
 20
-150.7845946888663
 30
0.0
 10
106.0214355203696
 20
-150.8183566246218
 30
0.0
 10
105.9222167703945
 20
-150.8755452096769
 30
0.0
 10
106.0679443094205
 20
-150.9833766983653
 30
0.0
 10
106.2267632112905
 20
-151.0405652834204
 30
0.0
 10
106.4996147737223
 20
-151.0788058433067
 30
0.0
 10
106.4996147737223
 20
-151.0788058433067
 30
0.0
 10
106.3494086105654
 20
-151.2541612035059
 30
0.0
 10
106.3494086105654
 20
-151.2541612035059
 30
0.0
 10
106.0872368441379
 20
-151.1821587078642
 30
0.0
 10
105.9304849995591
 20
-151.0936197538933
 30
0.0
 10
105.854348389335
 20
-151.0405652834204
 30
0.0
 10
105.7041422261781
 20
-150.9389349666056
 30
0.0
 10
105.5604817444432
 20
-150.7759819501532
 30
0.0
 10
105.4843451342192
 20
-150.6109618764098
 30
0.0
 10
105.4164767531598
 20
-150.676763200178
 30
0.0
 10
105.3424072002269
 20
-150.7294731611024
 30
0.0
 10
105.2642035327117
 20
-150.7783935169929
 30
0.0
 10
105.2642035327117
 20
-150.7783935169929
 30
0.0
 10
105.2642035327117
 20
-151.0298854874162
 30
0.0
 10
105.2642035327117
 20
-151.0298854874162
 30
0.0
 10
105.4271565491641
 20
-151.0047362903738
 30
0.0
 10
105.6131917053675
 20
-150.9602945586141
 30
0.0
 10
105.6765814622961
 20
-150.9454806480275
 30
0.0
 10
105.6765814622961
 20
-150.9454806480275
 30
0.0
 10
105.646953641123
 20
-151.1146348363533
 30
0.0
 10
105.646953641123
 20
-151.1146348363533
 30
0.0
 10
105.6448865838318
 20
-151.1146348363533
 30
0.0
 10
105.625938558663
 20
-151.1208360082267
 30
0.0
 10
105.6238715013718
 20
-151.1208360082267
 30
0.0
 10
105.4250894918729
 20
-151.159076568113
 30
0.0
 10
105.1077961976814
 20
-151.2245333823328
 30
0.0
 10
104.9107367359251
 20
-151.2607068849279
 30
0.0
 10
104.9004014494693
 20
-151.2775878528056
 30
0.0
 10
104.8769748001696
 20
-151.3092827312699
 30
0.0
 10
104.8538926604185
 20
-151.3092827312699
 30
0.0
 10
104.8263318965365
 20
-151.3092827312699
 30
0.0
 10
104.8221977819542
 20
-151.290334706101
 30
0.0
 10
104.8197862151145
 20
-151.2710421713836
 30
0.0
 10
104.8197862151145
 20
-151.2710421713836
 30
0.0
 10
104.7946370180722
 20
-151.0977538684756
 30
0.0
 10
104.7946370180722
 20
-151.0977538684756
 30
0.0
 10
104.868706571005
 20
-151.0891411297625
 30
0.0
 10
104.9765380596934
 20
-151.076394276467
 30
0.0
 10
105.0843695483817
 20
-151.055379194007
 30
0.0
 10
105.0843695483817
 20
-151.055379194007
 30
0.0
 10
105.0843695483817
 20
-150.8776122669681
 30
0.0
 10
105.0843695483817
 20
-150.8776122669681
 30
0.0
 10
104.9403645570982
 20
-150.9496147626098
 30
0.0
 10
104.8452799217054
 20
-150.979242583783
 30
0.0
 10
104.6802598479619
 20
-151.0088704049561
 30
0.0
 10
104.6802598479619
 20
-151.0088704049561
 30
0.0
 10
104.5596815059781
 20
-150.8397162166304
 30
0.0
 10
104.5596815059781
 20
-150.8397162166304
 30
0.0
 10
104.8769748001696
 20
-150.8121554527484
 30
0.0
 10
105.0695556377951
 20
-150.7191378746466
 30
0.0
 10
105.247322564834
 20
-150.5858126793675
 30
0.0
 10
105.1012505162594
 20
-150.5858126793675
 30
0.0
 10
104.8008381899456
 20
-150.5899467939497
 30
0.0
 10
104.6041232377379
 20
-150.5964924753717
 30
0.0
 10
104.6041232377379
 20
-150.5964924753717
 30
0.0
 10
104.6041232377379
 20
-150.4187255483328
 30
0.0
 10
104.6041232377379
 20
-150.4187255483328
 30
0.0
 10
104.7584635154771
 20
-150.4249267202063
 30
0.0
 10
105.0547417272085
 20
-150.4314724016282
 30
0.0
 10
105.2387098261209
 20
-150.4314724016282
 30
0.0
 10
105.2387098261209
 20
-150.4314724016282
 30
0.0
 10
105.4502386889152
 20
-150.4314724016282
 30
0.0
 10
105.4502386889152
 20
-150.4314724016282
 30
0.0
 10
105.4502386889152
 20
-150.3360432566868
 30
0.0
 10
105.4481716316241
 20
-150.2854003530537
 30
0.0
 10
105.4419704597506
 20
-150.2388915640028
 30
0.0
 10
105.4419704597506
 20
-150.2388915640028
 30
0.0
 10
105.6576334371273
 20
-150.2557725318805
 30
0.0
 10
105.6576334371273
 20
-150.2557725318805
 30
0.0
 10
105.7062092834693
 20
-150.2599066464628
 30
0.0
 10
105.7148220221824
 20
-150.2747205570494
 30
0.0
 10
105.7148220221824
 20
-150.2895344676359
 30
0.0
 10
105.7148220221824
 20
-150.3150281742268
 30
0.0
 10
105.6979410543047
 20
-150.3232964033914
 30
0.0
 10
105.646953641123
 20
-150.3487901099822
 30
0.0
 10
105.6448865838318
 20
-150.3742838165731
 30
0.0
 10
105.6448865838318
 20
-150.3804849884465
 30
0.0
 10
105.6428195265407
 20
-150.4314724016282
 30
0.0
 10
105.6428195265407
 20
-150.4314724016282
 30
0.0
 10
105.8732964145039
 20
-150.4314724016282
 30
0.0
 10
105.8732964145039
 20
-150.4314724016282
 30
0.0
 10
106.0383164882474
 20
-150.4314724016282
 30
0.0
 10
106.3304605853966
 20
-150.4249267202063
 30
0.0
 10
106.5102945697266
 20
-150.4187255483328
 30
0.0
 10
106.5102945697266
 20
-150.4187255483328
 30
0.0
 10
106.5102945697266
 20
-150.5964924753717
 30
0.0
 10
106.5102945697266
 20
-150.5964924753717
 30
0.0
 10
106.3811034890297
 20
-150.5920138512409
 30
0.0
 10
106.3580213492786
 20
-150.5920138512409
 30
0.0
 10
106.0806911627159
 20
-150.5878797366586
 30
0.0
  0
SPLINE
  5
A1
330
94
100
AcDbEntity
  8
_U+30EC_U+30A4_U+30E4_U+30FC 1
370
     0
100
AcDbSpline
210
0.0
220
0.0
230
1.0
 70
    11
 71
     3
 72
    23
 73
    19
 74
     0
 42
0.0000000001
 43
0.0000000001
 12
1.0
 22
0.0
 32
0.0
 13
1.0
 23
0.0
 33
0.0
 40
0.0
 40
0.0
 40
0.0
 40
0.0
 40
1.0
 40
1.0
 40
1.0
 40
2.0
 40
2.0
 40
2.0
 40
3.0
 40
3.0
 40
3.0
 40
4.0
 40
4.0
 40
4.0
 40
5.0
 40
5.0
 40
5.0
 40
6.0
 40
6.0
 40
6.0
 40
6.0
 10
104.7967040753633
 20
-150.2368245067116
 30
0.0
 10
104.7798231074856
 20
-150.2767876143405
 30
0.0
 10
104.7732774260636
 20
-150.2936685822183
 30
0.0
 10
104.7522623436036
 20
-150.2936685822183
 30
0.0
 10
104.737448433017
 20
-150.2936685822183
 30
0.0
 10
104.7267686370128
 20
-150.2767876143405
 30
0.0
 10
104.7205674651393
 20
-150.2640407610451
 30
0.0
 10
104.7205674651393
 20
-150.2640407610451
 30
0.0
 10
104.6210042056156
 20
-150.0990206873016
 30
0.0
 10
104.6210042056156
 20
-150.0990206873016
 30
0.0
 10
104.7226345224305
 20
-150.0673258088374
 30
0.0
 10
104.8728406855873
 20
-150.0125487906219
 30
0.0
 10
105.0716226950863
 20
-149.8495957741696
 30
0.0
 10
105.0716226950863
 20
-149.8495957741696
 30
0.0
 10
105.1288112801414
 20
-150.0228840770776
 30
0.0
 10
105.1288112801414
 20
-150.0228840770776
 30
0.0
 10
105.0357937020397
 20
-150.1055663687236
 30
0.0
 10
104.9469102385202
 20
-150.1627549537788
 30
0.0
 10
104.7967040753633
 20
-150.2368245067116
 30
0.0
  0
SPLINE
  5
A2
330
94
100
AcDbEntity
  8
_U+30EC_U+30A4_U+30E4_U+30FC 1
370
     0
100
AcDbSpline
210
0.0
220
0.0
230
1.0
 70
    11
 71
     3
 72
    17
 73
    13
 74
     0
 42
0.0000000001
 43
0.0000000001
 12
1.0
 22
0.0
 32
0.0
 13
1.0
 23
0.0
 33
0.0
 40
0.0
 40
0.0
 40
0.0
 40
0.0
 40
1.0
 40
1.0
 40
1.0
 40
2.0
 40
2.0
 40
2.0
 40
3.0
 40
3.0
 40
3.0
 40
4.0
 40
4.0
 40
4.0
 40
4.0
 10
104.9489772958114
 20
-149.7713921066544
 30
0.0
 10
104.9193494746382
 20
-149.731084489477
 30
0.0
 10
104.8514810935788
 20
-149.6339327967929
 30
0.0
 10
104.6695800519576
 20
-149.5236897412649
 30
0.0
 10
104.6695800519576
 20
-149.5236897412649
 30
0.0
 10
104.7967040753633
 20
-149.3903645459858
 30
0.0
 10
104.7967040753633
 20
-149.3903645459858
 30
0.0
 10
104.9827392315668
 20
-149.4919948628006
 30
0.0
 10
105.039927816622
 20
-149.5808783263201
 30
0.0
 10
105.067488580504
 20
-149.6232530007887
 30
0.0
 10
105.067488580504
 20
-149.6232530007887
 30
0.0
 10
104.9489772958114
 20
-149.7713921066544
 30
0.0
 10
104.9489772958114
 20
-149.7713921066544
 30
0.0
  0
SPLINE
  5
A3
330
94
100
AcDbEntity
  8
_U+30EC_U+30A4_U+30E4_U+30FC 1
370
     0
100
AcDbSpline
210
0.0
220
0.0
230
1.0
 70
    11
 71
     3
 72
    38
 73
    34
 74
     0
 42
0.0000000001
 43
0.0000000001
 12
1.0
 22
0.0
 32
0.0
 13
1.0
 23
0.0
 33
0.0
 40
0.0
 40
0.0
 40
0.0
 40
0.0
 40
1.0
 40
1.0
 40
1.0
 40
2.0
 40
2.0
 40
2.0
 40
3.0
 40
3.0
 40
3.0
 40
4.0
 40
4.0
 40
4.0
 40
5.0
 40
5.0
 40
5.0
 40
6.0
 40
6.0
 40
6.0
 40
7.0
 40
7.0
 40
7.0
 40
8.0
 40
8.0
 40
8.0
 40
9.0
 40
9.0
 40
9.0
 40
10.0
 40
10.0
 40
10.0
 40
11.0
 40
11.0
 40
11.0
 40
11.0
 10
105.3169134936361
 20
-149.4665011562098
 30
0.0
 10
105.3148464363449
 20
-149.5133544548092
 30
0.0
 10
105.3127793790538
 20
-149.6294541726621
 30
0.0
 10
105.3127793790538
 20
-149.6738959044218
 30
0.0
 10
105.3127793790538
 20
-149.6738959044218
 30
0.0
 10
105.3127793790538
 20
-150.0208170197865
 30
0.0
 10
105.3127793790538
 20
-150.0208170197865
 30
0.0
 10
105.3127793790538
 20
-150.1076334260148
 30
0.0
 10
105.3148464363449
 20
-150.2492268504585
 30
0.0
 10
105.3255262323492
 20
-150.3698051924423
 30
0.0
 10
105.3255262323492
 20
-150.3698051924423
 30
0.0
 10
105.1350124520149
 20
-150.3698051924423
 30
0.0
 10
105.1350124520149
 20
-150.3698051924423
 30
0.0
 10
105.1394910761457
 20
-150.3064154355137
 30
0.0
 10
105.143625190728
 20
-150.2537054745894
 30
0.0
 10
105.1456922480191
 20
-150.1985839468254
 30
0.0
 10
105.1477593053103
 20
-150.0759385475505
 30
0.0
 10
105.1498263626014
 20
-150.0611246369639
 30
0.0
 10
105.1498263626014
 20
-150.0166829052042
 30
0.0
 10
105.1498263626014
 20
-150.0166829052042
 30
0.0
 10
105.1498263626014
 20
-149.6952554964303
 30
0.0
 10
105.1498263626014
 20
-149.6952554964303
 30
0.0
 10
105.1498263626014
 20
-149.6401339686664
 30
0.0
 10
105.137079509306
 20
-149.40104434199
 30
0.0
 10
105.1350124520149
 20
-149.3504014383568
 30
0.0
 10
105.1350124520149
 20
-149.3504014383568
 30
0.0
 10
105.3362060283535
 20
-149.3779622022388
 30
0.0
 10
105.3362060283535
 20
-149.3779622022388
 30
0.0
 10
105.3572211108135
 20
-149.38002925953
 30
0.0
 10
105.3889159892778
 20
-149.3841633741123
 30
0.0
 10
105.3889159892778
 20
-149.4096570807031
 30
0.0
 10
105.3889159892778
 20
-149.4368733350366
 30
0.0
 10
105.3382730856446
 20
-149.4582329270452
 30
0.0
 10
105.3169134936361
 20
-149.4665011562098
 30
0.0
  0
SPLINE
  5
A4
330
94
100
AcDbEntity
  8
_U+30EC_U+30A4_U+30E4_U+30FC 1
370
     0
100
AcDbSpline
210
0.0
220
0.0
230
1.0
 70
    11
 71
     3
 72
    83
 73
    79
 74
     0
 42
0.0000000001
 43
0.0000000001
 12
1.0
 22
0.0
 32
0.0
 13
1.0
 23
0.0
 33
0.0
 40
0.0
 40
0.0
 40
0.0
 40
0.0
 40
1.0
 40
1.0
 40
1.0
 40
2.0
 40
2.0
 40
2.0
 40
3.0
 40
3.0
 40
3.0
 40
4.0
 40
4.0
 40
4.0
 40
5.0
 40
5.0
 40
5.0
 40
6.0
 40
6.0
 40
6.0
 40
7.0
 40
7.0
 40
7.0
 40
8.0
 40
8.0
 40
8.0
 40
9.0
 40
9.0
 40
9.0
 40
10.0
 40
10.0
 40
10.0
 40
11.0
 40
11.0
 40
11.0
 40
12.0
 40
12.0
 40
12.0
 40
13.0
 40
13.0
 40
13.0
 40
14.0
 40
14.0
 40
14.0
 40
15.0
 40
15.0
 40
15.0
 40
16.0
 40
16.0
 40
16.0
 40
17.0
 40
17.0
 40
17.0
 40
18.0
 40
18.0
 40
18.0
 40
19.0
 40
19.0
 40
19.0
 40
20.0
 40
20.0
 40
20.0
 40
21.0
 40
21.0
 40
21.0
 40
22.0
 40
22.0
 40
22.0
 40
23.0
 40
23.0
 40
23.0
 40
24.0
 40
24.0
 40
24.0
 40
25.0
 40
25.0
 40
25.0
 40
26.0
 40
26.0
 40
26.0
 40
26.0
 10
106.1189317226022
 20
-149.7882730745321
 30
0.0
 10
106.1189317226022
 20
-149.7882730745321
 30
0.0
 10
106.0214355203696
 20
-149.7882730745321
 30
0.0
 10
106.0214355203696
 20
-149.7882730745321
 30
0.0
 10
106.0214355203696
 20
-149.7882730745321
 30
0.0
 10
106.0214355203696
 20
-150.035630930373
 30
0.0
 10
106.0214355203696
 20
-150.035630930373
 30
0.0
 10
106.0214355203696
 20
-150.035630930373
 30
0.0
 10
106.1041178120156
 20
-150.035630930373
 30
0.0
 10
106.1041178120156
 20
-150.035630930373
 30
0.0
 10
106.1695746262354
 20
-150.035630930373
 30
0.0
 10
106.309100993388
 20
-150.0314968157907
 30
0.0
 10
106.4086642529117
 20
-150.0228840770776
 30
0.0
 10
106.4086642529117
 20
-150.0228840770776
 30
0.0
 10
106.4086642529117
 20
-150.2027180614077
 30
0.0
 10
106.4086642529117
 20
-150.2027180614077
 30
0.0
 10
106.31564667481
 20
-150.1944498322431
 30
0.0
 10
106.1654405116531
 20
-150.1903157176608
 30
0.0
 10
106.1041178120156
 20
-150.1903157176608
 30
0.0
 10
106.1041178120156
 20
-150.1903157176608
 30
0.0
 10
105.799226861571
 20
-150.1903157176608
 30
0.0
 10
105.799226861571
 20
-150.1903157176608
 30
0.0
 10
105.7465169006467
 20
-150.1903157176608
 30
0.0
 10
105.6004448520721
 20
-150.1944498322431
 30
0.0
 10
105.4946804206749
 20
-150.2027180614077
 30
0.0
 10
105.4946804206749
 20
-150.2027180614077
 30
0.0
 10
105.4946804206749
 20
-150.0228840770776
 30
0.0
 10
105.4946804206749
 20
-150.0228840770776
 30
0.0
 10
105.5942436801987
 20
-150.0314968157907
 30
0.0
 10
105.7337700473513
 20
-150.035630930373
 30
0.0
 10
105.799226861571
 20
-150.035630930373
 30
0.0
 10
105.799226861571
 20
-150.035630930373
 30
0.0
 10
105.8436685933307
 20
-150.035630930373
 30
0.0
 10
105.8436685933307
 20
-150.035630930373
 30
0.0
 10
105.8436685933307
 20
-150.035630930373
 30
0.0
 10
105.8436685933307
 20
-149.7882730745321
 30
0.0
 10
105.8436685933307
 20
-149.7882730745321
 30
0.0
 10
105.8436685933307
 20
-149.7882730745321
 30
0.0
 10
105.7699435499464
 20
-149.7882730745321
 30
0.0
 10
105.7699435499464
 20
-149.7882730745321
 30
0.0
 10
105.7082763407604
 20
-149.7882730745321
 30
0.0
 10
105.5411892097258
 20
-149.7924071891144
 30
0.0
 10
105.4206108677421
 20
-149.8010199278275
 30
0.0
 10
105.4206108677421
 20
-149.8010199278275
 30
0.0
 10
105.4206108677421
 20
-149.6232530007887
 30
0.0
 10
105.4206108677421
 20
-149.6232530007887
 30
0.0
 10
105.5349880378524
 20
-149.6294541726621
 30
0.0
 10
105.6934624301739
 20
-149.6339327967929
 30
0.0
 10
105.7699435499464
 20
-149.6339327967929
 30
0.0
 10
105.7699435499464
 20
-149.6339327967929
 30
0.0
 10
105.8416015360396
 20
-149.6339327967929
 30
0.0
 10
105.8416015360396
 20
-149.6339327967929
 30
0.0
 10
105.8374674214573
 20
-149.4813150667964
 30
0.0
 10
105.8354003641661
 20
-149.4475531310409
 30
0.0
 10
105.8288546827442
 20
-149.3545355529392
 30
0.0
 10
105.8288546827442
 20
-149.3545355529392
 30
0.0
 10
106.040728055087
 20
-149.3779622022388
 30
0.0
 10
106.040728055087
 20
-149.3779622022388
 30
0.0
 10
106.0658772521294
 20
-149.38002925953
 30
0.0
 10
106.0893039014291
 20
-149.3841633741123
 30
0.0
 10
106.0893039014291
 20
-149.4072455138635
 30
0.0
 10
106.0893039014291
 20
-149.4392849018763
 30
0.0
 10
106.0448621696693
 20
-149.456165869754
 30
0.0
 10
106.0214355203696
 20
-149.4644340989186
 30
0.0
 10
106.0214355203696
 20
-149.4644340989186
 30
0.0
 10
106.0214355203696
 20
-149.6339327967929
 30
0.0
 10
106.0214355203696
 20
-149.6339327967929
 30
0.0
 10
106.0214355203696
 20
-149.6339327967929
 30
0.0
 10
106.1189317226022
 20
-149.6339327967929
 30
0.0
 10
106.1189317226022
 20
-149.6339327967929
 30
0.0
 10
106.1950683328262
 20
-149.6339327967929
 30
0.0
 10
106.3535427251477
 20
-149.6294541726621
 30
0.0
 10
106.4699869525492
 20
-149.6232530007887
 30
0.0
 10
106.4699869525492
 20
-149.6232530007887
 30
0.0
 10
106.4699869525492
 20
-149.8010199278275
 30
0.0
 10
106.4699869525492
 20
-149.8010199278275
 30
0.0
 10
106.3621554638609
 20
-149.7944742464055
 30
0.0
 10
106.1885226514043
 20
-149.7882730745321
 30
0.0
 10
106.1189317226022
 20
-149.7882730745321
 30
0.0
  0
SPLINE
  5
A5
330
94
100
AcDbEntity
  8
_U+30EC_U+30A4_U+30E4_U+30FC 1
370
     0
100
AcDbSpline
210
0.0
220
0.0
230
1.0
 70
    11
 71
     3
 72
    17
 73
    13
 74
     0
 42
0.0000000001
 43
0.0000000001
 12
1.0
 22
0.0
 32
0.0
 13
1.0
 23
0.0
 33
0.0
 40
0.0
 40
0.0
 40
0.0
 40
0.0
 40
1.0
 40
1.0
 40
1.0
 40
2.0
 40
2.0
 40
2.0
 40
3.0
 40
3.0
 40
3.0
 40
4.0
 40
4.0
 40
4.0
 40
4.0
 10
105.8732964145039
 20
-150.5858126793675
 30
0.0
 10
105.8732964145039
 20
-150.5858126793675
 30
0.0
 10
105.6703802904227
 20
-150.5858126793675
 30
0.0
 10
105.6703802904227
 20
-150.5858126793675
 30
0.0
 10
105.6979410543047
 20
-150.6450683217138
 30
0.0
 10
105.7527180725202
 20
-150.7170708173554
 30
0.0
 10
105.7802788364022
 20
-150.7463541289801
 30
0.0
 10
105.8078396002842
 20
-150.731884727942
 30
0.0
 10
105.9222167703945
 20
-150.6681504614649
 30
0.0
 10
106.0131672912051
 20
-150.5858126793675
 30
0.0
 10
106.0131672912051
 20
-150.5858126793675
 30
0.0
 10
105.8732964145039
 20
-150.5858126793675
 30
0.0
 10
105.8732964145039
 20
-150.5858126793675
 30
0.0
  0
HATCH
  5
A6
330
94
100
AcDbEntity
  8
_U+30EC_U+30A4_U+30E4_U+30FC 1
 62
   179
420
  2234388
100
AcDbHatch
 10
0.0
 20
0.0
 30
0.0
210
0.0
220
0.0
230
1.0
  2
SOLID
 70
     1
 71
     0
 91
        6
 92
        1
 93
        1
 72
     4
 94
        3
 73
     0
 74
     1
 95
      113
 96
      109
 40
0.0
 40
0.0
 40
0.0
 40
0.0
 40
1.0
 40
1.0
 40
1.0
 40
2.0
 40
2.0
 40
2.0
 40
3.0
 40
3.0
 40
3.0
 40
4.0
 40
4.0
 40
4.0
 40
5.0
 40
5.0
 40
5.0
 40
6.0
 40
6.0
 40
6.0
 40
7.0
 40
7.0
 40
7.0
 40
8.0
 40
8.0
 40
8.0
 40
9.0
 40
9.0
 40
9.0
 40
10.0
 40
10.0
 40
10.0
 40
11.0
 40
11.0
 40
11.0
 40
12.0
 40
12.0
 40
12.0
 40
13.0
 40
13.0
 40
13.0
 40
14.0
 40
14.0
 40
14.0
 40
15.0
 40
15.0
 40
15.0
 40
16.0
 40
16.0
 40
16.0
 40
17.0
 40
17.0
 40
17.0
 40
18.0
 40
18.0
 40
18.0
 40
19.0
 40
19.0
 40
19.0
 40
20.0
 40
20.0
 40
20.0
 40
21.0
 40
21.0
 40
21.0
 40
22.0
 40
22.0
 40
22.0
 40
23.0
 40
23.0
 40
23.0
 40
24.0
 40
24.0
 40
24.0
 40
25.0
 40
25.0
 40
25.0
 40
26.0
 40
26.0
 40
26.0
 40
27.0
 40
27.0
 40
27.0
 40
28.0
 40
28.0
 40
28.0
 40
29.0
 40
29.0
 40
29.0
 40
30.0
 40
30.0
 40
30.0
 40
31.0
 40
31.0
 40
31.0
 40
32.0
 40
32.0
 40
32.0
 40
33.0
 40
33.0
 40
33.0
 40
34.0
 40
34.0
 40
34.0
 40
35.0
 40
35.0
 40
35.0
 40
36.0
 40
36.0
 40
36.0
 40
36.0
 10
106.0806911627159
 20
-150.5878797366586
 10
106.0806911627159
 20
-150.5878797366586
 10
106.1802544222397
 20
-150.6874429961823
 10
106.1802544222397
 20
-150.6874429961823
 10
106.1909342182439
 20
-150.6977782826381
 10
106.2012695046997
 20
-150.7105251359335
 10
106.2012695046997
 20
-150.72533904652
 10
106.2012695046997
 20
-150.7274061038112
 10
106.2012695046997
 20
-150.7570339249844
 10
106.1633734543619
 20
-150.7570339249844
 10
106.1547607156488
 20
-150.7570339249844
 10
106.1144530984714
 20
-150.7528998104021
 10
106.1082519265979
 20
-150.7528998104021
 10
106.0679443094205
 20
-150.7845946888663
 10
106.0214355203696
 20
-150.8183566246218
 10
105.9222167703945
 20
-150.8755452096769
 10
106.0679443094205
 20
-150.9833766983653
 10
106.2267632112905
 20
-151.0405652834204
 10
106.4996147737223
 20
-151.0788058433067
 10
106.4996147737223
 20
-151.0788058433067
 10
106.3494086105654
 20
-151.2541612035059
 10
106.3494086105654
 20
-151.2541612035059
 10
106.0872368441379
 20
-151.1821587078642
 10
105.9304849995591
 20
-151.0936197538933
 10
105.854348389335
 20
-151.0405652834204
 10
105.7041422261781
 20
-150.9389349666056
 10
105.5604817444432
 20
-150.7759819501532
 10
105.4843451342192
 20
-150.6109618764098
 10
105.4164767531598
 20
-150.676763200178
 10
105.3424072002269
 20
-150.7294731611024
 10
105.2642035327117
 20
-150.7783935169929
 10
105.2642035327117
 20
-150.7783935169929
 10
105.2642035327117
 20
-151.0298854874162
 10
105.2642035327117
 20
-151.0298854874162
 10
105.4271565491641
 20
-151.0047362903738
 10
105.6131917053675
 20
-150.9602945586141
 10
105.6765814622961
 20
-150.9454806480275
 10
105.6765814622961
 20
-150.9454806480275
 10
105.646953641123
 20
-151.1146348363533
 10
105.646953641123
 20
-151.1146348363533
 10
105.6448865838318
 20
-151.1146348363533
 10
105.625938558663
 20
-151.1208360082267
 10
105.6238715013718
 20
-151.1208360082267
 10
105.4250894918729
 20
-151.159076568113
 10
105.1077961976814
 20
-151.2245333823328
 10
104.9107367359251
 20
-151.2607068849279
 10
104.9004014494693
 20
-151.2775878528056
 10
104.8769748001696
 20
-151.3092827312699
 10
104.8538926604185
 20
-151.3092827312699
 10
104.8263318965365
 20
-151.3092827312699
 10
104.8221977819542
 20
-151.290334706101
 10
104.8197862151145
 20
-151.2710421713836
 10
104.8197862151145
 20
-151.2710421713836
 10
104.7946370180722
 20
-151.0977538684756
 10
104.7946370180722
 20
-151.0977538684756
 10
104.868706571005
 20
-151.0891411297625
 10
104.9765380596934
 20
-151.076394276467
 10
105.0843695483817
 20
-151.055379194007
 10
105.0843695483817
 20
-151.055379194007
 10
105.0843695483817
 20
-150.8776122669681
 10
105.0843695483817
 20
-150.8776122669681
 10
104.9403645570982
 20
-150.9496147626098
 10
104.8452799217054
 20
-150.979242583783
 10
104.6802598479619
 20
-151.0088704049561
 10
104.6802598479619
 20
-151.0088704049561
 10
104.5596815059781
 20
-150.8397162166304
 10
104.5596815059781
 20
-150.8397162166304
 10
104.8769748001696
 20
-150.8121554527484
 10
105.0695556377951
 20
-150.7191378746466
 10
105.247322564834
 20
-150.5858126793675
 10
105.1012505162594
 20
-150.5858126793675
 10
104.8008381899456
 20
-150.5899467939497
 10
104.6041232377379
 20
-150.5964924753717
 10
104.6041232377379
 20
-150.5964924753717
 10
104.6041232377379
 20
-150.4187255483328
 10
104.6041232377379
 20
-150.4187255483328
 10
104.7584635154771
 20
-150.4249267202063
 10
105.0547417272085
 20
-150.4314724016282
 10
105.2387098261209
 20
-150.4314724016282
 10
105.2387098261209
 20
-150.4314724016282
 10
105.4502386889152
 20
-150.4314724016282
 10
105.4502386889152
 20
-150.4314724016282
 10
105.4502386889152
 20
-150.3360432566868
 10
105.4481716316241
 20
-150.2854003530537
 10
105.4419704597506
 20
-150.2388915640028
 10
105.4419704597506
 20
-150.2388915640028
 10
105.6576334371273
 20
-150.2557725318805
 10
105.6576334371273
 20
-150.2557725318805
 10
105.7062092834693
 20
-150.2599066464628
 10
105.7148220221824
 20
-150.2747205570494
 10
105.7148220221824
 20
-150.2895344676359
 10
105.7148220221824
 20
-150.3150281742268
 10
105.6979410543047
 20
-150.3232964033914
 10
105.646953641123
 20
-150.3487901099822
 10
105.6448865838318
 20
-150.3742838165731
 10
105.6448865838318
 20
-150.3804849884465
 10
105.6428195265407
 20
-150.4314724016282
 10
105.6428195265407
 20
-150.4314724016282
 10
105.8732964145039
 20
-150.4314724016282
 10
105.8732964145039
 20
-150.4314724016282
 10
106.0383164882474
 20
-150.4314724016282
 10
106.3304605853966
 20
-150.4249267202063
 10
106.5102945697266
 20
-150.4187255483328
 10
106.5102945697266
 20
-150.4187255483328
 10
106.5102945697266
 20
-150.5964924753717
 10
106.5102945697266
 20
-150.5964924753717
 10
106.3811034890297
 20
-150.5920138512409
 10
106.3580213492786
 20
-150.5920138512409
 10
106.0806911627159
 20
-150.5878797366586
 97
        0
 97
        0
 92
        1
 93
        1
 72
     4
 94
        3
 73
     0
 74
     1
 95
       23
 96
       19
 40
0.0
 40
0.0
 40
0.0
 40
0.0
 40
1.0
 40
1.0
 40
1.0
 40
2.0
 40
2.0
 40
2.0
 40
3.0
 40
3.0
 40
3.0
 40
4.0
 40
4.0
 40
4.0
 40
5.0
 40
5.0
 40
5.0
 40
6.0
 40
6.0
 40
6.0
 40
6.0
 10
104.7967040753633
 20
-150.2368245067116
 10
104.7798231074856
 20
-150.2767876143405
 10
104.7732774260636
 20
-150.2936685822183
 10
104.7522623436036
 20
-150.2936685822183
 10
104.737448433017
 20
-150.2936685822183
 10
104.7267686370128
 20
-150.2767876143405
 10
104.7205674651393
 20
-150.2640407610451
 10
104.7205674651393
 20
-150.2640407610451
 10
104.6210042056156
 20
-150.0990206873016
 10
104.6210042056156
 20
-150.0990206873016
 10
104.7226345224305
 20
-150.0673258088374
 10
104.8728406855873
 20
-150.0125487906219
 10
105.0716226950863
 20
-149.8495957741696
 10
105.0716226950863
 20
-149.8495957741696
 10
105.1288112801414
 20
-150.0228840770776
 10
105.1288112801414
 20
-150.0228840770776
 10
105.0357937020397
 20
-150.1055663687236
 10
104.9469102385202
 20
-150.1627549537788
 10
104.7967040753633
 20
-150.2368245067116
 97
        0
 97
        0
 92
        1
 93
        1
 72
     4
 94
        3
 73
     0
 74
     1
 95
       17
 96
       13
 40
0.0
 40
0.0
 40
0.0
 40
0.0
 40
1.0
 40
1.0
 40
1.0
 40
2.0
 40
2.0
 40
2.0
 40
3.0
 40
3.0
 40
3.0
 40
4.0
 40
4.0
 40
4.0
 40
4.0
 10
104.9489772958114
 20
-149.7713921066544
 10
104.9193494746382
 20
-149.731084489477
 10
104.8514810935788
 20
-149.6339327967929
 10
104.6695800519576
 20
-149.5236897412649
 10
104.6695800519576
 20
-149.5236897412649
 10
104.7967040753633
 20
-149.3903645459858
 10
104.7967040753633
 20
-149.3903645459858
 10
104.9827392315668
 20
-149.4919948628006
 10
105.039927816622
 20
-149.5808783263201
 10
105.067488580504
 20
-149.6232530007887
 10
105.067488580504
 20
-149.6232530007887
 10
104.9489772958114
 20
-149.7713921066544
 10
104.9489772958114
 20
-149.7713921066544
 97
        0
 97
        0
 92
        1
 93
        1
 72
     4
 94
        3
 73
     0
 74
     1
 95
       38
 96
       34
 40
0.0
 40
0.0
 40
0.0
 40
0.0
 40
1.0
 40
1.0
 40
1.0
 40
2.0
 40
2.0
 40
2.0
 40
3.0
 40
3.0
 40
3.0
 40
4.0
 40
4.0
 40
4.0
 40
5.0
 40
5.0
 40
5.0
 40
6.0
 40
6.0
 40
6.0
 40
7.0
 40
7.0
 40
7.0
 40
8.0
 40
8.0
 40
8.0
 40
9.0
 40
9.0
 40
9.0
 40
10.0
 40
10.0
 40
10.0
 40
11.0
 40
11.0
 40
11.0
 40
11.0
 10
105.3169134936361
 20
-149.4665011562098
 10
105.3148464363449
 20
-149.5133544548092
 10
105.3127793790538
 20
-149.6294541726621
 10
105.3127793790538
 20
-149.6738959044218
 10
105.3127793790538
 20
-149.6738959044218
 10
105.3127793790538
 20
-150.0208170197865
 10
105.3127793790538
 20
-150.0208170197865
 10
105.3127793790538
 20
-150.1076334260148
 10
105.3148464363449
 20
-150.2492268504585
 10
105.3255262323492
 20
-150.3698051924423
 10
105.3255262323492
 20
-150.3698051924423
 10
105.1350124520149
 20
-150.3698051924423
 10
105.1350124520149
 20
-150.3698051924423
 10
105.1394910761457
 20
-150.3064154355137
 10
105.143625190728
 20
-150.2537054745894
 10
105.1456922480191
 20
-150.1985839468254
 10
105.1477593053103
 20
-150.0759385475505
 10
105.1498263626014
 20
-150.0611246369639
 10
105.1498263626014
 20
-150.0166829052042
 10
105.1498263626014
 20
-150.0166829052042
 10
105.1498263626014
 20
-149.6952554964303
 10
105.1498263626014
 20
-149.6952554964303
 10
105.1498263626014
 20
-149.6401339686664
 10
105.137079509306
 20
-149.40104434199
 10
105.1350124520149
 20
-149.3504014383568
 10
105.1350124520149
 20
-149.3504014383568
 10
105.3362060283535
 20
-149.3779622022388
 10
105.3362060283535
 20
-149.3779622022388
 10
105.3572211108135
 20
-149.38002925953
 10
105.3889159892778
 20
-149.3841633741123
 10
105.3889159892778
 20
-149.4096570807031
 10
105.3889159892778
 20
-149.4368733350366
 10
105.3382730856446
 20
-149.4582329270452
 10
105.3169134936361
 20
-149.4665011562098
 97
        0
 97
        0
 92
        1
 93
        1
 72
     4
 94
        3
 73
     0
 74
     1
 95
       83
 96
       79
 40
0.0
 40
0.0
 40
0.0
 40
0.0
 40
1.0
 40
1.0
 40
1.0
 40
2.0
 40
2.0
 40
2.0
 40
3.0
 40
3.0
 40
3.0
 40
4.0
 40
4.0
 40
4.0
 40
5.0
 40
5.0
 40
5.0
 40
6.0
 40
6.0
 40
6.0
 40
7.0
 40
7.0
 40
7.0
 40
8.0
 40
8.0
 40
8.0
 40
9.0
 40
9.0
 40
9.0
 40
10.0
 40
10.0
 40
10.0
 40
11.0
 40
11.0
 40
11.0
 40
12.0
 40
12.0
 40
12.0
 40
13.0
 40
13.0
 40
13.0
 40
14.0
 40
14.0
 40
14.0
 40
15.0
 40
15.0
 40
15.0
 40
16.0
 40
16.0
 40
16.0
 40
17.0
 40
17.0
 40
17.0
 40
18.0
 40
18.0
 40
18.0
 40
19.0
 40
19.0
 40
19.0
 40
20.0
 40
20.0
 40
20.0
 40
21.0
 40
21.0
 40
21.0
 40
22.0
 40
22.0
 40
22.0
 40
23.0
 40
23.0
 40
23.0
 40
24.0
 40
24.0
 40
24.0
 40
25.0
 40
25.0
 40
25.0
 40
26.0
 40
26.0
 40
26.0
 40
26.0
 10
106.1189317226022
 20
-149.7882730745321
 10
106.1189317226022
 20
-149.7882730745321
 10
106.0214355203696
 20
-149.7882730745321
 10
106.0214355203696
 20
-149.7882730745321
 10
106.0214355203696
 20
-149.7882730745321
 10
106.0214355203696
 20
-150.035630930373
 10
106.0214355203696
 20
-150.035630930373
 10
106.0214355203696
 20
-150.035630930373
 10
106.1041178120156
 20
-150.035630930373
 10
106.1041178120156
 20
-150.035630930373
 10
106.1695746262354
 20
-150.035630930373
 10
106.309100993388
 20
-150.0314968157907
 10
106.4086642529117
 20
-150.0228840770776
 10
106.4086642529117
 20
-150.0228840770776
 10
106.4086642529117
 20
-150.2027180614077
 10
106.4086642529117
 20
-150.2027180614077
 10
106.31564667481
 20
-150.1944498322431
 10
106.1654405116531
 20
-150.1903157176608
 10
106.1041178120156
 20
-150.1903157176608
 10
106.1041178120156
 20
-150.1903157176608
 10
105.799226861571
 20
-150.1903157176608
 10
105.799226861571
 20
-150.1903157176608
 10
105.7465169006467
 20
-150.1903157176608
 10
105.6004448520721
 20
-150.1944498322431
 10
105.4946804206749
 20
-150.2027180614077
 10
105.4946804206749
 20
-150.2027180614077
 10
105.4946804206749
 20
-150.0228840770776
 10
105.4946804206749
 20
-150.0228840770776
 10
105.5942436801987
 20
-150.0314968157907
 10
105.7337700473513
 20
-150.035630930373
 10
105.799226861571
 20
-150.035630930373
 10
105.799226861571
 20
-150.035630930373
 10
105.8436685933307
 20
-150.035630930373
 10
105.8436685933307
 20
-150.035630930373
 10
105.8436685933307
 20
-150.035630930373
 10
105.8436685933307
 20
-149.7882730745321
 10
105.8436685933307
 20
-149.7882730745321
 10
105.8436685933307
 20
-149.7882730745321
 10
105.7699435499464
 20
-149.7882730745321
 10
105.7699435499464
 20
-149.7882730745321
 10
105.7082763407604
 20
-149.7882730745321
 10
105.5411892097258
 20
-149.7924071891144
 10
105.4206108677421
 20
-149.8010199278275
 10
105.4206108677421
 20
-149.8010199278275
 10
105.4206108677421
 20
-149.6232530007887
 10
105.4206108677421
 20
-149.6232530007887
 10
105.5349880378524
 20
-149.6294541726621
 10
105.6934624301739
 20
-149.6339327967929
 10
105.7699435499464
 20
-149.6339327967929
 10
105.7699435499464
 20
-149.6339327967929
 10
105.8416015360396
 20
-149.6339327967929
 10
105.8416015360396
 20
-149.6339327967929
 10
105.8374674214573
 20
-149.4813150667964
 10
105.8354003641661
 20
-149.4475531310409
 10
105.8288546827442
 20
-149.3545355529392
 10
105.8288546827442
 20
-149.3545355529392
 10
106.040728055087
 20
-149.3779622022388
 10
106.040728055087
 20
-149.3779622022388
 10
106.0658772521294
 20
-149.38002925953
 10
106.0893039014291
 20
-149.3841633741123
 10
106.0893039014291
 20
-149.4072455138635
 10
106.0893039014291
 20
-149.4392849018763
 10
106.0448621696693
 20
-149.456165869754
 10
106.0214355203696
 20
-149.4644340989186
 10
106.0214355203696
 20
-149.4644340989186
 10
106.0214355203696
 20
-149.6339327967929
 10
106.0214355203696
 20
-149.6339327967929
 10
106.0214355203696
 20
-149.6339327967929
 10
106.1189317226022
 20
-149.6339327967929
 10
106.1189317226022
 20
-149.6339327967929
 10
106.1950683328262
 20
-149.6339327967929
 10
106.3535427251477
 20
-149.6294541726621
 10
106.4699869525492
 20
-149.6232530007887
 10
106.4699869525492
 20
-149.6232530007887
 10
106.4699869525492
 20
-149.8010199278275
 10
106.4699869525492
 20
-149.8010199278275
 10
106.3621554638609
 20
-149.7944742464055
 10
106.1885226514043
 20
-149.7882730745321
 10
106.1189317226022
 20
-149.7882730745321
 97
        0
 97
        0
 92
        1
 93
        1
 72
     4
 94
        3
 73
     0
 74
     1
 95
       17
 96
       13
 40
0.0
 40
0.0
 40
0.0
 40
0.0
 40
1.0
 40
1.0
 40
1.0
 40
2.0
 40
2.0
 40
2.0
 40
3.0
 40
3.0
 40
3.0
 40
4.0
 40
4.0
 40
4.0
 40
4.0
 10
105.8732964145039
 20
-150.5858126793675
 10
105.8732964145039
 20
-150.5858126793675
 10
105.6703802904227
 20
-150.5858126793675
 10
105.6703802904227
 20
-150.5858126793675
 10
105.6979410543047
 20
-150.6450683217138
 10
105.7527180725202
 20
-150.7170708173554
 10
105.7802788364022
 20
-150.7463541289801
 10
105.8078396002842
 20
-150.731884727942
 10
105.9222167703945
 20
-150.6681504614649
 10
106.0131672912051
 20
-150.5858126793675
 10
106.0131672912051
 20
-150.5858126793675
 10
105.8732964145039
 20
-150.5858126793675
 10
105.8732964145039
 20
-150.5858126793675
 97
        0
 97
        0
 75
     2
 76
     1
 98
        0
  0
SPLINE
  5
A7
330
94
100
AcDbEntity
  8
_U+30EC_U+30A4_U+30E4_U+30FC 1
370
     0
100
AcDbSpline
210
0.0
220
0.0
230
1.0
 70
    11
 71
     3
 72
    77
 73
    73
 74
     0
 42
0.0000000001
 43
0.0000000001
 12
1.0
 22
0.0
 32
0.0
 13
1.0
 23
0.0
 33
0.0
 40
0.0
 40
0.0
 40
0.0
 40
0.0
 40
1.0
 40
1.0
 40
1.0
 40
2.0
 40
2.0
 40
2.0
 40
3.0
 40
3.0
 40
3.0
 40
4.0
 40
4.0
 40
4.0
 40
5.0
 40
5.0
 40
5.0
 40
6.0
 40
6.0
 40
6.0
 40
7.0
 40
7.0
 40
7.0
 40
8.0
 40
8.0
 40
8.0
 40
9.0
 40
9.0
 40
9.0
 40
10.0
 40
10.0
 40
10.0
 40
11.0
 40
11.0
 40
11.0
 40
12.0
 40
12.0
 40
12.0
 40
13.0
 40
13.0
 40
13.0
 40
14.0
 40
14.0
 40
14.0
 40
15.0
 40
15.0
 40
15.0
 40
16.0
 40
16.0
 40
16.0
 40
17.0
 40
17.0
 40
17.0
 40
18.0
 40
18.0
 40
18.0
 40
19.0
 40
19.0
 40
19.0
 40
20.0
 40
20.0
 40
20.0
 40
21.0
 40
21.0
 40
21.0
 40
22.0
 40
22.0
 40
22.0
 40
23.0
 40
23.0
 40
23.0
 40
24.0
 40
24.0
 40
24.0
 40
24.0
 10
108.3644449598881
 20
-151.2162651531682
 30
0.0
 10
108.3179361708372
 20
-151.2414143502105
 30
0.0
 10
108.1932237142711
 20
-151.2541612035059
 30
0.0
 10
108.1146755372074
 20
-151.2541612035059
 30
0.0
 10
108.1022731934605
 20
-151.2541612035059
 30
0.0
 10
108.0767794868697
 20
-151.2541612035059
 30
0.0
 10
108.0430175511142
 20
-151.2500270889236
 30
0.0
 10
108.0430175511142
 20
-151.2500270889236
 30
0.0
 10
107.9455213488817
 20
-151.0236843155427
 30
0.0
 10
107.9455213488817
 20
-151.0236843155427
 30
0.0
 10
107.9751491700548
 20
-151.0298854874162
 30
0.0
 10
108.03233775511
 20
-151.0384982261293
 30
0.0
 10
108.1487819825114
 20
-151.0384982261293
 30
0.0
 10
108.2269856500266
 20
-151.0384982261293
 30
0.0
 10
108.2290527073177
 20
-150.9961235516607
 30
0.0
 10
108.2290527073177
 20
-150.9389349666056
 30
0.0
 10
108.2290527073177
 20
-150.9389349666056
 30
0.0
 10
108.2290527073177
 20
-150.5899467939497
 30
0.0
 10
108.2290527073177
 20
-150.5899467939497
 30
0.0
 10
108.2290527073177
 20
-150.5899467939497
 30
0.0
 10
107.7698214791339
 20
-150.5899467939497
 30
0.0
 10
107.7698214791339
 20
-150.5899467939497
 30
0.0
 10
107.7722330459736
 20
-150.7274061038112
 30
0.0
 10
107.7743001032648
 20
-150.9261881133101
 30
0.0
 10
107.7805012751382
 20
-151.0595133085893
 30
0.0
 10
107.7825683324294
 20
-151.0870740724713
 30
0.0
 10
107.7825683324294
 20
-151.131515804231
 30
0.0
 10
107.7953151857248
 20
-151.1928385038685
 30
0.0
 10
107.7953151857248
 20
-151.1928385038685
 30
0.0
 10
107.5541585017573
 20
-151.1928385038685
 30
0.0
 10
107.5541585017573
 20
-151.1928385038685
 30
0.0
 10
107.5796522083482
 20
-151.0681260473024
 30
0.0
 10
107.5796522083482
 20
-150.7274061038112
 30
0.0
 10
107.5796522083482
 20
-150.5899467939497
 30
0.0
 10
107.5796522083482
 20
-150.5899467939497
 30
0.0
 10
107.1373019480421
 20
-150.5899467939497
 30
0.0
 10
107.1373019480421
 20
-150.5899467939497
 30
0.0
 10
107.1142198082909
 20
-150.7973415421618
 30
0.0
 10
107.0487629940712
 20
-151.0660589900113
 30
0.0
 10
106.8517035323149
 20
-151.2500270889236
 30
0.0
 10
106.8517035323149
 20
-151.2500270889236
 30
0.0
 10
106.6636013188202
 20
-151.1273816896487
 30
0.0
 10
106.6636013188202
 20
-151.1273816896487
 30
0.0
 10
106.9175048560831
 20
-150.9072400881413
 30
0.0
 10
106.9491997345474
 20
-150.5751328833632
 30
0.0
 10
106.9491997345474
 20
-150.2430256785851
 30
0.0
 10
106.9491997345474
 20
-150.2430256785851
 30
0.0
 10
106.9491997345474
 20
-149.807221099701
 30
0.0
 10
106.9491997345474
 20
-149.807221099701
 30
0.0
 10
106.9491997345474
 20
-149.7713921066544
 30
0.0
 10
106.9471326772563
 20
-149.5385036518515
 30
0.0
 10
106.9385199385432
 20
-149.4368733350366
 30
0.0
 10
107.0783908152443
 20
-149.4475531310409
 30
0.0
 10
107.3195474992118
 20
-149.4475531310409
 30
0.0
 10
107.4632079809467
 20
-149.4475531310409
 30
0.0
 10
107.4632079809467
 20
-149.4475531310409
 30
0.0
 10
107.9224392091305
 20
-149.4475531310409
 30
0.0
 10
107.9224392091305
 20
-149.4475531310409
 30
0.0
 10
107.9372531197171
 20
-149.4475531310409
 30
0.0
 10
108.2862412923729
 20
-149.4475531310409
 30
0.0
 10
108.4447156846944
 20
-149.4368733350366
 30
0.0
 10
108.4426486274032
 20
-149.4899278055095
 30
0.0
 10
108.4364474555298
 20
-149.6508137646706
 30
0.0
 10
108.4364474555298
 20
-149.7014566683038
 30
0.0
 10
108.4364474555298
 20
-149.7014566683038
 30
0.0
 10
108.4364474555298
 20
-150.3084824928048
 30
0.0
 10
108.4364474555298
 20
-150.3084824928048
 30
0.0
 10
108.4364474555298
 20
-150.3277750275222
 30
0.0
 10
108.4467827419855
 20
-150.8989718589767
 30
0.0
 10
108.4467827419855
 20
-151.0109374622473
 30
0.0
 10
108.4467827419855
 20
-151.0681260473024
 30
0.0
 10
108.4467827419855
 20
-151.1697563641173
 30
0.0
 10
108.3644449598881
 20
-151.2162651531682
 30
0.0
  0
POLYLINE
  5
A8
330
94
100
AcDbEntity
  8
_U+30EC_U+30A4_U+30E4_U+30FC 1
370
     0
100
AcDb2dPolyline
 66
     1
 10
0.0
 20
0.0
 30
0.0
  0
VERTEX
  5
A9
330
A8
100
AcDbEntity
  8
_U+30EC_U+30A4_U+30E4_U+30FC 1
370
     0
100
AcDbVertex
100
AcDb2dVertex
 10
107.5796522083482
 20
-149.6294541726621
 30
0.0
  0
VERTEX
  5
AA
330
A8
100
AcDbEntity
  8
_U+30EC_U+30A4_U+30E4_U+30FC 1
370
     0
100
AcDbVertex
100
AcDb2dVertex
 10
107.1417805721729
 20
-149.6294541726621
 30
0.0
  0
VERTEX
  5
AB
330
A8
100
AcDbEntity
  8
_U+30EC_U+30A4_U+30E4_U+30FC 1
370
     0
100
AcDbVertex
100
AcDb2dVertex
 10
107.1417805721729
 20
-149.9340006135582
 30
0.0
  0
VERTEX
  5
AC
330
A8
100
AcDbEntity
  8
_U+30EC_U+30A4_U+30E4_U+30FC 1
370
     0
100
AcDbVertex
100
AcDb2dVertex
 10
107.5796522083482
 20
-149.9340006135582
 30
0.0
  0
VERTEX
  5
AD
330
A8
100
AcDbEntity
  8
_U+30EC_U+30A4_U+30E4_U+30FC 1
370
     0
100
AcDbVertex
100
AcDb2dVertex
 10
107.5796522083482
 20
-149.6294541726621
 30
0.0
  0
SEQEND
  5
AE
330
A8
100
AcDbEntity
  8
_U+30EC_U+30A4_U+30E4_U+30FC 1
370
     0
  0
POLYLINE
  5
AF
330
94
100
AcDbEntity
  8
_U+30EC_U+30A4_U+30E4_U+30FC 1
370
     0
100
AcDb2dPolyline
 66
     1
 10
0.0
 20
0.0
 30
0.0
  0
VERTEX
  5
B0
330
AF
100
AcDbEntity
  8
_U+30EC_U+30A4_U+30E4_U+30FC 1
370
     0
100
AcDbVertex
100
AcDb2dVertex
 10
107.5796522083482
 20
-150.1014322541413
 30
0.0
  0
VERTEX
  5
B1
330
AF
100
AcDbEntity
  8
_U+30EC_U+30A4_U+30E4_U+30FC 1
370
     0
100
AcDbVertex
100
AcDb2dVertex
 10
107.1417805721729
 20
-150.1014322541413
 30
0.0
  0
VERTEX
  5
B2
330
AF
100
AcDbEntity
  8
_U+30EC_U+30A4_U+30E4_U+30FC 1
370
     0
100
AcDbVertex
100
AcDb2dVertex
 10
107.1417805721729
 20
-150.4101128096197
 30
0.0
  0
VERTEX
  5
B3
330
AF
100
AcDbEntity
  8
_U+30EC_U+30A4_U+30E4_U+30FC 1
370
     0
100
AcDbVertex
100
AcDb2dVertex
 10
107.5796522083482
 20
-150.4101128096197
 30
0.0
  0
VERTEX
  5
B4
330
AF
100
AcDbEntity
  8
_U+30EC_U+30A4_U+30E4_U+30FC 1
370
     0
100
AcDbVertex
100
AcDb2dVertex
 10
107.5796522083482
 20
-150.1014322541413
 30
0.0
  0
SEQEND
  5
B5
330
AF
100
AcDbEntity
  8
_U+30EC_U+30A4_U+30E4_U+30FC 1
370
     0
  0
POLYLINE
  5
B6
330
94
100
AcDbEntity
  8
_U+30EC_U+30A4_U+30E4_U+30FC 1
370
     0
100
AcDb2dPolyline
 66
     1
 10
0.0
 20
0.0
 30
0.0
  0
VERTEX
  5
B7
330
B6
100
AcDbEntity
  8
_U+30EC_U+30A4_U+30E4_U+30FC 1
370
     0
100
AcDbVertex
100
AcDb2dVertex
 10
108.2290527073177
 20
-149.6294541726621
 30
0.0
  0
VERTEX
  5
B8
330
B6
100
AcDbEntity
  8
_U+30EC_U+30A4_U+30E4_U+30FC 1
370
     0
100
AcDbVertex
100
AcDb2dVertex
 10
107.7698214791339
 20
-149.6294541726621
 30
0.0
  0
VERTEX
  5
B9
330
B6
100
AcDbEntity
  8
_U+30EC_U+30A4_U+30E4_U+30FC 1
370
     0
100
AcDbVertex
100
AcDb2dVertex
 10
107.7698214791339
 20
-149.9340006135582
 30
0.0
  0
VERTEX
  5
BA
330
B6
100
AcDbEntity
  8
_U+30EC_U+30A4_U+30E4_U+30FC 1
370
     0
100
AcDbVertex
100
AcDb2dVertex
 10
108.2290527073177
 20
-149.9340006135582
 30
0.0
  0
VERTEX
  5
BB
330
B6
100
AcDbEntity
  8
_U+30EC_U+30A4_U+30E4_U+30FC 1
370
     0
100
AcDbVertex
100
AcDb2dVertex
 10
108.2290527073177
 20
-149.6294541726621
 30
0.0
  0
SEQEND
  5
BC
330
B6
100
AcDbEntity
  8
_U+30EC_U+30A4_U+30E4_U+30FC 1
370
     0
  0
POLYLINE
  5
BD
330
94
100
AcDbEntity
  8
_U+30EC_U+30A4_U+30E4_U+30FC 1
370
     0
100
AcDb2dPolyline
 66
     1
 10
0.0
 20
0.0
 30
0.0
  0
VERTEX
  5
BE
330
BD
100
AcDbEntity
  8
_U+30EC_U+30A4_U+30E4_U+30FC 1
370
     0
100
AcDbVertex
100
AcDb2dVertex
 10
108.2290527073177
 20
-150.1014322541413
 30
0.0
  0
VERTEX
  5
BF
330
BD
100
AcDbEntity
  8
_U+30EC_U+30A4_U+30E4_U+30FC 1
370
     0
100
AcDbVertex
100
AcDb2dVertex
 10
107.7698214791339
 20
-150.1014322541413
 30
0.0
  0
VERTEX
  5
C0
330
BD
100
AcDbEntity
  8
_U+30EC_U+30A4_U+30E4_U+30FC 1
370
     0
100
AcDbVertex
100
AcDb2dVertex
 10
107.7698214791339
 20
-150.4101128096197
 30
0.0
  0
VERTEX
  5
C1
330
BD
100
AcDbEntity
  8
_U+30EC_U+30A4_U+30E4_U+30FC 1
370
     0
100
AcDbVertex
100
AcDb2dVertex
 10
108.2290527073177
 20
-150.4101128096197
 30
0.0
  0
VERTEX
  5
C2
330
BD
100
AcDbEntity
  8
_U+30EC_U+30A4_U+30E4_U+30FC 1
370
     0
100
AcDbVertex
100
AcDb2dVertex
 10
108.2290527073177
 20
-150.1014322541413
 30
0.0
  0
SEQEND
  5
C3
330
BD
100
AcDbEntity
  8
_U+30EC_U+30A4_U+30E4_U+30FC 1
370
     0
  0
HATCH
  5
C4
330
94
100
AcDbEntity
  8
_U+30EC_U+30A4_U+30E4_U+30FC 1
 62
   179
420
  2234388
100
AcDbHatch
 10
0.0
 20
0.0
 30
0.0
210
0.0
220
0.0
230
1.0
  2
SOLID
 70
     1
 71
     0
 91
        5
 92
        1
 93
        1
 72
     4
 94
        3
 73
     0
 74
     1
 95
       77
 96
       73
 40
0.0
 40
0.0
 40
0.0
 40
0.0
 40
1.0
 40
1.0
 40
1.0
 40
2.0
 40
2.0
 40
2.0
 40
3.0
 40
3.0
 40
3.0
 40
4.0
 40
4.0
 40
4.0
 40
5.0
 40
5.0
 40
5.0
 40
6.0
 40
6.0
 40
6.0
 40
7.0
 40
7.0
 40
7.0
 40
8.0
 40
8.0
 40
8.0
 40
9.0
 40
9.0
 40
9.0
 40
10.0
 40
10.0
 40
10.0
 40
11.0
 40
11.0
 40
11.0
 40
12.0
 40
12.0
 40
12.0
 40
13.0
 40
13.0
 40
13.0
 40
14.0
 40
14.0
 40
14.0
 40
15.0
 40
15.0
 40
15.0
 40
16.0
 40
16.0
 40
16.0
 40
17.0
 40
17.0
 40
17.0
 40
18.0
 40
18.0
 40
18.0
 40
19.0
 40
19.0
 40
19.0
 40
20.0
 40
20.0
 40
20.0
 40
21.0
 40
21.0
 40
21.0
 40
22.0
 40
22.0
 40
22.0
 40
23.0
 40
23.0
 40
23.0
 40
24.0
 40
24.0
 40
24.0
 40
24.0
 10
108.3644449598881
 20
-151.2162651531682
 10
108.3179361708372
 20
-151.2414143502105
 10
108.1932237142711
 20
-151.2541612035059
 10
108.1146755372074
 20
-151.2541612035059
 10
108.1022731934605
 20
-151.2541612035059
 10
108.0767794868697
 20
-151.2541612035059
 10
108.0430175511142
 20
-151.2500270889236
 10
108.0430175511142
 20
-151.2500270889236
 10
107.9455213488817
 20
-151.0236843155427
 10
107.9455213488817
 20
-151.0236843155427
 10
107.9751491700548
 20
-151.0298854874162
 10
108.03233775511
 20
-151.0384982261293
 10
108.1487819825114
 20
-151.0384982261293
 10
108.2269856500266
 20
-151.0384982261293
 10
108.2290527073177
 20
-150.9961235516607
 10
108.2290527073177
 20
-150.9389349666056
 10
108.2290527073177
 20
-150.9389349666056
 10
108.2290527073177
 20
-150.5899467939497
 10
108.2290527073177
 20
-150.5899467939497
 10
108.2290527073177
 20
-150.5899467939497
 10
107.7698214791339
 20
-150.5899467939497
 10
107.7698214791339
 20
-150.5899467939497
 10
107.7722330459736
 20
-150.7274061038112
 10
107.7743001032648
 20
-150.9261881133101
 10
107.7805012751382
 20
-151.0595133085893
 10
107.7825683324294
 20
-151.0870740724713
 10
107.7825683324294
 20
-151.131515804231
 10
107.7953151857248
 20
-151.1928385038685
 10
107.7953151857248
 20
-151.1928385038685
 10
107.5541585017573
 20
-151.1928385038685
 10
107.5541585017573
 20
-151.1928385038685
 10
107.5796522083482
 20
-151.0681260473024
 10
107.5796522083482
 20
-150.7274061038112
 10
107.5796522083482
 20
-150.5899467939497
 10
107.5796522083482
 20
-150.5899467939497
 10
107.1373019480421
 20
-150.5899467939497
 10
107.1373019480421
 20
-150.5899467939497
 10
107.1142198082909
 20
-150.7973415421618
 10
107.0487629940712
 20
-151.0660589900113
 10
106.8517035323149
 20
-151.2500270889236
 10
106.8517035323149
 20
-151.2500270889236
 10
106.6636013188202
 20
-151.1273816896487
 10
106.6636013188202
 20
-151.1273816896487
 10
106.9175048560831
 20
-150.9072400881413
 10
106.9491997345474
 20
-150.5751328833632
 10
106.9491997345474
 20
-150.2430256785851
 10
106.9491997345474
 20
-150.2430256785851
 10
106.9491997345474
 20
-149.807221099701
 10
106.9491997345474
 20
-149.807221099701
 10
106.9491997345474
 20
-149.7713921066544
 10
106.9471326772563
 20
-149.5385036518515
 10
106.9385199385432
 20
-149.4368733350366
 10
107.0783908152443
 20
-149.4475531310409
 10
107.3195474992118
 20
-149.4475531310409
 10
107.4632079809467
 20
-149.4475531310409
 10
107.4632079809467
 20
-149.4475531310409
 10
107.9224392091305
 20
-149.4475531310409
 10
107.9224392091305
 20
-149.4475531310409
 10
107.9372531197171
 20
-149.4475531310409
 10
108.2862412923729
 20
-149.4475531310409
 10
108.4447156846944
 20
-149.4368733350366
 10
108.4426486274032
 20
-149.4899278055095
 10
108.4364474555298
 20
-149.6508137646706
 10
108.4364474555298
 20
-149.7014566683038
 10
108.4364474555298
 20
-149.7014566683038
 10
108.4364474555298
 20
-150.3084824928048
 10
108.4364474555298
 20
-150.3084824928048
 10
108.4364474555298
 20
-150.3277750275222
 10
108.4467827419855
 20
-150.8989718589767
 10
108.4467827419855
 20
-151.0109374622473
 10
108.4467827419855
 20
-151.0681260473024
 10
108.4467827419855
 20
-151.1697563641173
 10
108.3644449598881
 20
-151.2162651531682
 97
        0
 97
        0
 92
        1
 93
        4
 72
     1
 10
107.5796522083482
 20
-149.6294541726621
 11
107.1417805721729
 21
-149.6294541726621
 72
     1
 10
107.1417805721729
 20
-149.6294541726621
 11
107.1417805721729
 21
-149.9340006135582
 72
     1
 10
107.1417805721729
 20
-149.9340006135582
 11
107.5796522083482
 21
-149.9340006135582
 72
     1
 10
107.5796522083482
 20
-149.9340006135582
 11
107.5796522083482
 21
-149.6294541726621
 97
        0
 92
        1
 93
        4
 72
     1
 10
107.5796522083482
 20
-150.1014322541413
 11
107.1417805721729
 21
-150.1014322541413
 72
     1
 10
107.1417805721729
 20
-150.1014322541413
 11
107.1417805721729
 21
-150.4101128096197
 72
     1
 10
107.1417805721729
 20
-150.4101128096197
 11
107.5796522083482
 21
-150.4101128096197
 72
     1
 10
107.5796522083482
 20
-150.4101128096197
 11
107.5796522083482
 21
-150.1014322541413
 97
        0
 92
        1
 93
        4
 72
     1
 10
108.2290527073177
 20
-149.6294541726621
 11
107.7698214791339
 21
-149.6294541726621
 72
     1
 10
107.7698214791339
 20
-149.6294541726621
 11
107.7698214791339
 21
-149.9340006135582
 72
     1
 10
107.7698214791339
 20
-149.9340006135582
 11
108.2290527073177
 21
-149.9340006135582
 72
     1
 10
108.2290527073177
 20
-149.9340006135582
 11
108.2290527073177
 21
-149.6294541726621
 97
        0
 92
        1
 93
        4
 72
     1
 10
108.2290527073177
 20
-150.1014322541413
 11
107.7698214791339
 21
-150.1014322541413
 72
     1
 10
107.7698214791339
 20
-150.1014322541413
 11
107.7698214791339
 21
-150.4101128096197
 72
     1
 10
107.7698214791339
 20
-150.4101128096197
 11
108.2290527073177
 21
-150.4101128096197
 72
     1
 10
108.2290527073177
 20
-150.4101128096197
 11
108.2290527073177
 21
-150.1014322541413
 97
        0
 75
     2
 76
     1
 98
        0
  0
SPLINE
  5
C5
330
94
100
AcDbEntity
  8
_U+30EC_U+30A4_U+30E4_U+30FC 1
370
     0
100
AcDbSpline
210
0.0
220
0.0
230
1.0
 70
    11
 71
     3
 72
    44
 73
    40
 74
     0
 42
0.0000000001
 43
0.0000000001
 12
1.0
 22
0.0
 32
0.0
 13
1.0
 23
0.0
 33
0.0
 40
0.0
 40
0.0
 40
0.0
 40
0.0
 40
1.0
 40
1.0
 40
1.0
 40
2.0
 40
2.0
 40
2.0
 40
3.0
 40
3.0
 40
3.0
 40
4.0
 40
4.0
 40
4.0
 40
5.0
 40
5.0
 40
5.0
 40
6.0
 40
6.0
 40
6.0
 40
7.0
 40
7.0
 40
7.0
 40
8.0
 40
8.0
 40
8.0
 40
9.0
 40
9.0
 40
9.0
 40
10.0
 40
10.0
 40
10.0
 40
11.0
 40
11.0
 40
11.0
 40
12.0
 40
12.0
 40
12.0
 40
13.0
 40
13.0
 40
13.0
 40
13.0
 10
110.2420219993492
 20
-149.966040001571
 30
0.0
 10
110.1300563960786
 20
-150.3339761993957
 30
0.0
 10
110.0794134924454
 20
-150.4927951012657
 30
0.0
 10
109.8826985402377
 20
-150.7422200143978
 30
0.0
 10
109.6983859317768
 20
-150.9730414119095
 30
0.0
 10
109.4617078719401
 20
-151.159076568113
 30
0.0
 10
109.1823106280864
 20
-151.2520941462148
 30
0.0
 10
109.1823106280864
 20
-151.2520941462148
 30
0.0
 10
108.9897297904609
 20
-151.0722601618847
 30
0.0
 10
108.9897297904609
 20
-151.0722601618847
 30
0.0
 10
109.6308620602659
 20
-150.9199869414367
 30
0.0
 10
109.9609022077528
 20
-150.3636040205688
 30
0.0
 10
110.0242919646814
 20
-149.9236653271024
 30
0.0
 10
110.0242919646814
 20
-149.9236653271024
 30
0.0
 10
109.2584472383104
 20
-149.9236653271024
 30
0.0
 10
109.2584472383104
 20
-149.9236653271024
 30
0.0
 10
109.1654296602086
 20
-149.9236653271024
 30
0.0
 10
108.9814615612963
 20
-149.9277994416847
 30
0.0
 10
108.8247097167174
 20
-149.9467474668536
 30
0.0
 10
108.8247097167174
 20
-149.9467474668536
 30
0.0
 10
108.8247097167174
 20
-149.7269503748947
 30
0.0
 10
108.8247097167174
 20
-149.7269503748947
 30
0.0
 10
108.9115261229457
 20
-149.7479654573547
 30
0.0
 10
109.1633626029175
 20
-149.7479654573547
 30
0.0
 10
109.2625813528927
 20
-149.7479654573547
 30
0.0
 10
109.2625813528927
 20
-149.7479654573547
 30
0.0
 10
109.6942518171945
 20
-149.7479654573547
 30
0.0
 10
109.6942518171945
 20
-149.7479654573547
 30
0.0
 10
109.7366264916631
 20
-149.7479654573547
 30
0.0
 10
109.9712374942086
 20
-149.7458984000635
 30
0.0
 10
110.0094780540949
 20
-149.7396972281901
 30
0.0
 10
110.0518527285634
 20
-149.7331515467681
 30
0.0
 10
110.0539197858546
 20
-149.731084489477
 30
0.0
 10
110.115242485492
 20
-149.6907768722995
 30
0.0
 10
110.115242485492
 20
-149.6907768722995
 30
0.0
 10
110.3036892085352
 20
-149.8454616595872
 30
0.0
 10
110.3036892085352
 20
-149.8454616595872
 30
0.0
 10
110.274061387362
 20
-149.8750894807604
 30
0.0
 10
110.2592474767755
 20
-149.9067843592247
 30
0.0
 10
110.2420219993492
 20
-149.966040001571
 30
0.0
  0
SPLINE
  5
C6
330
94
100
AcDbEntity
  8
_U+30EC_U+30A4_U+30E4_U+30FC 1
370
     0
100
AcDbSpline
210
0.0
220
0.0
230
1.0
 70
    11
 71
     3
 72
    17
 73
    13
 74
     0
 42
0.0000000001
 43
0.0000000001
 12
1.0
 22
0.0
 32
0.0
 13
1.0
 23
0.0
 33
0.0
 40
0.0
 40
0.0
 40
0.0
 40
0.0
 40
1.0
 40
1.0
 40
1.0
 40
2.0
 40
2.0
 40
2.0
 40
3.0
 40
3.0
 40
3.0
 40
4.0
 40
4.0
 40
4.0
 40
4.0
 10
110.4514838048524
 20
-149.7669134825236
 30
0.0
 10
110.3247042909952
 20
-149.7669134825236
 30
0.0
 10
110.2230739741804
 20
-149.6656276752572
 30
0.0
 10
110.2230739741804
 20
-149.5385036518515
 30
0.0
 10
110.2230739741804
 20
-149.4117241379943
 30
0.0
 10
110.3247042909952
 20
-149.3080267638883
 30
0.0
 10
110.4514838048524
 20
-149.3080267638883
 30
0.0
 10
110.5786078282581
 20
-149.3080267638883
 30
0.0
 10
110.6823052023641
 20
-149.4117241379943
 30
0.0
 10
110.6823052023641
 20
-149.5385036518515
 30
0.0
 10
110.6823052023641
 20
-149.6656276752572
 30
0.0
 10
110.5786078282581
 20
-149.7669134825236
 30
0.0
 10
110.4514838048524
 20
-149.7669134825236
 30
0.0
  0
SPLINE
  5
C7
330
94
100
AcDbEntity
  8
_U+30EC_U+30A4_U+30E4_U+30FC 1
370
     0
100
AcDbSpline
210
0.0
220
0.0
230
1.0
 70
    11
 71
     3
 72
    17
 73
    13
 74
     0
 42
0.0000000001
 43
0.0000000001
 12
1.0
 22
0.0
 32
0.0
 13
1.0
 23
0.0
 33
0.0
 40
0.0
 40
0.0
 40
0.0
 40
0.0
 40
1.0
 40
1.0
 40
1.0
 40
2.0
 40
2.0
 40
2.0
 40
3.0
 40
3.0
 40
3.0
 40
4.0
 40
4.0
 40
4.0
 40
4.0
 10
110.4494167475613
 20
-149.4368733350366
 30
0.0
 10
110.3946397293458
 20
-149.4368733350366
 30
0.0
 10
110.3501979975861
 20
-149.4813150667964
 30
0.0
 10
110.3501979975861
 20
-149.5364365945603
 30
0.0
 10
110.3501979975861
 20
-149.5936251796155
 30
0.0
 10
110.3946397293458
 20
-149.6422010259575
 30
0.0
 10
110.4535508621436
 20
-149.6422010259575
 30
0.0
 10
110.5128065044899
 20
-149.6422010259575
 30
0.0
 10
110.5531141216673
 20
-149.5915581223243
 30
0.0
 10
110.5531141216673
 20
-149.5385036518515
 30
0.0
 10
110.5531141216673
 20
-149.4813150667964
 30
0.0
 10
110.5066053326164
 20
-149.4368733350366
 30
0.0
 10
110.4494167475613
 20
-149.4368733350366
 30
0.0
  0
HATCH
  5
C8
330
94
100
AcDbEntity
  8
_U+30EC_U+30A4_U+30E4_U+30FC 1
 62
   179
420
  2234388
100
AcDbHatch
 10
0.0
 20
0.0
 30
0.0
210
0.0
220
0.0
230
1.0
  2
SOLID
 70
     1
 71
     0
 91
        3
 92
        1
 93
        1
 72
     4
 94
        3
 73
     0
 74
     1
 95
       44
 96
       40
 40
0.0
 40
0.0
 40
0.0
 40
0.0
 40
1.0
 40
1.0
 40
1.0
 40
2.0
 40
2.0
 40
2.0
 40
3.0
 40
3.0
 40
3.0
 40
4.0
 40
4.0
 40
4.0
 40
5.0
 40
5.0
 40
5.0
 40
6.0
 40
6.0
 40
6.0
 40
7.0
 40
7.0
 40
7.0
 40
8.0
 40
8.0
 40
8.0
 40
9.0
 40
9.0
 40
9.0
 40
10.0
 40
10.0
 40
10.0
 40
11.0
 40
11.0
 40
11.0
 40
12.0
 40
12.0
 40
12.0
 40
13.0
 40
13.0
 40
13.0
 40
13.0
 10
110.2420219993492
 20
-149.966040001571
 10
110.1300563960786
 20
-150.3339761993957
 10
110.0794134924454
 20
-150.4927951012657
 10
109.8826985402377
 20
-150.7422200143978
 10
109.6983859317768
 20
-150.9730414119095
 10
109.4617078719401
 20
-151.159076568113
 10
109.1823106280864
 20
-151.2520941462148
 10
109.1823106280864
 20
-151.2520941462148
 10
108.9897297904609
 20
-151.0722601618847
 10
108.9897297904609
 20
-151.0722601618847
 10
109.6308620602659
 20
-150.9199869414367
 10
109.9609022077528
 20
-150.3636040205688
 10
110.0242919646814
 20
-149.9236653271024
 10
110.0242919646814
 20
-149.9236653271024
 10
109.2584472383104
 20
-149.9236653271024
 10
109.2584472383104
 20
-149.9236653271024
 10
109.1654296602086
 20
-149.9236653271024
 10
108.9814615612963
 20
-149.9277994416847
 10
108.8247097167174
 20
-149.9467474668536
 10
108.8247097167174
 20
-149.9467474668536
 10
108.8247097167174
 20
-149.7269503748947
 10
108.8247097167174
 20
-149.7269503748947
 10
108.9115261229457
 20
-149.7479654573547
 10
109.1633626029175
 20
-149.7479654573547
 10
109.2625813528927
 20
-149.7479654573547
 10
109.2625813528927
 20
-149.7479654573547
 10
109.6942518171945
 20
-149.7479654573547
 10
109.6942518171945
 20
-149.7479654573547
 10
109.7366264916631
 20
-149.7479654573547
 10
109.9712374942086
 20
-149.7458984000635
 10
110.0094780540949
 20
-149.7396972281901
 10
110.0518527285634
 20
-149.7331515467681
 10
110.0539197858546
 20
-149.731084489477
 10
110.115242485492
 20
-149.6907768722995
 10
110.115242485492
 20
-149.6907768722995
 10
110.3036892085352
 20
-149.8454616595872
 10
110.3036892085352
 20
-149.8454616595872
 10
110.274061387362
 20
-149.8750894807604
 10
110.2592474767755
 20
-149.9067843592247
 10
110.2420219993492
 20
-149.966040001571
 97
        0
 97
        0
 92
        1
 93
        1
 72
     4
 94
        3
 73
     0
 74
     1
 95
       17
 96
       13
 40
0.0
 40
0.0
 40
0.0
 40
0.0
 40
1.0
 40
1.0
 40
1.0
 40
2.0
 40
2.0
 40
2.0
 40
3.0
 40
3.0
 40
3.0
 40
4.0
 40
4.0
 40
4.0
 40
4.0
 10
110.4514838048524
 20
-149.7669134825236
 10
110.3247042909952
 20
-149.7669134825236
 10
110.2230739741804
 20
-149.6656276752572
 10
110.2230739741804
 20
-149.5385036518515
 10
110.2230739741804
 20
-149.4117241379943
 10
110.3247042909952
 20
-149.3080267638883
 10
110.4514838048524
 20
-149.3080267638883
 10
110.5786078282581
 20
-149.3080267638883
 10
110.6823052023641
 20
-149.4117241379943
 10
110.6823052023641
 20
-149.5385036518515
 10
110.6823052023641
 20
-149.6656276752572
 10
110.5786078282581
 20
-149.7669134825236
 10
110.4514838048524
 20
-149.7669134825236
 97
        0
 97
        0
 92
        1
 93
        1
 72
     4
 94
        3
 73
     0
 74
     1
 95
       17
 96
       13
 40
0.0
 40
0.0
 40
0.0
 40
0.0
 40
1.0
 40
1.0
 40
1.0
 40
2.0
 40
2.0
 40
2.0
 40
3.0
 40
3.0
 40
3.0
 40
4.0
 40
4.0
 40
4.0
 40
4.0
 10
110.4494167475613
 20
-149.4368733350366
 10
110.3946397293458
 20
-149.4368733350366
 10
110.3501979975861
 20
-149.4813150667964
 10
110.3501979975861
 20
-149.5364365945603
 10
110.3501979975861
 20
-149.5936251796155
 10
110.3946397293458
 20
-149.6422010259575
 10
110.4535508621436
 20
-149.6422010259575
 10
110.5128065044899
 20
-149.6422010259575
 10
110.5531141216673
 20
-149.5915581223243
 10
110.5531141216673
 20
-149.5385036518515
 10
110.5531141216673
 20
-149.4813150667964
 10
110.5066053326164
 20
-149.4368733350366
 10
110.4494167475613
 20
-149.4368733350366
 97
        0
 97
        0
 75
     2
 76
     1
 98
        0
  0
SPLINE
  5
C9
330
94
100
AcDbEntity
  8
_U+30EC_U+30A4_U+30E4_U+30FC 1
370
     0
100
AcDbSpline
210
0.0
220
0.0
230
1.0
 70
    11
 71
     3
 72
    50
 73
    46
 74
     0
 42
0.0000000001
 43
0.0000000001
 12
1.0
 22
0.0
 32
0.0
 13
1.0
 23
0.0
 33
0.0
 40
0.0
 40
0.0
 40
0.0
 40
0.0
 40
1.0
 40
1.0
 40
1.0
 40
2.0
 40
2.0
 40
2.0
 40
3.0
 40
3.0
 40
3.0
 40
4.0
 40
4.0
 40
4.0
 40
5.0
 40
5.0
 40
5.0
 40
6.0
 40
6.0
 40
6.0
 40
7.0
 40
7.0
 40
7.0
 40
8.0
 40
8.0
 40
8.0
 40
9.0
 40
9.0
 40
9.0
 40
10.0
 40
10.0
 40
10.0
 40
11.0
 40
11.0
 40
11.0
 40
12.0
 40
12.0
 40
12.0
 40
13.0
 40
13.0
 40
13.0
 40
14.0
 40
14.0
 40
14.0
 40
15.0
 40
15.0
 40
15.0
 40
15.0
 10
112.2467230622161
 20
-150.2747205570494
 30
0.0
 10
112.1681748851524
 20
-150.4524874840883
 30
0.0
 10
112.0327826325821
 20
-150.6598822323003
 30
0.0
 10
111.8953233227206
 20
-150.7994085994529
 30
0.0
 10
111.7261691343949
 20
-150.9706298450699
 30
0.0
 10
111.5632161179425
 20
-151.0595133085893
 30
0.0
 10
111.2438557664599
 20
-151.2014512425816
 30
0.0
 10
111.2438557664599
 20
-151.2014512425816
 30
0.0
 10
111.0747015781341
 20
-151.0130045195384
 30
0.0
 10
111.0747015781341
 20
-151.0130045195384
 30
0.0
 10
111.2607367343376
 20
-150.9899223797873
 30
0.0
 10
111.4319579799545
 20
-150.903105973559
 30
0.0
 10
111.5845757099511
 20
-150.7973415421618
 30
0.0
 10
111.8467474763786
 20
-150.6154405005406
 30
0.0
 10
112.0372612567129
 20
-150.3022813209314
 30
0.0
 10
112.0858371030549
 20
-150.1203802793102
 30
0.0
 10
112.0858371030549
 20
-150.1203802793102
 30
0.0
 10
111.4150770120768
 20
-150.1203802793102
 30
0.0
 10
111.4150770120768
 20
-150.1203802793102
 30
0.0
 10
111.2566026197553
 20
-150.1203802793102
 30
0.0
 10
110.9644585226061
 20
-150.1286485084748
 30
0.0
 10
110.8121853021581
 20
-150.145873985901
 30
0.0
 10
110.8121853021581
 20
-150.145873985901
 30
0.0
 10
110.8121853021581
 20
-149.9171196456805
 30
0.0
 10
110.8121853021581
 20
-149.9171196456805
 30
0.0
 10
110.846291747462
 20
-149.9236653271024
 30
0.0
 10
110.8714409445044
 20
-149.9298664989759
 30
0.0
 10
110.9244954149772
 20
-149.9340006135582
 30
0.0
 10
111.0257812222436
 20
-149.9405462949802
 30
0.0
 10
111.2228406839998
 20
-149.9426133522713
 30
0.0
 10
111.3072455233885
 20
-149.9426133522713
 30
0.0
 10
111.3072455233885
 20
-149.9426133522713
 30
0.0
 10
111.8129855406231
 20
-149.9426133522713
 30
0.0
 10
111.8129855406231
 20
-149.9426133522713
 30
0.0
 10
111.880509412134
 20
-149.9426133522713
 30
0.0
 10
112.0265814607086
 20
-149.938479237689
 30
0.0
 10
112.0879041603461
 20
-149.931933556267
 30
0.0
 10
112.1599066559878
 20
-149.9236653271024
 30
0.0
 10
112.1874674198698
 20
-149.9088514165159
 30
0.0
 10
112.2212293556253
 20
-149.8854247672162
 30
0.0
 10
112.2212293556253
 20
-149.8854247672162
 30
0.0
 10
112.3862494293687
 20
-150.0525118982508
 30
0.0
 10
112.3862494293687
 20
-150.0525118982508
 30
0.0
 10
112.3163139910181
 20
-150.1203802793102
 30
0.0
 10
112.2698052019673
 20
-150.2240776534162
 30
0.0
 10
112.2467230622161
 20
-150.2747205570494
 30
0.0
  0
SPLINE
  5
CA
330
94
100
AcDbEntity
  8
_U+30EC_U+30A4_U+30E4_U+30FC 1
370
     0
100
AcDbSpline
210
0.0
220
0.0
230
1.0
 70
    11
 71
     3
 72
    29
 73
    25
 74
     0
 42
0.0000000001
 43
0.0000000001
 12
1.0
 22
0.0
 32
0.0
 13
1.0
 23
0.0
 33
0.0
 40
0.0
 40
0.0
 40
0.0
 40
0.0
 40
1.0
 40
1.0
 40
1.0
 40
2.0
 40
2.0
 40
2.0
 40
3.0
 40
3.0
 40
3.0
 40
4.0
 40
4.0
 40
4.0
 40
5.0
 40
5.0
 40
5.0
 40
6.0
 40
6.0
 40
6.0
 40
7.0
 40
7.0
 40
7.0
 40
8.0
 40
8.0
 40
8.0
 40
8.0
 10
111.7537298982768
 20
-149.6487467073795
 30
0.0
 10
111.7537298982768
 20
-149.6487467073795
 30
0.0
 10
111.4130099547856
 20
-149.6487467073795
 30
0.0
 10
111.4130099547856
 20
-149.6487467073795
 30
0.0
 10
111.2989772942239
 20
-149.6487467073795
 30
0.0
 10
111.1825330668224
 20
-149.6528808219618
 30
0.0
 10
111.0681558967121
 20
-149.6676947325484
 30
0.0
 10
111.0681558967121
 20
-149.6676947325484
 30
0.0
 10
111.0681558967121
 20
-149.4582329270452
 30
0.0
 10
111.0681558967121
 20
-149.4582329270452
 30
0.0
 10
111.1866671814047
 20
-149.4730468376318
 30
0.0
 10
111.3602999938613
 20
-149.477180952214
 30
0.0
 10
111.4130099547856
 20
-149.477180952214
 30
0.0
 10
111.4130099547856
 20
-149.477180952214
 30
0.0
 10
111.7537298982768
 20
-149.477180952214
 30
0.0
 10
111.7537298982768
 20
-149.477180952214
 30
0.0
 10
111.8701741256783
 20
-149.477180952214
 30
0.0
 10
111.9862738435312
 20
-149.4730468376318
 30
0.0
 10
112.1027180709327
 20
-149.4582329270452
 30
0.0
 10
112.1027180709327
 20
-149.4582329270452
 30
0.0
 10
112.1027180709327
 20
-149.6676947325484
 30
0.0
 10
112.1027180709327
 20
-149.6676947325484
 30
0.0
 10
111.9525119077758
 20
-149.6487467073795
 30
0.0
 10
111.7685438088634
 20
-149.6487467073795
 30
0.0
 10
111.7537298982768
 20
-149.6487467073795
 30
0.0
  0
HATCH
  5
CB
330
94
100
AcDbEntity
  8
_U+30EC_U+30A4_U+30E4_U+30FC 1
 62
   179
420
  2234388
100
AcDbHatch
 10
0.0
 20
0.0
 30
0.0
210
0.0
220
0.0
230
1.0
  2
SOLID
 70
     1
 71
     0
 91
        2
 92
        1
 93
        1
 72
     4
 94
        3
 73
     0
 74
     1
 95
       50
 96
       46
 40
0.0
 40
0.0
 40
0.0
 40
0.0
 40
1.0
 40
1.0
 40
1.0
 40
2.0
 40
2.0
 40
2.0
 40
3.0
 40
3.0
 40
3.0
 40
4.0
 40
4.0
 40
4.0
 40
5.0
 40
5.0
 40
5.0
 40
6.0
 40
6.0
 40
6.0
 40
7.0
 40
7.0
 40
7.0
 40
8.0
 40
8.0
 40
8.0
 40
9.0
 40
9.0
 40
9.0
 40
10.0
 40
10.0
 40
10.0
 40
11.0
 40
11.0
 40
11.0
 40
12.0
 40
12.0
 40
12.0
 40
13.0
 40
13.0
 40
13.0
 40
14.0
 40
14.0
 40
14.0
 40
15.0
 40
15.0
 40
15.0
 40
15.0
 10
112.2467230622161
 20
-150.2747205570494
 10
112.1681748851524
 20
-150.4524874840883
 10
112.0327826325821
 20
-150.6598822323003
 10
111.8953233227206
 20
-150.7994085994529
 10
111.7261691343949
 20
-150.9706298450699
 10
111.5632161179425
 20
-151.0595133085893
 10
111.2438557664599
 20
-151.2014512425816
 10
111.2438557664599
 20
-151.2014512425816
 10
111.0747015781341
 20
-151.0130045195384
 10
111.0747015781341
 20
-151.0130045195384
 10
111.2607367343376
 20
-150.9899223797873
 10
111.4319579799545
 20
-150.903105973559
 10
111.5845757099511
 20
-150.7973415421618
 10
111.8467474763786
 20
-150.6154405005406
 10
112.0372612567129
 20
-150.3022813209314
 10
112.0858371030549
 20
-150.1203802793102
 10
112.0858371030549
 20
-150.1203802793102
 10
111.4150770120768
 20
-150.1203802793102
 10
111.4150770120768
 20
-150.1203802793102
 10
111.2566026197553
 20
-150.1203802793102
 10
110.9644585226061
 20
-150.1286485084748
 10
110.8121853021581
 20
-150.145873985901
 10
110.8121853021581
 20
-150.145873985901
 10
110.8121853021581
 20
-149.9171196456805
 10
110.8121853021581
 20
-149.9171196456805
 10
110.846291747462
 20
-149.9236653271024
 10
110.8714409445044
 20
-149.9298664989759
 10
110.9244954149772
 20
-149.9340006135582
 10
111.0257812222436
 20
-149.9405462949802
 10
111.2228406839998
 20
-149.9426133522713
 10
111.3072455233885
 20
-149.9426133522713
 10
111.3072455233885
 20
-149.9426133522713
 10
111.8129855406231
 20
-149.9426133522713
 10
111.8129855406231
 20
-149.9426133522713
 10
111.880509412134
 20
-149.9426133522713
 10
112.0265814607086
 20
-149.938479237689
 10
112.0879041603461
 20
-149.931933556267
 10
112.1599066559878
 20
-149.9236653271024
 10
112.1874674198698
 20
-149.9088514165159
 10
112.2212293556253
 20
-149.8854247672162
 10
112.2212293556253
 20
-149.8854247672162
 10
112.3862494293687
 20
-150.0525118982508
 10
112.3862494293687
 20
-150.0525118982508
 10
112.3163139910181
 20
-150.1203802793102
 10
112.2698052019673
 20
-150.2240776534162
 10
112.2467230622161
 20
-150.2747205570494
 97
        0
 97
        0
 92
        1
 93
        1
 72
     4
 94
        3
 73
     0
 74
     1
 95
       29
 96
       25
 40
0.0
 40
0.0
 40
0.0
 40
0.0
 40
1.0
 40
1.0
 40
1.0
 40
2.0
 40
2.0
 40
2.0
 40
3.0
 40
3.0
 40
3.0
 40
4.0
 40
4.0
 40
4.0
 40
5.0
 40
5.0
 40
5.0
 40
6.0
 40
6.0
 40
6.0
 40
7.0
 40
7.0
 40
7.0
 40
8.0
 40
8.0
 40
8.0
 40
8.0
 10
111.7537298982768
 20
-149.6487467073795
 10
111.7537298982768
 20
-149.6487467073795
 10
111.4130099547856
 20
-149.6487467073795
 10
111.4130099547856
 20
-149.6487467073795
 10
111.2989772942239
 20
-149.6487467073795
 10
111.1825330668224
 20
-149.6528808219618
 10
111.0681558967121
 20
-149.6676947325484
 10
111.0681558967121
 20
-149.6676947325484
 10
111.0681558967121
 20
-149.4582329270452
 10
111.0681558967121
 20
-149.4582329270452
 10
111.1866671814047
 20
-149.4730468376318
 10
111.3602999938613
 20
-149.477180952214
 10
111.4130099547856
 20
-149.477180952214
 10
111.4130099547856
 20
-149.477180952214
 10
111.7537298982768
 20
-149.477180952214
 10
111.7537298982768
 20
-149.477180952214
 10
111.8701741256783
 20
-149.477180952214
 10
111.9862738435312
 20
-149.4730468376318
 10
112.1027180709327
 20
-149.4582329270452
 10
112.1027180709327
 20
-149.4582329270452
 10
112.1027180709327
 20
-149.6676947325484
 10
112.1027180709327
 20
-149.6676947325484
 10
111.9525119077758
 20
-149.6487467073795
 10
111.7685438088634
 20
-149.6487467073795
 10
111.7537298982768
 20
-149.6487467073795
 97
        0
 97
        0
 75
     2
 76
     1
 98
        0
  0
SPLINE
  5
CC
330
94
100
AcDbEntity
  8
_U+30EC_U+30A4_U+30E4_U+30FC 1
370
     0
100
AcDbSpline
210
0.0
220
0.0
230
1.0
 70
    11
 71
     3
 72
    50
 73
    46
 74
     0
 42
0.0000000001
 43
0.0000000001
 12
1.0
 22
0.0
 32
0.0
 13
1.0
 23
0.0
 33
0.0
 40
0.0
 40
0.0
 40
0.0
 40
0.0
 40
1.0
 40
1.0
 40
1.0
 40
2.0
 40
2.0
 40
2.0
 40
3.0
 40
3.0
 40
3.0
 40
4.0
 40
4.0
 40
4.0
 40
5.0
 40
5.0
 40
5.0
 40
6.0
 40
6.0
 40
6.0
 40
7.0
 40
7.0
 40
7.0
 40
8.0
 40
8.0
 40
8.0
 40
9.0
 40
9.0
 40
9.0
 40
10.0
 40
10.0
 40
10.0
 40
11.0
 40
11.0
 40
11.0
 40
12.0
 40
12.0
 40
12.0
 40
13.0
 40
13.0
 40
13.0
 40
14.0
 40
14.0
 40
14.0
 40
15.0
 40
15.0
 40
15.0
 40
15.0
 10
113.9568684610941
 20
-149.6339327967929
 30
0.0
 10
113.7474066555909
 20
-149.8475287168784
 30
0.0
 10
113.6757486694977
 20
-149.9195312125201
 30
0.0
 10
113.5338107355054
 20
-150.0376979876642
 30
0.0
 10
113.5338107355054
 20
-150.0376979876642
 30
0.0
 10
113.5338107355054
 20
-150.6047607045363
 30
0.0
 10
113.5338107355054
 20
-150.6047607045363
 30
0.0
 10
113.5338107355054
 20
-150.7549668676932
 30
0.0
 10
113.5403564169274
 20
-150.7739148928621
 30
0.0
 10
113.5444905315097
 20
-150.951681819901
 30
0.0
 10
113.5465575888009
 20
-151.082939957889
 30
0.0
 10
113.5527587606743
 20
-151.131515804231
 30
0.0
 10
113.5593044420963
 20
-151.1907714465773
 30
0.0
 10
113.5593044420963
 20
-151.1907714465773
 30
0.0
 10
113.3329616687154
 20
-151.1907714465773
 30
0.0
 10
113.3329616687154
 20
-151.1907714465773
 30
0.0
 10
113.3370957832977
 20
-151.1463297148176
 30
0.0
 10
113.34122989788
 20
-151.0998209257667
 30
0.0
 10
113.34122989788
 20
-151.0912081870536
 30
0.0
 10
113.34122989788
 20
-151.0109374622473
 30
0.0
 10
113.3457085220108
 20
-150.6598822323003
 30
0.0
 10
113.3457085220108
 20
-150.5878797366586
 30
0.0
 10
113.3457085220108
 20
-150.5878797366586
 30
0.0
 10
113.3457085220108
 20
-150.1817029789476
 30
0.0
 10
113.3457085220108
 20
-150.1817029789476
 30
0.0
 10
113.1638074803896
 20
-150.3064154355137
 30
0.0
 10
112.969159585473
 20
-150.4166584910417
 30
0.0
 10
112.7658989518433
 20
-150.5031303877215
 30
0.0
 10
112.7658989518433
 20
-150.5031303877215
 30
0.0
 10
112.562982827762
 20
-150.3401773712691
 30
0.0
 10
112.562982827762
 20
-150.3401773712691
 30
0.0
 10
112.6856282270369
 20
-150.3043483782225
 30
0.0
 10
112.941598821591
 20
-150.2302788252897
 30
0.0
 10
113.2864528796645
 20
-149.9743082307356
 30
0.0
 10
113.5021158570411
 20
-149.8158338384141
 30
0.0
 10
113.6946966946666
 20
-149.6273871153709
 30
0.0
 10
113.8469699151147
 20
-149.4072455138635
 30
0.0
 10
113.8469699151147
 20
-149.4072455138635
 30
0.0
 10
114.0395507527401
 20
-149.5512505051469
 30
0.0
 10
114.0395507527401
 20
-149.5512505051469
 30
0.0
 10
114.0522976060355
 20
-149.5619303011512
 30
0.0
 10
114.0605658352001
 20
-149.5767442117378
 30
0.0
 10
114.0605658352001
 20
-149.5894910650332
 30
0.0
 10
114.0605658352001
 20
-149.6294541726621
 30
0.0
 10
114.0226697848624
 20
-149.6294541726621
 30
0.0
 10
113.9568684610941
 20
-149.6339327967929
 30
0.0
  0
HATCH
  5
CD
330
94
100
AcDbEntity
  8
_U+30EC_U+30A4_U+30E4_U+30FC 1
 62
   179
420
  2234388
100
AcDbHatch
 10
0.0
 20
0.0
 30
0.0
210
0.0
220
0.0
230
1.0
  2
SOLID
 70
     1
 71
     0
 91
        1
 92
        1
 93
        1
 72
     4
 94
        3
 73
     0
 74
     1
 95
       50
 96
       46
 40
0.0
 40
0.0
 40
0.0
 40
0.0
 40
1.0
 40
1.0
 40
1.0
 40
2.0
 40
2.0
 40
2.0
 40
3.0
 40
3.0
 40
3.0
 40
4.0
 40
4.0
 40
4.0
 40
5.0
 40
5.0
 40
5.0
 40
6.0
 40
6.0
 40
6.0
 40
7.0
 40
7.0
 40
7.0
 40
8.0
 40
8.0
 40
8.0
 40
9.0
 40
9.0
 40
9.0
 40
10.0
 40
10.0
 40
10.0
 40
11.0
 40
11.0
 40
11.0
 40
12.0
 40
12.0
 40
12.0
 40
13.0
 40
13.0
 40
13.0
 40
14.0
 40
14.0
 40
14.0
 40
15.0
 40
15.0
 40
15.0
 40
15.0
 10
113.9568684610941
 20
-149.6339327967929
 10
113.7474066555909
 20
-149.8475287168784
 10
113.6757486694977
 20
-149.9195312125201
 10
113.5338107355054
 20
-150.0376979876642
 10
113.5338107355054
 20
-150.0376979876642
 10
113.5338107355054
 20
-150.6047607045363
 10
113.5338107355054
 20
-150.6047607045363
 10
113.5338107355054
 20
-150.7549668676932
 10
113.5403564169274
 20
-150.7739148928621
 10
113.5444905315097
 20
-150.951681819901
 10
113.5465575888009
 20
-151.082939957889
 10
113.5527587606743
 20
-151.131515804231
 10
113.5593044420963
 20
-151.1907714465773
 10
113.5593044420963
 20
-151.1907714465773
 10
113.3329616687154
 20
-151.1907714465773
 10
113.3329616687154
 20
-151.1907714465773
 10
113.3370957832977
 20
-151.1463297148176
 10
113.34122989788
 20
-151.0998209257667
 10
113.34122989788
 20
-151.0912081870536
 10
113.34122989788
 20
-151.0109374622473
 10
113.3457085220108
 20
-150.6598822323003
 10
113.3457085220108
 20
-150.5878797366586
 10
113.3457085220108
 20
-150.5878797366586
 10
113.3457085220108
 20
-150.1817029789476
 10
113.3457085220108
 20
-150.1817029789476
 10
113.1638074803896
 20
-150.3064154355137
 10
112.969159585473
 20
-150.4166584910417
 10
112.7658989518433
 20
-150.5031303877215
 10
112.7658989518433
 20
-150.5031303877215
 10
112.562982827762
 20
-150.3401773712691
 10
112.562982827762
 20
-150.3401773712691
 10
112.6856282270369
 20
-150.3043483782225
 10
112.941598821591
 20
-150.2302788252897
 10
113.2864528796645
 20
-149.9743082307356
 10
113.5021158570411
 20
-149.8158338384141
 10
113.6946966946666
 20
-149.6273871153709
 10
113.8469699151147
 20
-149.4072455138635
 10
113.8469699151147
 20
-149.4072455138635
 10
114.0395507527401
 20
-149.5512505051469
 10
114.0395507527401
 20
-149.5512505051469
 10
114.0522976060355
 20
-149.5619303011512
 10
114.0605658352001
 20
-149.5767442117378
 10
114.0605658352001
 20
-149.5894910650332
 10
114.0605658352001
 20
-149.6294541726621
 10
114.0226697848624
 20
-149.6294541726621
 10
113.9568684610941
 20
-149.6339327967929
 97
        0
 97
        0
 75
     2
 76
     1
 98
        0
  0
SPLINE
  5
CE
330
94
100
AcDbEntity
  8
_U+30EC_U+30A4_U+30E4_U+30FC 1
370
     0
100
AcDbSpline
210
0.0
220
0.0
230
1.0
 70
    11
 71
     3
 72
    50
 73
    46
 74
     0
 42
0.0000000001
 43
0.0000000001
 12
1.0
 22
0.0
 32
0.0
 13
1.0
 23
0.0
 33
0.0
 40
0.0
 40
0.0
 40
0.0
 40
0.0
 40
1.0
 40
1.0
 40
1.0
 40
2.0
 40
2.0
 40
2.0
 40
3.0
 40
3.0
 40
3.0
 40
4.0
 40
4.0
 40
4.0
 40
5.0
 40
5.0
 40
5.0
 40
6.0
 40
6.0
 40
6.0
 40
7.0
 40
7.0
 40
7.0
 40
8.0
 40
8.0
 40
8.0
 40
9.0
 40
9.0
 40
9.0
 40
10.0
 40
10.0
 40
10.0
 40
11.0
 40
11.0
 40
11.0
 40
12.0
 40
12.0
 40
12.0
 40
13.0
 40
13.0
 40
13.0
 40
14.0
 40
14.0
 40
14.0
 40
15.0
 40
15.0
 40
15.0
 40
15.0
 10
115.6673583695207
 20
-150.1606878964876
 30
0.0
 10
115.6060356698832
 20
-150.2323458825808
 30
0.0
 10
115.3455864511983
 20
-150.5496391767723
 30
0.0
 10
115.2887423756917
 20
-150.6133734432494
 30
0.0
 10
115.3731472150803
 20
-150.7105251359335
 30
0.0
 10
115.424134628262
 20
-150.7739148928621
 30
0.0
 10
115.4895914424818
 20
-150.8648654136727
 30
0.0
 10
115.4895914424818
 20
-150.8648654136727
 30
0.0
 10
115.3056233435694
 20
-151.0026692330827
 30
0.0
 10
115.3056233435694
 20
-151.0026692330827
 30
0.0
 10
115.1702310909991
 20
-150.7907958607398
 30
0.0
 10
114.9986653358337
 20
-150.5668646541986
 30
0.0
 10
114.7047986909419
 20
-150.3677381351511
 30
0.0
 10
114.7047986909419
 20
-150.3677381351511
 30
0.0
 10
114.8529377968076
 20
-150.2133978574119
 30
0.0
 10
114.8529377968076
 20
-150.2133978574119
 30
0.0
 10
114.9628363427871
 20
-150.2936685822183
 30
0.0
 10
115.0665337168931
 20
-150.3825520457377
 30
0.0
 10
115.1636854095771
 20
-150.4779811906791
 30
0.0
 10
115.2315537906366
 20
-150.4018445804551
 30
0.0
 10
115.4344699147178
 20
-150.1582763296479
 30
0.0
 10
115.567795109997
 20
-149.9298664989759
 30
0.0
 10
115.567795109997
 20
-149.9298664989759
 30
0.0
 10
114.8949679617277
 20
-149.9298664989759
 30
0.0
 10
114.8949679617277
 20
-149.9298664989759
 30
0.0
 10
114.7702555051616
 20
-149.9298664989759
 30
0.0
 10
114.5184190251898
 20
-149.938479237689
 30
0.0
 10
114.3089572196867
 20
-149.9488145241448
 30
0.0
 10
114.3089572196867
 20
-149.9488145241448
 30
0.0
 10
114.3089572196867
 20
-149.7290174321858
 30
0.0
 10
114.3089572196867
 20
-149.7290174321858
 30
0.0
 10
114.4932698281475
 20
-149.7479654573547
 30
0.0
 10
114.6982530095199
 20
-149.752099571937
 30
0.0
 10
114.8866997325631
 20
-149.752099571937
 30
0.0
 10
114.8866997325631
 20
-149.752099571937
 30
0.0
 10
115.390028182958
 20
-149.752099571937
 30
0.0
 10
115.390028182958
 20
-149.752099571937
 30
0.0
 10
115.7286810691581
 20
-149.752099571937
 30
0.0
 10
115.7731228009178
 20
-149.7372856613504
 30
0.0
 10
115.8554605830153
 20
-149.6973225537215
 30
0.0
 10
115.8554605830153
 20
-149.6973225537215
 30
0.0
 10
116.0225477140499
 20
-149.855796946043
 30
0.0
 10
116.0225477140499
 20
-149.855796946043
 30
0.0
 10
115.8702744936019
 20
-149.9277994416847
 30
0.0
 10
115.726614011867
 20
-150.090752458137
 30
0.0
 10
115.6673583695207
 20
-150.1606878964876
 30
0.0
  0
HATCH
  5
CF
330
94
100
AcDbEntity
  8
_U+30EC_U+30A4_U+30E4_U+30FC 1
 62
   179
420
  2234388
100
AcDbHatch
 10
0.0
 20
0.0
 30
0.0
210
0.0
220
0.0
230
1.0
  2
SOLID
 70
     1
 71
     0
 91
        1
 92
        1
 93
        1
 72
     4
 94
        3
 73
     0
 74
     1
 95
       50
 96
       46
 40
0.0
 40
0.0
 40
0.0
 40
0.0
 40
1.0
 40
1.0
 40
1.0
 40
2.0
 40
2.0
 40
2.0
 40
3.0
 40
3.0
 40
3.0
 40
4.0
 40
4.0
 40
4.0
 40
5.0
 40
5.0
 40
5.0
 40
6.0
 40
6.0
 40
6.0
 40
7.0
 40
7.0
 40
7.0
 40
8.0
 40
8.0
 40
8.0
 40
9.0
 40
9.0
 40
9.0
 40
10.0
 40
10.0
 40
10.0
 40
11.0
 40
11.0
 40
11.0
 40
12.0
 40
12.0
 40
12.0
 40
13.0
 40
13.0
 40
13.0
 40
14.0
 40
14.0
 40
14.0
 40
15.0
 40
15.0
 40
15.0
 40
15.0
 10
115.6673583695207
 20
-150.1606878964876
 10
115.6060356698832
 20
-150.2323458825808
 10
115.3455864511983
 20
-150.5496391767723
 10
115.2887423756917
 20
-150.6133734432494
 10
115.3731472150803
 20
-150.7105251359335
 10
115.424134628262
 20
-150.7739148928621
 10
115.4895914424818
 20
-150.8648654136727
 10
115.4895914424818
 20
-150.8648654136727
 10
115.3056233435694
 20
-151.0026692330827
 10
115.3056233435694
 20
-151.0026692330827
 10
115.1702310909991
 20
-150.7907958607398
 10
114.9986653358337
 20
-150.5668646541986
 10
114.7047986909419
 20
-150.3677381351511
 10
114.7047986909419
 20
-150.3677381351511
 10
114.8529377968076
 20
-150.2133978574119
 10
114.8529377968076
 20
-150.2133978574119
 10
114.9628363427871
 20
-150.2936685822183
 10
115.0665337168931
 20
-150.3825520457377
 10
115.1636854095771
 20
-150.4779811906791
 10
115.2315537906366
 20
-150.4018445804551
 10
115.4344699147178
 20
-150.1582763296479
 10
115.567795109997
 20
-149.9298664989759
 10
115.567795109997
 20
-149.9298664989759
 10
114.8949679617277
 20
-149.9298664989759
 10
114.8949679617277
 20
-149.9298664989759
 10
114.7702555051616
 20
-149.9298664989759
 10
114.5184190251898
 20
-149.938479237689
 10
114.3089572196867
 20
-149.9488145241448
 10
114.3089572196867
 20
-149.9488145241448
 10
114.3089572196867
 20
-149.7290174321858
 10
114.3089572196867
 20
-149.7290174321858
 10
114.4932698281475
 20
-149.7479654573547
 10
114.6982530095199
 20
-149.752099571937
 10
114.8866997325631
 20
-149.752099571937
 10
114.8866997325631
 20
-149.752099571937
 10
115.390028182958
 20
-149.752099571937
 10
115.390028182958
 20
-149.752099571937
 10
115.7286810691581
 20
-149.752099571937
 10
115.7731228009178
 20
-149.7372856613504
 10
115.8554605830153
 20
-149.6973225537215
 10
115.8554605830153
 20
-149.6973225537215
 10
116.0225477140499
 20
-149.855796946043
 10
116.0225477140499
 20
-149.855796946043
 10
115.8702744936019
 20
-149.9277994416847
 10
115.726614011867
 20
-150.090752458137
 10
115.6673583695207
 20
-150.1606878964876
 97
        0
 97
        0
 75
     2
 76
     1
 98
        0
  0
SPLINE
  5
D0
330
94
100
AcDbEntity
  8
_U+30EC_U+30A4_U+30E4_U+30FC 1
370
     0
100
AcDbSpline
210
0.0
220
0.0
230
1.0
 70
    11
 71
     3
 72
    29
 73
    25
 74
     0
 42
0.0000000001
 43
0.0000000001
 12
1.0
 22
0.0
 32
0.0
 13
1.0
 23
0.0
 33
0.0
 40
0.0
 40
0.0
 40
0.0
 40
0.0
 40
1.0
 40
1.0
 40
1.0
 40
2.0
 40
2.0
 40
2.0
 40
3.0
 40
3.0
 40
3.0
 40
4.0
 40
4.0
 40
4.0
 40
5.0
 40
5.0
 40
5.0
 40
6.0
 40
6.0
 40
6.0
 40
7.0
 40
7.0
 40
7.0
 40
8.0
 40
8.0
 40
8.0
 40
8.0
 10
117.2906873621704
 20
-150.4039116377463
 30
0.0
 10
117.2906873621704
 20
-150.4039116377463
 30
0.0
 10
116.8063069369443
 20
-150.4039116377463
 30
0.0
 10
116.8063069369443
 20
-150.4039116377463
 30
0.0
 10
116.7787461730623
 20
-150.4039116377463
 30
0.0
 10
116.4614528788708
 20
-150.4039116377463
 30
0.0
 10
116.2499240160764
 20
-150.4290608347886
 30
0.0
 10
116.2499240160764
 20
-150.4290608347886
 30
0.0
 10
116.2499240160764
 20
-150.1985839468254
 30
0.0
 10
116.2499240160764
 20
-150.1985839468254
 30
0.0
 10
116.4083984083979
 20
-150.2220105961251
 30
0.0
 10
116.5989121887322
 20
-150.2240776534162
 30
0.0
 10
116.8063069369443
 20
-150.2240776534162
 30
0.0
 10
116.8063069369443
 20
-150.2240776534162
 30
0.0
 10
117.2906873621704
 20
-150.2240776534162
 30
0.0
 10
117.2906873621704
 20
-150.2240776534162
 30
0.0
 10
117.4767225183739
 20
-150.2240776534162
 30
0.0
 10
117.6631021841259
 20
-150.2220105961251
 30
0.0
 10
117.8470702830382
 20
-150.1985839468254
 30
0.0
 10
117.8470702830382
 20
-150.1985839468254
 30
0.0
 10
117.8470702830382
 20
-150.4290608347886
 30
0.0
 10
117.8470702830382
 20
-150.4290608347886
 30
0.0
 10
117.6631021841259
 20
-150.4059786950374
 30
0.0
 10
117.4153998187364
 20
-150.4039116377463
 30
0.0
 10
117.2906873621704
 20
-150.4039116377463
 30
0.0
  0
HATCH
  5
D1
330
94
100
AcDbEntity
  8
_U+30EC_U+30A4_U+30E4_U+30FC 1
 62
   179
420
  2234388
100
AcDbHatch
 10
0.0
 20
0.0
 30
0.0
210
0.0
220
0.0
230
1.0
  2
SOLID
 70
     1
 71
     0
 91
        1
 92
        1
 93
        1
 72
     4
 94
        3
 73
     0
 74
     1
 95
       29
 96
       25
 40
0.0
 40
0.0
 40
0.0
 40
0.0
 40
1.0
 40
1.0
 40
1.0
 40
2.0
 40
2.0
 40
2.0
 40
3.0
 40
3.0
 40
3.0
 40
4.0
 40
4.0
 40
4.0
 40
5.0
 40
5.0
 40
5.0
 40
6.0
 40
6.0
 40
6.0
 40
7.0
 40
7.0
 40
7.0
 40
8.0
 40
8.0
 40
8.0
 40
8.0
 10
117.2906873621704
 20
-150.4039116377463
 10
117.2906873621704
 20
-150.4039116377463
 10
116.8063069369443
 20
-150.4039116377463
 10
116.8063069369443
 20
-150.4039116377463
 10
116.7787461730623
 20
-150.4039116377463
 10
116.4614528788708
 20
-150.4039116377463
 10
116.2499240160764
 20
-150.4290608347886
 10
116.2499240160764
 20
-150.4290608347886
 10
116.2499240160764
 20
-150.1985839468254
 10
116.2499240160764
 20
-150.1985839468254
 10
116.4083984083979
 20
-150.2220105961251
 10
116.5989121887322
 20
-150.2240776534162
 10
116.8063069369443
 20
-150.2240776534162
 10
116.8063069369443
 20
-150.2240776534162
 10
117.2906873621704
 20
-150.2240776534162
 10
117.2906873621704
 20
-150.2240776534162
 10
117.4767225183739
 20
-150.2240776534162
 10
117.6631021841259
 20
-150.2220105961251
 10
117.8470702830382
 20
-150.1985839468254
 10
117.8470702830382
 20
-150.1985839468254
 10
117.8470702830382
 20
-150.4290608347886
 10
117.8470702830382
 20
-150.4290608347886
 10
117.6631021841259
 20
-150.4059786950374
 10
117.4153998187364
 20
-150.4039116377463
 10
117.2906873621704
 20
-150.4039116377463
 97
        0
 97
        0
 75
     2
 76
     1
 98
        0
  0
ENDBLK
  5
97
330
94
100
AcDbEntity
  8
0
100
AcDbBlockEnd
  0
ENDSEC
  0
SECTION
  2
ENTITIES
  0
POLYLINE
  5
41
330
1F
100
AcDbEntity
  8
_U+30EC_U+30A4_U+30E4_U+30FC 1
 62
   179
420
  2234388
370
    25
100
AcDb2dPolyline
 66
     1
 10
0.0
 20
0.0
 30
0.0
  0
VERTEX
  5
42
330
41
100
AcDbEntity
  8
_U+30EC_U+30A4_U+30E4_U+30FC 1
 62
   179
420
  2234388
370
    25
100
AcDbVertex
100
AcDb2dVertex
 10
97.99648392664564
 20
-154.1696163215921
 30
0.0
  0
VERTEX
  5
43
330
41
100
AcDbEntity
  8
_U+30EC_U+30A4_U+30E4_U+30FC 1
 62
   179
420
  2234388
370
    25
100
AcDbVertex
100
AcDb2dVertex
 10
114.9968351288571
 20
-154.1696163215921
 30
0.0
  0
SEQEND
  5
44
330
41
100
AcDbEntity
  8
_U+30EC_U+30A4_U+30E4_U+30FC 1
 62
   179
420
  2234388
370
    25
  0
POLYLINE
  5
45
330
1F
100
AcDbEntity
  8
_U+30EC_U+30A4_U+30E4_U+30FC 1
 62
   179
420
  2234388
370
    25
100
AcDb2dPolyline
 66
     1
 10
0.0
 20
0.0
 30
0.0
  0
VERTEX
  5
46
330
45
100
AcDbEntity
  8
_U+30EC_U+30A4_U+30E4_U+30FC 1
 62
   179
420
  2234388
370
    25
100
AcDbVertex
100
AcDb2dVertex
 10
114.9969858517846
 20
-154.1696163215921
 30
0.0
  0
VERTEX
  5
47
330
45
100
AcDbEntity
  8
_U+30EC_U+30A4_U+30E4_U+30FC 1
 62
   179
420
  2234388
370
    25
100
AcDbVertex
100
AcDb2dVertex
 10
114.9969858517846
 20
-154.6695212083487
 30
0.0
  0
SEQEND
  5
48
330
45
100
AcDbEntity
  8
_U+30EC_U+30A4_U+30E4_U+30FC 1
 62
   179
420
  2234388
370
    25
  0
POLYLINE
  5
49
330
1F
100
AcDbEntity
  8
_U+30EC_U+30A4_U+30E4_U+30FC 1
 62
   179
420
  2234388
370
    25
100
AcDb2dPolyline
 66
     1
 10
0.0
 20
0.0
 30
0.0
  0
VERTEX
  5
4A
330
49
100
AcDbEntity
  8
_U+30EC_U+30A4_U+30E4_U+30FC 1
 62
   179
420
  2234388
370
    25
100
AcDbVertex
100
AcDb2dVertex
 10
98.48500923237745
 20
-137.1694696719251
 30
0.0
  0
VERTEX
  5
4B
330
49
100
AcDbEntity
  8
_U+30EC_U+30A4_U+30E4_U+30FC 1
 62
   179
420
  2234388
370
    25
100
AcDbVertex
100
AcDb2dVertex
 10
98.98524786275912
 20
-137.1694696719251
 30
0.0
  0
SEQEND
  5
4C
330
49
100
AcDbEntity
  8
_U+30EC_U+30A4_U+30E4_U+30FC 1
 62
   179
420
  2234388
370
    25
  0
POLYLINE
  5
4D
330
1F
100
AcDbEntity
  8
_U+30EC_U+30A4_U+30E4_U+30FC 1
 62
   179
420
  2234388
370
    25
100
AcDb2dPolyline
 66
     1
 10
0.0
 20
0.0
 30
0.0
  0
VERTEX
  5
4E
330
4D
100
AcDbEntity
  8
_U+30EC_U+30A4_U+30E4_U+30FC 1
 62
   179
420
  2234388
370
    25
100
AcDbVertex
100
AcDb2dVertex
 10
98.98521556498926
 20
-137.1692543534573
 30
0.0
  0
VERTEX
  5
4F
330
4D
100
AcDbEntity
  8
_U+30EC_U+30A4_U+30E4_U+30FC 1
 62
   179
420
  2234388
370
    25
100
AcDbVertex
100
AcDb2dVertex
 10
97.99637626741172
 20
-154.1696163215921
 30
0.0
  0
SEQEND
  5
50
330
4D
100
AcDbEntity
  8
_U+30EC_U+30A4_U+30E4_U+30FC 1
 62
   179
420
  2234388
370
    25
  0
POLYLINE
  5
51
330
1F
100
AcDbEntity
  8
_U+30EC_U+30A4_U+30E4_U+30FC 1
 62
   179
420
  2234388
370
    25
100
AcDb2dPolyline
 66
     1
 10
0.0
 20
0.0
 30
0.0
  0
VERTEX
  5
52
330
51
100
AcDbEntity
  8
_U+30EC_U+30A4_U+30E4_U+30FC 1
 62
   179
420
  2234388
370
    25
100
AcDbVertex
100
AcDb2dVertex
 10
114.9969858517846
 20
-154.6694996765019
 30
0.0
  0
VERTEX
  5
53
330
51
100
AcDbEntity
  8
_U+30EC_U+30A4_U+30E4_U+30FC 1
 62
   179
420
  2234388
370
    25
100
AcDbVertex
100
AcDb2dVertex
 10
97.83046262202676
 20
-155.1686940123146
 30
0.0
  0
SEQEND
  5
54
330
51
100
AcDbEntity
  8
_U+30EC_U+30A4_U+30E4_U+30FC 1
 62
   179
420
  2234388
370
    25
  0
POLYLINE
  5
55
330
1F
100
AcDbEntity
  8
_U+30EC_U+30A4_U+30E4_U+30FC 1
 62
   179
420
  2234388
370
    25
100
AcDb2dPolyline
 66
     1
 10
0.0
 20
0.0
 30
0.0
  0
VERTEX
  5
56
330
55
100
AcDbEntity
  8
_U+30EC_U+30A4_U+30E4_U+30FC 1
 62
   179
420
  2234388
370
    25
100
AcDbVertex
100
AcDb2dVertex
 10
98.48500923237745
 20
-137.1694696719251
 30
0.0
  0
VERTEX
  5
57
330
55
100
AcDbEntity
  8
_U+30EC_U+30A4_U+30E4_U+30FC 1
 62
   179
420
  2234388
370
    25
100
AcDbVertex
100
AcDb2dVertex
 10
97.00087286325521
 20
-154.2908406189794
 30
0.0
  0
SEQEND
  5
58
330
55
100
AcDbEntity
  8
_U+30EC_U+30A4_U+30E4_U+30FC 1
 62
   179
420
  2234388
370
    25
  0
SPLINE
  5
59
330
1F
100
AcDbEntity
  8
_U+30EC_U+30A4_U+30E4_U+30FC 1
 62
   179
420
  2234388
370
    25
100
AcDbSpline
210
0.0
220
0.0
230
1.0
 70
     8
 71
     3
 72
    11
 73
     7
 74
     0
 42
0.0000000001
 43
0.0000000001
 12
1.0
 22
0.0
 32
0.0
 13
1.0
 23
0.0
 33
0.0
 40
0.0
 40
0.0
 40
0.0
 40
0.0
 40
1.0
 40
1.0
 40
1.0
 40
2.0
 40
2.0
 40
2.0
 40
2.0
 10
97.00084056548536
 20
-154.2909052145197
 30
0.0
 10
96.95744312829429
 20
-154.7304778665908
 30
0.0
 10
97.2784721979026
 20
-155.1217115226345
 30
0.0
 10
97.71803408405032
 20
-155.1654427034504
 30
0.0
 10
97.75542413598866
 20
-155.1693399677181
 30
0.0
 10
97.79316946339894
 20
-155.1700289868151
 30
0.0
 10
97.83057028126068
 20
-155.1686294167743
 30
0.0
  0
SPLINE
  5
5A
330
1F
100
AcDbEntity
  8
_U+30EC_U+30A4_U+30E4_U+30FC 1
 62
   179
420
  2234388
370
     9
100
AcDbSpline
210
0.0
220
0.0
230
1.0
 70
    11
 71
     3
 72
    17
 73
    13
 74
     0
 42
0.0000000001
 43
0.0000000001
 12
1.0
 22
0.0
 32
0.0
 13
1.0
 23
0.0
 33
0.0
 40
0.0
 40
0.0
 40
0.0
 40
0.0
 40
1.0
 40
1.0
 40
1.0
 40
2.0
 40
2.0
 40
2.0
 40
3.0
 40
3.0
 40
3.0
 40
4.0
 40
4.0
 40
4.0
 40
4.0
 10
115.092414996726
 20
-159.1691173579399
 30
0.0
 10
115.092414996726
 20
-159.1141034894098
 30
0.0
 10
115.047607223571
 20
-159.0692957162548
 30
0.0
 10
114.9925718231941
 20
-159.0692957162548
 30
0.0
 10
114.9375364228173
 20
-159.0692957162548
 30
0.0
 10
114.8927394155856
 20
-159.1141034894098
 30
0.0
 10
114.8927394155856
 20
-159.1691173579399
 30
0.0
 10
114.8927394155856
 20
-159.2241527583168
 30
0.0
 10
114.9375364228173
 20
-159.2689605314718
 30
0.0
 10
114.9925718231941
 20
-159.2689605314718
 30
0.0
 10
115.047607223571
 20
-159.2689605314718
 30
0.0
 10
115.092414996726
 20
-159.2241527583168
 30
0.0
 10
115.092414996726
 20
-159.1691173579399
 30
0.0
  0
SPLINE
  5
5B
330
1F
100
AcDbEntity
  8
_U+30EC_U+30A4_U+30E4_U+30FC 1
 62
   179
420
  2234388
370
     9
100
AcDbSpline
210
0.0
220
0.0
230
1.0
 70
    11
 71
     3
 72
    17
 73
    13
 74
     0
 42
0.0000000001
 43
0.0000000001
 12
1.0
 22
0.0
 32
0.0
 13
1.0
 23
0.0
 33
0.0
 40
0.0
 40
0.0
 40
0.0
 40
0.0
 40
1.0
 40
1.0
 40
1.0
 40
2.0
 40
2.0
 40
2.0
 40
3.0
 40
3.0
 40
3.0
 40
4.0
 40
4.0
 40
4.0
 40
4.0
 10
93.09685836160024
 20
-155.1693830314117
 30
0.0
 10
93.09685836160024
 20
-155.1143691628816
 30
0.0
 10
93.05205058844489
 20
-155.0695613897265
 30
0.0
 10
92.99701518806802
 20
-155.0695613897265
 30
0.0
 10
92.94197978769115
 20
-155.0695613897265
 30
0.0
 10
92.89718278045952
 20
-155.1143691628816
 30
0.0
 10
92.89718278045952
 20
-155.1693830314117
 30
0.0
 10
92.89718278045952
 20
-155.2244184317885
 30
0.0
 10
92.94197978769115
 20
-155.2692262049435
 30
0.0
 10
92.99701518806802
 20
-155.2692262049435
 30
0.0
 10
93.05205058844489
 20
-155.2692262049435
 30
0.0
 10
93.09685836160024
 20
-155.2244184317885
 30
0.0
 10
93.09685836160024
 20
-155.1693830314117
 30
0.0
  0
SPLINE
  5
5C
330
1F
100
AcDbEntity
  8
_U+30EC_U+30A4_U+30E4_U+30FC 1
 62
   179
420
  2234388
370
     9
100
AcDbSpline
210
0.0
220
0.0
230
1.0
 70
    11
 71
     3
 72
    17
 73
    13
 74
     0
 42
0.0000000001
 43
0.0000000001
 12
1.0
 22
0.0
 32
0.0
 13
1.0
 23
0.0
 33
0.0
 40
0.0
 40
0.0
 40
0.0
 40
0.0
 40
1.0
 40
1.0
 40
1.0
 40
2.0
 40
2.0
 40
2.0
 40
3.0
 40
3.0
 40
3.0
 40
4.0
 40
4.0
 40
4.0
 40
4.0
 10
97.09661421997531
 20
-159.1691173579399
 30
0.0
 10
97.09661421997531
 20
-159.1141034894098
 30
0.0
 10
97.05180644681995
 20
-159.0692957162548
 30
0.0
 10
96.99677104644309
 20
-159.0692957162548
 30
0.0
 10
96.94173564606622
 20
-159.0692957162548
 30
0.0
 10
96.89693863883458
 20
-159.1141034894098
 30
0.0
 10
96.89693863883458
 20
-159.1691173579399
 30
0.0
 10
96.89693863883458
 20
-159.2241527583168
 30
0.0
 10
96.94173564606622
 20
-159.2689605314718
 30
0.0
 10
96.99677104644309
 20
-159.2689605314718
 30
0.0
 10
97.05180644681995
 20
-159.2689605314718
 30
0.0
 10
97.09661421997531
 20
-159.2241527583168
 30
0.0
 10
97.09661421997531
 20
-159.1691173579399
 30
0.0
  0
SPLINE
  5
5D
330
1F
100
AcDbEntity
  8
_U+30EC_U+30A4_U+30E4_U+30FC 1
 62
   179
420
  2234388
370
     9
100
AcDbSpline
210
0.0
220
0.0
230
1.0
 70
    11
 71
     3
 72
    17
 73
    13
 74
     0
 42
0.0000000001
 43
0.0000000001
 12
1.0
 22
0.0
 32
0.0
 13
1.0
 23
0.0
 33
0.0
 40
0.0
 40
0.0
 40
0.0
 40
0.0
 40
1.0
 40
1.0
 40
1.0
 40
2.0
 40
2.0
 40
2.0
 40
3.0
 40
3.0
 40
3.0
 40
4.0
 40
4.0
 40
4.0
 40
4.0
 10
93.09685836160024
 20
-137.1646034745522
 30
0.0
 10
93.09685836160024
 20
-137.1095896060224
 30
0.0
 10
93.05205058844489
 20
-137.0647818328671
 30
0.0
 10
92.99701518806802
 20
-137.0647818328671
 30
0.0
 10
92.94197978769115
 20
-137.0647818328671
 30
0.0
 10
92.89718278045952
 20
-137.1095896060224
 30
0.0
 10
92.89718278045952
 20
-137.1646034745522
 30
0.0
 10
92.89718278045952
 20
-137.219638874929
 30
0.0
 10
92.94197978769115
 20
-137.2644466480844
 30
0.0
 10
92.99701518806802
 20
-137.2644466480844
 30
0.0
 10
93.05205058844489
 20
-137.2644466480844
 30
0.0
 10
93.09685836160024
 20
-137.219638874929
 30
0.0
 10
93.09685836160024
 20
-137.1646034745522
 30
0.0
  0
POLYLINE
  5
5E
330
1F
100
AcDbEntity
  8
_U+30EC_U+30A4_U+30E4_U+30FC 1
 62
   179
420
  2234388
370
     9
100
AcDb2dPolyline
 66
     1
 10
0.0
 20
0.0
 30
0.0
  0
VERTEX
  5
5F
330
5E
100
AcDbEntity
  8
_U+30EC_U+30A4_U+30E4_U+30FC 1
 62
   179
420
  2234388
370
     9
100
AcDbVertex
100
AcDb2dVertex
 10
92.996950592528
 20
-155.1693830314117
 30
0.0
  0
VERTEX
  5
60
330
5E
100
AcDbEntity
  8
_U+30EC_U+30A4_U+30E4_U+30FC 1
 62
   179
420
  2234388
370
     9
100
AcDbVertex
100
AcDb2dVertex
 10
92.996950592528
 20
-137.1646680700925
 30
0.0
  0
SEQEND
  5
61
330
5E
100
AcDbEntity
  8
_U+30EC_U+30A4_U+30E4_U+30FC 1
 62
   179
420
  2234388
370
     9
  0
POLYLINE
  5
62
330
1F
100
AcDbEntity
  8
_U+30EC_U+30A4_U+30E4_U+30FC 1
 62
   179
420
  2234388
370
     9
100
AcDb2dPolyline
 66
     1
 10
0.0
 20
0.0
 30
0.0
  0
VERTEX
  5
63
330
62
100
AcDbEntity
  8
_U+30EC_U+30A4_U+30E4_U+30FC 1
 62
   179
420
  2234388
370
     9
100
AcDbVertex
100
AcDb2dVertex
 10
95.25695476269836
 20
-155.1693830314117
 30
0.0
  0
VERTEX
  5
64
330
62
100
AcDbEntity
  8
_U+30EC_U+30A4_U+30E4_U+30FC 1
 62
   179
420
  2234388
370
     9
100
AcDbVertex
100
AcDb2dVertex
 10
91.99658099099858
 20
-155.1693830314117
 30
0.0
  0
SEQEND
  5
65
330
62
100
AcDbEntity
  8
_U+30EC_U+30A4_U+30E4_U+30FC 1
 62
   179
420
  2234388
370
     9
  0
POLYLINE
  5
66
330
1F
100
AcDbEntity
  8
_U+30EC_U+30A4_U+30E4_U+30FC 1
 62
   179
420
  2234388
370
     9
100
AcDb2dPolyline
 66
     1
 10
0.0
 20
0.0
 30
0.0
  0
VERTEX
  5
67
330
66
100
AcDbEntity
  8
_U+30EC_U+30A4_U+30E4_U+30FC 1
 62
   179
420
  2234388
370
     9
100
AcDbVertex
100
AcDb2dVertex
 10
95.8570580984587
 20
-137.1694696719251
 30
0.0
  0
VERTEX
  5
68
330
66
100
AcDbEntity
  8
_U+30EC_U+30A4_U+30E4_U+30FC 1
 62
   179
420
  2234388
370
     9
100
AcDbVertex
100
AcDb2dVertex
 10
91.99660252284504
 20
-137.1694696719251
 30
0.0
  0
SEQEND
  5
69
330
66
100
AcDbEntity
  8
_U+30EC_U+30A4_U+30E4_U+30FC 1
 62
   179
420
  2234388
370
     9
  0
INSERT
  5
6B
330
1F
100
AcDbEntity
  8
_U+30EC_U+30A4_U+30E4_U+30FC 1
100
AcDbBlockReference
  2
block 2
 10
0.0
 20
0.0
 30
0.0
  0
POLYLINE
  5
74
330
1F
100
AcDbEntity
  8
_U+30EC_U+30A4_U+30E4_U+30FC 1
 62
   179
420
  2234388
370
     9
100
AcDb2dPolyline
 66
     1
 10
0.0
 20
0.0
 30
0.0
  0
VERTEX
  5
75
330
74
100
AcDbEntity
  8
_U+30EC_U+30A4_U+30E4_U+30FC 1
 62
   179
420
  2234388
370
     9
100
AcDbVertex
100
AcDb2dVertex
 10
96.99670645090306
 20
-159.1691173579399
 30
0.0
  0
VERTEX
  5
76
330
74
100
AcDbEntity
  8
_U+30EC_U+30A4_U+30E4_U+30FC 1
 62
   179
420
  2234388
370
     9
100
AcDbVertex
100
AcDb2dVertex
 10
114.9926041209643
 20
-159.1691173579399
 30
0.0
  0
SEQEND
  5
77
330
74
100
AcDbEntity
  8
_U+30EC_U+30A4_U+30E4_U+30FC 1
 62
   179
420
  2234388
370
     9
  0
POLYLINE
  5
78
330
1F
100
AcDbEntity
  8
_U+30EC_U+30A4_U+30E4_U+30FC 1
 62
   179
420
  2234388
370
     9
100
AcDb2dPolyline
 66
     1
 10
0.0
 20
0.0
 30
0.0
  0
VERTEX
  5
79
330
78
100
AcDbEntity
  8
_U+30EC_U+30A4_U+30E4_U+30FC 1
 62
   179
420
  2234388
370
     9
100
AcDbVertex
100
AcDb2dVertex
 10
96.99670645090306
 20
-156.909134719616
 30
0.0
  0
VERTEX
  5
7A
330
78
100
AcDbEntity
  8
_U+30EC_U+30A4_U+30E4_U+30FC 1
 62
   179
420
  2234388
370
     9
100
AcDbVertex
100
AcDb2dVertex
 10
96.99670645090306
 20
-160.1695084913162
 30
0.0
  0
SEQEND
  5
7B
330
78
100
AcDbEntity
  8
_U+30EC_U+30A4_U+30E4_U+30FC 1
 62
   179
420
  2234388
370
     9
  0
POLYLINE
  5
7C
330
1F
100
AcDbEntity
  8
_U+30EC_U+30A4_U+30E4_U+30FC 1
 62
   179
420
  2234388
370
     9
100
AcDb2dPolyline
 66
     1
 10
0.0
 20
0.0
 30
0.0
  0
VERTEX
  5
7D
330
7C
100
AcDbEntity
  8
_U+30EC_U+30A4_U+30E4_U+30FC 1
 62
   179
420
  2234388
370
     9
100
AcDbVertex
100
AcDb2dVertex
 10
114.9969858517846
 20
-157.1089502577605
 30
0.0
  0
VERTEX
  5
7E
330
7C
100
AcDbEntity
  8
_U+30EC_U+30A4_U+30E4_U+30FC 1
 62
   179
420
  2234388
370
     9
100
AcDbVertex
100
AcDb2dVertex
 10
114.9969858517846
 20
-160.1696592142436
 30
0.0
  0
SEQEND
  5
7F
330
7C
100
AcDbEntity
  8
_U+30EC_U+30A4_U+30E4_U+30FC 1
 62
   179
420
  2234388
370
     9
  0
INSERT
  5
81
330
1F
100
AcDbEntity
  8
_U+30EC_U+30A4_U+30E4_U+30FC 1
100
AcDbBlockReference
  2
block 3
 10
0.0
 20
0.0
 30
0.0
  0
POLYLINE
  5
8A
330
1F
100
AcDbEntity
  8
_U+30EC_U+30A4_U+30E4_U+30FC 1
  6
AI-Linetype-1
 62
   154
420
    23468
370
    25
100
AcDb2dPolyline
 66
     1
 10
0.0
 20
0.0
 30
0.0
  0
VERTEX
  5
8B
330
8A
100
AcDbEntity
  8
_U+30EC_U+30A4_U+30E4_U+30FC 1
  6
AI-Linetype-1
 62
   154
420
    23468
370
    25
100
AcDbVertex
100
AcDb2dVertex
 10
97.9851258774677
 20
-137.1694696719251
 30
0.0
  0
VERTEX
  5
8C
330
8A
100
AcDbEntity
  8
_U+30EC_U+30A4_U+30E4_U+30FC 1
  6
AI-Linetype-1
 62
   154
420
    23468
370
    25
100
AcDbVertex
100
AcDb2dVertex
 10
96.28578946567465
 20
-155.7890911136678
 30
0.0
  0
VERTEX
  5
8D
330
8A
100
AcDbEntity
  8
_U+30EC_U+30A4_U+30E4_U+30FC 1
  6
AI-Linetype-1
 62
   154
420
    23468
370
    25
100
AcDbVertex
100
AcDb2dVertex
 10
114.9971258087887
 20
-155.1696198817263
 30
0.0
  0
SEQEND
  5
8F
330
8A
100
AcDbEntity
  8
_U+30EC_U+30A4_U+30E4_U+30FC 1
  6
AI-Linetype-1
 62
   154
420
    23468
370
    25
  0
POLYLINE
  5
90
330
1F
100
AcDbEntity
  8
_U+30EC_U+30A4_U+30E4_U+30FC 1
 62
   179
420
  2234388
370
     9
100
AcDb2dPolyline
 66
     1
 10
0.0
 20
0.0
 30
0.0
  0
VERTEX
  5
91
330
90
100
AcDbEntity
  8
_U+30EC_U+30A4_U+30E4_U+30FC 1
 62
   179
420
  2234388
370
     9
100
AcDbVertex
100
AcDb2dVertex
 10
108.741381469668
 20
-155.4217362757062
 30
0.0
  0
VERTEX
  5
92
330
90
100
AcDbEntity
  8
_U+30EC_U+30A4_U+30E4_U+30FC 1
 62
   179
420
  2234388
370
     9
100
AcDbVertex
100
AcDb2dVertex
 10
106.5566203380798
 20
-151.7101626546723
 30
0.0
  0
SEQEND
  5
93
330
90
100
AcDbEntity
  8
_U+30EC_U+30A4_U+30E4_U+30FC 1
 62
   179
420
  2234388
370
     9
  0
INSERT
  5
95
330
1F
100
AcDbEntity
  8
_U+30EC_U+30A4_U+30E4_U+30FC 1
100
AcDbBlockReference
  2
block 4
 10
0.0
 20
0.0
 30
0.0
  0
ENDSEC
  0
SECTION
  2
OBJECTS
  0
DICTIONARY
  5
C
330
0
100
AcDbDictionary
281
     1
  3
ACAD_GROUP
350
D
  3
ACAD_LAYOUT
350
1A
  3
ACAD_MATERIAL
350
3B
  3
ACAD_MLEADERSTYLE
350
D3
  3
ACAD_MLINESTYLE
350
17
  3
ACAD_PLOTSETTINGS
350
19
  3
ACAD_PLOTSTYLENAME
350
E
  3
ACAD_TABLESTYLE
350
D2
  3
ACAD_VISUALSTYLE
350
2A
  0
SUN
  5
3F
330
29
100
AcDbSun
 90
        1
290
     0
 63
     7
421
 16777215
 40
1.0
291
     1
 91
  2455826
 92
 54000000
292
     0
 70
     2
 71
   256
280
     1
  0
DICTIONARY
  5
D
102
{ACAD_REACTORS
330
C
102
}
330
C
100
AcDbDictionary
281
     1
  0
DICTIONARY
  5
1A
102
{ACAD_REACTORS
330
C
102
}
330
C
100
AcDbDictionary
281
     1
  3
Layout1
350
1E
  3
Layout2
350
26
  3
Model
350
22
  0
DICTIONARY
  5
3B
102
{ACAD_REACTORS
330
C
102
}
330
C
100
AcDbDictionary
281
     1
  3
ByBlock
350
3D
  3
ByLayer
350
3C
  3
Global
350
3E
  0
DICTIONARY
  5
D3
102
{ACAD_REACTORS
330
C
102
}
330
C
100
AcDbDictionary
281
     1
  0
DICTIONARY
  5
17
102
{ACAD_REACTORS
330
C
102
}
330
C
100
AcDbDictionary
281
     1
  3
Standard
350
18
  0
DICTIONARY
  5
19
102
{ACAD_REACTORS
330
C
102
}
330
C
100
AcDbDictionary
281
     1
  0
ACDBDICTIONARYWDFLT
  5
E
102
{ACAD_REACTORS
330
C
102
}
330
C
100
AcDbDictionary
281
     1
  3
Normal
350
F
100
AcDbDictionaryWithDefault
340
F
  0
DICTIONARY
  5
D2
102
{ACAD_REACTORS
330
C
102
}
330
C
100
AcDbDictionary
281
     1
  0
DICTIONARY
  5
2A
102
{ACAD_REACTORS
330
C
102
}
330
C
100
AcDbDictionary
281
     1
  3
2dWireframe
350
2F
  3
3D Hidden
350
31
  3
3dWireframe
350
30
  3
Basic
350
32
  3
Brighten
350
36
  3
ColorChange
350
3A
  3
Conceptual
350
34
  3
Dim
350
35
  3
Facepattern
350
39
  3
Flat
350
2B
  3
FlatWithEdges
350
2C
  3
Gouraud
350
2D
  3
GouraudWithEdges
350
2E
  3
Linepattern
350
38
  3
Realistic
350
33
  3
Thicken
350
37
  0
LAYOUT
  5
1E
102
{ACAD_REACTORS
330
1A
102
}
330
1A
100
AcDbPlotSettings
  1

  2
none_device
  4

  6

 40
0.0
 41
0.0
 42
0.0
 43
0.0
 44
0.0
 45
0.0
 46
0.0
 47
0.0
 48
0.0
 49
0.0
140
0.0
141
0.0
142
1.0
143
1.0
 70
   688
 72
     0
 73
     0
 74
     5
  7

 75
    16
 76
     0
 77
     2
 78
   300
147
1.0
148
0.0
149
0.0
100
AcDbLayout
  1
Layout1
 70
     1
 71
     1
 10
0.0
 20
0.0
 11
12.0
 21
9.0
 12
0.0
 22
0.0
 32
0.0
 14
1.000000000000000E+20
 24
1.000000000000000E+20
 34
1.000000000000000E+20
 15
-1.000000000000000E+20
 25
-1.000000000000000E+20
 35
-1.000000000000000E+20
146
0.0
 13
0.0
 23
0.0
 33
0.0
 16
1.0
 26
0.0
 36
0.0
 17
0.0
 27
1.0
 37
0.0
 76
     0
330
1B
  0
LAYOUT
  5
26
102
{ACAD_REACTORS
330
1A
102
}
330
1A
100
AcDbPlotSettings
  1

  2
none_device
  4

  6

 40
0.0
 41
0.0
 42
0.0
 43
0.0
 44
0.0
 45
0.0
 46
0.0
 47
0.0
 48
0.0
 49
0.0
140
0.0
141
0.0
142
1.0
143
1.0
 70
   688
 72
     0
 73
     0
 74
     5
  7

 75
    16
 76
     0
 77
     2
 78
   300
147
1.0
148
0.0
149
0.0
100
AcDbLayout
  1
Layout2
 70
     1
 71
     2
 10
0.0
 20
0.0
 11
0.0
 21
0.0
 12
0.0
 22
0.0
 32
0.0
 14
0.0
 24
0.0
 34
0.0
 15
0.0
 25
0.0
 35
0.0
146
0.0
 13
0.0
 23
0.0
 33
0.0
 16
1.0
 26
0.0
 36
0.0
 17
0.0
 27
1.0
 37
0.0
 76
     0
330
23
  0
LAYOUT
  5
22
102
{ACAD_REACTORS
330
1A
102
}
330
1A
100
AcDbPlotSettings
  1

  2
none_device
  4

  6

 40
0.0
 41
0.0
 42
0.0
 43
0.0
 44
0.0
 45
0.0
 46
0.0
 47
0.0
 48
0.0
 49
0.0
140
0.0
141
0.0
142
1.0
143
1.0
 70
  1712
 72
     0
 73
     0
 74
     0
  7

 75
     0
 76
     0
 77
     2
 78
   300
147
1.0
148
0.0
149
0.0
100
AcDbLayout
  1
Model
 70
     1
 71
     0
 10
0.0
 20
0.0
 11
12.0
 21
9.0
 12
0.0
 22
0.0
 32
0.0
 14
1.000000000000000E+20
 24
1.000000000000000E+20
 34
1.000000000000000E+20
 15
-1.000000000000000E+20
 25
-1.000000000000000E+20
 35
-1.000000000000000E+20
146
0.0
 13
0.0
 23
0.0
 33
0.0
 16
1.0
 26
0.0
 36
0.0
 17
0.0
 27
1.0
 37
0.0
 76
     0
330
1F
331
29
  0
MATERIAL
  5
3D
102
{ACAD_REACTORS
330
3B
102
}
330
3B
100
AcDbMaterial
  1
ByBlock
 72
     1
 94
      127
  0
MATERIAL
  5
3C
102
{ACAD_REACTORS
330
3B
102
}
330
3B
100
AcDbMaterial
  1
ByLayer
 72
     1
 94
      127
  0
MATERIAL
  5
3E
102
{ACAD_REACTORS
330
3B
102
}
330
3B
100
AcDbMaterial
  1
Global
 72
     1
 94
      127
  0
MLINESTYLE
  5
18
102
{ACAD_REACTORS
330
17
102
}
330
17
100
AcDbMlineStyle
  2
Standard
 70
     0
  3

 62
   256
 51
90.0
 52
90.0
 71
     2
 49
0.5
 62
   256
  6
BYLAYER
 49
-0.5
 62
   256
  6
BYLAYER
  0
ACDBPLACEHOLDER
  5
F
102
{ACAD_REACTORS
330
E
102
}
330
E
  0
VISUALSTYLE
  5
2F
102
{ACAD_REACTORS
330
2A
102
}
330
2A
100
AcDbVisualStyle
  2
2dWireframe
 70
     4
177
     2
291
     0
 71
     0
176
     1
 72
     2
176
     1
 73
     0
176
     1
 90
        0
176
     1
 40
-0.6
176
     1
 41
-30.0
176
     1
 62
     5
 63
     7
421
 16777215
176
     1
 74
     1
176
     1
 91
        4
176
     1
 64
     7
176
     1
 65
   257
176
     1
 75
     1
176
     1
175
     1
176
     1
 42
1.0
176
     1
 92
        0
176
     1
 66
   257
176
     1
 43
1.0
176
     1
 76
     1
176
     1
 77
     6
176
     1
 78
     2
176
     1
 67
     7
176
     1
 79
     5
176
     1
170
     0
176
     1
171
     0
176
     1
290
     0
176
     1
 93
        1
176
     1
 44
0.0
176
     1
173
     0
176
     1
  0
VISUALSTYLE
  5
31
102
{ACAD_REACTORS
330
2A
102
}
330
2A
100
AcDbVisualStyle
  2
3D Hidden
 70
     6
177
     2
291
     0
 71
     1
176
     1
 72
     2
176
     1
 73
     2
176
     1
 90
        0
176
     1
 40
-0.6
176
     1
 41
-30.0
176
     1
 62
     5
 63
     7
421
 16777215
176
     1
 74
     2
176
     1
 91
        2
176
     1
 64
     7
176
     1
 65
   257
176
     1
 75
     2
176
     1
175
     1
176
     1
 42
40.0
176
     1
 92
        0
176
     1
 66
   257
176
     1
 43
1.0
176
     1
 76
     1
176
     1
 77
     6
176
     1
 78
     2
176
     1
 67
     7
176
     1
 79
     3
176
     1
170
     0
176
     1
171
     0
176
     1
290
     0
176
     1
 93
        1
176
     1
 44
0.0
176
     1
173
     0
176
     1
  0
VISUALSTYLE
  5
30
102
{ACAD_REACTORS
330
2A
102
}
330
2A
100
AcDbVisualStyle
  2
3dWireframe
 70
     5
177
     2
291
     0
 71
     0
176
     1
 72
     2
176
     1
 73
     0
176
     1
 90
        0
176
     1
 40
-0.6
176
     1
 41
-30.0
176
     1
 62
     5
 63
     7
421
 16777215
176
     1
 74
     1
176
     1
 91
        4
176
     1
 64
     7
176
     1
 65
   257
176
     1
 75
     1
176
     1
175
     1
176
     1
 42
1.0
176
     1
 92
        0
176
     1
 66
   257
176
     1
 43
1.0
176
     1
 76
     1
176
     1
 77
     6
176
     1
 78
     2
176
     1
 67
     7
176
     1
 79
     5
176
     1
170
     0
176
     1
171
     0
176
     1
290
     0
176
     1
 93
        1
176
     1
 44
0.0
176
     1
173
     0
176
     1
  0
VISUALSTYLE
  5
32
102
{ACAD_REACTORS
330
2A
102
}
330
2A
100
AcDbVisualStyle
  2
Basic
 70
     7
177
     2
291
     1
 71
     1
176
     1
 72
     0
176
     1
 73
     1
176
     1
 90
        0
176
     1
 40
-0.6
176
     1
 41
-30.0
176
     1
 62
     5
 63
     7
421
 16777215
176
     1
 74
     0
176
     1
 91
        4
176
     1
 64
     7
176
     1
 65
   257
176
     1
 75
     1
176
     1
175
     1
176
     1
 42
1.0
176
     1
 92
        8
176
     1
 66
     7
176
     1
 43
1.0
176
     1
 76
     1
176
     1
 77
     6
176
     1
 78
     2
176
     1
 67
     7
176
     1
 79
     5
176
     1
170
     0
176
     1
171
     0
176
     1
290
     0
176
     1
 93
        1
176
     1
 44
0.0
176
     1
173
     0
176
     1
  0
VISUALSTYLE
  5
36
102
{ACAD_REACTORS
330
2A
102
}
330
2A
100
AcDbVisualStyle
  2
Brighten
 70
    12
177
     2
291
     1
 71
     2
176
     1
 72
     2
176
     1
 73
     0
176
     1
 90
        0
176
     1
 40
-0.6
176
     1
 41
-30.0
176
     1
 62
     5
 63
     7
421
 16777215
176
     1
 74
     1
176
     1
 91
        4
176
     1
 64
     7
176
     1
 65
   257
176
     1
 75
     1
176
     1
175
     1
176
     1
 42
1.0
176
     1
 92
        8
176
     1
 66
     7
176
     1
 43
1.0
176
     1
 76
     1
176
     1
 77
     6
176
     1
 78
     2
176
     1
 67
     7
176
     1
 79
     5
176
     1
170
     0
176
     1
171
     0
176
     1
290
     0
176
     1
 93
        1
176
     1
 44
50.0
176
     1
173
     0
176
     1
  0
VISUALSTYLE
  5
3A
102
{ACAD_REACTORS
330
2A
102
}
330
2A
100
AcDbVisualStyle
  2
ColorChange
 70
    16
177
     2
291
     1
 71
     2
176
     1
 72
     2
176
     1
 73
     3
176
     1
 90
        0
176
     1
 40
-0.6
176
     1
 41
-30.0
176
     1
 62
     5
 63
     8
421
  8421504
176
     1
 74
     1
176
     1
 91
        4
176
     1
 64
     7
176
     1
 65
   257
176
     1
 75
     1
176
     1
175
     1
176
     1
 42
1.0
176
     1
 92
        8
176
     1
 66
     8
424
  8421504
176
     1
 43
1.0
176
     1
 76
     1
176
     1
 77
     6
176
     1
 78
     2
176
     1
 67
     7
176
     1
 79
     5
176
     1
170
     0
176
     1
171
     0
176
     1
290
     0
176
     1
 93
        1
176
     1
 44
0.0
176
     1
173
     0
176
     1
  0
VISUALSTYLE
  5
34
102
{ACAD_REACTORS
330
2A
102
}
330
2A
100
AcDbVisualStyle
  2
Conceptual
 70
     9
177
     2
291
     0
 71
     3
176
     1
 72
     2
176
     1
 73
     0
176
     1
 90
        0
176
     1
 40
-0.6
176
     1
 41
-30.0
176
     1
 62
     5
 63
     7
421
 16777215
176
     1
 74
     2
176
     1
 91
        2
176
     1
 64
     7
176
     1
 65
   257
176
     1
 75
     1
176
     1
175
     1
176
     1
 42
40.0
176
     1
 92
        8
176
     1
 66
     7
176
     1
 43
1.0
176
     1
 76
     1
176
     1
 77
     6
176
     1
 78
     2
176
     1
 67
     7
176
     1
 79
     3
176
     1
170
     0
176
     1
171
     0
176
     1
290
     0
176
     1
 93
        1
176
     1
 44
0.0
176
     1
173
     0
176
     1
  0
VISUALSTYLE
  5
35
102
{ACAD_REACTORS
330
2A
102
}
330
2A
100
AcDbVisualStyle
  2
Dim
 70
    11
177
     2
291
     1
 71
     2
176
     1
 72
     2
176
     1
 73
     0
176
     1
 90
        0
176
     1
 40
-0.6
176
     1
 41
-30.0
176
     1
 62
     5
 63
     7
421
 16777215
176
     1
 74
     1
176
     1
 91
        4
176
     1
 64
     7
176
     1
 65
   257
176
     1
 75
     1
176
     1
175
     1
176
     1
 42
1.0
176
     1
 92
        8
176
     1
 66
     7
176
     1
 43
1.0
176
     1
 76
     1
176
     1
 77
     6
176
     1
 78
     2
176
     1
 67
     7
176
     1
 79
     5
176
     1
170
     0
176
     1
171
     0
176
     1
290
     0
176
     1
 93
        1
176
     1
 44
-50.0
176
     1
173
     0
176
     1
  0
VISUALSTYLE
  5
39
102
{ACAD_REACTORS
330
2A
102
}
330
2A
100
AcDbVisualStyle
  2
Facepattern
 70
    15
177
     2
291
     1
 71
     2
176
     1
 72
     2
176
     1
 73
     0
176
     1
 90
        0
176
     1
 40
-0.6
176
     1
 41
-30.0
176
     1
 62
     5
 63
     7
421
 16777215
176
     1
 74
     1
176
     1
 91
        4
176
     1
 64
     7
176
     1
 65
   257
176
     1
 75
     1
176
     1
175
     1
176
     1
 42
1.0
176
     1
 92
        8
176
     1
 66
     7
176
     1
 43
1.0
176
     1
 76
     1
176
     1
 77
     6
176
     1
 78
     2
176
     1
 67
     7
176
     1
 79
     5
176
     1
170
     0
176
     1
171
     0
176
     1
290
     0
176
     1
 93
        1
176
     1
 44
0.0
176
     1
173
     0
176
     1
  0
VISUALSTYLE
  5
2B
102
{ACAD_REACTORS
330
2A
102
}
330
2A
100
AcDbVisualStyle
  2
Flat
 70
     0
177
     2
291
     1
 71
     2
176
     1
 72
     1
176
     1
 73
     1
176
     1
 90
        2
176
     1
 40
-0.6
176
     1
 41
30.0
176
     1
 62
     5
 63
     7
421
 16777215
176
     1
 74
     0
176
     1
 91
        4
176
     1
 64
     7
176
     1
 65
   257
176
     1
 75
     1
176
     1
175
     1
176
     1
 42
1.0
176
     1
 92
        8
176
     1
 66
     7
176
     1
 43
1.0
176
     1
 76
     1
176
     1
 77
     6
176
     1
 78
     2
176
     1
 67
     7
176
     1
 79
     5
176
     1
170
     0
176
     1
171
     0
176
     1
290
     0
176
     1
 93
       13
176
     1
 44
0.0
176
     1
173
     0
176
     1
  0
VISUALSTYLE
  5
2C
102
{ACAD_REACTORS
330
2A
102
}
330
2A
100
AcDbVisualStyle
  2
FlatWithEdges
 70
     1
177
     2
291
     1
 71
     2
176
     1
 72
     1
176
     1
 73
     1
176
     1
 90
        2
176
     1
 40
-0.6
176
     1
 41
30.0
176
     1
 62
     5
 63
     7
421
 16777215
176
     1
 74
     1
176
     1
 91
        4
176
     1
 64
     7
176
     1
 65
   257
176
     1
 75
     1
176
     1
175
     1
176
     1
 42
1.0
176
     1
 92
        0
176
     1
 66
   257
176
     1
 43
1.0
176
     1
 76
     1
176
     1
 77
     6
176
     1
 78
     2
176
     1
 67
     7
176
     1
 79
     5
176
     1
170
     0
176
     1
171
     0
176
     1
290
     0
176
     1
 93
       13
176
     1
 44
0.0
176
     1
173
     0
176
     1
  0
VISUALSTYLE
  5
2D
102
{ACAD_REACTORS
330
2A
102
}
330
2A
100
AcDbVisualStyle
  2
Gouraud
 70
     2
177
     2
291
     1
 71
     2
176
     1
 72
     2
176
     1
 73
     1
176
     1
 90
        2
176
     1
 40
-0.6
176
     1
 41
30.0
176
     1
 62
     5
 63
     7
421
 16777215
176
     1
 74
     0
176
     1
 91
        4
176
     1
 64
     7
176
     1
 65
   257
176
     1
 75
     1
176
     1
175
     1
176
     1
 42
1.0
176
     1
 92
        0
176
     1
 66
     7
176
     1
 43
1.0
176
     1
 76
     1
176
     1
 77
     6
176
     1
 78
     2
176
     1
 67
     7
176
     1
 79
     5
176
     1
170
     0
176
     1
171
     0
176
     1
290
     0
176
     1
 93
       13
176
     1
 44
0.0
176
     1
173
     0
176
     1
  0
VISUALSTYLE
  5
2E
102
{ACAD_REACTORS
330
2A
102
}
330
2A
100
AcDbVisualStyle
  2
GouraudWithEdges
 70
     3
177
     2
291
     1
 71
     2
176
     1
 72
     2
176
     1
 73
     1
176
     1
 90
        2
176
     1
 40
-0.6
176
     1
 41
30.0
176
     1
 62
     5
 63
     7
421
 16777215
176
     1
 74
     1
176
     1
 91
        4
176
     1
 64
     7
176
     1
 65
   257
176
     1
 75
     1
176
     1
175
     1
176
     1
 42
1.0
176
     1
 92
        0
176
     1
 66
   257
176
     1
 43
1.0
176
     1
 76
     1
176
     1
 77
     6
176
     1
 78
     2
176
     1
 67
     7
176
     1
 79
     5
176
     1
170
     0
176
     1
171
     0
176
     1
290
     0
176
     1
 93
       13
176
     1
 44
0.0
176
     1
173
     0
176
     1
  0
VISUALSTYLE
  5
38
102
{ACAD_REACTORS
330
2A
102
}
330
2A
100
AcDbVisualStyle
  2
Linepattern
 70
    14
177
     2
291
     1
 71
     2
176
     1
 72
     2
176
     1
 73
     0
176
     1
 90
        0
176
     1
 40
-0.6
176
     1
 41
-30.0
176
     1
 62
     5
 63
     7
421
 16777215
176
     1
 74
     1
176
     1
 91
        4
176
     1
 64
     7
176
     1
 65
   257
176
     1
 75
     7
176
     1
175
     7
176
     1
 42
1.0
176
     1
 92
        8
176
     1
 66
     7
176
     1
 43
1.0
176
     1
 76
     1
176
     1
 77
     6
176
     1
 78
     2
176
     1
 67
     7
176
     1
 79
     5
176
     1
170
     0
176
     1
171
     0
176
     1
290
     0
176
     1
 93
        1
176
     1
 44
0.0
176
     1
173
     0
176
     1
  0
VISUALSTYLE
  5
33
102
{ACAD_REACTORS
330
2A
102
}
330
2A
100
AcDbVisualStyle
  2
Realistic
 70
     8
177
     2
291
     0
 71
     2
176
     1
 72
     2
176
     1
 73
     0
176
     1
 90
        0
176
     1
 40
-0.6
176
     1
 41
-30.0
176
     1
 62
     5
 63
     7
421
 16777215
176
     1
 74
     1
176
     1
 91
        0
176
     1
 64
     7
176
     1
 65
   257
176
     1
 75
     1
176
     1
175
     1
176
     1
 42
1.0
176
     1
 92
        8
176
     1
 66
     8
424
  7895160
176
     1
 43
1.0
176
     1
 76
     1
176
     1
 77
     6
176
     1
 78
     2
176
     1
 67
     7
176
     1
 79
     5
176
     1
170
     0
176
     1
171
     0
176
     1
290
     0
176
     1
 93
       13
176
     1
 44
0.0
176
     1
173
     0
176
     1
  0
VISUALSTYLE
  5
37
102
{ACAD_REACTORS
330
2A
102
}
330
2A
100
AcDbVisualStyle
  2
Thicken
 70
    13
177
     2
291
     1
 71
     2
176
     1
 72
     2
176
     1
 73
     0
176
     1
 90
        0
176
     1
 40
-0.6
176
     1
 41
-30.0
176
     1
 62
     5
 63
     7
421
 16777215
176
     1
 74
     1
176
     1
 91
        4
176
     1
 64
     7
176
     1
 65
   257
176
     1
 75
     1
176
     1
175
     1
176
     1
 42
1.0
176
     1
 92
       12
176
     1
 66
     7
176
     1
 43
1.0
176
     1
 76
     1
176
     1
 77
     6
176
     1
 78
     2
176
     1
 67
     7
176
     1
 79
     5
176
     1
170
     0
176
     1
171
     0
176
     1
290
     0
176
     1
 93
        1
176
     1
 44
0.0
176
     1
173
     0
176
     1
  0
ENDSEC
  0
EOF
