  0
SECTION
  2
HEADER
  9
$ACADVER
  1
AC1024
  9
$ACADMAINTVER
 70
     6
  9
$DWGCODEPAGE
  3
UNDEFINED
  9
$INSBASE
 10
0.0
 20
0.0
 30
0.0
  9
$EXTMIN
 10
1.000000000000000E+20
 20
1.000000000000000E+20
 30
1.000000000000000E+20
  9
$EXTMAX
 10
-1.000000000000000E+20
 20
-1.000000000000000E+20
 30
-1.000000000000000E+20
  9
$LIMMIN
 10
0.0
 20
0.0
  9
$LIMMAX
 10
12.0
 20
9.0
  9
$ORTHOMODE
 70
     0
  9
$REGENMODE
 70
     1
  9
$FILLMODE
 70
     1
  9
$QTEXTMODE
 70
     0
  9
$MIRRTEXT
 70
     1
  9
$LTSCALE
 40
1.0
  9
$ATTMODE
 70
     1
  9
$TEXTSIZE
 40
0.2
  9
$TRACEWID
 40
0.05
  9
$TEXTSTYLE
  7
Standard
  9
$CLAYER
  8
0
  9
$CELTYPE
  6
ByLayer
  9
$CECOLOR
 62
   256
  9
$CELTSCALE
 40
1.0
  9
$DISPSILH
 70
     0
  9
$DIMSCALE
 40
1.0
  9
$DIMASZ
 40
0.18
  9
$DIMEXO
 40
0.0625
  9
$DIMDLI
 40
0.38
  9
$DIMRND
 40
0.0
  9
$DIMDLE
 40
0.0
  9
$DIMEXE
 40
0.18
  9
$DIMTP
 40
0.0
  9
$DIMTM
 40
0.0
  9
$DIMTXT
 40
0.18
  9
$DIMCEN
 40
0.09
  9
$DIMTSZ
 40
0.0
  9
$DIMTOL
 70
     0
  9
$DIMLIM
 70
     0
  9
$DIMTIH
 70
     1
  9
$DIMTOH
 70
     1
  9
$DIMSE1
 70
     0
  9
$DIMSE2
 70
     0
  9
$DIMTAD
 70
     0
  9
$DIMZIN
 70
     0
  9
$DIMBLK
  1

  9
$DIMASO
 70
     1
  9
$DIMSHO
 70
     1
  9
$DIMPOST
  1

  9
$DIMAPOST
  1

  9
$DIMALT
 70
     0
  9
$DIMALTD
 70
     2
  9
$DIMALTF
 40
25.4
  9
$DIMLFAC
 40
1.0
  9
$DIMTOFL
 70
     0
  9
$DIMTVP
 40
0.0
  9
$DIMTIX
 70
     0
  9
$DIMSOXD
 70
     0
  9
$DIMSAH
 70
     0
  9
$DIMBLK1
  1

  9
$DIMBLK2
  1

  9
$DIMSTYLE
  2
Standard
  9
$DIMCLRD
 70
     0
  9
$DIMCLRE
 70
     0
  9
$DIMCLRT
 70
     0
  9
$DIMTFAC
 40
1.0
  9
$DIMGAP
 40
0.09
  9
$DIMJUST
 70
     0
  9
$DIMSD1
 70
     0
  9
$DIMSD2
 70
     0
  9
$DIMTOLJ
 70
     1
  9
$DIMTZIN
 70
     0
  9
$DIMALTZ
 70
     0
  9
$DIMALTTZ
 70
     0
  9
$DIMUPT
 70
     0
  9
$DIMDEC
 70
     4
  9
$DIMTDEC
 70
     4
  9
$DIMALTU
 70
     2
  9
$DIMALTTD
 70
     2
  9
$DIMTXSTY
  7
Standard
  9
$DIMAUNIT
 70
     0
  9
$DIMADEC
 70
     0
  9
$DIMALTRND
 40
0.0
  9
$DIMAZIN
 70
     0
  9
$DIMDSEP
 70
    46
  9
$DIMATFIT
 70
     3
  9
$DIMFRAC
 70
     0
  9
$DIMLDRBLK
  1

  9
$DIMLUNIT
 70
     2
  9
$DIMLWD
 70
    -2
  9
$DIMLWE
 70
    -2
  9
$DIMTMOVE
 70
     0
  9
$DIMFXL
 40
1.0
  9
$DIMFXLON
 70
     0
  9
$DIMJOGANG
 40
0.7853981633974483
  9
$DIMTFILL
 70
     0
  9
$DIMTFILLCLR
 70
     0
  9
$DIMARCSYM
 70
     0
  9
$DIMLTYPE
  6

  9
$DIMLTEX1
  6

  9
$DIMLTEX2
  6

  9
$DIMTXTDIRECTION
 70
     0
  9
$LUNITS
 70
     2
  9
$LUPREC
 70
     4
  9
$SKETCHINC
 40
0.1
  9
$FILLETRAD
 40
0.5
  9
$AUNITS
 70
     0
  9
$AUPREC
 70
     0
  9
$MENU
  1
.
  9
$ELEVATION
 40
0.0
  9
$PELEVATION
 40
0.0
  9
$THICKNESS
 40
0.0
  9
$LIMCHECK
 70
     0
  9
$CHAMFERA
 40
0.5
  9
$CHAMFERB
 40
0.5
  9
$CHAMFERC
 40
1.0
  9
$CHAMFERD
 40
0.0
  9
$SKPOLY
 70
     0
  9
$TDCREATE
 40
2457917.583275463
  9
$TDUCREATE
 40
2457917.208275463
  9
$TDUPDATE
 40
2457917.583275463
  9
$TDUUPDATE
 40
2457917.208275463
  9
$TDINDWG
 40
0.0000000116
  9
$TDUSRTIMER
 40
0.0000000116
  9
$USRTIMER
 70
     1
  9
$ANGBASE
 50
0.0
  9
$ANGDIR
 70
     0
  9
$PDMODE
 70
     0
  9
$PDSIZE
 40
0.0
  9
$PLINEWID
 40
0.0
  9
$SPLFRAME
 70
     0
  9
$SPLINETYPE
 70
     6
  9
$SPLINESEGS
 70
     8
  9
$HANDSEED
  5
A7
  9
$SURFTAB1
 70
     6
  9
$SURFTAB2
 70
     6
  9
$SURFTYPE
 70
     6
  9
$SURFU
 70
     6
  9
$SURFV
 70
     6
  9
$UCSBASE
  2

  9
$UCSNAME
  2

  9
$UCSORG
 10
0.0
 20
0.0
 30
0.0
  9
$UCSXDIR
 10
1.0
 20
0.0
 30
0.0
  9
$UCSYDIR
 10
0.0
 20
1.0
 30
0.0
  9
$UCSORTHOREF
  2

  9
$UCSORTHOVIEW
 70
     0
  9
$UCSORGTOP
 10
0.0
 20
0.0
 30
0.0
  9
$UCSORGBOTTOM
 10
0.0
 20
0.0
 30
0.0
  9
$UCSORGLEFT
 10
0.0
 20
0.0
 30
0.0
  9
$UCSORGRIGHT
 10
0.0
 20
0.0
 30
0.0
  9
$UCSORGFRONT
 10
0.0
 20
0.0
 30
0.0
  9
$UCSORGBACK
 10
0.0
 20
0.0
 30
0.0
  9
$PUCSBASE
  2

  9
$PUCSNAME
  2

  9
$PUCSORG
 10
0.0
 20
0.0
 30
0.0
  9
$PUCSXDIR
 10
1.0
 20
0.0
 30
0.0
  9
$PUCSYDIR
 10
0.0
 20
1.0
 30
0.0
  9
$PUCSORTHOREF
  2

  9
$PUCSORTHOVIEW
 70
     0
  9
$PUCSORGTOP
 10
0.0
 20
0.0
 30
0.0
  9
$PUCSORGBOTTOM
 10
0.0
 20
0.0
 30
0.0
  9
$PUCSORGLEFT
 10
0.0
 20
0.0
 30
0.0
  9
$PUCSORGRIGHT
 10
0.0
 20
0.0
 30
0.0
  9
$PUCSORGFRONT
 10
0.0
 20
0.0
 30
0.0
  9
$PUCSORGBACK
 10
0.0
 20
0.0
 30
0.0
  9
$USERI1
 70
     0
  9
$USERI2
 70
     0
  9
$USERI3
 70
     0
  9
$USERI4
 70
     0
  9
$USERI5
 70
     0
  9
$USERR1
 40
0.0
  9
$USERR2
 40
0.0
  9
$USERR3
 40
0.0
  9
$USERR4
 40
0.0
  9
$USERR5
 40
0.0
  9
$WORLDVIEW
 70
     1
  9
$SHADEDGE
 70
     3
  9
$SHADEDIF
 70
    70
  9
$TILEMODE
 70
     1
  9
$MAXACTVP
 70
    64
  9
$PINSBASE
 10
0.0
 20
0.0
 30
0.0
  9
$PLIMCHECK
 70
     0
  9
$PEXTMIN
 10
1.000000000000000E+20
 20
1.000000000000000E+20
 30
1.000000000000000E+20
  9
$PEXTMAX
 10
-1.000000000000000E+20
 20
-1.000000000000000E+20
 30
-1.000000000000000E+20
  9
$PLIMMIN
 10
0.0
 20
0.0
  9
$PLIMMAX
 10
12.0
 20
9.0
  9
$UNITMODE
 70
     0
  9
$VISRETAIN
 70
     1
  9
$PLINEGEN
 70
     0
  9
$PSLTSCALE
 70
     1
  9
$TREEDEPTH
 70
  3020
  9
$CMLSTYLE
  2
Standard
  9
$CMLJUST
 70
     0
  9
$CMLSCALE
 40
1.0
  9
$PROXYGRAPHICS
 70
     1
  9
$MEASUREMENT
 70
     0
  9
$CELWEIGHT
370
    -1
  9
$ENDCAPS
280
     0
  9
$JOINSTYLE
280
     0
  9
$LWDISPLAY
290
     1
  9
$INSUNITS
 70
     1
  9
$HYPERLINKBASE
  1

  9
$STYLESHEET
  1

  9
$XEDIT
290
     1
  9
$CEPSNTYPE
380
     0
  9
$PSTYLEMODE
290
     1
  9
$FINGERPRINTGUID
  2
{C37A5ECC-2921-06D7-51E6-A2BD52C388CC}
  9
$VERSIONGUID
  2
{FAEB1C32-E019-11D5-929B-00C0DF256EC4}
  9
$EXTNAMES
290
     1
  9
$PSVPSCALE
 40
0.0
  9
$OLESTARTUP
290
     0
  9
$SORTENTS
280
   127
  9
$INDEXCTL
280
     0
  9
$HIDETEXT
280
     1
  9
$XCLIPFRAME
280
     2
  9
$HALOGAP
280
     0
  9
$OBSCOLOR
 70
   257
  9
$OBSLTYPE
280
     0
  9
$INTERSECTIONDISPLAY
280
     0
  9
$INTERSECTIONCOLOR
 70
   257
  9
$DIMASSOC
280
     2
  9
$PROJECTNAME
  1

  9
$CAMERADISPLAY
290
     0
  9
$LENSLENGTH
 40
50.0
  9
$CAMERAHEIGHT
 40
0.0
  9
$STEPSPERSEC
 40
2.0
  9
$STEPSIZE
 40
6.0
  9
$3DDWFPREC
 40
2.0
  9
$PSOLWIDTH
 40
0.25
  9
$PSOLHEIGHT
 40
4.0
  9
$LOFTANG1
 40
1.570796326794897
  9
$LOFTANG2
 40
1.570796326794897
  9
$LOFTMAG1
 40
0.0
  9
$LOFTMAG2
 40
0.0
  9
$LOFTPARAM
 70
     7
  9
$LOFTNORMALS
280
     1
  9
$LATITUDE
 40
37.795
  9
$LONGITUDE
 40
-122.394
  9
$NORTHDIRECTION
 40
0.0
  9
$TIMEZONE
 70
 -8000
  9
$LIGHTGLYPHDISPLAY
280
     1
  9
$TILEMODELIGHTSYNCH
280
     1
  9
$CMATERIAL
347
3C
  9
$SOLIDHIST
280
     1
  9
$SHOWHIST
280
     1
  9
$DWFFRAME
280
     2
  9
$DGNFRAME
280
     2
  9
$REALWORLDSCALE
290
     1
  9
$INTERFERECOLOR
 62
   256
  9
$CSHADOW
280
     0
  9
$SHADOWPLANELOCATION
 40
0.0
  0
ENDSEC
  0
SECTION
  2
CLASSES
  0
CLASS
  1
ACDBDICTIONARYWDFLT
  2
AcDbDictionaryWithDefault
  3
ObjectDBX Classes
 90
        0
 91
        4
280
     0
281
     0
  0
CLASS
  1
VISUALSTYLE
  2
AcDbVisualStyle
  3
ObjectDBX Classes
 90
     4095
 91
        4
280
     0
281
     0
  0
CLASS
  1
MATERIAL
  2
AcDbMaterial
  3
ObjectDBX Classes
 90
     1153
 91
        4
280
     0
281
     0
  0
CLASS
  1
SUN
  2
AcDbSun
  3
SCENEOE
 90
     1024
 91
        4
280
     0
281
     0
  0
ENDSEC
  0
SECTION
  2
TABLES
  0
TABLE
  2
VPORT
  5
8
330
0
100
AcDbSymbolTable
 70
     1
  0
VPORT
  5
29
330
8
100
AcDbSymbolTableRecord
100
AcDbViewportTableRecord
  2
*Active
 70
     0
 10
0.0
 20
0.0
 11
1.0
 21
1.0
 12
0.0
 22
0.0
 13
0.0
 23
0.0
 14
0.5
 24
0.5
 15
0.5
 25
0.5
 16
0.0
 26
0.0
 36
1.0
 17
91.00082462281999
 27
-128.4993055234307
 37
0.0
 40
256.9986110468615
 41
0.7081814508812795
 42
50.0
 43
0.0
 44
0.0
 50
0.0
 51
0.0
 71
     0
 72
   100
 73
     1
 74
     3
 75
     0
 76
     0
 77
     0
 78
     0
281
     0
 65
     1
110
0.0
120
0.0
130
0.0
111
1.0
121
0.0
131
0.0
112
0.0
122
1.0
132
0.0
 79
     0
146
0.0
 60
     3
 61
     5
292
     1
282
     1
141
0.0
142
0.0
 63
   250
361
3F
  0
ENDTAB
  0
TABLE
  2
LTYPE
  5
5
330
0
100
AcDbSymbolTable
 70
     1
  0
LTYPE
  5
14
330
5
100
AcDbSymbolTableRecord
100
AcDbLinetypeTableRecord
  2
ByBlock
 70
     0
  3

 72
    65
 73
     0
 40
0.0
  0
LTYPE
  5
15
330
5
100
AcDbSymbolTableRecord
100
AcDbLinetypeTableRecord
  2
ByLayer
 70
     0
  3

 72
    65
 73
     0
 40
0.0
  0
LTYPE
  5
16
330
5
100
AcDbSymbolTableRecord
100
AcDbLinetypeTableRecord
  2
Continuous
 70
     0
  3
Solid line
 72
    65
 73
     0
 40
0.0
  0
ENDTAB
  0
TABLE
  2
LAYER
  5
2
330
0
100
AcDbSymbolTable
 70
     2
  0
LAYER
  5
10
330
2
100
AcDbSymbolTableRecord
100
AcDbLayerTableRecord
  2
0
 70
     0
 62
     7
  6
Continuous
370
    -3
390
F
347
3E
  0
LAYER
  5
40
330
2
100
AcDbSymbolTableRecord
100
AcDbLayerTableRecord
  2
_U+30EC_U+30A4_U+30E4_U+30FC 1
 70
     0
 62
     7
  6
Continuous
370
    -3
390
F
347
3E
  0
ENDTAB
  0
TABLE
  2
STYLE
  5
3
330
0
100
AcDbSymbolTable
 70
     1
  0
STYLE
  5
11
330
3
100
AcDbSymbolTableRecord
100
AcDbTextStyleTableRecord
  2
Standard
 70
     0
 40
0.0
 41
1.0
 50
0.0
 71
     0
 42
0.2
  3
txt
  4

  0
ENDTAB
  0
TABLE
  2
VIEW
  5
6
330
0
100
AcDbSymbolTable
 70
     0
  0
ENDTAB
  0
TABLE
  2
UCS
  5
7
330
0
100
AcDbSymbolTable
 70
     0
  0
ENDTAB
  0
TABLE
  2
APPID
  5
9
330
0
100
AcDbSymbolTable
 70
     1
  0
APPID
  5
12
330
9
100
AcDbSymbolTableRecord
100
AcDbRegAppTableRecord
  2
ACAD
 70
     0
  0
ENDTAB
  0
TABLE
  2
DIMSTYLE
  5
A
330
0
100
AcDbSymbolTable
 70
     1
100
AcDbDimStyleTable
  0
DIMSTYLE
105
27
330
A
100
AcDbSymbolTableRecord
100
AcDbDimStyleTableRecord
  2
Standard
 70
     0
178
     0
340
11
  0
ENDTAB
  0
TABLE
  2
BLOCK_RECORD
  5
1
330
0
100
AcDbSymbolTable
 70
     6
  0
BLOCK_RECORD
  5
1F
330
1
100
AcDbSymbolTableRecord
100
AcDbBlockTableRecord
  2
*Model_Space
340
22
 70
     0
280
     1
281
     0
  0
BLOCK_RECORD
  5
1B
330
1
100
AcDbSymbolTableRecord
100
AcDbBlockTableRecord
  2
*Paper_Space
340
1E
 70
     0
280
     1
281
     0
  0
BLOCK_RECORD
  5
23
330
1
100
AcDbSymbolTableRecord
100
AcDbBlockTableRecord
  2
*Paper_Space0
340
26
 70
     0
280
     1
281
     0
  0
BLOCK_RECORD
  5
50
330
1
100
AcDbSymbolTableRecord
100
AcDbBlockTableRecord
  2
block 2
340
0
102
{BLKREFS
331
51
102
}
 70
     0
280
     1
281
     0
  0
BLOCK_RECORD
  5
69
330
1
100
AcDbSymbolTableRecord
100
AcDbBlockTableRecord
  2
block 3
340
0
102
{BLKREFS
331
6A
102
}
 70
     0
280
     1
281
     0
  0
BLOCK_RECORD
  5
77
330
1
100
AcDbSymbolTableRecord
100
AcDbBlockTableRecord
  2
block 4
340
0
102
{BLKREFS
331
78
102
}
 70
     0
280
     1
281
     0
  0
BLOCK_RECORD
  5
92
330
1
100
AcDbSymbolTableRecord
100
AcDbBlockTableRecord
  2
block 5
340
0
102
{BLKREFS
331
93
102
}
 70
     0
280
     1
281
     0
  0
BLOCK_RECORD
  5
9B
330
1
100
AcDbSymbolTableRecord
100
AcDbBlockTableRecord
  2
block 6
340
0
102
{BLKREFS
331
9C
102
}
 70
     0
280
     1
281
     0
  0
ENDTAB
  0
ENDSEC
  0
SECTION
  2
BLOCKS
  0
BLOCK
  5
20
330
1F
100
AcDbEntity
  8
0
100
AcDbBlockBegin
  2
*Model_Space
 70
     0
 10
0.0
 20
0.0
 30
0.0
  3
*Model_Space
  1

  0
ENDBLK
  5
21
330
1F
100
AcDbEntity
  8
0
100
AcDbBlockEnd
  0
BLOCK
  5
1C
330
1B
100
AcDbEntity
 67
     1
  8
0
100
AcDbBlockBegin
  2
*Paper_Space
 70
     0
 10
0.0
 20
0.0
 30
0.0
  3
*Paper_Space
  1

  0
ENDBLK
  5
1D
330
1B
100
AcDbEntity
 67
     1
  8
0
100
AcDbBlockEnd
  0
BLOCK
  5
24
330
23
100
AcDbEntity
  8
0
100
AcDbBlockBegin
  2
*Paper_Space0
 70
     0
 10
0.0
 20
0.0
 30
0.0
  3
*Paper_Space0
  1

  0
ENDBLK
  5
25
330
23
100
AcDbEntity
  8
0
100
AcDbBlockEnd
  0
BLOCK
  5
52
330
50
100
AcDbEntity
  8
0
100
AcDbBlockBegin
  2
block 2
 70
     0
 10
0.0
 20
0.0
 30
0.0
  3
block 2
  1

  0
SPLINE
  5
54
330
50
100
AcDbEntity
  8
_U+30EC_U+30A4_U+30E4_U+30FC 1
370
     0
100
AcDbSpline
210
0.0
220
0.0
230
1.0
 70
    11
 71
     3
 72
    44
 73
    40
 74
     0
 42
0.0000000001
 43
0.0000000001
 12
1.0
 22
0.0
 32
0.0
 13
1.0
 23
0.0
 33
0.0
 40
0.0
 40
0.0
 40
0.0
 40
0.0
 40
1.0
 40
1.0
 40
1.0
 40
2.0
 40
2.0
 40
2.0
 40
3.0
 40
3.0
 40
3.0
 40
4.0
 40
4.0
 40
4.0
 40
5.0
 40
5.0
 40
5.0
 40
6.0
 40
6.0
 40
6.0
 40
7.0
 40
7.0
 40
7.0
 40
8.0
 40
8.0
 40
8.0
 40
9.0
 40
9.0
 40
9.0
 40
10.0
 40
10.0
 40
10.0
 40
11.0
 40
11.0
 40
11.0
 40
12.0
 40
12.0
 40
12.0
 40
13.0
 40
13.0
 40
13.0
 40
13.0
 10
68.73206649757392
 20
-149.483726633636
 30
0.0
 10
68.70863984827423
 20
-149.4392849018763
 30
0.0
 10
68.6876247658142
 20
-149.386574940952
 30
0.0
 10
68.6853854537488
 20
-149.1557535434402
 30
0.0
 10
68.6812513391665
 20
-148.9125298021816
 30
0.0
 10
68.62199569682019
 20
-148.842594363831
 30
0.0
 10
68.4442287697813
 20
-148.842594363831
 30
0.0
 10
68.4442287697813
 20
-148.842594363831
 30
0.0
 10
68.0359849547792
 20
-148.842594363831
 30
0.0
 10
68.0359849547792
 20
-148.842594363831
 30
0.0
 10
68.0359849547792
 20
-148.842594363831
 30
0.0
 10
68.0359849547792
 20
-149.483726633636
 30
0.0
 10
68.0359849547792
 20
-149.483726633636
 30
0.0
 10
68.0359849547792
 20
-149.483726633636
 30
0.0
 10
67.80120169745942
 20
-149.483726633636
 30
0.0
 10
67.80120169745942
 20
-149.483726633636
 30
0.0
 10
67.80120169745942
 20
-149.483726633636
 30
0.0
 10
67.80120169745942
 20
-147.9392903275985
 30
0.0
 10
67.80120169745942
 20
-147.9392903275985
 30
0.0
 10
67.80120169745942
 20
-147.9392903275985
 30
0.0
 10
68.47592364824561
 20
-147.9392903275985
 30
0.0
 10
68.47592364824561
 20
-147.9392903275985
 30
0.0
 10
68.7827094012071
 20
-147.9392903275985
 30
0.0
 10
68.94996878701598
 20
-148.110856082764
 30
0.0
 10
68.94996878701598
 20
-148.366826677318
 30
0.0
 10
68.94996878701598
 20
-148.4174695809512
 30
0.0
 10
68.94135604830286
 20
-148.5001518725972
 30
0.0
 10
68.89691431654313
 20
-148.5804225974035
 30
0.0
 10
68.8378309289711
 20
-148.6841199715095
 30
0.0
 10
68.77220185997709
 20
-148.7030679966784
 30
0.0
 10
68.71087916033964
 20
-148.7199489645561
 30
0.0
 10
68.84833847020111
 20
-148.7623236390247
 30
0.0
 10
68.91603459648627
 20
-148.8108994853667
 30
0.0
 10
68.92034096584284
 20
-149.1261257222671
 30
0.0
 10
68.92447508042514
 20
-149.3969102274077
 30
0.0
 10
68.96047632824599
 20
-149.428605105872
 30
0.0
 10
69.02817245453116
 20
-149.483726633636
 30
0.0
 10
69.02817245453116
 20
-149.483726633636
 30
0.0
 10
68.73206649757392
 20
-149.483726633636
 30
0.0
 10
68.73206649757392
 20
-149.483726633636
 30
0.0
  0
SPLINE
  5
55
330
50
100
AcDbEntity
  8
_U+30EC_U+30A4_U+30E4_U+30FC 1
370
     0
100
AcDbSpline
210
0.0
220
0.0
230
1.0
 70
    11
 71
     3
 72
    20
 73
    16
 74
     0
 42
0.0000000001
 43
0.0000000001
 12
1.0
 22
0.0
 32
0.0
 13
1.0
 23
0.0
 33
0.0
 40
0.0
 40
0.0
 40
0.0
 40
0.0
 40
1.0
 40
1.0
 40
1.0
 40
2.0
 40
2.0
 40
2.0
 40
3.0
 40
3.0
 40
3.0
 40
4.0
 40
4.0
 40
4.0
 40
5.0
 40
5.0
 40
5.0
 40
5.0
 10
68.48023001760217
 20
-148.1508191903929
 30
0.0
 10
68.48023001760217
 20
-148.1508191903929
 30
0.0
 10
68.0359849547792
 20
-148.1508191903929
 30
0.0
 10
68.0359849547792
 20
-148.1508191903929
 30
0.0
 10
68.0359849547792
 20
-148.1508191903929
 30
0.0
 10
68.0359849547792
 20
-148.6310655010367
 30
0.0
 10
68.0359849547792
 20
-148.6310655010367
 30
0.0
 10
68.0359849547792
 20
-148.6310655010367
 30
0.0
 10
68.47816296031102
 20
-148.6310655010367
 30
0.0
 10
68.47816296031102
 20
-148.6310655010367
 30
0.0
 10
68.57755396506047
 20
-148.6310655010367
 30
0.0
 10
68.7129462176308
 20
-148.5549288908127
 30
0.0
 10
68.7129462176308
 20
-148.3837076451958
 30
0.0
 10
68.7129462176308
 20
-148.3055039776806
 30
0.0
 10
68.67918428187535
 20
-148.1508191903929
 30
0.0
 10
68.48023001760217
 20
-148.1508191903929
 30
0.0
  0
HATCH
  5
56
330
50
100
AcDbEntity
  8
_U+30EC_U+30A4_U+30E4_U+30FC 1
 62
     7
420
 16777215
100
AcDbHatch
 10
0.0
 20
0.0
 30
0.0
210
0.0
220
0.0
230
1.0
  2
SOLID
 70
     1
 71
     0
 91
        2
 92
        1
 93
        1
 72
     4
 94
        3
 73
     0
 74
     1
 95
       44
 96
       40
 40
0.0
 40
0.0
 40
0.0
 40
0.0
 40
1.0
 40
1.0
 40
1.0
 40
2.0
 40
2.0
 40
2.0
 40
3.0
 40
3.0
 40
3.0
 40
4.0
 40
4.0
 40
4.0
 40
5.0
 40
5.0
 40
5.0
 40
6.0
 40
6.0
 40
6.0
 40
7.0
 40
7.0
 40
7.0
 40
8.0
 40
8.0
 40
8.0
 40
9.0
 40
9.0
 40
9.0
 40
10.0
 40
10.0
 40
10.0
 40
11.0
 40
11.0
 40
11.0
 40
12.0
 40
12.0
 40
12.0
 40
13.0
 40
13.0
 40
13.0
 40
13.0
 10
68.73206649757392
 20
-149.483726633636
 10
68.70863984827423
 20
-149.4392849018763
 10
68.6876247658142
 20
-149.386574940952
 10
68.6853854537488
 20
-149.1557535434402
 10
68.6812513391665
 20
-148.9125298021816
 10
68.62199569682019
 20
-148.842594363831
 10
68.4442287697813
 20
-148.842594363831
 10
68.4442287697813
 20
-148.842594363831
 10
68.0359849547792
 20
-148.842594363831
 10
68.0359849547792
 20
-148.842594363831
 10
68.0359849547792
 20
-148.842594363831
 10
68.0359849547792
 20
-149.483726633636
 10
68.0359849547792
 20
-149.483726633636
 10
68.0359849547792
 20
-149.483726633636
 10
67.80120169745942
 20
-149.483726633636
 10
67.80120169745942
 20
-149.483726633636
 10
67.80120169745942
 20
-149.483726633636
 10
67.80120169745942
 20
-147.9392903275985
 10
67.80120169745942
 20
-147.9392903275985
 10
67.80120169745942
 20
-147.9392903275985
 10
68.47592364824561
 20
-147.9392903275985
 10
68.47592364824561
 20
-147.9392903275985
 10
68.7827094012071
 20
-147.9392903275985
 10
68.94996878701598
 20
-148.110856082764
 10
68.94996878701598
 20
-148.366826677318
 10
68.94996878701598
 20
-148.4174695809512
 10
68.94135604830286
 20
-148.5001518725972
 10
68.89691431654313
 20
-148.5804225974035
 10
68.8378309289711
 20
-148.6841199715095
 10
68.77220185997709
 20
-148.7030679966784
 10
68.71087916033964
 20
-148.7199489645561
 10
68.84833847020111
 20
-148.7623236390247
 10
68.91603459648627
 20
-148.8108994853667
 10
68.92034096584284
 20
-149.1261257222671
 10
68.92447508042514
 20
-149.3969102274077
 10
68.96047632824599
 20
-149.428605105872
 10
69.02817245453116
 20
-149.483726633636
 10
69.02817245453116
 20
-149.483726633636
 10
68.73206649757392
 20
-149.483726633636
 10
68.73206649757392
 20
-149.483726633636
 97
        0
 97
        0
 92
        1
 93
        1
 72
     4
 94
        3
 73
     0
 74
     1
 95
       20
 96
       16
 40
0.0
 40
0.0
 40
0.0
 40
0.0
 40
1.0
 40
1.0
 40
1.0
 40
2.0
 40
2.0
 40
2.0
 40
3.0
 40
3.0
 40
3.0
 40
4.0
 40
4.0
 40
4.0
 40
5.0
 40
5.0
 40
5.0
 40
5.0
 10
68.48023001760217
 20
-148.1508191903929
 10
68.48023001760217
 20
-148.1508191903929
 10
68.0359849547792
 20
-148.1508191903929
 10
68.0359849547792
 20
-148.1508191903929
 10
68.0359849547792
 20
-148.1508191903929
 10
68.0359849547792
 20
-148.6310655010367
 10
68.0359849547792
 20
-148.6310655010367
 10
68.0359849547792
 20
-148.6310655010367
 10
68.47816296031102
 20
-148.6310655010367
 10
68.47816296031102
 20
-148.6310655010367
 10
68.57755396506047
 20
-148.6310655010367
 10
68.7129462176308
 20
-148.5549288908127
 10
68.7129462176308
 20
-148.3837076451958
 10
68.7129462176308
 20
-148.3055039776806
 10
68.67918428187535
 20
-148.1508191903929
 10
68.48023001760217
 20
-148.1508191903929
 97
        0
 97
        0
 75
     2
 76
     1
 98
        0
  0
SPLINE
  5
57
330
50
100
AcDbEntity
  8
_U+30EC_U+30A4_U+30E4_U+30FC 1
370
     0
100
AcDbSpline
210
0.0
220
0.0
230
1.0
 70
    11
 71
     3
 72
    62
 73
    58
 74
     0
 42
0.0000000001
 43
0.0000000001
 12
1.0
 22
0.0
 32
0.0
 13
1.0
 23
0.0
 33
0.0
 40
0.0
 40
0.0
 40
0.0
 40
0.0
 40
1.0
 40
1.0
 40
1.0
 40
2.0
 40
2.0
 40
2.0
 40
3.0
 40
3.0
 40
3.0
 40
4.0
 40
4.0
 40
4.0
 40
5.0
 40
5.0
 40
5.0
 40
6.0
 40
6.0
 40
6.0
 40
7.0
 40
7.0
 40
7.0
 40
8.0
 40
8.0
 40
8.0
 40
9.0
 40
9.0
 40
9.0
 40
10.0
 40
10.0
 40
10.0
 40
11.0
 40
11.0
 40
11.0
 40
12.0
 40
12.0
 40
12.0
 40
13.0
 40
13.0
 40
13.0
 40
14.0
 40
14.0
 40
14.0
 40
15.0
 40
15.0
 40
15.0
 40
16.0
 40
16.0
 40
16.0
 40
17.0
 40
17.0
 40
17.0
 40
18.0
 40
18.0
 40
18.0
 40
19.0
 40
19.0
 40
19.0
 40
19.0
 10
69.65931394742893
 20
-149.5343695372692
 30
0.0
 10
69.56405705726176
 20
-149.5343695372692
 30
0.0
 10
69.34615476781971
 20
-149.5133544548092
 30
0.0
 10
69.22144231125367
 20
-149.3273192986057
 30
0.0
 10
69.1473727583208
 20
-149.2150091857865
 30
0.0
 10
69.14306638896424
 20
-149.1157904358113
 30
0.0
 10
69.13893227438194
 20
-149.0310410868742
 30
0.0
 10
69.13893227438194
 20
-149.0310410868742
 30
0.0
 10
69.35890162111514
 20
-149.0310410868742
 30
0.0
 10
69.35890162111514
 20
-149.0310410868742
 30
0.0
 10
69.3609686784063
 20
-149.1051106398071
 30
0.0
 10
69.37164847441056
 20
-149.3397216423526
 30
0.0
 10
69.65517983284663
 20
-149.3397216423526
 30
0.0
 10
69.7926391427081
 20
-149.3397216423526
 30
0.0
 10
69.94491236315613
 20
-149.2701307135505
 30
0.0
 10
69.94491236315613
 20
-149.0417208828785
 30
0.0
 10
69.94491236315613
 20
-148.925276655477
 30
0.0
 10
69.90684405804413
 20
-148.876700809135
 30
0.0
 10
69.87514917957982
 20
-148.8450059306707
 30
0.0
 10
69.80107962664695
 20
-148.7709363777378
 30
0.0
 10
69.68463539924551
 20
-148.7581895244424
 30
0.0
 10
69.62968612625578
 20
-148.7581895244424
 30
0.0
 10
69.61073810108691
 20
-148.7581895244424
 30
0.0
 10
69.57473685326605
 20
-148.7602565817336
 30
0.0
 10
69.54717608938404
 20
-148.7643906963158
 30
0.0
 10
69.54717608938404
 20
-148.7643906963158
 30
0.0
 10
69.54717608938404
 20
-148.5697428013992
 30
0.0
 10
69.54717608938404
 20
-148.5697428013992
 30
0.0
 10
69.58524439449606
 20
-148.5762884828212
 30
0.0
 10
69.62761906896462
 20
-148.5783555401124
 30
0.0
 10
69.63399249561233
 20
-148.5783555401124
 30
0.0
 10
69.69944930983209
 20
-148.5783555401124
 30
0.0
 10
69.89840357410526
 20
-148.5569959481038
 30
0.0
 10
69.89840357410526
 20
-148.3203178882671
 30
0.0
 10
69.89840357410526
 20
-148.1425509612283
 30
0.0
 10
69.76714543611725
 20
-148.0874294334643
 30
0.0
 10
69.65724689013777
 20
-148.0874294334643
 30
0.0
 10
69.39283581164484
 20
-148.0874294334643
 30
0.0
 10
69.38439532770599
 20
-148.3203178882671
 30
0.0
 10
69.38008895834943
 20
-148.3919758743604
 30
0.0
 10
69.38008895834943
 20
-148.3919758743604
 30
0.0
 10
69.17700057949395
 20
-148.3919758743604
 30
0.0
 10
69.17700057949395
 20
-148.3919758743604
 30
0.0
 10
69.1854410634328
 20
-148.2672634177943
 30
0.0
 10
69.21300182731481
 20
-147.8907144812565
 30
0.0
 10
69.66982148865894
 20
-147.8907144812565
 30
0.0
 10
69.8940972047487
 20
-147.8907144812565
 30
0.0
 10
70.13525388871619
 20
-148.0178385046622
 30
0.0
 10
70.13525388871619
 20
-148.3137722068452
 30
0.0
 10
70.13525388871619
 20
-148.5001518725972
 30
0.0
 10
70.0401692533233
 20
-148.5824896546947
 30
0.0
 10
69.94060599379958
 20
-148.6438123543321
 30
0.0
 10
70.00210094821128
 20
-148.6713731182141
 30
0.0
 10
70.18400198983248
 20
-148.7516438430204
 30
0.0
 10
70.18400198983248
 20
-149.0289740295831
 30
0.0
 10
70.18400198983248
 20
-149.3672824062346
 30
0.0
 10
69.93647187921728
 20
-149.5343695372692
 30
0.0
 10
69.65931394742893
 20
-149.5343695372692
 30
0.0
  0
HATCH
  5
58
330
50
100
AcDbEntity
  8
_U+30EC_U+30A4_U+30E4_U+30FC 1
 62
     7
420
 16777215
100
AcDbHatch
 10
0.0
 20
0.0
 30
0.0
210
0.0
220
0.0
230
1.0
  2
SOLID
 70
     1
 71
     0
 91
        1
 92
        1
 93
        1
 72
     4
 94
        3
 73
     0
 74
     1
 95
       62
 96
       58
 40
0.0
 40
0.0
 40
0.0
 40
0.0
 40
1.0
 40
1.0
 40
1.0
 40
2.0
 40
2.0
 40
2.0
 40
3.0
 40
3.0
 40
3.0
 40
4.0
 40
4.0
 40
4.0
 40
5.0
 40
5.0
 40
5.0
 40
6.0
 40
6.0
 40
6.0
 40
7.0
 40
7.0
 40
7.0
 40
8.0
 40
8.0
 40
8.0
 40
9.0
 40
9.0
 40
9.0
 40
10.0
 40
10.0
 40
10.0
 40
11.0
 40
11.0
 40
11.0
 40
12.0
 40
12.0
 40
12.0
 40
13.0
 40
13.0
 40
13.0
 40
14.0
 40
14.0
 40
14.0
 40
15.0
 40
15.0
 40
15.0
 40
16.0
 40
16.0
 40
16.0
 40
17.0
 40
17.0
 40
17.0
 40
18.0
 40
18.0
 40
18.0
 40
19.0
 40
19.0
 40
19.0
 40
19.0
 10
69.65931394742893
 20
-149.5343695372692
 10
69.56405705726176
 20
-149.5343695372692
 10
69.34615476781971
 20
-149.5133544548092
 10
69.22144231125367
 20
-149.3273192986057
 10
69.1473727583208
 20
-149.2150091857865
 10
69.14306638896424
 20
-149.1157904358113
 10
69.13893227438194
 20
-149.0310410868742
 10
69.13893227438194
 20
-149.0310410868742
 10
69.35890162111514
 20
-149.0310410868742
 10
69.35890162111514
 20
-149.0310410868742
 10
69.3609686784063
 20
-149.1051106398071
 10
69.37164847441056
 20
-149.3397216423526
 10
69.65517983284663
 20
-149.3397216423526
 10
69.7926391427081
 20
-149.3397216423526
 10
69.94491236315613
 20
-149.2701307135505
 10
69.94491236315613
 20
-149.0417208828785
 10
69.94491236315613
 20
-148.925276655477
 10
69.90684405804413
 20
-148.876700809135
 10
69.87514917957982
 20
-148.8450059306707
 10
69.80107962664695
 20
-148.7709363777378
 10
69.68463539924551
 20
-148.7581895244424
 10
69.62968612625578
 20
-148.7581895244424
 10
69.61073810108691
 20
-148.7581895244424
 10
69.57473685326605
 20
-148.7602565817336
 10
69.54717608938404
 20
-148.7643906963158
 10
69.54717608938404
 20
-148.7643906963158
 10
69.54717608938404
 20
-148.5697428013992
 10
69.54717608938404
 20
-148.5697428013992
 10
69.58524439449606
 20
-148.5762884828212
 10
69.62761906896462
 20
-148.5783555401124
 10
69.63399249561233
 20
-148.5783555401124
 10
69.69944930983209
 20
-148.5783555401124
 10
69.89840357410526
 20
-148.5569959481038
 10
69.89840357410526
 20
-148.3203178882671
 10
69.89840357410526
 20
-148.1425509612283
 10
69.76714543611725
 20
-148.0874294334643
 10
69.65724689013777
 20
-148.0874294334643
 10
69.39283581164484
 20
-148.0874294334643
 10
69.38439532770599
 20
-148.3203178882671
 10
69.38008895834943
 20
-148.3919758743604
 10
69.38008895834943
 20
-148.3919758743604
 10
69.17700057949395
 20
-148.3919758743604
 10
69.17700057949395
 20
-148.3919758743604
 10
69.1854410634328
 20
-148.2672634177943
 10
69.21300182731481
 20
-147.8907144812565
 10
69.66982148865894
 20
-147.8907144812565
 10
69.8940972047487
 20
-147.8907144812565
 10
70.13525388871619
 20
-148.0178385046622
 10
70.13525388871619
 20
-148.3137722068452
 10
70.13525388871619
 20
-148.5001518725972
 10
70.0401692533233
 20
-148.5824896546947
 10
69.94060599379958
 20
-148.6438123543321
 10
70.00210094821128
 20
-148.6713731182141
 10
70.18400198983248
 20
-148.7516438430204
 10
70.18400198983248
 20
-149.0289740295831
 10
70.18400198983248
 20
-149.3672824062346
 10
69.93647187921728
 20
-149.5343695372692
 10
69.65931394742893
 20
-149.5343695372692
 97
        0
 97
        0
 75
     2
 76
     1
 98
        0
  0
ENDBLK
  5
53
330
50
100
AcDbEntity
  8
0
100
AcDbBlockEnd
  0
BLOCK
  5
6B
330
69
100
AcDbEntity
  8
0
100
AcDbBlockBegin
  2
block 3
 70
     0
 10
0.0
 20
0.0
 30
0.0
  3
block 3
  1

  0
SPLINE
  5
6D
330
69
100
AcDbEntity
  8
_U+30EC_U+30A4_U+30E4_U+30FC 1
370
     0
100
AcDbSpline
210
0.0
220
0.0
230
1.0
 70
    11
 71
     3
 72
    26
 73
    22
 74
     0
 42
0.0000000001
 43
0.0000000001
 12
1.0
 22
0.0
 32
0.0
 13
1.0
 23
0.0
 33
0.0
 40
0.0
 40
0.0
 40
0.0
 40
0.0
 40
1.0
 40
1.0
 40
1.0
 40
2.0
 40
2.0
 40
2.0
 40
3.0
 40
3.0
 40
3.0
 40
4.0
 40
4.0
 40
4.0
 40
5.0
 40
5.0
 40
5.0
 40
6.0
 40
6.0
 40
6.0
 40
7.0
 40
7.0
 40
7.0
 40
7.0
 10
116.2733506653761
 20
-129.0584445206868
 30
0.0
 10
116.2733506653761
 20
-129.0584445206868
 30
0.0
 10
115.1691975623535
 20
-129.0584445206868
 30
0.0
 10
115.1691975623535
 20
-129.0584445206868
 30
0.0
 10
115.1691975623535
 20
-129.0584445206868
 30
0.0
 10
115.1691975623535
 20
-129.3884846681737
 30
0.0
 10
115.1691975623535
 20
-129.3884846681737
 30
0.0
 10
115.1691975623535
 20
-129.3884846681737
 30
0.0
 10
115.0210584564878
 20
-129.3884846681737
 30
0.0
 10
115.0210584564878
 20
-129.3884846681737
 30
0.0
 10
115.0062445459012
 20
-129.0563774633956
 30
0.0
 10
114.8432915294489
 20
-129.0098686743448
 30
0.0
 10
114.7289143593386
 20
-128.9802408531716
 30
0.0
 10
114.7289143593386
 20
-128.9802408531716
 30
0.0
 10
114.7289143593386
 20
-128.834168804597
 30
0.0
 10
114.7289143593386
 20
-128.834168804597
 30
0.0
 10
114.7289143593386
 20
-128.834168804597
 30
0.0
 10
116.2733506653761
 20
-128.834168804597
 30
0.0
 10
116.2733506653761
 20
-128.834168804597
 30
0.0
 10
116.2733506653761
 20
-128.834168804597
 30
0.0
 10
116.2733506653761
 20
-129.0584445206868
 30
0.0
 10
116.2733506653761
 20
-129.0584445206868
 30
0.0
  0
HATCH
  5
6E
330
69
100
AcDbEntity
  8
_U+30EC_U+30A4_U+30E4_U+30FC 1
 62
     7
420
 16777215
100
AcDbHatch
 10
0.0
 20
0.0
 30
0.0
210
0.0
220
0.0
230
1.0
  2
SOLID
 70
     1
 71
     0
 91
        1
 92
        1
 93
        1
 72
     4
 94
        3
 73
     0
 74
     1
 95
       26
 96
       22
 40
0.0
 40
0.0
 40
0.0
 40
0.0
 40
1.0
 40
1.0
 40
1.0
 40
2.0
 40
2.0
 40
2.0
 40
3.0
 40
3.0
 40
3.0
 40
4.0
 40
4.0
 40
4.0
 40
5.0
 40
5.0
 40
5.0
 40
6.0
 40
6.0
 40
6.0
 40
7.0
 40
7.0
 40
7.0
 40
7.0
 10
116.2733506653761
 20
-129.0584445206868
 10
116.2733506653761
 20
-129.0584445206868
 10
115.1691975623535
 20
-129.0584445206868
 10
115.1691975623535
 20
-129.0584445206868
 10
115.1691975623535
 20
-129.0584445206868
 10
115.1691975623535
 20
-129.3884846681737
 10
115.1691975623535
 20
-129.3884846681737
 10
115.1691975623535
 20
-129.3884846681737
 10
115.0210584564878
 20
-129.3884846681737
 10
115.0210584564878
 20
-129.3884846681737
 10
115.0062445459012
 20
-129.0563774633956
 10
114.8432915294489
 20
-129.0098686743448
 10
114.7289143593386
 20
-128.9802408531716
 10
114.7289143593386
 20
-128.9802408531716
 10
114.7289143593386
 20
-128.834168804597
 10
114.7289143593386
 20
-128.834168804597
 10
114.7289143593386
 20
-128.834168804597
 10
116.2733506653761
 20
-128.834168804597
 10
116.2733506653761
 20
-128.834168804597
 10
116.2733506653761
 20
-128.834168804597
 10
116.2733506653761
 20
-129.0584445206868
 10
116.2733506653761
 20
-129.0584445206868
 97
        0
 97
        0
 75
     2
 76
     1
 98
        0
  0
ENDBLK
  5
6C
330
69
100
AcDbEntity
  8
0
100
AcDbBlockEnd
  0
BLOCK
  5
79
330
77
100
AcDbEntity
  8
0
100
AcDbBlockBegin
  2
block 4
 70
     0
 10
0.0
 20
0.0
 30
0.0
  3
block 4
  1

  0
SPLINE
  5
7B
330
77
100
AcDbEntity
  8
_U+30EC_U+30A4_U+30E4_U+30FC 1
370
     0
100
AcDbSpline
210
0.0
220
0.0
230
1.0
 70
    11
 71
     3
 72
    26
 73
    22
 74
     0
 42
0.0000000001
 43
0.0000000001
 12
1.0
 22
0.0
 32
0.0
 13
1.0
 23
0.0
 33
0.0
 40
0.0
 40
0.0
 40
0.0
 40
0.0
 40
1.0
 40
1.0
 40
1.0
 40
2.0
 40
2.0
 40
2.0
 40
3.0
 40
3.0
 40
3.0
 40
4.0
 40
4.0
 40
4.0
 40
5.0
 40
5.0
 40
5.0
 40
6.0
 40
6.0
 40
6.0
 40
7.0
 40
7.0
 40
7.0
 40
7.0
 10
115.8592501880491
 20
-139.1470621396924
 30
0.0
 10
115.8592501880491
 20
-139.1470621396924
 30
0.0
 10
114.7550970850265
 20
-139.1470621396924
 30
0.0
 10
114.7550970850265
 20
-139.1470621396924
 30
0.0
 10
114.7550970850265
 20
-139.1470621396924
 30
0.0
 10
114.7550970850265
 20
-139.4771022871793
 30
0.0
 10
114.7550970850265
 20
-139.4771022871793
 30
0.0
 10
114.7550970850265
 20
-139.4771022871793
 30
0.0
 10
114.6069579791608
 20
-139.4771022871793
 30
0.0
 10
114.6069579791608
 20
-139.4771022871793
 30
0.0
 10
114.5921440685742
 20
-139.1449950824013
 30
0.0
 10
114.4291910521219
 20
-139.0984862933504
 30
0.0
 10
114.3148138820116
 20
-139.0688584721772
 30
0.0
 10
114.3148138820116
 20
-139.0688584721772
 30
0.0
 10
114.3148138820116
 20
-138.9227864236026
 30
0.0
 10
114.3148138820116
 20
-138.9227864236026
 30
0.0
 10
114.3148138820116
 20
-138.9227864236026
 30
0.0
 10
115.8592501880491
 20
-138.9227864236026
 30
0.0
 10
115.8592501880491
 20
-138.9227864236026
 30
0.0
 10
115.8592501880491
 20
-138.9227864236026
 30
0.0
 10
115.8592501880491
 20
-139.1470621396924
 30
0.0
 10
115.8592501880491
 20
-139.1470621396924
 30
0.0
  0
HATCH
  5
7C
330
77
100
AcDbEntity
  8
_U+30EC_U+30A4_U+30E4_U+30FC 1
 62
     7
420
 16777215
100
AcDbHatch
 10
0.0
 20
0.0
 30
0.0
210
0.0
220
0.0
230
1.0
  2
SOLID
 70
     1
 71
     0
 91
        1
 92
        1
 93
        1
 72
     4
 94
        3
 73
     0
 74
     1
 95
       26
 96
       22
 40
0.0
 40
0.0
 40
0.0
 40
0.0
 40
1.0
 40
1.0
 40
1.0
 40
2.0
 40
2.0
 40
2.0
 40
3.0
 40
3.0
 40
3.0
 40
4.0
 40
4.0
 40
4.0
 40
5.0
 40
5.0
 40
5.0
 40
6.0
 40
6.0
 40
6.0
 40
7.0
 40
7.0
 40
7.0
 40
7.0
 10
115.8592501880491
 20
-139.1470621396924
 10
115.8592501880491
 20
-139.1470621396924
 10
114.7550970850265
 20
-139.1470621396924
 10
114.7550970850265
 20
-139.1470621396924
 10
114.7550970850265
 20
-139.1470621396924
 10
114.7550970850265
 20
-139.4771022871793
 10
114.7550970850265
 20
-139.4771022871793
 10
114.7550970850265
 20
-139.4771022871793
 10
114.6069579791608
 20
-139.4771022871793
 10
114.6069579791608
 20
-139.4771022871793
 10
114.5921440685742
 20
-139.1449950824013
 10
114.4291910521219
 20
-139.0984862933504
 10
114.3148138820116
 20
-139.0688584721772
 10
114.3148138820116
 20
-139.0688584721772
 10
114.3148138820116
 20
-138.9227864236026
 10
114.3148138820116
 20
-138.9227864236026
 10
114.3148138820116
 20
-138.9227864236026
 10
115.8592501880491
 20
-138.9227864236026
 10
115.8592501880491
 20
-138.9227864236026
 10
115.8592501880491
 20
-138.9227864236026
 10
115.8592501880491
 20
-139.1470621396924
 10
115.8592501880491
 20
-139.1470621396924
 97
        0
 97
        0
 75
     2
 76
     1
 98
        0
  0
SPLINE
  5
7D
330
77
100
AcDbEntity
  8
_U+30EC_U+30A4_U+30E4_U+30FC 1
370
     0
100
AcDbSpline
210
0.0
220
0.0
230
1.0
 70
    11
 71
     3
 72
    62
 73
    58
 74
     0
 42
0.0000000001
 43
0.0000000001
 12
1.0
 22
0.0
 32
0.0
 13
1.0
 23
0.0
 33
0.0
 40
0.0
 40
0.0
 40
0.0
 40
0.0
 40
1.0
 40
1.0
 40
1.0
 40
2.0
 40
2.0
 40
2.0
 40
3.0
 40
3.0
 40
3.0
 40
4.0
 40
4.0
 40
4.0
 40
5.0
 40
5.0
 40
5.0
 40
6.0
 40
6.0
 40
6.0
 40
7.0
 40
7.0
 40
7.0
 40
8.0
 40
8.0
 40
8.0
 40
9.0
 40
9.0
 40
9.0
 40
10.0
 40
10.0
 40
10.0
 40
11.0
 40
11.0
 40
11.0
 40
12.0
 40
12.0
 40
12.0
 40
13.0
 40
13.0
 40
13.0
 40
14.0
 40
14.0
 40
14.0
 40
15.0
 40
15.0
 40
15.0
 40
16.0
 40
16.0
 40
16.0
 40
17.0
 40
17.0
 40
17.0
 40
18.0
 40
18.0
 40
18.0
 40
19.0
 40
19.0
 40
19.0
 40
19.0
 10
115.9098930916822
 20
-137.9299099047536
 30
0.0
 10
115.9098930916822
 20
-138.025339049695
 30
0.0
 10
115.8888780092222
 20
-138.2430690843628
 30
0.0
 10
115.7028428530187
 20
-138.3681260504774
 30
0.0
 10
115.5905327401996
 20
-138.4418510938618
 30
0.0
 10
115.4913139902244
 20
-138.4463297179926
 30
0.0
 10
115.4065646412872
 20
-138.4504638325749
 30
0.0
 10
115.4065646412872
 20
-138.4504638325749
 30
0.0
 10
115.4065646412872
 20
-138.2303222310674
 30
0.0
 10
115.4065646412872
 20
-138.2303222310674
 30
0.0
 10
115.4806341942201
 20
-138.2282551737763
 30
0.0
 10
115.7152451967656
 20
-138.2179198873205
 30
0.0
 10
115.7152451967656
 20
-137.9343885288845
 30
0.0
 10
115.7152451967656
 20
-137.796929219023
 30
0.0
 10
115.6456542679636
 20
-137.6443114890264
 30
0.0
 10
115.4172444372915
 20
-137.6443114890264
 30
0.0
 10
115.3008002098901
 20
-137.6443114890264
 30
0.0
 10
115.2522243635481
 20
-137.6825520489127
 30
0.0
 10
115.2205294850838
 20
-137.714246927377
 30
0.0
 10
115.1464599321509
 20
-137.7883164803099
 30
0.0
 10
115.1337130788555
 20
-137.9047607077113
 30
0.0
 10
115.1337130788555
 20
-137.9595377259268
 30
0.0
 10
115.1337130788555
 20
-137.9788302606442
 30
0.0
 10
115.1357801361466
 20
-138.0146592536908
 30
0.0
 10
115.1399142507289
 20
-138.0422200175728
 30
0.0
 10
115.1399142507289
 20
-138.0422200175728
 30
0.0
 10
114.9452663558123
 20
-138.0422200175728
 30
0.0
 10
114.9452663558123
 20
-138.0422200175728
 30
0.0
 10
114.9518120372343
 20
-138.0039794576865
 30
0.0
 10
114.9538790945254
 20
-137.9619492927665
 30
0.0
 10
114.9538790945254
 20
-137.9554036113445
 30
0.0
 10
114.9538790945254
 20
-137.8899467971247
 30
0.0
 10
114.9325195025169
 20
-137.6911647876258
 30
0.0
 10
114.6958414426802
 20
-137.6911647876258
 30
0.0
 10
114.5180745156413
 20
-137.6911647876258
 30
0.0
 10
114.4629529878773
 20
-137.8220784160653
 30
0.0
 10
114.4629529878773
 20
-137.9323214715933
 30
0.0
 10
114.4629529878773
 20
-138.196560295312
 30
0.0
 10
114.6958414426802
 20
-138.2051730340251
 30
0.0
 10
114.7674994287734
 20
-138.2093071486074
 30
0.0
 10
114.7674994287734
 20
-138.2093071486074
 30
0.0
 10
114.7674994287734
 20
-138.4125677822371
 30
0.0
 10
114.7674994287734
 20
-138.4125677822371
 30
0.0
 10
114.6427869722074
 20
-138.403955043524
 30
0.0
 10
114.2662380356696
 20
-138.376394279642
 30
0.0
 10
114.2662380356696
 20
-137.9195746182979
 30
0.0
 10
114.2662380356696
 20
-137.6952989022081
 30
0.0
 10
114.3933620590753
 20
-137.4541422182406
 30
0.0
 10
114.6892957612582
 20
-137.4541422182406
 30
0.0
 10
114.8756754270103
 20
-137.4541422182406
 30
0.0
 10
114.9580132091077
 20
-137.5492268536335
 30
0.0
 10
115.0193359087452
 20
-137.6487901131572
 30
0.0
 10
115.0468966726272
 20
-137.5874674135198
 30
0.0
 10
115.1271673974335
 20
-137.4055663718986
 30
0.0
 10
115.4044975839961
 20
-137.4055663718986
 30
0.0
 10
115.7428059606476
 20
-137.4055663718986
 30
0.0
 10
115.9098930916822
 20
-137.6529242277396
 30
0.0
 10
115.9098930916822
 20
-137.9299099047536
 30
0.0
  0
HATCH
  5
7E
330
77
100
AcDbEntity
  8
_U+30EC_U+30A4_U+30E4_U+30FC 1
 62
     7
420
 16777215
100
AcDbHatch
 10
0.0
 20
0.0
 30
0.0
210
0.0
220
0.0
230
1.0
  2
SOLID
 70
     1
 71
     0
 91
        1
 92
        1
 93
        1
 72
     4
 94
        3
 73
     0
 74
     1
 95
       62
 96
       58
 40
0.0
 40
0.0
 40
0.0
 40
0.0
 40
1.0
 40
1.0
 40
1.0
 40
2.0
 40
2.0
 40
2.0
 40
3.0
 40
3.0
 40
3.0
 40
4.0
 40
4.0
 40
4.0
 40
5.0
 40
5.0
 40
5.0
 40
6.0
 40
6.0
 40
6.0
 40
7.0
 40
7.0
 40
7.0
 40
8.0
 40
8.0
 40
8.0
 40
9.0
 40
9.0
 40
9.0
 40
10.0
 40
10.0
 40
10.0
 40
11.0
 40
11.0
 40
11.0
 40
12.0
 40
12.0
 40
12.0
 40
13.0
 40
13.0
 40
13.0
 40
14.0
 40
14.0
 40
14.0
 40
15.0
 40
15.0
 40
15.0
 40
16.0
 40
16.0
 40
16.0
 40
17.0
 40
17.0
 40
17.0
 40
18.0
 40
18.0
 40
18.0
 40
19.0
 40
19.0
 40
19.0
 40
19.0
 10
115.9098930916822
 20
-137.9299099047536
 10
115.9098930916822
 20
-138.025339049695
 10
115.8888780092222
 20
-138.2430690843628
 10
115.7028428530187
 20
-138.3681260504774
 10
115.5905327401996
 20
-138.4418510938618
 10
115.4913139902244
 20
-138.4463297179926
 10
115.4065646412872
 20
-138.4504638325749
 10
115.4065646412872
 20
-138.4504638325749
 10
115.4065646412872
 20
-138.2303222310674
 10
115.4065646412872
 20
-138.2303222310674
 10
115.4806341942201
 20
-138.2282551737763
 10
115.7152451967656
 20
-138.2179198873205
 10
115.7152451967656
 20
-137.9343885288845
 10
115.7152451967656
 20
-137.796929219023
 10
115.6456542679636
 20
-137.6443114890264
 10
115.4172444372915
 20
-137.6443114890264
 10
115.3008002098901
 20
-137.6443114890264
 10
115.2522243635481
 20
-137.6825520489127
 10
115.2205294850838
 20
-137.714246927377
 10
115.1464599321509
 20
-137.7883164803099
 10
115.1337130788555
 20
-137.9047607077113
 10
115.1337130788555
 20
-137.9595377259268
 10
115.1337130788555
 20
-137.9788302606442
 10
115.1357801361466
 20
-138.0146592536908
 10
115.1399142507289
 20
-138.0422200175728
 10
115.1399142507289
 20
-138.0422200175728
 10
114.9452663558123
 20
-138.0422200175728
 10
114.9452663558123
 20
-138.0422200175728
 10
114.9518120372343
 20
-138.0039794576865
 10
114.9538790945254
 20
-137.9619492927665
 10
114.9538790945254
 20
-137.9554036113445
 10
114.9538790945254
 20
-137.8899467971247
 10
114.9325195025169
 20
-137.6911647876258
 10
114.6958414426802
 20
-137.6911647876258
 10
114.5180745156413
 20
-137.6911647876258
 10
114.4629529878773
 20
-137.8220784160653
 10
114.4629529878773
 20
-137.9323214715933
 10
114.4629529878773
 20
-138.196560295312
 10
114.6958414426802
 20
-138.2051730340251
 10
114.7674994287734
 20
-138.2093071486074
 10
114.7674994287734
 20
-138.2093071486074
 10
114.7674994287734
 20
-138.4125677822371
 10
114.7674994287734
 20
-138.4125677822371
 10
114.6427869722074
 20
-138.403955043524
 10
114.2662380356696
 20
-138.376394279642
 10
114.2662380356696
 20
-137.9195746182979
 10
114.2662380356696
 20
-137.6952989022081
 10
114.3933620590753
 20
-137.4541422182406
 10
114.6892957612582
 20
-137.4541422182406
 10
114.8756754270103
 20
-137.4541422182406
 10
114.9580132091077
 20
-137.5492268536335
 10
115.0193359087452
 20
-137.6487901131572
 10
115.0468966726272
 20
-137.5874674135198
 10
115.1271673974335
 20
-137.4055663718986
 10
115.4044975839961
 20
-137.4055663718986
 10
115.7428059606476
 20
-137.4055663718986
 10
115.9098930916822
 20
-137.6529242277396
 10
115.9098930916822
 20
-137.9299099047536
 97
        0
 97
        0
 75
     2
 76
     1
 98
        0
  0
ENDBLK
  5
7A
330
77
100
AcDbEntity
  8
0
100
AcDbBlockEnd
  0
BLOCK
  5
94
330
92
100
AcDbEntity
  8
0
100
AcDbBlockBegin
  2
block 5
 70
     0
 10
0.0
 20
0.0
 30
0.0
  3
block 5
  1

  0
SPLINE
  5
96
330
92
100
AcDbEntity
  8
_U+30EC_U+30A4_U+30E4_U+30FC 1
370
     0
100
AcDbSpline
210
0.0
220
0.0
230
1.0
 70
    11
 71
     3
 72
    44
 73
    40
 74
     0
 42
0.0000000001
 43
0.0000000001
 12
1.0
 22
0.0
 32
0.0
 13
1.0
 23
0.0
 33
0.0
 40
0.0
 40
0.0
 40
0.0
 40
0.0
 40
1.0
 40
1.0
 40
1.0
 40
2.0
 40
2.0
 40
2.0
 40
3.0
 40
3.0
 40
3.0
 40
4.0
 40
4.0
 40
4.0
 40
5.0
 40
5.0
 40
5.0
 40
6.0
 40
6.0
 40
6.0
 40
7.0
 40
7.0
 40
7.0
 40
8.0
 40
8.0
 40
8.0
 40
9.0
 40
9.0
 40
9.0
 40
10.0
 40
10.0
 40
10.0
 40
11.0
 40
11.0
 40
11.0
 40
12.0
 40
12.0
 40
12.0
 40
13.0
 40
13.0
 40
13.0
 40
13.0
 10
66.52565509404567
 20
-135.5059407213319
 30
0.0
 10
66.6844739959157
 20
-135.7236707559996
 30
0.0
 10
66.75854354884856
 20
-135.8166883341014
 30
0.0
 10
66.90220403058348
 20
-135.8656086899919
 30
0.0
 10
66.90220403058348
 20
-135.8656086899919
 30
0.0
 10
66.90220403058348
 20
-135.0870171103255
 30
0.0
 10
66.90220403058348
 20
-135.0870171103255
 30
0.0
 10
66.90220403058348
 20
-135.0870171103255
 30
0.0
 10
67.10753172150437
 20
-135.0870171103255
 30
0.0
 10
67.10753172150437
 20
-135.0870171103255
 30
0.0
 10
67.10753172150437
 20
-135.0870171103255
 30
0.0
 10
67.10753172150437
 20
-136.115033603124
 30
0.0
 10
67.10753172150437
 20
-136.115033603124
 30
0.0
 10
66.74993081013544
 20
-136.0833387246597
 30
0.0
 10
66.67172714262027
 20
-136.01788191044
 30
0.0
 10
66.37338187359762
 20
-135.6327202351891
 30
0.0
 10
66.17459986409871
 20
-135.376749640635
 30
0.0
 10
66.1067314830393
 20
-135.3112928264152
 30
0.0
 10
65.96927217317783
 20
-135.3112928264152
 30
0.0
 10
65.85076088848523
 20
-135.3112928264152
 30
0.0
 10
65.71984726004574
 20
-135.383295322057
 30
0.0
 10
65.71984726004574
 20
-135.5800102742647
 30
0.0
 10
65.71984726004574
 20
-135.8401149834011
 30
0.0
 10
65.95032414800895
 20
-135.8483832125657
 30
0.0
 10
66.06676837541039
 20
-135.8528618366965
 30
0.0
 10
66.06676837541039
 20
-135.8528618366965
 30
0.0
 10
66.06676837541039
 20
-136.0771375527863
 30
0.0
 10
66.06676837541039
 20
-136.0771375527863
 30
0.0
 10
65.93964435200468
 20
-136.0685248140732
 30
0.0
 10
65.82767874873406
 20
-136.0578450180689
 30
0.0
 10
65.70916746404146
 20
-135.9775742932626
 30
0.0
 10
65.5482815048803
 20
-135.8676757472831
 30
0.0
 10
65.51451956912484
 20
-135.6812960815311
 30
0.0
 10
65.51451956912484
 20
-135.5651963636782
 30
0.0
 10
65.51451956912484
 20
-135.2878661771155
 30
0.0
 10
65.69848766803719
 20
-135.0804714289035
 30
0.0
 10
65.97133923046897
 20
-135.0804714289035
 30
0.0
 10
66.20009357068956
 20
-135.0804714289035
 30
0.0
 10
66.29931232066475
 20
-135.196915656305
 30
0.0
 10
66.52565509404567
 20
-135.5059407213319
 30
0.0
  0
HATCH
  5
97
330
92
100
AcDbEntity
  8
_U+30EC_U+30A4_U+30E4_U+30FC 1
 62
     7
420
 16777215
100
AcDbHatch
 10
0.0
 20
0.0
 30
0.0
210
0.0
220
0.0
230
1.0
  2
SOLID
 70
     1
 71
     0
 91
        1
 92
        1
 93
        1
 72
     4
 94
        3
 73
     0
 74
     1
 95
       44
 96
       40
 40
0.0
 40
0.0
 40
0.0
 40
0.0
 40
1.0
 40
1.0
 40
1.0
 40
2.0
 40
2.0
 40
2.0
 40
3.0
 40
3.0
 40
3.0
 40
4.0
 40
4.0
 40
4.0
 40
5.0
 40
5.0
 40
5.0
 40
6.0
 40
6.0
 40
6.0
 40
7.0
 40
7.0
 40
7.0
 40
8.0
 40
8.0
 40
8.0
 40
9.0
 40
9.0
 40
9.0
 40
10.0
 40
10.0
 40
10.0
 40
11.0
 40
11.0
 40
11.0
 40
12.0
 40
12.0
 40
12.0
 40
13.0
 40
13.0
 40
13.0
 40
13.0
 10
66.52565509404567
 20
-135.5059407213319
 10
66.6844739959157
 20
-135.7236707559996
 10
66.75854354884856
 20
-135.8166883341014
 10
66.90220403058348
 20
-135.8656086899919
 10
66.90220403058348
 20
-135.8656086899919
 10
66.90220403058348
 20
-135.0870171103255
 10
66.90220403058348
 20
-135.0870171103255
 10
66.90220403058348
 20
-135.0870171103255
 10
67.10753172150437
 20
-135.0870171103255
 10
67.10753172150437
 20
-135.0870171103255
 10
67.10753172150437
 20
-135.0870171103255
 10
67.10753172150437
 20
-136.115033603124
 10
67.10753172150437
 20
-136.115033603124
 10
66.74993081013544
 20
-136.0833387246597
 10
66.67172714262027
 20
-136.01788191044
 10
66.37338187359762
 20
-135.6327202351891
 10
66.17459986409871
 20
-135.376749640635
 10
66.1067314830393
 20
-135.3112928264152
 10
65.96927217317783
 20
-135.3112928264152
 10
65.85076088848523
 20
-135.3112928264152
 10
65.71984726004574
 20
-135.383295322057
 10
65.71984726004574
 20
-135.5800102742647
 10
65.71984726004574
 20
-135.8401149834011
 10
65.95032414800895
 20
-135.8483832125657
 10
66.06676837541039
 20
-135.8528618366965
 10
66.06676837541039
 20
-135.8528618366965
 10
66.06676837541039
 20
-136.0771375527863
 10
66.06676837541039
 20
-136.0771375527863
 10
65.93964435200468
 20
-136.0685248140732
 10
65.82767874873406
 20
-136.0578450180689
 10
65.70916746404146
 20
-135.9775742932626
 10
65.5482815048803
 20
-135.8676757472831
 10
65.51451956912484
 20
-135.6812960815311
 10
65.51451956912484
 20
-135.5651963636782
 10
65.51451956912484
 20
-135.2878661771155
 10
65.69848766803719
 20
-135.0804714289035
 10
65.97133923046897
 20
-135.0804714289035
 10
66.20009357068956
 20
-135.0804714289035
 10
66.29931232066475
 20
-135.196915656305
 10
66.52565509404567
 20
-135.5059407213319
 97
        0
 97
        0
 75
     2
 76
     1
 98
        0
  0
SPLINE
  5
98
330
92
100
AcDbEntity
  8
_U+30EC_U+30A4_U+30E4_U+30FC 1
370
     0
100
AcDbSpline
210
0.0
220
0.0
230
1.0
 70
    11
 71
     3
 72
    29
 73
    25
 74
     0
 42
0.0000000001
 43
0.0000000001
 12
1.0
 22
0.0
 32
0.0
 13
1.0
 23
0.0
 33
0.0
 40
0.0
 40
0.0
 40
0.0
 40
0.0
 40
1.0
 40
1.0
 40
1.0
 40
2.0
 40
2.0
 40
2.0
 40
3.0
 40
3.0
 40
3.0
 40
4.0
 40
4.0
 40
4.0
 40
5.0
 40
5.0
 40
5.0
 40
6.0
 40
6.0
 40
6.0
 40
7.0
 40
7.0
 40
7.0
 40
8.0
 40
8.0
 40
8.0
 40
8.0
 10
66.92976479446548
 20
-134.0242051531259
 30
0.0
 10
67.13922659996867
 20
-134.1323811513628
 30
0.0
 10
67.15817462513755
 20
-134.3056694542708
 30
0.0
 10
67.15817462513755
 20
-134.4221136816722
 30
0.0
 10
67.15817462513755
 20
-134.5829996408334
 30
0.0
 10
67.11166583608667
 20
-134.7245930652772
 30
0.0
 10
66.92976479446548
 20
-134.8196777006701
 30
0.0
 10
66.73511689954886
 20
-134.9233750747761
 30
0.0
 10
66.49809433016367
 20
-134.942323099945
 30
0.0
 10
66.33548582325989
 20
-134.942323099945
 30
0.0
 10
66.19148083197643
 20
-134.942323099945
 30
0.0
 10
65.93964435200468
 20
-134.9254421320672
 30
0.0
 10
65.74086234250576
 20
-134.8196777006701
 30
0.0
 10
65.53794621842455
 20
-134.7118462119818
 30
0.0
 10
65.51451956912484
 20
-134.5509602528206
 30
0.0
 10
65.51451956912484
 20
-134.4221136816722
 30
0.0
 10
65.51451956912484
 20
-134.2632947798022
 30
0.0
 10
65.55896130088456
 20
-134.1196342980673
 30
0.0
 10
65.74086234250576
 20
-134.0242051531259
 30
0.0
 10
65.93344318013122
 20
-133.9249864031507
 30
0.0
 10
66.16185301080328
 20
-133.901559753851
 30
0.0
 10
66.33548582325989
 20
-133.901559753851
 30
0.0
 10
66.50670706887679
 20
-133.901559753851
 30
0.0
 10
66.73718395684001
 20
-133.9229193458596
 30
0.0
 10
66.92976479446548
 20
-134.0242051531259
 30
0.0
  0
SPLINE
  5
99
330
92
100
AcDbEntity
  8
_U+30EC_U+30A4_U+30E4_U+30FC 1
370
     0
100
AcDbSpline
210
0.0
220
0.0
230
1.0
 70
    11
 71
     3
 72
    17
 73
    13
 74
     0
 42
0.0000000001
 43
0.0000000001
 12
1.0
 22
0.0
 32
0.0
 13
1.0
 23
0.0
 33
0.0
 40
0.0
 40
0.0
 40
0.0
 40
0.0
 40
1.0
 40
1.0
 40
1.0
 40
2.0
 40
2.0
 40
2.0
 40
3.0
 40
3.0
 40
3.0
 40
4.0
 40
4.0
 40
4.0
 40
4.0
 10
65.70710040675031
 20
-134.4221136816722
 30
0.0
 10
65.70710040675031
 20
-134.6715385948043
 30
0.0
 10
65.99063176518638
 20
-134.7183918934037
 30
0.0
 10
66.33548582325989
 20
-134.7183918934037
 30
0.0
 10
66.65484617474254
 20
-134.7183918934037
 30
0.0
 10
66.96352673022092
 20
-134.6822183908086
 30
0.0
 10
66.96352673022092
 20
-134.4221136816722
 30
0.0
 10
66.96352673022092
 20
-134.1744113162828
 30
0.0
 10
66.68240693862454
 20
-134.1258354699408
 30
0.0
 10
66.33548582325989
 20
-134.1258354699408
 30
0.0
 10
66.0157809622287
 20
-134.1258354699408
 30
0.0
 10
65.70710040675031
 20
-134.164076029827
 30
0.0
 10
65.70710040675031
 20
-134.4221136816722
 30
0.0
  0
HATCH
  5
9A
330
92
100
AcDbEntity
  8
_U+30EC_U+30A4_U+30E4_U+30FC 1
 62
     7
420
 16777215
100
AcDbHatch
 10
0.0
 20
0.0
 30
0.0
210
0.0
220
0.0
230
1.0
  2
SOLID
 70
     1
 71
     0
 91
        2
 92
        1
 93
        1
 72
     4
 94
        3
 73
     0
 74
     1
 95
       29
 96
       25
 40
0.0
 40
0.0
 40
0.0
 40
0.0
 40
1.0
 40
1.0
 40
1.0
 40
2.0
 40
2.0
 40
2.0
 40
3.0
 40
3.0
 40
3.0
 40
4.0
 40
4.0
 40
4.0
 40
5.0
 40
5.0
 40
5.0
 40
6.0
 40
6.0
 40
6.0
 40
7.0
 40
7.0
 40
7.0
 40
8.0
 40
8.0
 40
8.0
 40
8.0
 10
66.92976479446548
 20
-134.0242051531259
 10
67.13922659996867
 20
-134.1323811513628
 10
67.15817462513755
 20
-134.3056694542708
 10
67.15817462513755
 20
-134.4221136816722
 10
67.15817462513755
 20
-134.5829996408334
 10
67.11166583608667
 20
-134.7245930652772
 10
66.92976479446548
 20
-134.8196777006701
 10
66.73511689954886
 20
-134.9233750747761
 10
66.49809433016367
 20
-134.942323099945
 10
66.33548582325989
 20
-134.942323099945
 10
66.19148083197643
 20
-134.942323099945
 10
65.93964435200468
 20
-134.9254421320672
 10
65.74086234250576
 20
-134.8196777006701
 10
65.53794621842455
 20
-134.7118462119818
 10
65.51451956912484
 20
-134.5509602528206
 10
65.51451956912484
 20
-134.4221136816722
 10
65.51451956912484
 20
-134.2632947798022
 10
65.55896130088456
 20
-134.1196342980673
 10
65.74086234250576
 20
-134.0242051531259
 10
65.93344318013122
 20
-133.9249864031507
 10
66.16185301080328
 20
-133.901559753851
 10
66.33548582325989
 20
-133.901559753851
 10
66.50670706887679
 20
-133.901559753851
 10
66.73718395684001
 20
-133.9229193458596
 10
66.92976479446548
 20
-134.0242051531259
 97
        0
 97
        0
 92
        1
 93
        1
 72
     4
 94
        3
 73
     0
 74
     1
 95
       17
 96
       13
 40
0.0
 40
0.0
 40
0.0
 40
0.0
 40
1.0
 40
1.0
 40
1.0
 40
2.0
 40
2.0
 40
2.0
 40
3.0
 40
3.0
 40
3.0
 40
4.0
 40
4.0
 40
4.0
 40
4.0
 10
65.70710040675031
 20
-134.4221136816722
 10
65.70710040675031
 20
-134.6715385948043
 10
65.99063176518638
 20
-134.7183918934037
 10
66.33548582325989
 20
-134.7183918934037
 10
66.65484617474254
 20
-134.7183918934037
 10
66.96352673022092
 20
-134.6822183908086
 10
66.96352673022092
 20
-134.4221136816722
 10
66.96352673022092
 20
-134.1744113162828
 10
66.68240693862454
 20
-134.1258354699408
 10
66.33548582325989
 20
-134.1258354699408
 10
66.0157809622287
 20
-134.1258354699408
 10
65.70710040675031
 20
-134.164076029827
 10
65.70710040675031
 20
-134.4221136816722
 97
        0
 97
        0
 75
     2
 76
     1
 98
        0
  0
ENDBLK
  5
95
330
92
100
AcDbEntity
  8
0
100
AcDbBlockEnd
  0
BLOCK
  5
9D
330
9B
100
AcDbEntity
  8
0
100
AcDbBlockBegin
  2
block 6
 70
     0
 10
0.0
 20
0.0
 30
0.0
  3
block 6
  1

  0
SPLINE
  5
9F
330
9B
100
AcDbEntity
  8
_U+30EC_U+30A4_U+30E4_U+30FC 1
370
     0
100
AcDbSpline
210
0.0
220
0.0
230
1.0
 70
    11
 71
     3
 72
    44
 73
    40
 74
     0
 42
0.0000000001
 43
0.0000000001
 12
1.0
 22
0.0
 32
0.0
 13
1.0
 23
0.0
 33
0.0
 40
0.0
 40
0.0
 40
0.0
 40
0.0
 40
1.0
 40
1.0
 40
1.0
 40
2.0
 40
2.0
 40
2.0
 40
3.0
 40
3.0
 40
3.0
 40
4.0
 40
4.0
 40
4.0
 40
5.0
 40
5.0
 40
5.0
 40
6.0
 40
6.0
 40
6.0
 40
7.0
 40
7.0
 40
7.0
 40
8.0
 40
8.0
 40
8.0
 40
9.0
 40
9.0
 40
9.0
 40
10.0
 40
10.0
 40
10.0
 40
11.0
 40
11.0
 40
11.0
 40
12.0
 40
12.0
 40
12.0
 40
13.0
 40
13.0
 40
13.0
 40
13.0
 10
66.52565509404567
 20
-115.5050943721654
 30
0.0
 10
66.6844739959157
 20
-115.7228244068332
 30
0.0
 10
66.75854354884856
 20
-115.8158419849349
 30
0.0
 10
66.90220403058348
 20
-115.8647623408255
 30
0.0
 10
66.90220403058348
 20
-115.8647623408255
 30
0.0
 10
66.90220403058348
 20
-115.086170761159
 30
0.0
 10
66.90220403058348
 20
-115.086170761159
 30
0.0
 10
66.90220403058348
 20
-115.086170761159
 30
0.0
 10
67.10753172150437
 20
-115.086170761159
 30
0.0
 10
67.10753172150437
 20
-115.086170761159
 30
0.0
 10
67.10753172150437
 20
-115.086170761159
 30
0.0
 10
67.10753172150437
 20
-116.1141872539576
 30
0.0
 10
67.10753172150437
 20
-116.1141872539576
 30
0.0
 10
66.74993081013544
 20
-116.0824923754933
 30
0.0
 10
66.67172714262027
 20
-116.0170355612735
 30
0.0
 10
66.37338187359762
 20
-115.6318738860226
 30
0.0
 10
66.17459986409871
 20
-115.3759032914685
 30
0.0
 10
66.1067314830393
 20
-115.3104464772488
 30
0.0
 10
65.96927217317783
 20
-115.3104464772488
 30
0.0
 10
65.85076088848523
 20
-115.3104464772488
 30
0.0
 10
65.71984726004574
 20
-115.3824489728905
 30
0.0
 10
65.71984726004574
 20
-115.5791639250983
 30
0.0
 10
65.71984726004574
 20
-115.8392686342346
 30
0.0
 10
65.95032414800895
 20
-115.8475368633992
 30
0.0
 10
66.06676837541039
 20
-115.8520154875301
 30
0.0
 10
66.06676837541039
 20
-115.8520154875301
 30
0.0
 10
66.06676837541039
 20
-116.0762912036198
 30
0.0
 10
66.06676837541039
 20
-116.0762912036198
 30
0.0
 10
65.93964435200468
 20
-116.0676784649067
 30
0.0
 10
65.82767874873406
 20
-116.0569986689024
 30
0.0
 10
65.70916746404146
 20
-115.9767279440961
 30
0.0
 10
65.5482815048803
 20
-115.8668293981166
 30
0.0
 10
65.51451956912484
 20
-115.6804497323646
 30
0.0
 10
65.51451956912484
 20
-115.5643500145117
 30
0.0
 10
65.51451956912484
 20
-115.2870198279491
 30
0.0
 10
65.69848766803719
 20
-115.079625079737
 30
0.0
 10
65.97133923046897
 20
-115.079625079737
 30
0.0
 10
66.20009357068956
 20
-115.079625079737
 30
0.0
 10
66.29931232066475
 20
-115.1960693071385
 30
0.0
 10
66.52565509404567
 20
-115.5050943721654
 30
0.0
  0
HATCH
  5
A0
330
9B
100
AcDbEntity
  8
_U+30EC_U+30A4_U+30E4_U+30FC 1
 62
     7
420
 16777215
100
AcDbHatch
 10
0.0
 20
0.0
 30
0.0
210
0.0
220
0.0
230
1.0
  2
SOLID
 70
     1
 71
     0
 91
        1
 92
        1
 93
        1
 72
     4
 94
        3
 73
     0
 74
     1
 95
       44
 96
       40
 40
0.0
 40
0.0
 40
0.0
 40
0.0
 40
1.0
 40
1.0
 40
1.0
 40
2.0
 40
2.0
 40
2.0
 40
3.0
 40
3.0
 40
3.0
 40
4.0
 40
4.0
 40
4.0
 40
5.0
 40
5.0
 40
5.0
 40
6.0
 40
6.0
 40
6.0
 40
7.0
 40
7.0
 40
7.0
 40
8.0
 40
8.0
 40
8.0
 40
9.0
 40
9.0
 40
9.0
 40
10.0
 40
10.0
 40
10.0
 40
11.0
 40
11.0
 40
11.0
 40
12.0
 40
12.0
 40
12.0
 40
13.0
 40
13.0
 40
13.0
 40
13.0
 10
66.52565509404567
 20
-115.5050943721654
 10
66.6844739959157
 20
-115.7228244068332
 10
66.75854354884856
 20
-115.8158419849349
 10
66.90220403058348
 20
-115.8647623408255
 10
66.90220403058348
 20
-115.8647623408255
 10
66.90220403058348
 20
-115.086170761159
 10
66.90220403058348
 20
-115.086170761159
 10
66.90220403058348
 20
-115.086170761159
 10
67.10753172150437
 20
-115.086170761159
 10
67.10753172150437
 20
-115.086170761159
 10
67.10753172150437
 20
-115.086170761159
 10
67.10753172150437
 20
-116.1141872539576
 10
67.10753172150437
 20
-116.1141872539576
 10
66.74993081013544
 20
-116.0824923754933
 10
66.67172714262027
 20
-116.0170355612735
 10
66.37338187359762
 20
-115.6318738860226
 10
66.17459986409871
 20
-115.3759032914685
 10
66.1067314830393
 20
-115.3104464772488
 10
65.96927217317783
 20
-115.3104464772488
 10
65.85076088848523
 20
-115.3104464772488
 10
65.71984726004574
 20
-115.3824489728905
 10
65.71984726004574
 20
-115.5791639250983
 10
65.71984726004574
 20
-115.8392686342346
 10
65.95032414800895
 20
-115.8475368633992
 10
66.06676837541039
 20
-115.8520154875301
 10
66.06676837541039
 20
-115.8520154875301
 10
66.06676837541039
 20
-116.0762912036198
 10
66.06676837541039
 20
-116.0762912036198
 10
65.93964435200468
 20
-116.0676784649067
 10
65.82767874873406
 20
-116.0569986689024
 10
65.70916746404146
 20
-115.9767279440961
 10
65.5482815048803
 20
-115.8668293981166
 10
65.51451956912484
 20
-115.6804497323646
 10
65.51451956912484
 20
-115.5643500145117
 10
65.51451956912484
 20
-115.2870198279491
 10
65.69848766803719
 20
-115.079625079737
 10
65.97133923046897
 20
-115.079625079737
 10
66.20009357068956
 20
-115.079625079737
 10
66.29931232066475
 20
-115.1960693071385
 10
66.52565509404567
 20
-115.5050943721654
 97
        0
 97
        0
 75
     2
 76
     1
 98
        0
  0
SPLINE
  5
A1
330
9B
100
AcDbEntity
  8
_U+30EC_U+30A4_U+30E4_U+30FC 1
370
     0
100
AcDbSpline
210
0.0
220
0.0
230
1.0
 70
    11
 71
     3
 72
    29
 73
    25
 74
     0
 42
0.0000000001
 43
0.0000000001
 12
1.0
 22
0.0
 32
0.0
 13
1.0
 23
0.0
 33
0.0
 40
0.0
 40
0.0
 40
0.0
 40
0.0
 40
1.0
 40
1.0
 40
1.0
 40
2.0
 40
2.0
 40
2.0
 40
3.0
 40
3.0
 40
3.0
 40
4.0
 40
4.0
 40
4.0
 40
5.0
 40
5.0
 40
5.0
 40
6.0
 40
6.0
 40
6.0
 40
7.0
 40
7.0
 40
7.0
 40
8.0
 40
8.0
 40
8.0
 40
8.0
 10
66.92976479446548
 20
-114.0233588039594
 30
0.0
 10
67.13922659996867
 20
-114.1315348021963
 30
0.0
 10
67.15817462513755
 20
-114.3048231051044
 30
0.0
 10
67.15817462513755
 20
-114.4212673325058
 30
0.0
 10
67.15817462513755
 20
-114.582153291667
 30
0.0
 10
67.11166583608667
 20
-114.7237467161107
 30
0.0
 10
66.92976479446548
 20
-114.8188313515036
 30
0.0
 10
66.73511689954886
 20
-114.9225287256097
 30
0.0
 10
66.49809433016367
 20
-114.9414767507785
 30
0.0
 10
66.33548582325989
 20
-114.9414767507785
 30
0.0
 10
66.19148083197643
 20
-114.9414767507785
 30
0.0
 10
65.93964435200468
 20
-114.9245957829008
 30
0.0
 10
65.74086234250576
 20
-114.8188313515036
 30
0.0
 10
65.53794621842455
 20
-114.7109998628153
 30
0.0
 10
65.51451956912484
 20
-114.5501139036542
 30
0.0
 10
65.51451956912484
 20
-114.4212673325058
 30
0.0
 10
65.51451956912484
 20
-114.2624484306358
 30
0.0
 10
65.55896130088456
 20
-114.1187879489009
 30
0.0
 10
65.74086234250576
 20
-114.0233588039594
 30
0.0
 10
65.93344318013122
 20
-113.9241400539842
 30
0.0
 10
66.16185301080328
 20
-113.9007134046846
 30
0.0
 10
66.33548582325989
 20
-113.9007134046846
 30
0.0
 10
66.50670706887679
 20
-113.9007134046846
 30
0.0
 10
66.73718395684001
 20
-113.9220729966931
 30
0.0
 10
66.92976479446548
 20
-114.0233588039594
 30
0.0
  0
SPLINE
  5
A2
330
9B
100
AcDbEntity
  8
_U+30EC_U+30A4_U+30E4_U+30FC 1
370
     0
100
AcDbSpline
210
0.0
220
0.0
230
1.0
 70
    11
 71
     3
 72
    17
 73
    13
 74
     0
 42
0.0000000001
 43
0.0000000001
 12
1.0
 22
0.0
 32
0.0
 13
1.0
 23
0.0
 33
0.0
 40
0.0
 40
0.0
 40
0.0
 40
0.0
 40
1.0
 40
1.0
 40
1.0
 40
2.0
 40
2.0
 40
2.0
 40
3.0
 40
3.0
 40
3.0
 40
4.0
 40
4.0
 40
4.0
 40
4.0
 10
65.70710040675031
 20
-114.4212673325058
 30
0.0
 10
65.70710040675031
 20
-114.6706922456379
 30
0.0
 10
65.99063176518638
 20
-114.7175455442373
 30
0.0
 10
66.33548582325989
 20
-114.7175455442373
 30
0.0
 10
66.65484617474254
 20
-114.7175455442373
 30
0.0
 10
66.96352673022092
 20
-114.6813720416422
 30
0.0
 10
66.96352673022092
 20
-114.4212673325058
 30
0.0
 10
66.96352673022092
 20
-114.1735649671163
 30
0.0
 10
66.68240693862454
 20
-114.1249891207743
 30
0.0
 10
66.33548582325989
 20
-114.1249891207743
 30
0.0
 10
66.0157809622287
 20
-114.1249891207743
 30
0.0
 10
65.70710040675031
 20
-114.1632296806606
 30
0.0
 10
65.70710040675031
 20
-114.4212673325058
 30
0.0
  0
HATCH
  5
A3
330
9B
100
AcDbEntity
  8
_U+30EC_U+30A4_U+30E4_U+30FC 1
 62
     7
420
 16777215
100
AcDbHatch
 10
0.0
 20
0.0
 30
0.0
210
0.0
220
0.0
230
1.0
  2
SOLID
 70
     1
 71
     0
 91
        2
 92
        1
 93
        1
 72
     4
 94
        3
 73
     0
 74
     1
 95
       29
 96
       25
 40
0.0
 40
0.0
 40
0.0
 40
0.0
 40
1.0
 40
1.0
 40
1.0
 40
2.0
 40
2.0
 40
2.0
 40
3.0
 40
3.0
 40
3.0
 40
4.0
 40
4.0
 40
4.0
 40
5.0
 40
5.0
 40
5.0
 40
6.0
 40
6.0
 40
6.0
 40
7.0
 40
7.0
 40
7.0
 40
8.0
 40
8.0
 40
8.0
 40
8.0
 10
66.92976479446548
 20
-114.0233588039594
 10
67.13922659996867
 20
-114.1315348021963
 10
67.15817462513755
 20
-114.3048231051044
 10
67.15817462513755
 20
-114.4212673325058
 10
67.15817462513755
 20
-114.582153291667
 10
67.11166583608667
 20
-114.7237467161107
 10
66.92976479446548
 20
-114.8188313515036
 10
66.73511689954886
 20
-114.9225287256097
 10
66.49809433016367
 20
-114.9414767507785
 10
66.33548582325989
 20
-114.9414767507785
 10
66.19148083197643
 20
-114.9414767507785
 10
65.93964435200468
 20
-114.9245957829008
 10
65.74086234250576
 20
-114.8188313515036
 10
65.53794621842455
 20
-114.7109998628153
 10
65.51451956912484
 20
-114.5501139036542
 10
65.51451956912484
 20
-114.4212673325058
 10
65.51451956912484
 20
-114.2624484306358
 10
65.55896130088456
 20
-114.1187879489009
 10
65.74086234250576
 20
-114.0233588039594
 10
65.93344318013122
 20
-113.9241400539842
 10
66.16185301080328
 20
-113.9007134046846
 10
66.33548582325989
 20
-113.9007134046846
 10
66.50670706887679
 20
-113.9007134046846
 10
66.73718395684001
 20
-113.9220729966931
 10
66.92976479446548
 20
-114.0233588039594
 97
        0
 97
        0
 92
        1
 93
        1
 72
     4
 94
        3
 73
     0
 74
     1
 95
       17
 96
       13
 40
0.0
 40
0.0
 40
0.0
 40
0.0
 40
1.0
 40
1.0
 40
1.0
 40
2.0
 40
2.0
 40
2.0
 40
3.0
 40
3.0
 40
3.0
 40
4.0
 40
4.0
 40
4.0
 40
4.0
 10
65.70710040675031
 20
-114.4212673325058
 10
65.70710040675031
 20
-114.6706922456379
 10
65.99063176518638
 20
-114.7175455442373
 10
66.33548582325989
 20
-114.7175455442373
 10
66.65484617474254
 20
-114.7175455442373
 10
66.96352673022092
 20
-114.6813720416422
 10
66.96352673022092
 20
-114.4212673325058
 10
66.96352673022092
 20
-114.1735649671163
 10
66.68240693862454
 20
-114.1249891207743
 10
66.33548582325989
 20
-114.1249891207743
 10
66.0157809622287
 20
-114.1249891207743
 10
65.70710040675031
 20
-114.1632296806606
 10
65.70710040675031
 20
-114.4212673325058
 97
        0
 97
        0
 75
     2
 76
     1
 98
        0
  0
ENDBLK
  5
9E
330
9B
100
AcDbEntity
  8
0
100
AcDbBlockEnd
  0
ENDSEC
  0
SECTION
  2
ENTITIES
  0
POLYLINE
  5
41
330
1F
100
AcDbEntity
  8
_U+30EC_U+30A4_U+30E4_U+30FC 1
 62
     7
420
 16777215
370
     9
100
AcDb2dPolyline
 66
     1
 10
0.0
 20
0.0
 30
0.0
  0
VERTEX
  5
42
330
41
100
AcDbEntity
  8
_U+30EC_U+30A4_U+30E4_U+30FC 1
 62
     7
420
 16777215
370
     9
100
AcDbVertex
100
AcDb2dVertex
 10
70.3829395932705
 20
-147.4924730186827
 30
0.0
  0
VERTEX
  5
43
330
41
100
AcDbEntity
  8
_U+30EC_U+30A4_U+30E4_U+30FC 1
 62
     7
420
 16777215
370
     9
100
AcDbVertex
100
AcDb2dVertex
 10
73.60376534443373
 20
-144.2757746861532
 30
0.0
  0
SEQEND
  5
44
330
41
100
AcDbEntity
  8
_U+30EC_U+30A4_U+30E4_U+30FC 1
 62
     7
420
 16777215
370
     9
  0
POLYLINE
  5
45
330
1F
100
AcDbEntity
  8
_U+30EC_U+30A4_U+30E4_U+30FC 1
 62
     7
420
 16777215
370
     9
100
AcDb2dPolyline
 66
     1
 10
0.0
 20
0.0
 30
0.0
  0
VERTEX
  5
46
330
45
100
AcDbEntity
  8
_U+30EC_U+30A4_U+30E4_U+30FC 1
 62
     7
420
 16777215
370
     9
100
AcDbVertex
100
AcDb2dVertex
 10
72.56472898205287
 20
-144.8759202415586
 30
0.0
  0
VERTEX
  5
47
330
45
100
AcDbEntity
  8
_U+30EC_U+30A4_U+30E4_U+30FC 1
 62
     7
420
 16777215
370
     9
100
AcDbVertex
100
AcDb2dVertex
 10
73.60376534443373
 20
-144.2757746861532
 30
0.0
  0
SEQEND
  5
48
330
45
100
AcDbEntity
  8
_U+30EC_U+30A4_U+30E4_U+30FC 1
 62
     7
420
 16777215
370
     9
  0
POLYLINE
  5
49
330
1F
100
AcDbEntity
  8
_U+30EC_U+30A4_U+30E4_U+30FC 1
 62
     7
420
 16777215
370
     9
100
AcDb2dPolyline
 66
     1
 10
0.0
 20
0.0
 30
0.0
  0
VERTEX
  5
4A
330
49
100
AcDbEntity
  8
_U+30EC_U+30A4_U+30E4_U+30FC 1
 62
     7
420
 16777215
370
     9
100
AcDbVertex
100
AcDb2dVertex
 10
73.00365508196604
 20
-145.3151638525599
 30
0.0
  0
VERTEX
  5
4B
330
49
100
AcDbEntity
  8
_U+30EC_U+30A4_U+30E4_U+30FC 1
 62
     7
420
 16777215
370
     9
100
AcDbVertex
100
AcDb2dVertex
 10
73.60376534443373
 20
-144.2757746861532
 30
0.0
  0
SEQEND
  5
4C
330
49
100
AcDbEntity
  8
_U+30EC_U+30A4_U+30E4_U+30FC 1
 62
     7
420
 16777215
370
     9
  0
SPLINE
  5
4D
330
1F
100
AcDbEntity
  8
_U+30EC_U+30A4_U+30E4_U+30FC 1
 62
     7
420
 16777215
370
     9
100
AcDbSpline
210
0.0
220
0.0
230
1.0
 70
    11
 71
     3
 72
    17
 73
    13
 74
     0
 42
0.0000000001
 43
0.0000000001
 12
1.0
 22
0.0
 32
0.0
 13
1.0
 23
0.0
 33
0.0
 40
0.0
 40
0.0
 40
0.0
 40
0.0
 40
1.0
 40
1.0
 40
1.0
 40
2.0
 40
2.0
 40
2.0
 40
3.0
 40
3.0
 40
3.0
 40
4.0
 40
4.0
 40
4.0
 40
4.0
 10
116.825956463966
 20
-132.0098677447751
 30
0.0
 10
116.825956463966
 20
-131.9547285781227
 30
0.0
 10
116.7811536873312
 20
-131.9099610781335
 30
0.0
 10
116.7260527485964
 20
-131.9099610781335
 30
0.0
 10
116.6709106345882
 20
-131.9099610781335
 30
0.0
 10
116.6261431357303
 20
-131.9547285781227
 30
0.0
 10
116.6261431357303
 20
-132.0098677447751
 30
0.0
 10
116.6261431357303
 20
-132.0649716336507
 30
0.0
 10
116.6709106345882
 20
-132.1097744114168
 30
0.0
 10
116.7260527485964
 20
-132.1097744114168
 30
0.0
 10
116.7811536873312
 20
-132.1097744114168
 30
0.0
 10
116.825956463966
 20
-132.0649716336507
 30
0.0
 10
116.825956463966
 20
-132.0098677447751
 30
0.0
  0
SPLINE
  5
4E
330
1F
100
AcDbEntity
  8
_U+30EC_U+30A4_U+30E4_U+30FC 1
 62
     7
420
 16777215
370
     9
100
AcDbSpline
210
0.0
220
0.0
230
1.0
 70
    11
 71
     3
 72
    17
 73
    13
 74
     0
 42
0.0000000001
 43
0.0000000001
 12
1.0
 22
0.0
 32
0.0
 13
1.0
 23
0.0
 33
0.0
 40
0.0
 40
0.0
 40
0.0
 40
0.0
 40
1.0
 40
1.0
 40
1.0
 40
2.0
 40
2.0
 40
2.0
 40
3.0
 40
3.0
 40
3.0
 40
4.0
 40
4.0
 40
4.0
 40
4.0
 10
116.825956463966
 20
-131.0097427450255
 30
0.0
 10
116.825956463966
 20
-130.9546388561499
 30
0.0
 10
116.7811536873312
 20
-130.9098360783838
 30
0.0
 10
116.7260527485964
 20
-130.9098360783838
 30
0.0
 10
116.6709106345882
 20
-130.9098360783838
 30
0.0
 10
116.6261431357303
 20
-130.9546388561499
 30
0.0
 10
116.6261431357303
 20
-131.0097427450255
 30
0.0
 10
116.6261431357303
 20
-131.0648819116779
 30
0.0
 10
116.6709106345882
 20
-131.1096494116671
 30
0.0
 10
116.7260527485964
 20
-131.1096494116671
 30
0.0
 10
116.7811536873312
 20
-131.1096494116671
 30
0.0
 10
116.825956463966
 20
-131.0648819116779
 30
0.0
 10
116.825956463966
 20
-131.0097427450255
 30
0.0
  0
SPLINE
  5
4F
330
1F
100
AcDbEntity
  8
_U+30EC_U+30A4_U+30E4_U+30FC 1
 62
     7
420
 16777215
370
     9
100
AcDbSpline
210
0.0
220
0.0
230
1.0
 70
    11
 71
     3
 72
    17
 73
    13
 74
     0
 42
0.0000000001
 43
0.0000000001
 12
1.0
 22
0.0
 32
0.0
 13
1.0
 23
0.0
 33
0.0
 40
0.0
 40
0.0
 40
0.0
 40
0.0
 40
1.0
 40
1.0
 40
1.0
 40
2.0
 40
2.0
 40
2.0
 40
3.0
 40
3.0
 40
3.0
 40
4.0
 40
4.0
 40
4.0
 40
4.0
 10
116.825956463966
 20
-145.0099405193028
 30
0.0
 10
116.825956463966
 20
-144.9548013526504
 30
0.0
 10
116.7811536873312
 20
-144.9100338526612
 30
0.0
 10
116.7260527485964
 20
-144.9100338526612
 30
0.0
 10
116.6709106345882
 20
-144.9100338526612
 30
0.0
 10
116.6261431357303
 20
-144.9548013526504
 30
0.0
 10
116.6261431357303
 20
-145.0099405193028
 30
0.0
 10
116.6261431357303
 20
-145.0650444081784
 30
0.0
 10
116.6709106345882
 20
-145.1098471859445
 30
0.0
 10
116.7260527485964
 20
-145.1098471859445
 30
0.0
 10
116.7811536873312
 20
-145.1098471859445
 30
0.0
 10
116.825956463966
 20
-145.0650444081784
 30
0.0
 10
116.825956463966
 20
-145.0099405193028
 30
0.0
  0
INSERT
  5
51
330
1F
100
AcDbEntity
  8
_U+30EC_U+30A4_U+30E4_U+30FC 1
100
AcDbBlockReference
  2
block 2
 10
0.0
 20
0.0
 30
0.0
  0
POLYLINE
  5
59
330
1F
100
AcDbEntity
  8
_U+30EC_U+30A4_U+30E4_U+30FC 1
 62
     7
420
 16777215
370
     9
100
AcDb2dPolyline
 66
     1
 10
0.0
 20
0.0
 30
0.0
  0
VERTEX
  5
5A
330
59
100
AcDbEntity
  8
_U+30EC_U+30A4_U+30E4_U+30FC 1
 62
     7
420
 16777215
370
     9
100
AcDbVertex
100
AcDb2dVertex
 10
116.7260527485964
 20
-131.0097427450255
 30
0.0
  0
VERTEX
  5
5B
330
59
100
AcDbEntity
  8
_U+30EC_U+30A4_U+30E4_U+30FC 1
 62
     7
420
 16777215
370
     9
100
AcDbVertex
100
AcDb2dVertex
 10
116.7260527485964
 20
-128.239555245718
 30
0.0
  0
SEQEND
  5
5C
330
59
100
AcDbEntity
  8
_U+30EC_U+30A4_U+30E4_U+30FC 1
 62
     7
420
 16777215
370
     9
  0
POLYLINE
  5
5D
330
1F
100
AcDbEntity
  8
_U+30EC_U+30A4_U+30E4_U+30FC 1
 62
     7
420
 16777215
370
     9
100
AcDb2dPolyline
 66
     1
 10
0.0
 20
0.0
 30
0.0
  0
VERTEX
  5
5E
330
5D
100
AcDbEntity
  8
_U+30EC_U+30A4_U+30E4_U+30FC 1
 62
     7
420
 16777215
370
     9
100
AcDbVertex
100
AcDb2dVertex
 10
116.7260527485964
 20
-132.0098677447751
 30
0.0
  0
VERTEX
  5
5F
330
5D
100
AcDbEntity
  8
_U+30EC_U+30A4_U+30E4_U+30FC 1
 62
     7
420
 16777215
370
     9
100
AcDbVertex
100
AcDb2dVertex
 10
116.7260527485964
 20
-131.0097427450255
 30
0.0
  0
SEQEND
  5
60
330
5D
100
AcDbEntity
  8
_U+30EC_U+30A4_U+30E4_U+30FC 1
 62
     7
420
 16777215
370
     9
  0
POLYLINE
  5
61
330
1F
100
AcDbEntity
  8
_U+30EC_U+30A4_U+30E4_U+30FC 1
 62
     7
420
 16777215
370
     9
100
AcDb2dPolyline
 66
     1
 10
0.0
 20
0.0
 30
0.0
  0
VERTEX
  5
62
330
61
100
AcDbEntity
  8
_U+30EC_U+30A4_U+30E4_U+30FC 1
 62
     7
420
 16777215
370
     9
100
AcDbVertex
100
AcDb2dVertex
 10
115.266008448208
 20
-132.0098677447751
 30
0.0
  0
VERTEX
  5
63
330
61
100
AcDbEntity
  8
_U+30EC_U+30A4_U+30E4_U+30FC 1
 62
     7
420
 16777215
370
     9
100
AcDbVertex
100
AcDb2dVertex
 10
117.7257867187872
 20
-132.0098677447751
 30
0.0
  0
SEQEND
  5
64
330
61
100
AcDbEntity
  8
_U+30EC_U+30A4_U+30E4_U+30FC 1
 62
     7
420
 16777215
370
     9
  0
POLYLINE
  5
65
330
1F
100
AcDbEntity
  8
_U+30EC_U+30A4_U+30E4_U+30FC 1
 62
     7
420
 16777215
370
     9
100
AcDb2dPolyline
 66
     1
 10
0.0
 20
0.0
 30
0.0
  0
VERTEX
  5
66
330
65
100
AcDbEntity
  8
_U+30EC_U+30A4_U+30E4_U+30FC 1
 62
     7
420
 16777215
370
     9
100
AcDbVertex
100
AcDb2dVertex
 10
115.266008448208
 20
-131.0097427450255
 30
0.0
  0
VERTEX
  5
67
330
65
100
AcDbEntity
  8
_U+30EC_U+30A4_U+30E4_U+30FC 1
 62
     7
420
 16777215
370
     9
100
AcDbVertex
100
AcDb2dVertex
 10
117.7257867187872
 20
-131.0097427450255
 30
0.0
  0
SEQEND
  5
68
330
65
100
AcDbEntity
  8
_U+30EC_U+30A4_U+30E4_U+30FC 1
 62
     7
420
 16777215
370
     9
  0
INSERT
  5
6A
330
1F
100
AcDbEntity
  8
_U+30EC_U+30A4_U+30E4_U+30FC 1
100
AcDbBlockReference
  2
block 3
 10
0.0
 20
0.0
 30
0.0
  0
POLYLINE
  5
6F
330
1F
100
AcDbEntity
  8
_U+30EC_U+30A4_U+30E4_U+30FC 1
 62
     7
420
 16777215
370
     9
100
AcDb2dPolyline
 66
     1
 10
0.0
 20
0.0
 30
0.0
  0
VERTEX
  5
70
330
6F
100
AcDbEntity
  8
_U+30EC_U+30A4_U+30E4_U+30FC 1
 62
     7
420
 16777215
370
     9
100
AcDbVertex
100
AcDb2dVertex
 10
116.7260527485964
 20
-132.0098677447751
 30
0.0
  0
VERTEX
  5
71
330
6F
100
AcDbEntity
  8
_U+30EC_U+30A4_U+30E4_U+30FC 1
 62
     7
420
 16777215
370
     9
100
AcDbVertex
100
AcDb2dVertex
 10
116.7260527485964
 20
-145.0099405193028
 30
0.0
  0
SEQEND
  5
72
330
6F
100
AcDbEntity
  8
_U+30EC_U+30A4_U+30E4_U+30FC 1
 62
     7
420
 16777215
370
     9
  0
POLYLINE
  5
73
330
1F
100
AcDbEntity
  8
_U+30EC_U+30A4_U+30E4_U+30FC 1
 62
     7
420
 16777215
370
     9
100
AcDb2dPolyline
 66
     1
 10
0.0
 20
0.0
 30
0.0
  0
VERTEX
  5
74
330
73
100
AcDbEntity
  8
_U+30EC_U+30A4_U+30E4_U+30FC 1
 62
     7
420
 16777215
370
     9
100
AcDbVertex
100
AcDb2dVertex
 10
95.26516942062804
 20
-145.0099405193028
 30
0.0
  0
VERTEX
  5
75
330
73
100
AcDbEntity
  8
_U+30EC_U+30A4_U+30E4_U+30FC 1
 62
     7
420
 16777215
370
     9
100
AcDbVertex
100
AcDb2dVertex
 10
117.7257867187872
 20
-145.0099405193028
 30
0.0
  0
SEQEND
  5
76
330
73
100
AcDbEntity
  8
_U+30EC_U+30A4_U+30E4_U+30FC 1
 62
     7
420
 16777215
370
     9
  0
INSERT
  5
78
330
1F
100
AcDbEntity
  8
_U+30EC_U+30A4_U+30E4_U+30FC 1
100
AcDbBlockReference
  2
block 4
 10
0.0
 20
0.0
 30
0.0
  0
SPLINE
  5
7F
330
1F
100
AcDbEntity
  8
_U+30EC_U+30A4_U+30E4_U+30FC 1
 62
     7
420
 16777215
370
     9
100
AcDbSpline
210
0.0
220
0.0
230
1.0
 70
    11
 71
     3
 72
    17
 73
    13
 74
     0
 42
0.0000000001
 43
0.0000000001
 12
1.0
 22
0.0
 32
0.0
 13
1.0
 23
0.0
 33
0.0
 40
0.0
 40
0.0
 40
0.0
 40
0.0
 40
1.0
 40
1.0
 40
1.0
 40
2.0
 40
2.0
 40
2.0
 40
3.0
 40
3.0
 40
3.0
 40
4.0
 40
4.0
 40
4.0
 40
4.0
 10
67.97794771018252
 20
-145.1105174637225
 30
0.0
 10
68.03305159766559
 20
-145.1105174637225
 30
0.0
 10
68.07785437430034
 20
-145.0657499637333
 30
0.0
 10
68.07785437430034
 20
-145.0099405193028
 30
0.0
 10
68.07785437430034
 20
-144.9548013526504
 30
0.0
 10
68.03305159766559
 20
-144.9100338526612
 30
0.0
 10
67.97794771018252
 20
-144.9100338526612
 30
0.0
 10
67.92280854492256
 20
-144.9100338526612
 30
0.0
 10
67.87804104606468
 20
-144.9548013526504
 30
0.0
 10
67.87804104606468
 20
-145.0099405193028
 30
0.0
 10
67.87804104606468
 20
-145.0657499637333
 30
0.0
 10
67.92280854492256
 20
-145.1105174637225
 30
0.0
 10
67.97794771018252
 20
-145.1105174637225
 30
0.0
  0
SPLINE
  5
80
330
1F
100
AcDbEntity
  8
_U+30EC_U+30A4_U+30E4_U+30FC 1
 62
     7
420
 16777215
370
     9
100
AcDbSpline
210
0.0
220
0.0
230
1.0
 70
    11
 71
     3
 72
    17
 73
    13
 74
     0
 42
0.0000000001
 43
0.0000000001
 12
1.0
 22
0.0
 32
0.0
 13
1.0
 23
0.0
 33
0.0
 40
0.0
 40
0.0
 40
0.0
 40
0.0
 40
1.0
 40
1.0
 40
1.0
 40
2.0
 40
2.0
 40
2.0
 40
3.0
 40
3.0
 40
3.0
 40
4.0
 40
4.0
 40
4.0
 40
4.0
 10
67.97794771018252
 20
-125.1089699687229
 30
0.0
 10
68.03305159766559
 20
-125.1089699687229
 30
0.0
 10
68.07785437430034
 20
-125.064202468734
 30
0.0
 10
68.07785437430034
 20
-125.009063302081
 30
0.0
 10
68.07785437430034
 20
-124.953959413206
 30
0.0
 10
68.03305159766559
 20
-124.9091566354393
 30
0.0
 10
67.97794771018252
 20
-124.9091566354393
 30
0.0
 10
67.92280854492256
 20
-124.9091566354393
 30
0.0
 10
67.87804104606468
 20
-124.953959413206
 30
0.0
 10
67.87804104606468
 20
-125.009063302081
 30
0.0
 10
67.87804104606468
 20
-125.064202468734
 30
0.0
 10
67.92280854492256
 20
-125.1089699687229
 30
0.0
 10
67.97794771018252
 20
-125.1089699687229
 30
0.0
  0
SPLINE
  5
81
330
1F
100
AcDbEntity
  8
_U+30EC_U+30A4_U+30E4_U+30FC 1
 62
     7
420
 16777215
370
     9
100
AcDbSpline
210
0.0
220
0.0
230
1.0
 70
    11
 71
     3
 72
    17
 73
    13
 74
     0
 42
0.0000000001
 43
0.0000000001
 12
1.0
 22
0.0
 32
0.0
 13
1.0
 23
0.0
 33
0.0
 40
0.0
 40
0.0
 40
0.0
 40
0.0
 40
1.0
 40
1.0
 40
1.0
 40
2.0
 40
2.0
 40
2.0
 40
3.0
 40
3.0
 40
3.0
 40
4.0
 40
4.0
 40
4.0
 40
4.0
 10
67.97794771018252
 20
-105.1095038626114
 30
0.0
 10
68.03305159766559
 20
-105.1095038626114
 30
0.0
 10
68.07785437430034
 20
-105.0647363626226
 30
0.0
 10
68.07785437430034
 20
-105.0095971959698
 30
0.0
 10
68.07785437430034
 20
-104.9544933070946
 30
0.0
 10
68.03305159766559
 20
-104.9096905293282
 30
0.0
 10
67.97794771018252
 20
-104.9096905293282
 30
0.0
 10
67.92280854492256
 20
-104.9096905293282
 30
0.0
 10
67.87804104606468
 20
-104.9544933070946
 30
0.0
 10
67.87804104606468
 20
-105.0095971959698
 30
0.0
 10
67.87804104606468
 20
-105.0647363626226
 30
0.0
 10
67.92280854492256
 20
-105.1095038626114
 30
0.0
 10
67.97794771018252
 20
-105.1095038626114
 30
0.0
  0
POLYLINE
  5
82
330
1F
100
AcDbEntity
  8
_U+30EC_U+30A4_U+30E4_U+30FC 1
 62
     7
420
 16777215
370
     9
100
AcDb2dPolyline
 66
     1
 10
0.0
 20
0.0
 30
0.0
  0
VERTEX
  5
83
330
82
100
AcDbEntity
  8
_U+30EC_U+30A4_U+30E4_U+30FC 1
 62
     7
420
 16777215
370
     9
100
AcDbVertex
100
AcDb2dVertex
 10
67.97794771018252
 20
-105.0095971959698
 30
0.0
  0
VERTEX
  5
84
330
82
100
AcDbEntity
  8
_U+30EC_U+30A4_U+30E4_U+30FC 1
 62
     7
420
 16777215
370
     9
100
AcDbVertex
100
AcDb2dVertex
 10
67.97794771018252
 20
-145.0099405193028
 30
0.0
  0
SEQEND
  5
85
330
82
100
AcDbEntity
  8
_U+30EC_U+30A4_U+30E4_U+30FC 1
 62
     7
420
 16777215
370
     9
  0
POLYLINE
  5
86
330
1F
100
AcDbEntity
  8
_U+30EC_U+30A4_U+30E4_U+30FC 1
 62
     7
420
 16777215
370
     9
100
AcDb2dPolyline
 66
     1
 10
0.0
 20
0.0
 30
0.0
  0
VERTEX
  5
87
330
86
100
AcDbEntity
  8
_U+30EC_U+30A4_U+30E4_U+30FC 1
 62
     7
420
 16777215
370
     9
100
AcDbVertex
100
AcDb2dVertex
 10
70.22553015284191
 20
-125.009063302081
 30
0.0
  0
VERTEX
  5
88
330
86
100
AcDbEntity
  8
_U+30EC_U+30A4_U+30E4_U+30FC 1
 62
     7
420
 16777215
370
     9
100
AcDbVertex
100
AcDb2dVertex
 10
66.97746995792905
 20
-125.009063302081
 30
0.0
  0
SEQEND
  5
89
330
86
100
AcDbEntity
  8
_U+30EC_U+30A4_U+30E4_U+30FC 1
 62
     7
420
 16777215
370
     9
  0
POLYLINE
  5
8A
330
1F
100
AcDbEntity
  8
_U+30EC_U+30A4_U+30E4_U+30FC 1
 62
     7
420
 16777215
370
     9
100
AcDb2dPolyline
 66
     1
 10
0.0
 20
0.0
 30
0.0
  0
VERTEX
  5
8B
330
8A
100
AcDbEntity
  8
_U+30EC_U+30A4_U+30E4_U+30FC 1
 62
     7
420
 16777215
370
     9
100
AcDbVertex
100
AcDb2dVertex
 10
70.22553015284191
 20
-145.0099405193028
 30
0.0
  0
VERTEX
  5
8C
330
8A
100
AcDbEntity
  8
_U+30EC_U+30A4_U+30E4_U+30FC 1
 62
     7
420
 16777215
370
     9
100
AcDbVertex
100
AcDb2dVertex
 10
66.97746995792905
 20
-145.0099405193028
 30
0.0
  0
SEQEND
  5
8D
330
8A
100
AcDbEntity
  8
_U+30EC_U+30A4_U+30E4_U+30FC 1
 62
     7
420
 16777215
370
     9
  0
POLYLINE
  5
8E
330
1F
100
AcDbEntity
  8
_U+30EC_U+30A4_U+30E4_U+30FC 1
 62
     7
420
 16777215
370
     9
100
AcDb2dPolyline
 66
     1
 10
0.0
 20
0.0
 30
0.0
  0
VERTEX
  5
8F
330
8E
100
AcDbEntity
  8
_U+30EC_U+30A4_U+30E4_U+30FC 1
 62
     7
420
 16777215
370
     9
100
AcDbVertex
100
AcDb2dVertex
 10
83.22556942363805
 20
-105.0095971959698
 30
0.0
  0
VERTEX
  5
90
330
8E
100
AcDbEntity
  8
_U+30EC_U+30A4_U+30E4_U+30FC 1
 62
     7
420
 16777215
370
     9
100
AcDbVertex
100
AcDb2dVertex
 10
66.97746995792905
 20
-105.0095971959698
 30
0.0
  0
SEQEND
  5
91
330
8E
100
AcDbEntity
  8
_U+30EC_U+30A4_U+30E4_U+30FC 1
 62
     7
420
 16777215
370
     9
  0
INSERT
  5
93
330
1F
100
AcDbEntity
  8
_U+30EC_U+30A4_U+30E4_U+30FC 1
100
AcDbBlockReference
  2
block 5
 10
0.0
 20
0.0
 30
0.0
  0
INSERT
  5
9C
330
1F
100
AcDbEntity
  8
_U+30EC_U+30A4_U+30E4_U+30FC 1
100
AcDbBlockReference
  2
block 6
 10
0.0
 20
0.0
 30
0.0
  0
SPLINE
  5
A4
330
1F
100
AcDbEntity
  8
_U+30EC_U+30A4_U+30E4_U+30FC 1
 62
     7
420
 16777215
370
    25
100
AcDbSpline
210
0.0
220
0.0
230
1.0
 70
    11
 71
     3
 72
    53
 73
    49
 74
     0
 42
0.0000000001
 43
0.0000000001
 12
1.0
 22
0.0
 32
0.0
 13
1.0
 23
0.0
 33
0.0
 40
0.0
 40
0.0
 40
0.0
 40
0.0
 40
1.0
 40
1.0
 40
1.0
 40
2.0
 40
2.0
 40
2.0
 40
3.0
 40
3.0
 40
3.0
 40
4.0
 40
4.0
 40
4.0
 40
5.0
 40
5.0
 40
5.0
 40
6.0
 40
6.0
 40
6.0
 40
7.0
 40
7.0
 40
7.0
 40
8.0
 40
8.0
 40
8.0
 40
9.0
 40
9.0
 40
9.0
 40
10.0
 40
10.0
 40
10.0
 40
11.0
 40
11.0
 40
11.0
 40
12.0
 40
12.0
 40
12.0
 40
13.0
 40
13.0
 40
13.0
 40
14.0
 40
14.0
 40
14.0
 40
15.0
 40
15.0
 40
15.0
 40
16.0
 40
16.0
 40
16.0
 40
16.0
 10
92.72544930104337
 20
-145.0099405193028
 30
0.0
 10
92.72544930104337
 20
-145.0099405193028
 30
0.0
 10
75.72526501253199
 20
-145.0099405193028
 30
0.0
 10
75.72526501253199
 20
-145.0099405193028
 30
0.0
 10
74.07507644352069
 20
-145.0099405193028
 30
0.0
 10
72.72527814462359
 20
-143.6597894085293
 30
0.0
 10
72.72527814462359
 20
-142.0099535756085
 30
0.0
 10
72.72527814462359
 20
-142.0099535756085
 30
0.0
 10
72.72527814462359
 20
-125.0097688576365
 30
0.0
 10
72.72527814462359
 20
-125.0097688576365
 30
0.0
 10
72.72527814462359
 20
-125.0097688576365
 30
0.0
 10
85.72570553412427
 20
-126.4856499683787
 30
0.0
 10
85.72570553412427
 20
-126.4856499683787
 30
0.0
 10
85.72570553412427
 20
-126.4856499683787
 30
0.0
 10
85.72570553412427
 20
-105.0095971959698
 30
0.0
 10
85.72570553412427
 20
-105.0095971959698
 30
0.0
 10
85.72570553412427
 20
-105.0095971959698
 30
0.0
 10
86.72544028744969
 20
-105.0095971959698
 30
0.0
 10
86.72544028744969
 20
-105.0095971959698
 30
0.0
 10
86.72544028744969
 20
-105.0095971959698
 30
0.0
 10
86.72544028744969
 20
-127.5966883014341
 30
0.0
 10
86.72544028744969
 20
-127.5966883014341
 30
0.0
 10
86.72544028744969
 20
-127.5966883014341
 30
0.0
 10
73.75775284050518
 20
-126.1239116351357
 30
0.0
 10
73.75775284050518
 20
-126.1239116351357
 30
0.0
 10
73.75775284050518
 20
-126.1239116351357
 30
0.0
 10
73.75775284050518
 20
-141.9768630200616
 30
0.0
 10
73.75775284050518
 20
-141.9768630200616
 30
0.0
 10
73.75775284050518
 20
-143.0772121864532
 30
0.0
 10
74.65797115087203
 20
-143.9770777417834
 30
0.0
 10
75.75765001170578
 20
-143.9770777417834
 30
0.0
 10
75.75765001170578
 20
-143.9770777417834
 30
0.0
 10
91.61127127391286
 20
-143.9770777417834
 30
0.0
 10
91.61127127391286
 20
-143.9770777417834
 30
0.0
 10
91.61127127391286
 20
-143.9770777417834
 30
0.0
 10
90.24842019757098
 20
-131.0097427450255
 30
0.0
 10
90.24842019757098
 20
-131.0097427450255
 30
0.0
 10
90.24842019757098
 20
-131.0097427450255
 30
0.0
 10
112.4169046320058
 20
-131.0097427450255
 30
0.0
 10
112.4169046320058
 20
-131.0097427450255
 30
0.0
 10
112.4169046320058
 20
-131.0097427450255
 30
0.0
 10
112.4169046320058
 20
-132.0095149669974
 30
0.0
 10
112.4169046320058
 20
-132.0095149669974
 30
0.0
 10
112.4169046320058
 20
-132.0095149669974
 30
0.0
 10
91.3591057247906
 20
-132.0095149669974
 30
0.0
 10
91.3591057247906
 20
-132.0095149669974
 30
0.0
 10
91.3591057247906
 20
-132.0095149669974
 30
0.0
 10
92.72544930104337
 20
-145.0099405193028
 30
0.0
 10
92.72544930104337
 20
-145.0099405193028
 30
0.0
  0
ENDSEC
  0
SECTION
  2
OBJECTS
  0
DICTIONARY
  5
C
330
0
100
AcDbDictionary
281
     1
  3
ACAD_GROUP
350
D
  3
ACAD_LAYOUT
350
1A
  3
ACAD_MATERIAL
350
3B
  3
ACAD_MLEADERSTYLE
350
A6
  3
ACAD_MLINESTYLE
350
17
  3
ACAD_PLOTSETTINGS
350
19
  3
ACAD_PLOTSTYLENAME
350
E
  3
ACAD_TABLESTYLE
350
A5
  3
ACAD_VISUALSTYLE
350
2A
  0
SUN
  5
3F
330
29
100
AcDbSun
 90
        1
290
     0
 63
     7
421
 16777215
 40
1.0
291
     1
 91
  2455826
 92
 54000000
292
     0
 70
     2
 71
   256
280
     1
  0
DICTIONARY
  5
D
102
{ACAD_REACTORS
330
C
102
}
330
C
100
AcDbDictionary
281
     1
  0
DICTIONARY
  5
1A
102
{ACAD_REACTORS
330
C
102
}
330
C
100
AcDbDictionary
281
     1
  3
Layout1
350
1E
  3
Layout2
350
26
  3
Model
350
22
  0
DICTIONARY
  5
3B
102
{ACAD_REACTORS
330
C
102
}
330
C
100
AcDbDictionary
281
     1
  3
ByBlock
350
3D
  3
ByLayer
350
3C
  3
Global
350
3E
  0
DICTIONARY
  5
A6
102
{ACAD_REACTORS
330
C
102
}
330
C
100
AcDbDictionary
281
     1
  0
DICTIONARY
  5
17
102
{ACAD_REACTORS
330
C
102
}
330
C
100
AcDbDictionary
281
     1
  3
Standard
350
18
  0
DICTIONARY
  5
19
102
{ACAD_REACTORS
330
C
102
}
330
C
100
AcDbDictionary
281
     1
  0
ACDBDICTIONARYWDFLT
  5
E
102
{ACAD_REACTORS
330
C
102
}
330
C
100
AcDbDictionary
281
     1
  3
Normal
350
F
100
AcDbDictionaryWithDefault
340
F
  0
DICTIONARY
  5
A5
102
{ACAD_REACTORS
330
C
102
}
330
C
100
AcDbDictionary
281
     1
  0
DICTIONARY
  5
2A
102
{ACAD_REACTORS
330
C
102
}
330
C
100
AcDbDictionary
281
     1
  3
2dWireframe
350
2F
  3
3D Hidden
350
31
  3
3dWireframe
350
30
  3
Basic
350
32
  3
Brighten
350
36
  3
ColorChange
350
3A
  3
Conceptual
350
34
  3
Dim
350
35
  3
Facepattern
350
39
  3
Flat
350
2B
  3
FlatWithEdges
350
2C
  3
Gouraud
350
2D
  3
GouraudWithEdges
350
2E
  3
Linepattern
350
38
  3
Realistic
350
33
  3
Thicken
350
37
  0
LAYOUT
  5
1E
102
{ACAD_REACTORS
330
1A
102
}
330
1A
100
AcDbPlotSettings
  1

  2
none_device
  4

  6

 40
0.0
 41
0.0
 42
0.0
 43
0.0
 44
0.0
 45
0.0
 46
0.0
 47
0.0
 48
0.0
 49
0.0
140
0.0
141
0.0
142
1.0
143
1.0
 70
   688
 72
     0
 73
     0
 74
     5
  7

 75
    16
 76
     0
 77
     2
 78
   300
147
1.0
148
0.0
149
0.0
100
AcDbLayout
  1
Layout1
 70
     1
 71
     1
 10
0.0
 20
0.0
 11
12.0
 21
9.0
 12
0.0
 22
0.0
 32
0.0
 14
1.000000000000000E+20
 24
1.000000000000000E+20
 34
1.000000000000000E+20
 15
-1.000000000000000E+20
 25
-1.000000000000000E+20
 35
-1.000000000000000E+20
146
0.0
 13
0.0
 23
0.0
 33
0.0
 16
1.0
 26
0.0
 36
0.0
 17
0.0
 27
1.0
 37
0.0
 76
     0
330
1B
  0
LAYOUT
  5
26
102
{ACAD_REACTORS
330
1A
102
}
330
1A
100
AcDbPlotSettings
  1

  2
none_device
  4

  6

 40
0.0
 41
0.0
 42
0.0
 43
0.0
 44
0.0
 45
0.0
 46
0.0
 47
0.0
 48
0.0
 49
0.0
140
0.0
141
0.0
142
1.0
143
1.0
 70
   688
 72
     0
 73
     0
 74
     5
  7

 75
    16
 76
     0
 77
     2
 78
   300
147
1.0
148
0.0
149
0.0
100
AcDbLayout
  1
Layout2
 70
     1
 71
     2
 10
0.0
 20
0.0
 11
0.0
 21
0.0
 12
0.0
 22
0.0
 32
0.0
 14
0.0
 24
0.0
 34
0.0
 15
0.0
 25
0.0
 35
0.0
146
0.0
 13
0.0
 23
0.0
 33
0.0
 16
1.0
 26
0.0
 36
0.0
 17
0.0
 27
1.0
 37
0.0
 76
     0
330
23
  0
LAYOUT
  5
22
102
{ACAD_REACTORS
330
1A
102
}
330
1A
100
AcDbPlotSettings
  1

  2
none_device
  4

  6

 40
0.0
 41
0.0
 42
0.0
 43
0.0
 44
0.0
 45
0.0
 46
0.0
 47
0.0
 48
0.0
 49
0.0
140
0.0
141
0.0
142
1.0
143
1.0
 70
  1712
 72
     0
 73
     0
 74
     0
  7

 75
     0
 76
     0
 77
     2
 78
   300
147
1.0
148
0.0
149
0.0
100
AcDbLayout
  1
Model
 70
     1
 71
     0
 10
0.0
 20
0.0
 11
12.0
 21
9.0
 12
0.0
 22
0.0
 32
0.0
 14
1.000000000000000E+20
 24
1.000000000000000E+20
 34
1.000000000000000E+20
 15
-1.000000000000000E+20
 25
-1.000000000000000E+20
 35
-1.000000000000000E+20
146
0.0
 13
0.0
 23
0.0
 33
0.0
 16
1.0
 26
0.0
 36
0.0
 17
0.0
 27
1.0
 37
0.0
 76
     0
330
1F
331
29
  0
MATERIAL
  5
3D
102
{ACAD_REACTORS
330
3B
102
}
330
3B
100
AcDbMaterial
  1
ByBlock
 72
     1
 94
      127
  0
MATERIAL
  5
3C
102
{ACAD_REACTORS
330
3B
102
}
330
3B
100
AcDbMaterial
  1
ByLayer
 72
     1
 94
      127
  0
MATERIAL
  5
3E
102
{ACAD_REACTORS
330
3B
102
}
330
3B
100
AcDbMaterial
  1
Global
 72
     1
 94
      127
  0
MLINESTYLE
  5
18
102
{ACAD_REACTORS
330
17
102
}
330
17
100
AcDbMlineStyle
  2
Standard
 70
     0
  3

 62
   256
 51
90.0
 52
90.0
 71
     2
 49
0.5
 62
   256
  6
BYLAYER
 49
-0.5
 62
   256
  6
BYLAYER
  0
ACDBPLACEHOLDER
  5
F
102
{ACAD_REACTORS
330
E
102
}
330
E
  0
VISUALSTYLE
  5
2F
102
{ACAD_REACTORS
330
2A
102
}
330
2A
100
AcDbVisualStyle
  2
2dWireframe
 70
     4
177
     2
291
     0
 71
     0
176
     1
 72
     2
176
     1
 73
     0
176
     1
 90
        0
176
     1
 40
-0.6
176
     1
 41
-30.0
176
     1
 62
     5
 63
     7
421
 16777215
176
     1
 74
     1
176
     1
 91
        4
176
     1
 64
     7
176
     1
 65
   257
176
     1
 75
     1
176
     1
175
     1
176
     1
 42
1.0
176
     1
 92
        0
176
     1
 66
   257
176
     1
 43
1.0
176
     1
 76
     1
176
     1
 77
     6
176
     1
 78
     2
176
     1
 67
     7
176
     1
 79
     5
176
     1
170
     0
176
     1
171
     0
176
     1
290
     0
176
     1
 93
        1
176
     1
 44
0.0
176
     1
173
     0
176
     1
  0
VISUALSTYLE
  5
31
102
{ACAD_REACTORS
330
2A
102
}
330
2A
100
AcDbVisualStyle
  2
3D Hidden
 70
     6
177
     2
291
     0
 71
     1
176
     1
 72
     2
176
     1
 73
     2
176
     1
 90
        0
176
     1
 40
-0.6
176
     1
 41
-30.0
176
     1
 62
     5
 63
     7
421
 16777215
176
     1
 74
     2
176
     1
 91
        2
176
     1
 64
     7
176
     1
 65
   257
176
     1
 75
     2
176
     1
175
     1
176
     1
 42
40.0
176
     1
 92
        0
176
     1
 66
   257
176
     1
 43
1.0
176
     1
 76
     1
176
     1
 77
     6
176
     1
 78
     2
176
     1
 67
     7
176
     1
 79
     3
176
     1
170
     0
176
     1
171
     0
176
     1
290
     0
176
     1
 93
        1
176
     1
 44
0.0
176
     1
173
     0
176
     1
  0
VISUALSTYLE
  5
30
102
{ACAD_REACTORS
330
2A
102
}
330
2A
100
AcDbVisualStyle
  2
3dWireframe
 70
     5
177
     2
291
     0
 71
     0
176
     1
 72
     2
176
     1
 73
     0
176
     1
 90
        0
176
     1
 40
-0.6
176
     1
 41
-30.0
176
     1
 62
     5
 63
     7
421
 16777215
176
     1
 74
     1
176
     1
 91
        4
176
     1
 64
     7
176
     1
 65
   257
176
     1
 75
     1
176
     1
175
     1
176
     1
 42
1.0
176
     1
 92
        0
176
     1
 66
   257
176
     1
 43
1.0
176
     1
 76
     1
176
     1
 77
     6
176
     1
 78
     2
176
     1
 67
     7
176
     1
 79
     5
176
     1
170
     0
176
     1
171
     0
176
     1
290
     0
176
     1
 93
        1
176
     1
 44
0.0
176
     1
173
     0
176
     1
  0
VISUALSTYLE
  5
32
102
{ACAD_REACTORS
330
2A
102
}
330
2A
100
AcDbVisualStyle
  2
Basic
 70
     7
177
     2
291
     1
 71
     1
176
     1
 72
     0
176
     1
 73
     1
176
     1
 90
        0
176
     1
 40
-0.6
176
     1
 41
-30.0
176
     1
 62
     5
 63
     7
421
 16777215
176
     1
 74
     0
176
     1
 91
        4
176
     1
 64
     7
176
     1
 65
   257
176
     1
 75
     1
176
     1
175
     1
176
     1
 42
1.0
176
     1
 92
        8
176
     1
 66
     7
176
     1
 43
1.0
176
     1
 76
     1
176
     1
 77
     6
176
     1
 78
     2
176
     1
 67
     7
176
     1
 79
     5
176
     1
170
     0
176
     1
171
     0
176
     1
290
     0
176
     1
 93
        1
176
     1
 44
0.0
176
     1
173
     0
176
     1
  0
VISUALSTYLE
  5
36
102
{ACAD_REACTORS
330
2A
102
}
330
2A
100
AcDbVisualStyle
  2
Brighten
 70
    12
177
     2
291
     1
 71
     2
176
     1
 72
     2
176
     1
 73
     0
176
     1
 90
        0
176
     1
 40
-0.6
176
     1
 41
-30.0
176
     1
 62
     5
 63
     7
421
 16777215
176
     1
 74
     1
176
     1
 91
        4
176
     1
 64
     7
176
     1
 65
   257
176
     1
 75
     1
176
     1
175
     1
176
     1
 42
1.0
176
     1
 92
        8
176
     1
 66
     7
176
     1
 43
1.0
176
     1
 76
     1
176
     1
 77
     6
176
     1
 78
     2
176
     1
 67
     7
176
     1
 79
     5
176
     1
170
     0
176
     1
171
     0
176
     1
290
     0
176
     1
 93
        1
176
     1
 44
50.0
176
     1
173
     0
176
     1
  0
VISUALSTYLE
  5
3A
102
{ACAD_REACTORS
330
2A
102
}
330
2A
100
AcDbVisualStyle
  2
ColorChange
 70
    16
177
     2
291
     1
 71
     2
176
     1
 72
     2
176
     1
 73
     3
176
     1
 90
        0
176
     1
 40
-0.6
176
     1
 41
-30.0
176
     1
 62
     5
 63
     8
421
  8421504
176
     1
 74
     1
176
     1
 91
        4
176
     1
 64
     7
176
     1
 65
   257
176
     1
 75
     1
176
     1
175
     1
176
     1
 42
1.0
176
     1
 92
        8
176
     1
 66
     8
424
  8421504
176
     1
 43
1.0
176
     1
 76
     1
176
     1
 77
     6
176
     1
 78
     2
176
     1
 67
     7
176
     1
 79
     5
176
     1
170
     0
176
     1
171
     0
176
     1
290
     0
176
     1
 93
        1
176
     1
 44
0.0
176
     1
173
     0
176
     1
  0
VISUALSTYLE
  5
34
102
{ACAD_REACTORS
330
2A
102
}
330
2A
100
AcDbVisualStyle
  2
Conceptual
 70
     9
177
     2
291
     0
 71
     3
176
     1
 72
     2
176
     1
 73
     0
176
     1
 90
        0
176
     1
 40
-0.6
176
     1
 41
-30.0
176
     1
 62
     5
 63
     7
421
 16777215
176
     1
 74
     2
176
     1
 91
        2
176
     1
 64
     7
176
     1
 65
   257
176
     1
 75
     1
176
     1
175
     1
176
     1
 42
40.0
176
     1
 92
        8
176
     1
 66
     7
176
     1
 43
1.0
176
     1
 76
     1
176
     1
 77
     6
176
     1
 78
     2
176
     1
 67
     7
176
     1
 79
     3
176
     1
170
     0
176
     1
171
     0
176
     1
290
     0
176
     1
 93
        1
176
     1
 44
0.0
176
     1
173
     0
176
     1
  0
VISUALSTYLE
  5
35
102
{ACAD_REACTORS
330
2A
102
}
330
2A
100
AcDbVisualStyle
  2
Dim
 70
    11
177
     2
291
     1
 71
     2
176
     1
 72
     2
176
     1
 73
     0
176
     1
 90
        0
176
     1
 40
-0.6
176
     1
 41
-30.0
176
     1
 62
     5
 63
     7
421
 16777215
176
     1
 74
     1
176
     1
 91
        4
176
     1
 64
     7
176
     1
 65
   257
176
     1
 75
     1
176
     1
175
     1
176
     1
 42
1.0
176
     1
 92
        8
176
     1
 66
     7
176
     1
 43
1.0
176
     1
 76
     1
176
     1
 77
     6
176
     1
 78
     2
176
     1
 67
     7
176
     1
 79
     5
176
     1
170
     0
176
     1
171
     0
176
     1
290
     0
176
     1
 93
        1
176
     1
 44
-50.0
176
     1
173
     0
176
     1
  0
VISUALSTYLE
  5
39
102
{ACAD_REACTORS
330
2A
102
}
330
2A
100
AcDbVisualStyle
  2
Facepattern
 70
    15
177
     2
291
     1
 71
     2
176
     1
 72
     2
176
     1
 73
     0
176
     1
 90
        0
176
     1
 40
-0.6
176
     1
 41
-30.0
176
     1
 62
     5
 63
     7
421
 16777215
176
     1
 74
     1
176
     1
 91
        4
176
     1
 64
     7
176
     1
 65
   257
176
     1
 75
     1
176
     1
175
     1
176
     1
 42
1.0
176
     1
 92
        8
176
     1
 66
     7
176
     1
 43
1.0
176
     1
 76
     1
176
     1
 77
     6
176
     1
 78
     2
176
     1
 67
     7
176
     1
 79
     5
176
     1
170
     0
176
     1
171
     0
176
     1
290
     0
176
     1
 93
        1
176
     1
 44
0.0
176
     1
173
     0
176
     1
  0
VISUALSTYLE
  5
2B
102
{ACAD_REACTORS
330
2A
102
}
330
2A
100
AcDbVisualStyle
  2
Flat
 70
     0
177
     2
291
     1
 71
     2
176
     1
 72
     1
176
     1
 73
     1
176
     1
 90
        2
176
     1
 40
-0.6
176
     1
 41
30.0
176
     1
 62
     5
 63
     7
421
 16777215
176
     1
 74
     0
176
     1
 91
        4
176
     1
 64
     7
176
     1
 65
   257
176
     1
 75
     1
176
     1
175
     1
176
     1
 42
1.0
176
     1
 92
        8
176
     1
 66
     7
176
     1
 43
1.0
176
     1
 76
     1
176
     1
 77
     6
176
     1
 78
     2
176
     1
 67
     7
176
     1
 79
     5
176
     1
170
     0
176
     1
171
     0
176
     1
290
     0
176
     1
 93
       13
176
     1
 44
0.0
176
     1
173
     0
176
     1
  0
VISUALSTYLE
  5
2C
102
{ACAD_REACTORS
330
2A
102
}
330
2A
100
AcDbVisualStyle
  2
FlatWithEdges
 70
     1
177
     2
291
     1
 71
     2
176
     1
 72
     1
176
     1
 73
     1
176
     1
 90
        2
176
     1
 40
-0.6
176
     1
 41
30.0
176
     1
 62
     5
 63
     7
421
 16777215
176
     1
 74
     1
176
     1
 91
        4
176
     1
 64
     7
176
     1
 65
   257
176
     1
 75
     1
176
     1
175
     1
176
     1
 42
1.0
176
     1
 92
        0
176
     1
 66
   257
176
     1
 43
1.0
176
     1
 76
     1
176
     1
 77
     6
176
     1
 78
     2
176
     1
 67
     7
176
     1
 79
     5
176
     1
170
     0
176
     1
171
     0
176
     1
290
     0
176
     1
 93
       13
176
     1
 44
0.0
176
     1
173
     0
176
     1
  0
VISUALSTYLE
  5
2D
102
{ACAD_REACTORS
330
2A
102
}
330
2A
100
AcDbVisualStyle
  2
Gouraud
 70
     2
177
     2
291
     1
 71
     2
176
     1
 72
     2
176
     1
 73
     1
176
     1
 90
        2
176
     1
 40
-0.6
176
     1
 41
30.0
176
     1
 62
     5
 63
     7
421
 16777215
176
     1
 74
     0
176
     1
 91
        4
176
     1
 64
     7
176
     1
 65
   257
176
     1
 75
     1
176
     1
175
     1
176
     1
 42
1.0
176
     1
 92
        0
176
     1
 66
     7
176
     1
 43
1.0
176
     1
 76
     1
176
     1
 77
     6
176
     1
 78
     2
176
     1
 67
     7
176
     1
 79
     5
176
     1
170
     0
176
     1
171
     0
176
     1
290
     0
176
     1
 93
       13
176
     1
 44
0.0
176
     1
173
     0
176
     1
  0
VISUALSTYLE
  5
2E
102
{ACAD_REACTORS
330
2A
102
}
330
2A
100
AcDbVisualStyle
  2
GouraudWithEdges
 70
     3
177
     2
291
     1
 71
     2
176
     1
 72
     2
176
     1
 73
     1
176
     1
 90
        2
176
     1
 40
-0.6
176
     1
 41
30.0
176
     1
 62
     5
 63
     7
421
 16777215
176
     1
 74
     1
176
     1
 91
        4
176
     1
 64
     7
176
     1
 65
   257
176
     1
 75
     1
176
     1
175
     1
176
     1
 42
1.0
176
     1
 92
        0
176
     1
 66
   257
176
     1
 43
1.0
176
     1
 76
     1
176
     1
 77
     6
176
     1
 78
     2
176
     1
 67
     7
176
     1
 79
     5
176
     1
170
     0
176
     1
171
     0
176
     1
290
     0
176
     1
 93
       13
176
     1
 44
0.0
176
     1
173
     0
176
     1
  0
VISUALSTYLE
  5
38
102
{ACAD_REACTORS
330
2A
102
}
330
2A
100
AcDbVisualStyle
  2
Linepattern
 70
    14
177
     2
291
     1
 71
     2
176
     1
 72
     2
176
     1
 73
     0
176
     1
 90
        0
176
     1
 40
-0.6
176
     1
 41
-30.0
176
     1
 62
     5
 63
     7
421
 16777215
176
     1
 74
     1
176
     1
 91
        4
176
     1
 64
     7
176
     1
 65
   257
176
     1
 75
     7
176
     1
175
     7
176
     1
 42
1.0
176
     1
 92
        8
176
     1
 66
     7
176
     1
 43
1.0
176
     1
 76
     1
176
     1
 77
     6
176
     1
 78
     2
176
     1
 67
     7
176
     1
 79
     5
176
     1
170
     0
176
     1
171
     0
176
     1
290
     0
176
     1
 93
        1
176
     1
 44
0.0
176
     1
173
     0
176
     1
  0
VISUALSTYLE
  5
33
102
{ACAD_REACTORS
330
2A
102
}
330
2A
100
AcDbVisualStyle
  2
Realistic
 70
     8
177
     2
291
     0
 71
     2
176
     1
 72
     2
176
     1
 73
     0
176
     1
 90
        0
176
     1
 40
-0.6
176
     1
 41
-30.0
176
     1
 62
     5
 63
     7
421
 16777215
176
     1
 74
     1
176
     1
 91
        0
176
     1
 64
     7
176
     1
 65
   257
176
     1
 75
     1
176
     1
175
     1
176
     1
 42
1.0
176
     1
 92
        8
176
     1
 66
     8
424
  7895160
176
     1
 43
1.0
176
     1
 76
     1
176
     1
 77
     6
176
     1
 78
     2
176
     1
 67
     7
176
     1
 79
     5
176
     1
170
     0
176
     1
171
     0
176
     1
290
     0
176
     1
 93
       13
176
     1
 44
0.0
176
     1
173
     0
176
     1
  0
VISUALSTYLE
  5
37
102
{ACAD_REACTORS
330
2A
102
}
330
2A
100
AcDbVisualStyle
  2
Thicken
 70
    13
177
     2
291
     1
 71
     2
176
     1
 72
     2
176
     1
 73
     0
176
     1
 90
        0
176
     1
 40
-0.6
176
     1
 41
-30.0
176
     1
 62
     5
 63
     7
421
 16777215
176
     1
 74
     1
176
     1
 91
        4
176
     1
 64
     7
176
     1
 65
   257
176
     1
 75
     1
176
     1
175
     1
176
     1
 42
1.0
176
     1
 92
       12
176
     1
 66
     7
176
     1
 43
1.0
176
     1
 76
     1
176
     1
 77
     6
176
     1
 78
     2
176
     1
 67
     7
176
     1
 79
     5
176
     1
170
     0
176
     1
171
     0
176
     1
290
     0
176
     1
 93
        1
176
     1
 44
0.0
176
     1
173
     0
176
     1
  0
ENDSEC
  0
EOF
