  0
SECTION
  2
HEADER
  9
$ACADVER
  1
AC1024
  9
$ACADMAINTVER
 70
     6
  9
$DWGCODEPAGE
  3
UNDEFINED
  9
$INSBASE
 10
0.0
 20
0.0
 30
0.0
  9
$EXTMIN
 10
1.000000000000000E+20
 20
1.000000000000000E+20
 30
1.000000000000000E+20
  9
$EXTMAX
 10
-1.000000000000000E+20
 20
-1.000000000000000E+20
 30
-1.000000000000000E+20
  9
$LIMMIN
 10
0.0
 20
0.0
  9
$LIMMAX
 10
12.0
 20
9.0
  9
$ORTHOMODE
 70
     0
  9
$REGENMODE
 70
     1
  9
$FILLMODE
 70
     1
  9
$QTEXTMODE
 70
     0
  9
$MIRRTEXT
 70
     1
  9
$LTSCALE
 40
1.0
  9
$ATTMODE
 70
     1
  9
$TEXTSIZE
 40
0.2
  9
$TRACEWID
 40
0.05
  9
$TEXTSTYLE
  7
Standard
  9
$CLAYER
  8
0
  9
$CELTYPE
  6
ByLayer
  9
$CECOLOR
 62
   256
  9
$CELTSCALE
 40
1.0
  9
$DISPSILH
 70
     0
  9
$DIMSCALE
 40
1.0
  9
$DIMASZ
 40
0.18
  9
$DIMEXO
 40
0.0625
  9
$DIMDLI
 40
0.38
  9
$DIMRND
 40
0.0
  9
$DIMDLE
 40
0.0
  9
$DIMEXE
 40
0.18
  9
$DIMTP
 40
0.0
  9
$DIMTM
 40
0.0
  9
$DIMTXT
 40
0.18
  9
$DIMCEN
 40
0.09
  9
$DIMTSZ
 40
0.0
  9
$DIMTOL
 70
     0
  9
$DIMLIM
 70
     0
  9
$DIMTIH
 70
     1
  9
$DIMTOH
 70
     1
  9
$DIMSE1
 70
     0
  9
$DIMSE2
 70
     0
  9
$DIMTAD
 70
     0
  9
$DIMZIN
 70
     0
  9
$DIMBLK
  1

  9
$DIMASO
 70
     1
  9
$DIMSHO
 70
     1
  9
$DIMPOST
  1

  9
$DIMAPOST
  1

  9
$DIMALT
 70
     0
  9
$DIMALTD
 70
     2
  9
$DIMALTF
 40
25.4
  9
$DIMLFAC
 40
1.0
  9
$DIMTOFL
 70
     0
  9
$DIMTVP
 40
0.0
  9
$DIMTIX
 70
     0
  9
$DIMSOXD
 70
     0
  9
$DIMSAH
 70
     0
  9
$DIMBLK1
  1

  9
$DIMBLK2
  1

  9
$DIMSTYLE
  2
Standard
  9
$DIMCLRD
 70
     0
  9
$DIMCLRE
 70
     0
  9
$DIMCLRT
 70
     0
  9
$DIMTFAC
 40
1.0
  9
$DIMGAP
 40
0.09
  9
$DIMJUST
 70
     0
  9
$DIMSD1
 70
     0
  9
$DIMSD2
 70
     0
  9
$DIMTOLJ
 70
     1
  9
$DIMTZIN
 70
     0
  9
$DIMALTZ
 70
     0
  9
$DIMALTTZ
 70
     0
  9
$DIMUPT
 70
     0
  9
$DIMDEC
 70
     4
  9
$DIMTDEC
 70
     4
  9
$DIMALTU
 70
     2
  9
$DIMALTTD
 70
     2
  9
$DIMTXSTY
  7
Standard
  9
$DIMAUNIT
 70
     0
  9
$DIMADEC
 70
     0
  9
$DIMALTRND
 40
0.0
  9
$DIMAZIN
 70
     0
  9
$DIMDSEP
 70
    46
  9
$DIMATFIT
 70
     3
  9
$DIMFRAC
 70
     0
  9
$DIMLDRBLK
  1

  9
$DIMLUNIT
 70
     2
  9
$DIMLWD
 70
    -2
  9
$DIMLWE
 70
    -2
  9
$DIMTMOVE
 70
     0
  9
$DIMFXL
 40
1.0
  9
$DIMFXLON
 70
     0
  9
$DIMJOGANG
 40
0.7853981633974483
  9
$DIMTFILL
 70
     0
  9
$DIMTFILLCLR
 70
     0
  9
$DIMARCSYM
 70
     0
  9
$DIMLTYPE
  6

  9
$DIMLTEX1
  6

  9
$DIMLTEX2
  6

  9
$DIMTXTDIRECTION
 70
     0
  9
$LUNITS
 70
     2
  9
$LUPREC
 70
     4
  9
$SKETCHINC
 40
0.1
  9
$FILLETRAD
 40
0.5
  9
$AUNITS
 70
     0
  9
$AUPREC
 70
     0
  9
$MENU
  1
.
  9
$ELEVATION
 40
0.0
  9
$PELEVATION
 40
0.0
  9
$THICKNESS
 40
0.0
  9
$LIMCHECK
 70
     0
  9
$CHAMFERA
 40
0.5
  9
$CHAMFERB
 40
0.5
  9
$CHAMFERC
 40
1.0
  9
$CHAMFERD
 40
0.0
  9
$SKPOLY
 70
     0
  9
$TDCREATE
 40
2457917.583240741
  9
$TDUCREATE
 40
2457917.208240741
  9
$TDUPDATE
 40
2457917.583240741
  9
$TDUUPDATE
 40
2457917.208240741
  9
$TDINDWG
 40
0.0000000116
  9
$TDUSRTIMER
 40
0.0000000116
  9
$USRTIMER
 70
     1
  9
$ANGBASE
 50
0.0
  9
$ANGDIR
 70
     0
  9
$PDMODE
 70
     0
  9
$PDSIZE
 40
0.0
  9
$PLINEWID
 40
0.0
  9
$SPLFRAME
 70
     0
  9
$SPLINETYPE
 70
     6
  9
$SPLINESEGS
 70
     8
  9
$HANDSEED
  5
AC
  9
$SURFTAB1
 70
     6
  9
$SURFTAB2
 70
     6
  9
$SURFTYPE
 70
     6
  9
$SURFU
 70
     6
  9
$SURFV
 70
     6
  9
$UCSBASE
  2

  9
$UCSNAME
  2

  9
$UCSORG
 10
0.0
 20
0.0
 30
0.0
  9
$UCSXDIR
 10
1.0
 20
0.0
 30
0.0
  9
$UCSYDIR
 10
0.0
 20
1.0
 30
0.0
  9
$UCSORTHOREF
  2

  9
$UCSORTHOVIEW
 70
     0
  9
$UCSORGTOP
 10
0.0
 20
0.0
 30
0.0
  9
$UCSORGBOTTOM
 10
0.0
 20
0.0
 30
0.0
  9
$UCSORGLEFT
 10
0.0
 20
0.0
 30
0.0
  9
$UCSORGRIGHT
 10
0.0
 20
0.0
 30
0.0
  9
$UCSORGFRONT
 10
0.0
 20
0.0
 30
0.0
  9
$UCSORGBACK
 10
0.0
 20
0.0
 30
0.0
  9
$PUCSBASE
  2

  9
$PUCSNAME
  2

  9
$PUCSORG
 10
0.0
 20
0.0
 30
0.0
  9
$PUCSXDIR
 10
1.0
 20
0.0
 30
0.0
  9
$PUCSYDIR
 10
0.0
 20
1.0
 30
0.0
  9
$PUCSORTHOREF
  2

  9
$PUCSORTHOVIEW
 70
     0
  9
$PUCSORGTOP
 10
0.0
 20
0.0
 30
0.0
  9
$PUCSORGBOTTOM
 10
0.0
 20
0.0
 30
0.0
  9
$PUCSORGLEFT
 10
0.0
 20
0.0
 30
0.0
  9
$PUCSORGRIGHT
 10
0.0
 20
0.0
 30
0.0
  9
$PUCSORGFRONT
 10
0.0
 20
0.0
 30
0.0
  9
$PUCSORGBACK
 10
0.0
 20
0.0
 30
0.0
  9
$USERI1
 70
     0
  9
$USERI2
 70
     0
  9
$USERI3
 70
     0
  9
$USERI4
 70
     0
  9
$USERI5
 70
     0
  9
$USERR1
 40
0.0
  9
$USERR2
 40
0.0
  9
$USERR3
 40
0.0
  9
$USERR4
 40
0.0
  9
$USERR5
 40
0.0
  9
$WORLDVIEW
 70
     1
  9
$SHADEDGE
 70
     3
  9
$SHADEDIF
 70
    70
  9
$TILEMODE
 70
     1
  9
$MAXACTVP
 70
    64
  9
$PINSBASE
 10
0.0
 20
0.0
 30
0.0
  9
$PLIMCHECK
 70
     0
  9
$PEXTMIN
 10
1.000000000000000E+20
 20
1.000000000000000E+20
 30
1.000000000000000E+20
  9
$PEXTMAX
 10
-1.000000000000000E+20
 20
-1.000000000000000E+20
 30
-1.000000000000000E+20
  9
$PLIMMIN
 10
0.0
 20
0.0
  9
$PLIMMAX
 10
12.0
 20
9.0
  9
$UNITMODE
 70
     0
  9
$VISRETAIN
 70
     1
  9
$PLINEGEN
 70
     0
  9
$PSLTSCALE
 70
     1
  9
$TREEDEPTH
 70
  3020
  9
$CMLSTYLE
  2
Standard
  9
$CMLJUST
 70
     0
  9
$CMLSCALE
 40
1.0
  9
$PROXYGRAPHICS
 70
     1
  9
$MEASUREMENT
 70
     0
  9
$CELWEIGHT
370
    -1
  9
$ENDCAPS
280
     0
  9
$JOINSTYLE
280
     0
  9
$LWDISPLAY
290
     1
  9
$INSUNITS
 70
     1
  9
$HYPERLINKBASE
  1

  9
$STYLESHEET
  1

  9
$XEDIT
290
     1
  9
$CEPSNTYPE
380
     0
  9
$PSTYLEMODE
290
     1
  9
$FINGERPRINTGUID
  2
{C25231FC-2106-64E1-085A-689CDC21FFF2}
  9
$VERSIONGUID
  2
{FAEB1C32-E019-11D5-929B-00C0DF256EC4}
  9
$EXTNAMES
290
     1
  9
$PSVPSCALE
 40
0.0
  9
$OLESTARTUP
290
     0
  9
$SORTENTS
280
   127
  9
$INDEXCTL
280
     0
  9
$HIDETEXT
280
     1
  9
$XCLIPFRAME
280
     2
  9
$HALOGAP
280
     0
  9
$OBSCOLOR
 70
   257
  9
$OBSLTYPE
280
     0
  9
$INTERSECTIONDISPLAY
280
     0
  9
$INTERSECTIONCOLOR
 70
   257
  9
$DIMASSOC
280
     2
  9
$PROJECTNAME
  1

  9
$CAMERADISPLAY
290
     0
  9
$LENSLENGTH
 40
50.0
  9
$CAMERAHEIGHT
 40
0.0
  9
$STEPSPERSEC
 40
2.0
  9
$STEPSIZE
 40
6.0
  9
$3DDWFPREC
 40
2.0
  9
$PSOLWIDTH
 40
0.25
  9
$PSOLHEIGHT
 40
4.0
  9
$LOFTANG1
 40
1.570796326794897
  9
$LOFTANG2
 40
1.570796326794897
  9
$LOFTMAG1
 40
0.0
  9
$LOFTMAG2
 40
0.0
  9
$LOFTPARAM
 70
     7
  9
$LOFTNORMALS
280
     1
  9
$LATITUDE
 40
37.795
  9
$LONGITUDE
 40
-122.394
  9
$NORTHDIRECTION
 40
0.0
  9
$TIMEZONE
 70
 -8000
  9
$LIGHTGLYPHDISPLAY
280
     1
  9
$TILEMODELIGHTSYNCH
280
     1
  9
$CMATERIAL
347
3C
  9
$SOLIDHIST
280
     1
  9
$SHOWHIST
280
     1
  9
$DWFFRAME
280
     2
  9
$DGNFRAME
280
     2
  9
$REALWORLDSCALE
290
     1
  9
$INTERFERECOLOR
 62
   256
  9
$CSHADOW
280
     0
  9
$SHADOWPLANELOCATION
 40
0.0
  0
ENDSEC
  0
SECTION
  2
CLASSES
  0
CLASS
  1
ACDBDICTIONARYWDFLT
  2
AcDbDictionaryWithDefault
  3
ObjectDBX Classes
 90
        0
 91
        4
280
     0
281
     0
  0
CLASS
  1
VISUALSTYLE
  2
AcDbVisualStyle
  3
ObjectDBX Classes
 90
     4095
 91
        4
280
     0
281
     0
  0
CLASS
  1
MATERIAL
  2
AcDbMaterial
  3
ObjectDBX Classes
 90
     1153
 91
        4
280
     0
281
     0
  0
CLASS
  1
SUN
  2
AcDbSun
  3
SCENEOE
 90
     1024
 91
        4
280
     0
281
     0
  0
ENDSEC
  0
SECTION
  2
TABLES
  0
TABLE
  2
VPORT
  5
8
330
0
100
AcDbSymbolTable
 70
     1
  0
VPORT
  5
29
330
8
100
AcDbSymbolTableRecord
100
AcDbViewportTableRecord
  2
*Active
 70
     0
 10
0.0
 20
0.0
 11
1.0
 21
1.0
 12
0.0
 22
0.0
 13
0.0
 23
0.0
 14
0.5
 24
0.5
 15
0.5
 25
0.5
 16
0.0
 26
0.0
 36
1.0
 17
91.00082462281999
 27
-128.4993055234307
 37
0.0
 40
256.9986110468615
 41
0.7081814508812795
 42
50.0
 43
0.0
 44
0.0
 50
0.0
 51
0.0
 71
     0
 72
   100
 73
     1
 74
     3
 75
     0
 76
     0
 77
     0
 78
     0
281
     0
 65
     1
110
0.0
120
0.0
130
0.0
111
1.0
121
0.0
131
0.0
112
0.0
122
1.0
132
0.0
 79
     0
146
0.0
 60
     3
 61
     5
292
     1
282
     1
141
0.0
142
0.0
 63
   250
361
3F
  0
ENDTAB
  0
TABLE
  2
LTYPE
  5
5
330
0
100
AcDbSymbolTable
 70
     1
  0
LTYPE
  5
14
330
5
100
AcDbSymbolTableRecord
100
AcDbLinetypeTableRecord
  2
ByBlock
 70
     0
  3

 72
    65
 73
     0
 40
0.0
  0
LTYPE
  5
15
330
5
100
AcDbSymbolTableRecord
100
AcDbLinetypeTableRecord
  2
ByLayer
 70
     0
  3

 72
    65
 73
     0
 40
0.0
  0
LTYPE
  5
16
330
5
100
AcDbSymbolTableRecord
100
AcDbLinetypeTableRecord
  2
Continuous
 70
     0
  3
Solid line
 72
    65
 73
     0
 40
0.0
  0
ENDTAB
  0
TABLE
  2
LAYER
  5
2
330
0
100
AcDbSymbolTable
 70
     2
  0
LAYER
  5
10
330
2
100
AcDbSymbolTableRecord
100
AcDbLayerTableRecord
  2
0
 70
     0
 62
     7
  6
Continuous
370
    -3
390
F
347
3E
  0
LAYER
  5
40
330
2
100
AcDbSymbolTableRecord
100
AcDbLayerTableRecord
  2
_U+30EC_U+30A4_U+30E4_U+30FC 1
 70
     0
 62
     7
  6
Continuous
370
    -3
390
F
347
3E
  0
ENDTAB
  0
TABLE
  2
STYLE
  5
3
330
0
100
AcDbSymbolTable
 70
     1
  0
STYLE
  5
11
330
3
100
AcDbSymbolTableRecord
100
AcDbTextStyleTableRecord
  2
Standard
 70
     0
 40
0.0
 41
1.0
 50
0.0
 71
     0
 42
0.2
  3
txt
  4

  0
ENDTAB
  0
TABLE
  2
VIEW
  5
6
330
0
100
AcDbSymbolTable
 70
     0
  0
ENDTAB
  0
TABLE
  2
UCS
  5
7
330
0
100
AcDbSymbolTable
 70
     0
  0
ENDTAB
  0
TABLE
  2
APPID
  5
9
330
0
100
AcDbSymbolTable
 70
     1
  0
APPID
  5
12
330
9
100
AcDbSymbolTableRecord
100
AcDbRegAppTableRecord
  2
ACAD
 70
     0
  0
ENDTAB
  0
TABLE
  2
DIMSTYLE
  5
A
330
0
100
AcDbSymbolTable
 70
     1
100
AcDbDimStyleTable
  0
DIMSTYLE
105
27
330
A
100
AcDbSymbolTableRecord
100
AcDbDimStyleTableRecord
  2
Standard
 70
     0
178
     0
340
11
  0
ENDTAB
  0
TABLE
  2
BLOCK_RECORD
  5
1
330
0
100
AcDbSymbolTable
 70
     6
  0
BLOCK_RECORD
  5
1F
330
1
100
AcDbSymbolTableRecord
100
AcDbBlockTableRecord
  2
*Model_Space
340
22
 70
     0
280
     1
281
     0
  0
BLOCK_RECORD
  5
1B
330
1
100
AcDbSymbolTableRecord
100
AcDbBlockTableRecord
  2
*Paper_Space
340
1E
 70
     0
280
     1
281
     0
  0
BLOCK_RECORD
  5
23
330
1
100
AcDbSymbolTableRecord
100
AcDbBlockTableRecord
  2
*Paper_Space0
340
26
 70
     0
280
     1
281
     0
  0
BLOCK_RECORD
  5
54
330
1
100
AcDbSymbolTableRecord
100
AcDbBlockTableRecord
  2
block 2
340
0
102
{BLKREFS
331
55
102
}
 70
     0
280
     1
281
     0
  0
BLOCK_RECORD
  5
6D
330
1
100
AcDbSymbolTableRecord
100
AcDbBlockTableRecord
  2
block 3
340
0
102
{BLKREFS
331
6E
102
}
 70
     0
280
     1
281
     0
  0
BLOCK_RECORD
  5
7B
330
1
100
AcDbSymbolTableRecord
100
AcDbBlockTableRecord
  2
block 4
340
0
102
{BLKREFS
331
7C
102
}
 70
     0
280
     1
281
     0
  0
BLOCK_RECORD
  5
96
330
1
100
AcDbSymbolTableRecord
100
AcDbBlockTableRecord
  2
block 5
340
0
102
{BLKREFS
331
97
102
}
 70
     0
280
     1
281
     0
  0
BLOCK_RECORD
  5
9F
330
1
100
AcDbSymbolTableRecord
100
AcDbBlockTableRecord
  2
block 6
340
0
102
{BLKREFS
331
A0
102
}
 70
     0
280
     1
281
     0
  0
ENDTAB
  0
ENDSEC
  0
SECTION
  2
BLOCKS
  0
BLOCK
  5
20
330
1F
100
AcDbEntity
  8
0
100
AcDbBlockBegin
  2
*Model_Space
 70
     0
 10
0.0
 20
0.0
 30
0.0
  3
*Model_Space
  1

  0
ENDBLK
  5
21
330
1F
100
AcDbEntity
  8
0
100
AcDbBlockEnd
  0
BLOCK
  5
1C
330
1B
100
AcDbEntity
 67
     1
  8
0
100
AcDbBlockBegin
  2
*Paper_Space
 70
     0
 10
0.0
 20
0.0
 30
0.0
  3
*Paper_Space
  1

  0
ENDBLK
  5
1D
330
1B
100
AcDbEntity
 67
     1
  8
0
100
AcDbBlockEnd
  0
BLOCK
  5
24
330
23
100
AcDbEntity
  8
0
100
AcDbBlockBegin
  2
*Paper_Space0
 70
     0
 10
0.0
 20
0.0
 30
0.0
  3
*Paper_Space0
  1

  0
ENDBLK
  5
25
330
23
100
AcDbEntity
  8
0
100
AcDbBlockEnd
  0
BLOCK
  5
56
330
54
100
AcDbEntity
  8
0
100
AcDbBlockBegin
  2
block 2
 70
     0
 10
0.0
 20
0.0
 30
0.0
  3
block 2
  1

  0
SPLINE
  5
58
330
54
100
AcDbEntity
  8
_U+30EC_U+30A4_U+30E4_U+30FC 1
370
     0
100
AcDbSpline
210
0.0
220
0.0
230
1.0
 70
    11
 71
     3
 72
    44
 73
    40
 74
     0
 42
0.0000000001
 43
0.0000000001
 12
1.0
 22
0.0
 32
0.0
 13
1.0
 23
0.0
 33
0.0
 40
0.0
 40
0.0
 40
0.0
 40
0.0
 40
1.0
 40
1.0
 40
1.0
 40
2.0
 40
2.0
 40
2.0
 40
3.0
 40
3.0
 40
3.0
 40
4.0
 40
4.0
 40
4.0
 40
5.0
 40
5.0
 40
5.0
 40
6.0
 40
6.0
 40
6.0
 40
7.0
 40
7.0
 40
7.0
 40
8.0
 40
8.0
 40
8.0
 40
9.0
 40
9.0
 40
9.0
 40
10.0
 40
10.0
 40
10.0
 40
11.0
 40
11.0
 40
11.0
 40
12.0
 40
12.0
 40
12.0
 40
13.0
 40
13.0
 40
13.0
 40
13.0
 10
69.65052895394153
 20
-148.642434316138
 30
0.0
 10
69.62710230464184
 20
-148.5979925843783
 30
0.0
 10
69.60608722218181
 20
-148.545282623454
 30
0.0
 10
69.6038479101164
 20
-148.3144612259422
 30
0.0
 10
69.5997137955341
 20
-148.0712374846836
 30
0.0
 10
69.5404581531878
 20
-148.001302046333
 30
0.0
 10
69.36269122614891
 20
-148.001302046333
 30
0.0
 10
69.36269122614891
 20
-148.001302046333
 30
0.0
 10
68.9544474111468
 20
-148.001302046333
 30
0.0
 10
68.9544474111468
 20
-148.001302046333
 30
0.0
 10
68.9544474111468
 20
-148.001302046333
 30
0.0
 10
68.9544474111468
 20
-148.642434316138
 30
0.0
 10
68.9544474111468
 20
-148.642434316138
 30
0.0
 10
68.9544474111468
 20
-148.642434316138
 30
0.0
 10
68.71966415382703
 20
-148.642434316138
 30
0.0
 10
68.71966415382703
 20
-148.642434316138
 30
0.0
 10
68.71966415382703
 20
-148.642434316138
 30
0.0
 10
68.71966415382703
 20
-147.0979980101005
 30
0.0
 10
68.71966415382703
 20
-147.0979980101005
 30
0.0
 10
68.71966415382703
 20
-147.0979980101005
 30
0.0
 10
69.39438610461322
 20
-147.0979980101005
 30
0.0
 10
69.39438610461322
 20
-147.0979980101005
 30
0.0
 10
69.7011718575747
 20
-147.0979980101005
 30
0.0
 10
69.86843124338358
 20
-147.269563765266
 30
0.0
 10
69.86843124338358
 20
-147.52553435982
 30
0.0
 10
69.86843124338358
 20
-147.5761772634532
 30
0.0
 10
69.85981850467047
 20
-147.6588595550992
 30
0.0
 10
69.81537677291074
 20
-147.7391302799055
 30
0.0
 10
69.75629338533871
 20
-147.8428276540115
 30
0.0
 10
69.6906643163447
 20
-147.8617756791804
 30
0.0
 10
69.62934161670725
 20
-147.8786566470581
 30
0.0
 10
69.76680092656872
 20
-147.9210313215267
 30
0.0
 10
69.83449705285388
 20
-147.9696071678687
 30
0.0
 10
69.83880342221045
 20
-148.2848334047691
 30
0.0
 10
69.84293753679275
 20
-148.5556179099097
 30
0.0
 10
69.8789387846136
 20
-148.587312788374
 30
0.0
 10
69.94663491089877
 20
-148.642434316138
 30
0.0
 10
69.94663491089877
 20
-148.642434316138
 30
0.0
 10
69.65052895394153
 20
-148.642434316138
 30
0.0
 10
69.65052895394153
 20
-148.642434316138
 30
0.0
  0
SPLINE
  5
59
330
54
100
AcDbEntity
  8
_U+30EC_U+30A4_U+30E4_U+30FC 1
370
     0
100
AcDbSpline
210
0.0
220
0.0
230
1.0
 70
    11
 71
     3
 72
    20
 73
    16
 74
     0
 42
0.0000000001
 43
0.0000000001
 12
1.0
 22
0.0
 32
0.0
 13
1.0
 23
0.0
 33
0.0
 40
0.0
 40
0.0
 40
0.0
 40
0.0
 40
1.0
 40
1.0
 40
1.0
 40
2.0
 40
2.0
 40
2.0
 40
3.0
 40
3.0
 40
3.0
 40
4.0
 40
4.0
 40
4.0
 40
5.0
 40
5.0
 40
5.0
 40
5.0
 10
69.39869247396977
 20
-147.3095268728948
 30
0.0
 10
69.39869247396977
 20
-147.3095268728948
 30
0.0
 10
68.9544474111468
 20
-147.3095268728948
 30
0.0
 10
68.9544474111468
 20
-147.3095268728948
 30
0.0
 10
68.9544474111468
 20
-147.3095268728948
 30
0.0
 10
68.9544474111468
 20
-147.7897731835387
 30
0.0
 10
68.9544474111468
 20
-147.7897731835387
 30
0.0
 10
68.9544474111468
 20
-147.7897731835387
 30
0.0
 10
69.39662541667863
 20
-147.7897731835387
 30
0.0
 10
69.39662541667863
 20
-147.7897731835387
 30
0.0
 10
69.49601642142808
 20
-147.7897731835387
 30
0.0
 10
69.63140867399841
 20
-147.7136365733147
 30
0.0
 10
69.63140867399841
 20
-147.5424153276977
 30
0.0
 10
69.63140867399841
 20
-147.4642116601826
 30
0.0
 10
69.59764673824296
 20
-147.3095268728948
 30
0.0
 10
69.39869247396977
 20
-147.3095268728948
 30
0.0
  0
HATCH
  5
5A
330
54
100
AcDbEntity
  8
_U+30EC_U+30A4_U+30E4_U+30FC 1
 62
     7
420
 16777215
100
AcDbHatch
 10
0.0
 20
0.0
 30
0.0
210
0.0
220
0.0
230
1.0
  2
SOLID
 70
     1
 71
     0
 91
        2
 92
        1
 93
        1
 72
     4
 94
        3
 73
     0
 74
     1
 95
       44
 96
       40
 40
0.0
 40
0.0
 40
0.0
 40
0.0
 40
1.0
 40
1.0
 40
1.0
 40
2.0
 40
2.0
 40
2.0
 40
3.0
 40
3.0
 40
3.0
 40
4.0
 40
4.0
 40
4.0
 40
5.0
 40
5.0
 40
5.0
 40
6.0
 40
6.0
 40
6.0
 40
7.0
 40
7.0
 40
7.0
 40
8.0
 40
8.0
 40
8.0
 40
9.0
 40
9.0
 40
9.0
 40
10.0
 40
10.0
 40
10.0
 40
11.0
 40
11.0
 40
11.0
 40
12.0
 40
12.0
 40
12.0
 40
13.0
 40
13.0
 40
13.0
 40
13.0
 10
69.65052895394153
 20
-148.642434316138
 10
69.62710230464184
 20
-148.5979925843783
 10
69.60608722218181
 20
-148.545282623454
 10
69.6038479101164
 20
-148.3144612259422
 10
69.5997137955341
 20
-148.0712374846836
 10
69.5404581531878
 20
-148.001302046333
 10
69.36269122614891
 20
-148.001302046333
 10
69.36269122614891
 20
-148.001302046333
 10
68.9544474111468
 20
-148.001302046333
 10
68.9544474111468
 20
-148.001302046333
 10
68.9544474111468
 20
-148.001302046333
 10
68.9544474111468
 20
-148.642434316138
 10
68.9544474111468
 20
-148.642434316138
 10
68.9544474111468
 20
-148.642434316138
 10
68.71966415382703
 20
-148.642434316138
 10
68.71966415382703
 20
-148.642434316138
 10
68.71966415382703
 20
-148.642434316138
 10
68.71966415382703
 20
-147.0979980101005
 10
68.71966415382703
 20
-147.0979980101005
 10
68.71966415382703
 20
-147.0979980101005
 10
69.39438610461322
 20
-147.0979980101005
 10
69.39438610461322
 20
-147.0979980101005
 10
69.7011718575747
 20
-147.0979980101005
 10
69.86843124338358
 20
-147.269563765266
 10
69.86843124338358
 20
-147.52553435982
 10
69.86843124338358
 20
-147.5761772634532
 10
69.85981850467047
 20
-147.6588595550992
 10
69.81537677291074
 20
-147.7391302799055
 10
69.75629338533871
 20
-147.8428276540115
 10
69.6906643163447
 20
-147.8617756791804
 10
69.62934161670725
 20
-147.8786566470581
 10
69.76680092656872
 20
-147.9210313215267
 10
69.83449705285388
 20
-147.9696071678687
 10
69.83880342221045
 20
-148.2848334047691
 10
69.84293753679275
 20
-148.5556179099097
 10
69.8789387846136
 20
-148.587312788374
 10
69.94663491089877
 20
-148.642434316138
 10
69.94663491089877
 20
-148.642434316138
 10
69.65052895394153
 20
-148.642434316138
 10
69.65052895394153
 20
-148.642434316138
 97
        0
 97
        0
 92
        1
 93
        1
 72
     4
 94
        3
 73
     0
 74
     1
 95
       20
 96
       16
 40
0.0
 40
0.0
 40
0.0
 40
0.0
 40
1.0
 40
1.0
 40
1.0
 40
2.0
 40
2.0
 40
2.0
 40
3.0
 40
3.0
 40
3.0
 40
4.0
 40
4.0
 40
4.0
 40
5.0
 40
5.0
 40
5.0
 40
5.0
 10
69.39869247396977
 20
-147.3095268728948
 10
69.39869247396977
 20
-147.3095268728948
 10
68.9544474111468
 20
-147.3095268728948
 10
68.9544474111468
 20
-147.3095268728948
 10
68.9544474111468
 20
-147.3095268728948
 10
68.9544474111468
 20
-147.7897731835387
 10
68.9544474111468
 20
-147.7897731835387
 10
68.9544474111468
 20
-147.7897731835387
 10
69.39662541667863
 20
-147.7897731835387
 10
69.39662541667863
 20
-147.7897731835387
 10
69.49601642142808
 20
-147.7897731835387
 10
69.63140867399841
 20
-147.7136365733147
 10
69.63140867399841
 20
-147.5424153276977
 10
69.63140867399841
 20
-147.4642116601826
 10
69.59764673824296
 20
-147.3095268728948
 10
69.39869247396977
 20
-147.3095268728948
 97
        0
 97
        0
 75
     2
 76
     1
 98
        0
  0
SPLINE
  5
5B
330
54
100
AcDbEntity
  8
_U+30EC_U+30A4_U+30E4_U+30FC 1
370
     0
100
AcDbSpline
210
0.0
220
0.0
230
1.0
 70
    11
 71
     3
 72
    26
 73
    22
 74
     0
 42
0.0000000001
 43
0.0000000001
 12
1.0
 22
0.0
 32
0.0
 13
1.0
 23
0.0
 33
0.0
 40
0.0
 40
0.0
 40
0.0
 40
0.0
 40
1.0
 40
1.0
 40
1.0
 40
2.0
 40
2.0
 40
2.0
 40
3.0
 40
3.0
 40
3.0
 40
4.0
 40
4.0
 40
4.0
 40
5.0
 40
5.0
 40
5.0
 40
6.0
 40
6.0
 40
6.0
 40
7.0
 40
7.0
 40
7.0
 40
7.0
 10
70.53764104139337
 20
-148.642434316138
 30
0.0
 10
70.53764104139337
 20
-148.642434316138
 30
0.0
 10
70.53764104139337
 20
-147.5382812131154
 30
0.0
 10
70.53764104139337
 20
-147.5382812131154
 30
0.0
 10
70.53764104139337
 20
-147.5382812131154
 30
0.0
 10
70.20760089390643
 20
-147.5382812131154
 30
0.0
 10
70.20760089390643
 20
-147.5382812131154
 30
0.0
 10
70.20760089390643
 20
-147.5382812131154
 30
0.0
 10
70.20760089390643
 20
-147.3901421072497
 30
0.0
 10
70.20760089390643
 20
-147.3901421072497
 30
0.0
 10
70.53970809868451
 20
-147.3753281966631
 30
0.0
 10
70.58621688773539
 20
-147.2123751802108
 30
0.0
 10
70.61584470890854
 20
-147.0979980101005
 30
0.0
 10
70.61584470890854
 20
-147.0979980101005
 30
0.0
 10
70.76191675748314
 20
-147.0979980101005
 30
0.0
 10
70.76191675748314
 20
-147.0979980101005
 30
0.0
 10
70.76191675748314
 20
-147.0979980101005
 30
0.0
 10
70.76191675748314
 20
-148.642434316138
 30
0.0
 10
70.76191675748314
 20
-148.642434316138
 30
0.0
 10
70.76191675748314
 20
-148.642434316138
 30
0.0
 10
70.53764104139337
 20
-148.642434316138
 30
0.0
 10
70.53764104139337
 20
-148.642434316138
 30
0.0
  0
HATCH
  5
5C
330
54
100
AcDbEntity
  8
_U+30EC_U+30A4_U+30E4_U+30FC 1
 62
     7
420
 16777215
100
AcDbHatch
 10
0.0
 20
0.0
 30
0.0
210
0.0
220
0.0
230
1.0
  2
SOLID
 70
     1
 71
     0
 91
        1
 92
        1
 93
        1
 72
     4
 94
        3
 73
     0
 74
     1
 95
       26
 96
       22
 40
0.0
 40
0.0
 40
0.0
 40
0.0
 40
1.0
 40
1.0
 40
1.0
 40
2.0
 40
2.0
 40
2.0
 40
3.0
 40
3.0
 40
3.0
 40
4.0
 40
4.0
 40
4.0
 40
5.0
 40
5.0
 40
5.0
 40
6.0
 40
6.0
 40
6.0
 40
7.0
 40
7.0
 40
7.0
 40
7.0
 10
70.53764104139337
 20
-148.642434316138
 10
70.53764104139337
 20
-148.642434316138
 10
70.53764104139337
 20
-147.5382812131154
 10
70.53764104139337
 20
-147.5382812131154
 10
70.53764104139337
 20
-147.5382812131154
 10
70.20760089390643
 20
-147.5382812131154
 10
70.20760089390643
 20
-147.5382812131154
 10
70.20760089390643
 20
-147.5382812131154
 10
70.20760089390643
 20
-147.3901421072497
 10
70.20760089390643
 20
-147.3901421072497
 10
70.53970809868451
 20
-147.3753281966631
 10
70.58621688773539
 20
-147.2123751802108
 10
70.61584470890854
 20
-147.0979980101005
 10
70.61584470890854
 20
-147.0979980101005
 10
70.76191675748314
 20
-147.0979980101005
 10
70.76191675748314
 20
-147.0979980101005
 10
70.76191675748314
 20
-147.0979980101005
 10
70.76191675748314
 20
-148.642434316138
 10
70.76191675748314
 20
-148.642434316138
 10
70.76191675748314
 20
-148.642434316138
 10
70.53764104139337
 20
-148.642434316138
 10
70.53764104139337
 20
-148.642434316138
 97
        0
 97
        0
 75
     2
 76
     1
 98
        0
  0
ENDBLK
  5
57
330
54
100
AcDbEntity
  8
0
100
AcDbBlockEnd
  0
BLOCK
  5
6F
330
6D
100
AcDbEntity
  8
0
100
AcDbBlockBegin
  2
block 3
 70
     0
 10
0.0
 20
0.0
 30
0.0
  3
block 3
  1

  0
SPLINE
  5
71
330
6D
100
AcDbEntity
  8
_U+30EC_U+30A4_U+30E4_U+30FC 1
370
     0
100
AcDbSpline
210
0.0
220
0.0
230
1.0
 70
    11
 71
     3
 72
    26
 73
    22
 74
     0
 42
0.0000000001
 43
0.0000000001
 12
1.0
 22
0.0
 32
0.0
 13
1.0
 23
0.0
 33
0.0
 40
0.0
 40
0.0
 40
0.0
 40
0.0
 40
1.0
 40
1.0
 40
1.0
 40
2.0
 40
2.0
 40
2.0
 40
3.0
 40
3.0
 40
3.0
 40
4.0
 40
4.0
 40
4.0
 40
5.0
 40
5.0
 40
5.0
 40
6.0
 40
6.0
 40
6.0
 40
7.0
 40
7.0
 40
7.0
 40
7.0
 10
115.1915906830077
 20
-128.2178412222858
 30
0.0
 10
115.1915906830077
 20
-128.2178412222858
 30
0.0
 10
114.0874375799851
 20
-128.2178412222858
 30
0.0
 10
114.0874375799851
 20
-128.2178412222858
 30
0.0
 10
114.0874375799851
 20
-128.2178412222858
 30
0.0
 10
114.0874375799851
 20
-128.5478813697728
 30
0.0
 10
114.0874375799851
 20
-128.5478813697728
 30
0.0
 10
114.0874375799851
 20
-128.5478813697728
 30
0.0
 10
113.9392984741193
 20
-128.5478813697728
 30
0.0
 10
113.9392984741193
 20
-128.5478813697728
 30
0.0
 10
113.9244845635328
 20
-128.2157741649947
 30
0.0
 10
113.7615315470805
 20
-128.1692653759438
 30
0.0
 10
113.6471543769702
 20
-128.1396375547706
 30
0.0
 10
113.6471543769702
 20
-128.1396375547706
 30
0.0
 10
113.6471543769702
 20
-127.9935655061961
 30
0.0
 10
113.6471543769702
 20
-127.9935655061961
 30
0.0
 10
113.6471543769702
 20
-127.9935655061961
 30
0.0
 10
115.1915906830077
 20
-127.9935655061961
 30
0.0
 10
115.1915906830077
 20
-127.9935655061961
 30
0.0
 10
115.1915906830077
 20
-127.9935655061961
 30
0.0
 10
115.1915906830077
 20
-128.2178412222858
 30
0.0
 10
115.1915906830077
 20
-128.2178412222858
 30
0.0
  0
HATCH
  5
72
330
6D
100
AcDbEntity
  8
_U+30EC_U+30A4_U+30E4_U+30FC 1
 62
     7
420
 16777215
100
AcDbHatch
 10
0.0
 20
0.0
 30
0.0
210
0.0
220
0.0
230
1.0
  2
SOLID
 70
     1
 71
     0
 91
        1
 92
        1
 93
        1
 72
     4
 94
        3
 73
     0
 74
     1
 95
       26
 96
       22
 40
0.0
 40
0.0
 40
0.0
 40
0.0
 40
1.0
 40
1.0
 40
1.0
 40
2.0
 40
2.0
 40
2.0
 40
3.0
 40
3.0
 40
3.0
 40
4.0
 40
4.0
 40
4.0
 40
5.0
 40
5.0
 40
5.0
 40
6.0
 40
6.0
 40
6.0
 40
7.0
 40
7.0
 40
7.0
 40
7.0
 10
115.1915906830077
 20
-128.2178412222858
 10
115.1915906830077
 20
-128.2178412222858
 10
114.0874375799851
 20
-128.2178412222858
 10
114.0874375799851
 20
-128.2178412222858
 10
114.0874375799851
 20
-128.2178412222858
 10
114.0874375799851
 20
-128.5478813697728
 10
114.0874375799851
 20
-128.5478813697728
 10
114.0874375799851
 20
-128.5478813697728
 10
113.9392984741193
 20
-128.5478813697728
 10
113.9392984741193
 20
-128.5478813697728
 10
113.9244845635328
 20
-128.2157741649947
 10
113.7615315470805
 20
-128.1692653759438
 10
113.6471543769702
 20
-128.1396375547706
 10
113.6471543769702
 20
-128.1396375547706
 10
113.6471543769702
 20
-127.9935655061961
 10
113.6471543769702
 20
-127.9935655061961
 10
113.6471543769702
 20
-127.9935655061961
 10
115.1915906830077
 20
-127.9935655061961
 10
115.1915906830077
 20
-127.9935655061961
 10
115.1915906830077
 20
-127.9935655061961
 10
115.1915906830077
 20
-128.2178412222858
 10
115.1915906830077
 20
-128.2178412222858
 97
        0
 97
        0
 75
     2
 76
     1
 98
        0
  0
ENDBLK
  5
70
330
6D
100
AcDbEntity
  8
0
100
AcDbBlockEnd
  0
BLOCK
  5
7D
330
7B
100
AcDbEntity
  8
0
100
AcDbBlockBegin
  2
block 4
 70
     0
 10
0.0
 20
0.0
 30
0.0
  3
block 4
  1

  0
SPLINE
  5
7F
330
7B
100
AcDbEntity
  8
_U+30EC_U+30A4_U+30E4_U+30FC 1
370
     0
100
AcDbSpline
210
0.0
220
0.0
230
1.0
 70
    11
 71
     3
 72
    26
 73
    22
 74
     0
 42
0.0000000001
 43
0.0000000001
 12
1.0
 22
0.0
 32
0.0
 13
1.0
 23
0.0
 33
0.0
 40
0.0
 40
0.0
 40
0.0
 40
0.0
 40
1.0
 40
1.0
 40
1.0
 40
2.0
 40
2.0
 40
2.0
 40
3.0
 40
3.0
 40
3.0
 40
4.0
 40
4.0
 40
4.0
 40
5.0
 40
5.0
 40
5.0
 40
6.0
 40
6.0
 40
6.0
 40
7.0
 40
7.0
 40
7.0
 40
7.0
 10
114.7774902056806
 20
-138.3061143317429
 30
0.0
 10
114.7774902056806
 20
-138.3061143317429
 30
0.0
 10
113.6733371026581
 20
-138.3061143317429
 30
0.0
 10
113.6733371026581
 20
-138.3061143317429
 30
0.0
 10
113.6733371026581
 20
-138.3061143317429
 30
0.0
 10
113.6733371026581
 20
-138.6361544792298
 30
0.0
 10
113.6733371026581
 20
-138.6361544792298
 30
0.0
 10
113.6733371026581
 20
-138.6361544792298
 30
0.0
 10
113.5251979967923
 20
-138.6361544792298
 30
0.0
 10
113.5251979967923
 20
-138.6361544792298
 30
0.0
 10
113.5103840862057
 20
-138.3040472744518
 30
0.0
 10
113.3474310697534
 20
-138.2575384854009
 30
0.0
 10
113.2330538996431
 20
-138.2279106642277
 30
0.0
 10
113.2330538996431
 20
-138.2279106642277
 30
0.0
 10
113.2330538996431
 20
-138.0818386156532
 30
0.0
 10
113.2330538996431
 20
-138.0818386156532
 30
0.0
 10
113.2330538996431
 20
-138.0818386156532
 30
0.0
 10
114.7774902056806
 20
-138.0818386156532
 30
0.0
 10
114.7774902056806
 20
-138.0818386156532
 30
0.0
 10
114.7774902056806
 20
-138.0818386156532
 30
0.0
 10
114.7774902056806
 20
-138.3061143317429
 30
0.0
 10
114.7774902056806
 20
-138.3061143317429
 30
0.0
  0
HATCH
  5
80
330
7B
100
AcDbEntity
  8
_U+30EC_U+30A4_U+30E4_U+30FC 1
 62
     7
420
 16777215
100
AcDbHatch
 10
0.0
 20
0.0
 30
0.0
210
0.0
220
0.0
230
1.0
  2
SOLID
 70
     1
 71
     0
 91
        1
 92
        1
 93
        1
 72
     4
 94
        3
 73
     0
 74
     1
 95
       26
 96
       22
 40
0.0
 40
0.0
 40
0.0
 40
0.0
 40
1.0
 40
1.0
 40
1.0
 40
2.0
 40
2.0
 40
2.0
 40
3.0
 40
3.0
 40
3.0
 40
4.0
 40
4.0
 40
4.0
 40
5.0
 40
5.0
 40
5.0
 40
6.0
 40
6.0
 40
6.0
 40
7.0
 40
7.0
 40
7.0
 40
7.0
 10
114.7774902056806
 20
-138.3061143317429
 10
114.7774902056806
 20
-138.3061143317429
 10
113.6733371026581
 20
-138.3061143317429
 10
113.6733371026581
 20
-138.3061143317429
 10
113.6733371026581
 20
-138.3061143317429
 10
113.6733371026581
 20
-138.6361544792298
 10
113.6733371026581
 20
-138.6361544792298
 10
113.6733371026581
 20
-138.6361544792298
 10
113.5251979967923
 20
-138.6361544792298
 10
113.5251979967923
 20
-138.6361544792298
 10
113.5103840862057
 20
-138.3040472744518
 10
113.3474310697534
 20
-138.2575384854009
 10
113.2330538996431
 20
-138.2279106642277
 10
113.2330538996431
 20
-138.2279106642277
 10
113.2330538996431
 20
-138.0818386156532
 10
113.2330538996431
 20
-138.0818386156532
 10
113.2330538996431
 20
-138.0818386156532
 10
114.7774902056806
 20
-138.0818386156532
 10
114.7774902056806
 20
-138.0818386156532
 10
114.7774902056806
 20
-138.0818386156532
 10
114.7774902056806
 20
-138.3061143317429
 10
114.7774902056806
 20
-138.3061143317429
 97
        0
 97
        0
 75
     2
 76
     1
 98
        0
  0
SPLINE
  5
81
330
7B
100
AcDbEntity
  8
_U+30EC_U+30A4_U+30E4_U+30FC 1
370
     0
100
AcDbSpline
210
0.0
220
0.0
230
1.0
 70
    11
 71
     3
 72
    62
 73
    58
 74
     0
 42
0.0000000001
 43
0.0000000001
 12
1.0
 22
0.0
 32
0.0
 13
1.0
 23
0.0
 33
0.0
 40
0.0
 40
0.0
 40
0.0
 40
0.0
 40
1.0
 40
1.0
 40
1.0
 40
2.0
 40
2.0
 40
2.0
 40
3.0
 40
3.0
 40
3.0
 40
4.0
 40
4.0
 40
4.0
 40
5.0
 40
5.0
 40
5.0
 40
6.0
 40
6.0
 40
6.0
 40
7.0
 40
7.0
 40
7.0
 40
8.0
 40
8.0
 40
8.0
 40
9.0
 40
9.0
 40
9.0
 40
10.0
 40
10.0
 40
10.0
 40
11.0
 40
11.0
 40
11.0
 40
12.0
 40
12.0
 40
12.0
 40
13.0
 40
13.0
 40
13.0
 40
14.0
 40
14.0
 40
14.0
 40
15.0
 40
15.0
 40
15.0
 40
16.0
 40
16.0
 40
16.0
 40
17.0
 40
17.0
 40
17.0
 40
18.0
 40
18.0
 40
18.0
 40
19.0
 40
19.0
 40
19.0
 40
19.0
 10
114.8281331093138
 20
-137.0889620968042
 30
0.0
 10
114.8281331093138
 20
-137.1843912417456
 30
0.0
 10
114.8071180268538
 20
-137.4021212764134
 30
0.0
 10
114.6210828706503
 20
-137.5271782425279
 30
0.0
 10
114.5087727578311
 20
-137.6012477954608
 30
0.0
 10
114.4095540078559
 20
-137.6053819100431
 30
0.0
 10
114.3248046589188
 20
-137.6095160246254
 30
0.0
 10
114.3248046589188
 20
-137.6095160246254
 30
0.0
 10
114.3248046589188
 20
-137.3893744231179
 30
0.0
 10
114.3248046589188
 20
-137.3893744231179
 30
0.0
 10
114.3988742118517
 20
-137.3873073658268
 30
0.0
 10
114.6334852143972
 20
-137.376972079371
 30
0.0
 10
114.6334852143972
 20
-137.093440720935
 30
0.0
 10
114.6334852143972
 20
-136.9559814110735
 30
0.0
 10
114.5638942855951
 20
-136.8033636810769
 30
0.0
 10
114.3354844549231
 20
-136.8033636810769
 30
0.0
 10
114.2190402275216
 20
-136.8033636810769
 30
0.0
 10
114.1704643811796
 20
-136.8416042409632
 30
0.0
 10
114.1387695027153
 20
-136.8732991194275
 30
0.0
 10
114.0646999497824
 20
-136.9473686723604
 30
0.0
 10
114.051953096487
 20
-137.0638128997618
 30
0.0
 10
114.051953096487
 20
-137.1185899179773
 30
0.0
 10
114.051953096487
 20
-137.1378824526947
 30
0.0
 10
114.0540201537782
 20
-137.1737114457413
 30
0.0
 10
114.0581542683605
 20
-137.2012722096233
 30
0.0
 10
114.0581542683605
 20
-137.2012722096233
 30
0.0
 10
113.8635063734439
 20
-137.2012722096233
 30
0.0
 10
113.8635063734439
 20
-137.2012722096233
 30
0.0
 10
113.8700520548658
 20
-137.163031649737
 30
0.0
 10
113.872119112157
 20
-137.121001484817
 30
0.0
 10
113.872119112157
 20
-137.114455803395
 30
0.0
 10
113.872119112157
 20
-137.0489989891753
 30
0.0
 10
113.8507595201484
 20
-136.8502169796763
 30
0.0
 10
113.6140814603118
 20
-136.8502169796763
 30
0.0
 10
113.4363145332729
 20
-136.8502169796763
 30
0.0
 10
113.3811930055089
 20
-136.9811306081158
 30
0.0
 10
113.3811930055089
 20
-137.0913736636438
 30
0.0
 10
113.3811930055089
 20
-137.3556124873625
 30
0.0
 10
113.6140814603118
 20
-137.3642252260756
 30
0.0
 10
113.685739446405
 20
-137.3683593406579
 30
0.0
 10
113.685739446405
 20
-137.3683593406579
 30
0.0
 10
113.685739446405
 20
-137.5716199742876
 30
0.0
 10
113.685739446405
 20
-137.5716199742876
 30
0.0
 10
113.5610269898389
 20
-137.5630072355745
 30
0.0
 10
113.1844780533011
 20
-137.5354464716925
 30
0.0
 10
113.1844780533011
 20
-137.0786268103484
 30
0.0
 10
113.1844780533011
 20
-136.8543510942586
 30
0.0
 10
113.3116020767068
 20
-136.6131944102912
 30
0.0
 10
113.6075357788898
 20
-136.6131944102912
 30
0.0
 10
113.7939154446418
 20
-136.6131944102912
 30
0.0
 10
113.8762532267393
 20
-136.708279045684
 30
0.0
 10
113.9375759263767
 20
-136.8078423052078
 30
0.0
 10
113.9651366902587
 20
-136.7465196055703
 30
0.0
 10
114.045407415065
 20
-136.5646185639491
 30
0.0
 10
114.3227376016277
 20
-136.5646185639491
 30
0.0
 10
114.6610459782792
 20
-136.5646185639491
 30
0.0
 10
114.8281331093138
 20
-136.8119764197901
 30
0.0
 10
114.8281331093138
 20
-137.0889620968042
 30
0.0
  0
HATCH
  5
82
330
7B
100
AcDbEntity
  8
_U+30EC_U+30A4_U+30E4_U+30FC 1
 62
     7
420
 16777215
100
AcDbHatch
 10
0.0
 20
0.0
 30
0.0
210
0.0
220
0.0
230
1.0
  2
SOLID
 70
     1
 71
     0
 91
        1
 92
        1
 93
        1
 72
     4
 94
        3
 73
     0
 74
     1
 95
       62
 96
       58
 40
0.0
 40
0.0
 40
0.0
 40
0.0
 40
1.0
 40
1.0
 40
1.0
 40
2.0
 40
2.0
 40
2.0
 40
3.0
 40
3.0
 40
3.0
 40
4.0
 40
4.0
 40
4.0
 40
5.0
 40
5.0
 40
5.0
 40
6.0
 40
6.0
 40
6.0
 40
7.0
 40
7.0
 40
7.0
 40
8.0
 40
8.0
 40
8.0
 40
9.0
 40
9.0
 40
9.0
 40
10.0
 40
10.0
 40
10.0
 40
11.0
 40
11.0
 40
11.0
 40
12.0
 40
12.0
 40
12.0
 40
13.0
 40
13.0
 40
13.0
 40
14.0
 40
14.0
 40
14.0
 40
15.0
 40
15.0
 40
15.0
 40
16.0
 40
16.0
 40
16.0
 40
17.0
 40
17.0
 40
17.0
 40
18.0
 40
18.0
 40
18.0
 40
19.0
 40
19.0
 40
19.0
 40
19.0
 10
114.8281331093138
 20
-137.0889620968042
 10
114.8281331093138
 20
-137.1843912417456
 10
114.8071180268538
 20
-137.4021212764134
 10
114.6210828706503
 20
-137.5271782425279
 10
114.5087727578311
 20
-137.6012477954608
 10
114.4095540078559
 20
-137.6053819100431
 10
114.3248046589188
 20
-137.6095160246254
 10
114.3248046589188
 20
-137.6095160246254
 10
114.3248046589188
 20
-137.3893744231179
 10
114.3248046589188
 20
-137.3893744231179
 10
114.3988742118517
 20
-137.3873073658268
 10
114.6334852143972
 20
-137.376972079371
 10
114.6334852143972
 20
-137.093440720935
 10
114.6334852143972
 20
-136.9559814110735
 10
114.5638942855951
 20
-136.8033636810769
 10
114.3354844549231
 20
-136.8033636810769
 10
114.2190402275216
 20
-136.8033636810769
 10
114.1704643811796
 20
-136.8416042409632
 10
114.1387695027153
 20
-136.8732991194275
 10
114.0646999497824
 20
-136.9473686723604
 10
114.051953096487
 20
-137.0638128997618
 10
114.051953096487
 20
-137.1185899179773
 10
114.051953096487
 20
-137.1378824526947
 10
114.0540201537782
 20
-137.1737114457413
 10
114.0581542683605
 20
-137.2012722096233
 10
114.0581542683605
 20
-137.2012722096233
 10
113.8635063734439
 20
-137.2012722096233
 10
113.8635063734439
 20
-137.2012722096233
 10
113.8700520548658
 20
-137.163031649737
 10
113.872119112157
 20
-137.121001484817
 10
113.872119112157
 20
-137.114455803395
 10
113.872119112157
 20
-137.0489989891753
 10
113.8507595201484
 20
-136.8502169796763
 10
113.6140814603118
 20
-136.8502169796763
 10
113.4363145332729
 20
-136.8502169796763
 10
113.3811930055089
 20
-136.9811306081158
 10
113.3811930055089
 20
-137.0913736636438
 10
113.3811930055089
 20
-137.3556124873625
 10
113.6140814603118
 20
-137.3642252260756
 10
113.685739446405
 20
-137.3683593406579
 10
113.685739446405
 20
-137.3683593406579
 10
113.685739446405
 20
-137.5716199742876
 10
113.685739446405
 20
-137.5716199742876
 10
113.5610269898389
 20
-137.5630072355745
 10
113.1844780533011
 20
-137.5354464716925
 10
113.1844780533011
 20
-137.0786268103484
 10
113.1844780533011
 20
-136.8543510942586
 10
113.3116020767068
 20
-136.6131944102912
 10
113.6075357788898
 20
-136.6131944102912
 10
113.7939154446418
 20
-136.6131944102912
 10
113.8762532267393
 20
-136.708279045684
 10
113.9375759263767
 20
-136.8078423052078
 10
113.9651366902587
 20
-136.7465196055703
 10
114.045407415065
 20
-136.5646185639491
 10
114.3227376016277
 20
-136.5646185639491
 10
114.6610459782792
 20
-136.5646185639491
 10
114.8281331093138
 20
-136.8119764197901
 10
114.8281331093138
 20
-137.0889620968042
 97
        0
 97
        0
 75
     2
 76
     1
 98
        0
  0
ENDBLK
  5
7E
330
7B
100
AcDbEntity
  8
0
100
AcDbBlockEnd
  0
BLOCK
  5
98
330
96
100
AcDbEntity
  8
0
100
AcDbBlockBegin
  2
block 5
 70
     0
 10
0.0
 20
0.0
 30
0.0
  3
block 5
  1

  0
SPLINE
  5
9A
330
96
100
AcDbEntity
  8
_U+30EC_U+30A4_U+30E4_U+30FC 1
370
     0
100
AcDbSpline
210
0.0
220
0.0
230
1.0
 70
    11
 71
     3
 72
    44
 73
    40
 74
     0
 42
0.0000000001
 43
0.0000000001
 12
1.0
 22
0.0
 32
0.0
 13
1.0
 23
0.0
 33
0.0
 40
0.0
 40
0.0
 40
0.0
 40
0.0
 40
1.0
 40
1.0
 40
1.0
 40
2.0
 40
2.0
 40
2.0
 40
3.0
 40
3.0
 40
3.0
 40
4.0
 40
4.0
 40
4.0
 40
5.0
 40
5.0
 40
5.0
 40
6.0
 40
6.0
 40
6.0
 40
7.0
 40
7.0
 40
7.0
 40
8.0
 40
8.0
 40
8.0
 40
9.0
 40
9.0
 40
9.0
 40
10.0
 40
10.0
 40
10.0
 40
11.0
 40
11.0
 40
11.0
 40
12.0
 40
12.0
 40
12.0
 40
13.0
 40
13.0
 40
13.0
 40
13.0
 10
67.44411755041328
 20
-134.6646484038338
 30
0.0
 10
67.6029364522833
 20
-134.8823784385016
 30
0.0
 10
67.67700600521617
 20
-134.9753960166034
 30
0.0
 10
67.82066648695108
 20
-135.0243163724939
 30
0.0
 10
67.82066648695108
 20
-135.0243163724939
 30
0.0
 10
67.82066648695108
 20
-134.2457247928275
 30
0.0
 10
67.82066648695108
 20
-134.2457247928275
 30
0.0
 10
67.82066648695108
 20
-134.2457247928275
 30
0.0
 10
68.02599417787198
 20
-134.2457247928275
 30
0.0
 10
68.02599417787198
 20
-134.2457247928275
 30
0.0
 10
68.02599417787198
 20
-134.2457247928275
 30
0.0
 10
68.02599417787198
 20
-135.273741285626
 30
0.0
 10
68.02599417787198
 20
-135.273741285626
 30
0.0
 10
67.66839326650305
 20
-135.2420464071617
 30
0.0
 10
67.59018959898788
 20
-135.176589592942
 30
0.0
 10
67.29184432996523
 20
-134.791427917691
 30
0.0
 10
67.09306232046632
 20
-134.535457323137
 30
0.0
 10
67.0251939394069
 20
-134.4700005089172
 30
0.0
 10
66.88773462954543
 20
-134.4700005089172
 30
0.0
 10
66.76922334485283
 20
-134.4700005089172
 30
0.0
 10
66.63830971641335
 20
-134.5420030045589
 30
0.0
 10
66.63830971641335
 20
-134.7387179567667
 30
0.0
 10
66.63830971641335
 20
-134.9988226659031
 30
0.0
 10
66.86878660437655
 20
-135.0070908950677
 30
0.0
 10
66.985230831778
 20
-135.0115695191985
 30
0.0
 10
66.985230831778
 20
-135.0115695191985
 30
0.0
 10
66.985230831778
 20
-135.2358452352883
 30
0.0
 10
66.985230831778
 20
-135.2358452352883
 30
0.0
 10
66.85810680837228
 20
-135.2272324965751
 30
0.0
 10
66.74614120510167
 20
-135.2165527005709
 30
0.0
 10
66.62762992040906
 20
-135.1362819757645
 30
0.0
 10
66.4667439612479
 20
-135.0263834297851
 30
0.0
 10
66.43298202549245
 20
-134.8400037640331
 30
0.0
 10
66.43298202549245
 20
-134.7239040461801
 30
0.0
 10
66.43298202549245
 20
-134.4465738596175
 30
0.0
 10
66.6169501244048
 20
-134.2391791114055
 30
0.0
 10
66.88980168683658
 20
-134.2391791114055
 30
0.0
 10
67.11855602705717
 20
-134.2391791114055
 30
0.0
 10
67.21777477703236
 20
-134.3556233388069
 30
0.0
 10
67.44411755041328
 20
-134.6646484038338
 30
0.0
  0
HATCH
  5
9B
330
96
100
AcDbEntity
  8
_U+30EC_U+30A4_U+30E4_U+30FC 1
 62
     7
420
 16777215
100
AcDbHatch
 10
0.0
 20
0.0
 30
0.0
210
0.0
220
0.0
230
1.0
  2
SOLID
 70
     1
 71
     0
 91
        1
 92
        1
 93
        1
 72
     4
 94
        3
 73
     0
 74
     1
 95
       44
 96
       40
 40
0.0
 40
0.0
 40
0.0
 40
0.0
 40
1.0
 40
1.0
 40
1.0
 40
2.0
 40
2.0
 40
2.0
 40
3.0
 40
3.0
 40
3.0
 40
4.0
 40
4.0
 40
4.0
 40
5.0
 40
5.0
 40
5.0
 40
6.0
 40
6.0
 40
6.0
 40
7.0
 40
7.0
 40
7.0
 40
8.0
 40
8.0
 40
8.0
 40
9.0
 40
9.0
 40
9.0
 40
10.0
 40
10.0
 40
10.0
 40
11.0
 40
11.0
 40
11.0
 40
12.0
 40
12.0
 40
12.0
 40
13.0
 40
13.0
 40
13.0
 40
13.0
 10
67.44411755041328
 20
-134.6646484038338
 10
67.6029364522833
 20
-134.8823784385016
 10
67.67700600521617
 20
-134.9753960166034
 10
67.82066648695108
 20
-135.0243163724939
 10
67.82066648695108
 20
-135.0243163724939
 10
67.82066648695108
 20
-134.2457247928275
 10
67.82066648695108
 20
-134.2457247928275
 10
67.82066648695108
 20
-134.2457247928275
 10
68.02599417787198
 20
-134.2457247928275
 10
68.02599417787198
 20
-134.2457247928275
 10
68.02599417787198
 20
-134.2457247928275
 10
68.02599417787198
 20
-135.273741285626
 10
68.02599417787198
 20
-135.273741285626
 10
67.66839326650305
 20
-135.2420464071617
 10
67.59018959898788
 20
-135.176589592942
 10
67.29184432996523
 20
-134.791427917691
 10
67.09306232046632
 20
-134.535457323137
 10
67.0251939394069
 20
-134.4700005089172
 10
66.88773462954543
 20
-134.4700005089172
 10
66.76922334485283
 20
-134.4700005089172
 10
66.63830971641335
 20
-134.5420030045589
 10
66.63830971641335
 20
-134.7387179567667
 10
66.63830971641335
 20
-134.9988226659031
 10
66.86878660437655
 20
-135.0070908950677
 10
66.985230831778
 20
-135.0115695191985
 10
66.985230831778
 20
-135.0115695191985
 10
66.985230831778
 20
-135.2358452352883
 10
66.985230831778
 20
-135.2358452352883
 10
66.85810680837228
 20
-135.2272324965751
 10
66.74614120510167
 20
-135.2165527005709
 10
66.62762992040906
 20
-135.1362819757645
 10
66.4667439612479
 20
-135.0263834297851
 10
66.43298202549245
 20
-134.8400037640331
 10
66.43298202549245
 20
-134.7239040461801
 10
66.43298202549245
 20
-134.4465738596175
 10
66.6169501244048
 20
-134.2391791114055
 10
66.88980168683658
 20
-134.2391791114055
 10
67.11855602705717
 20
-134.2391791114055
 10
67.21777477703236
 20
-134.3556233388069
 10
67.44411755041328
 20
-134.6646484038338
 97
        0
 97
        0
 75
     2
 76
     1
 98
        0
  0
SPLINE
  5
9C
330
96
100
AcDbEntity
  8
_U+30EC_U+30A4_U+30E4_U+30FC 1
370
     0
100
AcDbSpline
210
0.0
220
0.0
230
1.0
 70
    11
 71
     3
 72
    29
 73
    25
 74
     0
 42
0.0000000001
 43
0.0000000001
 12
1.0
 22
0.0
 32
0.0
 13
1.0
 23
0.0
 33
0.0
 40
0.0
 40
0.0
 40
0.0
 40
0.0
 40
1.0
 40
1.0
 40
1.0
 40
2.0
 40
2.0
 40
2.0
 40
3.0
 40
3.0
 40
3.0
 40
4.0
 40
4.0
 40
4.0
 40
5.0
 40
5.0
 40
5.0
 40
6.0
 40
6.0
 40
6.0
 40
7.0
 40
7.0
 40
7.0
 40
8.0
 40
8.0
 40
8.0
 40
8.0
 10
67.84822725083309
 20
-133.1829128356279
 30
0.0
 10
68.05768905633627
 20
-133.2910888338647
 30
0.0
 10
68.07663708150515
 20
-133.4643771367728
 30
0.0
 10
68.07663708150515
 20
-133.5808213641743
 30
0.0
 10
68.07663708150515
 20
-133.7417073233354
 30
0.0
 10
68.03012829245428
 20
-133.8833007477792
 30
0.0
 10
67.84822725083309
 20
-133.9783853831721
 30
0.0
 10
67.65357935591646
 20
-134.0820827572781
 30
0.0
 10
67.41655678653127
 20
-134.101030782447
 30
0.0
 10
67.2539482796275
 20
-134.101030782447
 30
0.0
 10
67.10994328834404
 20
-134.101030782447
 30
0.0
 10
66.85810680837228
 20
-134.0841498145693
 30
0.0
 10
66.65932479887337
 20
-133.9783853831721
 30
0.0
 10
66.45640867479216
 20
-133.8705538944837
 30
0.0
 10
66.43298202549245
 20
-133.7096679353226
 30
0.0
 10
66.43298202549245
 20
-133.5808213641743
 30
0.0
 10
66.43298202549245
 20
-133.4220024623042
 30
0.0
 10
66.47742375725217
 20
-133.2783419805693
 30
0.0
 10
66.65932479887337
 20
-133.1829128356279
 30
0.0
 10
66.85190563649883
 20
-133.0836940856527
 30
0.0
 10
67.08031546717089
 20
-133.060267436353
 30
0.0
 10
67.2539482796275
 20
-133.060267436353
 30
0.0
 10
67.4251695252444
 20
-133.060267436353
 30
0.0
 10
67.65564641320762
 20
-133.0816270283615
 30
0.0
 10
67.84822725083309
 20
-133.1829128356279
 30
0.0
  0
SPLINE
  5
9D
330
96
100
AcDbEntity
  8
_U+30EC_U+30A4_U+30E4_U+30FC 1
370
     0
100
AcDbSpline
210
0.0
220
0.0
230
1.0
 70
    11
 71
     3
 72
    17
 73
    13
 74
     0
 42
0.0000000001
 43
0.0000000001
 12
1.0
 22
0.0
 32
0.0
 13
1.0
 23
0.0
 33
0.0
 40
0.0
 40
0.0
 40
0.0
 40
0.0
 40
1.0
 40
1.0
 40
1.0
 40
2.0
 40
2.0
 40
2.0
 40
3.0
 40
3.0
 40
3.0
 40
4.0
 40
4.0
 40
4.0
 40
4.0
 10
66.62556286311792
 20
-133.5808213641743
 30
0.0
 10
66.62556286311792
 20
-133.8302462773063
 30
0.0
 10
66.90909422155399
 20
-133.8770995759057
 30
0.0
 10
67.2539482796275
 20
-133.8770995759057
 30
0.0
 10
67.57330863111015
 20
-133.8770995759057
 30
0.0
 10
67.88198918658853
 20
-133.8409260733106
 30
0.0
 10
67.88198918658853
 20
-133.5808213641743
 30
0.0
 10
67.88198918658853
 20
-133.3331189987848
 30
0.0
 10
67.60086939499215
 20
-133.2845431524428
 30
0.0
 10
67.2539482796275
 20
-133.2845431524428
 30
0.0
 10
66.93424341859631
 20
-133.2845431524428
 30
0.0
 10
66.62556286311792
 20
-133.322783712329
 30
0.0
 10
66.62556286311792
 20
-133.5808213641743
 30
0.0
  0
HATCH
  5
9E
330
96
100
AcDbEntity
  8
_U+30EC_U+30A4_U+30E4_U+30FC 1
 62
     7
420
 16777215
100
AcDbHatch
 10
0.0
 20
0.0
 30
0.0
210
0.0
220
0.0
230
1.0
  2
SOLID
 70
     1
 71
     0
 91
        2
 92
        1
 93
        1
 72
     4
 94
        3
 73
     0
 74
     1
 95
       29
 96
       25
 40
0.0
 40
0.0
 40
0.0
 40
0.0
 40
1.0
 40
1.0
 40
1.0
 40
2.0
 40
2.0
 40
2.0
 40
3.0
 40
3.0
 40
3.0
 40
4.0
 40
4.0
 40
4.0
 40
5.0
 40
5.0
 40
5.0
 40
6.0
 40
6.0
 40
6.0
 40
7.0
 40
7.0
 40
7.0
 40
8.0
 40
8.0
 40
8.0
 40
8.0
 10
67.84822725083309
 20
-133.1829128356279
 10
68.05768905633627
 20
-133.2910888338647
 10
68.07663708150515
 20
-133.4643771367728
 10
68.07663708150515
 20
-133.5808213641743
 10
68.07663708150515
 20
-133.7417073233354
 10
68.03012829245428
 20
-133.8833007477792
 10
67.84822725083309
 20
-133.9783853831721
 10
67.65357935591646
 20
-134.0820827572781
 10
67.41655678653127
 20
-134.101030782447
 10
67.2539482796275
 20
-134.101030782447
 10
67.10994328834404
 20
-134.101030782447
 10
66.85810680837228
 20
-134.0841498145693
 10
66.65932479887337
 20
-133.9783853831721
 10
66.45640867479216
 20
-133.8705538944837
 10
66.43298202549245
 20
-133.7096679353226
 10
66.43298202549245
 20
-133.5808213641743
 10
66.43298202549245
 20
-133.4220024623042
 10
66.47742375725217
 20
-133.2783419805693
 10
66.65932479887337
 20
-133.1829128356279
 10
66.85190563649883
 20
-133.0836940856527
 10
67.08031546717089
 20
-133.060267436353
 10
67.2539482796275
 20
-133.060267436353
 10
67.4251695252444
 20
-133.060267436353
 10
67.65564641320762
 20
-133.0816270283615
 10
67.84822725083309
 20
-133.1829128356279
 97
        0
 97
        0
 92
        1
 93
        1
 72
     4
 94
        3
 73
     0
 74
     1
 95
       17
 96
       13
 40
0.0
 40
0.0
 40
0.0
 40
0.0
 40
1.0
 40
1.0
 40
1.0
 40
2.0
 40
2.0
 40
2.0
 40
3.0
 40
3.0
 40
3.0
 40
4.0
 40
4.0
 40
4.0
 40
4.0
 10
66.62556286311792
 20
-133.5808213641743
 10
66.62556286311792
 20
-133.8302462773063
 10
66.90909422155399
 20
-133.8770995759057
 10
67.2539482796275
 20
-133.8770995759057
 10
67.57330863111015
 20
-133.8770995759057
 10
67.88198918658853
 20
-133.8409260733106
 10
67.88198918658853
 20
-133.5808213641743
 10
67.88198918658853
 20
-133.3331189987848
 10
67.60086939499215
 20
-133.2845431524428
 10
67.2539482796275
 20
-133.2845431524428
 10
66.93424341859631
 20
-133.2845431524428
 10
66.62556286311792
 20
-133.322783712329
 10
66.62556286311792
 20
-133.5808213641743
 97
        0
 97
        0
 75
     2
 76
     1
 98
        0
  0
ENDBLK
  5
99
330
96
100
AcDbEntity
  8
0
100
AcDbBlockEnd
  0
BLOCK
  5
A1
330
9F
100
AcDbEntity
  8
0
100
AcDbBlockBegin
  2
block 6
 70
     0
 10
0.0
 20
0.0
 30
0.0
  3
block 6
  1

  0
SPLINE
  5
A3
330
9F
100
AcDbEntity
  8
_U+30EC_U+30A4_U+30E4_U+30FC 1
370
     0
100
AcDbSpline
210
0.0
220
0.0
230
1.0
 70
    11
 71
     3
 72
    26
 73
    22
 74
     0
 42
0.0000000001
 43
0.0000000001
 12
1.0
 22
0.0
 32
0.0
 13
1.0
 23
0.0
 33
0.0
 40
0.0
 40
0.0
 40
0.0
 40
0.0
 40
1.0
 40
1.0
 40
1.0
 40
2.0
 40
2.0
 40
2.0
 40
3.0
 40
3.0
 40
3.0
 40
4.0
 40
4.0
 40
4.0
 40
5.0
 40
5.0
 40
5.0
 40
6.0
 40
6.0
 40
6.0
 40
7.0
 40
7.0
 40
7.0
 40
7.0
 10
68.02599417787198
 20
-115.8065402271248
 30
0.0
 10
68.02599417787198
 20
-115.8065402271248
 30
0.0
 10
66.92184107484941
 20
-115.8065402271248
 30
0.0
 10
66.92184107484941
 20
-115.8065402271248
 30
0.0
 10
66.92184107484941
 20
-115.8065402271248
 30
0.0
 10
66.92184107484941
 20
-116.1365803746117
 30
0.0
 10
66.92184107484941
 20
-116.1365803746117
 30
0.0
 10
66.92184107484941
 20
-116.1365803746117
 30
0.0
 10
66.77370196898366
 20
-116.1365803746117
 30
0.0
 10
66.77370196898366
 20
-116.1365803746117
 30
0.0
 10
66.75888805839709
 20
-115.8044731698336
 30
0.0
 10
66.59593504194477
 20
-115.7579643807827
 30
0.0
 10
66.48155787183447
 20
-115.7283365596096
 30
0.0
 10
66.48155787183447
 20
-115.7283365596096
 30
0.0
 10
66.48155787183447
 20
-115.582264511035
 30
0.0
 10
66.48155787183447
 20
-115.582264511035
 30
0.0
 10
66.48155787183447
 20
-115.582264511035
 30
0.0
 10
68.02599417787198
 20
-115.582264511035
 30
0.0
 10
68.02599417787198
 20
-115.582264511035
 30
0.0
 10
68.02599417787198
 20
-115.582264511035
 30
0.0
 10
68.02599417787198
 20
-115.8065402271248
 30
0.0
 10
68.02599417787198
 20
-115.8065402271248
 30
0.0
  0
HATCH
  5
A4
330
9F
100
AcDbEntity
  8
_U+30EC_U+30A4_U+30E4_U+30FC 1
 62
     7
420
 16777215
100
AcDbHatch
 10
0.0
 20
0.0
 30
0.0
210
0.0
220
0.0
230
1.0
  2
SOLID
 70
     1
 71
     0
 91
        1
 92
        1
 93
        1
 72
     4
 94
        3
 73
     0
 74
     1
 95
       26
 96
       22
 40
0.0
 40
0.0
 40
0.0
 40
0.0
 40
1.0
 40
1.0
 40
1.0
 40
2.0
 40
2.0
 40
2.0
 40
3.0
 40
3.0
 40
3.0
 40
4.0
 40
4.0
 40
4.0
 40
5.0
 40
5.0
 40
5.0
 40
6.0
 40
6.0
 40
6.0
 40
7.0
 40
7.0
 40
7.0
 40
7.0
 10
68.02599417787198
 20
-115.8065402271248
 10
68.02599417787198
 20
-115.8065402271248
 10
66.92184107484941
 20
-115.8065402271248
 10
66.92184107484941
 20
-115.8065402271248
 10
66.92184107484941
 20
-115.8065402271248
 10
66.92184107484941
 20
-116.1365803746117
 10
66.92184107484941
 20
-116.1365803746117
 10
66.92184107484941
 20
-116.1365803746117
 10
66.77370196898366
 20
-116.1365803746117
 10
66.77370196898366
 20
-116.1365803746117
 10
66.75888805839709
 20
-115.8044731698336
 10
66.59593504194477
 20
-115.7579643807827
 10
66.48155787183447
 20
-115.7283365596096
 10
66.48155787183447
 20
-115.7283365596096
 10
66.48155787183447
 20
-115.582264511035
 10
66.48155787183447
 20
-115.582264511035
 10
66.48155787183447
 20
-115.582264511035
 10
68.02599417787198
 20
-115.582264511035
 10
68.02599417787198
 20
-115.582264511035
 10
68.02599417787198
 20
-115.582264511035
 10
68.02599417787198
 20
-115.8065402271248
 10
68.02599417787198
 20
-115.8065402271248
 97
        0
 97
        0
 75
     2
 76
     1
 98
        0
  0
SPLINE
  5
A5
330
9F
100
AcDbEntity
  8
_U+30EC_U+30A4_U+30E4_U+30FC 1
370
     0
100
AcDbSpline
210
0.0
220
0.0
230
1.0
 70
    11
 71
     3
 72
    29
 73
    25
 74
     0
 42
0.0000000001
 43
0.0000000001
 12
1.0
 22
0.0
 32
0.0
 13
1.0
 23
0.0
 33
0.0
 40
0.0
 40
0.0
 40
0.0
 40
0.0
 40
1.0
 40
1.0
 40
1.0
 40
2.0
 40
2.0
 40
2.0
 40
3.0
 40
3.0
 40
3.0
 40
4.0
 40
4.0
 40
4.0
 40
5.0
 40
5.0
 40
5.0
 40
6.0
 40
6.0
 40
6.0
 40
7.0
 40
7.0
 40
7.0
 40
8.0
 40
8.0
 40
8.0
 40
8.0
 10
68.07663708150515
 20
-114.5811197630214
 30
0.0
 10
68.07663708150515
 20
-114.8477701535797
 30
0.0
 10
67.93917777164368
 20
-115.1013291812941
 30
0.0
 10
67.59018959898788
 20
-115.1013291812941
 30
0.0
 10
67.3342190044338
 20
-115.1013291812941
 30
0.0
 10
67.23913436904091
 20
-114.9597357568503
 30
0.0
 10
67.17781166940347
 20
-114.8539713254532
 30
0.0
 10
67.11855602705717
 20
-114.9786837820192
 30
0.0
 10
67.00417885694688
 20
-115.0548203922432
 30
0.0
 10
66.8432928977857
 20
-115.0548203922432
 30
0.0
 10
66.56837427806278
 20
-115.0548203922432
 30
0.0
 10
66.43298202549245
 20
-114.8560383827443
 30
0.0
 10
66.43298202549245
 20
-114.5811197630214
 30
0.0
 10
66.43298202549245
 20
-114.2975884045853
 30
0.0
 10
66.57698701677589
 20
-114.107074624251
 30
0.0
 10
66.8432928977857
 20
-114.107074624251
 30
0.0
 10
67.00417885694688
 20
-114.107074624251
 30
0.0
 10
67.11855602705717
 20
-114.1856228013147
 30
0.0
 10
67.17781166940347
 20
-114.3103352578808
 30
0.0
 10
67.22845457303664
 20
-114.2214517943613
 30
0.0
 10
67.32353920842954
 20
-114.0626328924913
 30
0.0
 10
67.58605548440558
 20
-114.0626328924913
 30
0.0
 10
67.96053736365224
 20
-114.0626328924913
 30
0.0
 10
68.07663708150515
 20
-114.3420301363451
 30
0.0
 10
68.07663708150515
 20
-114.5811197630214
 30
0.0
  0
SPLINE
  5
A6
330
9F
100
AcDbEntity
  8
_U+30EC_U+30A4_U+30E4_U+30FC 1
370
     0
100
AcDbSpline
210
0.0
220
0.0
230
1.0
 70
    11
 71
     3
 72
    17
 73
    13
 74
     0
 42
0.0000000001
 43
0.0000000001
 12
1.0
 22
0.0
 32
0.0
 13
1.0
 23
0.0
 33
0.0
 40
0.0
 40
0.0
 40
0.0
 40
0.0
 40
1.0
 40
1.0
 40
1.0
 40
2.0
 40
2.0
 40
2.0
 40
3.0
 40
3.0
 40
3.0
 40
4.0
 40
4.0
 40
4.0
 40
4.0
 10
66.62556286311792
 20
-114.5811197630214
 30
0.0
 10
66.62556286311792
 20
-114.7461398367649
 30
0.0
 10
66.72064749851081
 20
-114.8305446761535
 30
0.0
 10
66.85603975108113
 20
-114.8305446761535
 30
0.0
 10
66.97868515035603
 20
-114.8305446761535
 30
0.0
 10
67.09719643504862
 20
-114.7588866900603
 30
0.0
 10
67.09719643504862
 20
-114.5811197630214
 30
0.0
 10
67.09719643504862
 20
-114.4033528359825
 30
0.0
 10
66.97868515035603
 20
-114.3313503403408
 30
0.0
 10
66.85603975108113
 20
-114.3313503403408
 30
0.0
 10
66.72064749851081
 20
-114.3313503403408
 30
0.0
 10
66.62556286311792
 20
-114.4181667465691
 30
0.0
 10
66.62556286311792
 20
-114.5811197630214
 30
0.0
  0
SPLINE
  5
A7
330
9F
100
AcDbEntity
  8
_U+30EC_U+30A4_U+30E4_U+30FC 1
370
     0
100
AcDbSpline
210
0.0
220
0.0
230
1.0
 70
    11
 71
     3
 72
    17
 73
    13
 74
     0
 42
0.0000000001
 43
0.0000000001
 12
1.0
 22
0.0
 32
0.0
 13
1.0
 23
0.0
 33
0.0
 40
0.0
 40
0.0
 40
0.0
 40
0.0
 40
1.0
 40
1.0
 40
1.0
 40
2.0
 40
2.0
 40
2.0
 40
3.0
 40
3.0
 40
3.0
 40
4.0
 40
4.0
 40
4.0
 40
4.0
 10
67.28564315809179
 20
-114.5811197630214
 30
0.0
 10
67.28564315809179
 20
-114.7247802447563
 30
0.0
 10
67.37245956432008
 20
-114.8773979747529
 30
0.0
 10
67.5753756884013
 20
-114.8773979747529
 30
0.0
 10
67.78070337932219
 20
-114.8773979747529
 30
0.0
 10
67.88198918658853
 20
-114.7502739513472
 30
0.0
 10
67.88198918658853
 20
-114.5811197630214
 30
0.0
 10
67.88198918658853
 20
-114.3950846068179
 30
0.0
 10
67.75934378731364
 20
-114.2848415512899
 30
0.0
 10
67.58157686027475
 20
-114.2848415512899
 30
0.0
 10
67.35971271102466
 20
-114.2848415512899
 30
0.0
 10
67.28564315809179
 20
-114.4477945677422
 30
0.0
 10
67.28564315809179
 20
-114.5811197630214
 30
0.0
  0
HATCH
  5
A8
330
9F
100
AcDbEntity
  8
_U+30EC_U+30A4_U+30E4_U+30FC 1
 62
     7
420
 16777215
100
AcDbHatch
 10
0.0
 20
0.0
 30
0.0
210
0.0
220
0.0
230
1.0
  2
SOLID
 70
     1
 71
     0
 91
        3
 92
        1
 93
        1
 72
     4
 94
        3
 73
     0
 74
     1
 95
       29
 96
       25
 40
0.0
 40
0.0
 40
0.0
 40
0.0
 40
1.0
 40
1.0
 40
1.0
 40
2.0
 40
2.0
 40
2.0
 40
3.0
 40
3.0
 40
3.0
 40
4.0
 40
4.0
 40
4.0
 40
5.0
 40
5.0
 40
5.0
 40
6.0
 40
6.0
 40
6.0
 40
7.0
 40
7.0
 40
7.0
 40
8.0
 40
8.0
 40
8.0
 40
8.0
 10
68.07663708150515
 20
-114.5811197630214
 10
68.07663708150515
 20
-114.8477701535797
 10
67.93917777164368
 20
-115.1013291812941
 10
67.59018959898788
 20
-115.1013291812941
 10
67.3342190044338
 20
-115.1013291812941
 10
67.23913436904091
 20
-114.9597357568503
 10
67.17781166940347
 20
-114.8539713254532
 10
67.11855602705717
 20
-114.9786837820192
 10
67.00417885694688
 20
-115.0548203922432
 10
66.8432928977857
 20
-115.0548203922432
 10
66.56837427806278
 20
-115.0548203922432
 10
66.43298202549245
 20
-114.8560383827443
 10
66.43298202549245
 20
-114.5811197630214
 10
66.43298202549245
 20
-114.2975884045853
 10
66.57698701677589
 20
-114.107074624251
 10
66.8432928977857
 20
-114.107074624251
 10
67.00417885694688
 20
-114.107074624251
 10
67.11855602705717
 20
-114.1856228013147
 10
67.17781166940347
 20
-114.3103352578808
 10
67.22845457303664
 20
-114.2214517943613
 10
67.32353920842954
 20
-114.0626328924913
 10
67.58605548440558
 20
-114.0626328924913
 10
67.96053736365224
 20
-114.0626328924913
 10
68.07663708150515
 20
-114.3420301363451
 10
68.07663708150515
 20
-114.5811197630214
 97
        0
 97
        0
 92
        1
 93
        1
 72
     4
 94
        3
 73
     0
 74
     1
 95
       17
 96
       13
 40
0.0
 40
0.0
 40
0.0
 40
0.0
 40
1.0
 40
1.0
 40
1.0
 40
2.0
 40
2.0
 40
2.0
 40
3.0
 40
3.0
 40
3.0
 40
4.0
 40
4.0
 40
4.0
 40
4.0
 10
66.62556286311792
 20
-114.5811197630214
 10
66.62556286311792
 20
-114.7461398367649
 10
66.72064749851081
 20
-114.8305446761535
 10
66.85603975108113
 20
-114.8305446761535
 10
66.97868515035603
 20
-114.8305446761535
 10
67.09719643504862
 20
-114.7588866900603
 10
67.09719643504862
 20
-114.5811197630214
 10
67.09719643504862
 20
-114.4033528359825
 10
66.97868515035603
 20
-114.3313503403408
 10
66.85603975108113
 20
-114.3313503403408
 10
66.72064749851081
 20
-114.3313503403408
 10
66.62556286311792
 20
-114.4181667465691
 10
66.62556286311792
 20
-114.5811197630214
 97
        0
 97
        0
 92
        1
 93
        1
 72
     4
 94
        3
 73
     0
 74
     1
 95
       17
 96
       13
 40
0.0
 40
0.0
 40
0.0
 40
0.0
 40
1.0
 40
1.0
 40
1.0
 40
2.0
 40
2.0
 40
2.0
 40
3.0
 40
3.0
 40
3.0
 40
4.0
 40
4.0
 40
4.0
 40
4.0
 10
67.28564315809179
 20
-114.5811197630214
 10
67.28564315809179
 20
-114.7247802447563
 10
67.37245956432008
 20
-114.8773979747529
 10
67.5753756884013
 20
-114.8773979747529
 10
67.78070337932219
 20
-114.8773979747529
 10
67.88198918658853
 20
-114.7502739513472
 10
67.88198918658853
 20
-114.5811197630214
 10
67.88198918658853
 20
-114.3950846068179
 10
67.75934378731364
 20
-114.2848415512899
 10
67.58157686027475
 20
-114.2848415512899
 10
67.35971271102466
 20
-114.2848415512899
 10
67.28564315809179
 20
-114.4477945677422
 10
67.28564315809179
 20
-114.5811197630214
 97
        0
 97
        0
 75
     2
 76
     1
 98
        0
  0
ENDBLK
  5
A2
330
9F
100
AcDbEntity
  8
0
100
AcDbBlockEnd
  0
ENDSEC
  0
SECTION
  2
ENTITIES
  0
POLYLINE
  5
41
330
1F
100
AcDbEntity
  8
_U+30EC_U+30A4_U+30E4_U+30FC 1
 62
     7
420
 16777215
370
     9
100
AcDb2dPolyline
 66
     1
 10
0.0
 20
0.0
 30
0.0
  0
VERTEX
  5
42
330
41
100
AcDbEntity
  8
_U+30EC_U+30A4_U+30E4_U+30FC 1
 62
     7
420
 16777215
370
     9
100
AcDbVertex
100
AcDb2dVertex
 10
71.30174929205194
 20
-146.6515213522257
 30
0.0
  0
VERTEX
  5
43
330
41
100
AcDbEntity
  8
_U+30EC_U+30A4_U+30E4_U+30FC 1
 62
     7
420
 16777215
370
     9
100
AcDbVertex
100
AcDb2dVertex
 10
73.91177561435352
 20
-144.0690821862049
 30
0.0
  0
SEQEND
  5
44
330
41
100
AcDbEntity
  8
_U+30EC_U+30A4_U+30E4_U+30FC 1
 62
     7
420
 16777215
370
     9
  0
POLYLINE
  5
45
330
1F
100
AcDbEntity
  8
_U+30EC_U+30A4_U+30E4_U+30FC 1
 62
     7
420
 16777215
370
     9
100
AcDb2dPolyline
 66
     1
 10
0.0
 20
0.0
 30
0.0
  0
VERTEX
  5
46
330
45
100
AcDbEntity
  8
_U+30EC_U+30A4_U+30E4_U+30FC 1
 62
     7
420
 16777215
370
     9
100
AcDbVertex
100
AcDb2dVertex
 10
72.87273925197265
 20
-144.6691924638327
 30
0.0
  0
VERTEX
  5
47
330
45
100
AcDbEntity
  8
_U+30EC_U+30A4_U+30E4_U+30FC 1
 62
     7
420
 16777215
370
     9
100
AcDbVertex
100
AcDb2dVertex
 10
73.91177561435352
 20
-144.0690821862049
 30
0.0
  0
SEQEND
  5
48
330
45
100
AcDbEntity
  8
_U+30EC_U+30A4_U+30E4_U+30FC 1
 62
     7
420
 16777215
370
     9
  0
POLYLINE
  5
49
330
1F
100
AcDbEntity
  8
_U+30EC_U+30A4_U+30E4_U+30FC 1
 62
     7
420
 16777215
370
     9
100
AcDb2dPolyline
 66
     1
 10
0.0
 20
0.0
 30
0.0
  0
VERTEX
  5
4A
330
49
100
AcDbEntity
  8
_U+30EC_U+30A4_U+30E4_U+30FC 1
 62
     7
420
 16777215
370
     9
100
AcDbVertex
100
AcDb2dVertex
 10
73.31163007410895
 20
-145.1081185748338
 30
0.0
  0
VERTEX
  5
4B
330
49
100
AcDbEntity
  8
_U+30EC_U+30A4_U+30E4_U+30FC 1
 62
     7
420
 16777215
370
     9
100
AcDbVertex
100
AcDb2dVertex
 10
73.91177561435352
 20
-144.0690821862049
 30
0.0
  0
SEQEND
  5
4C
330
49
100
AcDbEntity
  8
_U+30EC_U+30A4_U+30E4_U+30FC 1
 62
     7
420
 16777215
370
     9
  0
POLYLINE
  5
4D
330
1F
100
AcDbEntity
  8
_U+30EC_U+30A4_U+30E4_U+30FC 1
 62
     7
420
 16777215
370
    25
100
AcDb2dPolyline
 66
     1
 10
0.0
 20
0.0
 30
0.0
  0
VERTEX
  5
4E
330
4D
100
AcDbEntity
  8
_U+30EC_U+30A4_U+30E4_U+30FC 1
 62
     7
420
 16777215
370
    25
100
AcDbVertex
100
AcDb2dVertex
 10
111.6438274295064
 20
-130.1684383007914
 30
0.0
  0
VERTEX
  5
4F
330
4D
100
AcDbEntity
  8
_U+30EC_U+30A4_U+30E4_U+30FC 1
 62
     7
420
 16777215
370
    25
100
AcDbVertex
100
AcDb2dVertex
 10
111.6438274295064
 20
-131.1685633005411
 30
0.0
  0
SEQEND
  5
50
330
4D
100
AcDbEntity
  8
_U+30EC_U+30A4_U+30E4_U+30FC 1
 62
     7
420
 16777215
370
    25
  0
SPLINE
  5
51
330
1F
100
AcDbEntity
  8
_U+30EC_U+30A4_U+30E4_U+30FC 1
 62
     7
420
 16777215
370
     9
100
AcDbSpline
210
0.0
220
0.0
230
1.0
 70
    11
 71
     3
 72
    17
 73
    13
 74
     0
 42
0.0000000001
 43
0.0000000001
 12
1.0
 22
0.0
 32
0.0
 13
1.0
 23
0.0
 33
0.0
 40
0.0
 40
0.0
 40
0.0
 40
0.0
 40
1.0
 40
1.0
 40
1.0
 40
2.0
 40
2.0
 40
2.0
 40
3.0
 40
3.0
 40
3.0
 40
4.0
 40
4.0
 40
4.0
 40
4.0
 10
115.7441987137861
 20
-131.1685633005411
 30
0.0
 10
115.7441987137861
 20
-131.1134594116662
 30
0.0
 10
115.6993959371514
 20
-131.0686566338995
 30
0.0
 10
115.6442567718914
 20
-131.0686566338995
 30
0.0
 10
115.5891528844084
 20
-131.0686566338995
 30
0.0
 10
115.5443501077736
 20
-131.1134594116662
 30
0.0
 10
115.5443501077736
 20
-131.1685633005411
 30
0.0
 10
115.5443501077736
 20
-131.2237024671942
 30
0.0
 10
115.5891528844084
 20
-131.2684699671827
 30
0.0
 10
115.6442567718914
 20
-131.2684699671827
 30
0.0
 10
115.6993959371514
 20
-131.2684699671827
 30
0.0
 10
115.7441987137861
 20
-131.2237024671942
 30
0.0
 10
115.7441987137861
 20
-131.1685633005411
 30
0.0
  0
SPLINE
  5
52
330
1F
100
AcDbEntity
  8
_U+30EC_U+30A4_U+30E4_U+30FC 1
 62
     7
420
 16777215
370
     9
100
AcDbSpline
210
0.0
220
0.0
230
1.0
 70
    11
 71
     3
 72
    17
 73
    13
 74
     0
 42
0.0000000001
 43
0.0000000001
 12
1.0
 22
0.0
 32
0.0
 13
1.0
 23
0.0
 33
0.0
 40
0.0
 40
0.0
 40
0.0
 40
0.0
 40
1.0
 40
1.0
 40
1.0
 40
2.0
 40
2.0
 40
2.0
 40
3.0
 40
3.0
 40
3.0
 40
4.0
 40
4.0
 40
4.0
 40
4.0
 10
115.7441987137861
 20
-130.1684383007914
 30
0.0
 10
115.7441987137861
 20
-130.1133344119159
 30
0.0
 10
115.6993959371514
 20
-130.0685316341498
 30
0.0
 10
115.6442567718914
 20
-130.0685316341498
 30
0.0
 10
115.5891528844084
 20
-130.0685316341498
 30
0.0
 10
115.5443501077736
 20
-130.1133344119159
 30
0.0
 10
115.5443501077736
 20
-130.1684383007914
 30
0.0
 10
115.5443501077736
 20
-130.2235774674439
 30
0.0
 10
115.5891528844084
 20
-130.2683449674331
 30
0.0
 10
115.6442567718914
 20
-130.2683449674331
 30
0.0
 10
115.6993959371514
 20
-130.2683449674331
 30
0.0
 10
115.7441987137861
 20
-130.2235774674439
 30
0.0
 10
115.7441987137861
 20
-130.1684383007914
 30
0.0
  0
SPLINE
  5
53
330
1F
100
AcDbEntity
  8
_U+30EC_U+30A4_U+30E4_U+30FC 1
 62
     7
420
 16777215
370
     9
100
AcDbSpline
210
0.0
220
0.0
230
1.0
 70
    11
 71
     3
 72
    17
 73
    13
 74
     0
 42
0.0000000001
 43
0.0000000001
 12
1.0
 22
0.0
 32
0.0
 13
1.0
 23
0.0
 33
0.0
 40
0.0
 40
0.0
 40
0.0
 40
0.0
 40
1.0
 40
1.0
 40
1.0
 40
2.0
 40
2.0
 40
2.0
 40
3.0
 40
3.0
 40
3.0
 40
4.0
 40
4.0
 40
4.0
 40
4.0
 10
115.7441987137861
 20
-144.1689888528465
 30
0.0
 10
115.7441987137861
 20
-144.1138496861934
 30
0.0
 10
115.6993959371514
 20
-144.0690821862049
 30
0.0
 10
115.6442567718914
 20
-144.0690821862049
 30
0.0
 10
115.5891528844084
 20
-144.0690821862049
 30
0.0
 10
115.5443501077736
 20
-144.1138496861934
 30
0.0
 10
115.5443501077736
 20
-144.1689888528465
 30
0.0
 10
115.5443501077736
 20
-144.2240927417214
 30
0.0
 10
115.5891528844084
 20
-144.2688955194882
 30
0.0
 10
115.6442567718914
 20
-144.2688955194882
 30
0.0
 10
115.6993959371514
 20
-144.2688955194882
 30
0.0
 10
115.7441987137861
 20
-144.2240927417214
 30
0.0
 10
115.7441987137861
 20
-144.1689888528465
 30
0.0
  0
INSERT
  5
55
330
1F
100
AcDbEntity
  8
_U+30EC_U+30A4_U+30E4_U+30FC 1
100
AcDbBlockReference
  2
block 2
 10
0.0
 20
0.0
 30
0.0
  0
POLYLINE
  5
5D
330
1F
100
AcDbEntity
  8
_U+30EC_U+30A4_U+30E4_U+30FC 1
 62
     7
420
 16777215
370
     9
100
AcDb2dPolyline
 66
     1
 10
0.0
 20
0.0
 30
0.0
  0
VERTEX
  5
5E
330
5D
100
AcDbEntity
  8
_U+30EC_U+30A4_U+30E4_U+30FC 1
 62
     7
420
 16777215
370
     9
100
AcDbVertex
100
AcDb2dVertex
 10
115.6442567718914
 20
-130.1684383007914
 30
0.0
  0
VERTEX
  5
5F
330
5D
100
AcDbEntity
  8
_U+30EC_U+30A4_U+30E4_U+30FC 1
 62
     7
420
 16777215
370
     9
100
AcDbVertex
100
AcDb2dVertex
 10
115.6442567718914
 20
-127.3982508014837
 30
0.0
  0
SEQEND
  5
60
330
5D
100
AcDbEntity
  8
_U+30EC_U+30A4_U+30E4_U+30FC 1
 62
     7
420
 16777215
370
     9
  0
POLYLINE
  5
61
330
1F
100
AcDbEntity
  8
_U+30EC_U+30A4_U+30E4_U+30FC 1
 62
     7
420
 16777215
370
     9
100
AcDb2dPolyline
 66
     1
 10
0.0
 20
0.0
 30
0.0
  0
VERTEX
  5
62
330
61
100
AcDbEntity
  8
_U+30EC_U+30A4_U+30E4_U+30FC 1
 62
     7
420
 16777215
370
     9
100
AcDbVertex
100
AcDb2dVertex
 10
115.6442567718914
 20
-131.1685633005411
 30
0.0
  0
VERTEX
  5
63
330
61
100
AcDbEntity
  8
_U+30EC_U+30A4_U+30E4_U+30FC 1
 62
     7
420
 16777215
370
     9
100
AcDbVertex
100
AcDb2dVertex
 10
115.6442567718914
 20
-130.1684383007914
 30
0.0
  0
SEQEND
  5
64
330
61
100
AcDbEntity
  8
_U+30EC_U+30A4_U+30E4_U+30FC 1
 62
     7
420
 16777215
370
     9
  0
POLYLINE
  5
65
330
1F
100
AcDbEntity
  8
_U+30EC_U+30A4_U+30E4_U+30FC 1
 62
     7
420
 16777215
370
     9
100
AcDb2dPolyline
 66
     1
 10
0.0
 20
0.0
 30
0.0
  0
VERTEX
  5
66
330
65
100
AcDbEntity
  8
_U+30EC_U+30A4_U+30E4_U+30FC 1
 62
     7
420
 16777215
370
     9
100
AcDbVertex
100
AcDb2dVertex
 10
114.1842506980282
 20
-131.1685633005411
 30
0.0
  0
VERTEX
  5
67
330
65
100
AcDbEntity
  8
_U+30EC_U+30A4_U+30E4_U+30FC 1
 62
     7
420
 16777215
370
     9
100
AcDbVertex
100
AcDb2dVertex
 10
116.6440289686073
 20
-131.1685633005411
 30
0.0
  0
SEQEND
  5
68
330
65
100
AcDbEntity
  8
_U+30EC_U+30A4_U+30E4_U+30FC 1
 62
     7
420
 16777215
370
     9
  0
POLYLINE
  5
69
330
1F
100
AcDbEntity
  8
_U+30EC_U+30A4_U+30E4_U+30FC 1
 62
     7
420
 16777215
370
     9
100
AcDb2dPolyline
 66
     1
 10
0.0
 20
0.0
 30
0.0
  0
VERTEX
  5
6A
330
69
100
AcDbEntity
  8
_U+30EC_U+30A4_U+30E4_U+30FC 1
 62
     7
420
 16777215
370
     9
100
AcDbVertex
100
AcDb2dVertex
 10
114.1842506980282
 20
-130.1684383007914
 30
0.0
  0
VERTEX
  5
6B
330
69
100
AcDbEntity
  8
_U+30EC_U+30A4_U+30E4_U+30FC 1
 62
     7
420
 16777215
370
     9
100
AcDbVertex
100
AcDb2dVertex
 10
116.6440289686073
 20
-130.1684383007914
 30
0.0
  0
SEQEND
  5
6C
330
69
100
AcDbEntity
  8
_U+30EC_U+30A4_U+30E4_U+30FC 1
 62
     7
420
 16777215
370
     9
  0
INSERT
  5
6E
330
1F
100
AcDbEntity
  8
_U+30EC_U+30A4_U+30E4_U+30FC 1
100
AcDbBlockReference
  2
block 3
 10
0.0
 20
0.0
 30
0.0
  0
POLYLINE
  5
73
330
1F
100
AcDbEntity
  8
_U+30EC_U+30A4_U+30E4_U+30FC 1
 62
     7
420
 16777215
370
     9
100
AcDb2dPolyline
 66
     1
 10
0.0
 20
0.0
 30
0.0
  0
VERTEX
  5
74
330
73
100
AcDbEntity
  8
_U+30EC_U+30A4_U+30E4_U+30FC 1
 62
     7
420
 16777215
370
     9
100
AcDbVertex
100
AcDb2dVertex
 10
115.6442567718914
 20
-131.1685633005411
 30
0.0
  0
VERTEX
  5
75
330
73
100
AcDbEntity
  8
_U+30EC_U+30A4_U+30E4_U+30FC 1
 62
     7
420
 16777215
370
     9
100
AcDbVertex
100
AcDb2dVertex
 10
115.6442567718914
 20
-144.1689888528465
 30
0.0
  0
SEQEND
  5
76
330
73
100
AcDbEntity
  8
_U+30EC_U+30A4_U+30E4_U+30FC 1
 62
     7
420
 16777215
370
     9
  0
POLYLINE
  5
77
330
1F
100
AcDbEntity
  8
_U+30EC_U+30A4_U+30E4_U+30FC 1
 62
     7
420
 16777215
370
     9
100
AcDb2dPolyline
 66
     1
 10
0.0
 20
0.0
 30
0.0
  0
VERTEX
  5
78
330
77
100
AcDbEntity
  8
_U+30EC_U+30A4_U+30E4_U+30FC 1
 62
     7
420
 16777215
370
     9
100
AcDbVertex
100
AcDb2dVertex
 10
96.18362393504022
 20
-144.1689888528465
 30
0.0
  0
VERTEX
  5
79
330
77
100
AcDbEntity
  8
_U+30EC_U+30A4_U+30E4_U+30FC 1
 62
     7
420
 16777215
370
     9
100
AcDbVertex
100
AcDb2dVertex
 10
116.6440289686073
 20
-144.1689888528465
 30
0.0
  0
SEQEND
  5
7A
330
77
100
AcDbEntity
  8
_U+30EC_U+30A4_U+30E4_U+30FC 1
 62
     7
420
 16777215
370
     9
  0
INSERT
  5
7C
330
1F
100
AcDbEntity
  8
_U+30EC_U+30A4_U+30E4_U+30FC 1
100
AcDbBlockReference
  2
block 4
 10
0.0
 20
0.0
 30
0.0
  0
SPLINE
  5
83
330
1F
100
AcDbEntity
  8
_U+30EC_U+30A4_U+30E4_U+30FC 1
 62
     7
420
 16777215
370
     9
100
AcDbSpline
210
0.0
220
0.0
230
1.0
 70
    11
 71
     3
 72
    17
 73
    13
 74
     0
 42
0.0000000001
 43
0.0000000001
 12
1.0
 22
0.0
 32
0.0
 13
1.0
 23
0.0
 33
0.0
 40
0.0
 40
0.0
 40
0.0
 40
0.0
 40
1.0
 40
1.0
 40
1.0
 40
2.0
 40
2.0
 40
2.0
 40
3.0
 40
3.0
 40
3.0
 40
4.0
 40
4.0
 40
4.0
 40
4.0
 10
68.89640463119517
 20
-144.2695657972662
 30
0.0
 10
68.95150851867824
 20
-144.2695657972662
 30
0.0
 10
68.996311295313
 20
-144.224798297277
 30
0.0
 10
68.996311295313
 20
-144.1689888528465
 30
0.0
 10
68.996311295313
 20
-144.1138496861934
 30
0.0
 10
68.95150851867824
 20
-144.0690821862049
 30
0.0
 10
68.89640463119517
 20
-144.0690821862049
 30
0.0
 10
68.84126546593522
 20
-144.0690821862049
 30
0.0
 10
68.79649796707734
 20
-144.1138496861934
 30
0.0
 10
68.79649796707734
 20
-144.1689888528465
 30
0.0
 10
68.79649796707734
 20
-144.224798297277
 30
0.0
 10
68.84126546593522
 20
-144.2695657972662
 30
0.0
 10
68.89640463119517
 20
-144.2695657972662
 30
0.0
  0
SPLINE
  5
84
330
1F
100
AcDbEntity
  8
_U+30EC_U+30A4_U+30E4_U+30FC 1
 62
     7
420
 16777215
370
     9
100
AcDbSpline
210
0.0
220
0.0
230
1.0
 70
    11
 71
     3
 72
    17
 73
    13
 74
     0
 42
0.0000000001
 43
0.0000000001
 12
1.0
 22
0.0
 32
0.0
 13
1.0
 23
0.0
 33
0.0
 40
0.0
 40
0.0
 40
0.0
 40
0.0
 40
1.0
 40
1.0
 40
1.0
 40
2.0
 40
2.0
 40
2.0
 40
3.0
 40
3.0
 40
3.0
 40
4.0
 40
4.0
 40
4.0
 40
4.0
 10
68.89640463119517
 20
-124.2680535800441
 30
0.0
 10
68.95150851867824
 20
-124.2680535800441
 30
0.0
 10
68.996311295313
 20
-124.2232508022774
 30
0.0
 10
68.996311295313
 20
-124.1681469134025
 30
0.0
 10
68.996311295313
 20
-124.1130077467494
 30
0.0
 10
68.95150851867824
 20
-124.0682402467609
 30
0.0
 10
68.89640463119517
 20
-124.0682402467609
 30
0.0
 10
68.84126546593522
 20
-124.0682402467609
 30
0.0
 10
68.79649796707734
 20
-124.1130077467494
 30
0.0
 10
68.79649796707734
 20
-124.1681469134025
 30
0.0
 10
68.79649796707734
 20
-124.2232508022774
 30
0.0
 10
68.84126546593522
 20
-124.2680535800441
 30
0.0
 10
68.89640463119517
 20
-124.2680535800441
 30
0.0
  0
SPLINE
  5
85
330
1F
100
AcDbEntity
  8
_U+30EC_U+30A4_U+30E4_U+30FC 1
 62
     7
420
 16777215
370
     9
100
AcDbSpline
210
0.0
220
0.0
230
1.0
 70
    11
 71
     3
 72
    17
 73
    13
 74
     0
 42
0.0000000001
 43
0.0000000001
 12
1.0
 22
0.0
 32
0.0
 13
1.0
 23
0.0
 33
0.0
 40
0.0
 40
0.0
 40
0.0
 40
0.0
 40
1.0
 40
1.0
 40
1.0
 40
2.0
 40
2.0
 40
2.0
 40
3.0
 40
3.0
 40
3.0
 40
4.0
 40
4.0
 40
4.0
 40
4.0
 10
68.89640463119517
 20
-106.2684494178774
 30
0.0
 10
68.95150851867824
 20
-106.2684494178774
 30
0.0
 10
68.996311295313
 20
-106.2236466401106
 30
0.0
 10
68.996311295313
 20
-106.1685427512357
 30
0.0
 10
68.996311295313
 20
-106.1134035845826
 30
0.0
 10
68.95150851867824
 20
-106.0686360845941
 30
0.0
 10
68.89640463119517
 20
-106.0686360845941
 30
0.0
 10
68.84126546593522
 20
-106.0686360845941
 30
0.0
 10
68.79649796707734
 20
-106.1134035845826
 30
0.0
 10
68.79649796707734
 20
-106.1685427512357
 30
0.0
 10
68.79649796707734
 20
-106.2236466401106
 30
0.0
 10
68.84126546593522
 20
-106.2684494178774
 30
0.0
 10
68.89640463119517
 20
-106.2684494178774
 30
0.0
  0
POLYLINE
  5
86
330
1F
100
AcDbEntity
  8
_U+30EC_U+30A4_U+30E4_U+30FC 1
 62
     7
420
 16777215
370
     9
100
AcDb2dPolyline
 66
     1
 10
0.0
 20
0.0
 30
0.0
  0
VERTEX
  5
87
330
86
100
AcDbEntity
  8
_U+30EC_U+30A4_U+30E4_U+30FC 1
 62
     7
420
 16777215
370
     9
100
AcDbVertex
100
AcDb2dVertex
 10
68.89640463119517
 20
-106.1685427512357
 30
0.0
  0
VERTEX
  5
88
330
86
100
AcDbEntity
  8
_U+30EC_U+30A4_U+30E4_U+30FC 1
 62
     7
420
 16777215
370
     9
100
AcDbVertex
100
AcDb2dVertex
 10
68.89640463119517
 20
-144.1689888528465
 30
0.0
  0
SEQEND
  5
89
330
86
100
AcDbEntity
  8
_U+30EC_U+30A4_U+30E4_U+30FC 1
 62
     7
420
 16777215
370
     9
  0
POLYLINE
  5
8A
330
1F
100
AcDbEntity
  8
_U+30EC_U+30A4_U+30E4_U+30FC 1
 62
     7
420
 16777215
370
     9
100
AcDb2dPolyline
 66
     1
 10
0.0
 20
0.0
 30
0.0
  0
VERTEX
  5
8B
330
8A
100
AcDbEntity
  8
_U+30EC_U+30A4_U+30E4_U+30FC 1
 62
     7
420
 16777215
370
     9
100
AcDbVertex
100
AcDb2dVertex
 10
71.14398887110278
 20
-124.1681469134025
 30
0.0
  0
VERTEX
  5
8C
330
8A
100
AcDbEntity
  8
_U+30EC_U+30A4_U+30E4_U+30FC 1
 62
     7
420
 16777215
370
     9
100
AcDbVertex
100
AcDb2dVertex
 10
67.89592687894171
 20
-124.1681469134025
 30
0.0
  0
SEQEND
  5
8D
330
8A
100
AcDbEntity
  8
_U+30EC_U+30A4_U+30E4_U+30FC 1
 62
     7
420
 16777215
370
     9
  0
POLYLINE
  5
8E
330
1F
100
AcDbEntity
  8
_U+30EC_U+30A4_U+30E4_U+30FC 1
 62
     7
420
 16777215
370
     9
100
AcDb2dPolyline
 66
     1
 10
0.0
 20
0.0
 30
0.0
  0
VERTEX
  5
8F
330
8E
100
AcDbEntity
  8
_U+30EC_U+30A4_U+30E4_U+30FC 1
 62
     7
420
 16777215
370
     9
100
AcDbVertex
100
AcDb2dVertex
 10
71.14398887110278
 20
-144.1689888528465
 30
0.0
  0
VERTEX
  5
90
330
8E
100
AcDbEntity
  8
_U+30EC_U+30A4_U+30E4_U+30FC 1
 62
     7
420
 16777215
370
     9
100
AcDbVertex
100
AcDb2dVertex
 10
67.89592687894171
 20
-144.1689888528465
 30
0.0
  0
SEQEND
  5
91
330
8E
100
AcDbEntity
  8
_U+30EC_U+30A4_U+30E4_U+30FC 1
 62
     7
420
 16777215
370
     9
  0
POLYLINE
  5
92
330
1F
100
AcDbEntity
  8
_U+30EC_U+30A4_U+30E4_U+30FC 1
 62
     7
420
 16777215
370
     9
100
AcDb2dPolyline
 66
     1
 10
0.0
 20
0.0
 30
0.0
  0
VERTEX
  5
93
330
92
100
AcDbEntity
  8
_U+30EC_U+30A4_U+30E4_U+30FC 1
 62
     7
420
 16777215
370
     9
100
AcDbVertex
100
AcDb2dVertex
 10
84.14405951997287
 20
-106.1685427512357
 30
0.0
  0
VERTEX
  5
94
330
92
100
AcDbEntity
  8
_U+30EC_U+30A4_U+30E4_U+30FC 1
 62
     7
420
 16777215
370
     9
100
AcDbVertex
100
AcDb2dVertex
 10
67.89592687894171
 20
-106.1685427512357
 30
0.0
  0
SEQEND
  5
95
330
92
100
AcDbEntity
  8
_U+30EC_U+30A4_U+30E4_U+30FC 1
 62
     7
420
 16777215
370
     9
  0
INSERT
  5
97
330
1F
100
AcDbEntity
  8
_U+30EC_U+30A4_U+30E4_U+30FC 1
100
AcDbBlockReference
  2
block 5
 10
0.0
 20
0.0
 30
0.0
  0
INSERT
  5
A0
330
1F
100
AcDbEntity
  8
_U+30EC_U+30A4_U+30E4_U+30FC 1
100
AcDbBlockReference
  2
block 6
 10
0.0
 20
0.0
 30
0.0
  0
SPLINE
  5
A9
330
1F
100
AcDbEntity
  8
_U+30EC_U+30A4_U+30E4_U+30FC 1
 62
     7
420
 16777215
370
    25
100
AcDbSpline
210
0.0
220
0.0
230
1.0
 70
     8
 71
     3
 72
    47
 73
    43
 74
     0
 42
0.0000000001
 43
0.0000000001
 12
1.0
 22
0.0
 32
0.0
 13
1.0
 23
0.0
 33
0.0
 40
0.0
 40
0.0
 40
0.0
 40
0.0
 40
1.0
 40
1.0
 40
1.0
 40
2.0
 40
2.0
 40
2.0
 40
3.0
 40
3.0
 40
3.0
 40
4.0
 40
4.0
 40
4.0
 40
5.0
 40
5.0
 40
5.0
 40
6.0
 40
6.0
 40
6.0
 40
7.0
 40
7.0
 40
7.0
 40
8.0
 40
8.0
 40
8.0
 40
9.0
 40
9.0
 40
9.0
 40
10.0
 40
10.0
 40
10.0
 40
11.0
 40
11.0
 40
11.0
 40
12.0
 40
12.0
 40
12.0
 40
13.0
 40
13.0
 40
13.0
 40
14.0
 40
14.0
 40
14.0
 40
14.0
 10
111.6438274295064
 20
-130.1684383007914
 30
0.0
 10
111.6438274295064
 20
-130.1684383007914
 30
0.0
 10
91.15721100771913
 20
-130.1684383007914
 30
0.0
 10
91.15721100771913
 20
-130.1684383007914
 30
0.0
 10
91.15721100771913
 20
-130.1684383007914
 30
0.0
 10
92.5297634727024
 20
-143.1361260753272
 30
0.0
 10
92.5297634727024
 20
-143.1361260753272
 30
0.0
 10
92.5297634727024
 20
-143.1361260753272
 30
0.0
 10
74.6765625392866
 20
-143.1361260753272
 30
0.0
 10
74.6765625392866
 20
-143.1361260753272
 30
0.0
 10
74.6765625392866
 20
-143.1361260753272
 30
0.0
 10
74.6765625392866
 20
-125.2829599686794
 30
0.0
 10
74.6765625392866
 20
-125.2829599686794
 30
0.0
 10
74.6765625392866
 20
-125.2829599686794
 30
0.0
 10
87.64393248623922
 20
-126.7650499683087
 30
0.0
 10
87.64393248623922
 20
-126.7650499683087
 30
0.0
 10
87.64393248623922
 20
-126.7650499683087
 30
0.0
 10
87.64393248623922
 20
-106.1685427512357
 30
0.0
 10
87.64393248623922
 20
-106.1685427512357
 30
0.0
 10
87.64393248623922
 20
-106.1685427512357
 30
0.0
 10
86.64380751175453
 20
-106.1685427512357
 30
0.0
 10
86.64380751175453
 20
-106.1685427512357
 30
0.0
 10
86.64380751175453
 20
-106.1685427512357
 30
0.0
 10
86.64380751175453
 20
-125.654011635253
 30
0.0
 10
86.64380751175453
 20
-125.654011635253
 30
0.0
 10
86.64380751175453
 20
-125.654011635253
 30
0.0
 10
73.64373506563624
 20
-124.1684644134024
 30
0.0
 10
73.64373506563624
 20
-124.1684644134024
 30
0.0
 10
73.64373506563624
 20
-124.1684644134024
 30
0.0
 10
73.64373506563624
 20
-143.1685110753191
 30
0.0
 10
73.64373506563624
 20
-143.1685110753191
 30
0.0
 10
73.64373506563624
 20
-143.7190560751811
 30
0.0
 10
74.09366783193528
 20
-144.1689888528465
 30
0.0
 10
74.64350726235214
 20
-144.1689888528465
 30
0.0
 10
74.64350726235214
 20
-144.1689888528465
 30
0.0
 10
93.64390622205603
 20
-144.1689888528465
 30
0.0
 10
93.64390622205603
 20
-144.1689888528465
 30
0.0
 10
93.64390622205603
 20
-144.1689888528465
 30
0.0
 10
92.26793181271562
 20
-131.1685633005411
 30
0.0
 10
92.26793181271562
 20
-131.1685633005411
 30
0.0
 10
92.26793181271562
 20
-131.1685633005411
 30
0.0
 10
111.6438274295064
 20
-131.1685633005411
 30
0.0
 10
111.6438274295064
 20
-131.1685633005411
 30
0.0
  0
ENDSEC
  0
SECTION
  2
OBJECTS
  0
DICTIONARY
  5
C
330
0
100
AcDbDictionary
281
     1
  3
ACAD_GROUP
350
D
  3
ACAD_LAYOUT
350
1A
  3
ACAD_MATERIAL
350
3B
  3
ACAD_MLEADERSTYLE
350
AB
  3
ACAD_MLINESTYLE
350
17
  3
ACAD_PLOTSETTINGS
350
19
  3
ACAD_PLOTSTYLENAME
350
E
  3
ACAD_TABLESTYLE
350
AA
  3
ACAD_VISUALSTYLE
350
2A
  0
SUN
  5
3F
330
29
100
AcDbSun
 90
        1
290
     0
 63
     7
421
 16777215
 40
1.0
291
     1
 91
  2455826
 92
 54000000
292
     0
 70
     2
 71
   256
280
     1
  0
DICTIONARY
  5
D
102
{ACAD_REACTORS
330
C
102
}
330
C
100
AcDbDictionary
281
     1
  0
DICTIONARY
  5
1A
102
{ACAD_REACTORS
330
C
102
}
330
C
100
AcDbDictionary
281
     1
  3
Layout1
350
1E
  3
Layout2
350
26
  3
Model
350
22
  0
DICTIONARY
  5
3B
102
{ACAD_REACTORS
330
C
102
}
330
C
100
AcDbDictionary
281
     1
  3
ByBlock
350
3D
  3
ByLayer
350
3C
  3
Global
350
3E
  0
DICTIONARY
  5
AB
102
{ACAD_REACTORS
330
C
102
}
330
C
100
AcDbDictionary
281
     1
  0
DICTIONARY
  5
17
102
{ACAD_REACTORS
330
C
102
}
330
C
100
AcDbDictionary
281
     1
  3
Standard
350
18
  0
DICTIONARY
  5
19
102
{ACAD_REACTORS
330
C
102
}
330
C
100
AcDbDictionary
281
     1
  0
ACDBDICTIONARYWDFLT
  5
E
102
{ACAD_REACTORS
330
C
102
}
330
C
100
AcDbDictionary
281
     1
  3
Normal
350
F
100
AcDbDictionaryWithDefault
340
F
  0
DICTIONARY
  5
AA
102
{ACAD_REACTORS
330
C
102
}
330
C
100
AcDbDictionary
281
     1
  0
DICTIONARY
  5
2A
102
{ACAD_REACTORS
330
C
102
}
330
C
100
AcDbDictionary
281
     1
  3
2dWireframe
350
2F
  3
3D Hidden
350
31
  3
3dWireframe
350
30
  3
Basic
350
32
  3
Brighten
350
36
  3
ColorChange
350
3A
  3
Conceptual
350
34
  3
Dim
350
35
  3
Facepattern
350
39
  3
Flat
350
2B
  3
FlatWithEdges
350
2C
  3
Gouraud
350
2D
  3
GouraudWithEdges
350
2E
  3
Linepattern
350
38
  3
Realistic
350
33
  3
Thicken
350
37
  0
LAYOUT
  5
1E
102
{ACAD_REACTORS
330
1A
102
}
330
1A
100
AcDbPlotSettings
  1

  2
none_device
  4

  6

 40
0.0
 41
0.0
 42
0.0
 43
0.0
 44
0.0
 45
0.0
 46
0.0
 47
0.0
 48
0.0
 49
0.0
140
0.0
141
0.0
142
1.0
143
1.0
 70
   688
 72
     0
 73
     0
 74
     5
  7

 75
    16
 76
     0
 77
     2
 78
   300
147
1.0
148
0.0
149
0.0
100
AcDbLayout
  1
Layout1
 70
     1
 71
     1
 10
0.0
 20
0.0
 11
12.0
 21
9.0
 12
0.0
 22
0.0
 32
0.0
 14
1.000000000000000E+20
 24
1.000000000000000E+20
 34
1.000000000000000E+20
 15
-1.000000000000000E+20
 25
-1.000000000000000E+20
 35
-1.000000000000000E+20
146
0.0
 13
0.0
 23
0.0
 33
0.0
 16
1.0
 26
0.0
 36
0.0
 17
0.0
 27
1.0
 37
0.0
 76
     0
330
1B
  0
LAYOUT
  5
26
102
{ACAD_REACTORS
330
1A
102
}
330
1A
100
AcDbPlotSettings
  1

  2
none_device
  4

  6

 40
0.0
 41
0.0
 42
0.0
 43
0.0
 44
0.0
 45
0.0
 46
0.0
 47
0.0
 48
0.0
 49
0.0
140
0.0
141
0.0
142
1.0
143
1.0
 70
   688
 72
     0
 73
     0
 74
     5
  7

 75
    16
 76
     0
 77
     2
 78
   300
147
1.0
148
0.0
149
0.0
100
AcDbLayout
  1
Layout2
 70
     1
 71
     2
 10
0.0
 20
0.0
 11
0.0
 21
0.0
 12
0.0
 22
0.0
 32
0.0
 14
0.0
 24
0.0
 34
0.0
 15
0.0
 25
0.0
 35
0.0
146
0.0
 13
0.0
 23
0.0
 33
0.0
 16
1.0
 26
0.0
 36
0.0
 17
0.0
 27
1.0
 37
0.0
 76
     0
330
23
  0
LAYOUT
  5
22
102
{ACAD_REACTORS
330
1A
102
}
330
1A
100
AcDbPlotSettings
  1

  2
none_device
  4

  6

 40
0.0
 41
0.0
 42
0.0
 43
0.0
 44
0.0
 45
0.0
 46
0.0
 47
0.0
 48
0.0
 49
0.0
140
0.0
141
0.0
142
1.0
143
1.0
 70
  1712
 72
     0
 73
     0
 74
     0
  7

 75
     0
 76
     0
 77
     2
 78
   300
147
1.0
148
0.0
149
0.0
100
AcDbLayout
  1
Model
 70
     1
 71
     0
 10
0.0
 20
0.0
 11
12.0
 21
9.0
 12
0.0
 22
0.0
 32
0.0
 14
1.000000000000000E+20
 24
1.000000000000000E+20
 34
1.000000000000000E+20
 15
-1.000000000000000E+20
 25
-1.000000000000000E+20
 35
-1.000000000000000E+20
146
0.0
 13
0.0
 23
0.0
 33
0.0
 16
1.0
 26
0.0
 36
0.0
 17
0.0
 27
1.0
 37
0.0
 76
     0
330
1F
331
29
  0
MATERIAL
  5
3D
102
{ACAD_REACTORS
330
3B
102
}
330
3B
100
AcDbMaterial
  1
ByBlock
 72
     1
 94
      127
  0
MATERIAL
  5
3C
102
{ACAD_REACTORS
330
3B
102
}
330
3B
100
AcDbMaterial
  1
ByLayer
 72
     1
 94
      127
  0
MATERIAL
  5
3E
102
{ACAD_REACTORS
330
3B
102
}
330
3B
100
AcDbMaterial
  1
Global
 72
     1
 94
      127
  0
MLINESTYLE
  5
18
102
{ACAD_REACTORS
330
17
102
}
330
17
100
AcDbMlineStyle
  2
Standard
 70
     0
  3

 62
   256
 51
90.0
 52
90.0
 71
     2
 49
0.5
 62
   256
  6
BYLAYER
 49
-0.5
 62
   256
  6
BYLAYER
  0
ACDBPLACEHOLDER
  5
F
102
{ACAD_REACTORS
330
E
102
}
330
E
  0
VISUALSTYLE
  5
2F
102
{ACAD_REACTORS
330
2A
102
}
330
2A
100
AcDbVisualStyle
  2
2dWireframe
 70
     4
177
     2
291
     0
 71
     0
176
     1
 72
     2
176
     1
 73
     0
176
     1
 90
        0
176
     1
 40
-0.6
176
     1
 41
-30.0
176
     1
 62
     5
 63
     7
421
 16777215
176
     1
 74
     1
176
     1
 91
        4
176
     1
 64
     7
176
     1
 65
   257
176
     1
 75
     1
176
     1
175
     1
176
     1
 42
1.0
176
     1
 92
        0
176
     1
 66
   257
176
     1
 43
1.0
176
     1
 76
     1
176
     1
 77
     6
176
     1
 78
     2
176
     1
 67
     7
176
     1
 79
     5
176
     1
170
     0
176
     1
171
     0
176
     1
290
     0
176
     1
 93
        1
176
     1
 44
0.0
176
     1
173
     0
176
     1
  0
VISUALSTYLE
  5
31
102
{ACAD_REACTORS
330
2A
102
}
330
2A
100
AcDbVisualStyle
  2
3D Hidden
 70
     6
177
     2
291
     0
 71
     1
176
     1
 72
     2
176
     1
 73
     2
176
     1
 90
        0
176
     1
 40
-0.6
176
     1
 41
-30.0
176
     1
 62
     5
 63
     7
421
 16777215
176
     1
 74
     2
176
     1
 91
        2
176
     1
 64
     7
176
     1
 65
   257
176
     1
 75
     2
176
     1
175
     1
176
     1
 42
40.0
176
     1
 92
        0
176
     1
 66
   257
176
     1
 43
1.0
176
     1
 76
     1
176
     1
 77
     6
176
     1
 78
     2
176
     1
 67
     7
176
     1
 79
     3
176
     1
170
     0
176
     1
171
     0
176
     1
290
     0
176
     1
 93
        1
176
     1
 44
0.0
176
     1
173
     0
176
     1
  0
VISUALSTYLE
  5
30
102
{ACAD_REACTORS
330
2A
102
}
330
2A
100
AcDbVisualStyle
  2
3dWireframe
 70
     5
177
     2
291
     0
 71
     0
176
     1
 72
     2
176
     1
 73
     0
176
     1
 90
        0
176
     1
 40
-0.6
176
     1
 41
-30.0
176
     1
 62
     5
 63
     7
421
 16777215
176
     1
 74
     1
176
     1
 91
        4
176
     1
 64
     7
176
     1
 65
   257
176
     1
 75
     1
176
     1
175
     1
176
     1
 42
1.0
176
     1
 92
        0
176
     1
 66
   257
176
     1
 43
1.0
176
     1
 76
     1
176
     1
 77
     6
176
     1
 78
     2
176
     1
 67
     7
176
     1
 79
     5
176
     1
170
     0
176
     1
171
     0
176
     1
290
     0
176
     1
 93
        1
176
     1
 44
0.0
176
     1
173
     0
176
     1
  0
VISUALSTYLE
  5
32
102
{ACAD_REACTORS
330
2A
102
}
330
2A
100
AcDbVisualStyle
  2
Basic
 70
     7
177
     2
291
     1
 71
     1
176
     1
 72
     0
176
     1
 73
     1
176
     1
 90
        0
176
     1
 40
-0.6
176
     1
 41
-30.0
176
     1
 62
     5
 63
     7
421
 16777215
176
     1
 74
     0
176
     1
 91
        4
176
     1
 64
     7
176
     1
 65
   257
176
     1
 75
     1
176
     1
175
     1
176
     1
 42
1.0
176
     1
 92
        8
176
     1
 66
     7
176
     1
 43
1.0
176
     1
 76
     1
176
     1
 77
     6
176
     1
 78
     2
176
     1
 67
     7
176
     1
 79
     5
176
     1
170
     0
176
     1
171
     0
176
     1
290
     0
176
     1
 93
        1
176
     1
 44
0.0
176
     1
173
     0
176
     1
  0
VISUALSTYLE
  5
36
102
{ACAD_REACTORS
330
2A
102
}
330
2A
100
AcDbVisualStyle
  2
Brighten
 70
    12
177
     2
291
     1
 71
     2
176
     1
 72
     2
176
     1
 73
     0
176
     1
 90
        0
176
     1
 40
-0.6
176
     1
 41
-30.0
176
     1
 62
     5
 63
     7
421
 16777215
176
     1
 74
     1
176
     1
 91
        4
176
     1
 64
     7
176
     1
 65
   257
176
     1
 75
     1
176
     1
175
     1
176
     1
 42
1.0
176
     1
 92
        8
176
     1
 66
     7
176
     1
 43
1.0
176
     1
 76
     1
176
     1
 77
     6
176
     1
 78
     2
176
     1
 67
     7
176
     1
 79
     5
176
     1
170
     0
176
     1
171
     0
176
     1
290
     0
176
     1
 93
        1
176
     1
 44
50.0
176
     1
173
     0
176
     1
  0
VISUALSTYLE
  5
3A
102
{ACAD_REACTORS
330
2A
102
}
330
2A
100
AcDbVisualStyle
  2
ColorChange
 70
    16
177
     2
291
     1
 71
     2
176
     1
 72
     2
176
     1
 73
     3
176
     1
 90
        0
176
     1
 40
-0.6
176
     1
 41
-30.0
176
     1
 62
     5
 63
     8
421
  8421504
176
     1
 74
     1
176
     1
 91
        4
176
     1
 64
     7
176
     1
 65
   257
176
     1
 75
     1
176
     1
175
     1
176
     1
 42
1.0
176
     1
 92
        8
176
     1
 66
     8
424
  8421504
176
     1
 43
1.0
176
     1
 76
     1
176
     1
 77
     6
176
     1
 78
     2
176
     1
 67
     7
176
     1
 79
     5
176
     1
170
     0
176
     1
171
     0
176
     1
290
     0
176
     1
 93
        1
176
     1
 44
0.0
176
     1
173
     0
176
     1
  0
VISUALSTYLE
  5
34
102
{ACAD_REACTORS
330
2A
102
}
330
2A
100
AcDbVisualStyle
  2
Conceptual
 70
     9
177
     2
291
     0
 71
     3
176
     1
 72
     2
176
     1
 73
     0
176
     1
 90
        0
176
     1
 40
-0.6
176
     1
 41
-30.0
176
     1
 62
     5
 63
     7
421
 16777215
176
     1
 74
     2
176
     1
 91
        2
176
     1
 64
     7
176
     1
 65
   257
176
     1
 75
     1
176
     1
175
     1
176
     1
 42
40.0
176
     1
 92
        8
176
     1
 66
     7
176
     1
 43
1.0
176
     1
 76
     1
176
     1
 77
     6
176
     1
 78
     2
176
     1
 67
     7
176
     1
 79
     3
176
     1
170
     0
176
     1
171
     0
176
     1
290
     0
176
     1
 93
        1
176
     1
 44
0.0
176
     1
173
     0
176
     1
  0
VISUALSTYLE
  5
35
102
{ACAD_REACTORS
330
2A
102
}
330
2A
100
AcDbVisualStyle
  2
Dim
 70
    11
177
     2
291
     1
 71
     2
176
     1
 72
     2
176
     1
 73
     0
176
     1
 90
        0
176
     1
 40
-0.6
176
     1
 41
-30.0
176
     1
 62
     5
 63
     7
421
 16777215
176
     1
 74
     1
176
     1
 91
        4
176
     1
 64
     7
176
     1
 65
   257
176
     1
 75
     1
176
     1
175
     1
176
     1
 42
1.0
176
     1
 92
        8
176
     1
 66
     7
176
     1
 43
1.0
176
     1
 76
     1
176
     1
 77
     6
176
     1
 78
     2
176
     1
 67
     7
176
     1
 79
     5
176
     1
170
     0
176
     1
171
     0
176
     1
290
     0
176
     1
 93
        1
176
     1
 44
-50.0
176
     1
173
     0
176
     1
  0
VISUALSTYLE
  5
39
102
{ACAD_REACTORS
330
2A
102
}
330
2A
100
AcDbVisualStyle
  2
Facepattern
 70
    15
177
     2
291
     1
 71
     2
176
     1
 72
     2
176
     1
 73
     0
176
     1
 90
        0
176
     1
 40
-0.6
176
     1
 41
-30.0
176
     1
 62
     5
 63
     7
421
 16777215
176
     1
 74
     1
176
     1
 91
        4
176
     1
 64
     7
176
     1
 65
   257
176
     1
 75
     1
176
     1
175
     1
176
     1
 42
1.0
176
     1
 92
        8
176
     1
 66
     7
176
     1
 43
1.0
176
     1
 76
     1
176
     1
 77
     6
176
     1
 78
     2
176
     1
 67
     7
176
     1
 79
     5
176
     1
170
     0
176
     1
171
     0
176
     1
290
     0
176
     1
 93
        1
176
     1
 44
0.0
176
     1
173
     0
176
     1
  0
VISUALSTYLE
  5
2B
102
{ACAD_REACTORS
330
2A
102
}
330
2A
100
AcDbVisualStyle
  2
Flat
 70
     0
177
     2
291
     1
 71
     2
176
     1
 72
     1
176
     1
 73
     1
176
     1
 90
        2
176
     1
 40
-0.6
176
     1
 41
30.0
176
     1
 62
     5
 63
     7
421
 16777215
176
     1
 74
     0
176
     1
 91
        4
176
     1
 64
     7
176
     1
 65
   257
176
     1
 75
     1
176
     1
175
     1
176
     1
 42
1.0
176
     1
 92
        8
176
     1
 66
     7
176
     1
 43
1.0
176
     1
 76
     1
176
     1
 77
     6
176
     1
 78
     2
176
     1
 67
     7
176
     1
 79
     5
176
     1
170
     0
176
     1
171
     0
176
     1
290
     0
176
     1
 93
       13
176
     1
 44
0.0
176
     1
173
     0
176
     1
  0
VISUALSTYLE
  5
2C
102
{ACAD_REACTORS
330
2A
102
}
330
2A
100
AcDbVisualStyle
  2
FlatWithEdges
 70
     1
177
     2
291
     1
 71
     2
176
     1
 72
     1
176
     1
 73
     1
176
     1
 90
        2
176
     1
 40
-0.6
176
     1
 41
30.0
176
     1
 62
     5
 63
     7
421
 16777215
176
     1
 74
     1
176
     1
 91
        4
176
     1
 64
     7
176
     1
 65
   257
176
     1
 75
     1
176
     1
175
     1
176
     1
 42
1.0
176
     1
 92
        0
176
     1
 66
   257
176
     1
 43
1.0
176
     1
 76
     1
176
     1
 77
     6
176
     1
 78
     2
176
     1
 67
     7
176
     1
 79
     5
176
     1
170
     0
176
     1
171
     0
176
     1
290
     0
176
     1
 93
       13
176
     1
 44
0.0
176
     1
173
     0
176
     1
  0
VISUALSTYLE
  5
2D
102
{ACAD_REACTORS
330
2A
102
}
330
2A
100
AcDbVisualStyle
  2
Gouraud
 70
     2
177
     2
291
     1
 71
     2
176
     1
 72
     2
176
     1
 73
     1
176
     1
 90
        2
176
     1
 40
-0.6
176
     1
 41
30.0
176
     1
 62
     5
 63
     7
421
 16777215
176
     1
 74
     0
176
     1
 91
        4
176
     1
 64
     7
176
     1
 65
   257
176
     1
 75
     1
176
     1
175
     1
176
     1
 42
1.0
176
     1
 92
        0
176
     1
 66
     7
176
     1
 43
1.0
176
     1
 76
     1
176
     1
 77
     6
176
     1
 78
     2
176
     1
 67
     7
176
     1
 79
     5
176
     1
170
     0
176
     1
171
     0
176
     1
290
     0
176
     1
 93
       13
176
     1
 44
0.0
176
     1
173
     0
176
     1
  0
VISUALSTYLE
  5
2E
102
{ACAD_REACTORS
330
2A
102
}
330
2A
100
AcDbVisualStyle
  2
GouraudWithEdges
 70
     3
177
     2
291
     1
 71
     2
176
     1
 72
     2
176
     1
 73
     1
176
     1
 90
        2
176
     1
 40
-0.6
176
     1
 41
30.0
176
     1
 62
     5
 63
     7
421
 16777215
176
     1
 74
     1
176
     1
 91
        4
176
     1
 64
     7
176
     1
 65
   257
176
     1
 75
     1
176
     1
175
     1
176
     1
 42
1.0
176
     1
 92
        0
176
     1
 66
   257
176
     1
 43
1.0
176
     1
 76
     1
176
     1
 77
     6
176
     1
 78
     2
176
     1
 67
     7
176
     1
 79
     5
176
     1
170
     0
176
     1
171
     0
176
     1
290
     0
176
     1
 93
       13
176
     1
 44
0.0
176
     1
173
     0
176
     1
  0
VISUALSTYLE
  5
38
102
{ACAD_REACTORS
330
2A
102
}
330
2A
100
AcDbVisualStyle
  2
Linepattern
 70
    14
177
     2
291
     1
 71
     2
176
     1
 72
     2
176
     1
 73
     0
176
     1
 90
        0
176
     1
 40
-0.6
176
     1
 41
-30.0
176
     1
 62
     5
 63
     7
421
 16777215
176
     1
 74
     1
176
     1
 91
        4
176
     1
 64
     7
176
     1
 65
   257
176
     1
 75
     7
176
     1
175
     7
176
     1
 42
1.0
176
     1
 92
        8
176
     1
 66
     7
176
     1
 43
1.0
176
     1
 76
     1
176
     1
 77
     6
176
     1
 78
     2
176
     1
 67
     7
176
     1
 79
     5
176
     1
170
     0
176
     1
171
     0
176
     1
290
     0
176
     1
 93
        1
176
     1
 44
0.0
176
     1
173
     0
176
     1
  0
VISUALSTYLE
  5
33
102
{ACAD_REACTORS
330
2A
102
}
330
2A
100
AcDbVisualStyle
  2
Realistic
 70
     8
177
     2
291
     0
 71
     2
176
     1
 72
     2
176
     1
 73
     0
176
     1
 90
        0
176
     1
 40
-0.6
176
     1
 41
-30.0
176
     1
 62
     5
 63
     7
421
 16777215
176
     1
 74
     1
176
     1
 91
        0
176
     1
 64
     7
176
     1
 65
   257
176
     1
 75
     1
176
     1
175
     1
176
     1
 42
1.0
176
     1
 92
        8
176
     1
 66
     8
424
  7895160
176
     1
 43
1.0
176
     1
 76
     1
176
     1
 77
     6
176
     1
 78
     2
176
     1
 67
     7
176
     1
 79
     5
176
     1
170
     0
176
     1
171
     0
176
     1
290
     0
176
     1
 93
       13
176
     1
 44
0.0
176
     1
173
     0
176
     1
  0
VISUALSTYLE
  5
37
102
{ACAD_REACTORS
330
2A
102
}
330
2A
100
AcDbVisualStyle
  2
Thicken
 70
    13
177
     2
291
     1
 71
     2
176
     1
 72
     2
176
     1
 73
     0
176
     1
 90
        0
176
     1
 40
-0.6
176
     1
 41
-30.0
176
     1
 62
     5
 63
     7
421
 16777215
176
     1
 74
     1
176
     1
 91
        4
176
     1
 64
     7
176
     1
 65
   257
176
     1
 75
     1
176
     1
175
     1
176
     1
 42
1.0
176
     1
 92
       12
176
     1
 66
     7
176
     1
 43
1.0
176
     1
 76
     1
176
     1
 77
     6
176
     1
 78
     2
176
     1
 67
     7
176
     1
 79
     5
176
     1
170
     0
176
     1
171
     0
176
     1
290
     0
176
     1
 93
        1
176
     1
 44
0.0
176
     1
173
     0
176
     1
  0
ENDSEC
  0
EOF
