  0
SECTION
  2
HEADER
  9
$ACADVER
  1
AC1024
  9
$ACADMAINTVER
 70
     6
  9
$DWGCODEPAGE
  3
UNDEFINED
  9
$INSBASE
 10
0.0
 20
0.0
 30
0.0
  9
$EXTMIN
 10
1.000000000000000E+20
 20
1.000000000000000E+20
 30
1.000000000000000E+20
  9
$EXTMAX
 10
-1.000000000000000E+20
 20
-1.000000000000000E+20
 30
-1.000000000000000E+20
  9
$LIMMIN
 10
0.0
 20
0.0
  9
$LIMMAX
 10
12.0
 20
9.0
  9
$ORTHOMODE
 70
     0
  9
$REGENMODE
 70
     1
  9
$FILLMODE
 70
     1
  9
$QTEXTMODE
 70
     0
  9
$MIRRTEXT
 70
     1
  9
$LTSCALE
 40
1.0
  9
$ATTMODE
 70
     1
  9
$TEXTSIZE
 40
0.2
  9
$TRACEWID
 40
0.05
  9
$TEXTSTYLE
  7
Standard
  9
$CLAYER
  8
0
  9
$CELTYPE
  6
ByLayer
  9
$CECOLOR
 62
   256
  9
$CELTSCALE
 40
1.0
  9
$DISPSILH
 70
     0
  9
$DIMSCALE
 40
1.0
  9
$DIMASZ
 40
0.18
  9
$DIMEXO
 40
0.0625
  9
$DIMDLI
 40
0.38
  9
$DIMRND
 40
0.0
  9
$DIMDLE
 40
0.0
  9
$DIMEXE
 40
0.18
  9
$DIMTP
 40
0.0
  9
$DIMTM
 40
0.0
  9
$DIMTXT
 40
0.18
  9
$DIMCEN
 40
0.09
  9
$DIMTSZ
 40
0.0
  9
$DIMTOL
 70
     0
  9
$DIMLIM
 70
     0
  9
$DIMTIH
 70
     1
  9
$DIMTOH
 70
     1
  9
$DIMSE1
 70
     0
  9
$DIMSE2
 70
     0
  9
$DIMTAD
 70
     0
  9
$DIMZIN
 70
     0
  9
$DIMBLK
  1

  9
$DIMASO
 70
     1
  9
$DIMSHO
 70
     1
  9
$DIMPOST
  1

  9
$DIMAPOST
  1

  9
$DIMALT
 70
     0
  9
$DIMALTD
 70
     2
  9
$DIMALTF
 40
25.4
  9
$DIMLFAC
 40
1.0
  9
$DIMTOFL
 70
     0
  9
$DIMTVP
 40
0.0
  9
$DIMTIX
 70
     0
  9
$DIMSOXD
 70
     0
  9
$DIMSAH
 70
     0
  9
$DIMBLK1
  1

  9
$DIMBLK2
  1

  9
$DIMSTYLE
  2
Standard
  9
$DIMCLRD
 70
     0
  9
$DIMCLRE
 70
     0
  9
$DIMCLRT
 70
     0
  9
$DIMTFAC
 40
1.0
  9
$DIMGAP
 40
0.09
  9
$DIMJUST
 70
     0
  9
$DIMSD1
 70
     0
  9
$DIMSD2
 70
     0
  9
$DIMTOLJ
 70
     1
  9
$DIMTZIN
 70
     0
  9
$DIMALTZ
 70
     0
  9
$DIMALTTZ
 70
     0
  9
$DIMUPT
 70
     0
  9
$DIMDEC
 70
     4
  9
$DIMTDEC
 70
     4
  9
$DIMALTU
 70
     2
  9
$DIMALTTD
 70
     2
  9
$DIMTXSTY
  7
Standard
  9
$DIMAUNIT
 70
     0
  9
$DIMADEC
 70
     0
  9
$DIMALTRND
 40
0.0
  9
$DIMAZIN
 70
     0
  9
$DIMDSEP
 70
    46
  9
$DIMATFIT
 70
     3
  9
$DIMFRAC
 70
     0
  9
$DIMLDRBLK
  1

  9
$DIMLUNIT
 70
     2
  9
$DIMLWD
 70
    -2
  9
$DIMLWE
 70
    -2
  9
$DIMTMOVE
 70
     0
  9
$DIMFXL
 40
1.0
  9
$DIMFXLON
 70
     0
  9
$DIMJOGANG
 40
0.7853981633974483
  9
$DIMTFILL
 70
     0
  9
$DIMTFILLCLR
 70
     0
  9
$DIMARCSYM
 70
     0
  9
$DIMLTYPE
  6

  9
$DIMLTEX1
  6

  9
$DIMLTEX2
  6

  9
$DIMTXTDIRECTION
 70
     0
  9
$LUNITS
 70
     2
  9
$LUPREC
 70
     4
  9
$SKETCHINC
 40
0.1
  9
$FILLETRAD
 40
0.5
  9
$AUNITS
 70
     0
  9
$AUPREC
 70
     0
  9
$MENU
  1
.
  9
$ELEVATION
 40
0.0
  9
$PELEVATION
 40
0.0
  9
$THICKNESS
 40
0.0
  9
$LIMCHECK
 70
     0
  9
$CHAMFERA
 40
0.5
  9
$CHAMFERB
 40
0.5
  9
$CHAMFERC
 40
1.0
  9
$CHAMFERD
 40
0.0
  9
$SKPOLY
 70
     0
  9
$TDCREATE
 40
2457917.583217581
  9
$TDUCREATE
 40
2457917.208217592
  9
$TDUPDATE
 40
2457917.583217581
  9
$TDUUPDATE
 40
2457917.208217592
  9
$TDINDWG
 40
0.0000000116
  9
$TDUSRTIMER
 40
0.0000000116
  9
$USRTIMER
 70
     1
  9
$ANGBASE
 50
0.0
  9
$ANGDIR
 70
     0
  9
$PDMODE
 70
     0
  9
$PDSIZE
 40
0.0
  9
$PLINEWID
 40
0.0
  9
$SPLFRAME
 70
     0
  9
$SPLINETYPE
 70
     6
  9
$SPLINESEGS
 70
     8
  9
$HANDSEED
  5
AE
  9
$SURFTAB1
 70
     6
  9
$SURFTAB2
 70
     6
  9
$SURFTYPE
 70
     6
  9
$SURFU
 70
     6
  9
$SURFV
 70
     6
  9
$UCSBASE
  2

  9
$UCSNAME
  2

  9
$UCSORG
 10
0.0
 20
0.0
 30
0.0
  9
$UCSXDIR
 10
1.0
 20
0.0
 30
0.0
  9
$UCSYDIR
 10
0.0
 20
1.0
 30
0.0
  9
$UCSORTHOREF
  2

  9
$UCSORTHOVIEW
 70
     0
  9
$UCSORGTOP
 10
0.0
 20
0.0
 30
0.0
  9
$UCSORGBOTTOM
 10
0.0
 20
0.0
 30
0.0
  9
$UCSORGLEFT
 10
0.0
 20
0.0
 30
0.0
  9
$UCSORGRIGHT
 10
0.0
 20
0.0
 30
0.0
  9
$UCSORGFRONT
 10
0.0
 20
0.0
 30
0.0
  9
$UCSORGBACK
 10
0.0
 20
0.0
 30
0.0
  9
$PUCSBASE
  2

  9
$PUCSNAME
  2

  9
$PUCSORG
 10
0.0
 20
0.0
 30
0.0
  9
$PUCSXDIR
 10
1.0
 20
0.0
 30
0.0
  9
$PUCSYDIR
 10
0.0
 20
1.0
 30
0.0
  9
$PUCSORTHOREF
  2

  9
$PUCSORTHOVIEW
 70
     0
  9
$PUCSORGTOP
 10
0.0
 20
0.0
 30
0.0
  9
$PUCSORGBOTTOM
 10
0.0
 20
0.0
 30
0.0
  9
$PUCSORGLEFT
 10
0.0
 20
0.0
 30
0.0
  9
$PUCSORGRIGHT
 10
0.0
 20
0.0
 30
0.0
  9
$PUCSORGFRONT
 10
0.0
 20
0.0
 30
0.0
  9
$PUCSORGBACK
 10
0.0
 20
0.0
 30
0.0
  9
$USERI1
 70
     0
  9
$USERI2
 70
     0
  9
$USERI3
 70
     0
  9
$USERI4
 70
     0
  9
$USERI5
 70
     0
  9
$USERR1
 40
0.0
  9
$USERR2
 40
0.0
  9
$USERR3
 40
0.0
  9
$USERR4
 40
0.0
  9
$USERR5
 40
0.0
  9
$WORLDVIEW
 70
     1
  9
$SHADEDGE
 70
     3
  9
$SHADEDIF
 70
    70
  9
$TILEMODE
 70
     1
  9
$MAXACTVP
 70
    64
  9
$PINSBASE
 10
0.0
 20
0.0
 30
0.0
  9
$PLIMCHECK
 70
     0
  9
$PEXTMIN
 10
1.000000000000000E+20
 20
1.000000000000000E+20
 30
1.000000000000000E+20
  9
$PEXTMAX
 10
-1.000000000000000E+20
 20
-1.000000000000000E+20
 30
-1.000000000000000E+20
  9
$PLIMMIN
 10
0.0
 20
0.0
  9
$PLIMMAX
 10
12.0
 20
9.0
  9
$UNITMODE
 70
     0
  9
$VISRETAIN
 70
     1
  9
$PLINEGEN
 70
     0
  9
$PSLTSCALE
 70
     1
  9
$TREEDEPTH
 70
  3020
  9
$CMLSTYLE
  2
Standard
  9
$CMLJUST
 70
     0
  9
$CMLSCALE
 40
1.0
  9
$PROXYGRAPHICS
 70
     1
  9
$MEASUREMENT
 70
     0
  9
$CELWEIGHT
370
    -1
  9
$ENDCAPS
280
     0
  9
$JOINSTYLE
280
     0
  9
$LWDISPLAY
290
     1
  9
$INSUNITS
 70
     1
  9
$HYPERLINKBASE
  1

  9
$STYLESHEET
  1

  9
$XEDIT
290
     1
  9
$CEPSNTYPE
380
     0
  9
$PSTYLEMODE
290
     1
  9
$FINGERPRINTGUID
  2
{E1F1312E-0735-AD8C-6694-10A70B6C7737}
  9
$VERSIONGUID
  2
{FAEB1C32-E019-11D5-929B-00C0DF256EC4}
  9
$EXTNAMES
290
     1
  9
$PSVPSCALE
 40
0.0
  9
$OLESTARTUP
290
     0
  9
$SORTENTS
280
   127
  9
$INDEXCTL
280
     0
  9
$HIDETEXT
280
     1
  9
$XCLIPFRAME
280
     2
  9
$HALOGAP
280
     0
  9
$OBSCOLOR
 70
   257
  9
$OBSLTYPE
280
     0
  9
$INTERSECTIONDISPLAY
280
     0
  9
$INTERSECTIONCOLOR
 70
   257
  9
$DIMASSOC
280
     2
  9
$PROJECTNAME
  1

  9
$CAMERADISPLAY
290
     0
  9
$LENSLENGTH
 40
50.0
  9
$CAMERAHEIGHT
 40
0.0
  9
$STEPSPERSEC
 40
2.0
  9
$STEPSIZE
 40
6.0
  9
$3DDWFPREC
 40
2.0
  9
$PSOLWIDTH
 40
0.25
  9
$PSOLHEIGHT
 40
4.0
  9
$LOFTANG1
 40
1.570796326794897
  9
$LOFTANG2
 40
1.570796326794897
  9
$LOFTMAG1
 40
0.0
  9
$LOFTMAG2
 40
0.0
  9
$LOFTPARAM
 70
     7
  9
$LOFTNORMALS
280
     1
  9
$LATITUDE
 40
37.795
  9
$LONGITUDE
 40
-122.394
  9
$NORTHDIRECTION
 40
0.0
  9
$TIMEZONE
 70
 -8000
  9
$LIGHTGLYPHDISPLAY
280
     1
  9
$TILEMODELIGHTSYNCH
280
     1
  9
$CMATERIAL
347
3C
  9
$SOLIDHIST
280
     1
  9
$SHOWHIST
280
     1
  9
$DWFFRAME
280
     2
  9
$DGNFRAME
280
     2
  9
$REALWORLDSCALE
290
     1
  9
$INTERFERECOLOR
 62
   256
  9
$CSHADOW
280
     0
  9
$SHADOWPLANELOCATION
 40
0.0
  0
ENDSEC
  0
SECTION
  2
CLASSES
  0
CLASS
  1
ACDBDICTIONARYWDFLT
  2
AcDbDictionaryWithDefault
  3
ObjectDBX Classes
 90
        0
 91
        4
280
     0
281
     0
  0
CLASS
  1
VISUALSTYLE
  2
AcDbVisualStyle
  3
ObjectDBX Classes
 90
     4095
 91
        4
280
     0
281
     0
  0
CLASS
  1
MATERIAL
  2
AcDbMaterial
  3
ObjectDBX Classes
 90
     1153
 91
        4
280
     0
281
     0
  0
CLASS
  1
SUN
  2
AcDbSun
  3
SCENEOE
 90
     1024
 91
        4
280
     0
281
     0
  0
ENDSEC
  0
SECTION
  2
TABLES
  0
TABLE
  2
VPORT
  5
8
330
0
100
AcDbSymbolTable
 70
     1
  0
VPORT
  5
29
330
8
100
AcDbSymbolTableRecord
100
AcDbViewportTableRecord
  2
*Active
 70
     0
 10
0.0
 20
0.0
 11
1.0
 21
1.0
 12
0.0
 22
0.0
 13
0.0
 23
0.0
 14
0.5
 24
0.5
 15
0.5
 25
0.5
 16
0.0
 26
0.0
 36
1.0
 17
91.00082462281999
 27
-128.4993055234307
 37
0.0
 40
256.9986110468615
 41
0.7081814508812795
 42
50.0
 43
0.0
 44
0.0
 50
0.0
 51
0.0
 71
     0
 72
   100
 73
     1
 74
     3
 75
     0
 76
     0
 77
     0
 78
     0
281
     0
 65
     1
110
0.0
120
0.0
130
0.0
111
1.0
121
0.0
131
0.0
112
0.0
122
1.0
132
0.0
 79
     0
146
0.0
 60
     3
 61
     5
292
     1
282
     1
141
0.0
142
0.0
 63
   250
361
3F
  0
ENDTAB
  0
TABLE
  2
LTYPE
  5
5
330
0
100
AcDbSymbolTable
 70
     1
  0
LTYPE
  5
14
330
5
100
AcDbSymbolTableRecord
100
AcDbLinetypeTableRecord
  2
ByBlock
 70
     0
  3

 72
    65
 73
     0
 40
0.0
  0
LTYPE
  5
15
330
5
100
AcDbSymbolTableRecord
100
AcDbLinetypeTableRecord
  2
ByLayer
 70
     0
  3

 72
    65
 73
     0
 40
0.0
  0
LTYPE
  5
16
330
5
100
AcDbSymbolTableRecord
100
AcDbLinetypeTableRecord
  2
Continuous
 70
     0
  3
Solid line
 72
    65
 73
     0
 40
0.0
  0
ENDTAB
  0
TABLE
  2
LAYER
  5
2
330
0
100
AcDbSymbolTable
 70
     2
  0
LAYER
  5
10
330
2
100
AcDbSymbolTableRecord
100
AcDbLayerTableRecord
  2
0
 70
     0
 62
     7
  6
Continuous
370
    -3
390
F
347
3E
  0
LAYER
  5
40
330
2
100
AcDbSymbolTableRecord
100
AcDbLayerTableRecord
  2
_U+30EC_U+30A4_U+30E4_U+30FC 1
 70
     0
 62
     7
  6
Continuous
370
    -3
390
F
347
3E
  0
ENDTAB
  0
TABLE
  2
STYLE
  5
3
330
0
100
AcDbSymbolTable
 70
     1
  0
STYLE
  5
11
330
3
100
AcDbSymbolTableRecord
100
AcDbTextStyleTableRecord
  2
Standard
 70
     0
 40
0.0
 41
1.0
 50
0.0
 71
     0
 42
0.2
  3
txt
  4

  0
ENDTAB
  0
TABLE
  2
VIEW
  5
6
330
0
100
AcDbSymbolTable
 70
     0
  0
ENDTAB
  0
TABLE
  2
UCS
  5
7
330
0
100
AcDbSymbolTable
 70
     0
  0
ENDTAB
  0
TABLE
  2
APPID
  5
9
330
0
100
AcDbSymbolTable
 70
     1
  0
APPID
  5
12
330
9
100
AcDbSymbolTableRecord
100
AcDbRegAppTableRecord
  2
ACAD
 70
     0
  0
ENDTAB
  0
TABLE
  2
DIMSTYLE
  5
A
330
0
100
AcDbSymbolTable
 70
     1
100
AcDbDimStyleTable
  0
DIMSTYLE
105
27
330
A
100
AcDbSymbolTableRecord
100
AcDbDimStyleTableRecord
  2
Standard
 70
     0
178
     0
340
11
  0
ENDTAB
  0
TABLE
  2
BLOCK_RECORD
  5
1
330
0
100
AcDbSymbolTable
 70
     7
  0
BLOCK_RECORD
  5
1F
330
1
100
AcDbSymbolTableRecord
100
AcDbBlockTableRecord
  2
*Model_Space
340
22
 70
     0
280
     1
281
     0
  0
BLOCK_RECORD
  5
1B
330
1
100
AcDbSymbolTableRecord
100
AcDbBlockTableRecord
  2
*Paper_Space
340
1E
 70
     0
280
     1
281
     0
  0
BLOCK_RECORD
  5
23
330
1
100
AcDbSymbolTableRecord
100
AcDbBlockTableRecord
  2
*Paper_Space0
340
26
 70
     0
280
     1
281
     0
  0
BLOCK_RECORD
  5
41
330
1
100
AcDbSymbolTableRecord
100
AcDbBlockTableRecord
  2
block 2
340
0
102
{BLKREFS
331
42
102
}
 70
     0
280
     1
281
     0
  0
BLOCK_RECORD
  5
55
330
1
100
AcDbSymbolTableRecord
100
AcDbBlockTableRecord
  2
block 3
340
0
102
{BLKREFS
331
56
102
}
 70
     0
280
     1
281
     0
  0
BLOCK_RECORD
  5
6E
330
1
100
AcDbSymbolTableRecord
100
AcDbBlockTableRecord
  2
block 4
340
0
102
{BLKREFS
331
6F
102
}
 70
     0
280
     1
281
     0
  0
BLOCK_RECORD
  5
7C
330
1
100
AcDbSymbolTableRecord
100
AcDbBlockTableRecord
  2
block 5
340
0
102
{BLKREFS
331
7D
102
}
 70
     0
280
     1
281
     0
  0
BLOCK_RECORD
  5
98
330
1
100
AcDbSymbolTableRecord
100
AcDbBlockTableRecord
  2
block 6
340
0
102
{BLKREFS
331
99
102
}
 70
     0
280
     1
281
     0
  0
BLOCK_RECORD
  5
A1
330
1
100
AcDbSymbolTableRecord
100
AcDbBlockTableRecord
  2
block 7
340
0
102
{BLKREFS
331
A2
102
}
 70
     0
280
     1
281
     0
  0
ENDTAB
  0
ENDSEC
  0
SECTION
  2
BLOCKS
  0
BLOCK
  5
20
330
1F
100
AcDbEntity
  8
0
100
AcDbBlockBegin
  2
*Model_Space
 70
     0
 10
0.0
 20
0.0
 30
0.0
  3
*Model_Space
  1

  0
ENDBLK
  5
21
330
1F
100
AcDbEntity
  8
0
100
AcDbBlockEnd
  0
BLOCK
  5
1C
330
1B
100
AcDbEntity
 67
     1
  8
0
100
AcDbBlockBegin
  2
*Paper_Space
 70
     0
 10
0.0
 20
0.0
 30
0.0
  3
*Paper_Space
  1

  0
ENDBLK
  5
1D
330
1B
100
AcDbEntity
 67
     1
  8
0
100
AcDbBlockEnd
  0
BLOCK
  5
24
330
23
100
AcDbEntity
  8
0
100
AcDbBlockBegin
  2
*Paper_Space0
 70
     0
 10
0.0
 20
0.0
 30
0.0
  3
*Paper_Space0
  1

  0
ENDBLK
  5
25
330
23
100
AcDbEntity
  8
0
100
AcDbBlockEnd
  0
BLOCK
  5
43
330
41
100
AcDbEntity
  8
0
100
AcDbBlockBegin
  2
block 2
 70
     0
 10
0.0
 20
0.0
 30
0.0
  3
block 2
  1

  0
POLYLINE
  5
45
330
41
100
AcDbEntity
  8
_U+30EC_U+30A4_U+30E4_U+30FC 1
 62
     7
420
 16777215
370
     9
100
AcDb2dPolyline
 66
     1
 10
0.0
 20
0.0
 30
0.0
  0
VERTEX
  5
46
330
45
100
AcDbEntity
  8
_U+30EC_U+30A4_U+30E4_U+30FC 1
 62
     7
420
 16777215
370
     9
100
AcDbVertex
100
AcDb2dVertex
 10
71.33706234670659
 20
-146.6515213522257
 30
0.0
  0
VERTEX
  5
47
330
45
100
AcDbEntity
  8
_U+30EC_U+30A4_U+30E4_U+30FC 1
 62
     7
420
 16777215
370
     9
100
AcDbVertex
100
AcDb2dVertex
 10
73.94726505789254
 20
-144.0690821862049
 30
0.0
  0
SEQEND
  5
48
330
45
100
AcDbEntity
  8
_U+30EC_U+30A4_U+30E4_U+30FC 1
 62
     7
420
 16777215
370
     9
  0
POLYLINE
  5
49
330
41
100
AcDbEntity
  8
_U+30EC_U+30A4_U+30E4_U+30FC 1
 62
     7
420
 16777215
370
     9
100
AcDb2dPolyline
 66
     1
 10
0.0
 20
0.0
 30
0.0
  0
VERTEX
  5
4A
330
49
100
AcDbEntity
  8
_U+30EC_U+30A4_U+30E4_U+30FC 1
 62
     7
420
 16777215
370
     9
100
AcDbVertex
100
AcDb2dVertex
 10
72.9080523066273
 20
-144.6691924638327
 30
0.0
  0
VERTEX
  5
4B
330
49
100
AcDbEntity
  8
_U+30EC_U+30A4_U+30E4_U+30FC 1
 62
     7
420
 16777215
370
     9
100
AcDbVertex
100
AcDb2dVertex
 10
73.94726505789254
 20
-144.0690821862049
 30
0.0
  0
SEQEND
  5
4C
330
49
100
AcDbEntity
  8
_U+30EC_U+30A4_U+30E4_U+30FC 1
 62
     7
420
 16777215
370
     9
  0
POLYLINE
  5
4D
330
41
100
AcDbEntity
  8
_U+30EC_U+30A4_U+30E4_U+30FC 1
 62
     7
420
 16777215
370
     9
100
AcDb2dPolyline
 66
     1
 10
0.0
 20
0.0
 30
0.0
  0
VERTEX
  5
4E
330
4D
100
AcDbEntity
  8
_U+30EC_U+30A4_U+30E4_U+30FC 1
 62
     7
420
 16777215
370
     9
100
AcDbVertex
100
AcDb2dVertex
 10
73.34729590653237
 20
-145.1081185748338
 30
0.0
  0
VERTEX
  5
4F
330
4D
100
AcDbEntity
  8
_U+30EC_U+30A4_U+30E4_U+30FC 1
 62
     7
420
 16777215
370
     9
100
AcDbVertex
100
AcDb2dVertex
 10
73.94726505789254
 20
-144.0690821862049
 30
0.0
  0
SEQEND
  5
50
330
4D
100
AcDbEntity
  8
_U+30EC_U+30A4_U+30E4_U+30FC 1
 62
     7
420
 16777215
370
     9
  0
SPLINE
  5
51
330
41
100
AcDbEntity
  8
_U+30EC_U+30A4_U+30E4_U+30FC 1
 62
     7
420
 16777215
370
     9
100
AcDbSpline
210
0.0
220
0.0
230
1.0
 70
    11
 71
     3
 72
    17
 73
    13
 74
     0
 42
0.0000000001
 43
0.0000000001
 12
1.0
 22
0.0
 32
0.0
 13
1.0
 23
0.0
 33
0.0
 40
0.0
 40
0.0
 40
0.0
 40
0.0
 40
1.0
 40
1.0
 40
1.0
 40
2.0
 40
2.0
 40
2.0
 40
3.0
 40
3.0
 40
3.0
 40
4.0
 40
4.0
 40
4.0
 40
4.0
 10
115.7793353795564
 20
-134.1685502442354
 30
0.0
 10
115.7793353795564
 20
-134.1134463553605
 30
0.0
 10
115.7345326029216
 20
-134.0686435775938
 30
0.0
 10
115.6794287154386
 20
-134.0686435775938
 30
0.0
 10
115.6242895501786
 20
-134.0686435775938
 30
0.0
 10
115.5795249711053
 20
-134.1134463553605
 30
0.0
 10
115.5795249711053
 20
-134.1685502442354
 30
0.0
 10
115.5795249711053
 20
-134.2236894108885
 30
0.0
 10
115.6242895501786
 20
-134.2684569108771
 30
0.0
 10
115.6794287154386
 20
-134.2684569108771
 30
0.0
 10
115.7345326029216
 20
-134.2684569108771
 30
0.0
 10
115.7793353795564
 20
-134.2236894108885
 30
0.0
 10
115.7793353795564
 20
-134.1685502442354
 30
0.0
  0
SPLINE
  5
52
330
41
100
AcDbEntity
  8
_U+30EC_U+30A4_U+30E4_U+30FC 1
 62
     7
420
 16777215
370
     9
100
AcDbSpline
210
0.0
220
0.0
230
1.0
 70
    11
 71
     3
 72
    17
 73
    13
 74
     0
 42
0.0000000001
 43
0.0000000001
 12
1.0
 22
0.0
 32
0.0
 13
1.0
 23
0.0
 33
0.0
 40
0.0
 40
0.0
 40
0.0
 40
0.0
 40
1.0
 40
1.0
 40
1.0
 40
2.0
 40
2.0
 40
2.0
 40
3.0
 40
3.0
 40
3.0
 40
4.0
 40
4.0
 40
4.0
 40
4.0
 10
115.7793353795564
 20
-133.1684605222633
 30
0.0
 10
115.7793353795564
 20
-133.1133213556109
 30
0.0
 10
115.7345326029216
 20
-133.0685185778441
 30
0.0
 10
115.6794287154386
 20
-133.0685185778441
 30
0.0
 10
115.6242895501786
 20
-133.0685185778441
 30
0.0
 10
115.5795249711053
 20
-133.1133213556109
 30
0.0
 10
115.5795249711053
 20
-133.1684605222633
 30
0.0
 10
115.5795249711053
 20
-133.2235644111389
 30
0.0
 10
115.6242895501786
 20
-133.2683671889049
 30
0.0
 10
115.6794287154386
 20
-133.2683671889049
 30
0.0
 10
115.7345326029216
 20
-133.2683671889049
 30
0.0
 10
115.7793353795564
 20
-133.2235644111389
 30
0.0
 10
115.7793353795564
 20
-133.1684605222633
 30
0.0
  0
SPLINE
  5
53
330
41
100
AcDbEntity
  8
_U+30EC_U+30A4_U+30E4_U+30FC 1
 62
     7
420
 16777215
370
     9
100
AcDbSpline
210
0.0
220
0.0
230
1.0
 70
    11
 71
     3
 72
    17
 73
    13
 74
     0
 42
0.0000000001
 43
0.0000000001
 12
1.0
 22
0.0
 32
0.0
 13
1.0
 23
0.0
 33
0.0
 40
0.0
 40
0.0
 40
0.0
 40
0.0
 40
1.0
 40
1.0
 40
1.0
 40
2.0
 40
2.0
 40
2.0
 40
3.0
 40
3.0
 40
3.0
 40
4.0
 40
4.0
 40
4.0
 40
4.0
 10
115.7793353795564
 20
-144.1689888528465
 30
0.0
 10
115.7793353795564
 20
-144.1138496861934
 30
0.0
 10
115.7345326029216
 20
-144.0690821862049
 30
0.0
 10
115.6794287154386
 20
-144.0690821862049
 30
0.0
 10
115.6242895501786
 20
-144.0690821862049
 30
0.0
 10
115.5795249711053
 20
-144.1138496861934
 30
0.0
 10
115.5795249711053
 20
-144.1689888528465
 30
0.0
 10
115.5795249711053
 20
-144.2240927417214
 30
0.0
 10
115.6242895501786
 20
-144.2688955194882
 30
0.0
 10
115.6794287154386
 20
-144.2688955194882
 30
0.0
 10
115.7345326029216
 20
-144.2688955194882
 30
0.0
 10
115.7793353795564
 20
-144.2240927417214
 30
0.0
 10
115.7793353795564
 20
-144.1689888528465
 30
0.0
  0
SPLINE
  5
54
330
41
100
AcDbEntity
  8
_U+30EC_U+30A4_U+30E4_U+30FC 1
 62
     7
420
 16777215
370
     9
100
AcDbSpline
210
0.0
220
0.0
230
1.0
 70
    11
 71
     3
 72
    17
 73
    13
 74
     0
 42
0.0000000001
 43
0.0000000001
 12
1.0
 22
0.0
 32
0.0
 13
1.0
 23
0.0
 33
0.0
 40
0.0
 40
0.0
 40
0.0
 40
0.0
 40
1.0
 40
1.0
 40
1.0
 40
2.0
 40
2.0
 40
2.0
 40
3.0
 40
3.0
 40
3.0
 40
4.0
 40
4.0
 40
4.0
 40
4.0
 10
83.74182230801257
 20
-118.496997192598
 30
0.0
 10
83.74182230801257
 20
-118.4418580259452
 30
0.0
 10
83.69705480915468
 20
-118.3970905259563
 30
0.0
 10
83.64191564389473
 20
-118.3970905259563
 30
0.0
 10
83.58663536752728
 20
-118.3970905259563
 30
0.0
 10
83.54183259089251
 20
-118.4418580259452
 30
0.0
 10
83.54183259089251
 20
-118.496997192598
 30
0.0
 10
83.54183259089251
 20
-118.5522774703621
 30
0.0
 10
83.58663536752728
 20
-118.5970802481285
 30
0.0
 10
83.64191564389473
 20
-118.5970802481285
 30
0.0
 10
83.69705480915468
 20
-118.5970802481285
 30
0.0
 10
83.74182230801257
 20
-118.5522774703621
 30
0.0
 10
83.74182230801257
 20
-118.496997192598
 30
0.0
  0
INSERT
  5
56
330
41
100
AcDbEntity
  8
_U+30EC_U+30A4_U+30E4_U+30FC 1
100
AcDbBlockReference
  2
block 3
 10
0.0
 20
0.0
 30
0.0
  0
POLYLINE
  5
5E
330
41
100
AcDbEntity
  8
_U+30EC_U+30A4_U+30E4_U+30FC 1
 62
     7
420
 16777215
370
     9
100
AcDb2dPolyline
 66
     1
 10
0.0
 20
0.0
 30
0.0
  0
VERTEX
  5
5F
330
5E
100
AcDbEntity
  8
_U+30EC_U+30A4_U+30E4_U+30FC 1
 62
     7
420
 16777215
370
     9
100
AcDbVertex
100
AcDb2dVertex
 10
115.6794287154386
 20
-133.1684605222633
 30
0.0
  0
VERTEX
  5
60
330
5E
100
AcDbEntity
  8
_U+30EC_U+30A4_U+30E4_U+30FC 1
 62
     7
420
 16777215
370
     9
100
AcDbVertex
100
AcDb2dVertex
 10
115.6794287154386
 20
-130.398237745178
 30
0.0
  0
SEQEND
  5
61
330
5E
100
AcDbEntity
  8
_U+30EC_U+30A4_U+30E4_U+30FC 1
 62
     7
420
 16777215
370
     9
  0
POLYLINE
  5
62
330
41
100
AcDbEntity
  8
_U+30EC_U+30A4_U+30E4_U+30FC 1
 62
     7
420
 16777215
370
     9
100
AcDb2dPolyline
 66
     1
 10
0.0
 20
0.0
 30
0.0
  0
VERTEX
  5
63
330
62
100
AcDbEntity
  8
_U+30EC_U+30A4_U+30E4_U+30FC 1
 62
     7
420
 16777215
370
     9
100
AcDbVertex
100
AcDb2dVertex
 10
115.6794287154386
 20
-134.1685502442354
 30
0.0
  0
VERTEX
  5
64
330
62
100
AcDbEntity
  8
_U+30EC_U+30A4_U+30E4_U+30FC 1
 62
     7
420
 16777215
370
     9
100
AcDbVertex
100
AcDb2dVertex
 10
115.6794287154386
 20
-133.1684605222633
 30
0.0
  0
SEQEND
  5
65
330
62
100
AcDbEntity
  8
_U+30EC_U+30A4_U+30E4_U+30FC 1
 62
     7
420
 16777215
370
     9
  0
POLYLINE
  5
66
330
41
100
AcDbEntity
  8
_U+30EC_U+30A4_U+30E4_U+30FC 1
 62
     7
420
 16777215
370
     9
100
AcDb2dPolyline
 66
     1
 10
0.0
 20
0.0
 30
0.0
  0
VERTEX
  5
67
330
66
100
AcDbEntity
  8
_U+30EC_U+30A4_U+30E4_U+30FC 1
 62
     7
420
 16777215
370
     9
100
AcDbVertex
100
AcDb2dVertex
 10
114.2193873637984
 20
-134.1685502442354
 30
0.0
  0
VERTEX
  5
68
330
66
100
AcDbEntity
  8
_U+30EC_U+30A4_U+30E4_U+30FC 1
 62
     7
420
 16777215
370
     9
100
AcDbVertex
100
AcDb2dVertex
 10
116.6791656343776
 20
-134.1685502442354
 30
0.0
  0
SEQEND
  5
69
330
66
100
AcDbEntity
  8
_U+30EC_U+30A4_U+30E4_U+30FC 1
 62
     7
420
 16777215
370
     9
  0
POLYLINE
  5
6A
330
41
100
AcDbEntity
  8
_U+30EC_U+30A4_U+30E4_U+30FC 1
 62
     7
420
 16777215
370
     9
100
AcDb2dPolyline
 66
     1
 10
0.0
 20
0.0
 30
0.0
  0
VERTEX
  5
6B
330
6A
100
AcDbEntity
  8
_U+30EC_U+30A4_U+30E4_U+30FC 1
 62
     7
420
 16777215
370
     9
100
AcDbVertex
100
AcDb2dVertex
 10
114.2193873637984
 20
-133.1684605222633
 30
0.0
  0
VERTEX
  5
6C
330
6A
100
AcDbEntity
  8
_U+30EC_U+30A4_U+30E4_U+30FC 1
 62
     7
420
 16777215
370
     9
100
AcDbVertex
100
AcDb2dVertex
 10
116.6791656343776
 20
-133.1684605222633
 30
0.0
  0
SEQEND
  5
6D
330
6A
100
AcDbEntity
  8
_U+30EC_U+30A4_U+30E4_U+30FC 1
 62
     7
420
 16777215
370
     9
  0
INSERT
  5
6F
330
41
100
AcDbEntity
  8
_U+30EC_U+30A4_U+30E4_U+30FC 1
100
AcDbBlockReference
  2
block 4
 10
0.0
 20
0.0
 30
0.0
  0
POLYLINE
  5
74
330
41
100
AcDbEntity
  8
_U+30EC_U+30A4_U+30E4_U+30FC 1
 62
     7
420
 16777215
370
     9
100
AcDb2dPolyline
 66
     1
 10
0.0
 20
0.0
 30
0.0
  0
VERTEX
  5
75
330
74
100
AcDbEntity
  8
_U+30EC_U+30A4_U+30E4_U+30FC 1
 62
     7
420
 16777215
370
     9
100
AcDbVertex
100
AcDb2dVertex
 10
115.6794287154386
 20
-134.1685502442354
 30
0.0
  0
VERTEX
  5
76
330
74
100
AcDbEntity
  8
_U+30EC_U+30A4_U+30E4_U+30FC 1
 62
     7
420
 16777215
370
     9
100
AcDbVertex
100
AcDb2dVertex
 10
115.6794287154386
 20
-144.1689888528465
 30
0.0
  0
SEQEND
  5
77
330
74
100
AcDbEntity
  8
_U+30EC_U+30A4_U+30E4_U+30FC 1
 62
     7
420
 16777215
370
     9
  0
POLYLINE
  5
78
330
41
100
AcDbEntity
  8
_U+30EC_U+30A4_U+30E4_U+30FC 1
 62
     7
420
 16777215
370
     9
100
AcDb2dPolyline
 66
     1
 10
0.0
 20
0.0
 30
0.0
  0
VERTEX
  5
79
330
78
100
AcDbEntity
  8
_U+30EC_U+30A4_U+30E4_U+30FC 1
 62
     7
420
 16777215
370
     9
100
AcDbVertex
100
AcDb2dVertex
 10
96.21876060081047
 20
-144.1689888528465
 30
0.0
  0
VERTEX
  5
7A
330
78
100
AcDbEntity
  8
_U+30EC_U+30A4_U+30E4_U+30FC 1
 62
     7
420
 16777215
370
     9
100
AcDbVertex
100
AcDb2dVertex
 10
116.6791656343776
 20
-144.1689888528465
 30
0.0
  0
SEQEND
  5
7B
330
78
100
AcDbEntity
  8
_U+30EC_U+30A4_U+30E4_U+30FC 1
 62
     7
420
 16777215
370
     9
  0
INSERT
  5
7D
330
41
100
AcDbEntity
  8
_U+30EC_U+30A4_U+30E4_U+30FC 1
100
AcDbBlockReference
  2
block 5
 10
0.0
 20
0.0
 30
0.0
  0
SPLINE
  5
85
330
41
100
AcDbEntity
  8
_U+30EC_U+30A4_U+30E4_U+30FC 1
 62
     7
420
 16777215
370
     9
100
AcDbSpline
210
0.0
220
0.0
230
1.0
 70
    11
 71
     3
 72
    17
 73
    13
 74
     0
 42
0.0000000001
 43
0.0000000001
 12
1.0
 22
0.0
 32
0.0
 13
1.0
 23
0.0
 33
0.0
 40
0.0
 40
0.0
 40
0.0
 40
0.0
 40
1.0
 40
1.0
 40
1.0
 40
2.0
 40
2.0
 40
2.0
 40
3.0
 40
3.0
 40
3.0
 40
4.0
 40
4.0
 40
4.0
 40
4.0
 10
68.93203518584171
 20
-144.2695657972662
 30
0.0
 10
68.98717435110167
 20
-144.2695657972662
 30
0.0
 10
69.03197712773643
 20
-144.224798297277
 30
0.0
 10
69.03197712773643
 20
-144.1689888528465
 30
0.0
 10
69.03197712773643
 20
-144.1138496861934
 30
0.0
 10
68.98717435110167
 20
-144.0690821862049
 30
0.0
 10
68.93203518584171
 20
-144.0690821862049
 30
0.0
 10
68.87693129835864
 20
-144.0690821862049
 30
0.0
 10
68.83212852172387
 20
-144.1138496861934
 30
0.0
 10
68.83212852172387
 20
-144.1689888528465
 30
0.0
 10
68.83212852172387
 20
-144.224798297277
 30
0.0
 10
68.87693129835864
 20
-144.2695657972662
 30
0.0
 10
68.93203518584171
 20
-144.2695657972662
 30
0.0
  0
SPLINE
  5
86
330
41
100
AcDbEntity
  8
_U+30EC_U+30A4_U+30E4_U+30FC 1
 62
     7
420
 16777215
370
     9
100
AcDbSpline
210
0.0
220
0.0
230
1.0
 70
    11
 71
     3
 72
    17
 73
    13
 74
     0
 42
0.0000000001
 43
0.0000000001
 12
1.0
 22
0.0
 32
0.0
 13
1.0
 23
0.0
 33
0.0
 40
0.0
 40
0.0
 40
0.0
 40
0.0
 40
1.0
 40
1.0
 40
1.0
 40
2.0
 40
2.0
 40
2.0
 40
3.0
 40
3.0
 40
3.0
 40
4.0
 40
4.0
 40
4.0
 40
4.0
 10
68.93203518584171
 20
-124.2680535800441
 30
0.0
 10
68.98717435110167
 20
-124.2680535800441
 30
0.0
 10
69.03197712773643
 20
-124.2232508022774
 30
0.0
 10
69.03197712773643
 20
-124.1681469134025
 30
0.0
 10
69.03197712773643
 20
-124.1130077467494
 30
0.0
 10
68.98717435110167
 20
-124.0682402467609
 30
0.0
 10
68.93203518584171
 20
-124.0682402467609
 30
0.0
 10
68.87693129835864
 20
-124.0682402467609
 30
0.0
 10
68.83212852172387
 20
-124.1130077467494
 30
0.0
 10
68.83212852172387
 20
-124.1681469134025
 30
0.0
 10
68.83212852172387
 20
-124.2232508022774
 30
0.0
 10
68.87693129835864
 20
-124.2680535800441
 30
0.0
 10
68.93203518584171
 20
-124.2680535800441
 30
0.0
  0
SPLINE
  5
87
330
41
100
AcDbEntity
  8
_U+30EC_U+30A4_U+30E4_U+30FC 1
 62
     7
420
 16777215
370
     9
100
AcDbSpline
210
0.0
220
0.0
230
1.0
 70
    11
 71
     3
 72
    17
 73
    13
 74
     0
 42
0.0000000001
 43
0.0000000001
 12
1.0
 22
0.0
 32
0.0
 13
1.0
 23
0.0
 33
0.0
 40
0.0
 40
0.0
 40
0.0
 40
0.0
 40
1.0
 40
1.0
 40
1.0
 40
2.0
 40
2.0
 40
2.0
 40
3.0
 40
3.0
 40
3.0
 40
4.0
 40
4.0
 40
4.0
 40
4.0
 10
68.93203518584171
 20
-106.2684494178774
 30
0.0
 10
68.98717435110167
 20
-106.2684494178774
 30
0.0
 10
69.03197712773643
 20
-106.2236466401106
 30
0.0
 10
69.03197712773643
 20
-106.1685427512357
 30
0.0
 10
69.03197712773643
 20
-106.1134035845826
 30
0.0
 10
68.98717435110167
 20
-106.0686360845941
 30
0.0
 10
68.93203518584171
 20
-106.0686360845941
 30
0.0
 10
68.87693129835864
 20
-106.0686360845941
 30
0.0
 10
68.83212852172387
 20
-106.1134035845826
 30
0.0
 10
68.83212852172387
 20
-106.1685427512357
 30
0.0
 10
68.83212852172387
 20
-106.2236466401106
 30
0.0
 10
68.87693129835864
 20
-106.2684494178774
 30
0.0
 10
68.93203518584171
 20
-106.2684494178774
 30
0.0
  0
POLYLINE
  5
88
330
41
100
AcDbEntity
  8
_U+30EC_U+30A4_U+30E4_U+30FC 1
 62
     7
420
 16777215
370
     9
100
AcDb2dPolyline
 66
     1
 10
0.0
 20
0.0
 30
0.0
  0
VERTEX
  5
89
330
88
100
AcDbEntity
  8
_U+30EC_U+30A4_U+30E4_U+30FC 1
 62
     7
420
 16777215
370
     9
100
AcDbVertex
100
AcDb2dVertex
 10
68.93203518584171
 20
-106.1685427512357
 30
0.0
  0
VERTEX
  5
8A
330
88
100
AcDbEntity
  8
_U+30EC_U+30A4_U+30E4_U+30FC 1
 62
     7
420
 16777215
370
     9
100
AcDbVertex
100
AcDb2dVertex
 10
68.93203518584171
 20
-144.1689888528465
 30
0.0
  0
SEQEND
  5
8B
330
88
100
AcDbEntity
  8
_U+30EC_U+30A4_U+30E4_U+30FC 1
 62
     7
420
 16777215
370
     9
  0
POLYLINE
  5
8C
330
41
100
AcDbEntity
  8
_U+30EC_U+30A4_U+30E4_U+30FC 1
 62
     7
420
 16777215
370
     9
100
AcDb2dPolyline
 66
     1
 10
0.0
 20
0.0
 30
0.0
  0
VERTEX
  5
8D
330
8C
100
AcDbEntity
  8
_U+30EC_U+30A4_U+30E4_U+30FC 1
 62
     7
420
 16777215
370
     9
100
AcDbVertex
100
AcDb2dVertex
 10
71.17961942664962
 20
-124.1681469134025
 30
0.0
  0
VERTEX
  5
8E
330
8C
100
AcDbEntity
  8
_U+30EC_U+30A4_U+30E4_U+30FC 1
 62
     7
420
 16777215
370
     9
100
AcDbVertex
100
AcDb2dVertex
 10
67.93159442746152
 20
-124.1681469134025
 30
0.0
  0
SEQEND
  5
8F
330
8C
100
AcDbEntity
  8
_U+30EC_U+30A4_U+30E4_U+30FC 1
 62
     7
420
 16777215
370
     9
  0
POLYLINE
  5
90
330
41
100
AcDbEntity
  8
_U+30EC_U+30A4_U+30E4_U+30FC 1
 62
     7
420
 16777215
370
     9
100
AcDb2dPolyline
 66
     1
 10
0.0
 20
0.0
 30
0.0
  0
VERTEX
  5
91
330
90
100
AcDbEntity
  8
_U+30EC_U+30A4_U+30E4_U+30FC 1
 62
     7
420
 16777215
370
     9
100
AcDbVertex
100
AcDb2dVertex
 10
71.17961942664962
 20
-144.1689888528465
 30
0.0
  0
VERTEX
  5
92
330
90
100
AcDbEntity
  8
_U+30EC_U+30A4_U+30E4_U+30FC 1
 62
     7
420
 16777215
370
     9
100
AcDbVertex
100
AcDb2dVertex
 10
67.93159442746152
 20
-144.1689888528465
 30
0.0
  0
SEQEND
  5
93
330
90
100
AcDbEntity
  8
_U+30EC_U+30A4_U+30E4_U+30FC 1
 62
     7
420
 16777215
370
     9
  0
POLYLINE
  5
94
330
41
100
AcDbEntity
  8
_U+30EC_U+30A4_U+30E4_U+30FC 1
 62
     7
420
 16777215
370
     9
100
AcDb2dPolyline
 66
     1
 10
0.0
 20
0.0
 30
0.0
  0
VERTEX
  5
95
330
94
100
AcDbEntity
  8
_U+30EC_U+30A4_U+30E4_U+30FC 1
 62
     7
420
 16777215
370
     9
100
AcDbVertex
100
AcDb2dVertex
 10
81.17970320671101
 20
-106.1685427512357
 30
0.0
  0
VERTEX
  5
96
330
94
100
AcDbEntity
  8
_U+30EC_U+30A4_U+30E4_U+30FC 1
 62
     7
420
 16777215
370
     9
100
AcDbVertex
100
AcDb2dVertex
 10
67.93159442746152
 20
-106.1685427512357
 30
0.0
  0
SEQEND
  5
97
330
94
100
AcDbEntity
  8
_U+30EC_U+30A4_U+30E4_U+30FC 1
 62
     7
420
 16777215
370
     9
  0
INSERT
  5
99
330
41
100
AcDbEntity
  8
_U+30EC_U+30A4_U+30E4_U+30FC 1
100
AcDbBlockReference
  2
block 6
 10
0.0
 20
0.0
 30
0.0
  0
INSERT
  5
A2
330
41
100
AcDbEntity
  8
_U+30EC_U+30A4_U+30E4_U+30FC 1
100
AcDbBlockReference
  2
block 7
 10
0.0
 20
0.0
 30
0.0
  0
SPLINE
  5
AB
330
41
100
AcDbEntity
  8
_U+30EC_U+30A4_U+30E4_U+30FC 1
 62
     7
420
 16777215
370
    25
100
AcDbSpline
210
0.0
220
0.0
230
1.0
 70
    11
 71
     3
 72
    50
 73
    46
 74
     0
 42
0.0000000001
 43
0.0000000001
 12
1.0
 22
0.0
 32
0.0
 13
1.0
 23
0.0
 33
0.0
 40
0.0
 40
0.0
 40
0.0
 40
0.0
 40
1.0
 40
1.0
 40
1.0
 40
2.0
 40
2.0
 40
2.0
 40
3.0
 40
3.0
 40
3.0
 40
4.0
 40
4.0
 40
4.0
 40
5.0
 40
5.0
 40
5.0
 40
6.0
 40
6.0
 40
6.0
 40
7.0
 40
7.0
 40
7.0
 40
8.0
 40
8.0
 40
8.0
 40
9.0
 40
9.0
 40
9.0
 40
10.0
 40
10.0
 40
10.0
 40
11.0
 40
11.0
 40
11.0
 40
12.0
 40
12.0
 40
12.0
 40
13.0
 40
13.0
 40
13.0
 40
14.0
 40
14.0
 40
14.0
 40
15.0
 40
15.0
 40
15.0
 40
15.0
 10
93.67904288782628
 20
-144.1689888528465
 30
0.0
 10
93.67904288782628
 20
-144.1689888528465
 30
0.0
 10
74.67917498133032
 20
-144.1689888528465
 30
0.0
 10
74.67917498133032
 20
-144.1689888528465
 30
0.0
 10
74.12915727547431
 20
-144.1689888528465
 30
0.0
 10
73.67922450917527
 20
-143.7190560751811
 30
0.0
 10
73.67922450917527
 20
-143.1685110753191
 30
0.0
 10
73.67922450917527
 20
-143.1685110753191
 30
0.0
 10
73.67922450917527
 20
-124.1684644134024
 30
0.0
 10
73.67922450917527
 20
-124.1684644134024
 30
0.0
 10
73.67922450917527
 20
-124.1684644134024
 30
0.0
 10
83.67962758737707
 20
-125.3219066353362
 30
0.0
 10
83.67962758737707
 20
-125.3219066353362
 30
0.0
 10
83.67962758737707
 20
-125.3219066353362
 30
0.0
 10
83.67962758737707
 20
-106.1685427512357
 30
0.0
 10
83.67962758737707
 20
-106.1685427512357
 30
0.0
 10
83.67962758737707
 20
-106.1685427512357
 30
0.0
 10
84.67957617297736
 20
-106.1685427512357
 30
0.0
 10
84.67957617297736
 20
-106.1685427512357
 30
0.0
 10
84.67957617297736
 20
-106.1685427512357
 30
0.0
 10
84.67957617297736
 20
-126.4329449683918
 30
0.0
 10
84.67957617297736
 20
-126.4329449683918
 30
0.0
 10
84.67957617297736
 20
-126.4329449683918
 30
0.0
 10
74.71187559394126
 20
-125.2829599686794
 30
0.0
 10
74.71187559394126
 20
-125.2829599686794
 30
0.0
 10
74.71187559394126
 20
-125.2829599686794
 30
0.0
 10
74.71187559394126
 20
-143.1361260753272
 30
0.0
 10
74.71187559394126
 20
-143.1361260753272
 30
0.0
 10
74.71187559394126
 20
-143.1361260753272
 30
0.0
 10
92.56490013847265
 20
-143.1361260753272
 30
0.0
 10
92.56490013847265
 20
-143.1361260753272
 30
0.0
 10
92.56490013847265
 20
-143.1361260753272
 30
0.0
 10
91.51136460979504
 20
-133.1687780222635
 30
0.0
 10
91.51136460979504
 20
-133.1687780222635
 30
0.0
 10
91.51136460979504
 20
-133.1687780222635
 30
0.0
 10
111.6789640952767
 20
-133.1687780222635
 30
0.0
 10
111.6789640952767
 20
-133.1687780222635
 30
0.0
 10
111.6789640952767
 20
-133.1687780222635
 30
0.0
 10
111.6789640952767
 20
-134.1685502442354
 30
0.0
 10
111.6789640952767
 20
-134.1685502442354
 30
0.0
 10
111.6789640952767
 20
-134.1685502442354
 30
0.0
 10
92.62208541479151
 20
-134.1685502442354
 30
0.0
 10
92.62208541479151
 20
-134.1685502442354
 30
0.0
 10
92.62208541479151
 20
-134.1685502442354
 30
0.0
 10
93.67904288782628
 20
-144.1689888528465
 30
0.0
 10
93.67904288782628
 20
-144.1689888528465
 30
0.0
  0
ENDBLK
  5
44
330
41
100
AcDbEntity
  8
0
100
AcDbBlockEnd
  0
BLOCK
  5
57
330
55
100
AcDbEntity
  8
0
100
AcDbBlockBegin
  2
block 3
 70
     0
 10
0.0
 20
0.0
 30
0.0
  3
block 3
  1

  0
SPLINE
  5
59
330
55
100
AcDbEntity
  8
_U+30EC_U+30A4_U+30E4_U+30FC 1
370
     0
100
AcDbSpline
210
0.0
220
0.0
230
1.0
 70
    11
 71
     3
 72
    44
 73
    40
 74
     0
 42
0.0000000001
 43
0.0000000001
 12
1.0
 22
0.0
 32
0.0
 13
1.0
 23
0.0
 33
0.0
 40
0.0
 40
0.0
 40
0.0
 40
0.0
 40
1.0
 40
1.0
 40
1.0
 40
2.0
 40
2.0
 40
2.0
 40
3.0
 40
3.0
 40
3.0
 40
4.0
 40
4.0
 40
4.0
 40
5.0
 40
5.0
 40
5.0
 40
6.0
 40
6.0
 40
6.0
 40
7.0
 40
7.0
 40
7.0
 40
8.0
 40
8.0
 40
8.0
 40
9.0
 40
9.0
 40
9.0
 40
10.0
 40
10.0
 40
10.0
 40
11.0
 40
11.0
 40
11.0
 40
12.0
 40
12.0
 40
12.0
 40
13.0
 40
13.0
 40
13.0
 40
13.0
 10
69.68601343743961
 20
-148.642434316138
 30
0.0
 10
69.66258678813992
 20
-148.5979925843783
 30
0.0
 10
69.6415717056799
 20
-148.545282623454
 30
0.0
 10
69.63933239361448
 20
-148.3144612259422
 30
0.0
 10
69.63519827903218
 20
-148.0712374846836
 30
0.0
 10
69.57594263668588
 20
-148.001302046333
 30
0.0
 10
69.39817570964699
 20
-148.001302046333
 30
0.0
 10
69.39817570964699
 20
-148.001302046333
 30
0.0
 10
68.98993189464488
 20
-148.001302046333
 30
0.0
 10
68.98993189464488
 20
-148.001302046333
 30
0.0
 10
68.98993189464488
 20
-148.001302046333
 30
0.0
 10
68.98993189464488
 20
-148.642434316138
 30
0.0
 10
68.98993189464488
 20
-148.642434316138
 30
0.0
 10
68.98993189464488
 20
-148.642434316138
 30
0.0
 10
68.7551486373251
 20
-148.642434316138
 30
0.0
 10
68.7551486373251
 20
-148.642434316138
 30
0.0
 10
68.7551486373251
 20
-148.642434316138
 30
0.0
 10
68.7551486373251
 20
-147.0979980101005
 30
0.0
 10
68.7551486373251
 20
-147.0979980101005
 30
0.0
 10
68.7551486373251
 20
-147.0979980101005
 30
0.0
 10
69.42987058811129
 20
-147.0979980101005
 30
0.0
 10
69.42987058811129
 20
-147.0979980101005
 30
0.0
 10
69.73665634107279
 20
-147.0979980101005
 30
0.0
 10
69.90391572688166
 20
-147.269563765266
 30
0.0
 10
69.90391572688166
 20
-147.52553435982
 30
0.0
 10
69.90391572688166
 20
-147.5761772634532
 30
0.0
 10
69.89530298816854
 20
-147.6588595550992
 30
0.0
 10
69.85086125640882
 20
-147.7391302799055
 30
0.0
 10
69.79177786883677
 20
-147.8428276540115
 30
0.0
 10
69.72614879984278
 20
-147.8617756791804
 30
0.0
 10
69.66482610020532
 20
-147.8786566470581
 30
0.0
 10
69.80228541006679
 20
-147.9210313215267
 30
0.0
 10
69.86998153635196
 20
-147.9696071678687
 30
0.0
 10
69.87428790570851
 20
-148.2848334047691
 30
0.0
 10
69.87842202029081
 20
-148.5556179099097
 30
0.0
 10
69.91442326811168
 20
-148.587312788374
 30
0.0
 10
69.98211939439683
 20
-148.642434316138
 30
0.0
 10
69.98211939439683
 20
-148.642434316138
 30
0.0
 10
69.68601343743961
 20
-148.642434316138
 30
0.0
 10
69.68601343743961
 20
-148.642434316138
 30
0.0
  0
SPLINE
  5
5A
330
55
100
AcDbEntity
  8
_U+30EC_U+30A4_U+30E4_U+30FC 1
370
     0
100
AcDbSpline
210
0.0
220
0.0
230
1.0
 70
    11
 71
     3
 72
    20
 73
    16
 74
     0
 42
0.0000000001
 43
0.0000000001
 12
1.0
 22
0.0
 32
0.0
 13
1.0
 23
0.0
 33
0.0
 40
0.0
 40
0.0
 40
0.0
 40
0.0
 40
1.0
 40
1.0
 40
1.0
 40
2.0
 40
2.0
 40
2.0
 40
3.0
 40
3.0
 40
3.0
 40
4.0
 40
4.0
 40
4.0
 40
5.0
 40
5.0
 40
5.0
 40
5.0
 10
69.43417695746784
 20
-147.3095268728948
 30
0.0
 10
69.43417695746784
 20
-147.3095268728948
 30
0.0
 10
68.98993189464488
 20
-147.3095268728948
 30
0.0
 10
68.98993189464488
 20
-147.3095268728948
 30
0.0
 10
68.98993189464488
 20
-147.3095268728948
 30
0.0
 10
68.98993189464488
 20
-147.7897731835387
 30
0.0
 10
68.98993189464488
 20
-147.7897731835387
 30
0.0
 10
68.98993189464488
 20
-147.7897731835387
 30
0.0
 10
69.4321099001767
 20
-147.7897731835387
 30
0.0
 10
69.4321099001767
 20
-147.7897731835387
 30
0.0
 10
69.53150090492616
 20
-147.7897731835387
 30
0.0
 10
69.66689315749647
 20
-147.7136365733147
 30
0.0
 10
69.66689315749647
 20
-147.5424153276977
 30
0.0
 10
69.66689315749647
 20
-147.4642116601826
 30
0.0
 10
69.63313122174102
 20
-147.3095268728948
 30
0.0
 10
69.43417695746784
 20
-147.3095268728948
 30
0.0
  0
HATCH
  5
5B
330
55
100
AcDbEntity
  8
_U+30EC_U+30A4_U+30E4_U+30FC 1
 62
     7
420
 16777215
100
AcDbHatch
 10
0.0
 20
0.0
 30
0.0
210
0.0
220
0.0
230
1.0
  2
SOLID
 70
     1
 71
     0
 91
        2
 92
        1
 93
        1
 72
     4
 94
        3
 73
     0
 74
     1
 95
       44
 96
       40
 40
0.0
 40
0.0
 40
0.0
 40
0.0
 40
1.0
 40
1.0
 40
1.0
 40
2.0
 40
2.0
 40
2.0
 40
3.0
 40
3.0
 40
3.0
 40
4.0
 40
4.0
 40
4.0
 40
5.0
 40
5.0
 40
5.0
 40
6.0
 40
6.0
 40
6.0
 40
7.0
 40
7.0
 40
7.0
 40
8.0
 40
8.0
 40
8.0
 40
9.0
 40
9.0
 40
9.0
 40
10.0
 40
10.0
 40
10.0
 40
11.0
 40
11.0
 40
11.0
 40
12.0
 40
12.0
 40
12.0
 40
13.0
 40
13.0
 40
13.0
 40
13.0
 10
69.68601343743961
 20
-148.642434316138
 10
69.66258678813992
 20
-148.5979925843783
 10
69.6415717056799
 20
-148.545282623454
 10
69.63933239361448
 20
-148.3144612259422
 10
69.63519827903218
 20
-148.0712374846836
 10
69.57594263668588
 20
-148.001302046333
 10
69.39817570964699
 20
-148.001302046333
 10
69.39817570964699
 20
-148.001302046333
 10
68.98993189464488
 20
-148.001302046333
 10
68.98993189464488
 20
-148.001302046333
 10
68.98993189464488
 20
-148.001302046333
 10
68.98993189464488
 20
-148.642434316138
 10
68.98993189464488
 20
-148.642434316138
 10
68.98993189464488
 20
-148.642434316138
 10
68.7551486373251
 20
-148.642434316138
 10
68.7551486373251
 20
-148.642434316138
 10
68.7551486373251
 20
-148.642434316138
 10
68.7551486373251
 20
-147.0979980101005
 10
68.7551486373251
 20
-147.0979980101005
 10
68.7551486373251
 20
-147.0979980101005
 10
69.42987058811129
 20
-147.0979980101005
 10
69.42987058811129
 20
-147.0979980101005
 10
69.73665634107279
 20
-147.0979980101005
 10
69.90391572688166
 20
-147.269563765266
 10
69.90391572688166
 20
-147.52553435982
 10
69.90391572688166
 20
-147.5761772634532
 10
69.89530298816854
 20
-147.6588595550992
 10
69.85086125640882
 20
-147.7391302799055
 10
69.79177786883677
 20
-147.8428276540115
 10
69.72614879984278
 20
-147.8617756791804
 10
69.66482610020532
 20
-147.8786566470581
 10
69.80228541006679
 20
-147.9210313215267
 10
69.86998153635196
 20
-147.9696071678687
 10
69.87428790570851
 20
-148.2848334047691
 10
69.87842202029081
 20
-148.5556179099097
 10
69.91442326811168
 20
-148.587312788374
 10
69.98211939439683
 20
-148.642434316138
 10
69.98211939439683
 20
-148.642434316138
 10
69.68601343743961
 20
-148.642434316138
 10
69.68601343743961
 20
-148.642434316138
 97
        0
 97
        0
 92
        1
 93
        1
 72
     4
 94
        3
 73
     0
 74
     1
 95
       20
 96
       16
 40
0.0
 40
0.0
 40
0.0
 40
0.0
 40
1.0
 40
1.0
 40
1.0
 40
2.0
 40
2.0
 40
2.0
 40
3.0
 40
3.0
 40
3.0
 40
4.0
 40
4.0
 40
4.0
 40
5.0
 40
5.0
 40
5.0
 40
5.0
 10
69.43417695746784
 20
-147.3095268728948
 10
69.43417695746784
 20
-147.3095268728948
 10
68.98993189464488
 20
-147.3095268728948
 10
68.98993189464488
 20
-147.3095268728948
 10
68.98993189464488
 20
-147.3095268728948
 10
68.98993189464488
 20
-147.7897731835387
 10
68.98993189464488
 20
-147.7897731835387
 10
68.98993189464488
 20
-147.7897731835387
 10
69.4321099001767
 20
-147.7897731835387
 10
69.4321099001767
 20
-147.7897731835387
 10
69.53150090492616
 20
-147.7897731835387
 10
69.66689315749647
 20
-147.7136365733147
 10
69.66689315749647
 20
-147.5424153276977
 10
69.66689315749647
 20
-147.4642116601826
 10
69.63313122174102
 20
-147.3095268728948
 10
69.43417695746784
 20
-147.3095268728948
 97
        0
 97
        0
 75
     2
 76
     1
 98
        0
  0
SPLINE
  5
5C
330
55
100
AcDbEntity
  8
_U+30EC_U+30A4_U+30E4_U+30FC 1
370
     0
100
AcDbSpline
210
0.0
220
0.0
230
1.0
 70
    11
 71
     3
 72
    26
 73
    22
 74
     0
 42
0.0000000001
 43
0.0000000001
 12
1.0
 22
0.0
 32
0.0
 13
1.0
 23
0.0
 33
0.0
 40
0.0
 40
0.0
 40
0.0
 40
0.0
 40
1.0
 40
1.0
 40
1.0
 40
2.0
 40
2.0
 40
2.0
 40
3.0
 40
3.0
 40
3.0
 40
4.0
 40
4.0
 40
4.0
 40
5.0
 40
5.0
 40
5.0
 40
6.0
 40
6.0
 40
6.0
 40
7.0
 40
7.0
 40
7.0
 40
7.0
 10
70.57312552489144
 20
-148.642434316138
 30
0.0
 10
70.57312552489144
 20
-148.642434316138
 30
0.0
 10
70.57312552489144
 20
-147.5382812131154
 30
0.0
 10
70.57312552489144
 20
-147.5382812131154
 30
0.0
 10
70.57312552489144
 20
-147.5382812131154
 30
0.0
 10
70.24308537740451
 20
-147.5382812131154
 30
0.0
 10
70.24308537740451
 20
-147.5382812131154
 30
0.0
 10
70.24308537740451
 20
-147.5382812131154
 30
0.0
 10
70.24308537740451
 20
-147.3901421072497
 30
0.0
 10
70.24308537740451
 20
-147.3901421072497
 30
0.0
 10
70.5751925821826
 20
-147.3753281966631
 30
0.0
 10
70.62170137123347
 20
-147.2123751802108
 30
0.0
 10
70.65132919240662
 20
-147.0979980101005
 30
0.0
 10
70.65132919240662
 20
-147.0979980101005
 30
0.0
 10
70.7974012409812
 20
-147.0979980101005
 30
0.0
 10
70.7974012409812
 20
-147.0979980101005
 30
0.0
 10
70.7974012409812
 20
-147.0979980101005
 30
0.0
 10
70.7974012409812
 20
-148.642434316138
 30
0.0
 10
70.7974012409812
 20
-148.642434316138
 30
0.0
 10
70.7974012409812
 20
-148.642434316138
 30
0.0
 10
70.57312552489144
 20
-148.642434316138
 30
0.0
 10
70.57312552489144
 20
-148.642434316138
 30
0.0
  0
HATCH
  5
5D
330
55
100
AcDbEntity
  8
_U+30EC_U+30A4_U+30E4_U+30FC 1
 62
     7
420
 16777215
100
AcDbHatch
 10
0.0
 20
0.0
 30
0.0
210
0.0
220
0.0
230
1.0
  2
SOLID
 70
     1
 71
     0
 91
        1
 92
        1
 93
        1
 72
     4
 94
        3
 73
     0
 74
     1
 95
       26
 96
       22
 40
0.0
 40
0.0
 40
0.0
 40
0.0
 40
1.0
 40
1.0
 40
1.0
 40
2.0
 40
2.0
 40
2.0
 40
3.0
 40
3.0
 40
3.0
 40
4.0
 40
4.0
 40
4.0
 40
5.0
 40
5.0
 40
5.0
 40
6.0
 40
6.0
 40
6.0
 40
7.0
 40
7.0
 40
7.0
 40
7.0
 10
70.57312552489144
 20
-148.642434316138
 10
70.57312552489144
 20
-148.642434316138
 10
70.57312552489144
 20
-147.5382812131154
 10
70.57312552489144
 20
-147.5382812131154
 10
70.57312552489144
 20
-147.5382812131154
 10
70.24308537740451
 20
-147.5382812131154
 10
70.24308537740451
 20
-147.5382812131154
 10
70.24308537740451
 20
-147.5382812131154
 10
70.24308537740451
 20
-147.3901421072497
 10
70.24308537740451
 20
-147.3901421072497
 10
70.5751925821826
 20
-147.3753281966631
 10
70.62170137123347
 20
-147.2123751802108
 10
70.65132919240662
 20
-147.0979980101005
 10
70.65132919240662
 20
-147.0979980101005
 10
70.7974012409812
 20
-147.0979980101005
 10
70.7974012409812
 20
-147.0979980101005
 10
70.7974012409812
 20
-147.0979980101005
 10
70.7974012409812
 20
-148.642434316138
 10
70.7974012409812
 20
-148.642434316138
 10
70.7974012409812
 20
-148.642434316138
 10
70.57312552489144
 20
-148.642434316138
 10
70.57312552489144
 20
-148.642434316138
 97
        0
 97
        0
 75
     2
 76
     1
 98
        0
  0
ENDBLK
  5
58
330
55
100
AcDbEntity
  8
0
100
AcDbBlockEnd
  0
BLOCK
  5
70
330
6E
100
AcDbEntity
  8
0
100
AcDbBlockBegin
  2
block 4
 70
     0
 10
0.0
 20
0.0
 30
0.0
  3
block 4
  1

  0
SPLINE
  5
72
330
6E
100
AcDbEntity
  8
_U+30EC_U+30A4_U+30E4_U+30FC 1
370
     0
100
AcDbSpline
210
0.0
220
0.0
230
1.0
 70
    11
 71
     3
 72
    26
 73
    22
 74
     0
 42
0.0000000001
 43
0.0000000001
 12
1.0
 22
0.0
 32
0.0
 13
1.0
 23
0.0
 33
0.0
 40
0.0
 40
0.0
 40
0.0
 40
0.0
 40
1.0
 40
1.0
 40
1.0
 40
2.0
 40
2.0
 40
2.0
 40
3.0
 40
3.0
 40
3.0
 40
4.0
 40
4.0
 40
4.0
 40
5.0
 40
5.0
 40
5.0
 40
6.0
 40
6.0
 40
6.0
 40
7.0
 40
7.0
 40
7.0
 40
7.0
 10
115.2267306569572
 20
-131.2178303708414
 30
0.0
 10
115.2267306569572
 20
-131.2178303708414
 30
0.0
 10
114.1225775539346
 20
-131.2178303708414
 30
0.0
 10
114.1225775539346
 20
-131.2178303708414
 30
0.0
 10
114.1225775539346
 20
-131.2178303708414
 30
0.0
 10
114.1225775539346
 20
-131.5478705183283
 30
0.0
 10
114.1225775539346
 20
-131.5478705183283
 30
0.0
 10
114.1225775539346
 20
-131.5478705183283
 30
0.0
 10
113.9744384480689
 20
-131.5478705183283
 30
0.0
 10
113.9744384480689
 20
-131.5478705183283
 30
0.0
 10
113.9596245374823
 20
-131.2157633135502
 30
0.0
 10
113.79667152103
 20
-131.1692545244994
 30
0.0
 10
113.6822943509197
 20
-131.1396267033262
 30
0.0
 10
113.6822943509197
 20
-131.1396267033262
 30
0.0
 10
113.6822943509197
 20
-130.9935546547516
 30
0.0
 10
113.6822943509197
 20
-130.9935546547516
 30
0.0
 10
113.6822943509197
 20
-130.9935546547516
 30
0.0
 10
115.2267306569572
 20
-130.9935546547516
 30
0.0
 10
115.2267306569572
 20
-130.9935546547516
 30
0.0
 10
115.2267306569572
 20
-130.9935546547516
 30
0.0
 10
115.2267306569572
 20
-131.2178303708414
 30
0.0
 10
115.2267306569572
 20
-131.2178303708414
 30
0.0
  0
HATCH
  5
73
330
6E
100
AcDbEntity
  8
_U+30EC_U+30A4_U+30E4_U+30FC 1
 62
     7
420
 16777215
100
AcDbHatch
 10
0.0
 20
0.0
 30
0.0
210
0.0
220
0.0
230
1.0
  2
SOLID
 70
     1
 71
     0
 91
        1
 92
        1
 93
        1
 72
     4
 94
        3
 73
     0
 74
     1
 95
       26
 96
       22
 40
0.0
 40
0.0
 40
0.0
 40
0.0
 40
1.0
 40
1.0
 40
1.0
 40
2.0
 40
2.0
 40
2.0
 40
3.0
 40
3.0
 40
3.0
 40
4.0
 40
4.0
 40
4.0
 40
5.0
 40
5.0
 40
5.0
 40
6.0
 40
6.0
 40
6.0
 40
7.0
 40
7.0
 40
7.0
 40
7.0
 10
115.2267306569572
 20
-131.2178303708414
 10
115.2267306569572
 20
-131.2178303708414
 10
114.1225775539346
 20
-131.2178303708414
 10
114.1225775539346
 20
-131.2178303708414
 10
114.1225775539346
 20
-131.2178303708414
 10
114.1225775539346
 20
-131.5478705183283
 10
114.1225775539346
 20
-131.5478705183283
 10
114.1225775539346
 20
-131.5478705183283
 10
113.9744384480689
 20
-131.5478705183283
 10
113.9744384480689
 20
-131.5478705183283
 10
113.9596245374823
 20
-131.2157633135502
 10
113.79667152103
 20
-131.1692545244994
 10
113.6822943509197
 20
-131.1396267033262
 10
113.6822943509197
 20
-131.1396267033262
 10
113.6822943509197
 20
-130.9935546547516
 10
113.6822943509197
 20
-130.9935546547516
 10
113.6822943509197
 20
-130.9935546547516
 10
115.2267306569572
 20
-130.9935546547516
 10
115.2267306569572
 20
-130.9935546547516
 10
115.2267306569572
 20
-130.9935546547516
 10
115.2267306569572
 20
-131.2178303708414
 10
115.2267306569572
 20
-131.2178303708414
 97
        0
 97
        0
 75
     2
 76
     1
 98
        0
  0
ENDBLK
  5
71
330
6E
100
AcDbEntity
  8
0
100
AcDbBlockEnd
  0
BLOCK
  5
7E
330
7C
100
AcDbEntity
  8
0
100
AcDbBlockBegin
  2
block 5
 70
     0
 10
0.0
 20
0.0
 30
0.0
  3
block 5
  1

  0
SPLINE
  5
80
330
7C
100
AcDbEntity
  8
_U+30EC_U+30A4_U+30E4_U+30FC 1
370
     0
100
AcDbSpline
210
0.0
220
0.0
230
1.0
 70
    11
 71
     3
 72
    26
 73
    22
 74
     0
 42
0.0000000001
 43
0.0000000001
 12
1.0
 22
0.0
 32
0.0
 13
1.0
 23
0.0
 33
0.0
 40
0.0
 40
0.0
 40
0.0
 40
0.0
 40
1.0
 40
1.0
 40
1.0
 40
2.0
 40
2.0
 40
2.0
 40
3.0
 40
3.0
 40
3.0
 40
4.0
 40
4.0
 40
4.0
 40
5.0
 40
5.0
 40
5.0
 40
6.0
 40
6.0
 40
6.0
 40
7.0
 40
7.0
 40
7.0
 40
7.0
 10
114.8126301796302
 20
-139.8067979251178
 30
0.0
 10
114.8126301796302
 20
-139.8067979251178
 30
0.0
 10
113.7084770766076
 20
-139.8067979251178
 30
0.0
 10
113.7084770766076
 20
-139.8067979251178
 30
0.0
 10
113.7084770766076
 20
-139.8067979251178
 30
0.0
 10
113.7084770766076
 20
-140.1368380726047
 30
0.0
 10
113.7084770766076
 20
-140.1368380726047
 30
0.0
 10
113.7084770766076
 20
-140.1368380726047
 30
0.0
 10
113.5603379707419
 20
-140.1368380726047
 30
0.0
 10
113.5603379707419
 20
-140.1368380726047
 30
0.0
 10
113.5455240601553
 20
-139.8047308678266
 30
0.0
 10
113.382571043703
 20
-139.7582220787757
 30
0.0
 10
113.2681938735927
 20
-139.7285942576026
 30
0.0
 10
113.2681938735927
 20
-139.7285942576026
 30
0.0
 10
113.2681938735927
 20
-139.582522209028
 30
0.0
 10
113.2681938735927
 20
-139.582522209028
 30
0.0
 10
113.2681938735927
 20
-139.582522209028
 30
0.0
 10
114.8126301796302
 20
-139.582522209028
 30
0.0
 10
114.8126301796302
 20
-139.582522209028
 30
0.0
 10
114.8126301796302
 20
-139.582522209028
 30
0.0
 10
114.8126301796302
 20
-139.8067979251178
 30
0.0
 10
114.8126301796302
 20
-139.8067979251178
 30
0.0
  0
HATCH
  5
81
330
7C
100
AcDbEntity
  8
_U+30EC_U+30A4_U+30E4_U+30FC 1
 62
     7
420
 16777215
100
AcDbHatch
 10
0.0
 20
0.0
 30
0.0
210
0.0
220
0.0
230
1.0
  2
SOLID
 70
     1
 71
     0
 91
        1
 92
        1
 93
        1
 72
     4
 94
        3
 73
     0
 74
     1
 95
       26
 96
       22
 40
0.0
 40
0.0
 40
0.0
 40
0.0
 40
1.0
 40
1.0
 40
1.0
 40
2.0
 40
2.0
 40
2.0
 40
3.0
 40
3.0
 40
3.0
 40
4.0
 40
4.0
 40
4.0
 40
5.0
 40
5.0
 40
5.0
 40
6.0
 40
6.0
 40
6.0
 40
7.0
 40
7.0
 40
7.0
 40
7.0
 10
114.8126301796302
 20
-139.8067979251178
 10
114.8126301796302
 20
-139.8067979251178
 10
113.7084770766076
 20
-139.8067979251178
 10
113.7084770766076
 20
-139.8067979251178
 10
113.7084770766076
 20
-139.8067979251178
 10
113.7084770766076
 20
-140.1368380726047
 10
113.7084770766076
 20
-140.1368380726047
 10
113.7084770766076
 20
-140.1368380726047
 10
113.5603379707419
 20
-140.1368380726047
 10
113.5603379707419
 20
-140.1368380726047
 10
113.5455240601553
 20
-139.8047308678266
 10
113.382571043703
 20
-139.7582220787757
 10
113.2681938735927
 20
-139.7285942576026
 10
113.2681938735927
 20
-139.7285942576026
 10
113.2681938735927
 20
-139.582522209028
 10
113.2681938735927
 20
-139.582522209028
 10
113.2681938735927
 20
-139.582522209028
 10
114.8126301796302
 20
-139.582522209028
 10
114.8126301796302
 20
-139.582522209028
 10
114.8126301796302
 20
-139.582522209028
 10
114.8126301796302
 20
-139.8067979251178
 10
114.8126301796302
 20
-139.8067979251178
 97
        0
 97
        0
 75
     2
 76
     1
 98
        0
  0
SPLINE
  5
82
330
7C
100
AcDbEntity
  8
_U+30EC_U+30A4_U+30E4_U+30FC 1
370
     0
100
AcDbSpline
210
0.0
220
0.0
230
1.0
 70
    11
 71
     3
 72
    29
 73
    25
 74
     0
 42
0.0000000001
 43
0.0000000001
 12
1.0
 22
0.0
 32
0.0
 13
1.0
 23
0.0
 33
0.0
 40
0.0
 40
0.0
 40
0.0
 40
0.0
 40
1.0
 40
1.0
 40
1.0
 40
2.0
 40
2.0
 40
2.0
 40
3.0
 40
3.0
 40
3.0
 40
4.0
 40
4.0
 40
4.0
 40
5.0
 40
5.0
 40
5.0
 40
6.0
 40
6.0
 40
6.0
 40
7.0
 40
7.0
 40
7.0
 40
8.0
 40
8.0
 40
8.0
 40
8.0
 10
114.6348632525913
 20
-138.183468932468
 30
0.0
 10
114.8443250580945
 20
-138.2916449307049
 30
0.0
 10
114.8632730832634
 20
-138.464933233613
 30
0.0
 10
114.8632730832634
 20
-138.5813774610144
 30
0.0
 10
114.8632730832634
 20
-138.7422634201756
 30
0.0
 10
114.8167642942125
 20
-138.8838568446193
 30
0.0
 10
114.6348632525913
 20
-138.9789414800122
 30
0.0
 10
114.4402153576747
 20
-139.0826388541182
 30
0.0
 10
114.2031927882895
 20
-139.1019313888356
 30
0.0
 10
114.0405842813857
 20
-139.1019313888356
 30
0.0
 10
113.8965792901023
 20
-139.1019313888356
 30
0.0
 10
113.6447428101305
 20
-139.0847059114094
 30
0.0
 10
113.4459608006316
 20
-138.9789414800122
 30
0.0
 10
113.2430446765504
 20
-138.8711099913239
 30
0.0
 10
113.2196180272507
 20
-138.7102240321627
 30
0.0
 10
113.2196180272507
 20
-138.5813774610144
 30
0.0
 10
113.2196180272507
 20
-138.4225585591444
 30
0.0
 10
113.2640597590104
 20
-138.2788980774095
 30
0.0
 10
113.4459608006316
 20
-138.183468932468
 30
0.0
 10
113.638541638257
 20
-138.0842501824928
 30
0.0
 10
113.8669514689291
 20
-138.0608235331931
 30
0.0
 10
114.0405842813857
 20
-138.0608235331931
 30
0.0
 10
114.2118055270026
 20
-138.0608235331931
 30
0.0
 10
114.4422824149658
 20
-138.0821831252017
 30
0.0
 10
114.6348632525913
 20
-138.183468932468
 30
0.0
  0
SPLINE
  5
83
330
7C
100
AcDbEntity
  8
_U+30EC_U+30A4_U+30E4_U+30FC 1
370
     0
100
AcDbSpline
210
0.0
220
0.0
230
1.0
 70
    11
 71
     3
 72
    17
 73
    13
 74
     0
 42
0.0000000001
 43
0.0000000001
 12
1.0
 22
0.0
 32
0.0
 13
1.0
 23
0.0
 33
0.0
 40
0.0
 40
0.0
 40
0.0
 40
0.0
 40
1.0
 40
1.0
 40
1.0
 40
2.0
 40
2.0
 40
2.0
 40
3.0
 40
3.0
 40
3.0
 40
4.0
 40
4.0
 40
4.0
 40
4.0
 10
113.4121988648761
 20
-138.5813774610144
 30
0.0
 10
113.4121988648761
 20
-138.831146883695
 30
0.0
 10
113.6957302233122
 20
-138.8776556727459
 30
0.0
 10
114.0405842813857
 20
-138.8776556727459
 30
0.0
 10
114.3599446328683
 20
-138.8776556727459
 30
0.0
 10
114.6686251883467
 20
-138.8414821701508
 30
0.0
 10
114.6686251883467
 20
-138.5813774610144
 30
0.0
 10
114.6686251883467
 20
-138.3336750956249
 30
0.0
 10
114.3875053967504
 20
-138.2850992492829
 30
0.0
 10
114.0405842813857
 20
-138.2850992492829
 30
0.0
 10
113.7208794203545
 20
-138.2850992492829
 30
0.0
 10
113.4121988648761
 20
-138.3233398091692
 30
0.0
 10
113.4121988648761
 20
-138.5813774610144
 30
0.0
  0
HATCH
  5
84
330
7C
100
AcDbEntity
  8
_U+30EC_U+30A4_U+30E4_U+30FC 1
 62
     7
420
 16777215
100
AcDbHatch
 10
0.0
 20
0.0
 30
0.0
210
0.0
220
0.0
230
1.0
  2
SOLID
 70
     1
 71
     0
 91
        2
 92
        1
 93
        1
 72
     4
 94
        3
 73
     0
 74
     1
 95
       29
 96
       25
 40
0.0
 40
0.0
 40
0.0
 40
0.0
 40
1.0
 40
1.0
 40
1.0
 40
2.0
 40
2.0
 40
2.0
 40
3.0
 40
3.0
 40
3.0
 40
4.0
 40
4.0
 40
4.0
 40
5.0
 40
5.0
 40
5.0
 40
6.0
 40
6.0
 40
6.0
 40
7.0
 40
7.0
 40
7.0
 40
8.0
 40
8.0
 40
8.0
 40
8.0
 10
114.6348632525913
 20
-138.183468932468
 10
114.8443250580945
 20
-138.2916449307049
 10
114.8632730832634
 20
-138.464933233613
 10
114.8632730832634
 20
-138.5813774610144
 10
114.8632730832634
 20
-138.7422634201756
 10
114.8167642942125
 20
-138.8838568446193
 10
114.6348632525913
 20
-138.9789414800122
 10
114.4402153576747
 20
-139.0826388541182
 10
114.2031927882895
 20
-139.1019313888356
 10
114.0405842813857
 20
-139.1019313888356
 10
113.8965792901023
 20
-139.1019313888356
 10
113.6447428101305
 20
-139.0847059114094
 10
113.4459608006316
 20
-138.9789414800122
 10
113.2430446765504
 20
-138.8711099913239
 10
113.2196180272507
 20
-138.7102240321627
 10
113.2196180272507
 20
-138.5813774610144
 10
113.2196180272507
 20
-138.4225585591444
 10
113.2640597590104
 20
-138.2788980774095
 10
113.4459608006316
 20
-138.183468932468
 10
113.638541638257
 20
-138.0842501824928
 10
113.8669514689291
 20
-138.0608235331931
 10
114.0405842813857
 20
-138.0608235331931
 10
114.2118055270026
 20
-138.0608235331931
 10
114.4422824149658
 20
-138.0821831252017
 10
114.6348632525913
 20
-138.183468932468
 97
        0
 97
        0
 92
        1
 93
        1
 72
     4
 94
        3
 73
     0
 74
     1
 95
       17
 96
       13
 40
0.0
 40
0.0
 40
0.0
 40
0.0
 40
1.0
 40
1.0
 40
1.0
 40
2.0
 40
2.0
 40
2.0
 40
3.0
 40
3.0
 40
3.0
 40
4.0
 40
4.0
 40
4.0
 40
4.0
 10
113.4121988648761
 20
-138.5813774610144
 10
113.4121988648761
 20
-138.831146883695
 10
113.6957302233122
 20
-138.8776556727459
 10
114.0405842813857
 20
-138.8776556727459
 10
114.3599446328683
 20
-138.8776556727459
 10
114.6686251883467
 20
-138.8414821701508
 10
114.6686251883467
 20
-138.5813774610144
 10
114.6686251883467
 20
-138.3336750956249
 10
114.3875053967504
 20
-138.2850992492829
 10
114.0405842813857
 20
-138.2850992492829
 10
113.7208794203545
 20
-138.2850992492829
 10
113.4121988648761
 20
-138.3233398091692
 10
113.4121988648761
 20
-138.5813774610144
 97
        0
 97
        0
 75
     2
 76
     1
 98
        0
  0
ENDBLK
  5
7F
330
7C
100
AcDbEntity
  8
0
100
AcDbBlockEnd
  0
BLOCK
  5
9A
330
98
100
AcDbEntity
  8
0
100
AcDbBlockBegin
  2
block 6
 70
     0
 10
0.0
 20
0.0
 30
0.0
  3
block 6
  1

  0
SPLINE
  5
9C
330
98
100
AcDbEntity
  8
_U+30EC_U+30A4_U+30E4_U+30FC 1
370
     0
100
AcDbSpline
210
0.0
220
0.0
230
1.0
 70
    11
 71
     3
 72
    44
 73
    40
 74
     0
 42
0.0000000001
 43
0.0000000001
 12
1.0
 22
0.0
 32
0.0
 13
1.0
 23
0.0
 33
0.0
 40
0.0
 40
0.0
 40
0.0
 40
0.0
 40
1.0
 40
1.0
 40
1.0
 40
2.0
 40
2.0
 40
2.0
 40
3.0
 40
3.0
 40
3.0
 40
4.0
 40
4.0
 40
4.0
 40
5.0
 40
5.0
 40
5.0
 40
6.0
 40
6.0
 40
6.0
 40
7.0
 40
7.0
 40
7.0
 40
8.0
 40
8.0
 40
8.0
 40
9.0
 40
9.0
 40
9.0
 40
10.0
 40
10.0
 40
10.0
 40
11.0
 40
11.0
 40
11.0
 40
12.0
 40
12.0
 40
12.0
 40
13.0
 40
13.0
 40
13.0
 40
13.0
 10
67.47942977913709
 20
-134.6646484038338
 30
0.0
 10
67.63824868100711
 20
-134.8823784385016
 30
0.0
 10
67.71231823393998
 20
-134.9753960166034
 30
0.0
 10
67.8559787156749
 20
-135.0243163724939
 30
0.0
 10
67.8559787156749
 20
-135.0243163724939
 30
0.0
 10
67.8559787156749
 20
-134.2457247928275
 30
0.0
 10
67.8559787156749
 20
-134.2457247928275
 30
0.0
 10
67.8559787156749
 20
-134.2457247928275
 30
0.0
 10
68.06130640659579
 20
-134.2457247928275
 30
0.0
 10
68.06130640659579
 20
-134.2457247928275
 30
0.0
 10
68.06130640659579
 20
-134.2457247928275
 30
0.0
 10
68.06130640659579
 20
-135.273741285626
 30
0.0
 10
68.06130640659579
 20
-135.273741285626
 30
0.0
 10
67.70370549522686
 20
-135.2420464071617
 30
0.0
 10
67.62550182771169
 20
-135.176589592942
 30
0.0
 10
67.32715655868904
 20
-134.791427917691
 30
0.0
 10
67.12837454919013
 20
-134.535457323137
 30
0.0
 10
67.06050616813071
 20
-134.4700005089172
 30
0.0
 10
66.92304685826925
 20
-134.4700005089172
 30
0.0
 10
66.80453557357664
 20
-134.4700005089172
 30
0.0
 10
66.67362194513716
 20
-134.5420030045589
 30
0.0
 10
66.67362194513716
 20
-134.7387179567667
 30
0.0
 10
66.67362194513716
 20
-134.9988226659031
 30
0.0
 10
66.90409883310036
 20
-135.0070908950677
 30
0.0
 10
67.02054306050181
 20
-135.0115695191985
 30
0.0
 10
67.02054306050181
 20
-135.0115695191985
 30
0.0
 10
67.02054306050181
 20
-135.2358452352883
 30
0.0
 10
67.02054306050181
 20
-135.2358452352883
 30
0.0
 10
66.8934190370961
 20
-135.2272324965751
 30
0.0
 10
66.78145343382548
 20
-135.2165527005709
 30
0.0
 10
66.66294214913287
 20
-135.1362819757645
 30
0.0
 10
66.50205618997171
 20
-135.0263834297851
 30
0.0
 10
66.46829425421626
 20
-134.8400037640331
 30
0.0
 10
66.46829425421626
 20
-134.7239040461801
 30
0.0
 10
66.46829425421626
 20
-134.4465738596175
 30
0.0
 10
66.6522623531286
 20
-134.2391791114055
 30
0.0
 10
66.92511391556039
 20
-134.2391791114055
 30
0.0
 10
67.15386825578098
 20
-134.2391791114055
 30
0.0
 10
67.25308700575617
 20
-134.3556233388069
 30
0.0
 10
67.47942977913709
 20
-134.6646484038338
 30
0.0
  0
HATCH
  5
9D
330
98
100
AcDbEntity
  8
_U+30EC_U+30A4_U+30E4_U+30FC 1
 62
     7
420
 16777215
100
AcDbHatch
 10
0.0
 20
0.0
 30
0.0
210
0.0
220
0.0
230
1.0
  2
SOLID
 70
     1
 71
     0
 91
        1
 92
        1
 93
        1
 72
     4
 94
        3
 73
     0
 74
     1
 95
       44
 96
       40
 40
0.0
 40
0.0
 40
0.0
 40
0.0
 40
1.0
 40
1.0
 40
1.0
 40
2.0
 40
2.0
 40
2.0
 40
3.0
 40
3.0
 40
3.0
 40
4.0
 40
4.0
 40
4.0
 40
5.0
 40
5.0
 40
5.0
 40
6.0
 40
6.0
 40
6.0
 40
7.0
 40
7.0
 40
7.0
 40
8.0
 40
8.0
 40
8.0
 40
9.0
 40
9.0
 40
9.0
 40
10.0
 40
10.0
 40
10.0
 40
11.0
 40
11.0
 40
11.0
 40
12.0
 40
12.0
 40
12.0
 40
13.0
 40
13.0
 40
13.0
 40
13.0
 10
67.47942977913709
 20
-134.6646484038338
 10
67.63824868100711
 20
-134.8823784385016
 10
67.71231823393998
 20
-134.9753960166034
 10
67.8559787156749
 20
-135.0243163724939
 10
67.8559787156749
 20
-135.0243163724939
 10
67.8559787156749
 20
-134.2457247928275
 10
67.8559787156749
 20
-134.2457247928275
 10
67.8559787156749
 20
-134.2457247928275
 10
68.06130640659579
 20
-134.2457247928275
 10
68.06130640659579
 20
-134.2457247928275
 10
68.06130640659579
 20
-134.2457247928275
 10
68.06130640659579
 20
-135.273741285626
 10
68.06130640659579
 20
-135.273741285626
 10
67.70370549522686
 20
-135.2420464071617
 10
67.62550182771169
 20
-135.176589592942
 10
67.32715655868904
 20
-134.791427917691
 10
67.12837454919013
 20
-134.535457323137
 10
67.06050616813071
 20
-134.4700005089172
 10
66.92304685826925
 20
-134.4700005089172
 10
66.80453557357664
 20
-134.4700005089172
 10
66.67362194513716
 20
-134.5420030045589
 10
66.67362194513716
 20
-134.7387179567667
 10
66.67362194513716
 20
-134.9988226659031
 10
66.90409883310036
 20
-135.0070908950677
 10
67.02054306050181
 20
-135.0115695191985
 10
67.02054306050181
 20
-135.0115695191985
 10
67.02054306050181
 20
-135.2358452352883
 10
67.02054306050181
 20
-135.2358452352883
 10
66.8934190370961
 20
-135.2272324965751
 10
66.78145343382548
 20
-135.2165527005709
 10
66.66294214913287
 20
-135.1362819757645
 10
66.50205618997171
 20
-135.0263834297851
 10
66.46829425421626
 20
-134.8400037640331
 10
66.46829425421626
 20
-134.7239040461801
 10
66.46829425421626
 20
-134.4465738596175
 10
66.6522623531286
 20
-134.2391791114055
 10
66.92511391556039
 20
-134.2391791114055
 10
67.15386825578098
 20
-134.2391791114055
 10
67.25308700575617
 20
-134.3556233388069
 10
67.47942977913709
 20
-134.6646484038338
 97
        0
 97
        0
 75
     2
 76
     1
 98
        0
  0
SPLINE
  5
9E
330
98
100
AcDbEntity
  8
_U+30EC_U+30A4_U+30E4_U+30FC 1
370
     0
100
AcDbSpline
210
0.0
220
0.0
230
1.0
 70
    11
 71
     3
 72
    29
 73
    25
 74
     0
 42
0.0000000001
 43
0.0000000001
 12
1.0
 22
0.0
 32
0.0
 13
1.0
 23
0.0
 33
0.0
 40
0.0
 40
0.0
 40
0.0
 40
0.0
 40
1.0
 40
1.0
 40
1.0
 40
2.0
 40
2.0
 40
2.0
 40
3.0
 40
3.0
 40
3.0
 40
4.0
 40
4.0
 40
4.0
 40
5.0
 40
5.0
 40
5.0
 40
6.0
 40
6.0
 40
6.0
 40
7.0
 40
7.0
 40
7.0
 40
8.0
 40
8.0
 40
8.0
 40
8.0
 10
67.8835394795569
 20
-133.1829128356279
 30
0.0
 10
68.09300128506008
 20
-133.2910888338647
 30
0.0
 10
68.11194931022897
 20
-133.4643771367728
 30
0.0
 10
68.11194931022897
 20
-133.5808213641743
 30
0.0
 10
68.11194931022897
 20
-133.7417073233354
 30
0.0
 10
68.06544052117809
 20
-133.8833007477792
 30
0.0
 10
67.8835394795569
 20
-133.9783853831721
 30
0.0
 10
67.68889158464027
 20
-134.0820827572781
 30
0.0
 10
67.45186901525508
 20
-134.101030782447
 30
0.0
 10
67.2892605083513
 20
-134.101030782447
 30
0.0
 10
67.14525551706785
 20
-134.101030782447
 30
0.0
 10
66.8934190370961
 20
-134.0841498145693
 30
0.0
 10
66.69463702759718
 20
-133.9783853831721
 30
0.0
 10
66.49172090351597
 20
-133.8705538944837
 30
0.0
 10
66.46829425421626
 20
-133.7096679353226
 30
0.0
 10
66.46829425421626
 20
-133.5808213641743
 30
0.0
 10
66.46829425421626
 20
-133.4220024623042
 30
0.0
 10
66.51273598597598
 20
-133.2783419805693
 30
0.0
 10
66.69463702759718
 20
-133.1829128356279
 30
0.0
 10
66.88721786522264
 20
-133.0836940856527
 30
0.0
 10
67.1156276958947
 20
-133.060267436353
 30
0.0
 10
67.2892605083513
 20
-133.060267436353
 30
0.0
 10
67.46048175396821
 20
-133.060267436353
 30
0.0
 10
67.69095864193143
 20
-133.0816270283615
 30
0.0
 10
67.8835394795569
 20
-133.1829128356279
 30
0.0
  0
SPLINE
  5
9F
330
98
100
AcDbEntity
  8
_U+30EC_U+30A4_U+30E4_U+30FC 1
370
     0
100
AcDbSpline
210
0.0
220
0.0
230
1.0
 70
    11
 71
     3
 72
    17
 73
    13
 74
     0
 42
0.0000000001
 43
0.0000000001
 12
1.0
 22
0.0
 32
0.0
 13
1.0
 23
0.0
 33
0.0
 40
0.0
 40
0.0
 40
0.0
 40
0.0
 40
1.0
 40
1.0
 40
1.0
 40
2.0
 40
2.0
 40
2.0
 40
3.0
 40
3.0
 40
3.0
 40
4.0
 40
4.0
 40
4.0
 40
4.0
 10
66.66087509184173
 20
-133.5808213641743
 30
0.0
 10
66.66087509184173
 20
-133.8302462773063
 30
0.0
 10
66.9444064502778
 20
-133.8770995759057
 30
0.0
 10
67.2892605083513
 20
-133.8770995759057
 30
0.0
 10
67.60862085983396
 20
-133.8770995759057
 30
0.0
 10
67.91730141531234
 20
-133.8409260733106
 30
0.0
 10
67.91730141531234
 20
-133.5808213641743
 30
0.0
 10
67.91730141531234
 20
-133.3331189987848
 30
0.0
 10
67.63618162371596
 20
-133.2845431524428
 30
0.0
 10
67.2892605083513
 20
-133.2845431524428
 30
0.0
 10
66.96955564732012
 20
-133.2845431524428
 30
0.0
 10
66.66087509184173
 20
-133.322783712329
 30
0.0
 10
66.66087509184173
 20
-133.5808213641743
 30
0.0
  0
HATCH
  5
A0
330
98
100
AcDbEntity
  8
_U+30EC_U+30A4_U+30E4_U+30FC 1
 62
     7
420
 16777215
100
AcDbHatch
 10
0.0
 20
0.0
 30
0.0
210
0.0
220
0.0
230
1.0
  2
SOLID
 70
     1
 71
     0
 91
        2
 92
        1
 93
        1
 72
     4
 94
        3
 73
     0
 74
     1
 95
       29
 96
       25
 40
0.0
 40
0.0
 40
0.0
 40
0.0
 40
1.0
 40
1.0
 40
1.0
 40
2.0
 40
2.0
 40
2.0
 40
3.0
 40
3.0
 40
3.0
 40
4.0
 40
4.0
 40
4.0
 40
5.0
 40
5.0
 40
5.0
 40
6.0
 40
6.0
 40
6.0
 40
7.0
 40
7.0
 40
7.0
 40
8.0
 40
8.0
 40
8.0
 40
8.0
 10
67.8835394795569
 20
-133.1829128356279
 10
68.09300128506008
 20
-133.2910888338647
 10
68.11194931022897
 20
-133.4643771367728
 10
68.11194931022897
 20
-133.5808213641743
 10
68.11194931022897
 20
-133.7417073233354
 10
68.06544052117809
 20
-133.8833007477792
 10
67.8835394795569
 20
-133.9783853831721
 10
67.68889158464027
 20
-134.0820827572781
 10
67.45186901525508
 20
-134.101030782447
 10
67.2892605083513
 20
-134.101030782447
 10
67.14525551706785
 20
-134.101030782447
 10
66.8934190370961
 20
-134.0841498145693
 10
66.69463702759718
 20
-133.9783853831721
 10
66.49172090351597
 20
-133.8705538944837
 10
66.46829425421626
 20
-133.7096679353226
 10
66.46829425421626
 20
-133.5808213641743
 10
66.46829425421626
 20
-133.4220024623042
 10
66.51273598597598
 20
-133.2783419805693
 10
66.69463702759718
 20
-133.1829128356279
 10
66.88721786522264
 20
-133.0836940856527
 10
67.1156276958947
 20
-133.060267436353
 10
67.2892605083513
 20
-133.060267436353
 10
67.46048175396821
 20
-133.060267436353
 10
67.69095864193143
 20
-133.0816270283615
 10
67.8835394795569
 20
-133.1829128356279
 97
        0
 97
        0
 92
        1
 93
        1
 72
     4
 94
        3
 73
     0
 74
     1
 95
       17
 96
       13
 40
0.0
 40
0.0
 40
0.0
 40
0.0
 40
1.0
 40
1.0
 40
1.0
 40
2.0
 40
2.0
 40
2.0
 40
3.0
 40
3.0
 40
3.0
 40
4.0
 40
4.0
 40
4.0
 40
4.0
 10
66.66087509184173
 20
-133.5808213641743
 10
66.66087509184173
 20
-133.8302462773063
 10
66.9444064502778
 20
-133.8770995759057
 10
67.2892605083513
 20
-133.8770995759057
 10
67.60862085983396
 20
-133.8770995759057
 10
67.91730141531234
 20
-133.8409260733106
 10
67.91730141531234
 20
-133.5808213641743
 10
67.91730141531234
 20
-133.3331189987848
 10
67.63618162371596
 20
-133.2845431524428
 10
67.2892605083513
 20
-133.2845431524428
 10
66.96955564732012
 20
-133.2845431524428
 10
66.66087509184173
 20
-133.322783712329
 10
66.66087509184173
 20
-133.5808213641743
 97
        0
 97
        0
 75
     2
 76
     1
 98
        0
  0
ENDBLK
  5
9B
330
98
100
AcDbEntity
  8
0
100
AcDbBlockEnd
  0
BLOCK
  5
A3
330
A1
100
AcDbEntity
  8
0
100
AcDbBlockBegin
  2
block 7
 70
     0
 10
0.0
 20
0.0
 30
0.0
  3
block 7
  1

  0
SPLINE
  5
A5
330
A1
100
AcDbEntity
  8
_U+30EC_U+30A4_U+30E4_U+30FC 1
370
     0
100
AcDbSpline
210
0.0
220
0.0
230
1.0
 70
    11
 71
     3
 72
    26
 73
    22
 74
     0
 42
0.0000000001
 43
0.0000000001
 12
1.0
 22
0.0
 32
0.0
 13
1.0
 23
0.0
 33
0.0
 40
0.0
 40
0.0
 40
0.0
 40
0.0
 40
1.0
 40
1.0
 40
1.0
 40
2.0
 40
2.0
 40
2.0
 40
3.0
 40
3.0
 40
3.0
 40
4.0
 40
4.0
 40
4.0
 40
5.0
 40
5.0
 40
5.0
 40
6.0
 40
6.0
 40
6.0
 40
7.0
 40
7.0
 40
7.0
 40
7.0
 10
68.06130640659579
 20
-115.8065402271248
 30
0.0
 10
68.06130640659579
 20
-115.8065402271248
 30
0.0
 10
66.95715330357322
 20
-115.8065402271248
 30
0.0
 10
66.95715330357322
 20
-115.8065402271248
 30
0.0
 10
66.95715330357322
 20
-115.8065402271248
 30
0.0
 10
66.95715330357322
 20
-116.1365803746117
 30
0.0
 10
66.95715330357322
 20
-116.1365803746117
 30
0.0
 10
66.95715330357322
 20
-116.1365803746117
 30
0.0
 10
66.80901419770747
 20
-116.1365803746117
 30
0.0
 10
66.80901419770747
 20
-116.1365803746117
 30
0.0
 10
66.7942002871209
 20
-115.8044731698336
 30
0.0
 10
66.63124727066858
 20
-115.7579643807827
 30
0.0
 10
66.51687010055828
 20
-115.7283365596096
 30
0.0
 10
66.51687010055828
 20
-115.7283365596096
 30
0.0
 10
66.51687010055828
 20
-115.582264511035
 30
0.0
 10
66.51687010055828
 20
-115.582264511035
 30
0.0
 10
66.51687010055828
 20
-115.582264511035
 30
0.0
 10
68.06130640659579
 20
-115.582264511035
 30
0.0
 10
68.06130640659579
 20
-115.582264511035
 30
0.0
 10
68.06130640659579
 20
-115.582264511035
 30
0.0
 10
68.06130640659579
 20
-115.8065402271248
 30
0.0
 10
68.06130640659579
 20
-115.8065402271248
 30
0.0
  0
HATCH
  5
A6
330
A1
100
AcDbEntity
  8
_U+30EC_U+30A4_U+30E4_U+30FC 1
 62
     7
420
 16777215
100
AcDbHatch
 10
0.0
 20
0.0
 30
0.0
210
0.0
220
0.0
230
1.0
  2
SOLID
 70
     1
 71
     0
 91
        1
 92
        1
 93
        1
 72
     4
 94
        3
 73
     0
 74
     1
 95
       26
 96
       22
 40
0.0
 40
0.0
 40
0.0
 40
0.0
 40
1.0
 40
1.0
 40
1.0
 40
2.0
 40
2.0
 40
2.0
 40
3.0
 40
3.0
 40
3.0
 40
4.0
 40
4.0
 40
4.0
 40
5.0
 40
5.0
 40
5.0
 40
6.0
 40
6.0
 40
6.0
 40
7.0
 40
7.0
 40
7.0
 40
7.0
 10
68.06130640659579
 20
-115.8065402271248
 10
68.06130640659579
 20
-115.8065402271248
 10
66.95715330357322
 20
-115.8065402271248
 10
66.95715330357322
 20
-115.8065402271248
 10
66.95715330357322
 20
-115.8065402271248
 10
66.95715330357322
 20
-116.1365803746117
 10
66.95715330357322
 20
-116.1365803746117
 10
66.95715330357322
 20
-116.1365803746117
 10
66.80901419770747
 20
-116.1365803746117
 10
66.80901419770747
 20
-116.1365803746117
 10
66.7942002871209
 20
-115.8044731698336
 10
66.63124727066858
 20
-115.7579643807827
 10
66.51687010055828
 20
-115.7283365596096
 10
66.51687010055828
 20
-115.7283365596096
 10
66.51687010055828
 20
-115.582264511035
 10
66.51687010055828
 20
-115.582264511035
 10
66.51687010055828
 20
-115.582264511035
 10
68.06130640659579
 20
-115.582264511035
 10
68.06130640659579
 20
-115.582264511035
 10
68.06130640659579
 20
-115.582264511035
 10
68.06130640659579
 20
-115.8065402271248
 10
68.06130640659579
 20
-115.8065402271248
 97
        0
 97
        0
 75
     2
 76
     1
 98
        0
  0
SPLINE
  5
A7
330
A1
100
AcDbEntity
  8
_U+30EC_U+30A4_U+30E4_U+30FC 1
370
     0
100
AcDbSpline
210
0.0
220
0.0
230
1.0
 70
    11
 71
     3
 72
    29
 73
    25
 74
     0
 42
0.0000000001
 43
0.0000000001
 12
1.0
 22
0.0
 32
0.0
 13
1.0
 23
0.0
 33
0.0
 40
0.0
 40
0.0
 40
0.0
 40
0.0
 40
1.0
 40
1.0
 40
1.0
 40
2.0
 40
2.0
 40
2.0
 40
3.0
 40
3.0
 40
3.0
 40
4.0
 40
4.0
 40
4.0
 40
5.0
 40
5.0
 40
5.0
 40
6.0
 40
6.0
 40
6.0
 40
7.0
 40
7.0
 40
7.0
 40
8.0
 40
8.0
 40
8.0
 40
8.0
 10
68.11194931022897
 20
-114.5811197630214
 30
0.0
 10
68.11194931022897
 20
-114.8477701535797
 30
0.0
 10
67.9744900003675
 20
-115.1013291812941
 30
0.0
 10
67.62550182771169
 20
-115.1013291812941
 30
0.0
 10
67.36953123315762
 20
-115.1013291812941
 30
0.0
 10
67.27444659776472
 20
-114.9597357568503
 30
0.0
 10
67.21312389812728
 20
-114.8539713254532
 30
0.0
 10
67.15386825578098
 20
-114.9786837820192
 30
0.0
 10
67.03949108567069
 20
-115.0548203922432
 30
0.0
 10
66.87860512650951
 20
-115.0548203922432
 30
0.0
 10
66.60368650678659
 20
-115.0548203922432
 30
0.0
 10
66.46829425421626
 20
-114.8560383827443
 30
0.0
 10
66.46829425421626
 20
-114.5811197630214
 30
0.0
 10
66.46829425421626
 20
-114.2975884045853
 30
0.0
 10
66.6122992454997
 20
-114.107074624251
 30
0.0
 10
66.87860512650951
 20
-114.107074624251
 30
0.0
 10
67.03949108567069
 20
-114.107074624251
 30
0.0
 10
67.15386825578098
 20
-114.1856228013147
 30
0.0
 10
67.21312389812728
 20
-114.3103352578808
 30
0.0
 10
67.26376680176045
 20
-114.2214517943613
 30
0.0
 10
67.35885143715335
 20
-114.0626328924913
 30
0.0
 10
67.62136771312939
 20
-114.0626328924913
 30
0.0
 10
67.99584959237605
 20
-114.0626328924913
 30
0.0
 10
68.11194931022897
 20
-114.3420301363451
 30
0.0
 10
68.11194931022897
 20
-114.5811197630214
 30
0.0
  0
SPLINE
  5
A8
330
A1
100
AcDbEntity
  8
_U+30EC_U+30A4_U+30E4_U+30FC 1
370
     0
100
AcDbSpline
210
0.0
220
0.0
230
1.0
 70
    11
 71
     3
 72
    17
 73
    13
 74
     0
 42
0.0000000001
 43
0.0000000001
 12
1.0
 22
0.0
 32
0.0
 13
1.0
 23
0.0
 33
0.0
 40
0.0
 40
0.0
 40
0.0
 40
0.0
 40
1.0
 40
1.0
 40
1.0
 40
2.0
 40
2.0
 40
2.0
 40
3.0
 40
3.0
 40
3.0
 40
4.0
 40
4.0
 40
4.0
 40
4.0
 10
66.66087509184173
 20
-114.5811197630214
 30
0.0
 10
66.66087509184173
 20
-114.7461398367649
 30
0.0
 10
66.75595972723463
 20
-114.8305446761535
 30
0.0
 10
66.89135197980494
 20
-114.8305446761535
 30
0.0
 10
67.01399737907984
 20
-114.8305446761535
 30
0.0
 10
67.13250866377243
 20
-114.7588866900603
 30
0.0
 10
67.13250866377243
 20
-114.5811197630214
 30
0.0
 10
67.13250866377243
 20
-114.4033528359825
 30
0.0
 10
67.01399737907984
 20
-114.3313503403408
 30
0.0
 10
66.89135197980494
 20
-114.3313503403408
 30
0.0
 10
66.75595972723463
 20
-114.3313503403408
 30
0.0
 10
66.66087509184173
 20
-114.4181667465691
 30
0.0
 10
66.66087509184173
 20
-114.5811197630214
 30
0.0
  0
SPLINE
  5
A9
330
A1
100
AcDbEntity
  8
_U+30EC_U+30A4_U+30E4_U+30FC 1
370
     0
100
AcDbSpline
210
0.0
220
0.0
230
1.0
 70
    11
 71
     3
 72
    17
 73
    13
 74
     0
 42
0.0000000001
 43
0.0000000001
 12
1.0
 22
0.0
 32
0.0
 13
1.0
 23
0.0
 33
0.0
 40
0.0
 40
0.0
 40
0.0
 40
0.0
 40
1.0
 40
1.0
 40
1.0
 40
2.0
 40
2.0
 40
2.0
 40
3.0
 40
3.0
 40
3.0
 40
4.0
 40
4.0
 40
4.0
 40
4.0
 10
67.3209553868156
 20
-114.5811197630214
 30
0.0
 10
67.3209553868156
 20
-114.7247802447563
 30
0.0
 10
67.40777179304389
 20
-114.8773979747529
 30
0.0
 10
67.6106879171251
 20
-114.8773979747529
 30
0.0
 10
67.816015608046
 20
-114.8773979747529
 30
0.0
 10
67.91730141531234
 20
-114.7502739513472
 30
0.0
 10
67.91730141531234
 20
-114.5811197630214
 30
0.0
 10
67.91730141531234
 20
-114.3950846068179
 30
0.0
 10
67.79465601603745
 20
-114.2848415512899
 30
0.0
 10
67.61688908899856
 20
-114.2848415512899
 30
0.0
 10
67.39502493974847
 20
-114.2848415512899
 30
0.0
 10
67.3209553868156
 20
-114.4477945677422
 30
0.0
 10
67.3209553868156
 20
-114.5811197630214
 30
0.0
  0
HATCH
  5
AA
330
A1
100
AcDbEntity
  8
_U+30EC_U+30A4_U+30E4_U+30FC 1
 62
     7
420
 16777215
100
AcDbHatch
 10
0.0
 20
0.0
 30
0.0
210
0.0
220
0.0
230
1.0
  2
SOLID
 70
     1
 71
     0
 91
        3
 92
        1
 93
        1
 72
     4
 94
        3
 73
     0
 74
     1
 95
       29
 96
       25
 40
0.0
 40
0.0
 40
0.0
 40
0.0
 40
1.0
 40
1.0
 40
1.0
 40
2.0
 40
2.0
 40
2.0
 40
3.0
 40
3.0
 40
3.0
 40
4.0
 40
4.0
 40
4.0
 40
5.0
 40
5.0
 40
5.0
 40
6.0
 40
6.0
 40
6.0
 40
7.0
 40
7.0
 40
7.0
 40
8.0
 40
8.0
 40
8.0
 40
8.0
 10
68.11194931022897
 20
-114.5811197630214
 10
68.11194931022897
 20
-114.8477701535797
 10
67.9744900003675
 20
-115.1013291812941
 10
67.62550182771169
 20
-115.1013291812941
 10
67.36953123315762
 20
-115.1013291812941
 10
67.27444659776472
 20
-114.9597357568503
 10
67.21312389812728
 20
-114.8539713254532
 10
67.15386825578098
 20
-114.9786837820192
 10
67.03949108567069
 20
-115.0548203922432
 10
66.87860512650951
 20
-115.0548203922432
 10
66.60368650678659
 20
-115.0548203922432
 10
66.46829425421626
 20
-114.8560383827443
 10
66.46829425421626
 20
-114.5811197630214
 10
66.46829425421626
 20
-114.2975884045853
 10
66.6122992454997
 20
-114.107074624251
 10
66.87860512650951
 20
-114.107074624251
 10
67.03949108567069
 20
-114.107074624251
 10
67.15386825578098
 20
-114.1856228013147
 10
67.21312389812728
 20
-114.3103352578808
 10
67.26376680176045
 20
-114.2214517943613
 10
67.35885143715335
 20
-114.0626328924913
 10
67.62136771312939
 20
-114.0626328924913
 10
67.99584959237605
 20
-114.0626328924913
 10
68.11194931022897
 20
-114.3420301363451
 10
68.11194931022897
 20
-114.5811197630214
 97
        0
 97
        0
 92
        1
 93
        1
 72
     4
 94
        3
 73
     0
 74
     1
 95
       17
 96
       13
 40
0.0
 40
0.0
 40
0.0
 40
0.0
 40
1.0
 40
1.0
 40
1.0
 40
2.0
 40
2.0
 40
2.0
 40
3.0
 40
3.0
 40
3.0
 40
4.0
 40
4.0
 40
4.0
 40
4.0
 10
66.66087509184173
 20
-114.5811197630214
 10
66.66087509184173
 20
-114.7461398367649
 10
66.75595972723463
 20
-114.8305446761535
 10
66.89135197980494
 20
-114.8305446761535
 10
67.01399737907984
 20
-114.8305446761535
 10
67.13250866377243
 20
-114.7588866900603
 10
67.13250866377243
 20
-114.5811197630214
 10
67.13250866377243
 20
-114.4033528359825
 10
67.01399737907984
 20
-114.3313503403408
 10
66.89135197980494
 20
-114.3313503403408
 10
66.75595972723463
 20
-114.3313503403408
 10
66.66087509184173
 20
-114.4181667465691
 10
66.66087509184173
 20
-114.5811197630214
 97
        0
 97
        0
 92
        1
 93
        1
 72
     4
 94
        3
 73
     0
 74
     1
 95
       17
 96
       13
 40
0.0
 40
0.0
 40
0.0
 40
0.0
 40
1.0
 40
1.0
 40
1.0
 40
2.0
 40
2.0
 40
2.0
 40
3.0
 40
3.0
 40
3.0
 40
4.0
 40
4.0
 40
4.0
 40
4.0
 10
67.3209553868156
 20
-114.5811197630214
 10
67.3209553868156
 20
-114.7247802447563
 10
67.40777179304389
 20
-114.8773979747529
 10
67.6106879171251
 20
-114.8773979747529
 10
67.816015608046
 20
-114.8773979747529
 10
67.91730141531234
 20
-114.7502739513472
 10
67.91730141531234
 20
-114.5811197630214
 10
67.91730141531234
 20
-114.3950846068179
 10
67.79465601603745
 20
-114.2848415512899
 10
67.61688908899856
 20
-114.2848415512899
 10
67.39502493974847
 20
-114.2848415512899
 10
67.3209553868156
 20
-114.4477945677422
 10
67.3209553868156
 20
-114.5811197630214
 97
        0
 97
        0
 75
     2
 76
     1
 98
        0
  0
ENDBLK
  5
A4
330
A1
100
AcDbEntity
  8
0
100
AcDbBlockEnd
  0
ENDSEC
  0
SECTION
  2
ENTITIES
  0
INSERT
  5
42
330
1F
100
AcDbEntity
  8
_U+30EC_U+30A4_U+30E4_U+30FC 1
100
AcDbBlockReference
  2
block 2
 10
0.0
 20
0.0
 30
0.0
  0
ENDSEC
  0
SECTION
  2
OBJECTS
  0
DICTIONARY
  5
C
330
0
100
AcDbDictionary
281
     1
  3
ACAD_GROUP
350
D
  3
ACAD_LAYOUT
350
1A
  3
ACAD_MATERIAL
350
3B
  3
ACAD_MLEADERSTYLE
350
AD
  3
ACAD_MLINESTYLE
350
17
  3
ACAD_PLOTSETTINGS
350
19
  3
ACAD_PLOTSTYLENAME
350
E
  3
ACAD_TABLESTYLE
350
AC
  3
ACAD_VISUALSTYLE
350
2A
  0
SUN
  5
3F
330
29
100
AcDbSun
 90
        1
290
     0
 63
     7
421
 16777215
 40
1.0
291
     1
 91
  2455826
 92
 54000000
292
     0
 70
     2
 71
   256
280
     1
  0
DICTIONARY
  5
D
102
{ACAD_REACTORS
330
C
102
}
330
C
100
AcDbDictionary
281
     1
  0
DICTIONARY
  5
1A
102
{ACAD_REACTORS
330
C
102
}
330
C
100
AcDbDictionary
281
     1
  3
Layout1
350
1E
  3
Layout2
350
26
  3
Model
350
22
  0
DICTIONARY
  5
3B
102
{ACAD_REACTORS
330
C
102
}
330
C
100
AcDbDictionary
281
     1
  3
ByBlock
350
3D
  3
ByLayer
350
3C
  3
Global
350
3E
  0
DICTIONARY
  5
AD
102
{ACAD_REACTORS
330
C
102
}
330
C
100
AcDbDictionary
281
     1
  0
DICTIONARY
  5
17
102
{ACAD_REACTORS
330
C
102
}
330
C
100
AcDbDictionary
281
     1
  3
Standard
350
18
  0
DICTIONARY
  5
19
102
{ACAD_REACTORS
330
C
102
}
330
C
100
AcDbDictionary
281
     1
  0
ACDBDICTIONARYWDFLT
  5
E
102
{ACAD_REACTORS
330
C
102
}
330
C
100
AcDbDictionary
281
     1
  3
Normal
350
F
100
AcDbDictionaryWithDefault
340
F
  0
DICTIONARY
  5
AC
102
{ACAD_REACTORS
330
C
102
}
330
C
100
AcDbDictionary
281
     1
  0
DICTIONARY
  5
2A
102
{ACAD_REACTORS
330
C
102
}
330
C
100
AcDbDictionary
281
     1
  3
2dWireframe
350
2F
  3
3D Hidden
350
31
  3
3dWireframe
350
30
  3
Basic
350
32
  3
Brighten
350
36
  3
ColorChange
350
3A
  3
Conceptual
350
34
  3
Dim
350
35
  3
Facepattern
350
39
  3
Flat
350
2B
  3
FlatWithEdges
350
2C
  3
Gouraud
350
2D
  3
GouraudWithEdges
350
2E
  3
Linepattern
350
38
  3
Realistic
350
33
  3
Thicken
350
37
  0
LAYOUT
  5
1E
102
{ACAD_REACTORS
330
1A
102
}
330
1A
100
AcDbPlotSettings
  1

  2
none_device
  4

  6

 40
0.0
 41
0.0
 42
0.0
 43
0.0
 44
0.0
 45
0.0
 46
0.0
 47
0.0
 48
0.0
 49
0.0
140
0.0
141
0.0
142
1.0
143
1.0
 70
   688
 72
     0
 73
     0
 74
     5
  7

 75
    16
 76
     0
 77
     2
 78
   300
147
1.0
148
0.0
149
0.0
100
AcDbLayout
  1
Layout1
 70
     1
 71
     1
 10
0.0
 20
0.0
 11
12.0
 21
9.0
 12
0.0
 22
0.0
 32
0.0
 14
1.000000000000000E+20
 24
1.000000000000000E+20
 34
1.000000000000000E+20
 15
-1.000000000000000E+20
 25
-1.000000000000000E+20
 35
-1.000000000000000E+20
146
0.0
 13
0.0
 23
0.0
 33
0.0
 16
1.0
 26
0.0
 36
0.0
 17
0.0
 27
1.0
 37
0.0
 76
     0
330
1B
  0
LAYOUT
  5
26
102
{ACAD_REACTORS
330
1A
102
}
330
1A
100
AcDbPlotSettings
  1

  2
none_device
  4

  6

 40
0.0
 41
0.0
 42
0.0
 43
0.0
 44
0.0
 45
0.0
 46
0.0
 47
0.0
 48
0.0
 49
0.0
140
0.0
141
0.0
142
1.0
143
1.0
 70
   688
 72
     0
 73
     0
 74
     5
  7

 75
    16
 76
     0
 77
     2
 78
   300
147
1.0
148
0.0
149
0.0
100
AcDbLayout
  1
Layout2
 70
     1
 71
     2
 10
0.0
 20
0.0
 11
0.0
 21
0.0
 12
0.0
 22
0.0
 32
0.0
 14
0.0
 24
0.0
 34
0.0
 15
0.0
 25
0.0
 35
0.0
146
0.0
 13
0.0
 23
0.0
 33
0.0
 16
1.0
 26
0.0
 36
0.0
 17
0.0
 27
1.0
 37
0.0
 76
     0
330
23
  0
LAYOUT
  5
22
102
{ACAD_REACTORS
330
1A
102
}
330
1A
100
AcDbPlotSettings
  1

  2
none_device
  4

  6

 40
0.0
 41
0.0
 42
0.0
 43
0.0
 44
0.0
 45
0.0
 46
0.0
 47
0.0
 48
0.0
 49
0.0
140
0.0
141
0.0
142
1.0
143
1.0
 70
  1712
 72
     0
 73
     0
 74
     0
  7

 75
     0
 76
     0
 77
     2
 78
   300
147
1.0
148
0.0
149
0.0
100
AcDbLayout
  1
Model
 70
     1
 71
     0
 10
0.0
 20
0.0
 11
12.0
 21
9.0
 12
0.0
 22
0.0
 32
0.0
 14
1.000000000000000E+20
 24
1.000000000000000E+20
 34
1.000000000000000E+20
 15
-1.000000000000000E+20
 25
-1.000000000000000E+20
 35
-1.000000000000000E+20
146
0.0
 13
0.0
 23
0.0
 33
0.0
 16
1.0
 26
0.0
 36
0.0
 17
0.0
 27
1.0
 37
0.0
 76
     0
330
1F
331
29
  0
MATERIAL
  5
3D
102
{ACAD_REACTORS
330
3B
102
}
330
3B
100
AcDbMaterial
  1
ByBlock
 72
     1
 94
      127
  0
MATERIAL
  5
3C
102
{ACAD_REACTORS
330
3B
102
}
330
3B
100
AcDbMaterial
  1
ByLayer
 72
     1
 94
      127
  0
MATERIAL
  5
3E
102
{ACAD_REACTORS
330
3B
102
}
330
3B
100
AcDbMaterial
  1
Global
 72
     1
 94
      127
  0
MLINESTYLE
  5
18
102
{ACAD_REACTORS
330
17
102
}
330
17
100
AcDbMlineStyle
  2
Standard
 70
     0
  3

 62
   256
 51
90.0
 52
90.0
 71
     2
 49
0.5
 62
   256
  6
BYLAYER
 49
-0.5
 62
   256
  6
BYLAYER
  0
ACDBPLACEHOLDER
  5
F
102
{ACAD_REACTORS
330
E
102
}
330
E
  0
VISUALSTYLE
  5
2F
102
{ACAD_REACTORS
330
2A
102
}
330
2A
100
AcDbVisualStyle
  2
2dWireframe
 70
     4
177
     2
291
     0
 71
     0
176
     1
 72
     2
176
     1
 73
     0
176
     1
 90
        0
176
     1
 40
-0.6
176
     1
 41
-30.0
176
     1
 62
     5
 63
     7
421
 16777215
176
     1
 74
     1
176
     1
 91
        4
176
     1
 64
     7
176
     1
 65
   257
176
     1
 75
     1
176
     1
175
     1
176
     1
 42
1.0
176
     1
 92
        0
176
     1
 66
   257
176
     1
 43
1.0
176
     1
 76
     1
176
     1
 77
     6
176
     1
 78
     2
176
     1
 67
     7
176
     1
 79
     5
176
     1
170
     0
176
     1
171
     0
176
     1
290
     0
176
     1
 93
        1
176
     1
 44
0.0
176
     1
173
     0
176
     1
  0
VISUALSTYLE
  5
31
102
{ACAD_REACTORS
330
2A
102
}
330
2A
100
AcDbVisualStyle
  2
3D Hidden
 70
     6
177
     2
291
     0
 71
     1
176
     1
 72
     2
176
     1
 73
     2
176
     1
 90
        0
176
     1
 40
-0.6
176
     1
 41
-30.0
176
     1
 62
     5
 63
     7
421
 16777215
176
     1
 74
     2
176
     1
 91
        2
176
     1
 64
     7
176
     1
 65
   257
176
     1
 75
     2
176
     1
175
     1
176
     1
 42
40.0
176
     1
 92
        0
176
     1
 66
   257
176
     1
 43
1.0
176
     1
 76
     1
176
     1
 77
     6
176
     1
 78
     2
176
     1
 67
     7
176
     1
 79
     3
176
     1
170
     0
176
     1
171
     0
176
     1
290
     0
176
     1
 93
        1
176
     1
 44
0.0
176
     1
173
     0
176
     1
  0
VISUALSTYLE
  5
30
102
{ACAD_REACTORS
330
2A
102
}
330
2A
100
AcDbVisualStyle
  2
3dWireframe
 70
     5
177
     2
291
     0
 71
     0
176
     1
 72
     2
176
     1
 73
     0
176
     1
 90
        0
176
     1
 40
-0.6
176
     1
 41
-30.0
176
     1
 62
     5
 63
     7
421
 16777215
176
     1
 74
     1
176
     1
 91
        4
176
     1
 64
     7
176
     1
 65
   257
176
     1
 75
     1
176
     1
175
     1
176
     1
 42
1.0
176
     1
 92
        0
176
     1
 66
   257
176
     1
 43
1.0
176
     1
 76
     1
176
     1
 77
     6
176
     1
 78
     2
176
     1
 67
     7
176
     1
 79
     5
176
     1
170
     0
176
     1
171
     0
176
     1
290
     0
176
     1
 93
        1
176
     1
 44
0.0
176
     1
173
     0
176
     1
  0
VISUALSTYLE
  5
32
102
{ACAD_REACTORS
330
2A
102
}
330
2A
100
AcDbVisualStyle
  2
Basic
 70
     7
177
     2
291
     1
 71
     1
176
     1
 72
     0
176
     1
 73
     1
176
     1
 90
        0
176
     1
 40
-0.6
176
     1
 41
-30.0
176
     1
 62
     5
 63
     7
421
 16777215
176
     1
 74
     0
176
     1
 91
        4
176
     1
 64
     7
176
     1
 65
   257
176
     1
 75
     1
176
     1
175
     1
176
     1
 42
1.0
176
     1
 92
        8
176
     1
 66
     7
176
     1
 43
1.0
176
     1
 76
     1
176
     1
 77
     6
176
     1
 78
     2
176
     1
 67
     7
176
     1
 79
     5
176
     1
170
     0
176
     1
171
     0
176
     1
290
     0
176
     1
 93
        1
176
     1
 44
0.0
176
     1
173
     0
176
     1
  0
VISUALSTYLE
  5
36
102
{ACAD_REACTORS
330
2A
102
}
330
2A
100
AcDbVisualStyle
  2
Brighten
 70
    12
177
     2
291
     1
 71
     2
176
     1
 72
     2
176
     1
 73
     0
176
     1
 90
        0
176
     1
 40
-0.6
176
     1
 41
-30.0
176
     1
 62
     5
 63
     7
421
 16777215
176
     1
 74
     1
176
     1
 91
        4
176
     1
 64
     7
176
     1
 65
   257
176
     1
 75
     1
176
     1
175
     1
176
     1
 42
1.0
176
     1
 92
        8
176
     1
 66
     7
176
     1
 43
1.0
176
     1
 76
     1
176
     1
 77
     6
176
     1
 78
     2
176
     1
 67
     7
176
     1
 79
     5
176
     1
170
     0
176
     1
171
     0
176
     1
290
     0
176
     1
 93
        1
176
     1
 44
50.0
176
     1
173
     0
176
     1
  0
VISUALSTYLE
  5
3A
102
{ACAD_REACTORS
330
2A
102
}
330
2A
100
AcDbVisualStyle
  2
ColorChange
 70
    16
177
     2
291
     1
 71
     2
176
     1
 72
     2
176
     1
 73
     3
176
     1
 90
        0
176
     1
 40
-0.6
176
     1
 41
-30.0
176
     1
 62
     5
 63
     8
421
  8421504
176
     1
 74
     1
176
     1
 91
        4
176
     1
 64
     7
176
     1
 65
   257
176
     1
 75
     1
176
     1
175
     1
176
     1
 42
1.0
176
     1
 92
        8
176
     1
 66
     8
424
  8421504
176
     1
 43
1.0
176
     1
 76
     1
176
     1
 77
     6
176
     1
 78
     2
176
     1
 67
     7
176
     1
 79
     5
176
     1
170
     0
176
     1
171
     0
176
     1
290
     0
176
     1
 93
        1
176
     1
 44
0.0
176
     1
173
     0
176
     1
  0
VISUALSTYLE
  5
34
102
{ACAD_REACTORS
330
2A
102
}
330
2A
100
AcDbVisualStyle
  2
Conceptual
 70
     9
177
     2
291
     0
 71
     3
176
     1
 72
     2
176
     1
 73
     0
176
     1
 90
        0
176
     1
 40
-0.6
176
     1
 41
-30.0
176
     1
 62
     5
 63
     7
421
 16777215
176
     1
 74
     2
176
     1
 91
        2
176
     1
 64
     7
176
     1
 65
   257
176
     1
 75
     1
176
     1
175
     1
176
     1
 42
40.0
176
     1
 92
        8
176
     1
 66
     7
176
     1
 43
1.0
176
     1
 76
     1
176
     1
 77
     6
176
     1
 78
     2
176
     1
 67
     7
176
     1
 79
     3
176
     1
170
     0
176
     1
171
     0
176
     1
290
     0
176
     1
 93
        1
176
     1
 44
0.0
176
     1
173
     0
176
     1
  0
VISUALSTYLE
  5
35
102
{ACAD_REACTORS
330
2A
102
}
330
2A
100
AcDbVisualStyle
  2
Dim
 70
    11
177
     2
291
     1
 71
     2
176
     1
 72
     2
176
     1
 73
     0
176
     1
 90
        0
176
     1
 40
-0.6
176
     1
 41
-30.0
176
     1
 62
     5
 63
     7
421
 16777215
176
     1
 74
     1
176
     1
 91
        4
176
     1
 64
     7
176
     1
 65
   257
176
     1
 75
     1
176
     1
175
     1
176
     1
 42
1.0
176
     1
 92
        8
176
     1
 66
     7
176
     1
 43
1.0
176
     1
 76
     1
176
     1
 77
     6
176
     1
 78
     2
176
     1
 67
     7
176
     1
 79
     5
176
     1
170
     0
176
     1
171
     0
176
     1
290
     0
176
     1
 93
        1
176
     1
 44
-50.0
176
     1
173
     0
176
     1
  0
VISUALSTYLE
  5
39
102
{ACAD_REACTORS
330
2A
102
}
330
2A
100
AcDbVisualStyle
  2
Facepattern
 70
    15
177
     2
291
     1
 71
     2
176
     1
 72
     2
176
     1
 73
     0
176
     1
 90
        0
176
     1
 40
-0.6
176
     1
 41
-30.0
176
     1
 62
     5
 63
     7
421
 16777215
176
     1
 74
     1
176
     1
 91
        4
176
     1
 64
     7
176
     1
 65
   257
176
     1
 75
     1
176
     1
175
     1
176
     1
 42
1.0
176
     1
 92
        8
176
     1
 66
     7
176
     1
 43
1.0
176
     1
 76
     1
176
     1
 77
     6
176
     1
 78
     2
176
     1
 67
     7
176
     1
 79
     5
176
     1
170
     0
176
     1
171
     0
176
     1
290
     0
176
     1
 93
        1
176
     1
 44
0.0
176
     1
173
     0
176
     1
  0
VISUALSTYLE
  5
2B
102
{ACAD_REACTORS
330
2A
102
}
330
2A
100
AcDbVisualStyle
  2
Flat
 70
     0
177
     2
291
     1
 71
     2
176
     1
 72
     1
176
     1
 73
     1
176
     1
 90
        2
176
     1
 40
-0.6
176
     1
 41
30.0
176
     1
 62
     5
 63
     7
421
 16777215
176
     1
 74
     0
176
     1
 91
        4
176
     1
 64
     7
176
     1
 65
   257
176
     1
 75
     1
176
     1
175
     1
176
     1
 42
1.0
176
     1
 92
        8
176
     1
 66
     7
176
     1
 43
1.0
176
     1
 76
     1
176
     1
 77
     6
176
     1
 78
     2
176
     1
 67
     7
176
     1
 79
     5
176
     1
170
     0
176
     1
171
     0
176
     1
290
     0
176
     1
 93
       13
176
     1
 44
0.0
176
     1
173
     0
176
     1
  0
VISUALSTYLE
  5
2C
102
{ACAD_REACTORS
330
2A
102
}
330
2A
100
AcDbVisualStyle
  2
FlatWithEdges
 70
     1
177
     2
291
     1
 71
     2
176
     1
 72
     1
176
     1
 73
     1
176
     1
 90
        2
176
     1
 40
-0.6
176
     1
 41
30.0
176
     1
 62
     5
 63
     7
421
 16777215
176
     1
 74
     1
176
     1
 91
        4
176
     1
 64
     7
176
     1
 65
   257
176
     1
 75
     1
176
     1
175
     1
176
     1
 42
1.0
176
     1
 92
        0
176
     1
 66
   257
176
     1
 43
1.0
176
     1
 76
     1
176
     1
 77
     6
176
     1
 78
     2
176
     1
 67
     7
176
     1
 79
     5
176
     1
170
     0
176
     1
171
     0
176
     1
290
     0
176
     1
 93
       13
176
     1
 44
0.0
176
     1
173
     0
176
     1
  0
VISUALSTYLE
  5
2D
102
{ACAD_REACTORS
330
2A
102
}
330
2A
100
AcDbVisualStyle
  2
Gouraud
 70
     2
177
     2
291
     1
 71
     2
176
     1
 72
     2
176
     1
 73
     1
176
     1
 90
        2
176
     1
 40
-0.6
176
     1
 41
30.0
176
     1
 62
     5
 63
     7
421
 16777215
176
     1
 74
     0
176
     1
 91
        4
176
     1
 64
     7
176
     1
 65
   257
176
     1
 75
     1
176
     1
175
     1
176
     1
 42
1.0
176
     1
 92
        0
176
     1
 66
     7
176
     1
 43
1.0
176
     1
 76
     1
176
     1
 77
     6
176
     1
 78
     2
176
     1
 67
     7
176
     1
 79
     5
176
     1
170
     0
176
     1
171
     0
176
     1
290
     0
176
     1
 93
       13
176
     1
 44
0.0
176
     1
173
     0
176
     1
  0
VISUALSTYLE
  5
2E
102
{ACAD_REACTORS
330
2A
102
}
330
2A
100
AcDbVisualStyle
  2
GouraudWithEdges
 70
     3
177
     2
291
     1
 71
     2
176
     1
 72
     2
176
     1
 73
     1
176
     1
 90
        2
176
     1
 40
-0.6
176
     1
 41
30.0
176
     1
 62
     5
 63
     7
421
 16777215
176
     1
 74
     1
176
     1
 91
        4
176
     1
 64
     7
176
     1
 65
   257
176
     1
 75
     1
176
     1
175
     1
176
     1
 42
1.0
176
     1
 92
        0
176
     1
 66
   257
176
     1
 43
1.0
176
     1
 76
     1
176
     1
 77
     6
176
     1
 78
     2
176
     1
 67
     7
176
     1
 79
     5
176
     1
170
     0
176
     1
171
     0
176
     1
290
     0
176
     1
 93
       13
176
     1
 44
0.0
176
     1
173
     0
176
     1
  0
VISUALSTYLE
  5
38
102
{ACAD_REACTORS
330
2A
102
}
330
2A
100
AcDbVisualStyle
  2
Linepattern
 70
    14
177
     2
291
     1
 71
     2
176
     1
 72
     2
176
     1
 73
     0
176
     1
 90
        0
176
     1
 40
-0.6
176
     1
 41
-30.0
176
     1
 62
     5
 63
     7
421
 16777215
176
     1
 74
     1
176
     1
 91
        4
176
     1
 64
     7
176
     1
 65
   257
176
     1
 75
     7
176
     1
175
     7
176
     1
 42
1.0
176
     1
 92
        8
176
     1
 66
     7
176
     1
 43
1.0
176
     1
 76
     1
176
     1
 77
     6
176
     1
 78
     2
176
     1
 67
     7
176
     1
 79
     5
176
     1
170
     0
176
     1
171
     0
176
     1
290
     0
176
     1
 93
        1
176
     1
 44
0.0
176
     1
173
     0
176
     1
  0
VISUALSTYLE
  5
33
102
{ACAD_REACTORS
330
2A
102
}
330
2A
100
AcDbVisualStyle
  2
Realistic
 70
     8
177
     2
291
     0
 71
     2
176
     1
 72
     2
176
     1
 73
     0
176
     1
 90
        0
176
     1
 40
-0.6
176
     1
 41
-30.0
176
     1
 62
     5
 63
     7
421
 16777215
176
     1
 74
     1
176
     1
 91
        0
176
     1
 64
     7
176
     1
 65
   257
176
     1
 75
     1
176
     1
175
     1
176
     1
 42
1.0
176
     1
 92
        8
176
     1
 66
     8
424
  7895160
176
     1
 43
1.0
176
     1
 76
     1
176
     1
 77
     6
176
     1
 78
     2
176
     1
 67
     7
176
     1
 79
     5
176
     1
170
     0
176
     1
171
     0
176
     1
290
     0
176
     1
 93
       13
176
     1
 44
0.0
176
     1
173
     0
176
     1
  0
VISUALSTYLE
  5
37
102
{ACAD_REACTORS
330
2A
102
}
330
2A
100
AcDbVisualStyle
  2
Thicken
 70
    13
177
     2
291
     1
 71
     2
176
     1
 72
     2
176
     1
 73
     0
176
     1
 90
        0
176
     1
 40
-0.6
176
     1
 41
-30.0
176
     1
 62
     5
 63
     7
421
 16777215
176
     1
 74
     1
176
     1
 91
        4
176
     1
 64
     7
176
     1
 65
   257
176
     1
 75
     1
176
     1
175
     1
176
     1
 42
1.0
176
     1
 92
       12
176
     1
 66
     7
176
     1
 43
1.0
176
     1
 76
     1
176
     1
 77
     6
176
     1
 78
     2
176
     1
 67
     7
176
     1
 79
     5
176
     1
170
     0
176
     1
171
     0
176
     1
290
     0
176
     1
 93
        1
176
     1
 44
0.0
176
     1
173
     0
176
     1
  0
ENDSEC
  0
EOF
