  0
SECTION
  2
HEADER
  9
$ACADVER
  1
AC1024
  9
$ACADMAINTVER
 70
     6
  9
$DWGCODEPAGE
  3
UNDEFINED
  9
$INSBASE
 10
0.0
 20
0.0
 30
0.0
  9
$EXTMIN
 10
1.000000000000000E+20
 20
1.000000000000000E+20
 30
1.000000000000000E+20
  9
$EXTMAX
 10
-1.000000000000000E+20
 20
-1.000000000000000E+20
 30
-1.000000000000000E+20
  9
$LIMMIN
 10
0.0
 20
0.0
  9
$LIMMAX
 10
12.0
 20
9.0
  9
$ORTHOMODE
 70
     0
  9
$REGENMODE
 70
     1
  9
$FILLMODE
 70
     1
  9
$QTEXTMODE
 70
     0
  9
$MIRRTEXT
 70
     1
  9
$LTSCALE
 40
1.0
  9
$ATTMODE
 70
     1
  9
$TEXTSIZE
 40
0.2
  9
$TRACEWID
 40
0.05
  9
$TEXTSTYLE
  7
Standard
  9
$CLAYER
  8
0
  9
$CELTYPE
  6
ByLayer
  9
$CECOLOR
 62
   256
  9
$CELTSCALE
 40
1.0
  9
$DISPSILH
 70
     0
  9
$DIMSCALE
 40
1.0
  9
$DIMASZ
 40
0.18
  9
$DIMEXO
 40
0.0625
  9
$DIMDLI
 40
0.38
  9
$DIMRND
 40
0.0
  9
$DIMDLE
 40
0.0
  9
$DIMEXE
 40
0.18
  9
$DIMTP
 40
0.0
  9
$DIMTM
 40
0.0
  9
$DIMTXT
 40
0.18
  9
$DIMCEN
 40
0.09
  9
$DIMTSZ
 40
0.0
  9
$DIMTOL
 70
     0
  9
$DIMLIM
 70
     0
  9
$DIMTIH
 70
     1
  9
$DIMTOH
 70
     1
  9
$DIMSE1
 70
     0
  9
$DIMSE2
 70
     0
  9
$DIMTAD
 70
     0
  9
$DIMZIN
 70
     0
  9
$DIMBLK
  1

  9
$DIMASO
 70
     1
  9
$DIMSHO
 70
     1
  9
$DIMPOST
  1

  9
$DIMAPOST
  1

  9
$DIMALT
 70
     0
  9
$DIMALTD
 70
     2
  9
$DIMALTF
 40
25.4
  9
$DIMLFAC
 40
1.0
  9
$DIMTOFL
 70
     0
  9
$DIMTVP
 40
0.0
  9
$DIMTIX
 70
     0
  9
$DIMSOXD
 70
     0
  9
$DIMSAH
 70
     0
  9
$DIMBLK1
  1

  9
$DIMBLK2
  1

  9
$DIMSTYLE
  2
Standard
  9
$DIMCLRD
 70
     0
  9
$DIMCLRE
 70
     0
  9
$DIMCLRT
 70
     0
  9
$DIMTFAC
 40
1.0
  9
$DIMGAP
 40
0.09
  9
$DIMJUST
 70
     0
  9
$DIMSD1
 70
     0
  9
$DIMSD2
 70
     0
  9
$DIMTOLJ
 70
     1
  9
$DIMTZIN
 70
     0
  9
$DIMALTZ
 70
     0
  9
$DIMALTTZ
 70
     0
  9
$DIMUPT
 70
     0
  9
$DIMDEC
 70
     4
  9
$DIMTDEC
 70
     4
  9
$DIMALTU
 70
     2
  9
$DIMALTTD
 70
     2
  9
$DIMTXSTY
  7
Standard
  9
$DIMAUNIT
 70
     0
  9
$DIMADEC
 70
     0
  9
$DIMALTRND
 40
0.0
  9
$DIMAZIN
 70
     0
  9
$DIMDSEP
 70
    46
  9
$DIMATFIT
 70
     3
  9
$DIMFRAC
 70
     0
  9
$DIMLDRBLK
  1

  9
$DIMLUNIT
 70
     2
  9
$DIMLWD
 70
    -2
  9
$DIMLWE
 70
    -2
  9
$DIMTMOVE
 70
     0
  9
$DIMFXL
 40
1.0
  9
$DIMFXLON
 70
     0
  9
$DIMJOGANG
 40
0.7853981633974483
  9
$DIMTFILL
 70
     0
  9
$DIMTFILLCLR
 70
     0
  9
$DIMARCSYM
 70
     0
  9
$DIMLTYPE
  6

  9
$DIMLTEX1
  6

  9
$DIMLTEX2
  6

  9
$DIMTXTDIRECTION
 70
     0
  9
$LUNITS
 70
     2
  9
$LUPREC
 70
     4
  9
$SKETCHINC
 40
0.1
  9
$FILLETRAD
 40
0.5
  9
$AUNITS
 70
     0
  9
$AUPREC
 70
     0
  9
$MENU
  1
.
  9
$ELEVATION
 40
0.0
  9
$PELEVATION
 40
0.0
  9
$THICKNESS
 40
0.0
  9
$LIMCHECK
 70
     0
  9
$CHAMFERA
 40
0.5
  9
$CHAMFERB
 40
0.5
  9
$CHAMFERC
 40
1.0
  9
$CHAMFERD
 40
0.0
  9
$SKPOLY
 70
     0
  9
$TDCREATE
 40
2457917.583206007
  9
$TDUCREATE
 40
2457917.208206018
  9
$TDUPDATE
 40
2457917.583206007
  9
$TDUUPDATE
 40
2457917.208206018
  9
$TDINDWG
 40
0.0000000116
  9
$TDUSRTIMER
 40
0.0000000116
  9
$USRTIMER
 70
     1
  9
$ANGBASE
 50
0.0
  9
$ANGDIR
 70
     0
  9
$PDMODE
 70
     0
  9
$PDSIZE
 40
0.0
  9
$PLINEWID
 40
0.0
  9
$SPLFRAME
 70
     0
  9
$SPLINETYPE
 70
     6
  9
$SPLINESEGS
 70
     8
  9
$HANDSEED
  5
BA
  9
$SURFTAB1
 70
     6
  9
$SURFTAB2
 70
     6
  9
$SURFTYPE
 70
     6
  9
$SURFU
 70
     6
  9
$SURFV
 70
     6
  9
$UCSBASE
  2

  9
$UCSNAME
  2

  9
$UCSORG
 10
0.0
 20
0.0
 30
0.0
  9
$UCSXDIR
 10
1.0
 20
0.0
 30
0.0
  9
$UCSYDIR
 10
0.0
 20
1.0
 30
0.0
  9
$UCSORTHOREF
  2

  9
$UCSORTHOVIEW
 70
     0
  9
$UCSORGTOP
 10
0.0
 20
0.0
 30
0.0
  9
$UCSORGBOTTOM
 10
0.0
 20
0.0
 30
0.0
  9
$UCSORGLEFT
 10
0.0
 20
0.0
 30
0.0
  9
$UCSORGRIGHT
 10
0.0
 20
0.0
 30
0.0
  9
$UCSORGFRONT
 10
0.0
 20
0.0
 30
0.0
  9
$UCSORGBACK
 10
0.0
 20
0.0
 30
0.0
  9
$PUCSBASE
  2

  9
$PUCSNAME
  2

  9
$PUCSORG
 10
0.0
 20
0.0
 30
0.0
  9
$PUCSXDIR
 10
1.0
 20
0.0
 30
0.0
  9
$PUCSYDIR
 10
0.0
 20
1.0
 30
0.0
  9
$PUCSORTHOREF
  2

  9
$PUCSORTHOVIEW
 70
     0
  9
$PUCSORGTOP
 10
0.0
 20
0.0
 30
0.0
  9
$PUCSORGBOTTOM
 10
0.0
 20
0.0
 30
0.0
  9
$PUCSORGLEFT
 10
0.0
 20
0.0
 30
0.0
  9
$PUCSORGRIGHT
 10
0.0
 20
0.0
 30
0.0
  9
$PUCSORGFRONT
 10
0.0
 20
0.0
 30
0.0
  9
$PUCSORGBACK
 10
0.0
 20
0.0
 30
0.0
  9
$USERI1
 70
     0
  9
$USERI2
 70
     0
  9
$USERI3
 70
     0
  9
$USERI4
 70
     0
  9
$USERI5
 70
     0
  9
$USERR1
 40
0.0
  9
$USERR2
 40
0.0
  9
$USERR3
 40
0.0
  9
$USERR4
 40
0.0
  9
$USERR5
 40
0.0
  9
$WORLDVIEW
 70
     1
  9
$SHADEDGE
 70
     3
  9
$SHADEDIF
 70
    70
  9
$TILEMODE
 70
     1
  9
$MAXACTVP
 70
    64
  9
$PINSBASE
 10
0.0
 20
0.0
 30
0.0
  9
$PLIMCHECK
 70
     0
  9
$PEXTMIN
 10
1.000000000000000E+20
 20
1.000000000000000E+20
 30
1.000000000000000E+20
  9
$PEXTMAX
 10
-1.000000000000000E+20
 20
-1.000000000000000E+20
 30
-1.000000000000000E+20
  9
$PLIMMIN
 10
0.0
 20
0.0
  9
$PLIMMAX
 10
12.0
 20
9.0
  9
$UNITMODE
 70
     0
  9
$VISRETAIN
 70
     1
  9
$PLINEGEN
 70
     0
  9
$PSLTSCALE
 70
     1
  9
$TREEDEPTH
 70
  3020
  9
$CMLSTYLE
  2
Standard
  9
$CMLJUST
 70
     0
  9
$CMLSCALE
 40
1.0
  9
$PROXYGRAPHICS
 70
     1
  9
$MEASUREMENT
 70
     0
  9
$CELWEIGHT
370
    -1
  9
$ENDCAPS
280
     0
  9
$JOINSTYLE
280
     0
  9
$LWDISPLAY
290
     1
  9
$INSUNITS
 70
     1
  9
$HYPERLINKBASE
  1

  9
$STYLESHEET
  1

  9
$XEDIT
290
     1
  9
$CEPSNTYPE
380
     0
  9
$PSTYLEMODE
290
     1
  9
$FINGERPRINTGUID
  2
{E6316C9D-5E9F-C8A6-DBB9-0087843D7B81}
  9
$VERSIONGUID
  2
{FAEB1C32-E019-11D5-929B-00C0DF256EC4}
  9
$EXTNAMES
290
     1
  9
$PSVPSCALE
 40
0.0
  9
$OLESTARTUP
290
     0
  9
$SORTENTS
280
   127
  9
$INDEXCTL
280
     0
  9
$HIDETEXT
280
     1
  9
$XCLIPFRAME
280
     2
  9
$HALOGAP
280
     0
  9
$OBSCOLOR
 70
   257
  9
$OBSLTYPE
280
     0
  9
$INTERSECTIONDISPLAY
280
     0
  9
$INTERSECTIONCOLOR
 70
   257
  9
$DIMASSOC
280
     2
  9
$PROJECTNAME
  1

  9
$CAMERADISPLAY
290
     0
  9
$LENSLENGTH
 40
50.0
  9
$CAMERAHEIGHT
 40
0.0
  9
$STEPSPERSEC
 40
2.0
  9
$STEPSIZE
 40
6.0
  9
$3DDWFPREC
 40
2.0
  9
$PSOLWIDTH
 40
0.25
  9
$PSOLHEIGHT
 40
4.0
  9
$LOFTANG1
 40
1.570796326794897
  9
$LOFTANG2
 40
1.570796326794897
  9
$LOFTMAG1
 40
0.0
  9
$LOFTMAG2
 40
0.0
  9
$LOFTPARAM
 70
     7
  9
$LOFTNORMALS
280
     1
  9
$LATITUDE
 40
37.795
  9
$LONGITUDE
 40
-122.394
  9
$NORTHDIRECTION
 40
0.0
  9
$TIMEZONE
 70
 -8000
  9
$LIGHTGLYPHDISPLAY
280
     1
  9
$TILEMODELIGHTSYNCH
280
     1
  9
$CMATERIAL
347
3C
  9
$SOLIDHIST
280
     1
  9
$SHOWHIST
280
     1
  9
$DWFFRAME
280
     2
  9
$DGNFRAME
280
     2
  9
$REALWORLDSCALE
290
     1
  9
$INTERFERECOLOR
 62
   256
  9
$CSHADOW
280
     0
  9
$SHADOWPLANELOCATION
 40
0.0
  0
ENDSEC
  0
SECTION
  2
CLASSES
  0
CLASS
  1
ACDBDICTIONARYWDFLT
  2
AcDbDictionaryWithDefault
  3
ObjectDBX Classes
 90
        0
 91
        4
280
     0
281
     0
  0
CLASS
  1
VISUALSTYLE
  2
AcDbVisualStyle
  3
ObjectDBX Classes
 90
     4095
 91
        4
280
     0
281
     0
  0
CLASS
  1
MATERIAL
  2
AcDbMaterial
  3
ObjectDBX Classes
 90
     1153
 91
        4
280
     0
281
     0
  0
CLASS
  1
SUN
  2
AcDbSun
  3
SCENEOE
 90
     1024
 91
        4
280
     0
281
     0
  0
ENDSEC
  0
SECTION
  2
TABLES
  0
TABLE
  2
VPORT
  5
8
330
0
100
AcDbSymbolTable
 70
     1
  0
VPORT
  5
29
330
8
100
AcDbSymbolTableRecord
100
AcDbViewportTableRecord
  2
*Active
 70
     0
 10
0.0
 20
0.0
 11
1.0
 21
1.0
 12
0.0
 22
0.0
 13
0.0
 23
0.0
 14
0.5
 24
0.5
 15
0.5
 25
0.5
 16
0.0
 26
0.0
 36
1.0
 17
91.00082462281999
 27
-128.4993055234307
 37
0.0
 40
256.9986110468615
 41
0.7081814508812795
 42
50.0
 43
0.0
 44
0.0
 50
0.0
 51
0.0
 71
     0
 72
   100
 73
     1
 74
     3
 75
     0
 76
     0
 77
     0
 78
     0
281
     0
 65
     1
110
0.0
120
0.0
130
0.0
111
1.0
121
0.0
131
0.0
112
0.0
122
1.0
132
0.0
 79
     0
146
0.0
 60
     3
 61
     5
292
     1
282
     1
141
0.0
142
0.0
 63
   250
361
3F
  0
ENDTAB
  0
TABLE
  2
LTYPE
  5
5
330
0
100
AcDbSymbolTable
 70
     1
  0
LTYPE
  5
14
330
5
100
AcDbSymbolTableRecord
100
AcDbLinetypeTableRecord
  2
ByBlock
 70
     0
  3

 72
    65
 73
     0
 40
0.0
  0
LTYPE
  5
15
330
5
100
AcDbSymbolTableRecord
100
AcDbLinetypeTableRecord
  2
ByLayer
 70
     0
  3

 72
    65
 73
     0
 40
0.0
  0
LTYPE
  5
16
330
5
100
AcDbSymbolTableRecord
100
AcDbLinetypeTableRecord
  2
Continuous
 70
     0
  3
Solid line
 72
    65
 73
     0
 40
0.0
  0
ENDTAB
  0
TABLE
  2
LAYER
  5
2
330
0
100
AcDbSymbolTable
 70
     2
  0
LAYER
  5
10
330
2
100
AcDbSymbolTableRecord
100
AcDbLayerTableRecord
  2
0
 70
     0
 62
     7
  6
Continuous
370
    -3
390
F
347
3E
  0
LAYER
  5
40
330
2
100
AcDbSymbolTableRecord
100
AcDbLayerTableRecord
  2
_U+30EC_U+30A4_U+30E4_U+30FC 1
 70
     0
 62
     7
  6
Continuous
370
    -3
390
F
347
3E
  0
ENDTAB
  0
TABLE
  2
STYLE
  5
3
330
0
100
AcDbSymbolTable
 70
     1
  0
STYLE
  5
11
330
3
100
AcDbSymbolTableRecord
100
AcDbTextStyleTableRecord
  2
Standard
 70
     0
 40
0.0
 41
1.0
 50
0.0
 71
     0
 42
0.2
  3
txt
  4

  0
ENDTAB
  0
TABLE
  2
VIEW
  5
6
330
0
100
AcDbSymbolTable
 70
     0
  0
ENDTAB
  0
TABLE
  2
UCS
  5
7
330
0
100
AcDbSymbolTable
 70
     0
  0
ENDTAB
  0
TABLE
  2
APPID
  5
9
330
0
100
AcDbSymbolTable
 70
     1
  0
APPID
  5
12
330
9
100
AcDbSymbolTableRecord
100
AcDbRegAppTableRecord
  2
ACAD
 70
     0
  0
ENDTAB
  0
TABLE
  2
DIMSTYLE
  5
A
330
0
100
AcDbSymbolTable
 70
     1
100
AcDbDimStyleTable
  0
DIMSTYLE
105
27
330
A
100
AcDbSymbolTableRecord
100
AcDbDimStyleTableRecord
  2
Standard
 70
     0
178
     0
340
11
  0
ENDTAB
  0
TABLE
  2
BLOCK_RECORD
  5
1
330
0
100
AcDbSymbolTable
 70
     7
  0
BLOCK_RECORD
  5
1F
330
1
100
AcDbSymbolTableRecord
100
AcDbBlockTableRecord
  2
*Model_Space
340
22
 70
     0
280
     1
281
     0
  0
BLOCK_RECORD
  5
1B
330
1
100
AcDbSymbolTableRecord
100
AcDbBlockTableRecord
  2
*Paper_Space
340
1E
 70
     0
280
     1
281
     0
  0
BLOCK_RECORD
  5
23
330
1
100
AcDbSymbolTableRecord
100
AcDbBlockTableRecord
  2
*Paper_Space0
340
26
 70
     0
280
     1
281
     0
  0
BLOCK_RECORD
  5
41
330
1
100
AcDbSymbolTableRecord
100
AcDbBlockTableRecord
  2
block 2
340
0
102
{BLKREFS
331
42
102
}
 70
     0
280
     1
281
     0
  0
BLOCK_RECORD
  5
55
330
1
100
AcDbSymbolTableRecord
100
AcDbBlockTableRecord
  2
block 3
340
0
102
{BLKREFS
331
56
102
}
 70
     0
280
     1
281
     0
  0
BLOCK_RECORD
  5
69
330
1
100
AcDbSymbolTableRecord
100
AcDbBlockTableRecord
  2
block 4
340
0
102
{BLKREFS
331
6A
102
}
 70
     0
280
     1
281
     0
  0
BLOCK_RECORD
  5
8C
330
1
100
AcDbSymbolTableRecord
100
AcDbBlockTableRecord
  2
block 5
340
0
102
{BLKREFS
331
8D
102
}
 70
     0
280
     1
281
     0
  0
BLOCK_RECORD
  5
AA
330
1
100
AcDbSymbolTableRecord
100
AcDbBlockTableRecord
  2
block 6
340
0
102
{BLKREFS
331
AB
102
}
 70
     0
280
     1
281
     0
  0
BLOCK_RECORD
  5
B2
330
1
100
AcDbSymbolTableRecord
100
AcDbBlockTableRecord
  2
block 7
340
0
102
{BLKREFS
331
B3
102
}
 70
     0
280
     1
281
     0
  0
ENDTAB
  0
ENDSEC
  0
SECTION
  2
BLOCKS
  0
BLOCK
  5
20
330
1F
100
AcDbEntity
  8
0
100
AcDbBlockBegin
  2
*Model_Space
 70
     0
 10
0.0
 20
0.0
 30
0.0
  3
*Model_Space
  1

  0
ENDBLK
  5
21
330
1F
100
AcDbEntity
  8
0
100
AcDbBlockEnd
  0
BLOCK
  5
1C
330
1B
100
AcDbEntity
 67
     1
  8
0
100
AcDbBlockBegin
  2
*Paper_Space
 70
     0
 10
0.0
 20
0.0
 30
0.0
  3
*Paper_Space
  1

  0
ENDBLK
  5
1D
330
1B
100
AcDbEntity
 67
     1
  8
0
100
AcDbBlockEnd
  0
BLOCK
  5
24
330
23
100
AcDbEntity
  8
0
100
AcDbBlockBegin
  2
*Paper_Space0
 70
     0
 10
0.0
 20
0.0
 30
0.0
  3
*Paper_Space0
  1

  0
ENDBLK
  5
25
330
23
100
AcDbEntity
  8
0
100
AcDbBlockEnd
  0
BLOCK
  5
43
330
41
100
AcDbEntity
  8
0
100
AcDbBlockBegin
  2
block 2
 70
     0
 10
0.0
 20
0.0
 30
0.0
  3
block 2
  1

  0
SPLINE
  5
45
330
41
100
AcDbEntity
  8
_U+30EC_U+30A4_U+30E4_U+30FC 1
 62
     7
420
 16777215
370
     9
100
AcDbSpline
210
0.0
220
0.0
230
1.0
 70
    11
 71
     3
 72
    17
 73
    13
 74
     0
 42
0.0000000001
 43
0.0000000001
 12
1.0
 22
0.0
 32
0.0
 13
1.0
 23
0.0
 33
0.0
 40
0.0
 40
0.0
 40
0.0
 40
0.0
 40
1.0
 40
1.0
 40
1.0
 40
2.0
 40
2.0
 40
2.0
 40
3.0
 40
3.0
 40
3.0
 40
4.0
 40
4.0
 40
4.0
 40
4.0
 10
66.1897524780254
 20
-134.5054882997071
 30
0.0
 10
66.1897524780254
 20
-134.450349133054
 30
0.0
 10
66.14498497916752
 20
-134.4055816330655
 30
0.0
 10
66.08984581390756
 20
-134.4055816330655
 30
0.0
 10
66.03403637088694
 20
-134.4055816330655
 30
0.0
 10
65.98926887202904
 20
-134.450349133054
 30
0.0
 10
65.98926887202904
 20
-134.5054882997071
 30
0.0
 10
65.98926887202904
 20
-134.560592188582
 30
0.0
 10
66.03403637088694
 20
-134.6053949663488
 30
0.0
 10
66.08984581390756
 20
-134.6053949663488
 30
0.0
 10
66.14498497916752
 20
-134.6053949663488
 30
0.0
 10
66.1897524780254
 20
-134.560592188582
 30
0.0
 10
66.1897524780254
 20
-134.5054882997071
 30
0.0
  0
SPLINE
  5
46
330
41
100
AcDbEntity
  8
_U+30EC_U+30A4_U+30E4_U+30FC 1
 62
     7
420
 16777215
370
     9
100
AcDbSpline
210
0.0
220
0.0
230
1.0
 70
    11
 71
     3
 72
    17
 73
    13
 74
     0
 42
0.0000000001
 43
0.0000000001
 12
1.0
 22
0.0
 32
0.0
 13
1.0
 23
0.0
 33
0.0
 40
0.0
 40
0.0
 40
0.0
 40
0.0
 40
1.0
 40
1.0
 40
1.0
 40
2.0
 40
2.0
 40
2.0
 40
3.0
 40
3.0
 40
3.0
 40
4.0
 40
4.0
 40
4.0
 40
4.0
 10
80.3325779505452
 20
-148.6503602406153
 30
0.0
 10
80.3325779505452
 20
-148.5952210739622
 30
0.0
 10
80.28777517391043
 20
-148.5504535739737
 30
0.0
 10
80.23267128642736
 20
-148.5504535739737
 30
0.0
 10
80.17753212116742
 20
-148.5504535739737
 30
0.0
 10
80.13272934453265
 20
-148.5952210739622
 30
0.0
 10
80.13272934453265
 20
-148.6503602406153
 30
0.0
 10
80.13272934453265
 20
-148.7054641294902
 30
0.0
 10
80.17753212116742
 20
-148.7502669072569
 30
0.0
 10
80.23267128642736
 20
-148.7502669072569
 30
0.0
 10
80.28777517391043
 20
-148.7502669072569
 30
0.0
 10
80.3325779505452
 20
-148.7054641294902
 30
0.0
 10
80.3325779505452
 20
-148.6503602406153
 30
0.0
  0
SPLINE
  5
47
330
41
100
AcDbEntity
  8
_U+30EC_U+30A4_U+30E4_U+30FC 1
 62
     7
420
 16777215
370
     9
100
AcDbSpline
210
0.0
220
0.0
230
1.0
 70
    11
 71
     3
 72
    17
 73
    13
 74
     0
 42
0.0000000001
 43
0.0000000001
 12
1.0
 22
0.0
 32
0.0
 13
1.0
 23
0.0
 33
0.0
 40
0.0
 40
0.0
 40
0.0
 40
0.0
 40
1.0
 40
1.0
 40
1.0
 40
2.0
 40
2.0
 40
2.0
 40
3.0
 40
3.0
 40
3.0
 40
4.0
 40
4.0
 40
4.0
 40
4.0
 10
83.49240842548676
 20
-149.8223938514333
 30
0.0
 10
83.49240842548676
 20
-149.7665844070029
 30
0.0
 10
83.44760564885199
 20
-149.7217816292362
 30
0.0
 10
83.39250176136892
 20
-149.7217816292362
 30
0.0
 10
83.33736259610897
 20
-149.7217816292362
 30
0.0
 10
83.29259720139892
 20
-149.7665844070029
 30
0.0
 10
83.29259720139892
 20
-149.8223938514333
 30
0.0
 10
83.29259720139892
 20
-149.8774977403083
 30
0.0
 10
83.33736259610897
 20
-149.922300518075
 30
0.0
 10
83.39250176136892
 20
-149.922300518075
 30
0.0
 10
83.44760564885199
 20
-149.922300518075
 30
0.0
 10
83.49240842548676
 20
-149.8774977403083
 30
0.0
 10
83.49240842548676
 20
-149.8223938514333
 30
0.0
  0
SPLINE
  5
48
330
41
100
AcDbEntity
  8
_U+30EC_U+30A4_U+30E4_U+30FC 1
 62
     7
420
 16777215
370
     9
100
AcDbSpline
210
0.0
220
0.0
230
1.0
 70
    11
 71
     3
 72
    17
 73
    13
 74
     0
 42
0.0000000001
 43
0.0000000001
 12
1.0
 22
0.0
 32
0.0
 13
1.0
 23
0.0
 33
0.0
 40
0.0
 40
0.0
 40
0.0
 40
0.0
 40
1.0
 40
1.0
 40
1.0
 40
2.0
 40
2.0
 40
2.0
 40
3.0
 40
3.0
 40
3.0
 40
4.0
 40
4.0
 40
4.0
 40
4.0
 10
95.49288506377354
 20
-149.8223938514333
 30
0.0
 10
95.49288506377354
 20
-149.7665844070029
 30
0.0
 10
95.44808228713877
 20
-149.7217816292362
 30
0.0
 10
95.3929783996557
 20
-149.7217816292362
 30
0.0
 10
95.33784164283215
 20
-149.7217816292362
 30
0.0
 10
95.29307173553786
 20
-149.7665844070029
 30
0.0
 10
95.29307173553786
 20
-149.8223938514333
 30
0.0
 10
95.29307173553786
 20
-149.8774977403083
 30
0.0
 10
95.33784164283215
 20
-149.922300518075
 30
0.0
 10
95.3929783996557
 20
-149.922300518075
 30
0.0
 10
95.44808228713877
 20
-149.922300518075
 30
0.0
 10
95.49288506377354
 20
-149.8774977403083
 30
0.0
 10
95.49288506377354
 20
-149.8223938514333
 30
0.0
  0
POLYLINE
  5
49
330
41
100
AcDbEntity
  8
_U+30EC_U+30A4_U+30E4_U+30FC 1
 62
     7
420
 16777215
370
     9
100
AcDb2dPolyline
 66
     1
 10
0.0
 20
0.0
 30
0.0
  0
VERTEX
  5
4A
330
49
100
AcDbEntity
  8
_U+30EC_U+30A4_U+30E4_U+30FC 1
 62
     7
420
 16777215
370
     9
100
AcDbVertex
100
AcDb2dVertex
 10
83.39250176136892
 20
-149.8223938514333
 30
0.0
  0
VERTEX
  5
4B
330
49
100
AcDbEntity
  8
_U+30EC_U+30A4_U+30E4_U+30FC 1
 62
     7
420
 16777215
370
     9
100
AcDbVertex
100
AcDb2dVertex
 10
95.3929783996557
 20
-149.8223938514333
 30
0.0
  0
SEQEND
  5
4C
330
49
100
AcDbEntity
  8
_U+30EC_U+30A4_U+30E4_U+30FC 1
 62
     7
420
 16777215
370
     9
  0
POLYLINE
  5
4D
330
41
100
AcDbEntity
  8
_U+30EC_U+30A4_U+30E4_U+30FC 1
 62
     7
420
 16777215
370
     9
100
AcDb2dPolyline
 66
     1
 10
0.0
 20
0.0
 30
0.0
  0
VERTEX
  5
4E
330
4D
100
AcDbEntity
  8
_U+30EC_U+30A4_U+30E4_U+30FC 1
 62
     7
420
 16777215
370
     9
100
AcDbVertex
100
AcDb2dVertex
 10
83.39250176136892
 20
-147.5623935742204
 30
0.0
  0
VERTEX
  5
4F
330
4D
100
AcDbEntity
  8
_U+30EC_U+30A4_U+30E4_U+30FC 1
 62
     7
420
 16777215
370
     9
100
AcDbVertex
100
AcDb2dVertex
 10
83.39250176136892
 20
-150.8221307956277
 30
0.0
  0
SEQEND
  5
50
330
4D
100
AcDbEntity
  8
_U+30EC_U+30A4_U+30E4_U+30FC 1
 62
     7
420
 16777215
370
     9
  0
POLYLINE
  5
51
330
41
100
AcDbEntity
  8
_U+30EC_U+30A4_U+30E4_U+30FC 1
 62
     7
420
 16777215
370
     9
100
AcDb2dPolyline
 66
     1
 10
0.0
 20
0.0
 30
0.0
  0
VERTEX
  5
52
330
51
100
AcDbEntity
  8
_U+30EC_U+30A4_U+30E4_U+30FC 1
 62
     7
420
 16777215
370
     9
100
AcDbVertex
100
AcDb2dVertex
 10
95.3929783996557
 20
-148.0619269074292
 30
0.0
  0
VERTEX
  5
53
330
51
100
AcDbEntity
  8
_U+30EC_U+30A4_U+30E4_U+30FC 1
 62
     7
420
 16777215
370
     9
100
AcDbVertex
100
AcDb2dVertex
 10
95.3929783996557
 20
-150.8221307956277
 30
0.0
  0
SEQEND
  5
54
330
51
100
AcDbEntity
  8
_U+30EC_U+30A4_U+30E4_U+30FC 1
 62
     7
420
 16777215
370
     9
  0
INSERT
  5
56
330
41
100
AcDbEntity
  8
_U+30EC_U+30A4_U+30E4_U+30FC 1
100
AcDbBlockReference
  2
block 3
 10
0.0
 20
0.0
 30
0.0
  0
POLYLINE
  5
5D
330
41
100
AcDbEntity
  8
_U+30EC_U+30A4_U+30E4_U+30FC 1
 62
     7
420
 16777215
370
     9
100
AcDb2dPolyline
 66
     1
 10
0.0
 20
0.0
 30
0.0
  0
VERTEX
  5
5E
330
5D
100
AcDbEntity
  8
_U+30EC_U+30A4_U+30E4_U+30FC 1
 62
     7
420
 16777215
370
     9
100
AcDbVertex
100
AcDb2dVertex
 10
66.08984581390756
 20
-134.5054882997071
 30
0.0
  0
VERTEX
  5
5F
330
5D
100
AcDbEntity
  8
_U+30EC_U+30A4_U+30E4_U+30FC 1
 62
     7
420
 16777215
370
     9
100
AcDbVertex
100
AcDb2dVertex
 10
80.23267128642736
 20
-148.6503602406153
 30
0.0
  0
SEQEND
  5
60
330
5D
100
AcDbEntity
  8
_U+30EC_U+30A4_U+30E4_U+30FC 1
 62
     7
420
 16777215
370
     9
  0
POLYLINE
  5
61
330
41
100
AcDbEntity
  8
_U+30EC_U+30A4_U+30E4_U+30FC 1
 62
     7
420
 16777215
370
     9
100
AcDb2dPolyline
 66
     1
 10
0.0
 20
0.0
 30
0.0
  0
VERTEX
  5
62
330
61
100
AcDbEntity
  8
_U+30EC_U+30A4_U+30E4_U+30FC 1
 62
     7
420
 16777215
370
     9
100
AcDbVertex
100
AcDb2dVertex
 10
67.12200300979727
 20
-133.4733310777426
 30
0.0
  0
VERTEX
  5
63
330
61
100
AcDbEntity
  8
_U+30EC_U+30A4_U+30E4_U+30FC 1
 62
     7
420
 16777215
370
     9
100
AcDbVertex
100
AcDb2dVertex
 10
65.38220888751644
 20
-135.2124196884192
 30
0.0
  0
SEQEND
  5
64
330
61
100
AcDbEntity
  8
_U+30EC_U+30A4_U+30E4_U+30FC 1
 62
     7
420
 16777215
370
     9
  0
POLYLINE
  5
65
330
41
100
AcDbEntity
  8
_U+30EC_U+30A4_U+30E4_U+30FC 1
 62
     7
420
 16777215
370
     9
100
AcDb2dPolyline
 66
     1
 10
0.0
 20
0.0
 30
0.0
  0
VERTEX
  5
66
330
65
100
AcDbEntity
  8
_U+30EC_U+30A4_U+30E4_U+30FC 1
 62
     7
420
 16777215
370
     9
100
AcDbVertex
100
AcDb2dVertex
 10
81.26479320454018
 20
-147.6182030186508
 30
0.0
  0
VERTEX
  5
67
330
65
100
AcDbEntity
  8
_U+30EC_U+30A4_U+30E4_U+30FC 1
 62
     7
420
 16777215
370
     9
100
AcDbVertex
100
AcDb2dVertex
 10
79.52570463779692
 20
-149.3579971848829
 30
0.0
  0
SEQEND
  5
68
330
65
100
AcDbEntity
  8
_U+30EC_U+30A4_U+30E4_U+30FC 1
 62
     7
420
 16777215
370
     9
  0
INSERT
  5
6A
330
41
100
AcDbEntity
  8
_U+30EC_U+30A4_U+30E4_U+30FC 1
100
AcDbBlockReference
  2
block 4
 10
0.0
 20
0.0
 30
0.0
  0
ENDBLK
  5
44
330
41
100
AcDbEntity
  8
0
100
AcDbBlockEnd
  0
BLOCK
  5
57
330
55
100
AcDbEntity
  8
0
100
AcDbBlockBegin
  2
block 3
 70
     0
 10
0.0
 20
0.0
 30
0.0
  3
block 3
  1

  0
SPLINE
  5
59
330
55
100
AcDbEntity
  8
_U+30EC_U+30A4_U+30E4_U+30FC 1
370
     0
100
AcDbSpline
210
0.0
220
0.0
230
1.0
 70
    11
 71
     3
 72
    26
 73
    22
 74
     0
 42
0.0000000001
 43
0.0000000001
 12
1.0
 22
0.0
 32
0.0
 13
1.0
 23
0.0
 33
0.0
 40
0.0
 40
0.0
 40
0.0
 40
0.0
 40
1.0
 40
1.0
 40
1.0
 40
2.0
 40
2.0
 40
2.0
 40
3.0
 40
3.0
 40
3.0
 40
4.0
 40
4.0
 40
4.0
 40
5.0
 40
5.0
 40
5.0
 40
6.0
 40
6.0
 40
6.0
 40
7.0
 40
7.0
 40
7.0
 40
7.0
 10
88.75513371262025
 20
-149.1092447543894
 30
0.0
 10
88.75513371262025
 20
-149.1092447543894
 30
0.0
 10
88.75513371262025
 20
-148.0050916513668
 30
0.0
 10
88.75513371262025
 20
-148.0050916513668
 30
0.0
 10
88.75513371262025
 20
-148.0050916513668
 30
0.0
 10
88.42509356513331
 20
-148.0050916513668
 30
0.0
 10
88.42509356513331
 20
-148.0050916513668
 30
0.0
 10
88.42509356513331
 20
-148.0050916513668
 30
0.0
 10
88.42509356513331
 20
-147.8569525455011
 30
0.0
 10
88.42509356513331
 20
-147.8569525455011
 30
0.0
 10
88.75720076991139
 20
-147.8421386349145
 30
0.0
 10
88.80370955896227
 20
-147.6791856184622
 30
0.0
 10
88.83333738013542
 20
-147.5648084483519
 30
0.0
 10
88.83333738013542
 20
-147.5648084483519
 30
0.0
 10
88.97940942871001
 20
-147.5648084483519
 30
0.0
 10
88.97940942871001
 20
-147.5648084483519
 30
0.0
 10
88.97940942871001
 20
-147.5648084483519
 30
0.0
 10
88.97940942871001
 20
-149.1092447543894
 30
0.0
 10
88.97940942871001
 20
-149.1092447543894
 30
0.0
 10
88.97940942871001
 20
-149.1092447543894
 30
0.0
 10
88.75513371262025
 20
-149.1092447543894
 30
0.0
 10
88.75513371262025
 20
-149.1092447543894
 30
0.0
  0
HATCH
  5
5A
330
55
100
AcDbEntity
  8
_U+30EC_U+30A4_U+30E4_U+30FC 1
 62
     7
420
 16777215
100
AcDbHatch
 10
0.0
 20
0.0
 30
0.0
210
0.0
220
0.0
230
1.0
  2
SOLID
 70
     1
 71
     0
 91
        1
 92
        1
 93
        1
 72
     4
 94
        3
 73
     0
 74
     1
 95
       26
 96
       22
 40
0.0
 40
0.0
 40
0.0
 40
0.0
 40
1.0
 40
1.0
 40
1.0
 40
2.0
 40
2.0
 40
2.0
 40
3.0
 40
3.0
 40
3.0
 40
4.0
 40
4.0
 40
4.0
 40
5.0
 40
5.0
 40
5.0
 40
6.0
 40
6.0
 40
6.0
 40
7.0
 40
7.0
 40
7.0
 40
7.0
 10
88.75513371262025
 20
-149.1092447543894
 10
88.75513371262025
 20
-149.1092447543894
 10
88.75513371262025
 20
-148.0050916513668
 10
88.75513371262025
 20
-148.0050916513668
 10
88.75513371262025
 20
-148.0050916513668
 10
88.42509356513331
 20
-148.0050916513668
 10
88.42509356513331
 20
-148.0050916513668
 10
88.42509356513331
 20
-148.0050916513668
 10
88.42509356513331
 20
-147.8569525455011
 10
88.42509356513331
 20
-147.8569525455011
 10
88.75720076991139
 20
-147.8421386349145
 10
88.80370955896227
 20
-147.6791856184622
 10
88.83333738013542
 20
-147.5648084483519
 10
88.83333738013542
 20
-147.5648084483519
 10
88.97940942871001
 20
-147.5648084483519
 10
88.97940942871001
 20
-147.5648084483519
 10
88.97940942871001
 20
-147.5648084483519
 10
88.97940942871001
 20
-149.1092447543894
 10
88.97940942871001
 20
-149.1092447543894
 10
88.97940942871001
 20
-149.1092447543894
 10
88.75513371262025
 20
-149.1092447543894
 10
88.75513371262025
 20
-149.1092447543894
 97
        0
 97
        0
 75
     2
 76
     1
 98
        0
  0
SPLINE
  5
5B
330
55
100
AcDbEntity
  8
_U+30EC_U+30A4_U+30E4_U+30FC 1
370
     0
100
AcDbSpline
210
0.0
220
0.0
230
1.0
 70
    11
 71
     3
 72
    44
 73
    40
 74
     0
 42
0.0000000001
 43
0.0000000001
 12
1.0
 22
0.0
 32
0.0
 13
1.0
 23
0.0
 33
0.0
 40
0.0
 40
0.0
 40
0.0
 40
0.0
 40
1.0
 40
1.0
 40
1.0
 40
2.0
 40
2.0
 40
2.0
 40
3.0
 40
3.0
 40
3.0
 40
4.0
 40
4.0
 40
4.0
 40
5.0
 40
5.0
 40
5.0
 40
6.0
 40
6.0
 40
6.0
 40
7.0
 40
7.0
 40
7.0
 40
8.0
 40
8.0
 40
8.0
 40
9.0
 40
9.0
 40
9.0
 40
10.0
 40
10.0
 40
10.0
 40
11.0
 40
11.0
 40
11.0
 40
12.0
 40
12.0
 40
12.0
 40
13.0
 40
13.0
 40
13.0
 40
13.0
 10
90.07357175482537
 20
-148.5273681269307
 30
0.0
 10
89.85584172015757
 20
-148.6861870288007
 30
0.0
 10
89.76282414205582
 20
-148.7602565817336
 30
0.0
 10
89.71390378616528
 20
-148.9039170634685
 30
0.0
 10
89.71390378616528
 20
-148.9039170634685
 30
0.0
 10
90.49249536583174
 20
-148.9039170634685
 30
0.0
 10
90.49249536583174
 20
-148.9039170634685
 30
0.0
 10
90.49249536583174
 20
-148.9039170634685
 30
0.0
 10
90.49249536583174
 20
-149.1092447543894
 30
0.0
 10
90.49249536583174
 20
-149.1092447543894
 30
0.0
 10
90.49249536583174
 20
-149.1092447543894
 30
0.0
 10
89.46447887303319
 20
-149.1092447543894
 30
0.0
 10
89.46447887303319
 20
-149.1092447543894
 30
0.0
 10
89.4961737514975
 20
-148.7516438430204
 30
0.0
 10
89.56163056571724
 20
-148.6734401755052
 30
0.0
 10
89.94679224096816
 20
-148.3750949064826
 30
0.0
 10
90.20276283552224
 20
-148.1763128969837
 30
0.0
 10
90.26821964974198
 20
-148.1084445159243
 30
0.0
 10
90.26821964974198
 20
-147.9709852060628
 30
0.0
 10
90.26821964974198
 20
-147.8524739213702
 30
0.0
 10
90.19621715410025
 20
-147.7215602929307
 30
0.0
 10
89.99950220189248
 20
-147.7215602929307
 30
0.0
 10
89.73939749275613
 20
-147.7215602929307
 30
0.0
 10
89.73112926359153
 20
-147.9520371808939
 30
0.0
 10
89.7266506394607
 20
-148.0684814082954
 30
0.0
 10
89.7266506394607
 20
-148.0684814082954
 30
0.0
 10
89.50237492337094
 20
-148.0684814082954
 30
0.0
 10
89.50237492337094
 20
-148.0684814082954
 30
0.0
 10
89.51098766208406
 20
-147.9413573848897
 30
0.0
 10
89.52166745808833
 20
-147.8293917816191
 30
0.0
 10
89.60193818289466
 20
-147.7108804969264
 30
0.0
 10
89.71183672887413
 20
-147.5499945377653
 30
0.0
 10
89.89821639462615
 20
-147.5162326020098
 30
0.0
 10
90.01431611247907
 20
-147.5162326020098
 30
0.0
 10
90.29164629904167
 20
-147.5162326020098
 30
0.0
 10
90.49904104725371
 20
-147.7002007009222
 30
0.0
 10
90.49904104725371
 20
-147.973052263354
 30
0.0
 10
90.49904104725371
 20
-148.2018066035746
 30
0.0
 10
90.38259681985227
 20
-148.3010253535498
 30
0.0
 10
90.07357175482537
 20
-148.5273681269307
 30
0.0
  0
HATCH
  5
5C
330
55
100
AcDbEntity
  8
_U+30EC_U+30A4_U+30E4_U+30FC 1
 62
     7
420
 16777215
100
AcDbHatch
 10
0.0
 20
0.0
 30
0.0
210
0.0
220
0.0
230
1.0
  2
SOLID
 70
     1
 71
     0
 91
        1
 92
        1
 93
        1
 72
     4
 94
        3
 73
     0
 74
     1
 95
       44
 96
       40
 40
0.0
 40
0.0
 40
0.0
 40
0.0
 40
1.0
 40
1.0
 40
1.0
 40
2.0
 40
2.0
 40
2.0
 40
3.0
 40
3.0
 40
3.0
 40
4.0
 40
4.0
 40
4.0
 40
5.0
 40
5.0
 40
5.0
 40
6.0
 40
6.0
 40
6.0
 40
7.0
 40
7.0
 40
7.0
 40
8.0
 40
8.0
 40
8.0
 40
9.0
 40
9.0
 40
9.0
 40
10.0
 40
10.0
 40
10.0
 40
11.0
 40
11.0
 40
11.0
 40
12.0
 40
12.0
 40
12.0
 40
13.0
 40
13.0
 40
13.0
 40
13.0
 10
90.07357175482537
 20
-148.5273681269307
 10
89.85584172015757
 20
-148.6861870288007
 10
89.76282414205582
 20
-148.7602565817336
 10
89.71390378616528
 20
-148.9039170634685
 10
89.71390378616528
 20
-148.9039170634685
 10
90.49249536583174
 20
-148.9039170634685
 10
90.49249536583174
 20
-148.9039170634685
 10
90.49249536583174
 20
-148.9039170634685
 10
90.49249536583174
 20
-149.1092447543894
 10
90.49249536583174
 20
-149.1092447543894
 10
90.49249536583174
 20
-149.1092447543894
 10
89.46447887303319
 20
-149.1092447543894
 10
89.46447887303319
 20
-149.1092447543894
 10
89.4961737514975
 20
-148.7516438430204
 10
89.56163056571724
 20
-148.6734401755052
 10
89.94679224096816
 20
-148.3750949064826
 10
90.20276283552224
 20
-148.1763128969837
 10
90.26821964974198
 20
-148.1084445159243
 10
90.26821964974198
 20
-147.9709852060628
 10
90.26821964974198
 20
-147.8524739213702
 10
90.19621715410025
 20
-147.7215602929307
 10
89.99950220189248
 20
-147.7215602929307
 10
89.73939749275613
 20
-147.7215602929307
 10
89.73112926359153
 20
-147.9520371808939
 10
89.7266506394607
 20
-148.0684814082954
 10
89.7266506394607
 20
-148.0684814082954
 10
89.50237492337094
 20
-148.0684814082954
 10
89.50237492337094
 20
-148.0684814082954
 10
89.51098766208406
 20
-147.9413573848897
 10
89.52166745808833
 20
-147.8293917816191
 10
89.60193818289466
 20
-147.7108804969264
 10
89.71183672887413
 20
-147.5499945377653
 10
89.89821639462615
 20
-147.5162326020098
 10
90.01431611247907
 20
-147.5162326020098
 10
90.29164629904167
 20
-147.5162326020098
 10
90.49904104725371
 20
-147.7002007009222
 10
90.49904104725371
 20
-147.973052263354
 10
90.49904104725371
 20
-148.2018066035746
 10
90.38259681985227
 20
-148.3010253535498
 10
90.07357175482537
 20
-148.5273681269307
 97
        0
 97
        0
 75
     2
 76
     1
 98
        0
  0
ENDBLK
  5
58
330
55
100
AcDbEntity
  8
0
100
AcDbBlockEnd
  0
BLOCK
  5
6B
330
69
100
AcDbEntity
  8
0
100
AcDbBlockBegin
  2
block 4
 70
     0
 10
0.0
 20
0.0
 30
0.0
  3
block 4
  1

  0
SPLINE
  5
6D
330
69
100
AcDbEntity
  8
_U+30EC_U+30A4_U+30E4_U+30FC 1
370
     0
100
AcDbSpline
210
0.0
220
0.0
230
1.0
 70
    11
 71
     3
 72
    44
 73
    40
 74
     0
 42
0.0000000001
 43
0.0000000001
 12
1.0
 22
0.0
 32
0.0
 13
1.0
 23
0.0
 33
0.0
 40
0.0
 40
0.0
 40
0.0
 40
0.0
 40
1.0
 40
1.0
 40
1.0
 40
2.0
 40
2.0
 40
2.0
 40
3.0
 40
3.0
 40
3.0
 40
4.0
 40
4.0
 40
4.0
 40
5.0
 40
5.0
 40
5.0
 40
6.0
 40
6.0
 40
6.0
 40
7.0
 40
7.0
 40
7.0
 40
8.0
 40
8.0
 40
8.0
 40
9.0
 40
9.0
 40
9.0
 40
10.0
 40
10.0
 40
10.0
 40
11.0
 40
11.0
 40
11.0
 40
12.0
 40
12.0
 40
12.0
 40
13.0
 40
13.0
 40
13.0
 40
13.0
 10
73.75966659397328
 20
-140.452064309505
 30
0.0
 10
73.49353296773774
 20
-140.410034144585
 30
0.0
 10
73.37536619259366
 20
-140.3965982721925
 30
0.0
 10
73.2392849209263
 20
-140.4641221437034
 30
0.0
 10
73.2392849209263
 20
-140.4641221437034
 30
0.0
 10
73.78981117946921
 20
-141.0146484022463
 30
0.0
 10
73.78981117946921
 20
-141.0146484022463
 30
0.0
 10
73.78981117946921
 20
-141.0146484022463
 30
0.0
 10
73.64460040476594
 20
-141.1596869221754
 30
0.0
 10
73.64460040476594
 20
-141.1596869221754
 30
0.0
 10
73.64460040476594
 20
-141.1596869221754
 30
0.0
 10
72.91768525737822
 20
-140.4327717747877
 30
0.0
 10
72.91768525737822
 20
-140.4327717747877
 30
0.0
 10
73.19294838664969
 20
-140.2022948868244
 30
0.0
 10
73.2944064486903
 20
-140.1929931290143
 30
0.0
 10
73.77792560004511
 20
-140.2546603382002
 30
0.0
 10
74.09935300881891
 20
-140.2949679553776
 30
0.0
 10
74.19374862511476
 20
-140.2935899171836
 30
0.0
 10
74.2909003177988
 20
-140.1964382244995
 30
0.0
 10
74.37461613809037
 20
-140.1127224042079
 30
0.0
 10
74.41664630301042
 20
-139.9687174129245
 30
0.0
 10
74.27746444540634
 20
-139.8295355553204
 30
0.0
 10
74.09349634649399
 20
-139.6455674564081
 30
0.0
 10
73.92434215816823
 20
-139.803008320084
 30
0.0
 10
73.83890379013403
 20
-139.8822455162447
 30
0.0
 10
73.83890379013403
 20
-139.8822455162447
 30
0.0
 10
73.6806016525868
 20
-139.7237711239232
 30
0.0
 10
73.6806016525868
 20
-139.7237711239232
 30
0.0
 10
73.77620305230248
 20
-139.6397107940831
 30
0.0
 10
73.86301945853077
 20
-139.5680528079899
 30
0.0
 10
74.00357935432896
 20
-139.541181063205
 30
0.0
 10
74.19512666330886
 20
-139.5053520701584
 30
0.0
 10
74.35084497924215
 20
-139.6128390492982
 30
0.0
 10
74.43318276133962
 20
-139.6951768313957
 30
0.0
 10
74.62920869445034
 20
-139.8912027645064
 30
0.0
 10
74.64540064323101
 20
-140.1678439319719
 30
0.0
 10
74.45247529605702
 20
-140.3607692791459
 30
0.0
 10
74.2909003177988
 20
-140.5223442574041
 30
0.0
 10
74.13828258780224
 20
-140.5102864232058
 30
0.0
 10
73.75966659397328
 20
-140.452064309505
 30
0.0
  0
HATCH
  5
6E
330
69
100
AcDbEntity
  8
_U+30EC_U+30A4_U+30E4_U+30FC 1
 62
     7
420
 16777215
100
AcDbHatch
 10
0.0
 20
0.0
 30
0.0
210
0.0
220
0.0
230
1.0
  2
SOLID
 70
     1
 71
     0
 91
        1
 92
        1
 93
        1
 72
     4
 94
        3
 73
     0
 74
     1
 95
       44
 96
       40
 40
0.0
 40
0.0
 40
0.0
 40
0.0
 40
1.0
 40
1.0
 40
1.0
 40
2.0
 40
2.0
 40
2.0
 40
3.0
 40
3.0
 40
3.0
 40
4.0
 40
4.0
 40
4.0
 40
5.0
 40
5.0
 40
5.0
 40
6.0
 40
6.0
 40
6.0
 40
7.0
 40
7.0
 40
7.0
 40
8.0
 40
8.0
 40
8.0
 40
9.0
 40
9.0
 40
9.0
 40
10.0
 40
10.0
 40
10.0
 40
11.0
 40
11.0
 40
11.0
 40
12.0
 40
12.0
 40
12.0
 40
13.0
 40
13.0
 40
13.0
 40
13.0
 10
73.75966659397328
 20
-140.452064309505
 10
73.49353296773774
 20
-140.410034144585
 10
73.37536619259366
 20
-140.3965982721925
 10
73.2392849209263
 20
-140.4641221437034
 10
73.2392849209263
 20
-140.4641221437034
 10
73.78981117946921
 20
-141.0146484022463
 10
73.78981117946921
 20
-141.0146484022463
 10
73.78981117946921
 20
-141.0146484022463
 10
73.64460040476594
 20
-141.1596869221754
 10
73.64460040476594
 20
-141.1596869221754
 10
73.64460040476594
 20
-141.1596869221754
 10
72.91768525737822
 20
-140.4327717747877
 10
72.91768525737822
 20
-140.4327717747877
 10
73.19294838664969
 20
-140.2022948868244
 10
73.2944064486903
 20
-140.1929931290143
 10
73.77792560004511
 20
-140.2546603382002
 10
74.09935300881891
 20
-140.2949679553776
 10
74.19374862511476
 20
-140.2935899171836
 10
74.2909003177988
 20
-140.1964382244995
 10
74.37461613809037
 20
-140.1127224042079
 10
74.41664630301042
 20
-139.9687174129245
 10
74.27746444540634
 20
-139.8295355553204
 10
74.09349634649399
 20
-139.6455674564081
 10
73.92434215816823
 20
-139.803008320084
 10
73.83890379013403
 20
-139.8822455162447
 10
73.83890379013403
 20
-139.8822455162447
 10
73.6806016525868
 20
-139.7237711239232
 10
73.6806016525868
 20
-139.7237711239232
 10
73.77620305230248
 20
-139.6397107940831
 10
73.86301945853077
 20
-139.5680528079899
 10
74.00357935432896
 20
-139.541181063205
 10
74.19512666330886
 20
-139.5053520701584
 10
74.35084497924215
 20
-139.6128390492982
 10
74.43318276133962
 20
-139.6951768313957
 10
74.62920869445034
 20
-139.8912027645064
 10
74.64540064323101
 20
-140.1678439319719
 10
74.45247529605702
 20
-140.3607692791459
 10
74.2909003177988
 20
-140.5223442574041
 10
74.13828258780224
 20
-140.5102864232058
 10
73.75966659397328
 20
-140.452064309505
 97
        0
 97
        0
 75
     2
 76
     1
 98
        0
  0
SPLINE
  5
6F
330
69
100
AcDbEntity
  8
_U+30EC_U+30A4_U+30E4_U+30FC 1
370
     0
100
AcDbSpline
210
0.0
220
0.0
230
1.0
 70
    11
 71
     3
 72
    29
 73
    25
 74
     0
 42
0.0000000001
 43
0.0000000001
 12
1.0
 22
0.0
 32
0.0
 13
1.0
 23
0.0
 33
0.0
 40
0.0
 40
0.0
 40
0.0
 40
0.0
 40
1.0
 40
1.0
 40
1.0
 40
2.0
 40
2.0
 40
2.0
 40
3.0
 40
3.0
 40
3.0
 40
4.0
 40
4.0
 40
4.0
 40
5.0
 40
5.0
 40
5.0
 40
6.0
 40
6.0
 40
6.0
 40
7.0
 40
7.0
 40
7.0
 40
8.0
 40
8.0
 40
8.0
 40
8.0
 10
74.52172171531055
 20
-141.7853162622967
 30
0.0
 10
74.29710148967226
 20
-141.8569742483899
 30
0.0
 10
74.16136472755342
 20
-141.748109231056
 30
0.0
 10
74.07902694545594
 20
-141.6657714489586
 30
0.0
 10
73.96499428489417
 20
-141.5517387883968
 30
0.0
 10
73.8978149229318
 20
-141.4191026122147
 30
0.0
 10
73.95948213211777
 20
-141.223076679104
 30
0.0
 10
74.02356090814342
 20
-141.0122368354067
 30
0.0
 10
74.17755667633409
 20
-140.830680303334
 30
0.0
 10
74.29262286554143
 20
-140.7156141141267
 30
0.0
 10
74.3942531823563
 20
-140.6139837973118
 30
0.0
 10
74.58476696269062
 20
-140.4482747044713
 30
0.0
 10
74.80008543051873
 20
-140.382473380703
 30
0.0
 10
75.01988252247767
 20
-140.3149495091921
 30
0.0
 10
75.15010713182012
 20
-140.4121012018761
 30
0.0
 10
75.24140216217924
 20
-140.5033962322353
 30
0.0
 10
75.35371227499839
 20
-140.6157063450544
 30
0.0
 10
75.42399222289748
 20
-140.748687030785
 30
0.0
 10
75.36232501371151
 20
-140.9447129638958
 30
0.0
 10
75.29652368994323
 20
-141.1510741834622
 30
0.0
 10
75.15148517001421
 20
-141.3291856200497
 30
0.0
 10
75.02883977073932
 20
-141.4518310193245
 30
0.0
 10
74.90757240965853
 20
-141.5730983804054
 30
0.0
 10
74.72946097307111
 20
-141.7208929767226
 30
0.0
 10
74.52172171531055
 20
-141.7853162622967
 30
0.0
  0
SPLINE
  5
70
330
69
100
AcDbEntity
  8
_U+30EC_U+30A4_U+30E4_U+30FC 1
370
     0
100
AcDbSpline
210
0.0
220
0.0
230
1.0
 70
    11
 71
     3
 72
    17
 73
    13
 74
     0
 42
0.0000000001
 43
0.0000000001
 12
1.0
 22
0.0
 32
0.0
 13
1.0
 23
0.0
 33
0.0
 40
0.0
 40
0.0
 40
0.0
 40
0.0
 40
1.0
 40
1.0
 40
1.0
 40
2.0
 40
2.0
 40
2.0
 40
3.0
 40
3.0
 40
3.0
 40
4.0
 40
4.0
 40
4.0
 40
4.0
 10
75.10532089051186
 20
-140.6394775039026
 30
0.0
 10
74.92858749211855
 20
-140.4627441055093
 30
0.0
 10
74.69535452776714
 20
-140.630520255641
 30
0.0
 10
74.45144176741145
 20
-140.8744330159967
 30
0.0
 10
74.22544350357906
 20
-141.1004312798291
 30
0.0
 10
74.03251815640508
 20
-141.3443440401848
 30
0.0
 10
74.2164862553174
 20
-141.5283121390971
 30
0.0
 10
74.3914971059681
 20
-141.7033229897478
 30
0.0
 10
74.62507457986804
 20
-141.5386474255529
 30
0.0
 10
74.87036537841783
 20
-141.293356627003
 30
0.0
 10
75.09636364225022
 20
-141.0673583631707
 30
0.0
 10
75.28756644168159
 20
-140.8217230550723
 30
0.0
 10
75.10532089051186
 20
-140.6394775039026
 30
0.0
  0
HATCH
  5
71
330
69
100
AcDbEntity
  8
_U+30EC_U+30A4_U+30E4_U+30FC 1
 62
     7
420
 16777215
100
AcDbHatch
 10
0.0
 20
0.0
 30
0.0
210
0.0
220
0.0
230
1.0
  2
SOLID
 70
     1
 71
     0
 91
        2
 92
        1
 93
        1
 72
     4
 94
        3
 73
     0
 74
     1
 95
       29
 96
       25
 40
0.0
 40
0.0
 40
0.0
 40
0.0
 40
1.0
 40
1.0
 40
1.0
 40
2.0
 40
2.0
 40
2.0
 40
3.0
 40
3.0
 40
3.0
 40
4.0
 40
4.0
 40
4.0
 40
5.0
 40
5.0
 40
5.0
 40
6.0
 40
6.0
 40
6.0
 40
7.0
 40
7.0
 40
7.0
 40
8.0
 40
8.0
 40
8.0
 40
8.0
 10
74.52172171531055
 20
-141.7853162622967
 10
74.29710148967226
 20
-141.8569742483899
 10
74.16136472755342
 20
-141.748109231056
 10
74.07902694545594
 20
-141.6657714489586
 10
73.96499428489417
 20
-141.5517387883968
 10
73.8978149229318
 20
-141.4191026122147
 10
73.95948213211777
 20
-141.223076679104
 10
74.02356090814342
 20
-141.0122368354067
 10
74.17755667633409
 20
-140.830680303334
 10
74.29262286554143
 20
-140.7156141141267
 10
74.3942531823563
 20
-140.6139837973118
 10
74.58476696269062
 20
-140.4482747044713
 10
74.80008543051873
 20
-140.382473380703
 10
75.01988252247767
 20
-140.3149495091921
 10
75.15010713182012
 20
-140.4121012018761
 10
75.24140216217924
 20
-140.5033962322353
 10
75.35371227499839
 20
-140.6157063450544
 10
75.42399222289748
 20
-140.748687030785
 10
75.36232501371151
 20
-140.9447129638958
 10
75.29652368994323
 20
-141.1510741834622
 10
75.15148517001421
 20
-141.3291856200497
 10
75.02883977073932
 20
-141.4518310193245
 10
74.90757240965853
 20
-141.5730983804054
 10
74.72946097307111
 20
-141.7208929767226
 10
74.52172171531055
 20
-141.7853162622967
 97
        0
 97
        0
 92
        1
 93
        1
 72
     4
 94
        3
 73
     0
 74
     1
 95
       17
 96
       13
 40
0.0
 40
0.0
 40
0.0
 40
0.0
 40
1.0
 40
1.0
 40
1.0
 40
2.0
 40
2.0
 40
2.0
 40
3.0
 40
3.0
 40
3.0
 40
4.0
 40
4.0
 40
4.0
 40
4.0
 10
75.10532089051186
 20
-140.6394775039026
 10
74.92858749211855
 20
-140.4627441055093
 10
74.69535452776714
 20
-140.630520255641
 10
74.45144176741145
 20
-140.8744330159967
 10
74.22544350357906
 20
-141.1004312798291
 10
74.03251815640508
 20
-141.3443440401848
 10
74.2164862553174
 20
-141.5283121390971
 10
74.3914971059681
 20
-141.7033229897478
 10
74.62507457986804
 20
-141.5386474255529
 10
74.87036537841783
 20
-141.293356627003
 10
75.09636364225022
 20
-141.0673583631707
 10
75.28756644168159
 20
-140.8217230550723
 10
75.10532089051186
 20
-140.6394775039026
 97
        0
 97
        0
 75
     2
 76
     1
 98
        0
  0
ENDBLK
  5
6C
330
69
100
AcDbEntity
  8
0
100
AcDbBlockEnd
  0
BLOCK
  5
8E
330
8C
100
AcDbEntity
  8
0
100
AcDbBlockBegin
  2
block 5
 70
     0
 10
0.0
 20
0.0
 30
0.0
  3
block 5
  1

  0
SPLINE
  5
90
330
8C
100
AcDbEntity
  8
_U+30EC_U+30A4_U+30E4_U+30FC 1
370
     0
100
AcDbSpline
210
0.0
220
0.0
230
1.0
 70
    11
 71
     3
 72
    44
 73
    40
 74
     0
 42
0.0000000001
 43
0.0000000001
 12
1.0
 22
0.0
 32
0.0
 13
1.0
 23
0.0
 33
0.0
 40
0.0
 40
0.0
 40
0.0
 40
0.0
 40
1.0
 40
1.0
 40
1.0
 40
2.0
 40
2.0
 40
2.0
 40
3.0
 40
3.0
 40
3.0
 40
4.0
 40
4.0
 40
4.0
 40
5.0
 40
5.0
 40
5.0
 40
6.0
 40
6.0
 40
6.0
 40
7.0
 40
7.0
 40
7.0
 40
8.0
 40
8.0
 40
8.0
 40
9.0
 40
9.0
 40
9.0
 40
10.0
 40
10.0
 40
10.0
 40
11.0
 40
11.0
 40
11.0
 40
12.0
 40
12.0
 40
12.0
 40
13.0
 40
13.0
 40
13.0
 40
13.0
 10
115.4079426794814
 20
-119.2240749484926
 30
0.0
 10
115.5664170718028
 20
-119.4418049831604
 30
0.0
 10
115.6404866247357
 20
-119.5348225612621
 30
0.0
 10
115.7844916160192
 20
-119.5837429171527
 30
0.0
 10
115.7844916160192
 20
-119.5837429171527
 30
0.0
 10
115.7844916160192
 20
-118.8051513374862
 30
0.0
 10
115.7844916160192
 20
-118.8051513374862
 30
0.0
 10
115.7844916160192
 20
-118.8051513374862
 30
0.0
 10
115.9894747973915
 20
-118.8051513374862
 30
0.0
 10
115.9894747973915
 20
-118.8051513374862
 30
0.0
 10
115.9894747973915
 20
-118.8051513374862
 30
0.0
 10
115.9894747973915
 20
-119.8331678302848
 30
0.0
 10
115.9894747973915
 20
-119.8331678302848
 30
0.0
 10
115.6322183955711
 20
-119.8014729518205
 30
0.0
 10
115.5536702185074
 20
-119.7360161376007
 30
0.0
 10
115.2553249494848
 20
-119.3508544623498
 30
0.0
 10
115.0565429399859
 20
-119.0948838677957
 30
0.0
 10
114.989019068475
 20
-119.029427053576
 30
0.0
 10
114.8515597586135
 20
-119.029427053576
 30
0.0
 10
114.7330484739209
 20
-119.029427053576
 30
0.0
 10
114.6017903359329
 20
-119.1014295492177
 30
0.0
 10
114.6017903359329
 20
-119.2981445014255
 30
0.0
 10
114.6017903359329
 20
-119.5582492105618
 30
0.0
 10
114.8322672238961
 20
-119.566861949275
 30
0.0
 10
114.9487114512976
 20
-119.5709960638573
 30
0.0
 10
114.9487114512976
 20
-119.5709960638573
 30
0.0
 10
114.9487114512976
 20
-119.795271779947
 30
0.0
 10
114.9487114512976
 20
-119.795271779947
 30
0.0
 10
114.8219319374404
 20
-119.7866590412339
 30
0.0
 10
114.7096218246212
 20
-119.7759792452296
 30
0.0
 10
114.5911105399286
 20
-119.6957085204233
 30
0.0
 10
114.430569090316
 20
-119.5858099744438
 30
0.0
 10
114.396462645012
 20
-119.3994303086918
 30
0.0
 10
114.396462645012
 20
-119.2833305908389
 30
0.0
 10
114.396462645012
 20
-119.0060004042763
 30
0.0
 10
114.5807752534729
 20
-118.7986056560642
 30
0.0
 10
114.8536268159046
 20
-118.7986056560642
 30
0.0
 10
115.0820366465767
 20
-118.7986056560642
 30
0.0
 10
115.1815999061004
 20
-118.9150498834657
 30
0.0
 10
115.4079426794814
 20
-119.2240749484926
 30
0.0
  0
HATCH
  5
91
330
8C
100
AcDbEntity
  8
_U+30EC_U+30A4_U+30E4_U+30FC 1
 62
     7
420
 16777215
100
AcDbHatch
 10
0.0
 20
0.0
 30
0.0
210
0.0
220
0.0
230
1.0
  2
SOLID
 70
     1
 71
     0
 91
        1
 92
        1
 93
        1
 72
     4
 94
        3
 73
     0
 74
     1
 95
       44
 96
       40
 40
0.0
 40
0.0
 40
0.0
 40
0.0
 40
1.0
 40
1.0
 40
1.0
 40
2.0
 40
2.0
 40
2.0
 40
3.0
 40
3.0
 40
3.0
 40
4.0
 40
4.0
 40
4.0
 40
5.0
 40
5.0
 40
5.0
 40
6.0
 40
6.0
 40
6.0
 40
7.0
 40
7.0
 40
7.0
 40
8.0
 40
8.0
 40
8.0
 40
9.0
 40
9.0
 40
9.0
 40
10.0
 40
10.0
 40
10.0
 40
11.0
 40
11.0
 40
11.0
 40
12.0
 40
12.0
 40
12.0
 40
13.0
 40
13.0
 40
13.0
 40
13.0
 10
115.4079426794814
 20
-119.2240749484926
 10
115.5664170718028
 20
-119.4418049831604
 10
115.6404866247357
 20
-119.5348225612621
 10
115.7844916160192
 20
-119.5837429171527
 10
115.7844916160192
 20
-119.5837429171527
 10
115.7844916160192
 20
-118.8051513374862
 10
115.7844916160192
 20
-118.8051513374862
 10
115.7844916160192
 20
-118.8051513374862
 10
115.9894747973915
 20
-118.8051513374862
 10
115.9894747973915
 20
-118.8051513374862
 10
115.9894747973915
 20
-118.8051513374862
 10
115.9894747973915
 20
-119.8331678302848
 10
115.9894747973915
 20
-119.8331678302848
 10
115.6322183955711
 20
-119.8014729518205
 10
115.5536702185074
 20
-119.7360161376007
 10
115.2553249494848
 20
-119.3508544623498
 10
115.0565429399859
 20
-119.0948838677957
 10
114.989019068475
 20
-119.029427053576
 10
114.8515597586135
 20
-119.029427053576
 10
114.7330484739209
 20
-119.029427053576
 10
114.6017903359329
 20
-119.1014295492177
 10
114.6017903359329
 20
-119.2981445014255
 10
114.6017903359329
 20
-119.5582492105618
 10
114.8322672238961
 20
-119.566861949275
 10
114.9487114512976
 20
-119.5709960638573
 10
114.9487114512976
 20
-119.5709960638573
 10
114.9487114512976
 20
-119.795271779947
 10
114.9487114512976
 20
-119.795271779947
 10
114.8219319374404
 20
-119.7866590412339
 10
114.7096218246212
 20
-119.7759792452296
 10
114.5911105399286
 20
-119.6957085204233
 10
114.430569090316
 20
-119.5858099744438
 10
114.396462645012
 20
-119.3994303086918
 10
114.396462645012
 20
-119.2833305908389
 10
114.396462645012
 20
-119.0060004042763
 10
114.5807752534729
 20
-118.7986056560642
 10
114.8536268159046
 20
-118.7986056560642
 10
115.0820366465767
 20
-118.7986056560642
 10
115.1815999061004
 20
-118.9150498834657
 10
115.4079426794814
 20
-119.2240749484926
 97
        0
 97
        0
 75
     2
 76
     1
 98
        0
  0
SPLINE
  5
92
330
8C
100
AcDbEntity
  8
_U+30EC_U+30A4_U+30E4_U+30FC 1
370
     0
100
AcDbSpline
210
0.0
220
0.0
230
1.0
 70
    11
 71
     3
 72
    53
 73
    49
 74
     0
 42
0.0000000001
 43
0.0000000001
 12
1.0
 22
0.0
 32
0.0
 13
1.0
 23
0.0
 33
0.0
 40
0.0
 40
0.0
 40
0.0
 40
0.0
 40
1.0
 40
1.0
 40
1.0
 40
2.0
 40
2.0
 40
2.0
 40
3.0
 40
3.0
 40
3.0
 40
4.0
 40
4.0
 40
4.0
 40
5.0
 40
5.0
 40
5.0
 40
6.0
 40
6.0
 40
6.0
 40
7.0
 40
7.0
 40
7.0
 40
8.0
 40
8.0
 40
8.0
 40
9.0
 40
9.0
 40
9.0
 40
10.0
 40
10.0
 40
10.0
 40
11.0
 40
11.0
 40
11.0
 40
12.0
 40
12.0
 40
12.0
 40
13.0
 40
13.0
 40
13.0
 40
14.0
 40
14.0
 40
14.0
 40
15.0
 40
15.0
 40
15.0
 40
16.0
 40
16.0
 40
16.0
 40
16.0
 10
116.0404622105732
 20
-118.1591959340019
 30
0.0
 10
116.0404622105732
 20
-118.237399601517
 30
0.0
 10
116.0235812426955
 20
-118.3390299183319
 30
0.0
 10
115.9598469762184
 20
-118.4406602351468
 30
0.0
 10
115.8499484302389
 20
-118.6139485380549
 30
0.0
 10
115.7186902922509
 20
-118.6353081300634
 30
0.0
 10
115.6108588035626
 20
-118.6542561552323
 30
0.0
 10
115.6108588035626
 20
-118.6542561552323
 30
0.0
 10
115.6108588035626
 20
-118.4320474964337
 30
0.0
 10
115.6108588035626
 20
-118.4320474964337
 30
0.0
 10
115.8096408130615
 20
-118.3772704782182
 30
0.0
 10
115.8392686342346
 20
-118.2501464548125
 30
0.0
 10
115.8392686342346
 20
-118.1571288767107
 30
0.0
 10
115.8392686342346
 20
-118.0176025095581
 30
0.0
 10
115.7400498842594
 20
-117.8653292891101
 30
0.0
 10
115.5071614294565
 20
-117.8653292891101
 30
0.0
 10
115.2511908349025
 20
-117.8653292891101
 30
0.0
 10
115.1815999061004
 20
-118.0451632734401
 30
0.0
 10
115.1815999061004
 20
-118.1657416154239
 30
0.0
 10
115.1815999061004
 20
-118.1974364938881
 30
0.0
 10
115.1815999061004
 20
-118.3390299183319
 30
0.0
 10
115.3104464772488
 20
-118.4279133818514
 30
0.0
 10
115.3104464772488
 20
-118.4279133818514
 30
0.0
 10
115.2914984520799
 20
-118.6036132515991
 30
0.0
 10
115.2914984520799
 20
-118.6036132515991
 30
0.0
 10
115.2914984520799
 20
-118.6036132515991
 30
0.0
 10
114.4453830009026
 20
-118.4830349096154
 30
0.0
 10
114.4453830009026
 20
-118.4830349096154
 30
0.0
 10
114.4453830009026
 20
-118.4830349096154
 30
0.0
 10
114.4453830009026
 20
-117.7044433299489
 30
0.0
 10
114.4453830009026
 20
-117.7044433299489
 30
0.0
 10
114.4453830009026
 20
-117.7044433299489
 30
0.0
 10
114.6400308958192
 20
-117.7044433299489
 30
0.0
 10
114.6400308958192
 20
-117.7044433299489
 30
0.0
 10
114.6400308958192
 20
-117.7044433299489
 30
0.0
 10
114.6400308958192
 20
-118.320081893163
 30
0.0
 10
114.6400308958192
 20
-118.320081893163
 30
0.0
 10
114.6400308958192
 20
-118.320081893163
 30
0.0
 10
115.0630886214078
 20
-118.3855387073828
 30
0.0
 10
115.0630886214078
 20
-118.3855387073828
 30
0.0
 10
115.0289821761039
 20
-118.3242160077453
 30
0.0
 10
114.989019068475
 20
-118.2418782256479
 30
0.0
 10
114.989019068475
 20
-118.1233669409553
 30
0.0
 10
114.989019068475
 20
-117.8694634036924
 30
0.0
 10
115.1750542246785
 20
-117.6324408343072
 30
0.0
 10
115.4882134042877
 20
-117.6324408343072
 30
0.0
 10
115.8055066984792
 20
-117.6324408343072
 30
0.0
 10
116.0404622105732
 20
-117.8567165503969
 30
0.0
 10
116.0404622105732
 20
-118.1591959340019
 30
0.0
  0
HATCH
  5
93
330
8C
100
AcDbEntity
  8
_U+30EC_U+30A4_U+30E4_U+30FC 1
 62
     7
420
 16777215
100
AcDbHatch
 10
0.0
 20
0.0
 30
0.0
210
0.0
220
0.0
230
1.0
  2
SOLID
 70
     1
 71
     0
 91
        1
 92
        1
 93
        1
 72
     4
 94
        3
 73
     0
 74
     1
 95
       53
 96
       49
 40
0.0
 40
0.0
 40
0.0
 40
0.0
 40
1.0
 40
1.0
 40
1.0
 40
2.0
 40
2.0
 40
2.0
 40
3.0
 40
3.0
 40
3.0
 40
4.0
 40
4.0
 40
4.0
 40
5.0
 40
5.0
 40
5.0
 40
6.0
 40
6.0
 40
6.0
 40
7.0
 40
7.0
 40
7.0
 40
8.0
 40
8.0
 40
8.0
 40
9.0
 40
9.0
 40
9.0
 40
10.0
 40
10.0
 40
10.0
 40
11.0
 40
11.0
 40
11.0
 40
12.0
 40
12.0
 40
12.0
 40
13.0
 40
13.0
 40
13.0
 40
14.0
 40
14.0
 40
14.0
 40
15.0
 40
15.0
 40
15.0
 40
16.0
 40
16.0
 40
16.0
 40
16.0
 10
116.0404622105732
 20
-118.1591959340019
 10
116.0404622105732
 20
-118.237399601517
 10
116.0235812426955
 20
-118.3390299183319
 10
115.9598469762184
 20
-118.4406602351468
 10
115.8499484302389
 20
-118.6139485380549
 10
115.7186902922509
 20
-118.6353081300634
 10
115.6108588035626
 20
-118.6542561552323
 10
115.6108588035626
 20
-118.6542561552323
 10
115.6108588035626
 20
-118.4320474964337
 10
115.6108588035626
 20
-118.4320474964337
 10
115.8096408130615
 20
-118.3772704782182
 10
115.8392686342346
 20
-118.2501464548125
 10
115.8392686342346
 20
-118.1571288767107
 10
115.8392686342346
 20
-118.0176025095581
 10
115.7400498842594
 20
-117.8653292891101
 10
115.5071614294565
 20
-117.8653292891101
 10
115.2511908349025
 20
-117.8653292891101
 10
115.1815999061004
 20
-118.0451632734401
 10
115.1815999061004
 20
-118.1657416154239
 10
115.1815999061004
 20
-118.1974364938881
 10
115.1815999061004
 20
-118.3390299183319
 10
115.3104464772488
 20
-118.4279133818514
 10
115.3104464772488
 20
-118.4279133818514
 10
115.2914984520799
 20
-118.6036132515991
 10
115.2914984520799
 20
-118.6036132515991
 10
115.2914984520799
 20
-118.6036132515991
 10
114.4453830009026
 20
-118.4830349096154
 10
114.4453830009026
 20
-118.4830349096154
 10
114.4453830009026
 20
-118.4830349096154
 10
114.4453830009026
 20
-117.7044433299489
 10
114.4453830009026
 20
-117.7044433299489
 10
114.4453830009026
 20
-117.7044433299489
 10
114.6400308958192
 20
-117.7044433299489
 10
114.6400308958192
 20
-117.7044433299489
 10
114.6400308958192
 20
-117.7044433299489
 10
114.6400308958192
 20
-118.320081893163
 10
114.6400308958192
 20
-118.320081893163
 10
114.6400308958192
 20
-118.320081893163
 10
115.0630886214078
 20
-118.3855387073828
 10
115.0630886214078
 20
-118.3855387073828
 10
115.0289821761039
 20
-118.3242160077453
 10
114.989019068475
 20
-118.2418782256479
 10
114.989019068475
 20
-118.1233669409553
 10
114.989019068475
 20
-117.8694634036924
 10
115.1750542246785
 20
-117.6324408343072
 10
115.4882134042877
 20
-117.6324408343072
 10
115.8055066984792
 20
-117.6324408343072
 10
116.0404622105732
 20
-117.8567165503969
 10
116.0404622105732
 20
-118.1591959340019
 97
        0
 97
        0
 75
     2
 76
     1
 98
        0
  0
ENDBLK
  5
8F
330
8C
100
AcDbEntity
  8
0
100
AcDbBlockEnd
  0
BLOCK
  5
AC
330
AA
100
AcDbEntity
  8
0
100
AcDbBlockBegin
  2
block 6
 70
     0
 10
0.0
 20
0.0
 30
0.0
  3
block 6
  1

  0
SPLINE
  5
AE
330
AA
100
AcDbEntity
  8
_U+30EC_U+30A4_U+30E4_U+30FC 1
370
     0
100
AcDbSpline
210
0.0
220
0.0
230
1.0
 70
    11
 71
     3
 72
    26
 73
    22
 74
     0
 42
0.0000000001
 43
0.0000000001
 12
1.0
 22
0.0
 32
0.0
 13
1.0
 23
0.0
 33
0.0
 40
0.0
 40
0.0
 40
0.0
 40
0.0
 40
1.0
 40
1.0
 40
1.0
 40
2.0
 40
2.0
 40
2.0
 40
3.0
 40
3.0
 40
3.0
 40
4.0
 40
4.0
 40
4.0
 40
5.0
 40
5.0
 40
5.0
 40
6.0
 40
6.0
 40
6.0
 40
7.0
 40
7.0
 40
7.0
 40
7.0
 10
115.98981930694
 20
-139.1367268532367
 30
0.0
 10
115.98981930694
 20
-139.1367268532367
 30
0.0
 10
114.8856662039175
 20
-139.1367268532367
 30
0.0
 10
114.8856662039175
 20
-139.1367268532367
 30
0.0
 10
114.8856662039175
 20
-139.1367268532367
 30
0.0
 10
114.8856662039175
 20
-139.4667670007236
 30
0.0
 10
114.8856662039175
 20
-139.4667670007236
 30
0.0
 10
114.8856662039175
 20
-139.4667670007236
 30
0.0
 10
114.7375270980517
 20
-139.4667670007236
 30
0.0
 10
114.7375270980517
 20
-139.4667670007236
 30
0.0
 10
114.7227131874652
 20
-139.1346597959455
 30
0.0
 10
114.5597601710128
 20
-139.0881510068946
 30
0.0
 10
114.4453830009026
 20
-139.0585231857215
 30
0.0
 10
114.4453830009026
 20
-139.0585231857215
 30
0.0
 10
114.4453830009026
 20
-138.9124511371469
 30
0.0
 10
114.4453830009026
 20
-138.9124511371469
 30
0.0
 10
114.4453830009026
 20
-138.9124511371469
 30
0.0
 10
115.98981930694
 20
-138.9124511371469
 30
0.0
 10
115.98981930694
 20
-138.9124511371469
 30
0.0
 10
115.98981930694
 20
-138.9124511371469
 30
0.0
 10
115.98981930694
 20
-139.1367268532367
 30
0.0
 10
115.98981930694
 20
-139.1367268532367
 30
0.0
  0
HATCH
  5
AF
330
AA
100
AcDbEntity
  8
_U+30EC_U+30A4_U+30E4_U+30FC 1
 62
     7
420
 16777215
100
AcDbHatch
 10
0.0
 20
0.0
 30
0.0
210
0.0
220
0.0
230
1.0
  2
SOLID
 70
     1
 71
     0
 91
        1
 92
        1
 93
        1
 72
     4
 94
        3
 73
     0
 74
     1
 95
       26
 96
       22
 40
0.0
 40
0.0
 40
0.0
 40
0.0
 40
1.0
 40
1.0
 40
1.0
 40
2.0
 40
2.0
 40
2.0
 40
3.0
 40
3.0
 40
3.0
 40
4.0
 40
4.0
 40
4.0
 40
5.0
 40
5.0
 40
5.0
 40
6.0
 40
6.0
 40
6.0
 40
7.0
 40
7.0
 40
7.0
 40
7.0
 10
115.98981930694
 20
-139.1367268532367
 10
115.98981930694
 20
-139.1367268532367
 10
114.8856662039175
 20
-139.1367268532367
 10
114.8856662039175
 20
-139.1367268532367
 10
114.8856662039175
 20
-139.1367268532367
 10
114.8856662039175
 20
-139.4667670007236
 10
114.8856662039175
 20
-139.4667670007236
 10
114.8856662039175
 20
-139.4667670007236
 10
114.7375270980517
 20
-139.4667670007236
 10
114.7375270980517
 20
-139.4667670007236
 10
114.7227131874652
 20
-139.1346597959455
 10
114.5597601710128
 20
-139.0881510068946
 10
114.4453830009026
 20
-139.0585231857215
 10
114.4453830009026
 20
-139.0585231857215
 10
114.4453830009026
 20
-138.9124511371469
 10
114.4453830009026
 20
-138.9124511371469
 10
114.4453830009026
 20
-138.9124511371469
 10
115.98981930694
 20
-138.9124511371469
 10
115.98981930694
 20
-138.9124511371469
 10
115.98981930694
 20
-138.9124511371469
 10
115.98981930694
 20
-139.1367268532367
 10
115.98981930694
 20
-139.1367268532367
 97
        0
 97
        0
 75
     2
 76
     1
 98
        0
  0
SPLINE
  5
B0
330
AA
100
AcDbEntity
  8
_U+30EC_U+30A4_U+30E4_U+30FC 1
370
     0
100
AcDbSpline
210
0.0
220
0.0
230
1.0
 70
    11
 71
     3
 72
    62
 73
    58
 74
     0
 42
0.0000000001
 43
0.0000000001
 12
1.0
 22
0.0
 32
0.0
 13
1.0
 23
0.0
 33
0.0
 40
0.0
 40
0.0
 40
0.0
 40
0.0
 40
1.0
 40
1.0
 40
1.0
 40
2.0
 40
2.0
 40
2.0
 40
3.0
 40
3.0
 40
3.0
 40
4.0
 40
4.0
 40
4.0
 40
5.0
 40
5.0
 40
5.0
 40
6.0
 40
6.0
 40
6.0
 40
7.0
 40
7.0
 40
7.0
 40
8.0
 40
8.0
 40
8.0
 40
9.0
 40
9.0
 40
9.0
 40
10.0
 40
10.0
 40
10.0
 40
11.0
 40
11.0
 40
11.0
 40
12.0
 40
12.0
 40
12.0
 40
13.0
 40
13.0
 40
13.0
 40
14.0
 40
14.0
 40
14.0
 40
15.0
 40
15.0
 40
15.0
 40
16.0
 40
16.0
 40
16.0
 40
17.0
 40
17.0
 40
17.0
 40
18.0
 40
18.0
 40
18.0
 40
19.0
 40
19.0
 40
19.0
 40
19.0
 10
116.0404622105732
 20
-137.9199191278464
 30
0.0
 10
116.0404622105732
 20
-138.0150037632393
 30
0.0
 10
116.0194471281132
 20
-138.2330783074556
 30
0.0
 10
115.8330674623612
 20
-138.3577907640217
 30
0.0
 10
115.7211018590906
 20
-138.4318603169546
 30
0.0
 10
115.6215385995668
 20
-138.4359944315368
 30
0.0
 10
115.5371337601782
 20
-138.4401285461192
 30
0.0
 10
115.5371337601782
 20
-138.4401285461192
 30
0.0
 10
115.5371337601782
 20
-138.2203314541602
 30
0.0
 10
115.5371337601782
 20
-138.2203314541602
 30
0.0
 10
115.6112033131111
 20
-138.218264396869
 30
0.0
 10
115.8461588252051
 20
-138.2075846008648
 30
0.0
 10
115.8461588252051
 20
-137.9240532424287
 30
0.0
 10
115.8461588252051
 20
-137.7865939325673
 30
0.0
 10
115.7762233868546
 20
-137.6343207121192
 30
0.0
 10
115.5478135561825
 20
-137.6343207121192
 30
0.0
 10
115.431369328781
 20
-137.6343207121192
 30
0.0
 10
115.3824489728905
 20
-137.6722167624569
 30
0.0
 10
115.3507540944262
 20
-137.7039116409213
 30
0.0
 10
115.2770290510419
 20
-137.7779811938541
 30
0.0
 10
115.2642821977464
 20
-137.8944254212556
 30
0.0
 10
115.2642821977464
 20
-137.9495469490196
 30
0.0
 10
115.2642821977464
 20
-137.9684949741884
 30
0.0
 10
115.2663492550376
 20
-138.004323967235
 30
0.0
 10
115.2704833696199
 20
-138.031884731117
 30
0.0
 10
115.2704833696199
 20
-138.031884731117
 30
0.0
 10
115.0758354747033
 20
-138.031884731117
 30
0.0
 10
115.0758354747033
 20
-138.031884731117
 30
0.0
 10
115.0820366465767
 20
-137.9939886807793
 30
0.0
 10
115.0844482134164
 20
-137.9516140063107
 30
0.0
 10
115.0844482134164
 20
-137.9450683248888
 30
0.0
 10
115.0844482134164
 20
-137.879611510669
 30
0.0
 10
115.0634331309564
 20
-137.6808295011701
 30
0.0
 10
114.8264105615712
 20
-137.6808295011701
 30
0.0
 10
114.6486436345323
 20
-137.6808295011701
 30
0.0
 10
114.5935221067683
 20
-137.8120876391581
 30
0.0
 10
114.5935221067683
 20
-137.9219861851376
 30
0.0
 10
114.5935221067683
 20
-138.1862250088562
 30
0.0
 10
114.8264105615712
 20
-138.1948377475694
 30
0.0
 10
114.8980685476644
 20
-138.1989718621517
 30
0.0
 10
114.8980685476644
 20
-138.1989718621517
 30
0.0
 10
114.8980685476644
 20
-138.4022324957814
 30
0.0
 10
114.8980685476644
 20
-138.4022324957814
 30
0.0
 10
114.7733560910983
 20
-138.3936197570683
 30
0.0
 10
114.3968071545605
 20
-138.3660589931863
 30
0.0
 10
114.3968071545605
 20
-137.9092393318421
 30
0.0
 10
114.3968071545605
 20
-137.6849636157524
 30
0.0
 10
114.5239311779662
 20
-137.4438069317849
 30
0.0
 10
114.8198648801492
 20
-137.4438069317849
 30
0.0
 10
115.0062445459012
 20
-137.4438069317849
 30
0.0
 10
115.0885823279987
 20
-137.5388915671778
 30
0.0
 10
115.1499050276361
 20
-137.6384548267015
 30
0.0
 10
115.1774657915181
 20
-137.5771321270641
 30
0.0
 10
115.2577365163245
 20
-137.3952310854429
 30
0.0
 10
115.5350667028871
 20
-137.3952310854429
 30
0.0
 10
115.8737195890871
 20
-137.3952310854429
 30
0.0
 10
116.0404622105732
 20
-137.6425889412838
 30
0.0
 10
116.0404622105732
 20
-137.9199191278464
 30
0.0
  0
HATCH
  5
B1
330
AA
100
AcDbEntity
  8
_U+30EC_U+30A4_U+30E4_U+30FC 1
 62
     7
420
 16777215
100
AcDbHatch
 10
0.0
 20
0.0
 30
0.0
210
0.0
220
0.0
230
1.0
  2
SOLID
 70
     1
 71
     0
 91
        1
 92
        1
 93
        1
 72
     4
 94
        3
 73
     0
 74
     1
 95
       62
 96
       58
 40
0.0
 40
0.0
 40
0.0
 40
0.0
 40
1.0
 40
1.0
 40
1.0
 40
2.0
 40
2.0
 40
2.0
 40
3.0
 40
3.0
 40
3.0
 40
4.0
 40
4.0
 40
4.0
 40
5.0
 40
5.0
 40
5.0
 40
6.0
 40
6.0
 40
6.0
 40
7.0
 40
7.0
 40
7.0
 40
8.0
 40
8.0
 40
8.0
 40
9.0
 40
9.0
 40
9.0
 40
10.0
 40
10.0
 40
10.0
 40
11.0
 40
11.0
 40
11.0
 40
12.0
 40
12.0
 40
12.0
 40
13.0
 40
13.0
 40
13.0
 40
14.0
 40
14.0
 40
14.0
 40
15.0
 40
15.0
 40
15.0
 40
16.0
 40
16.0
 40
16.0
 40
17.0
 40
17.0
 40
17.0
 40
18.0
 40
18.0
 40
18.0
 40
19.0
 40
19.0
 40
19.0
 40
19.0
 10
116.0404622105732
 20
-137.9199191278464
 10
116.0404622105732
 20
-138.0150037632393
 10
116.0194471281132
 20
-138.2330783074556
 10
115.8330674623612
 20
-138.3577907640217
 10
115.7211018590906
 20
-138.4318603169546
 10
115.6215385995668
 20
-138.4359944315368
 10
115.5371337601782
 20
-138.4401285461192
 10
115.5371337601782
 20
-138.4401285461192
 10
115.5371337601782
 20
-138.2203314541602
 10
115.5371337601782
 20
-138.2203314541602
 10
115.6112033131111
 20
-138.218264396869
 10
115.8461588252051
 20
-138.2075846008648
 10
115.8461588252051
 20
-137.9240532424287
 10
115.8461588252051
 20
-137.7865939325673
 10
115.7762233868546
 20
-137.6343207121192
 10
115.5478135561825
 20
-137.6343207121192
 10
115.431369328781
 20
-137.6343207121192
 10
115.3824489728905
 20
-137.6722167624569
 10
115.3507540944262
 20
-137.7039116409213
 10
115.2770290510419
 20
-137.7779811938541
 10
115.2642821977464
 20
-137.8944254212556
 10
115.2642821977464
 20
-137.9495469490196
 10
115.2642821977464
 20
-137.9684949741884
 10
115.2663492550376
 20
-138.004323967235
 10
115.2704833696199
 20
-138.031884731117
 10
115.2704833696199
 20
-138.031884731117
 10
115.0758354747033
 20
-138.031884731117
 10
115.0758354747033
 20
-138.031884731117
 10
115.0820366465767
 20
-137.9939886807793
 10
115.0844482134164
 20
-137.9516140063107
 10
115.0844482134164
 20
-137.9450683248888
 10
115.0844482134164
 20
-137.879611510669
 10
115.0634331309564
 20
-137.6808295011701
 10
114.8264105615712
 20
-137.6808295011701
 10
114.6486436345323
 20
-137.6808295011701
 10
114.5935221067683
 20
-137.8120876391581
 10
114.5935221067683
 20
-137.9219861851376
 10
114.5935221067683
 20
-138.1862250088562
 10
114.8264105615712
 20
-138.1948377475694
 10
114.8980685476644
 20
-138.1989718621517
 10
114.8980685476644
 20
-138.1989718621517
 10
114.8980685476644
 20
-138.4022324957814
 10
114.8980685476644
 20
-138.4022324957814
 10
114.7733560910983
 20
-138.3936197570683
 10
114.3968071545605
 20
-138.3660589931863
 10
114.3968071545605
 20
-137.9092393318421
 10
114.3968071545605
 20
-137.6849636157524
 10
114.5239311779662
 20
-137.4438069317849
 10
114.8198648801492
 20
-137.4438069317849
 10
115.0062445459012
 20
-137.4438069317849
 10
115.0885823279987
 20
-137.5388915671778
 10
115.1499050276361
 20
-137.6384548267015
 10
115.1774657915181
 20
-137.5771321270641
 10
115.2577365163245
 20
-137.3952310854429
 10
115.5350667028871
 20
-137.3952310854429
 10
115.8737195890871
 20
-137.3952310854429
 10
116.0404622105732
 20
-137.6425889412838
 10
116.0404622105732
 20
-137.9199191278464
 97
        0
 97
        0
 75
     2
 76
     1
 98
        0
  0
ENDBLK
  5
AD
330
AA
100
AcDbEntity
  8
0
100
AcDbBlockEnd
  0
BLOCK
  5
B4
330
B2
100
AcDbEntity
  8
0
100
AcDbBlockBegin
  2
block 7
 70
     0
 10
0.0
 20
0.0
 30
0.0
  3
block 7
  1

  0
SPLINE
  5
B6
330
B2
100
AcDbEntity
  8
_U+30EC_U+30A4_U+30E4_U+30FC 1
370
     0
100
AcDbSpline
210
0.0
220
0.0
230
1.0
 70
    11
 71
     3
 72
    26
 73
    22
 74
     0
 42
0.0000000001
 43
0.0000000001
 12
1.0
 22
0.0
 32
0.0
 13
1.0
 23
0.0
 33
0.0
 40
0.0
 40
0.0
 40
0.0
 40
0.0
 40
1.0
 40
1.0
 40
1.0
 40
2.0
 40
2.0
 40
2.0
 40
3.0
 40
3.0
 40
3.0
 40
4.0
 40
4.0
 40
4.0
 40
5.0
 40
5.0
 40
5.0
 40
6.0
 40
6.0
 40
6.0
 40
7.0
 40
7.0
 40
7.0
 40
7.0
 10
115.98981930694
 20
-131.6991102101308
 30
0.0
 10
115.98981930694
 20
-131.6991102101308
 30
0.0
 10
114.8856662039175
 20
-131.6991102101308
 30
0.0
 10
114.8856662039175
 20
-131.6991102101308
 30
0.0
 10
114.8856662039175
 20
-131.6991102101308
 30
0.0
 10
114.8856662039175
 20
-132.0291503576177
 30
0.0
 10
114.8856662039175
 20
-132.0291503576177
 30
0.0
 10
114.8856662039175
 20
-132.0291503576177
 30
0.0
 10
114.7375270980517
 20
-132.0291503576177
 30
0.0
 10
114.7375270980517
 20
-132.0291503576177
 30
0.0
 10
114.7227131874652
 20
-131.6970431528396
 30
0.0
 10
114.5597601710128
 20
-131.6505343637888
 30
0.0
 10
114.4453830009026
 20
-131.6209065426156
 30
0.0
 10
114.4453830009026
 20
-131.6209065426156
 30
0.0
 10
114.4453830009026
 20
-131.474834494041
 30
0.0
 10
114.4453830009026
 20
-131.474834494041
 30
0.0
 10
114.4453830009026
 20
-131.474834494041
 30
0.0
 10
115.98981930694
 20
-131.474834494041
 30
0.0
 10
115.98981930694
 20
-131.474834494041
 30
0.0
 10
115.98981930694
 20
-131.474834494041
 30
0.0
 10
115.98981930694
 20
-131.6991102101308
 30
0.0
 10
115.98981930694
 20
-131.6991102101308
 30
0.0
  0
HATCH
  5
B7
330
B2
100
AcDbEntity
  8
_U+30EC_U+30A4_U+30E4_U+30FC 1
 62
     7
420
 16777215
100
AcDbHatch
 10
0.0
 20
0.0
 30
0.0
210
0.0
220
0.0
230
1.0
  2
SOLID
 70
     1
 71
     0
 91
        1
 92
        1
 93
        1
 72
     4
 94
        3
 73
     0
 74
     1
 95
       26
 96
       22
 40
0.0
 40
0.0
 40
0.0
 40
0.0
 40
1.0
 40
1.0
 40
1.0
 40
2.0
 40
2.0
 40
2.0
 40
3.0
 40
3.0
 40
3.0
 40
4.0
 40
4.0
 40
4.0
 40
5.0
 40
5.0
 40
5.0
 40
6.0
 40
6.0
 40
6.0
 40
7.0
 40
7.0
 40
7.0
 40
7.0
 10
115.98981930694
 20
-131.6991102101308
 10
115.98981930694
 20
-131.6991102101308
 10
114.8856662039175
 20
-131.6991102101308
 10
114.8856662039175
 20
-131.6991102101308
 10
114.8856662039175
 20
-131.6991102101308
 10
114.8856662039175
 20
-132.0291503576177
 10
114.8856662039175
 20
-132.0291503576177
 10
114.8856662039175
 20
-132.0291503576177
 10
114.7375270980517
 20
-132.0291503576177
 10
114.7375270980517
 20
-132.0291503576177
 10
114.7227131874652
 20
-131.6970431528396
 10
114.5597601710128
 20
-131.6505343637888
 10
114.4453830009026
 20
-131.6209065426156
 10
114.4453830009026
 20
-131.6209065426156
 10
114.4453830009026
 20
-131.474834494041
 10
114.4453830009026
 20
-131.474834494041
 10
114.4453830009026
 20
-131.474834494041
 10
115.98981930694
 20
-131.474834494041
 10
115.98981930694
 20
-131.474834494041
 10
115.98981930694
 20
-131.474834494041
 10
115.98981930694
 20
-131.6991102101308
 10
115.98981930694
 20
-131.6991102101308
 97
        0
 97
        0
 75
     2
 76
     1
 98
        0
  0
ENDBLK
  5
B5
330
B2
100
AcDbEntity
  8
0
100
AcDbBlockEnd
  0
ENDSEC
  0
SECTION
  2
ENTITIES
  0
INSERT
  5
42
330
1F
100
AcDbEntity
  8
_U+30EC_U+30A4_U+30E4_U+30FC 1
100
AcDbBlockReference
  2
block 2
 10
0.0
 20
0.0
 30
0.0
  0
POLYLINE
  5
72
330
1F
100
AcDbEntity
  8
_U+30EC_U+30A4_U+30E4_U+30FC 1
 62
     7
420
 16777215
370
    25
100
AcDb2dPolyline
 66
     1
 10
0.0
 20
0.0
 30
0.0
  0
VERTEX
  5
73
330
72
100
AcDbEntity
  8
_U+30EC_U+30A4_U+30E4_U+30FC 1
 62
     7
420
 16777215
370
    25
100
AcDbVertex
100
AcDb2dVertex
 10
95.3929783996557
 20
-145.0219702415223
 30
0.0
  0
VERTEX
  5
74
330
72
100
AcDbEntity
  8
_U+30EC_U+30A4_U+30E4_U+30FC 1
 62
     7
420
 16777215
370
    25
100
AcDbVertex
100
AcDb2dVertex
 10
95.3929783996557
 20
-145.522209130286
 30
0.0
  0
VERTEX
  5
75
330
72
100
AcDbEntity
  8
_U+30EC_U+30A4_U+30E4_U+30FC 1
 62
     7
420
 16777215
370
    25
100
AcDbVertex
100
AcDb2dVertex
 10
83.06106704760231
 20
-145.8219291302109
 30
0.0
  0
VERTEX
  5
76
330
72
100
AcDbEntity
  8
_U+30EC_U+30A4_U+30E4_U+30FC 1
 62
     7
420
 16777215
370
    25
100
AcDbVertex
100
AcDb2dVertex
 10
68.91827685285939
 20
-131.6770571893028
 30
0.0
  0
VERTEX
  5
77
330
72
100
AcDbEntity
  8
_U+30EC_U+30A4_U+30E4_U+30FC 1
 62
     7
420
 16777215
370
    25
100
AcDbVertex
100
AcDb2dVertex
 10
69.2179968452129
 20
-119.3456746923859
 30
0.0
  0
VERTEX
  5
78
330
72
100
AcDbEntity
  8
_U+30EC_U+30A4_U+30E4_U+30FC 1
 62
     7
420
 16777215
370
    25
100
AcDbVertex
100
AcDb2dVertex
 10
69.71823572133962
 20
-119.3456746923859
 30
0.0
  0
VERTEX
  5
79
330
72
100
AcDbEntity
  8
_U+30EC_U+30A4_U+30E4_U+30FC 1
 62
     7
420
 16777215
370
    25
100
AcDbVertex
100
AcDb2dVertex
 10
69.71823572133962
 20
-131.3456577449414
 30
0.0
  0
VERTEX
  5
7A
330
72
100
AcDbEntity
  8
_U+30EC_U+30A4_U+30E4_U+30FC 1
 62
     7
420
 16777215
370
    25
100
AcDbVertex
100
AcDb2dVertex
 10
76.28251277609318
 20
-137.8947655210817
 30
0.0
  0
VERTEX
  5
7B
330
72
100
AcDbEntity
  8
_U+30EC_U+30A4_U+30E4_U+30FC 1
 62
     7
420
 16777215
370
    25
100
AcDbVertex
100
AcDb2dVertex
 10
82.68211316838133
 20
-131.4841230226845
 30
0.0
  0
VERTEX
  5
7C
330
72
100
AcDbEntity
  8
_U+30EC_U+30A4_U+30E4_U+30FC 1
 62
     7
420
 16777215
370
    25
100
AcDbVertex
100
AcDb2dVertex
 10
82.68211316838133
 20
-106.2276330289986
 30
0.0
  0
VERTEX
  5
7D
330
72
100
AcDbEntity
  8
_U+30EC_U+30A4_U+30E4_U+30FC 1
 62
     7
420
 16777215
370
    25
100
AcDbVertex
100
AcDb2dVertex
 10
83.48690509229382
 20
-106.2196955290005
 30
0.0
  0
VERTEX
  5
7E
330
72
100
AcDbEntity
  8
_U+30EC_U+30A4_U+30E4_U+30FC 1
 62
     7
420
 16777215
370
    25
100
AcDbVertex
100
AcDb2dVertex
 10
83.48690509229382
 20
-131.2195396894174
 30
0.0
  0
VERTEX
  5
7F
330
72
100
AcDbEntity
  8
_U+30EC_U+30A4_U+30E4_U+30FC 1
 62
     7
420
 16777215
370
    25
100
AcDbVertex
100
AcDb2dVertex
 10
108.4902058432954
 20
-131.2195396894174
 30
0.0
  0
VERTEX
  5
80
330
72
100
AcDbEntity
  8
_U+30EC_U+30A4_U+30E4_U+30FC 1
 62
     7
420
 16777215
370
    25
100
AcDbVertex
100
AcDb2dVertex
 10
108.4902058432954
 20
-132.0243316336608
 30
0.0
  0
VERTEX
  5
81
330
72
100
AcDbEntity
  8
_U+30EC_U+30A4_U+30E4_U+30FC 1
 62
     7
420
 16777215
370
    25
100
AcDbVertex
100
AcDb2dVertex
 10
83.28846759735639
 20
-132.0188283003286
 30
0.0
  0
VERTEX
  5
82
330
72
100
AcDbEntity
  8
_U+30EC_U+30A4_U+30E4_U+30FC 1
 62
     7
420
 16777215
370
    25
100
AcDbVertex
100
AcDb2dVertex
 10
76.83923331412349
 20
-138.4625260764957
 30
0.0
  0
VERTEX
  5
83
330
72
100
AcDbEntity
  8
_U+30EC_U+30A4_U+30E4_U+30FC 1
 62
     7
420
 16777215
370
    25
100
AcDbVertex
100
AcDb2dVertex
 10
83.39250176136892
 20
-145.0219702415223
 30
0.0
  0
VERTEX
  5
84
330
72
100
AcDbEntity
  8
_U+30EC_U+30A4_U+30E4_U+30FC 1
 62
     7
420
 16777215
370
    25
100
AcDbVertex
100
AcDb2dVertex
 10
95.3929783996557
 20
-145.0219702415223
 30
0.0
  0
SEQEND
  5
85
330
72
100
AcDbEntity
  8
_U+30EC_U+30A4_U+30E4_U+30FC 1
 62
     7
420
 16777215
370
    25
  0
SPLINE
  5
86
330
1F
100
AcDbEntity
  8
_U+30EC_U+30A4_U+30E4_U+30FC 1
 62
     7
420
 16777215
370
     9
100
AcDbSpline
210
0.0
220
0.0
230
1.0
 70
    11
 71
     3
 72
    17
 73
    13
 74
     0
 42
0.0000000001
 43
0.0000000001
 12
1.0
 22
0.0
 32
0.0
 13
1.0
 23
0.0
 33
0.0
 40
0.0
 40
0.0
 40
0.0
 40
0.0
 40
1.0
 40
1.0
 40
1.0
 40
2.0
 40
2.0
 40
2.0
 40
3.0
 40
3.0
 40
3.0
 40
4.0
 40
4.0
 40
4.0
 40
4.0
 10
112.390022966025
 20
-131.1596027449876
 30
0.0
 10
112.3514643558976
 20
-131.198549411645
 30
0.0
 10
112.35075880036
 20
-131.2619435782954
 30
0.0
 10
112.390022966025
 20
-131.3008549671747
 30
0.0
 10
112.4293224094668
 20
-131.3404719116095
 30
0.0
 10
112.4927194163214
 20
-131.3404719116095
 30
0.0
 10
112.5319807401811
 20
-131.3012077449524
 30
0.0
 10
112.5705746280854
 20
-131.2626138560734
 30
0.0
 10
112.5705746280854
 20
-131.1992196894224
 30
0.0
 10
112.5312751846435
 20
-131.1596027449876
 30
0.0
 10
112.4920138607659
 20
-131.120691356109
 30
0.0
 10
112.4293224094668
 20
-131.120691356109
 30
0.0
 10
112.390022966025
 20
-131.1596027449876
 30
0.0
  0
SPLINE
  5
87
330
1F
100
AcDbEntity
  8
_U+30EC_U+30A4_U+30E4_U+30FC 1
 62
     7
420
 16777215
370
     9
100
AcDbSpline
210
0.0
220
0.0
230
1.0
 70
    11
 71
     3
 72
    17
 73
    13
 74
     0
 42
0.0000000001
 43
0.0000000001
 12
1.0
 22
0.0
 32
0.0
 13
1.0
 23
0.0
 33
0.0
 40
0.0
 40
0.0
 40
0.0
 40
0.0
 40
1.0
 40
1.0
 40
1.0
 40
2.0
 40
2.0
 40
2.0
 40
3.0
 40
3.0
 40
3.0
 40
4.0
 40
4.0
 40
4.0
 40
4.0
 10
112.3913987993232
 20
-106.1573596956828
 30
0.0
 10
112.3528401891958
 20
-106.1962710845621
 30
0.0
 10
112.3528401891958
 20
-106.2596652512128
 30
0.0
 10
112.3913987993232
 20
-106.298576640092
 30
0.0
 10
112.430698242765
 20
-106.3378760845266
 30
0.0
 10
112.4940924078144
 20
-106.3378760845266
 30
0.0
 10
112.5326510179418
 20
-106.298576640092
 30
0.0
 10
112.5719504613836
 20
-106.2600180289905
 30
0.0
 10
112.5719504613836
 20
-106.1966238623398
 30
0.0
 10
112.5326510179418
 20
-106.1573596956828
 30
0.0
 10
112.4940924078144
 20
-106.118413029026
 30
0.0
 10
112.430698242765
 20
-106.118413029026
 30
0.0
 10
112.3913987993232
 20
-106.1573596956828
 30
0.0
  0
POLYLINE
  5
88
330
1F
100
AcDbEntity
  8
_U+30EC_U+30A4_U+30E4_U+30FC 1
 62
     7
420
 16777215
370
     9
100
AcDb2dPolyline
 66
     1
 10
0.0
 20
0.0
 30
0.0
  0
VERTEX
  5
89
330
88
100
AcDbEntity
  8
_U+30EC_U+30A4_U+30E4_U+30FC 1
 62
     7
420
 16777215
370
     9
100
AcDbVertex
100
AcDb2dVertex
 10
112.461001853103
 20
-131.2302288560815
 30
0.0
  0
VERTEX
  5
8A
330
88
100
AcDbEntity
  8
_U+30EC_U+30A4_U+30E4_U+30FC 1
 62
     7
420
 16777215
370
     9
100
AcDbVertex
100
AcDb2dVertex
 10
112.4623805274397
 20
-106.2279858067763
 30
0.0
  0
SEQEND
  5
8B
330
88
100
AcDbEntity
  8
_U+30EC_U+30A4_U+30E4_U+30FC 1
 62
     7
420
 16777215
370
     9
  0
INSERT
  5
8D
330
1F
100
AcDbEntity
  8
_U+30EC_U+30A4_U+30E4_U+30FC 1
100
AcDbBlockReference
  2
block 5
 10
0.0
 20
0.0
 30
0.0
  0
SPLINE
  5
94
330
1F
100
AcDbEntity
  8
_U+30EC_U+30A4_U+30E4_U+30FC 1
 62
     7
420
 16777215
370
     9
100
AcDbSpline
210
0.0
220
0.0
230
1.0
 70
    11
 71
     3
 72
    17
 73
    13
 74
     0
 42
0.0000000001
 43
0.0000000001
 12
1.0
 22
0.0
 32
0.0
 13
1.0
 23
0.0
 33
0.0
 40
0.0
 40
0.0
 40
0.0
 40
0.0
 40
1.0
 40
1.0
 40
1.0
 40
2.0
 40
2.0
 40
2.0
 40
3.0
 40
3.0
 40
3.0
 40
4.0
 40
4.0
 40
4.0
 40
4.0
 10
112.5691987947871
 20
-131.9995313558888
 30
0.0
 10
112.5691987947871
 20
-131.9437219114583
 30
0.0
 10
112.5243960181524
 20
-131.8989191336916
 30
0.0
 10
112.4692568528924
 20
-131.8989191336916
 30
0.0
 10
112.4141529654094
 20
-131.8989191336916
 30
0.0
 10
112.3693501887746
 20
-131.9437219114583
 30
0.0
 10
112.3693501887746
 20
-131.9995313558888
 30
0.0
 10
112.3693501887746
 20
-132.0546352447643
 30
0.0
 10
112.4141529654094
 20
-132.0994380225304
 30
0.0
 10
112.4692568528924
 20
-132.0994380225304
 30
0.0
 10
112.5243960181524
 20
-132.0994380225304
 30
0.0
 10
112.5691987947871
 20
-132.0546352447643
 30
0.0
 10
112.5691987947871
 20
-131.9995313558888
 30
0.0
  0
SPLINE
  5
95
330
1F
100
AcDbEntity
  8
_U+30EC_U+30A4_U+30E4_U+30FC 1
 62
     7
420
 16777215
370
     9
100
AcDbSpline
210
0.0
220
0.0
230
1.0
 70
    11
 71
     3
 72
    17
 73
    13
 74
     0
 42
0.0000000001
 43
0.0000000001
 12
1.0
 22
0.0
 32
0.0
 13
1.0
 23
0.0
 33
0.0
 40
0.0
 40
0.0
 40
0.0
 40
0.0
 40
1.0
 40
1.0
 40
1.0
 40
2.0
 40
2.0
 40
2.0
 40
3.0
 40
3.0
 40
3.0
 40
4.0
 40
4.0
 40
4.0
 40
4.0
 10
112.5691987947871
 20
-144.9992513526393
 30
0.0
 10
112.5691987947871
 20
-144.9441121859863
 30
0.0
 10
112.5243960181524
 20
-144.8993446859977
 30
0.0
 10
112.4692568528924
 20
-144.8993446859977
 30
0.0
 10
112.4141529654094
 20
-144.8993446859977
 30
0.0
 10
112.3693501887746
 20
-144.9441121859863
 30
0.0
 10
112.3693501887746
 20
-144.9992513526393
 30
0.0
 10
112.3693501887746
 20
-145.0543552415143
 30
0.0
 10
112.4141529654094
 20
-145.099158019281
 30
0.0
 10
112.4692568528924
 20
-145.099158019281
 30
0.0
 10
112.5243960181524
 20
-145.099158019281
 30
0.0
 10
112.5691987947871
 20
-145.0543552415143
 30
0.0
 10
112.5691987947871
 20
-144.9992513526393
 30
0.0
  0
POLYLINE
  5
96
330
1F
100
AcDbEntity
  8
_U+30EC_U+30A4_U+30E4_U+30FC 1
 62
     7
420
 16777215
370
     9
100
AcDb2dPolyline
 66
     1
 10
0.0
 20
0.0
 30
0.0
  0
VERTEX
  5
97
330
96
100
AcDbEntity
  8
_U+30EC_U+30A4_U+30E4_U+30FC 1
 62
     7
420
 16777215
370
     9
100
AcDbVertex
100
AcDb2dVertex
 10
112.4692568528924
 20
-144.9992513526393
 30
0.0
  0
VERTEX
  5
98
330
96
100
AcDbEntity
  8
_U+30EC_U+30A4_U+30E4_U+30FC 1
 62
     7
420
 16777215
370
     9
100
AcDbVertex
100
AcDb2dVertex
 10
112.4692568528924
 20
-131.2302288560815
 30
0.0
  0
SEQEND
  5
99
330
96
100
AcDbEntity
  8
_U+30EC_U+30A4_U+30E4_U+30FC 1
 62
     7
420
 16777215
370
     9
  0
POLYLINE
  5
9A
330
1F
100
AcDbEntity
  8
_U+30EC_U+30A4_U+30E4_U+30FC 1
 62
     7
420
 16777215
370
     9
100
AcDb2dPolyline
 66
     1
 10
0.0
 20
0.0
 30
0.0
  0
VERTEX
  5
9B
330
9A
100
AcDbEntity
  8
_U+30EC_U+30A4_U+30E4_U+30FC 1
 62
     7
420
 16777215
370
     9
100
AcDbVertex
100
AcDb2dVertex
 10
113.8293944159868
 20
-144.9992513526393
 30
0.0
  0
VERTEX
  5
9C
330
9A
100
AcDbEntity
  8
_U+30EC_U+30A4_U+30E4_U+30FC 1
 62
     7
420
 16777215
370
     9
100
AcDbVertex
100
AcDb2dVertex
 10
97.44279362513834
 20
-144.9992513526393
 30
0.0
  0
SEQEND
  5
9D
330
9A
100
AcDbEntity
  8
_U+30EC_U+30A4_U+30E4_U+30FC 1
 62
     7
420
 16777215
370
     9
  0
POLYLINE
  5
9E
330
1F
100
AcDbEntity
  8
_U+30EC_U+30A4_U+30E4_U+30FC 1
 62
     7
420
 16777215
370
     9
100
AcDb2dPolyline
 66
     1
 10
0.0
 20
0.0
 30
0.0
  0
VERTEX
  5
9F
330
9E
100
AcDbEntity
  8
_U+30EC_U+30A4_U+30E4_U+30FC 1
 62
     7
420
 16777215
370
     9
100
AcDbVertex
100
AcDb2dVertex
 10
113.8293944159868
 20
-131.9995313558888
 30
0.0
  0
VERTEX
  5
A0
330
9E
100
AcDbEntity
  8
_U+30EC_U+30A4_U+30E4_U+30FC 1
 62
     7
420
 16777215
370
     9
100
AcDbVertex
100
AcDb2dVertex
 10
110.5696544013553
 20
-131.9995313558888
 30
0.0
  0
SEQEND
  5
A1
330
9E
100
AcDbEntity
  8
_U+30EC_U+30A4_U+30E4_U+30FC 1
 62
     7
420
 16777215
370
     9
  0
POLYLINE
  5
A2
330
1F
100
AcDbEntity
  8
_U+30EC_U+30A4_U+30E4_U+30FC 1
 62
     7
420
 16777215
370
     9
100
AcDb2dPolyline
 66
     1
 10
0.0
 20
0.0
 30
0.0
  0
VERTEX
  5
A3
330
A2
100
AcDbEntity
  8
_U+30EC_U+30A4_U+30E4_U+30FC 1
 62
     7
420
 16777215
370
     9
100
AcDbVertex
100
AcDb2dVertex
 10
113.8293944159868
 20
-131.2302288560815
 30
0.0
  0
VERTEX
  5
A4
330
A2
100
AcDbEntity
  8
_U+30EC_U+30A4_U+30E4_U+30FC 1
 62
     7
420
 16777215
370
     9
100
AcDbVertex
100
AcDb2dVertex
 10
110.5696544013553
 20
-131.2302288560815
 30
0.0
  0
SEQEND
  5
A5
330
A2
100
AcDbEntity
  8
_U+30EC_U+30A4_U+30E4_U+30FC 1
 62
     7
420
 16777215
370
     9
  0
POLYLINE
  5
A6
330
1F
100
AcDbEntity
  8
_U+30EC_U+30A4_U+30E4_U+30FC 1
 62
     7
420
 16777215
370
     9
100
AcDb2dPolyline
 66
     1
 10
0.0
 20
0.0
 30
0.0
  0
VERTEX
  5
A7
330
A6
100
AcDbEntity
  8
_U+30EC_U+30A4_U+30E4_U+30FC 1
 62
     7
420
 16777215
370
     9
100
AcDbVertex
100
AcDb2dVertex
 10
113.8293944159868
 20
-106.2276330289986
 30
0.0
  0
VERTEX
  5
A8
330
A6
100
AcDbEntity
  8
_U+30EC_U+30A4_U+30E4_U+30FC 1
 62
     7
420
 16777215
370
     9
100
AcDbVertex
100
AcDb2dVertex
 10
110.5696544013553
 20
-106.2276330289986
 30
0.0
  0
SEQEND
  5
A9
330
A6
100
AcDbEntity
  8
_U+30EC_U+30A4_U+30E4_U+30FC 1
 62
     7
420
 16777215
370
     9
  0
INSERT
  5
AB
330
1F
100
AcDbEntity
  8
_U+30EC_U+30A4_U+30E4_U+30FC 1
100
AcDbBlockReference
  2
block 6
 10
0.0
 20
0.0
 30
0.0
  0
INSERT
  5
B3
330
1F
100
AcDbEntity
  8
_U+30EC_U+30A4_U+30E4_U+30FC 1
100
AcDbBlockReference
  2
block 7
 10
0.0
 20
0.0
 30
0.0
  0
ENDSEC
  0
SECTION
  2
OBJECTS
  0
DICTIONARY
  5
C
330
0
100
AcDbDictionary
281
     1
  3
ACAD_GROUP
350
D
  3
ACAD_LAYOUT
350
1A
  3
ACAD_MATERIAL
350
3B
  3
ACAD_MLEADERSTYLE
350
B9
  3
ACAD_MLINESTYLE
350
17
  3
ACAD_PLOTSETTINGS
350
19
  3
ACAD_PLOTSTYLENAME
350
E
  3
ACAD_TABLESTYLE
350
B8
  3
ACAD_VISUALSTYLE
350
2A
  0
SUN
  5
3F
330
29
100
AcDbSun
 90
        1
290
     0
 63
     7
421
 16777215
 40
1.0
291
     1
 91
  2455826
 92
 54000000
292
     0
 70
     2
 71
   256
280
     1
  0
DICTIONARY
  5
D
102
{ACAD_REACTORS
330
C
102
}
330
C
100
AcDbDictionary
281
     1
  0
DICTIONARY
  5
1A
102
{ACAD_REACTORS
330
C
102
}
330
C
100
AcDbDictionary
281
     1
  3
Layout1
350
1E
  3
Layout2
350
26
  3
Model
350
22
  0
DICTIONARY
  5
3B
102
{ACAD_REACTORS
330
C
102
}
330
C
100
AcDbDictionary
281
     1
  3
ByBlock
350
3D
  3
ByLayer
350
3C
  3
Global
350
3E
  0
DICTIONARY
  5
B9
102
{ACAD_REACTORS
330
C
102
}
330
C
100
AcDbDictionary
281
     1
  0
DICTIONARY
  5
17
102
{ACAD_REACTORS
330
C
102
}
330
C
100
AcDbDictionary
281
     1
  3
Standard
350
18
  0
DICTIONARY
  5
19
102
{ACAD_REACTORS
330
C
102
}
330
C
100
AcDbDictionary
281
     1
  0
ACDBDICTIONARYWDFLT
  5
E
102
{ACAD_REACTORS
330
C
102
}
330
C
100
AcDbDictionary
281
     1
  3
Normal
350
F
100
AcDbDictionaryWithDefault
340
F
  0
DICTIONARY
  5
B8
102
{ACAD_REACTORS
330
C
102
}
330
C
100
AcDbDictionary
281
     1
  0
DICTIONARY
  5
2A
102
{ACAD_REACTORS
330
C
102
}
330
C
100
AcDbDictionary
281
     1
  3
2dWireframe
350
2F
  3
3D Hidden
350
31
  3
3dWireframe
350
30
  3
Basic
350
32
  3
Brighten
350
36
  3
ColorChange
350
3A
  3
Conceptual
350
34
  3
Dim
350
35
  3
Facepattern
350
39
  3
Flat
350
2B
  3
FlatWithEdges
350
2C
  3
Gouraud
350
2D
  3
GouraudWithEdges
350
2E
  3
Linepattern
350
38
  3
Realistic
350
33
  3
Thicken
350
37
  0
LAYOUT
  5
1E
102
{ACAD_REACTORS
330
1A
102
}
330
1A
100
AcDbPlotSettings
  1

  2
none_device
  4

  6

 40
0.0
 41
0.0
 42
0.0
 43
0.0
 44
0.0
 45
0.0
 46
0.0
 47
0.0
 48
0.0
 49
0.0
140
0.0
141
0.0
142
1.0
143
1.0
 70
   688
 72
     0
 73
     0
 74
     5
  7

 75
    16
 76
     0
 77
     2
 78
   300
147
1.0
148
0.0
149
0.0
100
AcDbLayout
  1
Layout1
 70
     1
 71
     1
 10
0.0
 20
0.0
 11
12.0
 21
9.0
 12
0.0
 22
0.0
 32
0.0
 14
1.000000000000000E+20
 24
1.000000000000000E+20
 34
1.000000000000000E+20
 15
-1.000000000000000E+20
 25
-1.000000000000000E+20
 35
-1.000000000000000E+20
146
0.0
 13
0.0
 23
0.0
 33
0.0
 16
1.0
 26
0.0
 36
0.0
 17
0.0
 27
1.0
 37
0.0
 76
     0
330
1B
  0
LAYOUT
  5
26
102
{ACAD_REACTORS
330
1A
102
}
330
1A
100
AcDbPlotSettings
  1

  2
none_device
  4

  6

 40
0.0
 41
0.0
 42
0.0
 43
0.0
 44
0.0
 45
0.0
 46
0.0
 47
0.0
 48
0.0
 49
0.0
140
0.0
141
0.0
142
1.0
143
1.0
 70
   688
 72
     0
 73
     0
 74
     5
  7

 75
    16
 76
     0
 77
     2
 78
   300
147
1.0
148
0.0
149
0.0
100
AcDbLayout
  1
Layout2
 70
     1
 71
     2
 10
0.0
 20
0.0
 11
0.0
 21
0.0
 12
0.0
 22
0.0
 32
0.0
 14
0.0
 24
0.0
 34
0.0
 15
0.0
 25
0.0
 35
0.0
146
0.0
 13
0.0
 23
0.0
 33
0.0
 16
1.0
 26
0.0
 36
0.0
 17
0.0
 27
1.0
 37
0.0
 76
     0
330
23
  0
LAYOUT
  5
22
102
{ACAD_REACTORS
330
1A
102
}
330
1A
100
AcDbPlotSettings
  1

  2
none_device
  4

  6

 40
0.0
 41
0.0
 42
0.0
 43
0.0
 44
0.0
 45
0.0
 46
0.0
 47
0.0
 48
0.0
 49
0.0
140
0.0
141
0.0
142
1.0
143
1.0
 70
  1712
 72
     0
 73
     0
 74
     0
  7

 75
     0
 76
     0
 77
     2
 78
   300
147
1.0
148
0.0
149
0.0
100
AcDbLayout
  1
Model
 70
     1
 71
     0
 10
0.0
 20
0.0
 11
12.0
 21
9.0
 12
0.0
 22
0.0
 32
0.0
 14
1.000000000000000E+20
 24
1.000000000000000E+20
 34
1.000000000000000E+20
 15
-1.000000000000000E+20
 25
-1.000000000000000E+20
 35
-1.000000000000000E+20
146
0.0
 13
0.0
 23
0.0
 33
0.0
 16
1.0
 26
0.0
 36
0.0
 17
0.0
 27
1.0
 37
0.0
 76
     0
330
1F
331
29
  0
MATERIAL
  5
3D
102
{ACAD_REACTORS
330
3B
102
}
330
3B
100
AcDbMaterial
  1
ByBlock
 72
     1
 94
      127
  0
MATERIAL
  5
3C
102
{ACAD_REACTORS
330
3B
102
}
330
3B
100
AcDbMaterial
  1
ByLayer
 72
     1
 94
      127
  0
MATERIAL
  5
3E
102
{ACAD_REACTORS
330
3B
102
}
330
3B
100
AcDbMaterial
  1
Global
 72
     1
 94
      127
  0
MLINESTYLE
  5
18
102
{ACAD_REACTORS
330
17
102
}
330
17
100
AcDbMlineStyle
  2
Standard
 70
     0
  3

 62
   256
 51
90.0
 52
90.0
 71
     2
 49
0.5
 62
   256
  6
BYLAYER
 49
-0.5
 62
   256
  6
BYLAYER
  0
ACDBPLACEHOLDER
  5
F
102
{ACAD_REACTORS
330
E
102
}
330
E
  0
VISUALSTYLE
  5
2F
102
{ACAD_REACTORS
330
2A
102
}
330
2A
100
AcDbVisualStyle
  2
2dWireframe
 70
     4
177
     2
291
     0
 71
     0
176
     1
 72
     2
176
     1
 73
     0
176
     1
 90
        0
176
     1
 40
-0.6
176
     1
 41
-30.0
176
     1
 62
     5
 63
     7
421
 16777215
176
     1
 74
     1
176
     1
 91
        4
176
     1
 64
     7
176
     1
 65
   257
176
     1
 75
     1
176
     1
175
     1
176
     1
 42
1.0
176
     1
 92
        0
176
     1
 66
   257
176
     1
 43
1.0
176
     1
 76
     1
176
     1
 77
     6
176
     1
 78
     2
176
     1
 67
     7
176
     1
 79
     5
176
     1
170
     0
176
     1
171
     0
176
     1
290
     0
176
     1
 93
        1
176
     1
 44
0.0
176
     1
173
     0
176
     1
  0
VISUALSTYLE
  5
31
102
{ACAD_REACTORS
330
2A
102
}
330
2A
100
AcDbVisualStyle
  2
3D Hidden
 70
     6
177
     2
291
     0
 71
     1
176
     1
 72
     2
176
     1
 73
     2
176
     1
 90
        0
176
     1
 40
-0.6
176
     1
 41
-30.0
176
     1
 62
     5
 63
     7
421
 16777215
176
     1
 74
     2
176
     1
 91
        2
176
     1
 64
     7
176
     1
 65
   257
176
     1
 75
     2
176
     1
175
     1
176
     1
 42
40.0
176
     1
 92
        0
176
     1
 66
   257
176
     1
 43
1.0
176
     1
 76
     1
176
     1
 77
     6
176
     1
 78
     2
176
     1
 67
     7
176
     1
 79
     3
176
     1
170
     0
176
     1
171
     0
176
     1
290
     0
176
     1
 93
        1
176
     1
 44
0.0
176
     1
173
     0
176
     1
  0
VISUALSTYLE
  5
30
102
{ACAD_REACTORS
330
2A
102
}
330
2A
100
AcDbVisualStyle
  2
3dWireframe
 70
     5
177
     2
291
     0
 71
     0
176
     1
 72
     2
176
     1
 73
     0
176
     1
 90
        0
176
     1
 40
-0.6
176
     1
 41
-30.0
176
     1
 62
     5
 63
     7
421
 16777215
176
     1
 74
     1
176
     1
 91
        4
176
     1
 64
     7
176
     1
 65
   257
176
     1
 75
     1
176
     1
175
     1
176
     1
 42
1.0
176
     1
 92
        0
176
     1
 66
   257
176
     1
 43
1.0
176
     1
 76
     1
176
     1
 77
     6
176
     1
 78
     2
176
     1
 67
     7
176
     1
 79
     5
176
     1
170
     0
176
     1
171
     0
176
     1
290
     0
176
     1
 93
        1
176
     1
 44
0.0
176
     1
173
     0
176
     1
  0
VISUALSTYLE
  5
32
102
{ACAD_REACTORS
330
2A
102
}
330
2A
100
AcDbVisualStyle
  2
Basic
 70
     7
177
     2
291
     1
 71
     1
176
     1
 72
     0
176
     1
 73
     1
176
     1
 90
        0
176
     1
 40
-0.6
176
     1
 41
-30.0
176
     1
 62
     5
 63
     7
421
 16777215
176
     1
 74
     0
176
     1
 91
        4
176
     1
 64
     7
176
     1
 65
   257
176
     1
 75
     1
176
     1
175
     1
176
     1
 42
1.0
176
     1
 92
        8
176
     1
 66
     7
176
     1
 43
1.0
176
     1
 76
     1
176
     1
 77
     6
176
     1
 78
     2
176
     1
 67
     7
176
     1
 79
     5
176
     1
170
     0
176
     1
171
     0
176
     1
290
     0
176
     1
 93
        1
176
     1
 44
0.0
176
     1
173
     0
176
     1
  0
VISUALSTYLE
  5
36
102
{ACAD_REACTORS
330
2A
102
}
330
2A
100
AcDbVisualStyle
  2
Brighten
 70
    12
177
     2
291
     1
 71
     2
176
     1
 72
     2
176
     1
 73
     0
176
     1
 90
        0
176
     1
 40
-0.6
176
     1
 41
-30.0
176
     1
 62
     5
 63
     7
421
 16777215
176
     1
 74
     1
176
     1
 91
        4
176
     1
 64
     7
176
     1
 65
   257
176
     1
 75
     1
176
     1
175
     1
176
     1
 42
1.0
176
     1
 92
        8
176
     1
 66
     7
176
     1
 43
1.0
176
     1
 76
     1
176
     1
 77
     6
176
     1
 78
     2
176
     1
 67
     7
176
     1
 79
     5
176
     1
170
     0
176
     1
171
     0
176
     1
290
     0
176
     1
 93
        1
176
     1
 44
50.0
176
     1
173
     0
176
     1
  0
VISUALSTYLE
  5
3A
102
{ACAD_REACTORS
330
2A
102
}
330
2A
100
AcDbVisualStyle
  2
ColorChange
 70
    16
177
     2
291
     1
 71
     2
176
     1
 72
     2
176
     1
 73
     3
176
     1
 90
        0
176
     1
 40
-0.6
176
     1
 41
-30.0
176
     1
 62
     5
 63
     8
421
  8421504
176
     1
 74
     1
176
     1
 91
        4
176
     1
 64
     7
176
     1
 65
   257
176
     1
 75
     1
176
     1
175
     1
176
     1
 42
1.0
176
     1
 92
        8
176
     1
 66
     8
424
  8421504
176
     1
 43
1.0
176
     1
 76
     1
176
     1
 77
     6
176
     1
 78
     2
176
     1
 67
     7
176
     1
 79
     5
176
     1
170
     0
176
     1
171
     0
176
     1
290
     0
176
     1
 93
        1
176
     1
 44
0.0
176
     1
173
     0
176
     1
  0
VISUALSTYLE
  5
34
102
{ACAD_REACTORS
330
2A
102
}
330
2A
100
AcDbVisualStyle
  2
Conceptual
 70
     9
177
     2
291
     0
 71
     3
176
     1
 72
     2
176
     1
 73
     0
176
     1
 90
        0
176
     1
 40
-0.6
176
     1
 41
-30.0
176
     1
 62
     5
 63
     7
421
 16777215
176
     1
 74
     2
176
     1
 91
        2
176
     1
 64
     7
176
     1
 65
   257
176
     1
 75
     1
176
     1
175
     1
176
     1
 42
40.0
176
     1
 92
        8
176
     1
 66
     7
176
     1
 43
1.0
176
     1
 76
     1
176
     1
 77
     6
176
     1
 78
     2
176
     1
 67
     7
176
     1
 79
     3
176
     1
170
     0
176
     1
171
     0
176
     1
290
     0
176
     1
 93
        1
176
     1
 44
0.0
176
     1
173
     0
176
     1
  0
VISUALSTYLE
  5
35
102
{ACAD_REACTORS
330
2A
102
}
330
2A
100
AcDbVisualStyle
  2
Dim
 70
    11
177
     2
291
     1
 71
     2
176
     1
 72
     2
176
     1
 73
     0
176
     1
 90
        0
176
     1
 40
-0.6
176
     1
 41
-30.0
176
     1
 62
     5
 63
     7
421
 16777215
176
     1
 74
     1
176
     1
 91
        4
176
     1
 64
     7
176
     1
 65
   257
176
     1
 75
     1
176
     1
175
     1
176
     1
 42
1.0
176
     1
 92
        8
176
     1
 66
     7
176
     1
 43
1.0
176
     1
 76
     1
176
     1
 77
     6
176
     1
 78
     2
176
     1
 67
     7
176
     1
 79
     5
176
     1
170
     0
176
     1
171
     0
176
     1
290
     0
176
     1
 93
        1
176
     1
 44
-50.0
176
     1
173
     0
176
     1
  0
VISUALSTYLE
  5
39
102
{ACAD_REACTORS
330
2A
102
}
330
2A
100
AcDbVisualStyle
  2
Facepattern
 70
    15
177
     2
291
     1
 71
     2
176
     1
 72
     2
176
     1
 73
     0
176
     1
 90
        0
176
     1
 40
-0.6
176
     1
 41
-30.0
176
     1
 62
     5
 63
     7
421
 16777215
176
     1
 74
     1
176
     1
 91
        4
176
     1
 64
     7
176
     1
 65
   257
176
     1
 75
     1
176
     1
175
     1
176
     1
 42
1.0
176
     1
 92
        8
176
     1
 66
     7
176
     1
 43
1.0
176
     1
 76
     1
176
     1
 77
     6
176
     1
 78
     2
176
     1
 67
     7
176
     1
 79
     5
176
     1
170
     0
176
     1
171
     0
176
     1
290
     0
176
     1
 93
        1
176
     1
 44
0.0
176
     1
173
     0
176
     1
  0
VISUALSTYLE
  5
2B
102
{ACAD_REACTORS
330
2A
102
}
330
2A
100
AcDbVisualStyle
  2
Flat
 70
     0
177
     2
291
     1
 71
     2
176
     1
 72
     1
176
     1
 73
     1
176
     1
 90
        2
176
     1
 40
-0.6
176
     1
 41
30.0
176
     1
 62
     5
 63
     7
421
 16777215
176
     1
 74
     0
176
     1
 91
        4
176
     1
 64
     7
176
     1
 65
   257
176
     1
 75
     1
176
     1
175
     1
176
     1
 42
1.0
176
     1
 92
        8
176
     1
 66
     7
176
     1
 43
1.0
176
     1
 76
     1
176
     1
 77
     6
176
     1
 78
     2
176
     1
 67
     7
176
     1
 79
     5
176
     1
170
     0
176
     1
171
     0
176
     1
290
     0
176
     1
 93
       13
176
     1
 44
0.0
176
     1
173
     0
176
     1
  0
VISUALSTYLE
  5
2C
102
{ACAD_REACTORS
330
2A
102
}
330
2A
100
AcDbVisualStyle
  2
FlatWithEdges
 70
     1
177
     2
291
     1
 71
     2
176
     1
 72
     1
176
     1
 73
     1
176
     1
 90
        2
176
     1
 40
-0.6
176
     1
 41
30.0
176
     1
 62
     5
 63
     7
421
 16777215
176
     1
 74
     1
176
     1
 91
        4
176
     1
 64
     7
176
     1
 65
   257
176
     1
 75
     1
176
     1
175
     1
176
     1
 42
1.0
176
     1
 92
        0
176
     1
 66
   257
176
     1
 43
1.0
176
     1
 76
     1
176
     1
 77
     6
176
     1
 78
     2
176
     1
 67
     7
176
     1
 79
     5
176
     1
170
     0
176
     1
171
     0
176
     1
290
     0
176
     1
 93
       13
176
     1
 44
0.0
176
     1
173
     0
176
     1
  0
VISUALSTYLE
  5
2D
102
{ACAD_REACTORS
330
2A
102
}
330
2A
100
AcDbVisualStyle
  2
Gouraud
 70
     2
177
     2
291
     1
 71
     2
176
     1
 72
     2
176
     1
 73
     1
176
     1
 90
        2
176
     1
 40
-0.6
176
     1
 41
30.0
176
     1
 62
     5
 63
     7
421
 16777215
176
     1
 74
     0
176
     1
 91
        4
176
     1
 64
     7
176
     1
 65
   257
176
     1
 75
     1
176
     1
175
     1
176
     1
 42
1.0
176
     1
 92
        0
176
     1
 66
     7
176
     1
 43
1.0
176
     1
 76
     1
176
     1
 77
     6
176
     1
 78
     2
176
     1
 67
     7
176
     1
 79
     5
176
     1
170
     0
176
     1
171
     0
176
     1
290
     0
176
     1
 93
       13
176
     1
 44
0.0
176
     1
173
     0
176
     1
  0
VISUALSTYLE
  5
2E
102
{ACAD_REACTORS
330
2A
102
}
330
2A
100
AcDbVisualStyle
  2
GouraudWithEdges
 70
     3
177
     2
291
     1
 71
     2
176
     1
 72
     2
176
     1
 73
     1
176
     1
 90
        2
176
     1
 40
-0.6
176
     1
 41
30.0
176
     1
 62
     5
 63
     7
421
 16777215
176
     1
 74
     1
176
     1
 91
        4
176
     1
 64
     7
176
     1
 65
   257
176
     1
 75
     1
176
     1
175
     1
176
     1
 42
1.0
176
     1
 92
        0
176
     1
 66
   257
176
     1
 43
1.0
176
     1
 76
     1
176
     1
 77
     6
176
     1
 78
     2
176
     1
 67
     7
176
     1
 79
     5
176
     1
170
     0
176
     1
171
     0
176
     1
290
     0
176
     1
 93
       13
176
     1
 44
0.0
176
     1
173
     0
176
     1
  0
VISUALSTYLE
  5
38
102
{ACAD_REACTORS
330
2A
102
}
330
2A
100
AcDbVisualStyle
  2
Linepattern
 70
    14
177
     2
291
     1
 71
     2
176
     1
 72
     2
176
     1
 73
     0
176
     1
 90
        0
176
     1
 40
-0.6
176
     1
 41
-30.0
176
     1
 62
     5
 63
     7
421
 16777215
176
     1
 74
     1
176
     1
 91
        4
176
     1
 64
     7
176
     1
 65
   257
176
     1
 75
     7
176
     1
175
     7
176
     1
 42
1.0
176
     1
 92
        8
176
     1
 66
     7
176
     1
 43
1.0
176
     1
 76
     1
176
     1
 77
     6
176
     1
 78
     2
176
     1
 67
     7
176
     1
 79
     5
176
     1
170
     0
176
     1
171
     0
176
     1
290
     0
176
     1
 93
        1
176
     1
 44
0.0
176
     1
173
     0
176
     1
  0
VISUALSTYLE
  5
33
102
{ACAD_REACTORS
330
2A
102
}
330
2A
100
AcDbVisualStyle
  2
Realistic
 70
     8
177
     2
291
     0
 71
     2
176
     1
 72
     2
176
     1
 73
     0
176
     1
 90
        0
176
     1
 40
-0.6
176
     1
 41
-30.0
176
     1
 62
     5
 63
     7
421
 16777215
176
     1
 74
     1
176
     1
 91
        0
176
     1
 64
     7
176
     1
 65
   257
176
     1
 75
     1
176
     1
175
     1
176
     1
 42
1.0
176
     1
 92
        8
176
     1
 66
     8
424
  7895160
176
     1
 43
1.0
176
     1
 76
     1
176
     1
 77
     6
176
     1
 78
     2
176
     1
 67
     7
176
     1
 79
     5
176
     1
170
     0
176
     1
171
     0
176
     1
290
     0
176
     1
 93
       13
176
     1
 44
0.0
176
     1
173
     0
176
     1
  0
VISUALSTYLE
  5
37
102
{ACAD_REACTORS
330
2A
102
}
330
2A
100
AcDbVisualStyle
  2
Thicken
 70
    13
177
     2
291
     1
 71
     2
176
     1
 72
     2
176
     1
 73
     0
176
     1
 90
        0
176
     1
 40
-0.6
176
     1
 41
-30.0
176
     1
 62
     5
 63
     7
421
 16777215
176
     1
 74
     1
176
     1
 91
        4
176
     1
 64
     7
176
     1
 65
   257
176
     1
 75
     1
176
     1
175
     1
176
     1
 42
1.0
176
     1
 92
       12
176
     1
 66
     7
176
     1
 43
1.0
176
     1
 76
     1
176
     1
 77
     6
176
     1
 78
     2
176
     1
 67
     7
176
     1
 79
     5
176
     1
170
     0
176
     1
171
     0
176
     1
290
     0
176
     1
 93
        1
176
     1
 44
0.0
176
     1
173
     0
176
     1
  0
ENDSEC
  0
EOF
