  0
SECTION
  2
HEADER
  9
$ACADVER
  1
AC1024
  9
$ACADMAINTVER
 70
     6
  9
$DWGCODEPAGE
  3
UNDEFINED
  9
$INSBASE
 10
0.0
 20
0.0
 30
0.0
  9
$EXTMIN
 10
1.000000000000000E+20
 20
1.000000000000000E+20
 30
1.000000000000000E+20
  9
$EXTMAX
 10
-1.000000000000000E+20
 20
-1.000000000000000E+20
 30
-1.000000000000000E+20
  9
$LIMMIN
 10
0.0
 20
0.0
  9
$LIMMAX
 10
12.0
 20
9.0
  9
$ORTHOMODE
 70
     0
  9
$REGENMODE
 70
     1
  9
$FILLMODE
 70
     1
  9
$QTEXTMODE
 70
     0
  9
$MIRRTEXT
 70
     1
  9
$LTSCALE
 40
1.0
  9
$ATTMODE
 70
     1
  9
$TEXTSIZE
 40
0.2
  9
$TRACEWID
 40
0.05
  9
$TEXTSTYLE
  7
Standard
  9
$CLAYER
  8
0
  9
$CELTYPE
  6
ByLayer
  9
$CECOLOR
 62
   256
  9
$CELTSCALE
 40
1.0
  9
$DISPSILH
 70
     0
  9
$DIMSCALE
 40
1.0
  9
$DIMASZ
 40
0.18
  9
$DIMEXO
 40
0.0625
  9
$DIMDLI
 40
0.38
  9
$DIMRND
 40
0.0
  9
$DIMDLE
 40
0.0
  9
$DIMEXE
 40
0.18
  9
$DIMTP
 40
0.0
  9
$DIMTM
 40
0.0
  9
$DIMTXT
 40
0.18
  9
$DIMCEN
 40
0.09
  9
$DIMTSZ
 40
0.0
  9
$DIMTOL
 70
     0
  9
$DIMLIM
 70
     0
  9
$DIMTIH
 70
     1
  9
$DIMTOH
 70
     1
  9
$DIMSE1
 70
     0
  9
$DIMSE2
 70
     0
  9
$DIMTAD
 70
     0
  9
$DIMZIN
 70
     0
  9
$DIMBLK
  1

  9
$DIMASO
 70
     1
  9
$DIMSHO
 70
     1
  9
$DIMPOST
  1

  9
$DIMAPOST
  1

  9
$DIMALT
 70
     0
  9
$DIMALTD
 70
     2
  9
$DIMALTF
 40
25.4
  9
$DIMLFAC
 40
1.0
  9
$DIMTOFL
 70
     0
  9
$DIMTVP
 40
0.0
  9
$DIMTIX
 70
     0
  9
$DIMSOXD
 70
     0
  9
$DIMSAH
 70
     0
  9
$DIMBLK1
  1

  9
$DIMBLK2
  1

  9
$DIMSTYLE
  2
Standard
  9
$DIMCLRD
 70
     0
  9
$DIMCLRE
 70
     0
  9
$DIMCLRT
 70
     0
  9
$DIMTFAC
 40
1.0
  9
$DIMGAP
 40
0.09
  9
$DIMJUST
 70
     0
  9
$DIMSD1
 70
     0
  9
$DIMSD2
 70
     0
  9
$DIMTOLJ
 70
     1
  9
$DIMTZIN
 70
     0
  9
$DIMALTZ
 70
     0
  9
$DIMALTTZ
 70
     0
  9
$DIMUPT
 70
     0
  9
$DIMDEC
 70
     4
  9
$DIMTDEC
 70
     4
  9
$DIMALTU
 70
     2
  9
$DIMALTTD
 70
     2
  9
$DIMTXSTY
  7
Standard
  9
$DIMAUNIT
 70
     0
  9
$DIMADEC
 70
     0
  9
$DIMALTRND
 40
0.0
  9
$DIMAZIN
 70
     0
  9
$DIMDSEP
 70
    46
  9
$DIMATFIT
 70
     3
  9
$DIMFRAC
 70
     0
  9
$DIMLDRBLK
  1

  9
$DIMLUNIT
 70
     2
  9
$DIMLWD
 70
    -2
  9
$DIMLWE
 70
    -2
  9
$DIMTMOVE
 70
     0
  9
$DIMFXL
 40
1.0
  9
$DIMFXLON
 70
     0
  9
$DIMJOGANG
 40
0.7853981633974483
  9
$DIMTFILL
 70
     0
  9
$DIMTFILLCLR
 70
     0
  9
$DIMARCSYM
 70
     0
  9
$DIMLTYPE
  6

  9
$DIMLTEX1
  6

  9
$DIMLTEX2
  6

  9
$DIMTXTDIRECTION
 70
     0
  9
$LUNITS
 70
     2
  9
$LUPREC
 70
     4
  9
$SKETCHINC
 40
0.1
  9
$FILLETRAD
 40
0.5
  9
$AUNITS
 70
     0
  9
$AUPREC
 70
     0
  9
$MENU
  1
.
  9
$ELEVATION
 40
0.0
  9
$PELEVATION
 40
0.0
  9
$THICKNESS
 40
0.0
  9
$LIMCHECK
 70
     0
  9
$CHAMFERA
 40
0.5
  9
$CHAMFERB
 40
0.5
  9
$CHAMFERC
 40
1.0
  9
$CHAMFERD
 40
0.0
  9
$SKPOLY
 70
     0
  9
$TDCREATE
 40
2457917.58318287
  9
$TDUCREATE
 40
2457917.20818287
  9
$TDUPDATE
 40
2457917.58318287
  9
$TDUUPDATE
 40
2457917.20818287
  9
$TDINDWG
 40
0.0000000116
  9
$TDUSRTIMER
 40
0.0000000116
  9
$USRTIMER
 70
     1
  9
$ANGBASE
 50
0.0
  9
$ANGDIR
 70
     0
  9
$PDMODE
 70
     0
  9
$PDSIZE
 40
0.0
  9
$PLINEWID
 40
0.0
  9
$SPLFRAME
 70
     0
  9
$SPLINETYPE
 70
     6
  9
$SPLINESEGS
 70
     8
  9
$HANDSEED
  5
B7
  9
$SURFTAB1
 70
     6
  9
$SURFTAB2
 70
     6
  9
$SURFTYPE
 70
     6
  9
$SURFU
 70
     6
  9
$SURFV
 70
     6
  9
$UCSBASE
  2

  9
$UCSNAME
  2

  9
$UCSORG
 10
0.0
 20
0.0
 30
0.0
  9
$UCSXDIR
 10
1.0
 20
0.0
 30
0.0
  9
$UCSYDIR
 10
0.0
 20
1.0
 30
0.0
  9
$UCSORTHOREF
  2

  9
$UCSORTHOVIEW
 70
     0
  9
$UCSORGTOP
 10
0.0
 20
0.0
 30
0.0
  9
$UCSORGBOTTOM
 10
0.0
 20
0.0
 30
0.0
  9
$UCSORGLEFT
 10
0.0
 20
0.0
 30
0.0
  9
$UCSORGRIGHT
 10
0.0
 20
0.0
 30
0.0
  9
$UCSORGFRONT
 10
0.0
 20
0.0
 30
0.0
  9
$UCSORGBACK
 10
0.0
 20
0.0
 30
0.0
  9
$PUCSBASE
  2

  9
$PUCSNAME
  2

  9
$PUCSORG
 10
0.0
 20
0.0
 30
0.0
  9
$PUCSXDIR
 10
1.0
 20
0.0
 30
0.0
  9
$PUCSYDIR
 10
0.0
 20
1.0
 30
0.0
  9
$PUCSORTHOREF
  2

  9
$PUCSORTHOVIEW
 70
     0
  9
$PUCSORGTOP
 10
0.0
 20
0.0
 30
0.0
  9
$PUCSORGBOTTOM
 10
0.0
 20
0.0
 30
0.0
  9
$PUCSORGLEFT
 10
0.0
 20
0.0
 30
0.0
  9
$PUCSORGRIGHT
 10
0.0
 20
0.0
 30
0.0
  9
$PUCSORGFRONT
 10
0.0
 20
0.0
 30
0.0
  9
$PUCSORGBACK
 10
0.0
 20
0.0
 30
0.0
  9
$USERI1
 70
     0
  9
$USERI2
 70
     0
  9
$USERI3
 70
     0
  9
$USERI4
 70
     0
  9
$USERI5
 70
     0
  9
$USERR1
 40
0.0
  9
$USERR2
 40
0.0
  9
$USERR3
 40
0.0
  9
$USERR4
 40
0.0
  9
$USERR5
 40
0.0
  9
$WORLDVIEW
 70
     1
  9
$SHADEDGE
 70
     3
  9
$SHADEDIF
 70
    70
  9
$TILEMODE
 70
     1
  9
$MAXACTVP
 70
    64
  9
$PINSBASE
 10
0.0
 20
0.0
 30
0.0
  9
$PLIMCHECK
 70
     0
  9
$PEXTMIN
 10
1.000000000000000E+20
 20
1.000000000000000E+20
 30
1.000000000000000E+20
  9
$PEXTMAX
 10
-1.000000000000000E+20
 20
-1.000000000000000E+20
 30
-1.000000000000000E+20
  9
$PLIMMIN
 10
0.0
 20
0.0
  9
$PLIMMAX
 10
12.0
 20
9.0
  9
$UNITMODE
 70
     0
  9
$VISRETAIN
 70
     1
  9
$PLINEGEN
 70
     0
  9
$PSLTSCALE
 70
     1
  9
$TREEDEPTH
 70
  3020
  9
$CMLSTYLE
  2
Standard
  9
$CMLJUST
 70
     0
  9
$CMLSCALE
 40
1.0
  9
$PROXYGRAPHICS
 70
     1
  9
$MEASUREMENT
 70
     0
  9
$CELWEIGHT
370
    -1
  9
$ENDCAPS
280
     0
  9
$JOINSTYLE
280
     0
  9
$LWDISPLAY
290
     1
  9
$INSUNITS
 70
     1
  9
$HYPERLINKBASE
  1

  9
$STYLESHEET
  1

  9
$XEDIT
290
     1
  9
$CEPSNTYPE
380
     0
  9
$PSTYLEMODE
290
     1
  9
$FINGERPRINTGUID
  2
{2B6F2953-556F-B588-298F-546EC74B1FB1}
  9
$VERSIONGUID
  2
{FAEB1C32-E019-11D5-929B-00C0DF256EC4}
  9
$EXTNAMES
290
     1
  9
$PSVPSCALE
 40
0.0
  9
$OLESTARTUP
290
     0
  9
$SORTENTS
280
   127
  9
$INDEXCTL
280
     0
  9
$HIDETEXT
280
     1
  9
$XCLIPFRAME
280
     2
  9
$HALOGAP
280
     0
  9
$OBSCOLOR
 70
   257
  9
$OBSLTYPE
280
     0
  9
$INTERSECTIONDISPLAY
280
     0
  9
$INTERSECTIONCOLOR
 70
   257
  9
$DIMASSOC
280
     2
  9
$PROJECTNAME
  1

  9
$CAMERADISPLAY
290
     0
  9
$LENSLENGTH
 40
50.0
  9
$CAMERAHEIGHT
 40
0.0
  9
$STEPSPERSEC
 40
2.0
  9
$STEPSIZE
 40
6.0
  9
$3DDWFPREC
 40
2.0
  9
$PSOLWIDTH
 40
0.25
  9
$PSOLHEIGHT
 40
4.0
  9
$LOFTANG1
 40
1.570796326794897
  9
$LOFTANG2
 40
1.570796326794897
  9
$LOFTMAG1
 40
0.0
  9
$LOFTMAG2
 40
0.0
  9
$LOFTPARAM
 70
     7
  9
$LOFTNORMALS
280
     1
  9
$LATITUDE
 40
37.795
  9
$LONGITUDE
 40
-122.394
  9
$NORTHDIRECTION
 40
0.0
  9
$TIMEZONE
 70
 -8000
  9
$LIGHTGLYPHDISPLAY
280
     1
  9
$TILEMODELIGHTSYNCH
280
     1
  9
$CMATERIAL
347
3C
  9
$SOLIDHIST
280
     1
  9
$SHOWHIST
280
     1
  9
$DWFFRAME
280
     2
  9
$DGNFRAME
280
     2
  9
$REALWORLDSCALE
290
     1
  9
$INTERFERECOLOR
 62
   256
  9
$CSHADOW
280
     0
  9
$SHADOWPLANELOCATION
 40
0.0
  0
ENDSEC
  0
SECTION
  2
CLASSES
  0
CLASS
  1
ACDBDICTIONARYWDFLT
  2
AcDbDictionaryWithDefault
  3
ObjectDBX Classes
 90
        0
 91
        4
280
     0
281
     0
  0
CLASS
  1
VISUALSTYLE
  2
AcDbVisualStyle
  3
ObjectDBX Classes
 90
     4095
 91
        4
280
     0
281
     0
  0
CLASS
  1
MATERIAL
  2
AcDbMaterial
  3
ObjectDBX Classes
 90
     1153
 91
        4
280
     0
281
     0
  0
CLASS
  1
SUN
  2
AcDbSun
  3
SCENEOE
 90
     1024
 91
        4
280
     0
281
     0
  0
ENDSEC
  0
SECTION
  2
TABLES
  0
TABLE
  2
VPORT
  5
8
330
0
100
AcDbSymbolTable
 70
     1
  0
VPORT
  5
29
330
8
100
AcDbSymbolTableRecord
100
AcDbViewportTableRecord
  2
*Active
 70
     0
 10
0.0
 20
0.0
 11
1.0
 21
1.0
 12
0.0
 22
0.0
 13
0.0
 23
0.0
 14
0.5
 24
0.5
 15
0.5
 25
0.5
 16
0.0
 26
0.0
 36
1.0
 17
91.00082462281999
 27
-128.4993055234307
 37
0.0
 40
256.9986110468615
 41
0.7081814508812795
 42
50.0
 43
0.0
 44
0.0
 50
0.0
 51
0.0
 71
     0
 72
   100
 73
     1
 74
     3
 75
     0
 76
     0
 77
     0
 78
     0
281
     0
 65
     1
110
0.0
120
0.0
130
0.0
111
1.0
121
0.0
131
0.0
112
0.0
122
1.0
132
0.0
 79
     0
146
0.0
 60
     3
 61
     5
292
     1
282
     1
141
0.0
142
0.0
 63
   250
361
3F
  0
ENDTAB
  0
TABLE
  2
LTYPE
  5
5
330
0
100
AcDbSymbolTable
 70
     1
  0
LTYPE
  5
14
330
5
100
AcDbSymbolTableRecord
100
AcDbLinetypeTableRecord
  2
ByBlock
 70
     0
  3

 72
    65
 73
     0
 40
0.0
  0
LTYPE
  5
15
330
5
100
AcDbSymbolTableRecord
100
AcDbLinetypeTableRecord
  2
ByLayer
 70
     0
  3

 72
    65
 73
     0
 40
0.0
  0
LTYPE
  5
16
330
5
100
AcDbSymbolTableRecord
100
AcDbLinetypeTableRecord
  2
Continuous
 70
     0
  3
Solid line
 72
    65
 73
     0
 40
0.0
  0
ENDTAB
  0
TABLE
  2
LAYER
  5
2
330
0
100
AcDbSymbolTable
 70
     2
  0
LAYER
  5
10
330
2
100
AcDbSymbolTableRecord
100
AcDbLayerTableRecord
  2
0
 70
     0
 62
     7
  6
Continuous
370
    -3
390
F
347
3E
  0
LAYER
  5
40
330
2
100
AcDbSymbolTableRecord
100
AcDbLayerTableRecord
  2
_U+30EC_U+30A4_U+30E4_U+30FC 1
 70
     0
 62
     7
  6
Continuous
370
    -3
390
F
347
3E
  0
ENDTAB
  0
TABLE
  2
STYLE
  5
3
330
0
100
AcDbSymbolTable
 70
     1
  0
STYLE
  5
11
330
3
100
AcDbSymbolTableRecord
100
AcDbTextStyleTableRecord
  2
Standard
 70
     0
 40
0.0
 41
1.0
 50
0.0
 71
     0
 42
0.2
  3
txt
  4

  0
ENDTAB
  0
TABLE
  2
VIEW
  5
6
330
0
100
AcDbSymbolTable
 70
     0
  0
ENDTAB
  0
TABLE
  2
UCS
  5
7
330
0
100
AcDbSymbolTable
 70
     0
  0
ENDTAB
  0
TABLE
  2
APPID
  5
9
330
0
100
AcDbSymbolTable
 70
     1
  0
APPID
  5
12
330
9
100
AcDbSymbolTableRecord
100
AcDbRegAppTableRecord
  2
ACAD
 70
     0
  0
ENDTAB
  0
TABLE
  2
DIMSTYLE
  5
A
330
0
100
AcDbSymbolTable
 70
     1
100
AcDbDimStyleTable
  0
DIMSTYLE
105
27
330
A
100
AcDbSymbolTableRecord
100
AcDbDimStyleTableRecord
  2
Standard
 70
     0
178
     0
340
11
  0
ENDTAB
  0
TABLE
  2
BLOCK_RECORD
  5
1
330
0
100
AcDbSymbolTable
 70
     6
  0
BLOCK_RECORD
  5
1F
330
1
100
AcDbSymbolTableRecord
100
AcDbBlockTableRecord
  2
*Model_Space
340
22
 70
     0
280
     1
281
     0
  0
BLOCK_RECORD
  5
1B
330
1
100
AcDbSymbolTableRecord
100
AcDbBlockTableRecord
  2
*Paper_Space
340
1E
 70
     0
280
     1
281
     0
  0
BLOCK_RECORD
  5
23
330
1
100
AcDbSymbolTableRecord
100
AcDbBlockTableRecord
  2
*Paper_Space0
340
26
 70
     0
280
     1
281
     0
  0
BLOCK_RECORD
  5
53
330
1
100
AcDbSymbolTableRecord
100
AcDbBlockTableRecord
  2
block 2
340
0
102
{BLKREFS
331
54
102
}
 70
     0
280
     1
281
     0
  0
BLOCK_RECORD
  5
67
330
1
100
AcDbSymbolTableRecord
100
AcDbBlockTableRecord
  2
block 3
340
0
102
{BLKREFS
331
68
102
}
 70
     0
280
     1
281
     0
  0
BLOCK_RECORD
  5
84
330
1
100
AcDbSymbolTableRecord
100
AcDbBlockTableRecord
  2
block 4
340
0
102
{BLKREFS
331
85
102
}
 70
     0
280
     1
281
     0
  0
BLOCK_RECORD
  5
8D
330
1
100
AcDbSymbolTableRecord
100
AcDbBlockTableRecord
  2
block 5
340
0
102
{BLKREFS
331
8E
102
}
 70
     0
280
     1
281
     0
  0
BLOCK_RECORD
  5
AD
330
1
100
AcDbSymbolTableRecord
100
AcDbBlockTableRecord
  2
block 6
340
0
102
{BLKREFS
331
AE
102
}
 70
     0
280
     1
281
     0
  0
ENDTAB
  0
ENDSEC
  0
SECTION
  2
BLOCKS
  0
BLOCK
  5
20
330
1F
100
AcDbEntity
  8
0
100
AcDbBlockBegin
  2
*Model_Space
 70
     0
 10
0.0
 20
0.0
 30
0.0
  3
*Model_Space
  1

  0
ENDBLK
  5
21
330
1F
100
AcDbEntity
  8
0
100
AcDbBlockEnd
  0
BLOCK
  5
1C
330
1B
100
AcDbEntity
 67
     1
  8
0
100
AcDbBlockBegin
  2
*Paper_Space
 70
     0
 10
0.0
 20
0.0
 30
0.0
  3
*Paper_Space
  1

  0
ENDBLK
  5
1D
330
1B
100
AcDbEntity
 67
     1
  8
0
100
AcDbBlockEnd
  0
BLOCK
  5
24
330
23
100
AcDbEntity
  8
0
100
AcDbBlockBegin
  2
*Paper_Space0
 70
     0
 10
0.0
 20
0.0
 30
0.0
  3
*Paper_Space0
  1

  0
ENDBLK
  5
25
330
23
100
AcDbEntity
  8
0
100
AcDbBlockEnd
  0
BLOCK
  5
55
330
53
100
AcDbEntity
  8
0
100
AcDbBlockBegin
  2
block 2
 70
     0
 10
0.0
 20
0.0
 30
0.0
  3
block 2
  1

  0
SPLINE
  5
57
330
53
100
AcDbEntity
  8
_U+30EC_U+30A4_U+30E4_U+30FC 1
370
     0
100
AcDbSpline
210
0.0
220
0.0
230
1.0
 70
    11
 71
     3
 72
    26
 73
    22
 74
     0
 42
0.0000000001
 43
0.0000000001
 12
1.0
 22
0.0
 32
0.0
 13
1.0
 23
0.0
 33
0.0
 40
0.0
 40
0.0
 40
0.0
 40
0.0
 40
1.0
 40
1.0
 40
1.0
 40
2.0
 40
2.0
 40
2.0
 40
3.0
 40
3.0
 40
3.0
 40
4.0
 40
4.0
 40
4.0
 40
5.0
 40
5.0
 40
5.0
 40
6.0
 40
6.0
 40
6.0
 40
7.0
 40
7.0
 40
7.0
 40
7.0
 10
89.87031112119563
 20
-147.5827229448752
 30
0.0
 10
89.87031112119563
 20
-147.5827229448752
 30
0.0
 10
89.87031112119563
 20
-146.4785698418526
 30
0.0
 10
89.87031112119563
 20
-146.4785698418526
 30
0.0
 10
89.87031112119563
 20
-146.4785698418526
 30
0.0
 10
89.54027097370869
 20
-146.4785698418526
 30
0.0
 10
89.54027097370869
 20
-146.4785698418526
 30
0.0
 10
89.54027097370869
 20
-146.4785698418526
 30
0.0
 10
89.54027097370869
 20
-146.3304307359869
 30
0.0
 10
89.54027097370869
 20
-146.3304307359869
 30
0.0
 10
89.87237817848677
 20
-146.3156168254003
 30
0.0
 10
89.91888696753765
 20
-146.1526638089479
 30
0.0
 10
89.9485147887108
 20
-146.0382866388377
 30
0.0
 10
89.9485147887108
 20
-146.0382866388377
 30
0.0
 10
90.09458683728539
 20
-146.0382866388377
 30
0.0
 10
90.09458683728539
 20
-146.0382866388377
 30
0.0
 10
90.09458683728539
 20
-146.0382866388377
 30
0.0
 10
90.09458683728539
 20
-147.5827229448752
 30
0.0
 10
90.09458683728539
 20
-147.5827229448752
 30
0.0
 10
90.09458683728539
 20
-147.5827229448752
 30
0.0
 10
89.87031112119563
 20
-147.5827229448752
 30
0.0
 10
89.87031112119563
 20
-147.5827229448752
 30
0.0
  0
HATCH
  5
58
330
53
100
AcDbEntity
  8
_U+30EC_U+30A4_U+30E4_U+30FC 1
 62
     7
420
 16777215
100
AcDbHatch
 10
0.0
 20
0.0
 30
0.0
210
0.0
220
0.0
230
1.0
  2
SOLID
 70
     1
 71
     0
 91
        1
 92
        1
 93
        1
 72
     4
 94
        3
 73
     0
 74
     1
 95
       26
 96
       22
 40
0.0
 40
0.0
 40
0.0
 40
0.0
 40
1.0
 40
1.0
 40
1.0
 40
2.0
 40
2.0
 40
2.0
 40
3.0
 40
3.0
 40
3.0
 40
4.0
 40
4.0
 40
4.0
 40
5.0
 40
5.0
 40
5.0
 40
6.0
 40
6.0
 40
6.0
 40
7.0
 40
7.0
 40
7.0
 40
7.0
 10
89.87031112119563
 20
-147.5827229448752
 10
89.87031112119563
 20
-147.5827229448752
 10
89.87031112119563
 20
-146.4785698418526
 10
89.87031112119563
 20
-146.4785698418526
 10
89.87031112119563
 20
-146.4785698418526
 10
89.54027097370869
 20
-146.4785698418526
 10
89.54027097370869
 20
-146.4785698418526
 10
89.54027097370869
 20
-146.4785698418526
 10
89.54027097370869
 20
-146.3304307359869
 10
89.54027097370869
 20
-146.3304307359869
 10
89.87237817848677
 20
-146.3156168254003
 10
89.91888696753765
 20
-146.1526638089479
 10
89.9485147887108
 20
-146.0382866388377
 10
89.9485147887108
 20
-146.0382866388377
 10
90.09458683728539
 20
-146.0382866388377
 10
90.09458683728539
 20
-146.0382866388377
 10
90.09458683728539
 20
-146.0382866388377
 10
90.09458683728539
 20
-147.5827229448752
 10
90.09458683728539
 20
-147.5827229448752
 10
90.09458683728539
 20
-147.5827229448752
 10
89.87031112119563
 20
-147.5827229448752
 10
89.87031112119563
 20
-147.5827229448752
 97
        0
 97
        0
 75
     2
 76
     1
 98
        0
  0
SPLINE
  5
59
330
53
100
AcDbEntity
  8
_U+30EC_U+30A4_U+30E4_U+30FC 1
370
     0
100
AcDbSpline
210
0.0
220
0.0
230
1.0
 70
    11
 71
     3
 72
    44
 73
    40
 74
     0
 42
0.0000000001
 43
0.0000000001
 12
1.0
 22
0.0
 32
0.0
 13
1.0
 23
0.0
 33
0.0
 40
0.0
 40
0.0
 40
0.0
 40
0.0
 40
1.0
 40
1.0
 40
1.0
 40
2.0
 40
2.0
 40
2.0
 40
3.0
 40
3.0
 40
3.0
 40
4.0
 40
4.0
 40
4.0
 40
5.0
 40
5.0
 40
5.0
 40
6.0
 40
6.0
 40
6.0
 40
7.0
 40
7.0
 40
7.0
 40
8.0
 40
8.0
 40
8.0
 40
9.0
 40
9.0
 40
9.0
 40
10.0
 40
10.0
 40
10.0
 40
11.0
 40
11.0
 40
11.0
 40
12.0
 40
12.0
 40
12.0
 40
13.0
 40
13.0
 40
13.0
 40
13.0
 10
91.18874916340073
 20
-147.0008463174165
 30
0.0
 10
90.97101912873295
 20
-147.1596652192865
 30
0.0
 10
90.8780015506312
 20
-147.2337347722193
 30
0.0
 10
90.82908119474065
 20
-147.3773952539543
 30
0.0
 10
90.82908119474065
 20
-147.3773952539543
 30
0.0
 10
91.60750051963285
 20
-147.3773952539543
 30
0.0
 10
91.60750051963285
 20
-147.3773952539543
 30
0.0
 10
91.60750051963285
 20
-147.3773952539543
 30
0.0
 10
91.60750051963285
 20
-147.5827229448752
 30
0.0
 10
91.60750051963285
 20
-147.5827229448752
 30
0.0
 10
91.60750051963285
 20
-147.5827229448752
 30
0.0
 10
90.57965628160856
 20
-147.5827229448752
 30
0.0
 10
90.57965628160856
 20
-147.5827229448752
 30
0.0
 10
90.61135116007286
 20
-147.2251220335062
 30
0.0
 10
90.67680797429261
 20
-147.146918365991
 30
0.0
 10
91.06196964954354
 20
-146.8485730969684
 30
0.0
 10
91.3179402440976
 20
-146.6497910874695
 30
0.0
 10
91.38322480354309
 20
-146.5819227064101
 30
0.0
 10
91.38322480354309
 20
-146.4444633965486
 30
0.0
 10
91.38322480354309
 20
-146.325952111856
 30
0.0
 10
91.31139456267563
 20
-146.1950384834165
 30
0.0
 10
91.11467961046786
 20
-146.1950384834165
 30
0.0
 10
90.8545749013315
 20
-146.1950384834165
 30
0.0
 10
90.8463066721669
 20
-146.4255153713797
 30
0.0
 10
90.84182804803608
 20
-146.5419595987812
 30
0.0
 10
90.84182804803608
 20
-146.5419595987812
 30
0.0
 10
90.61755233194631
 20
-146.5419595987812
 30
0.0
 10
90.61755233194631
 20
-146.5419595987812
 30
0.0
 10
90.62616507065944
 20
-146.4148355753755
 30
0.0
 10
90.63684486666371
 20
-146.3028699721048
 30
0.0
 10
90.71711559147003
 20
-146.1843586874122
 30
0.0
 10
90.8270141374495
 20
-146.0234727282511
 30
0.0
 10
91.01339380320152
 20
-145.9897107924956
 30
0.0
 10
91.12949352105444
 20
-145.9897107924956
 30
0.0
 10
91.40665145284278
 20
-145.9897107924956
 30
0.0
 10
91.61404620105482
 20
-146.173678891408
 30
0.0
 10
91.61404620105482
 20
-146.4465304538398
 30
0.0
 10
91.61404620105482
 20
-146.6752847940604
 30
0.0
 10
91.49760197365339
 20
-146.7745035440356
 30
0.0
 10
91.18874916340073
 20
-147.0008463174165
 30
0.0
  0
HATCH
  5
5A
330
53
100
AcDbEntity
  8
_U+30EC_U+30A4_U+30E4_U+30FC 1
 62
     7
420
 16777215
100
AcDbHatch
 10
0.0
 20
0.0
 30
0.0
210
0.0
220
0.0
230
1.0
  2
SOLID
 70
     1
 71
     0
 91
        1
 92
        1
 93
        1
 72
     4
 94
        3
 73
     0
 74
     1
 95
       44
 96
       40
 40
0.0
 40
0.0
 40
0.0
 40
0.0
 40
1.0
 40
1.0
 40
1.0
 40
2.0
 40
2.0
 40
2.0
 40
3.0
 40
3.0
 40
3.0
 40
4.0
 40
4.0
 40
4.0
 40
5.0
 40
5.0
 40
5.0
 40
6.0
 40
6.0
 40
6.0
 40
7.0
 40
7.0
 40
7.0
 40
8.0
 40
8.0
 40
8.0
 40
9.0
 40
9.0
 40
9.0
 40
10.0
 40
10.0
 40
10.0
 40
11.0
 40
11.0
 40
11.0
 40
12.0
 40
12.0
 40
12.0
 40
13.0
 40
13.0
 40
13.0
 40
13.0
 10
91.18874916340073
 20
-147.0008463174165
 10
90.97101912873295
 20
-147.1596652192865
 10
90.8780015506312
 20
-147.2337347722193
 10
90.82908119474065
 20
-147.3773952539543
 10
90.82908119474065
 20
-147.3773952539543
 10
91.60750051963285
 20
-147.3773952539543
 10
91.60750051963285
 20
-147.3773952539543
 10
91.60750051963285
 20
-147.3773952539543
 10
91.60750051963285
 20
-147.5827229448752
 10
91.60750051963285
 20
-147.5827229448752
 10
91.60750051963285
 20
-147.5827229448752
 10
90.57965628160856
 20
-147.5827229448752
 10
90.57965628160856
 20
-147.5827229448752
 10
90.61135116007286
 20
-147.2251220335062
 10
90.67680797429261
 20
-147.146918365991
 10
91.06196964954354
 20
-146.8485730969684
 10
91.3179402440976
 20
-146.6497910874695
 10
91.38322480354309
 20
-146.5819227064101
 10
91.38322480354309
 20
-146.4444633965486
 10
91.38322480354309
 20
-146.325952111856
 10
91.31139456267563
 20
-146.1950384834165
 10
91.11467961046786
 20
-146.1950384834165
 10
90.8545749013315
 20
-146.1950384834165
 10
90.8463066721669
 20
-146.4255153713797
 10
90.84182804803608
 20
-146.5419595987812
 10
90.84182804803608
 20
-146.5419595987812
 10
90.61755233194631
 20
-146.5419595987812
 10
90.61755233194631
 20
-146.5419595987812
 10
90.62616507065944
 20
-146.4148355753755
 10
90.63684486666371
 20
-146.3028699721048
 10
90.71711559147003
 20
-146.1843586874122
 10
90.8270141374495
 20
-146.0234727282511
 10
91.01339380320152
 20
-145.9897107924956
 10
91.12949352105444
 20
-145.9897107924956
 10
91.40665145284278
 20
-145.9897107924956
 10
91.61404620105482
 20
-146.173678891408
 10
91.61404620105482
 20
-146.4465304538398
 10
91.61404620105482
 20
-146.6752847940604
 10
91.49760197365339
 20
-146.7745035440356
 10
91.18874916340073
 20
-147.0008463174165
 97
        0
 97
        0
 75
     2
 76
     1
 98
        0
  0
ENDBLK
  5
56
330
53
100
AcDbEntity
  8
0
100
AcDbBlockEnd
  0
BLOCK
  5
69
330
67
100
AcDbEntity
  8
0
100
AcDbBlockBegin
  2
block 3
 70
     0
 10
0.0
 20
0.0
 30
0.0
  3
block 3
  1

  0
SPLINE
  5
6B
330
67
100
AcDbEntity
  8
_U+30EC_U+30A4_U+30E4_U+30FC 1
370
     0
100
AcDbSpline
210
0.0
220
0.0
230
1.0
 70
    11
 71
     3
 72
    44
 73
    40
 74
     0
 42
0.0000000001
 43
0.0000000001
 12
1.0
 22
0.0
 32
0.0
 13
1.0
 23
0.0
 33
0.0
 40
0.0
 40
0.0
 40
0.0
 40
0.0
 40
1.0
 40
1.0
 40
1.0
 40
2.0
 40
2.0
 40
2.0
 40
3.0
 40
3.0
 40
3.0
 40
4.0
 40
4.0
 40
4.0
 40
5.0
 40
5.0
 40
5.0
 40
6.0
 40
6.0
 40
6.0
 40
7.0
 40
7.0
 40
7.0
 40
8.0
 40
8.0
 40
8.0
 40
9.0
 40
9.0
 40
9.0
 40
10.0
 40
10.0
 40
10.0
 40
11.0
 40
11.0
 40
11.0
 40
12.0
 40
12.0
 40
12.0
 40
13.0
 40
13.0
 40
13.0
 40
13.0
 10
74.87484400254866
 20
-138.9262315190879
 30
0.0
 10
74.6087103763131
 20
-138.8842013541679
 30
0.0
 10
74.49054360116904
 20
-138.8707654817754
 30
0.0
 10
74.35446232950167
 20
-138.9382893532863
 30
0.0
 10
74.35446232950167
 20
-138.9382893532863
 30
0.0
 10
74.90498858804459
 20
-139.4888156118292
 30
0.0
 10
74.90498858804459
 20
-139.4888156118292
 30
0.0
 10
74.90498858804459
 20
-139.4888156118292
 30
0.0
 10
74.75977781334132
 20
-139.6338541317582
 30
0.0
 10
74.75977781334132
 20
-139.6338541317582
 30
0.0
 10
74.75977781334132
 20
-139.6338541317582
 30
0.0
 10
74.03286266595359
 20
-138.9069389843705
 30
0.0
 10
74.03286266595359
 20
-138.9069389843705
 30
0.0
 10
74.30812579522505
 20
-138.6764620964073
 30
0.0
 10
74.40958385726566
 20
-138.6671603385971
 30
0.0
 10
74.89310300862047
 20
-138.7288275477831
 30
0.0
 10
75.21453041739429
 20
-138.7691351649605
 30
0.0
 10
75.30892603369013
 20
-138.7677571267664
 30
0.0
 10
75.40607772637418
 20
-138.6706054340823
 30
0.0
 10
75.48979354666575
 20
-138.5868896137908
 30
0.0
 10
75.5318237115858
 20
-138.4428846225073
 30
0.0
 10
75.3926418539817
 20
-138.3037027649032
 30
0.0
 10
75.20867375506937
 20
-138.1197346659909
 30
0.0
 10
75.03951956674359
 20
-138.2771755296668
 30
0.0
 10
74.9540811987094
 20
-138.3564127258276
 30
0.0
 10
74.9540811987094
 20
-138.3564127258276
 30
0.0
 10
74.79577906116216
 20
-138.1979383335061
 30
0.0
 10
74.79577906116216
 20
-138.1979383335061
 30
0.0
 10
74.89138046087785
 20
-138.113878003666
 30
0.0
 10
74.97819686710615
 20
-138.0422200175728
 30
0.0
 10
75.11875676290434
 20
-138.0153482727878
 30
0.0
 10
75.31030407188423
 20
-137.9795192797412
 30
0.0
 10
75.46602238781753
 20
-138.087006258881
 30
0.0
 10
75.548360169915
 20
-138.1693440409785
 30
0.0
 10
75.74438610302572
 20
-138.3653699740892
 30
0.0
 10
75.76057805180639
 20
-138.6420111415548
 30
0.0
 10
75.5676527046324
 20
-138.8349364887288
 30
0.0
 10
75.40607772637418
 20
-138.996511466987
 30
0.0
 10
75.25345999637761
 20
-138.9844536327886
 30
0.0
 10
74.87484400254866
 20
-138.9262315190879
 30
0.0
  0
HATCH
  5
6C
330
67
100
AcDbEntity
  8
_U+30EC_U+30A4_U+30E4_U+30FC 1
 62
     7
420
 16777215
100
AcDbHatch
 10
0.0
 20
0.0
 30
0.0
210
0.0
220
0.0
230
1.0
  2
SOLID
 70
     1
 71
     0
 91
        1
 92
        1
 93
        1
 72
     4
 94
        3
 73
     0
 74
     1
 95
       44
 96
       40
 40
0.0
 40
0.0
 40
0.0
 40
0.0
 40
1.0
 40
1.0
 40
1.0
 40
2.0
 40
2.0
 40
2.0
 40
3.0
 40
3.0
 40
3.0
 40
4.0
 40
4.0
 40
4.0
 40
5.0
 40
5.0
 40
5.0
 40
6.0
 40
6.0
 40
6.0
 40
7.0
 40
7.0
 40
7.0
 40
8.0
 40
8.0
 40
8.0
 40
9.0
 40
9.0
 40
9.0
 40
10.0
 40
10.0
 40
10.0
 40
11.0
 40
11.0
 40
11.0
 40
12.0
 40
12.0
 40
12.0
 40
13.0
 40
13.0
 40
13.0
 40
13.0
 10
74.87484400254866
 20
-138.9262315190879
 10
74.6087103763131
 20
-138.8842013541679
 10
74.49054360116904
 20
-138.8707654817754
 10
74.35446232950167
 20
-138.9382893532863
 10
74.35446232950167
 20
-138.9382893532863
 10
74.90498858804459
 20
-139.4888156118292
 10
74.90498858804459
 20
-139.4888156118292
 10
74.90498858804459
 20
-139.4888156118292
 10
74.75977781334132
 20
-139.6338541317582
 10
74.75977781334132
 20
-139.6338541317582
 10
74.75977781334132
 20
-139.6338541317582
 10
74.03286266595359
 20
-138.9069389843705
 10
74.03286266595359
 20
-138.9069389843705
 10
74.30812579522505
 20
-138.6764620964073
 10
74.40958385726566
 20
-138.6671603385971
 10
74.89310300862047
 20
-138.7288275477831
 10
75.21453041739429
 20
-138.7691351649605
 10
75.30892603369013
 20
-138.7677571267664
 10
75.40607772637418
 20
-138.6706054340823
 10
75.48979354666575
 20
-138.5868896137908
 10
75.5318237115858
 20
-138.4428846225073
 10
75.3926418539817
 20
-138.3037027649032
 10
75.20867375506937
 20
-138.1197346659909
 10
75.03951956674359
 20
-138.2771755296668
 10
74.9540811987094
 20
-138.3564127258276
 10
74.9540811987094
 20
-138.3564127258276
 10
74.79577906116216
 20
-138.1979383335061
 10
74.79577906116216
 20
-138.1979383335061
 10
74.89138046087785
 20
-138.113878003666
 10
74.97819686710615
 20
-138.0422200175728
 10
75.11875676290434
 20
-138.0153482727878
 10
75.31030407188423
 20
-137.9795192797412
 10
75.46602238781753
 20
-138.087006258881
 10
75.548360169915
 20
-138.1693440409785
 10
75.74438610302572
 20
-138.3653699740892
 10
75.76057805180639
 20
-138.6420111415548
 10
75.5676527046324
 20
-138.8349364887288
 10
75.40607772637418
 20
-138.996511466987
 10
75.25345999637761
 20
-138.9844536327886
 10
74.87484400254866
 20
-138.9262315190879
 97
        0
 97
        0
 75
     2
 76
     1
 98
        0
  0
SPLINE
  5
6D
330
67
100
AcDbEntity
  8
_U+30EC_U+30A4_U+30E4_U+30FC 1
370
     0
100
AcDbSpline
210
0.0
220
0.0
230
1.0
 70
    11
 71
     3
 72
    29
 73
    25
 74
     0
 42
0.0000000001
 43
0.0000000001
 12
1.0
 22
0.0
 32
0.0
 13
1.0
 23
0.0
 33
0.0
 40
0.0
 40
0.0
 40
0.0
 40
0.0
 40
1.0
 40
1.0
 40
1.0
 40
2.0
 40
2.0
 40
2.0
 40
3.0
 40
3.0
 40
3.0
 40
4.0
 40
4.0
 40
4.0
 40
5.0
 40
5.0
 40
5.0
 40
6.0
 40
6.0
 40
6.0
 40
7.0
 40
7.0
 40
7.0
 40
8.0
 40
8.0
 40
8.0
 40
8.0
 10
75.63689912388591
 20
-140.2594834718796
 30
0.0
 10
75.41227889824764
 20
-140.3311414579728
 30
0.0
 10
75.27654213612878
 20
-140.2222764406389
 30
0.0
 10
75.19420435403131
 20
-140.1399386585414
 30
0.0
 10
75.08017169346954
 20
-140.0259059979796
 30
0.0
 10
75.01299233150718
 20
-139.8932698217975
 30
0.0
 10
75.07465954069315
 20
-139.6972438886868
 30
0.0
 10
75.13873831671879
 20
-139.4864040449895
 30
0.0
 10
75.29273408490945
 20
-139.3048475129168
 30
0.0
 10
75.40780027411681
 20
-139.1897813237095
 30
0.0
 10
75.50943059093167
 20
-139.0881510068946
 30
0.0
 10
75.69994437126599
 20
-138.9224419140541
 30
0.0
 10
75.9152628390941
 20
-138.8566405902858
 30
0.0
 10
76.13505993105305
 20
-138.7891167187749
 30
0.0
 10
76.26528454039548
 20
-138.886268411459
 30
0.0
 10
76.3565795707546
 20
-138.9775634418181
 30
0.0
 10
76.46888968357375
 20
-139.0898735546373
 30
0.0
 10
76.53916963147284
 20
-139.2228542403679
 30
0.0
 10
76.47750242228688
 20
-139.4188801734786
 30
0.0
 10
76.4117010985186
 20
-139.6252413930451
 30
0.0
 10
76.26666257858959
 20
-139.8033528296325
 30
0.0
 10
76.14401717931469
 20
-139.9259982289074
 30
0.0
 10
76.0227498182339
 20
-140.0472655899882
 30
0.0
 10
75.84463838164648
 20
-140.1950601863054
 30
0.0
 10
75.63689912388591
 20
-140.2594834718796
 30
0.0
  0
SPLINE
  5
6E
330
67
100
AcDbEntity
  8
_U+30EC_U+30A4_U+30E4_U+30FC 1
370
     0
100
AcDbSpline
210
0.0
220
0.0
230
1.0
 70
    11
 71
     3
 72
    17
 73
    13
 74
     0
 42
0.0000000001
 43
0.0000000001
 12
1.0
 22
0.0
 32
0.0
 13
1.0
 23
0.0
 33
0.0
 40
0.0
 40
0.0
 40
0.0
 40
0.0
 40
1.0
 40
1.0
 40
1.0
 40
2.0
 40
2.0
 40
2.0
 40
3.0
 40
3.0
 40
3.0
 40
4.0
 40
4.0
 40
4.0
 40
4.0
 10
76.22049829908724
 20
-139.1136447134855
 30
0.0
 10
76.04376490069393
 20
-138.9369113150922
 30
0.0
 10
75.81053193634251
 20
-139.1046874652238
 30
0.0
 10
75.56661917598682
 20
-139.3486002255795
 30
0.0
 10
75.34062091215444
 20
-139.5745984894119
 30
0.0
 10
75.14769556498044
 20
-139.8185112497676
 30
0.0
 10
75.33166366389278
 20
-140.0024793486799
 30
0.0
 10
75.50667451454348
 20
-140.1774901993306
 30
0.0
 10
75.74025198844342
 20
-140.0128146351357
 30
0.0
 10
75.98554278699321
 20
-139.7675238365859
 30
0.0
 10
76.21154105082559
 20
-139.5415255727535
 30
0.0
 10
76.40274385025695
 20
-139.2958902646552
 30
0.0
 10
76.22049829908724
 20
-139.1136447134855
 30
0.0
  0
HATCH
  5
6F
330
67
100
AcDbEntity
  8
_U+30EC_U+30A4_U+30E4_U+30FC 1
 62
     7
420
 16777215
100
AcDbHatch
 10
0.0
 20
0.0
 30
0.0
210
0.0
220
0.0
230
1.0
  2
SOLID
 70
     1
 71
     0
 91
        2
 92
        1
 93
        1
 72
     4
 94
        3
 73
     0
 74
     1
 95
       29
 96
       25
 40
0.0
 40
0.0
 40
0.0
 40
0.0
 40
1.0
 40
1.0
 40
1.0
 40
2.0
 40
2.0
 40
2.0
 40
3.0
 40
3.0
 40
3.0
 40
4.0
 40
4.0
 40
4.0
 40
5.0
 40
5.0
 40
5.0
 40
6.0
 40
6.0
 40
6.0
 40
7.0
 40
7.0
 40
7.0
 40
8.0
 40
8.0
 40
8.0
 40
8.0
 10
75.63689912388591
 20
-140.2594834718796
 10
75.41227889824764
 20
-140.3311414579728
 10
75.27654213612878
 20
-140.2222764406389
 10
75.19420435403131
 20
-140.1399386585414
 10
75.08017169346954
 20
-140.0259059979796
 10
75.01299233150718
 20
-139.8932698217975
 10
75.07465954069315
 20
-139.6972438886868
 10
75.13873831671879
 20
-139.4864040449895
 10
75.29273408490945
 20
-139.3048475129168
 10
75.40780027411681
 20
-139.1897813237095
 10
75.50943059093167
 20
-139.0881510068946
 10
75.69994437126599
 20
-138.9224419140541
 10
75.9152628390941
 20
-138.8566405902858
 10
76.13505993105305
 20
-138.7891167187749
 10
76.26528454039548
 20
-138.886268411459
 10
76.3565795707546
 20
-138.9775634418181
 10
76.46888968357375
 20
-139.0898735546373
 10
76.53916963147284
 20
-139.2228542403679
 10
76.47750242228688
 20
-139.4188801734786
 10
76.4117010985186
 20
-139.6252413930451
 10
76.26666257858959
 20
-139.8033528296325
 10
76.14401717931469
 20
-139.9259982289074
 10
76.0227498182339
 20
-140.0472655899882
 10
75.84463838164648
 20
-140.1950601863054
 10
75.63689912388591
 20
-140.2594834718796
 97
        0
 97
        0
 92
        1
 93
        1
 72
     4
 94
        3
 73
     0
 74
     1
 95
       17
 96
       13
 40
0.0
 40
0.0
 40
0.0
 40
0.0
 40
1.0
 40
1.0
 40
1.0
 40
2.0
 40
2.0
 40
2.0
 40
3.0
 40
3.0
 40
3.0
 40
4.0
 40
4.0
 40
4.0
 40
4.0
 10
76.22049829908724
 20
-139.1136447134855
 10
76.04376490069393
 20
-138.9369113150922
 10
75.81053193634251
 20
-139.1046874652238
 10
75.56661917598682
 20
-139.3486002255795
 10
75.34062091215444
 20
-139.5745984894119
 10
75.14769556498044
 20
-139.8185112497676
 10
75.33166366389278
 20
-140.0024793486799
 10
75.50667451454348
 20
-140.1774901993306
 10
75.74025198844342
 20
-140.0128146351357
 10
75.98554278699321
 20
-139.7675238365859
 10
76.21154105082559
 20
-139.5415255727535
 10
76.40274385025695
 20
-139.2958902646552
 10
76.22049829908724
 20
-139.1136447134855
 97
        0
 97
        0
 75
     2
 76
     1
 98
        0
  0
ENDBLK
  5
6A
330
67
100
AcDbEntity
  8
0
100
AcDbBlockEnd
  0
BLOCK
  5
86
330
84
100
AcDbEntity
  8
0
100
AcDbBlockBegin
  2
block 4
 70
     0
 10
0.0
 20
0.0
 30
0.0
  3
block 4
  1

  0
SPLINE
  5
88
330
84
100
AcDbEntity
  8
_U+30EC_U+30A4_U+30E4_U+30FC 1
370
     0
100
AcDbSpline
210
0.0
220
0.0
230
1.0
 70
    11
 71
     3
 72
    26
 73
    22
 74
     0
 42
0.0000000001
 43
0.0000000001
 12
1.0
 22
0.0
 32
0.0
 13
1.0
 23
0.0
 33
0.0
 40
0.0
 40
0.0
 40
0.0
 40
0.0
 40
1.0
 40
1.0
 40
1.0
 40
2.0
 40
2.0
 40
2.0
 40
3.0
 40
3.0
 40
3.0
 40
4.0
 40
4.0
 40
4.0
 40
5.0
 40
5.0
 40
5.0
 40
6.0
 40
6.0
 40
6.0
 40
7.0
 40
7.0
 40
7.0
 40
7.0
 10
114.3813042248769
 20
-139.1108886370973
 30
0.0
 10
114.3813042248769
 20
-139.1108886370973
 30
0.0
 10
113.2768066123058
 20
-139.1108886370973
 30
0.0
 10
113.2768066123058
 20
-139.1108886370973
 30
0.0
 10
113.2768066123058
 20
-139.1108886370973
 30
0.0
 10
113.2768066123058
 20
-139.4409287845842
 30
0.0
 10
113.2768066123058
 20
-139.4409287845842
 30
0.0
 10
113.2768066123058
 20
-139.4409287845842
 30
0.0
 10
113.1286675064401
 20
-139.4409287845842
 30
0.0
 10
113.1286675064401
 20
-139.4409287845842
 30
0.0
 10
113.114198105402
 20
-139.1088215798061
 30
0.0
 10
112.9512450889497
 20
-139.0623127907553
 30
0.0
 10
112.8372124283879
 20
-139.0326849695821
 30
0.0
 10
112.8372124283879
 20
-139.0326849695821
 30
0.0
 10
112.8372124283879
 20
-138.8866129210075
 30
0.0
 10
112.8372124283879
 20
-138.8866129210075
 30
0.0
 10
112.8372124283879
 20
-138.8866129210075
 30
0.0
 10
114.3813042248769
 20
-138.8866129210075
 30
0.0
 10
114.3813042248769
 20
-138.8866129210075
 30
0.0
 10
114.3813042248769
 20
-138.8866129210075
 30
0.0
 10
114.3813042248769
 20
-139.1108886370973
 30
0.0
 10
114.3813042248769
 20
-139.1108886370973
 30
0.0
  0
HATCH
  5
89
330
84
100
AcDbEntity
  8
_U+30EC_U+30A4_U+30E4_U+30FC 1
 62
     7
420
 16777215
100
AcDbHatch
 10
0.0
 20
0.0
 30
0.0
210
0.0
220
0.0
230
1.0
  2
SOLID
 70
     1
 71
     0
 91
        1
 92
        1
 93
        1
 72
     4
 94
        3
 73
     0
 74
     1
 95
       26
 96
       22
 40
0.0
 40
0.0
 40
0.0
 40
0.0
 40
1.0
 40
1.0
 40
1.0
 40
2.0
 40
2.0
 40
2.0
 40
3.0
 40
3.0
 40
3.0
 40
4.0
 40
4.0
 40
4.0
 40
5.0
 40
5.0
 40
5.0
 40
6.0
 40
6.0
 40
6.0
 40
7.0
 40
7.0
 40
7.0
 40
7.0
 10
114.3813042248769
 20
-139.1108886370973
 10
114.3813042248769
 20
-139.1108886370973
 10
113.2768066123058
 20
-139.1108886370973
 10
113.2768066123058
 20
-139.1108886370973
 10
113.2768066123058
 20
-139.1108886370973
 10
113.2768066123058
 20
-139.4409287845842
 10
113.2768066123058
 20
-139.4409287845842
 10
113.2768066123058
 20
-139.4409287845842
 10
113.1286675064401
 20
-139.4409287845842
 10
113.1286675064401
 20
-139.4409287845842
 10
113.114198105402
 20
-139.1088215798061
 10
112.9512450889497
 20
-139.0623127907553
 10
112.8372124283879
 20
-139.0326849695821
 10
112.8372124283879
 20
-139.0326849695821
 10
112.8372124283879
 20
-138.8866129210075
 10
112.8372124283879
 20
-138.8866129210075
 10
112.8372124283879
 20
-138.8866129210075
 10
114.3813042248769
 20
-138.8866129210075
 10
114.3813042248769
 20
-138.8866129210075
 10
114.3813042248769
 20
-138.8866129210075
 10
114.3813042248769
 20
-139.1108886370973
 10
114.3813042248769
 20
-139.1108886370973
 97
        0
 97
        0
 75
     2
 76
     1
 98
        0
  0
SPLINE
  5
8A
330
84
100
AcDbEntity
  8
_U+30EC_U+30A4_U+30E4_U+30FC 1
370
     0
100
AcDbSpline
210
0.0
220
0.0
230
1.0
 70
    11
 71
     3
 72
    29
 73
    25
 74
     0
 42
0.0000000001
 43
0.0000000001
 12
1.0
 22
0.0
 32
0.0
 13
1.0
 23
0.0
 33
0.0
 40
0.0
 40
0.0
 40
0.0
 40
0.0
 40
1.0
 40
1.0
 40
1.0
 40
2.0
 40
2.0
 40
2.0
 40
3.0
 40
3.0
 40
3.0
 40
4.0
 40
4.0
 40
4.0
 40
5.0
 40
5.0
 40
5.0
 40
6.0
 40
6.0
 40
6.0
 40
7.0
 40
7.0
 40
7.0
 40
8.0
 40
8.0
 40
8.0
 40
8.0
 10
114.203537297838
 20
-137.4875596444476
 30
0.0
 10
114.4129991033412
 20
-137.5953911331359
 30
0.0
 10
114.4322916380586
 20
-137.7690239455925
 30
0.0
 10
114.4322916380586
 20
-137.8854681729939
 30
0.0
 10
114.4322916380586
 20
-138.0460096226066
 30
0.0
 10
114.3854383394592
 20
-138.1879475565989
 30
0.0
 10
114.203537297838
 20
-138.2830321919917
 30
0.0
 10
114.0092339124699
 20
-138.3867295660978
 30
0.0
 10
113.7722113430847
 20
-138.4056775912667
 30
0.0
 10
113.6089138170839
 20
-138.4056775912667
 30
0.0
 10
113.465253335349
 20
-138.4056775912667
 30
0.0
 10
113.2134168553772
 20
-138.3887966233889
 30
0.0
 10
113.0146348458783
 20
-138.2830321919917
 30
0.0
 10
112.8117187217971
 20
-138.1752007033034
 30
0.0
 10
112.7882920724974
 20
-138.0143147441423
 30
0.0
 10
112.7882920724974
 20
-137.8854681729939
 30
0.0
 10
112.7882920724974
 20
-137.7266492711239
 30
0.0
 10
112.8327338042571
 20
-137.582988789389
 30
0.0
 10
113.0146348458783
 20
-137.4875596444476
 30
0.0
 10
113.2072156835038
 20
-137.3883408944724
 30
0.0
 10
113.4356255141758
 20
-137.3649142451727
 30
0.0
 10
113.6089138170839
 20
-137.3649142451727
 30
0.0
 10
113.7804795722493
 20
-137.3649142451727
 30
0.0
 10
114.0113009697611
 20
-137.3859293276327
 30
0.0
 10
114.203537297838
 20
-137.4875596444476
 30
0.0
  0
SPLINE
  5
8B
330
84
100
AcDbEntity
  8
_U+30EC_U+30A4_U+30E4_U+30FC 1
370
     0
100
AcDbSpline
210
0.0
220
0.0
230
1.0
 70
    11
 71
     3
 72
    17
 73
    13
 74
     0
 42
0.0000000001
 43
0.0000000001
 12
1.0
 22
0.0
 32
0.0
 13
1.0
 23
0.0
 33
0.0
 40
0.0
 40
0.0
 40
0.0
 40
0.0
 40
1.0
 40
1.0
 40
1.0
 40
2.0
 40
2.0
 40
2.0
 40
3.0
 40
3.0
 40
3.0
 40
4.0
 40
4.0
 40
4.0
 40
4.0
 10
112.9808729101228
 20
-137.8854681729939
 30
0.0
 10
112.9808729101228
 20
-138.134893086126
 30
0.0
 10
113.2644042685589
 20
-138.1814018751769
 30
0.0
 10
113.6089138170839
 20
-138.1814018751769
 30
0.0
 10
113.9286186781151
 20
-138.1814018751769
 30
0.0
 10
114.2372992335935
 20
-138.1455728821303
 30
0.0
 10
114.2372992335935
 20
-137.8854681729939
 30
0.0
 10
114.2372992335935
 20
-137.6377658076045
 30
0.0
 10
113.9561794419971
 20
-137.5891899612624
 30
0.0
 10
113.6089138170839
 20
-137.5891899612624
 30
0.0
 10
113.2898979751498
 20
-137.5891899612624
 30
0.0
 10
112.9808729101228
 20
-137.6274305211487
 30
0.0
 10
112.9808729101228
 20
-137.8854681729939
 30
0.0
  0
HATCH
  5
8C
330
84
100
AcDbEntity
  8
_U+30EC_U+30A4_U+30E4_U+30FC 1
 62
     7
420
 16777215
100
AcDbHatch
 10
0.0
 20
0.0
 30
0.0
210
0.0
220
0.0
230
1.0
  2
SOLID
 70
     1
 71
     0
 91
        2
 92
        1
 93
        1
 72
     4
 94
        3
 73
     0
 74
     1
 95
       29
 96
       25
 40
0.0
 40
0.0
 40
0.0
 40
0.0
 40
1.0
 40
1.0
 40
1.0
 40
2.0
 40
2.0
 40
2.0
 40
3.0
 40
3.0
 40
3.0
 40
4.0
 40
4.0
 40
4.0
 40
5.0
 40
5.0
 40
5.0
 40
6.0
 40
6.0
 40
6.0
 40
7.0
 40
7.0
 40
7.0
 40
8.0
 40
8.0
 40
8.0
 40
8.0
 10
114.203537297838
 20
-137.4875596444476
 10
114.4129991033412
 20
-137.5953911331359
 10
114.4322916380586
 20
-137.7690239455925
 10
114.4322916380586
 20
-137.8854681729939
 10
114.4322916380586
 20
-138.0460096226066
 10
114.3854383394592
 20
-138.1879475565989
 10
114.203537297838
 20
-138.2830321919917
 10
114.0092339124699
 20
-138.3867295660978
 10
113.7722113430847
 20
-138.4056775912667
 10
113.6089138170839
 20
-138.4056775912667
 10
113.465253335349
 20
-138.4056775912667
 10
113.2134168553772
 20
-138.3887966233889
 10
113.0146348458783
 20
-138.2830321919917
 10
112.8117187217971
 20
-138.1752007033034
 10
112.7882920724974
 20
-138.0143147441423
 10
112.7882920724974
 20
-137.8854681729939
 10
112.7882920724974
 20
-137.7266492711239
 10
112.8327338042571
 20
-137.582988789389
 10
113.0146348458783
 20
-137.4875596444476
 10
113.2072156835038
 20
-137.3883408944724
 10
113.4356255141758
 20
-137.3649142451727
 10
113.6089138170839
 20
-137.3649142451727
 10
113.7804795722493
 20
-137.3649142451727
 10
114.0113009697611
 20
-137.3859293276327
 10
114.203537297838
 20
-137.4875596444476
 97
        0
 97
        0
 92
        1
 93
        1
 72
     4
 94
        3
 73
     0
 74
     1
 95
       17
 96
       13
 40
0.0
 40
0.0
 40
0.0
 40
0.0
 40
1.0
 40
1.0
 40
1.0
 40
2.0
 40
2.0
 40
2.0
 40
3.0
 40
3.0
 40
3.0
 40
4.0
 40
4.0
 40
4.0
 40
4.0
 10
112.9808729101228
 20
-137.8854681729939
 10
112.9808729101228
 20
-138.134893086126
 10
113.2644042685589
 20
-138.1814018751769
 10
113.6089138170839
 20
-138.1814018751769
 10
113.9286186781151
 20
-138.1814018751769
 10
114.2372992335935
 20
-138.1455728821303
 10
114.2372992335935
 20
-137.8854681729939
 10
114.2372992335935
 20
-137.6377658076045
 10
113.9561794419971
 20
-137.5891899612624
 10
113.6089138170839
 20
-137.5891899612624
 10
113.2898979751498
 20
-137.5891899612624
 10
112.9808729101228
 20
-137.6274305211487
 10
112.9808729101228
 20
-137.8854681729939
 97
        0
 97
        0
 75
     2
 76
     1
 98
        0
  0
ENDBLK
  5
87
330
84
100
AcDbEntity
  8
0
100
AcDbBlockEnd
  0
BLOCK
  5
8F
330
8D
100
AcDbEntity
  8
0
100
AcDbBlockBegin
  2
block 5
 70
     0
 10
0.0
 20
0.0
 30
0.0
  3
block 5
  1

  0
SPLINE
  5
91
330
8D
100
AcDbEntity
  8
_U+30EC_U+30A4_U+30E4_U+30FC 1
370
     0
100
AcDbSpline
210
0.0
220
0.0
230
1.0
 70
    11
 71
     3
 72
    26
 73
    22
 74
     0
 42
0.0000000001
 43
0.0000000001
 12
1.0
 22
0.0
 32
0.0
 13
1.0
 23
0.0
 33
0.0
 40
0.0
 40
0.0
 40
0.0
 40
0.0
 40
1.0
 40
1.0
 40
1.0
 40
2.0
 40
2.0
 40
2.0
 40
3.0
 40
3.0
 40
3.0
 40
4.0
 40
4.0
 40
4.0
 40
5.0
 40
5.0
 40
5.0
 40
6.0
 40
6.0
 40
6.0
 40
7.0
 40
7.0
 40
7.0
 40
7.0
 10
114.3813042248769
 20
-133.033395691568
 30
0.0
 10
114.3813042248769
 20
-133.033395691568
 30
0.0
 10
113.2768066123058
 20
-133.033395691568
 30
0.0
 10
113.2768066123058
 20
-133.033395691568
 30
0.0
 10
113.2768066123058
 20
-133.033395691568
 30
0.0
 10
113.2768066123058
 20
-133.363435839055
 30
0.0
 10
113.2768066123058
 20
-133.363435839055
 30
0.0
 10
113.2768066123058
 20
-133.363435839055
 30
0.0
 10
113.1286675064401
 20
-133.363435839055
 30
0.0
 10
113.1286675064401
 20
-133.363435839055
 30
0.0
 10
113.114198105402
 20
-133.0313286342769
 30
0.0
 10
112.9512450889497
 20
-132.984819845226
 30
0.0
 10
112.8372124283879
 20
-132.9551920240529
 30
0.0
 10
112.8372124283879
 20
-132.9551920240529
 30
0.0
 10
112.8372124283879
 20
-132.8091199754783
 30
0.0
 10
112.8372124283879
 20
-132.8091199754783
 30
0.0
 10
112.8372124283879
 20
-132.8091199754783
 30
0.0
 10
114.3813042248769
 20
-132.8091199754783
 30
0.0
 10
114.3813042248769
 20
-132.8091199754783
 30
0.0
 10
114.3813042248769
 20
-132.8091199754783
 30
0.0
 10
114.3813042248769
 20
-133.033395691568
 30
0.0
 10
114.3813042248769
 20
-133.033395691568
 30
0.0
  0
HATCH
  5
92
330
8D
100
AcDbEntity
  8
_U+30EC_U+30A4_U+30E4_U+30FC 1
 62
     7
420
 16777215
100
AcDbHatch
 10
0.0
 20
0.0
 30
0.0
210
0.0
220
0.0
230
1.0
  2
SOLID
 70
     1
 71
     0
 91
        1
 92
        1
 93
        1
 72
     4
 94
        3
 73
     0
 74
     1
 95
       26
 96
       22
 40
0.0
 40
0.0
 40
0.0
 40
0.0
 40
1.0
 40
1.0
 40
1.0
 40
2.0
 40
2.0
 40
2.0
 40
3.0
 40
3.0
 40
3.0
 40
4.0
 40
4.0
 40
4.0
 40
5.0
 40
5.0
 40
5.0
 40
6.0
 40
6.0
 40
6.0
 40
7.0
 40
7.0
 40
7.0
 40
7.0
 10
114.3813042248769
 20
-133.033395691568
 10
114.3813042248769
 20
-133.033395691568
 10
113.2768066123058
 20
-133.033395691568
 10
113.2768066123058
 20
-133.033395691568
 10
113.2768066123058
 20
-133.033395691568
 10
113.2768066123058
 20
-133.363435839055
 10
113.2768066123058
 20
-133.363435839055
 10
113.2768066123058
 20
-133.363435839055
 10
113.1286675064401
 20
-133.363435839055
 10
113.1286675064401
 20
-133.363435839055
 10
113.114198105402
 20
-133.0313286342769
 10
112.9512450889497
 20
-132.984819845226
 10
112.8372124283879
 20
-132.9551920240529
 10
112.8372124283879
 20
-132.9551920240529
 10
112.8372124283879
 20
-132.8091199754783
 10
112.8372124283879
 20
-132.8091199754783
 10
112.8372124283879
 20
-132.8091199754783
 10
114.3813042248769
 20
-132.8091199754783
 10
114.3813042248769
 20
-132.8091199754783
 10
114.3813042248769
 20
-132.8091199754783
 10
114.3813042248769
 20
-133.033395691568
 10
114.3813042248769
 20
-133.033395691568
 97
        0
 97
        0
 75
     2
 76
     1
 98
        0
  0
ENDBLK
  5
90
330
8D
100
AcDbEntity
  8
0
100
AcDbBlockEnd
  0
BLOCK
  5
AF
330
AD
100
AcDbEntity
  8
0
100
AcDbBlockBegin
  2
block 6
 70
     0
 10
0.0
 20
0.0
 30
0.0
  3
block 6
  1

  0
SPLINE
  5
B1
330
AD
100
AcDbEntity
  8
_U+30EC_U+30A4_U+30E4_U+30FC 1
370
     0
100
AcDbSpline
210
0.0
220
0.0
230
1.0
 70
    11
 71
     3
 72
    44
 73
    40
 74
     0
 42
0.0000000001
 43
0.0000000001
 12
1.0
 22
0.0
 32
0.0
 13
1.0
 23
0.0
 33
0.0
 40
0.0
 40
0.0
 40
0.0
 40
0.0
 40
1.0
 40
1.0
 40
1.0
 40
2.0
 40
2.0
 40
2.0
 40
3.0
 40
3.0
 40
3.0
 40
4.0
 40
4.0
 40
4.0
 40
5.0
 40
5.0
 40
5.0
 40
6.0
 40
6.0
 40
6.0
 40
7.0
 40
7.0
 40
7.0
 40
8.0
 40
8.0
 40
8.0
 40
9.0
 40
9.0
 40
9.0
 40
10.0
 40
10.0
 40
10.0
 40
11.0
 40
11.0
 40
11.0
 40
12.0
 40
12.0
 40
12.0
 40
13.0
 40
13.0
 40
13.0
 40
13.0
 10
113.7997721069667
 20
-120.6847954342385
 30
0.0
 10
113.9582464992882
 20
-120.9025254689063
 30
0.0
 10
114.0323160522211
 20
-120.9955430470081
 30
0.0
 10
114.1763210435045
 20
-121.0444634028986
 30
0.0
 10
114.1763210435045
 20
-121.0444634028986
 30
0.0
 10
114.1763210435045
 20
-120.2658718232321
 30
0.0
 10
114.1763210435045
 20
-120.2658718232321
 30
0.0
 10
114.1763210435045
 20
-120.2658718232321
 30
0.0
 10
114.3813042248769
 20
-120.2658718232321
 30
0.0
 10
114.3813042248769
 20
-120.2658718232321
 30
0.0
 10
114.3813042248769
 20
-120.2658718232321
 30
0.0
 10
114.3813042248769
 20
-121.2938883160307
 30
0.0
 10
114.3813042248769
 20
-121.2938883160307
 30
0.0
 10
114.0240478230565
 20
-121.2621934375664
 30
0.0
 10
113.9454996459928
 20
-121.1967366233467
 30
0.0
 10
113.6471543769702
 20
-120.8115749480957
 30
0.0
 10
113.4483723674713
 20
-120.5556043535417
 30
0.0
 10
113.3808484959604
 20
-120.4901475393219
 30
0.0
 10
113.2433891860989
 20
-120.4901475393219
 30
0.0
 10
113.1248779014063
 20
-120.4901475393219
 30
0.0
 10
112.9936197634183
 20
-120.5621500349636
 30
0.0
 10
112.9936197634183
 20
-120.7588649871714
 30
0.0
 10
112.9936197634183
 20
-121.0189696963078
 30
0.0
 10
113.2240966513815
 20
-121.0275824350209
 30
0.0
 10
113.3405408787829
 20
-121.0317165496032
 30
0.0
 10
113.3405408787829
 20
-121.0317165496032
 30
0.0
 10
113.3405408787829
 20
-121.255992265693
 30
0.0
 10
113.3405408787829
 20
-121.255992265693
 30
0.0
 10
113.2137613649257
 20
-121.2473795269798
 30
0.0
 10
113.1014512521066
 20
-121.2366997309756
 30
0.0
 10
112.982939967414
 20
-121.1564290061692
 30
0.0
 10
112.8223985178013
 20
-121.0465304601898
 30
0.0
 10
112.7882920724974
 20
-120.8601507944377
 30
0.0
 10
112.7882920724974
 20
-120.7440510765848
 30
0.0
 10
112.7882920724974
 20
-120.4667208900222
 30
0.0
 10
112.9726046809582
 20
-120.2593261418102
 30
0.0
 10
113.24545624339
 20
-120.2593261418102
 30
0.0
 10
113.4738660740621
 20
-120.2593261418102
 30
0.0
 10
113.5734293335858
 20
-120.3757703692116
 30
0.0
 10
113.7997721069667
 20
-120.6847954342385
 30
0.0
  0
HATCH
  5
B2
330
AD
100
AcDbEntity
  8
_U+30EC_U+30A4_U+30E4_U+30FC 1
 62
     7
420
 16777215
100
AcDbHatch
 10
0.0
 20
0.0
 30
0.0
210
0.0
220
0.0
230
1.0
  2
SOLID
 70
     1
 71
     0
 91
        1
 92
        1
 93
        1
 72
     4
 94
        3
 73
     0
 74
     1
 95
       44
 96
       40
 40
0.0
 40
0.0
 40
0.0
 40
0.0
 40
1.0
 40
1.0
 40
1.0
 40
2.0
 40
2.0
 40
2.0
 40
3.0
 40
3.0
 40
3.0
 40
4.0
 40
4.0
 40
4.0
 40
5.0
 40
5.0
 40
5.0
 40
6.0
 40
6.0
 40
6.0
 40
7.0
 40
7.0
 40
7.0
 40
8.0
 40
8.0
 40
8.0
 40
9.0
 40
9.0
 40
9.0
 40
10.0
 40
10.0
 40
10.0
 40
11.0
 40
11.0
 40
11.0
 40
12.0
 40
12.0
 40
12.0
 40
13.0
 40
13.0
 40
13.0
 40
13.0
 10
113.7997721069667
 20
-120.6847954342385
 10
113.9582464992882
 20
-120.9025254689063
 10
114.0323160522211
 20
-120.9955430470081
 10
114.1763210435045
 20
-121.0444634028986
 10
114.1763210435045
 20
-121.0444634028986
 10
114.1763210435045
 20
-120.2658718232321
 10
114.1763210435045
 20
-120.2658718232321
 10
114.1763210435045
 20
-120.2658718232321
 10
114.3813042248769
 20
-120.2658718232321
 10
114.3813042248769
 20
-120.2658718232321
 10
114.3813042248769
 20
-120.2658718232321
 10
114.3813042248769
 20
-121.2938883160307
 10
114.3813042248769
 20
-121.2938883160307
 10
114.0240478230565
 20
-121.2621934375664
 10
113.9454996459928
 20
-121.1967366233467
 10
113.6471543769702
 20
-120.8115749480957
 10
113.4483723674713
 20
-120.5556043535417
 10
113.3808484959604
 20
-120.4901475393219
 10
113.2433891860989
 20
-120.4901475393219
 10
113.1248779014063
 20
-120.4901475393219
 10
112.9936197634183
 20
-120.5621500349636
 10
112.9936197634183
 20
-120.7588649871714
 10
112.9936197634183
 20
-121.0189696963078
 10
113.2240966513815
 20
-121.0275824350209
 10
113.3405408787829
 20
-121.0317165496032
 10
113.3405408787829
 20
-121.0317165496032
 10
113.3405408787829
 20
-121.255992265693
 10
113.3405408787829
 20
-121.255992265693
 10
113.2137613649257
 20
-121.2473795269798
 10
113.1014512521066
 20
-121.2366997309756
 10
112.982939967414
 20
-121.1564290061692
 10
112.8223985178013
 20
-121.0465304601898
 10
112.7882920724974
 20
-120.8601507944377
 10
112.7882920724974
 20
-120.7440510765848
 10
112.7882920724974
 20
-120.4667208900222
 10
112.9726046809582
 20
-120.2593261418102
 10
113.24545624339
 20
-120.2593261418102
 10
113.4738660740621
 20
-120.2593261418102
 10
113.5734293335858
 20
-120.3757703692116
 10
113.7997721069667
 20
-120.6847954342385
 97
        0
 97
        0
 75
     2
 76
     1
 98
        0
  0
SPLINE
  5
B3
330
AD
100
AcDbEntity
  8
_U+30EC_U+30A4_U+30E4_U+30FC 1
370
     0
100
AcDbSpline
210
0.0
220
0.0
230
1.0
 70
    11
 71
     3
 72
    53
 73
    49
 74
     0
 42
0.0000000001
 43
0.0000000001
 12
1.0
 22
0.0
 32
0.0
 13
1.0
 23
0.0
 33
0.0
 40
0.0
 40
0.0
 40
0.0
 40
0.0
 40
1.0
 40
1.0
 40
1.0
 40
2.0
 40
2.0
 40
2.0
 40
3.0
 40
3.0
 40
3.0
 40
4.0
 40
4.0
 40
4.0
 40
5.0
 40
5.0
 40
5.0
 40
6.0
 40
6.0
 40
6.0
 40
7.0
 40
7.0
 40
7.0
 40
8.0
 40
8.0
 40
8.0
 40
9.0
 40
9.0
 40
9.0
 40
10.0
 40
10.0
 40
10.0
 40
11.0
 40
11.0
 40
11.0
 40
12.0
 40
12.0
 40
12.0
 40
13.0
 40
13.0
 40
13.0
 40
14.0
 40
14.0
 40
14.0
 40
15.0
 40
15.0
 40
15.0
 40
16.0
 40
16.0
 40
16.0
 40
16.0
 10
114.4322916380586
 20
-119.6199164197478
 30
0.0
 10
114.4322916380586
 20
-119.698120087263
 30
0.0
 10
114.4154106701809
 20
-119.7997504040778
 30
0.0
 10
114.3516764037037
 20
-119.9013807208927
 30
0.0
 10
114.2417778577243
 20
-120.0746690238008
 30
0.0
 10
114.1105197197363
 20
-120.0960286158093
 30
0.0
 10
114.0026882310479
 20
-120.1149766409782
 30
0.0
 10
114.0026882310479
 20
-120.1149766409782
 30
0.0
 10
114.0026882310479
 20
-119.8927679821796
 30
0.0
 10
114.0026882310479
 20
-119.8927679821796
 30
0.0
 10
114.2014702405469
 20
-119.8379909639641
 30
0.0
 10
114.23109806172
 20
-119.7108669405584
 30
0.0
 10
114.23109806172
 20
-119.6178493624567
 30
0.0
 10
114.23109806172
 20
-119.478322995304
 30
0.0
 10
114.1318793117448
 20
-119.326049774856
 30
0.0
 10
113.8989908569419
 20
-119.326049774856
 30
0.0
 10
113.6430202623879
 20
-119.326049774856
 30
0.0
 10
113.5734293335858
 20
-119.505883759186
 30
0.0
 10
113.5734293335858
 20
-119.6264621011698
 30
0.0
 10
113.5734293335858
 20
-119.6581569796341
 30
0.0
 10
113.5734293335858
 20
-119.7997504040778
 30
0.0
 10
113.7022759047342
 20
-119.8886338675973
 30
0.0
 10
113.7022759047342
 20
-119.8886338675973
 30
0.0
 10
113.6833278795653
 20
-120.064333737345
 30
0.0
 10
113.6833278795653
 20
-120.064333737345
 30
0.0
 10
113.6833278795653
 20
-120.064333737345
 30
0.0
 10
112.8372124283879
 20
-119.9437553953613
 30
0.0
 10
112.8372124283879
 20
-119.9437553953613
 30
0.0
 10
112.8372124283879
 20
-119.9437553953613
 30
0.0
 10
112.8372124283879
 20
-119.1651638156948
 30
0.0
 10
112.8372124283879
 20
-119.1651638156948
 30
0.0
 10
112.8372124283879
 20
-119.1651638156948
 30
0.0
 10
113.0318603233045
 20
-119.1651638156948
 30
0.0
 10
113.0318603233045
 20
-119.1651638156948
 30
0.0
 10
113.0318603233045
 20
-119.1651638156948
 30
0.0
 10
113.0318603233045
 20
-119.780802378909
 30
0.0
 10
113.0318603233045
 20
-119.780802378909
 30
0.0
 10
113.0318603233045
 20
-119.780802378909
 30
0.0
 10
113.4549180488932
 20
-119.8462591931287
 30
0.0
 10
113.4549180488932
 20
-119.8462591931287
 30
0.0
 10
113.4208116035892
 20
-119.7849364934913
 30
0.0
 10
113.3808484959604
 20
-119.7025987113938
 30
0.0
 10
113.3808484959604
 20
-119.5840874267012
 30
0.0
 10
113.3808484959604
 20
-119.3301838894383
 30
0.0
 10
113.5668836521638
 20
-119.0931613200531
 30
0.0
 10
113.8800428317731
 20
-119.0931613200531
 30
0.0
 10
114.1973361259646
 20
-119.0931613200531
 30
0.0
 10
114.4322916380586
 20
-119.3174370361429
 30
0.0
 10
114.4322916380586
 20
-119.6199164197478
 30
0.0
  0
HATCH
  5
B4
330
AD
100
AcDbEntity
  8
_U+30EC_U+30A4_U+30E4_U+30FC 1
 62
     7
420
 16777215
100
AcDbHatch
 10
0.0
 20
0.0
 30
0.0
210
0.0
220
0.0
230
1.0
  2
SOLID
 70
     1
 71
     0
 91
        1
 92
        1
 93
        1
 72
     4
 94
        3
 73
     0
 74
     1
 95
       53
 96
       49
 40
0.0
 40
0.0
 40
0.0
 40
0.0
 40
1.0
 40
1.0
 40
1.0
 40
2.0
 40
2.0
 40
2.0
 40
3.0
 40
3.0
 40
3.0
 40
4.0
 40
4.0
 40
4.0
 40
5.0
 40
5.0
 40
5.0
 40
6.0
 40
6.0
 40
6.0
 40
7.0
 40
7.0
 40
7.0
 40
8.0
 40
8.0
 40
8.0
 40
9.0
 40
9.0
 40
9.0
 40
10.0
 40
10.0
 40
10.0
 40
11.0
 40
11.0
 40
11.0
 40
12.0
 40
12.0
 40
12.0
 40
13.0
 40
13.0
 40
13.0
 40
14.0
 40
14.0
 40
14.0
 40
15.0
 40
15.0
 40
15.0
 40
16.0
 40
16.0
 40
16.0
 40
16.0
 10
114.4322916380586
 20
-119.6199164197478
 10
114.4322916380586
 20
-119.698120087263
 10
114.4154106701809
 20
-119.7997504040778
 10
114.3516764037037
 20
-119.9013807208927
 10
114.2417778577243
 20
-120.0746690238008
 10
114.1105197197363
 20
-120.0960286158093
 10
114.0026882310479
 20
-120.1149766409782
 10
114.0026882310479
 20
-120.1149766409782
 10
114.0026882310479
 20
-119.8927679821796
 10
114.0026882310479
 20
-119.8927679821796
 10
114.2014702405469
 20
-119.8379909639641
 10
114.23109806172
 20
-119.7108669405584
 10
114.23109806172
 20
-119.6178493624567
 10
114.23109806172
 20
-119.478322995304
 10
114.1318793117448
 20
-119.326049774856
 10
113.8989908569419
 20
-119.326049774856
 10
113.6430202623879
 20
-119.326049774856
 10
113.5734293335858
 20
-119.505883759186
 10
113.5734293335858
 20
-119.6264621011698
 10
113.5734293335858
 20
-119.6581569796341
 10
113.5734293335858
 20
-119.7997504040778
 10
113.7022759047342
 20
-119.8886338675973
 10
113.7022759047342
 20
-119.8886338675973
 10
113.6833278795653
 20
-120.064333737345
 10
113.6833278795653
 20
-120.064333737345
 10
113.6833278795653
 20
-120.064333737345
 10
112.8372124283879
 20
-119.9437553953613
 10
112.8372124283879
 20
-119.9437553953613
 10
112.8372124283879
 20
-119.9437553953613
 10
112.8372124283879
 20
-119.1651638156948
 10
112.8372124283879
 20
-119.1651638156948
 10
112.8372124283879
 20
-119.1651638156948
 10
113.0318603233045
 20
-119.1651638156948
 10
113.0318603233045
 20
-119.1651638156948
 10
113.0318603233045
 20
-119.1651638156948
 10
113.0318603233045
 20
-119.780802378909
 10
113.0318603233045
 20
-119.780802378909
 10
113.0318603233045
 20
-119.780802378909
 10
113.4549180488932
 20
-119.8462591931287
 10
113.4549180488932
 20
-119.8462591931287
 10
113.4208116035892
 20
-119.7849364934913
 10
113.3808484959604
 20
-119.7025987113938
 10
113.3808484959604
 20
-119.5840874267012
 10
113.3808484959604
 20
-119.3301838894383
 10
113.5668836521638
 20
-119.0931613200531
 10
113.8800428317731
 20
-119.0931613200531
 10
114.1973361259646
 20
-119.0931613200531
 10
114.4322916380586
 20
-119.3174370361429
 10
114.4322916380586
 20
-119.6199164197478
 97
        0
 97
        0
 75
     2
 76
     1
 98
        0
  0
ENDBLK
  5
B0
330
AD
100
AcDbEntity
  8
0
100
AcDbBlockEnd
  0
ENDSEC
  0
SECTION
  2
ENTITIES
  0
SPLINE
  5
41
330
1F
100
AcDbEntity
  8
_U+30EC_U+30A4_U+30E4_U+30FC 1
 62
     7
420
 16777215
370
     9
100
AcDbSpline
210
0.0
220
0.0
230
1.0
 70
    11
 71
     3
 72
    17
 73
    13
 74
     0
 42
0.0000000001
 43
0.0000000001
 12
1.0
 22
0.0
 32
0.0
 13
1.0
 23
0.0
 33
0.0
 40
0.0
 40
0.0
 40
0.0
 40
0.0
 40
1.0
 40
1.0
 40
1.0
 40
2.0
 40
2.0
 40
2.0
 40
3.0
 40
3.0
 40
3.0
 40
4.0
 40
4.0
 40
4.0
 40
4.0
 10
110.7846371736484
 20
-133.4733310777426
 30
0.0
 10
110.7846371736484
 20
-133.4175216333122
 30
0.0
 10
110.7398343970137
 20
-133.3727541333236
 30
0.0
 10
110.6847333056623
 20
-133.3727541333236
 30
0.0
 10
110.6295913442707
 20
-133.3727541333236
 30
0.0
 10
110.5848238454128
 20
-133.4175216333122
 30
0.0
 10
110.5848238454128
 20
-133.4733310777426
 30
0.0
 10
110.5848238454128
 20
-133.5284702443957
 30
0.0
 10
110.6295913442707
 20
-133.5732377443843
 30
0.0
 10
110.6847333056623
 20
-133.5732377443843
 30
0.0
 10
110.7398343970137
 20
-133.5732377443843
 30
0.0
 10
110.7846371736484
 20
-133.5284702443957
 30
0.0
 10
110.7846371736484
 20
-133.4733310777426
 30
0.0
  0
SPLINE
  5
42
330
1F
100
AcDbEntity
  8
_U+30EC_U+30A4_U+30E4_U+30FC 1
 62
     7
420
 16777215
370
     9
100
AcDbSpline
210
0.0
220
0.0
230
1.0
 70
    11
 71
     3
 72
    17
 73
    13
 74
     0
 42
0.0000000001
 43
0.0000000001
 12
1.0
 22
0.0
 32
0.0
 13
1.0
 23
0.0
 33
0.0
 40
0.0
 40
0.0
 40
0.0
 40
0.0
 40
1.0
 40
1.0
 40
1.0
 40
2.0
 40
2.0
 40
2.0
 40
3.0
 40
3.0
 40
3.0
 40
4.0
 40
4.0
 40
4.0
 40
4.0
 10
110.7846371736484
 20
-143.4730641307982
 30
0.0
 10
110.7846371736484
 20
-143.4179602419233
 30
0.0
 10
110.7398343970137
 20
-143.3731574641565
 30
0.0
 10
110.6847333056623
 20
-143.3731574641565
 30
0.0
 10
110.6295913442707
 20
-143.3731574641565
 30
0.0
 10
110.5848238454128
 20
-143.4179602419233
 30
0.0
 10
110.5848238454128
 20
-143.4730641307982
 30
0.0
 10
110.5848238454128
 20
-143.5282032974513
 30
0.0
 10
110.6295913442707
 20
-143.5729707974398
 30
0.0
 10
110.6847333056623
 20
-143.5729707974398
 30
0.0
 10
110.7398343970137
 20
-143.5729707974398
 30
0.0
 10
110.7846371736484
 20
-143.5282032974513
 30
0.0
 10
110.7846371736484
 20
-143.4730641307982
 30
0.0
  0
SPLINE
  5
43
330
1F
100
AcDbEntity
  8
_U+30EC_U+30A4_U+30E4_U+30FC 1
 62
     7
420
 16777215
370
     9
100
AcDbSpline
210
0.0
220
0.0
230
1.0
 70
    11
 71
     3
 72
    17
 73
    13
 74
     0
 42
0.0000000001
 43
0.0000000001
 12
1.0
 22
0.0
 32
0.0
 13
1.0
 23
0.0
 33
0.0
 40
0.0
 40
0.0
 40
0.0
 40
0.0
 40
1.0
 40
1.0
 40
1.0
 40
2.0
 40
2.0
 40
2.0
 40
3.0
 40
3.0
 40
3.0
 40
4.0
 40
4.0
 40
4.0
 40
4.0
 10
67.30491828290849
 20
-132.979301077866
 30
0.0
 10
67.30491828290849
 20
-132.9241971889911
 30
0.0
 10
67.2601507840506
 20
-132.8793944112244
 30
0.0
 10
67.20501161879065
 20
-132.8793944112244
 30
0.0
 10
67.14920217577001
 20
-132.8793944112244
 30
0.0
 10
67.10443467691213
 20
-132.9241971889911
 30
0.0
 10
67.10443467691213
 20
-132.979301077866
 30
0.0
 10
67.10443467691213
 20
-133.0344402445191
 30
0.0
 10
67.14920217577001
 20
-133.0792077445083
 30
0.0
 10
67.20501161879065
 20
-133.0792077445083
 30
0.0
 10
67.2601507840506
 20
-133.0792077445083
 30
0.0
 10
67.30491828290849
 20
-133.0344402445191
 30
0.0
 10
67.30491828290849
 20
-132.979301077866
 30
0.0
  0
SPLINE
  5
44
330
1F
100
AcDbEntity
  8
_U+30EC_U+30A4_U+30E4_U+30FC 1
 62
     7
420
 16777215
370
     9
100
AcDbSpline
210
0.0
220
0.0
230
1.0
 70
    11
 71
     3
 72
    17
 73
    13
 74
     0
 42
0.0000000001
 43
0.0000000001
 12
1.0
 22
0.0
 32
0.0
 13
1.0
 23
0.0
 33
0.0
 40
0.0
 40
0.0
 40
0.0
 40
0.0
 40
1.0
 40
1.0
 40
1.0
 40
2.0
 40
2.0
 40
2.0
 40
3.0
 40
3.0
 40
3.0
 40
4.0
 40
4.0
 40
4.0
 40
4.0
 10
81.44774375542828
 20
-147.1241730187748
 30
0.0
 10
81.44774375542828
 20
-147.0690691298992
 30
0.0
 10
81.40294097879351
 20
-147.0242663521325
 30
0.0
 10
81.34783709131044
 20
-147.0242663521325
 30
0.0
 10
81.29269997967673
 20
-147.0242663521325
 30
0.0
 10
81.24793042719261
 20
-147.0690691298992
 30
0.0
 10
81.24793042719261
 20
-147.1241730187748
 30
0.0
 10
81.24793042719261
 20
-147.1793121854272
 30
0.0
 10
81.29269997967673
 20
-147.2240796854164
 30
0.0
 10
81.34783709131044
 20
-147.2240796854164
 30
0.0
 10
81.40294097879351
 20
-147.2240796854164
 30
0.0
 10
81.44774375542828
 20
-147.1793121854272
 30
0.0
 10
81.44774375542828
 20
-147.1241730187748
 30
0.0
  0
SPLINE
  5
45
330
1F
100
AcDbEntity
  8
_U+30EC_U+30A4_U+30E4_U+30FC 1
 62
     7
420
 16777215
370
     9
100
AcDbSpline
210
0.0
220
0.0
230
1.0
 70
    11
 71
     3
 72
    17
 73
    13
 74
     0
 42
0.0000000001
 43
0.0000000001
 12
1.0
 22
0.0
 32
0.0
 13
1.0
 23
0.0
 33
0.0
 40
0.0
 40
0.0
 40
0.0
 40
0.0
 40
1.0
 40
1.0
 40
1.0
 40
2.0
 40
2.0
 40
2.0
 40
3.0
 40
3.0
 40
3.0
 40
4.0
 40
4.0
 40
4.0
 40
4.0
 10
84.60757423036985
 20
-148.2962066295928
 30
0.0
 10
84.60757423036985
 20
-148.2403971851624
 30
0.0
 10
84.56280673151196
 20
-148.1955944073957
 30
0.0
 10
84.50766756625201
 20
-148.1955944073957
 30
0.0
 10
84.45256367876894
 20
-148.1955944073957
 30
0.0
 10
84.40776090213417
 20
-148.2403971851624
 30
0.0
 10
84.40776090213417
 20
-148.2962066295928
 30
0.0
 10
84.40776090213417
 20
-148.3513105184678
 30
0.0
 10
84.45256367876894
 20
-148.3961132962345
 30
0.0
 10
84.50766756625201
 20
-148.3961132962345
 30
0.0
 10
84.56280673151196
 20
-148.3961132962345
 30
0.0
 10
84.60757423036985
 20
-148.3513105184678
 30
0.0
 10
84.60757423036985
 20
-148.2962066295928
 30
0.0
  0
SPLINE
  5
46
330
1F
100
AcDbEntity
  8
_U+30EC_U+30A4_U+30E4_U+30FC 1
 62
     7
420
 16777215
370
     9
100
AcDbSpline
210
0.0
220
0.0
230
1.0
 70
    11
 71
     3
 72
    17
 73
    13
 74
     0
 42
0.0000000001
 43
0.0000000001
 12
1.0
 22
0.0
 32
0.0
 13
1.0
 23
0.0
 33
0.0
 40
0.0
 40
0.0
 40
0.0
 40
0.0
 40
1.0
 40
1.0
 40
1.0
 40
2.0
 40
2.0
 40
2.0
 40
3.0
 40
3.0
 40
3.0
 40
4.0
 40
4.0
 40
4.0
 40
4.0
 10
96.60738059089594
 20
-148.2962066295928
 30
0.0
 10
96.60738059089594
 20
-148.2403971851624
 30
0.0
 10
96.56257781426118
 20
-148.1955944073957
 30
0.0
 10
96.5074739267781
 20
-148.1955944073957
 30
0.0
 10
96.45233476151816
 20
-148.1955944073957
 30
0.0
 10
96.40756726266028
 20
-148.2403971851624
 30
0.0
 10
96.40756726266028
 20
-148.2962066295928
 30
0.0
 10
96.40756726266028
 20
-148.3513105184678
 30
0.0
 10
96.45233476151816
 20
-148.3961132962345
 30
0.0
 10
96.5074739267781
 20
-148.3961132962345
 30
0.0
 10
96.56257781426118
 20
-148.3961132962345
 30
0.0
 10
96.60738059089594
 20
-148.3513105184678
 30
0.0
 10
96.60738059089594
 20
-148.2962066295928
 30
0.0
  0
POLYLINE
  5
47
330
1F
100
AcDbEntity
  8
_U+30EC_U+30A4_U+30E4_U+30FC 1
 62
     7
420
 16777215
370
     9
100
AcDb2dPolyline
 66
     1
 10
0.0
 20
0.0
 30
0.0
  0
VERTEX
  5
48
330
47
100
AcDbEntity
  8
_U+30EC_U+30A4_U+30E4_U+30FC 1
 62
     7
420
 16777215
370
     9
100
AcDbVertex
100
AcDb2dVertex
 10
84.50766756625201
 20
-148.2962066295928
 30
0.0
  0
VERTEX
  5
49
330
47
100
AcDbEntity
  8
_U+30EC_U+30A4_U+30E4_U+30FC 1
 62
     7
420
 16777215
370
     9
100
AcDbVertex
100
AcDb2dVertex
 10
96.5074739267781
 20
-148.2962066295928
 30
0.0
  0
SEQEND
  5
4A
330
47
100
AcDbEntity
  8
_U+30EC_U+30A4_U+30E4_U+30FC 1
 62
     7
420
 16777215
370
     9
  0
POLYLINE
  5
4B
330
1F
100
AcDbEntity
  8
_U+30EC_U+30A4_U+30E4_U+30FC 1
 62
     7
420
 16777215
370
     9
100
AcDb2dPolyline
 66
     1
 10
0.0
 20
0.0
 30
0.0
  0
VERTEX
  5
4C
330
4B
100
AcDbEntity
  8
_U+30EC_U+30A4_U+30E4_U+30FC 1
 62
     7
420
 16777215
370
     9
100
AcDbVertex
100
AcDb2dVertex
 10
84.50766756625201
 20
-146.0362063523798
 30
0.0
  0
VERTEX
  5
4D
330
4B
100
AcDbEntity
  8
_U+30EC_U+30A4_U+30E4_U+30FC 1
 62
     7
420
 16777215
370
     9
100
AcDbVertex
100
AcDb2dVertex
 10
84.50766756625201
 20
-149.2959788515647
 30
0.0
  0
SEQEND
  5
4E
330
4B
100
AcDbEntity
  8
_U+30EC_U+30A4_U+30E4_U+30FC 1
 62
     7
420
 16777215
370
     9
  0
POLYLINE
  5
4F
330
1F
100
AcDbEntity
  8
_U+30EC_U+30A4_U+30E4_U+30FC 1
 62
     7
420
 16777215
370
     9
100
AcDb2dPolyline
 66
     1
 10
0.0
 20
0.0
 30
0.0
  0
VERTEX
  5
50
330
4F
100
AcDbEntity
  8
_U+30EC_U+30A4_U+30E4_U+30FC 1
 62
     7
420
 16777215
370
     9
100
AcDbVertex
100
AcDb2dVertex
 10
96.5074739267781
 20
-146.5357749633662
 30
0.0
  0
VERTEX
  5
51
330
4F
100
AcDbEntity
  8
_U+30EC_U+30A4_U+30E4_U+30FC 1
 62
     7
420
 16777215
370
     9
100
AcDbVertex
100
AcDb2dVertex
 10
96.5074739267781
 20
-149.2959788515647
 30
0.0
  0
SEQEND
  5
52
330
4F
100
AcDbEntity
  8
_U+30EC_U+30A4_U+30E4_U+30FC 1
 62
     7
420
 16777215
370
     9
  0
INSERT
  5
54
330
1F
100
AcDbEntity
  8
_U+30EC_U+30A4_U+30E4_U+30FC 1
100
AcDbBlockReference
  2
block 2
 10
0.0
 20
0.0
 30
0.0
  0
POLYLINE
  5
5B
330
1F
100
AcDbEntity
  8
_U+30EC_U+30A4_U+30E4_U+30FC 1
 62
     7
420
 16777215
370
     9
100
AcDb2dPolyline
 66
     1
 10
0.0
 20
0.0
 30
0.0
  0
VERTEX
  5
5C
330
5B
100
AcDbEntity
  8
_U+30EC_U+30A4_U+30E4_U+30FC 1
 62
     7
420
 16777215
370
     9
100
AcDbVertex
100
AcDb2dVertex
 10
67.20501161879065
 20
-132.979301077866
 30
0.0
  0
VERTEX
  5
5D
330
5B
100
AcDbEntity
  8
_U+30EC_U+30A4_U+30E4_U+30FC 1
 62
     7
420
 16777215
370
     9
100
AcDbVertex
100
AcDb2dVertex
 10
81.34783709131044
 20
-147.1241730187748
 30
0.0
  0
SEQEND
  5
5E
330
5B
100
AcDbEntity
  8
_U+30EC_U+30A4_U+30E4_U+30FC 1
 62
     7
420
 16777215
370
     9
  0
POLYLINE
  5
5F
330
1F
100
AcDbEntity
  8
_U+30EC_U+30A4_U+30E4_U+30FC 1
 62
     7
420
 16777215
370
     9
100
AcDb2dPolyline
 66
     1
 10
0.0
 20
0.0
 30
0.0
  0
VERTEX
  5
60
330
5F
100
AcDbEntity
  8
_U+30EC_U+30A4_U+30E4_U+30FC 1
 62
     7
420
 16777215
370
     9
100
AcDbVertex
100
AcDb2dVertex
 10
68.23716881468035
 20
-131.9471438559021
 30
0.0
  0
VERTEX
  5
61
330
5F
100
AcDbEntity
  8
_U+30EC_U+30A4_U+30E4_U+30FC 1
 62
     7
420
 16777215
370
     9
100
AcDbVertex
100
AcDb2dVertex
 10
66.4974099701764
 20
-133.6862324665787
 30
0.0
  0
SEQEND
  5
62
330
5F
100
AcDbEntity
  8
_U+30EC_U+30A4_U+30E4_U+30FC 1
 62
     7
420
 16777215
370
     9
  0
POLYLINE
  5
63
330
1F
100
AcDbEntity
  8
_U+30EC_U+30A4_U+30E4_U+30FC 1
 62
     7
420
 16777215
370
     9
100
AcDb2dPolyline
 66
     1
 10
0.0
 20
0.0
 30
0.0
  0
VERTEX
  5
64
330
63
100
AcDbEntity
  8
_U+30EC_U+30A4_U+30E4_U+30FC 1
 62
     7
420
 16777215
370
     9
100
AcDbVertex
100
AcDb2dVertex
 10
82.37999428720015
 20
-146.0920157968103
 30
0.0
  0
VERTEX
  5
65
330
63
100
AcDbEntity
  8
_U+30EC_U+30A4_U+30E4_U+30FC 1
 62
     7
420
 16777215
370
     9
100
AcDbVertex
100
AcDb2dVertex
 10
80.64090572045687
 20
-147.8318099630424
 30
0.0
  0
SEQEND
  5
66
330
63
100
AcDbEntity
  8
_U+30EC_U+30A4_U+30E4_U+30FC 1
 62
     7
420
 16777215
370
     9
  0
INSERT
  5
68
330
1F
100
AcDbEntity
  8
_U+30EC_U+30A4_U+30E4_U+30FC 1
100
AcDbBlockReference
  2
block 3
 10
0.0
 20
0.0
 30
0.0
  0
POLYLINE
  5
70
330
1F
100
AcDbEntity
  8
_U+30EC_U+30A4_U+30E4_U+30FC 1
 62
     7
420
 16777215
370
     9
100
AcDb2dPolyline
 66
     1
 10
0.0
 20
0.0
 30
0.0
  0
VERTEX
  5
71
330
70
100
AcDbEntity
  8
_U+30EC_U+30A4_U+30E4_U+30FC 1
 62
     7
420
 16777215
370
     9
100
AcDbVertex
100
AcDb2dVertex
 10
110.6847333056623
 20
-143.4730641307982
 30
0.0
  0
VERTEX
  5
72
330
70
100
AcDbEntity
  8
_U+30EC_U+30A4_U+30E4_U+30FC 1
 62
     7
420
 16777215
370
     9
100
AcDbVertex
100
AcDb2dVertex
 10
110.6847333056623
 20
-132.6899174668274
 30
0.0
  0
SEQEND
  5
73
330
70
100
AcDbEntity
  8
_U+30EC_U+30A4_U+30E4_U+30FC 1
 62
     7
420
 16777215
370
     9
  0
POLYLINE
  5
74
330
1F
100
AcDbEntity
  8
_U+30EC_U+30A4_U+30E4_U+30FC 1
 62
     7
420
 16777215
370
     9
100
AcDb2dPolyline
 66
     1
 10
0.0
 20
0.0
 30
0.0
  0
VERTEX
  5
75
330
74
100
AcDbEntity
  8
_U+30EC_U+30A4_U+30E4_U+30FC 1
 62
     7
420
 16777215
370
     9
100
AcDbVertex
100
AcDb2dVertex
 10
112.044829919276
 20
-143.4730641307982
 30
0.0
  0
VERTEX
  5
76
330
74
100
AcDbEntity
  8
_U+30EC_U+30A4_U+30E4_U+30FC 1
 62
     7
420
 16777215
370
     9
100
AcDbVertex
100
AcDb2dVertex
 10
98.5076885979706
 20
-143.4730641307982
 30
0.0
  0
SEQEND
  5
77
330
74
100
AcDbEntity
  8
_U+30EC_U+30A4_U+30E4_U+30FC 1
 62
     7
420
 16777215
370
     9
  0
POLYLINE
  5
78
330
1F
100
AcDbEntity
  8
_U+30EC_U+30A4_U+30E4_U+30FC 1
 62
     7
420
 16777215
370
     9
100
AcDb2dPolyline
 66
     1
 10
0.0
 20
0.0
 30
0.0
  0
VERTEX
  5
79
330
78
100
AcDbEntity
  8
_U+30EC_U+30A4_U+30E4_U+30FC 1
 62
     7
420
 16777215
370
     9
100
AcDbVertex
100
AcDb2dVertex
 10
112.044829919276
 20
-133.4733310777426
 30
0.0
  0
VERTEX
  5
7A
330
78
100
AcDbEntity
  8
_U+30EC_U+30A4_U+30E4_U+30FC 1
 62
     7
420
 16777215
370
     9
100
AcDbVertex
100
AcDb2dVertex
 10
108.7850927802166
 20
-133.4733310777426
 30
0.0
  0
SEQEND
  5
7B
330
78
100
AcDbEntity
  8
_U+30EC_U+30A4_U+30E4_U+30FC 1
 62
     7
420
 16777215
370
     9
  0
POLYLINE
  5
7C
330
1F
100
AcDbEntity
  8
_U+30EC_U+30A4_U+30E4_U+30FC 1
 62
     7
420
 16777215
370
     9
100
AcDb2dPolyline
 66
     1
 10
0.0
 20
0.0
 30
0.0
  0
VERTEX
  5
7D
330
7C
100
AcDbEntity
  8
_U+30EC_U+30A4_U+30E4_U+30FC 1
 62
     7
420
 16777215
370
     9
100
AcDbVertex
100
AcDb2dVertex
 10
112.044829919276
 20
-132.6906230223829
 30
0.0
  0
VERTEX
  5
7E
330
7C
100
AcDbEntity
  8
_U+30EC_U+30A4_U+30E4_U+30FC 1
 62
     7
420
 16777215
370
     9
100
AcDbVertex
100
AcDb2dVertex
 10
108.7850927802166
 20
-132.6906230223829
 30
0.0
  0
SEQEND
  5
7F
330
7C
100
AcDbEntity
  8
_U+30EC_U+30A4_U+30E4_U+30FC 1
 62
     7
420
 16777215
370
     9
  0
POLYLINE
  5
80
330
1F
100
AcDbEntity
  8
_U+30EC_U+30A4_U+30E4_U+30FC 1
 62
     7
420
 16777215
370
     9
100
AcDb2dPolyline
 66
     1
 10
0.0
 20
0.0
 30
0.0
  0
VERTEX
  5
81
330
80
100
AcDbEntity
  8
_U+30EC_U+30A4_U+30E4_U+30FC 1
 62
     7
420
 16777215
370
     9
100
AcDbVertex
100
AcDb2dVertex
 10
112.044829919276
 20
-107.6874980286337
 30
0.0
  0
VERTEX
  5
82
330
80
100
AcDbEntity
  8
_U+30EC_U+30A4_U+30E4_U+30FC 1
 62
     7
420
 16777215
370
     9
100
AcDbVertex
100
AcDb2dVertex
 10
108.7850927802166
 20
-107.6874980286337
 30
0.0
  0
SEQEND
  5
83
330
80
100
AcDbEntity
  8
_U+30EC_U+30A4_U+30E4_U+30FC 1
 62
     7
420
 16777215
370
     9
  0
INSERT
  5
85
330
1F
100
AcDbEntity
  8
_U+30EC_U+30A4_U+30E4_U+30FC 1
100
AcDbBlockReference
  2
block 4
 10
0.0
 20
0.0
 30
0.0
  0
INSERT
  5
8E
330
1F
100
AcDbEntity
  8
_U+30EC_U+30A4_U+30E4_U+30FC 1
100
AcDbBlockReference
  2
block 5
 10
0.0
 20
0.0
 30
0.0
  0
POLYLINE
  5
93
330
1F
100
AcDbEntity
  8
_U+30EC_U+30A4_U+30E4_U+30FC 1
 62
     7
420
 16777215
370
    25
100
AcDb2dPolyline
 66
     1
 10
0.0
 20
0.0
 30
0.0
  0
VERTEX
  5
94
330
93
100
AcDbEntity
  8
_U+30EC_U+30A4_U+30E4_U+30FC 1
 62
     7
420
 16777215
370
    25
100
AcDbVertex
100
AcDb2dVertex
 10
96.5074739267781
 20
-143.9960219084455
 30
0.0
  0
VERTEX
  5
95
330
93
100
AcDbEntity
  8
_U+30EC_U+30A4_U+30E4_U+30FC 1
 62
     7
420
 16777215
370
    25
100
AcDbVertex
100
AcDb2dVertex
 10
84.17626813026227
 20
-144.2957419083704
 30
0.0
  0
VERTEX
  5
96
330
93
100
AcDbEntity
  8
_U+30EC_U+30A4_U+30E4_U+30FC 1
 62
     7
420
 16777215
370
    25
100
AcDbVertex
100
AcDb2dVertex
 10
70.03344442693624
 20
-130.1508699674623
 30
0.0
  0
VERTEX
  5
97
330
93
100
AcDbEntity
  8
_U+30EC_U+30A4_U+30E4_U+30FC 1
 62
     7
420
 16777215
370
    25
100
AcDbVertex
100
AcDb2dVertex
 10
70.33316265009597
 20
-117.819346359434
 30
0.0
  0
VERTEX
  5
98
330
93
100
AcDbEntity
  8
_U+30EC_U+30A4_U+30E4_U+30FC 1
 62
     7
420
 16777215
370
    25
100
AcDbVertex
100
AcDb2dVertex
 10
70.83340152622272
 20
-117.819346359434
 30
0.0
  0
VERTEX
  5
99
330
93
100
AcDbEntity
  8
_U+30EC_U+30A4_U+30E4_U+30FC 1
 62
     7
420
 16777215
370
    25
100
AcDbVertex
100
AcDb2dVertex
 10
70.83340152622272
 20
-129.8194705231009
 30
0.0
  0
VERTEX
  5
9A
330
93
100
AcDbEntity
  8
_U+30EC_U+30A4_U+30E4_U+30FC 1
 62
     7
420
 16777215
370
    25
100
AcDbVertex
100
AcDb2dVertex
 10
77.3976805362063
 20
-136.3685782992412
 30
0.0
  0
VERTEX
  5
9B
330
93
100
AcDbEntity
  8
_U+30EC_U+30A4_U+30E4_U+30FC 1
 62
     7
420
 16777215
370
    25
100
AcDbVertex
100
AcDb2dVertex
 10
80.82625516017266
 20
-132.9510435778733
 30
0.0
  0
VERTEX
  5
9C
330
93
100
AcDbEntity
  8
_U+30EC_U+30A4_U+30E4_U+30FC 1
 62
     7
420
 16777215
370
    25
100
AcDbVertex
100
AcDb2dVertex
 10
80.82625516017266
 20
-107.6945535841873
 30
0.0
  0
VERTEX
  5
9D
330
93
100
AcDbEntity
  8
_U+30EC_U+30A4_U+30E4_U+30FC 1
 62
     7
420
 16777215
370
    25
100
AcDbVertex
100
AcDb2dVertex
 10
81.63101386848129
 20
-107.6866160841893
 30
0.0
  0
VERTEX
  5
9E
330
93
100
AcDbEntity
  8
_U+30EC_U+30A4_U+30E4_U+30FC 1
 62
     7
420
 16777215
370
    25
100
AcDbVertex
100
AcDb2dVertex
 10
81.63101386848129
 20
-132.6864602446061
 30
0.0
  0
VERTEX
  5
9F
330
93
100
AcDbEntity
  8
_U+30EC_U+30A4_U+30E4_U+30FC 1
 62
     7
420
 16777215
370
    25
100
AcDbVertex
100
AcDb2dVertex
 10
106.633959779541
 20
-132.6864602446061
 30
0.0
  0
VERTEX
  5
A0
330
93
100
AcDbEntity
  8
_U+30EC_U+30A4_U+30E4_U+30FC 1
 62
     7
420
 16777215
370
    25
100
AcDbVertex
100
AcDb2dVertex
 10
106.633959779541
 20
-133.4912521888496
 30
0.0
  0
VERTEX
  5
A1
330
93
100
AcDbEntity
  8
_U+30EC_U+30A4_U+30E4_U+30FC 1
 62
     7
420
 16777215
370
    25
100
AcDbVertex
100
AcDb2dVertex
 10
81.4050223676293
 20
-133.4912521888496
 30
0.0
  0
VERTEX
  5
A2
330
93
100
AcDbEntity
  8
_U+30EC_U+30A4_U+30E4_U+30FC 1
 62
     7
420
 16777215
370
    25
100
AcDbVertex
100
AcDb2dVertex
 10
77.9543971778843
 20
-136.9363388546545
 30
0.0
  0
VERTEX
  5
A3
330
93
100
AcDbEntity
  8
_U+30EC_U+30A4_U+30E4_U+30FC 1
 62
     7
420
 16777215
370
    25
100
AcDbVertex
100
AcDb2dVertex
 10
84.50766756625201
 20
-143.4958182974593
 30
0.0
  0
VERTEX
  5
A4
330
93
100
AcDbEntity
  8
_U+30EC_U+30A4_U+30E4_U+30FC 1
 62
     7
420
 16777215
370
    25
100
AcDbVertex
100
AcDb2dVertex
 10
96.5074739267781
 20
-143.4958182974593
 30
0.0
  0
VERTEX
  5
A5
330
93
100
AcDbEntity
  8
_U+30EC_U+30A4_U+30E4_U+30FC 1
 62
     7
420
 16777215
370
    25
100
AcDbVertex
100
AcDb2dVertex
 10
96.5074739267781
 20
-143.9960219084455
 30
0.0
  0
SEQEND
  5
A6
330
93
100
AcDbEntity
  8
_U+30EC_U+30A4_U+30E4_U+30FC 1
 62
     7
420
 16777215
370
    25
  0
SPLINE
  5
A7
330
1F
100
AcDbEntity
  8
_U+30EC_U+30A4_U+30E4_U+30FC 1
 62
     7
420
 16777215
370
     9
100
AcDbSpline
210
0.0
220
0.0
230
1.0
 70
    11
 71
     3
 72
    17
 73
    13
 74
     0
 42
0.0000000001
 43
0.0000000001
 12
1.0
 22
0.0
 32
0.0
 13
1.0
 23
0.0
 33
0.0
 40
0.0
 40
0.0
 40
0.0
 40
0.0
 40
1.0
 40
1.0
 40
1.0
 40
2.0
 40
2.0
 40
2.0
 40
3.0
 40
3.0
 40
3.0
 40
4.0
 40
4.0
 40
4.0
 40
4.0
 10
110.6054613448863
 20
-132.619644133512
 30
0.0
 10
110.5661999723582
 20
-132.658238022391
 30
0.0
 10
110.5661999723582
 20
-132.721632189042
 30
0.0
 10
110.6054613448863
 20
-132.7608963556984
 30
0.0
 10
110.6447607883281
 20
-132.8001605223554
 30
0.0
 10
110.7081549533774
 20
-132.8001605223554
 30
0.0
 10
110.7474191190424
 20
-132.7608963556984
 30
0.0
 10
110.7860130069467
 20
-132.7223024668194
 30
0.0
 10
110.7860130069467
 20
-132.6589083001683
 30
0.0
 10
110.7467135635048
 20
-132.619644133512
 30
0.0
 10
110.7074493978399
 20
-132.580379966855
 30
0.0
 10
110.6440552327905
 20
-132.580379966855
 30
0.0
 10
110.6054613448863
 20
-132.619644133512
 30
0.0
  0
SPLINE
  5
A8
330
1F
100
AcDbEntity
  8
_U+30EC_U+30A4_U+30E4_U+30FC 1
 62
     7
420
 16777215
370
     9
100
AcDbSpline
210
0.0
220
0.0
230
1.0
 70
    11
 71
     3
 72
    17
 73
    13
 74
     0
 42
0.0000000001
 43
0.0000000001
 12
1.0
 22
0.0
 32
0.0
 13
1.0
 23
0.0
 33
0.0
 40
0.0
 40
0.0
 40
0.0
 40
0.0
 40
1.0
 40
1.0
 40
1.0
 40
2.0
 40
2.0
 40
2.0
 40
3.0
 40
3.0
 40
3.0
 40
4.0
 40
4.0
 40
4.0
 40
4.0
 10
110.6068724559614
 20
-107.6171894175401
 30
0.0
 10
110.5675730125195
 20
-107.6561360841972
 30
0.0
 10
110.5675730125195
 20
-107.7195302508479
 30
0.0
 10
110.6068724559614
 20
-107.7584416397272
 30
0.0
 10
110.6461366216263
 20
-107.7977410841617
 30
0.0
 10
110.7095307866757
 20
-107.7977410841617
 30
0.0
 10
110.7480893968031
 20
-107.7584416397272
 30
0.0
 10
110.7873916389697
 20
-107.7198830286257
 30
0.0
 10
110.7873916389697
 20
-107.6564888619747
 30
0.0
 10
110.7480893968031
 20
-107.6171894175401
 30
0.0
 10
110.7088252311381
 20
-107.5782780286608
 30
0.0
 10
110.6454310660888
 20
-107.5782780286608
 30
0.0
 10
110.6068724559614
 20
-107.6171894175401
 30
0.0
  0
POLYLINE
  5
A9
330
1F
100
AcDbEntity
  8
_U+30EC_U+30A4_U+30E4_U+30FC 1
 62
     7
420
 16777215
370
     9
100
AcDb2dPolyline
 66
     1
 10
0.0
 20
0.0
 30
0.0
  0
VERTEX
  5
AA
330
A9
100
AcDbEntity
  8
_U+30EC_U+30A4_U+30E4_U+30FC 1
 62
     7
420
 16777215
370
     9
100
AcDbVertex
100
AcDb2dVertex
 10
110.6757699542037
 20
-132.6899174668274
 30
0.0
  0
VERTEX
  5
AB
330
A9
100
AcDbEntity
  8
_U+30EC_U+30A4_U+30E4_U+30FC 1
 62
     7
420
 16777215
370
     9
100
AcDbVertex
100
AcDb2dVertex
 10
110.6771457875019
 20
-107.6878155286336
 30
0.0
  0
SEQEND
  5
AC
330
A9
100
AcDbEntity
  8
_U+30EC_U+30A4_U+30E4_U+30FC 1
 62
     7
420
 16777215
370
     9
  0
INSERT
  5
AE
330
1F
100
AcDbEntity
  8
_U+30EC_U+30A4_U+30E4_U+30FC 1
100
AcDbBlockReference
  2
block 6
 10
0.0
 20
0.0
 30
0.0
  0
ENDSEC
  0
SECTION
  2
OBJECTS
  0
DICTIONARY
  5
C
330
0
100
AcDbDictionary
281
     1
  3
ACAD_GROUP
350
D
  3
ACAD_LAYOUT
350
1A
  3
ACAD_MATERIAL
350
3B
  3
ACAD_MLEADERSTYLE
350
B6
  3
ACAD_MLINESTYLE
350
17
  3
ACAD_PLOTSETTINGS
350
19
  3
ACAD_PLOTSTYLENAME
350
E
  3
ACAD_TABLESTYLE
350
B5
  3
ACAD_VISUALSTYLE
350
2A
  0
SUN
  5
3F
330
29
100
AcDbSun
 90
        1
290
     0
 63
     7
421
 16777215
 40
1.0
291
     1
 91
  2455826
 92
 54000000
292
     0
 70
     2
 71
   256
280
     1
  0
DICTIONARY
  5
D
102
{ACAD_REACTORS
330
C
102
}
330
C
100
AcDbDictionary
281
     1
  0
DICTIONARY
  5
1A
102
{ACAD_REACTORS
330
C
102
}
330
C
100
AcDbDictionary
281
     1
  3
Layout1
350
1E
  3
Layout2
350
26
  3
Model
350
22
  0
DICTIONARY
  5
3B
102
{ACAD_REACTORS
330
C
102
}
330
C
100
AcDbDictionary
281
     1
  3
ByBlock
350
3D
  3
ByLayer
350
3C
  3
Global
350
3E
  0
DICTIONARY
  5
B6
102
{ACAD_REACTORS
330
C
102
}
330
C
100
AcDbDictionary
281
     1
  0
DICTIONARY
  5
17
102
{ACAD_REACTORS
330
C
102
}
330
C
100
AcDbDictionary
281
     1
  3
Standard
350
18
  0
DICTIONARY
  5
19
102
{ACAD_REACTORS
330
C
102
}
330
C
100
AcDbDictionary
281
     1
  0
ACDBDICTIONARYWDFLT
  5
E
102
{ACAD_REACTORS
330
C
102
}
330
C
100
AcDbDictionary
281
     1
  3
Normal
350
F
100
AcDbDictionaryWithDefault
340
F
  0
DICTIONARY
  5
B5
102
{ACAD_REACTORS
330
C
102
}
330
C
100
AcDbDictionary
281
     1
  0
DICTIONARY
  5
2A
102
{ACAD_REACTORS
330
C
102
}
330
C
100
AcDbDictionary
281
     1
  3
2dWireframe
350
2F
  3
3D Hidden
350
31
  3
3dWireframe
350
30
  3
Basic
350
32
  3
Brighten
350
36
  3
ColorChange
350
3A
  3
Conceptual
350
34
  3
Dim
350
35
  3
Facepattern
350
39
  3
Flat
350
2B
  3
FlatWithEdges
350
2C
  3
Gouraud
350
2D
  3
GouraudWithEdges
350
2E
  3
Linepattern
350
38
  3
Realistic
350
33
  3
Thicken
350
37
  0
LAYOUT
  5
1E
102
{ACAD_REACTORS
330
1A
102
}
330
1A
100
AcDbPlotSettings
  1

  2
none_device
  4

  6

 40
0.0
 41
0.0
 42
0.0
 43
0.0
 44
0.0
 45
0.0
 46
0.0
 47
0.0
 48
0.0
 49
0.0
140
0.0
141
0.0
142
1.0
143
1.0
 70
   688
 72
     0
 73
     0
 74
     5
  7

 75
    16
 76
     0
 77
     2
 78
   300
147
1.0
148
0.0
149
0.0
100
AcDbLayout
  1
Layout1
 70
     1
 71
     1
 10
0.0
 20
0.0
 11
12.0
 21
9.0
 12
0.0
 22
0.0
 32
0.0
 14
1.000000000000000E+20
 24
1.000000000000000E+20
 34
1.000000000000000E+20
 15
-1.000000000000000E+20
 25
-1.000000000000000E+20
 35
-1.000000000000000E+20
146
0.0
 13
0.0
 23
0.0
 33
0.0
 16
1.0
 26
0.0
 36
0.0
 17
0.0
 27
1.0
 37
0.0
 76
     0
330
1B
  0
LAYOUT
  5
26
102
{ACAD_REACTORS
330
1A
102
}
330
1A
100
AcDbPlotSettings
  1

  2
none_device
  4

  6

 40
0.0
 41
0.0
 42
0.0
 43
0.0
 44
0.0
 45
0.0
 46
0.0
 47
0.0
 48
0.0
 49
0.0
140
0.0
141
0.0
142
1.0
143
1.0
 70
   688
 72
     0
 73
     0
 74
     5
  7

 75
    16
 76
     0
 77
     2
 78
   300
147
1.0
148
0.0
149
0.0
100
AcDbLayout
  1
Layout2
 70
     1
 71
     2
 10
0.0
 20
0.0
 11
0.0
 21
0.0
 12
0.0
 22
0.0
 32
0.0
 14
0.0
 24
0.0
 34
0.0
 15
0.0
 25
0.0
 35
0.0
146
0.0
 13
0.0
 23
0.0
 33
0.0
 16
1.0
 26
0.0
 36
0.0
 17
0.0
 27
1.0
 37
0.0
 76
     0
330
23
  0
LAYOUT
  5
22
102
{ACAD_REACTORS
330
1A
102
}
330
1A
100
AcDbPlotSettings
  1

  2
none_device
  4

  6

 40
0.0
 41
0.0
 42
0.0
 43
0.0
 44
0.0
 45
0.0
 46
0.0
 47
0.0
 48
0.0
 49
0.0
140
0.0
141
0.0
142
1.0
143
1.0
 70
  1712
 72
     0
 73
     0
 74
     0
  7

 75
     0
 76
     0
 77
     2
 78
   300
147
1.0
148
0.0
149
0.0
100
AcDbLayout
  1
Model
 70
     1
 71
     0
 10
0.0
 20
0.0
 11
12.0
 21
9.0
 12
0.0
 22
0.0
 32
0.0
 14
1.000000000000000E+20
 24
1.000000000000000E+20
 34
1.000000000000000E+20
 15
-1.000000000000000E+20
 25
-1.000000000000000E+20
 35
-1.000000000000000E+20
146
0.0
 13
0.0
 23
0.0
 33
0.0
 16
1.0
 26
0.0
 36
0.0
 17
0.0
 27
1.0
 37
0.0
 76
     0
330
1F
331
29
  0
MATERIAL
  5
3D
102
{ACAD_REACTORS
330
3B
102
}
330
3B
100
AcDbMaterial
  1
ByBlock
 72
     1
 94
      127
  0
MATERIAL
  5
3C
102
{ACAD_REACTORS
330
3B
102
}
330
3B
100
AcDbMaterial
  1
ByLayer
 72
     1
 94
      127
  0
MATERIAL
  5
3E
102
{ACAD_REACTORS
330
3B
102
}
330
3B
100
AcDbMaterial
  1
Global
 72
     1
 94
      127
  0
MLINESTYLE
  5
18
102
{ACAD_REACTORS
330
17
102
}
330
17
100
AcDbMlineStyle
  2
Standard
 70
     0
  3

 62
   256
 51
90.0
 52
90.0
 71
     2
 49
0.5
 62
   256
  6
BYLAYER
 49
-0.5
 62
   256
  6
BYLAYER
  0
ACDBPLACEHOLDER
  5
F
102
{ACAD_REACTORS
330
E
102
}
330
E
  0
VISUALSTYLE
  5
2F
102
{ACAD_REACTORS
330
2A
102
}
330
2A
100
AcDbVisualStyle
  2
2dWireframe
 70
     4
177
     2
291
     0
 71
     0
176
     1
 72
     2
176
     1
 73
     0
176
     1
 90
        0
176
     1
 40
-0.6
176
     1
 41
-30.0
176
     1
 62
     5
 63
     7
421
 16777215
176
     1
 74
     1
176
     1
 91
        4
176
     1
 64
     7
176
     1
 65
   257
176
     1
 75
     1
176
     1
175
     1
176
     1
 42
1.0
176
     1
 92
        0
176
     1
 66
   257
176
     1
 43
1.0
176
     1
 76
     1
176
     1
 77
     6
176
     1
 78
     2
176
     1
 67
     7
176
     1
 79
     5
176
     1
170
     0
176
     1
171
     0
176
     1
290
     0
176
     1
 93
        1
176
     1
 44
0.0
176
     1
173
     0
176
     1
  0
VISUALSTYLE
  5
31
102
{ACAD_REACTORS
330
2A
102
}
330
2A
100
AcDbVisualStyle
  2
3D Hidden
 70
     6
177
     2
291
     0
 71
     1
176
     1
 72
     2
176
     1
 73
     2
176
     1
 90
        0
176
     1
 40
-0.6
176
     1
 41
-30.0
176
     1
 62
     5
 63
     7
421
 16777215
176
     1
 74
     2
176
     1
 91
        2
176
     1
 64
     7
176
     1
 65
   257
176
     1
 75
     2
176
     1
175
     1
176
     1
 42
40.0
176
     1
 92
        0
176
     1
 66
   257
176
     1
 43
1.0
176
     1
 76
     1
176
     1
 77
     6
176
     1
 78
     2
176
     1
 67
     7
176
     1
 79
     3
176
     1
170
     0
176
     1
171
     0
176
     1
290
     0
176
     1
 93
        1
176
     1
 44
0.0
176
     1
173
     0
176
     1
  0
VISUALSTYLE
  5
30
102
{ACAD_REACTORS
330
2A
102
}
330
2A
100
AcDbVisualStyle
  2
3dWireframe
 70
     5
177
     2
291
     0
 71
     0
176
     1
 72
     2
176
     1
 73
     0
176
     1
 90
        0
176
     1
 40
-0.6
176
     1
 41
-30.0
176
     1
 62
     5
 63
     7
421
 16777215
176
     1
 74
     1
176
     1
 91
        4
176
     1
 64
     7
176
     1
 65
   257
176
     1
 75
     1
176
     1
175
     1
176
     1
 42
1.0
176
     1
 92
        0
176
     1
 66
   257
176
     1
 43
1.0
176
     1
 76
     1
176
     1
 77
     6
176
     1
 78
     2
176
     1
 67
     7
176
     1
 79
     5
176
     1
170
     0
176
     1
171
     0
176
     1
290
     0
176
     1
 93
        1
176
     1
 44
0.0
176
     1
173
     0
176
     1
  0
VISUALSTYLE
  5
32
102
{ACAD_REACTORS
330
2A
102
}
330
2A
100
AcDbVisualStyle
  2
Basic
 70
     7
177
     2
291
     1
 71
     1
176
     1
 72
     0
176
     1
 73
     1
176
     1
 90
        0
176
     1
 40
-0.6
176
     1
 41
-30.0
176
     1
 62
     5
 63
     7
421
 16777215
176
     1
 74
     0
176
     1
 91
        4
176
     1
 64
     7
176
     1
 65
   257
176
     1
 75
     1
176
     1
175
     1
176
     1
 42
1.0
176
     1
 92
        8
176
     1
 66
     7
176
     1
 43
1.0
176
     1
 76
     1
176
     1
 77
     6
176
     1
 78
     2
176
     1
 67
     7
176
     1
 79
     5
176
     1
170
     0
176
     1
171
     0
176
     1
290
     0
176
     1
 93
        1
176
     1
 44
0.0
176
     1
173
     0
176
     1
  0
VISUALSTYLE
  5
36
102
{ACAD_REACTORS
330
2A
102
}
330
2A
100
AcDbVisualStyle
  2
Brighten
 70
    12
177
     2
291
     1
 71
     2
176
     1
 72
     2
176
     1
 73
     0
176
     1
 90
        0
176
     1
 40
-0.6
176
     1
 41
-30.0
176
     1
 62
     5
 63
     7
421
 16777215
176
     1
 74
     1
176
     1
 91
        4
176
     1
 64
     7
176
     1
 65
   257
176
     1
 75
     1
176
     1
175
     1
176
     1
 42
1.0
176
     1
 92
        8
176
     1
 66
     7
176
     1
 43
1.0
176
     1
 76
     1
176
     1
 77
     6
176
     1
 78
     2
176
     1
 67
     7
176
     1
 79
     5
176
     1
170
     0
176
     1
171
     0
176
     1
290
     0
176
     1
 93
        1
176
     1
 44
50.0
176
     1
173
     0
176
     1
  0
VISUALSTYLE
  5
3A
102
{ACAD_REACTORS
330
2A
102
}
330
2A
100
AcDbVisualStyle
  2
ColorChange
 70
    16
177
     2
291
     1
 71
     2
176
     1
 72
     2
176
     1
 73
     3
176
     1
 90
        0
176
     1
 40
-0.6
176
     1
 41
-30.0
176
     1
 62
     5
 63
     8
421
  8421504
176
     1
 74
     1
176
     1
 91
        4
176
     1
 64
     7
176
     1
 65
   257
176
     1
 75
     1
176
     1
175
     1
176
     1
 42
1.0
176
     1
 92
        8
176
     1
 66
     8
424
  8421504
176
     1
 43
1.0
176
     1
 76
     1
176
     1
 77
     6
176
     1
 78
     2
176
     1
 67
     7
176
     1
 79
     5
176
     1
170
     0
176
     1
171
     0
176
     1
290
     0
176
     1
 93
        1
176
     1
 44
0.0
176
     1
173
     0
176
     1
  0
VISUALSTYLE
  5
34
102
{ACAD_REACTORS
330
2A
102
}
330
2A
100
AcDbVisualStyle
  2
Conceptual
 70
     9
177
     2
291
     0
 71
     3
176
     1
 72
     2
176
     1
 73
     0
176
     1
 90
        0
176
     1
 40
-0.6
176
     1
 41
-30.0
176
     1
 62
     5
 63
     7
421
 16777215
176
     1
 74
     2
176
     1
 91
        2
176
     1
 64
     7
176
     1
 65
   257
176
     1
 75
     1
176
     1
175
     1
176
     1
 42
40.0
176
     1
 92
        8
176
     1
 66
     7
176
     1
 43
1.0
176
     1
 76
     1
176
     1
 77
     6
176
     1
 78
     2
176
     1
 67
     7
176
     1
 79
     3
176
     1
170
     0
176
     1
171
     0
176
     1
290
     0
176
     1
 93
        1
176
     1
 44
0.0
176
     1
173
     0
176
     1
  0
VISUALSTYLE
  5
35
102
{ACAD_REACTORS
330
2A
102
}
330
2A
100
AcDbVisualStyle
  2
Dim
 70
    11
177
     2
291
     1
 71
     2
176
     1
 72
     2
176
     1
 73
     0
176
     1
 90
        0
176
     1
 40
-0.6
176
     1
 41
-30.0
176
     1
 62
     5
 63
     7
421
 16777215
176
     1
 74
     1
176
     1
 91
        4
176
     1
 64
     7
176
     1
 65
   257
176
     1
 75
     1
176
     1
175
     1
176
     1
 42
1.0
176
     1
 92
        8
176
     1
 66
     7
176
     1
 43
1.0
176
     1
 76
     1
176
     1
 77
     6
176
     1
 78
     2
176
     1
 67
     7
176
     1
 79
     5
176
     1
170
     0
176
     1
171
     0
176
     1
290
     0
176
     1
 93
        1
176
     1
 44
-50.0
176
     1
173
     0
176
     1
  0
VISUALSTYLE
  5
39
102
{ACAD_REACTORS
330
2A
102
}
330
2A
100
AcDbVisualStyle
  2
Facepattern
 70
    15
177
     2
291
     1
 71
     2
176
     1
 72
     2
176
     1
 73
     0
176
     1
 90
        0
176
     1
 40
-0.6
176
     1
 41
-30.0
176
     1
 62
     5
 63
     7
421
 16777215
176
     1
 74
     1
176
     1
 91
        4
176
     1
 64
     7
176
     1
 65
   257
176
     1
 75
     1
176
     1
175
     1
176
     1
 42
1.0
176
     1
 92
        8
176
     1
 66
     7
176
     1
 43
1.0
176
     1
 76
     1
176
     1
 77
     6
176
     1
 78
     2
176
     1
 67
     7
176
     1
 79
     5
176
     1
170
     0
176
     1
171
     0
176
     1
290
     0
176
     1
 93
        1
176
     1
 44
0.0
176
     1
173
     0
176
     1
  0
VISUALSTYLE
  5
2B
102
{ACAD_REACTORS
330
2A
102
}
330
2A
100
AcDbVisualStyle
  2
Flat
 70
     0
177
     2
291
     1
 71
     2
176
     1
 72
     1
176
     1
 73
     1
176
     1
 90
        2
176
     1
 40
-0.6
176
     1
 41
30.0
176
     1
 62
     5
 63
     7
421
 16777215
176
     1
 74
     0
176
     1
 91
        4
176
     1
 64
     7
176
     1
 65
   257
176
     1
 75
     1
176
     1
175
     1
176
     1
 42
1.0
176
     1
 92
        8
176
     1
 66
     7
176
     1
 43
1.0
176
     1
 76
     1
176
     1
 77
     6
176
     1
 78
     2
176
     1
 67
     7
176
     1
 79
     5
176
     1
170
     0
176
     1
171
     0
176
     1
290
     0
176
     1
 93
       13
176
     1
 44
0.0
176
     1
173
     0
176
     1
  0
VISUALSTYLE
  5
2C
102
{ACAD_REACTORS
330
2A
102
}
330
2A
100
AcDbVisualStyle
  2
FlatWithEdges
 70
     1
177
     2
291
     1
 71
     2
176
     1
 72
     1
176
     1
 73
     1
176
     1
 90
        2
176
     1
 40
-0.6
176
     1
 41
30.0
176
     1
 62
     5
 63
     7
421
 16777215
176
     1
 74
     1
176
     1
 91
        4
176
     1
 64
     7
176
     1
 65
   257
176
     1
 75
     1
176
     1
175
     1
176
     1
 42
1.0
176
     1
 92
        0
176
     1
 66
   257
176
     1
 43
1.0
176
     1
 76
     1
176
     1
 77
     6
176
     1
 78
     2
176
     1
 67
     7
176
     1
 79
     5
176
     1
170
     0
176
     1
171
     0
176
     1
290
     0
176
     1
 93
       13
176
     1
 44
0.0
176
     1
173
     0
176
     1
  0
VISUALSTYLE
  5
2D
102
{ACAD_REACTORS
330
2A
102
}
330
2A
100
AcDbVisualStyle
  2
Gouraud
 70
     2
177
     2
291
     1
 71
     2
176
     1
 72
     2
176
     1
 73
     1
176
     1
 90
        2
176
     1
 40
-0.6
176
     1
 41
30.0
176
     1
 62
     5
 63
     7
421
 16777215
176
     1
 74
     0
176
     1
 91
        4
176
     1
 64
     7
176
     1
 65
   257
176
     1
 75
     1
176
     1
175
     1
176
     1
 42
1.0
176
     1
 92
        0
176
     1
 66
     7
176
     1
 43
1.0
176
     1
 76
     1
176
     1
 77
     6
176
     1
 78
     2
176
     1
 67
     7
176
     1
 79
     5
176
     1
170
     0
176
     1
171
     0
176
     1
290
     0
176
     1
 93
       13
176
     1
 44
0.0
176
     1
173
     0
176
     1
  0
VISUALSTYLE
  5
2E
102
{ACAD_REACTORS
330
2A
102
}
330
2A
100
AcDbVisualStyle
  2
GouraudWithEdges
 70
     3
177
     2
291
     1
 71
     2
176
     1
 72
     2
176
     1
 73
     1
176
     1
 90
        2
176
     1
 40
-0.6
176
     1
 41
30.0
176
     1
 62
     5
 63
     7
421
 16777215
176
     1
 74
     1
176
     1
 91
        4
176
     1
 64
     7
176
     1
 65
   257
176
     1
 75
     1
176
     1
175
     1
176
     1
 42
1.0
176
     1
 92
        0
176
     1
 66
   257
176
     1
 43
1.0
176
     1
 76
     1
176
     1
 77
     6
176
     1
 78
     2
176
     1
 67
     7
176
     1
 79
     5
176
     1
170
     0
176
     1
171
     0
176
     1
290
     0
176
     1
 93
       13
176
     1
 44
0.0
176
     1
173
     0
176
     1
  0
VISUALSTYLE
  5
38
102
{ACAD_REACTORS
330
2A
102
}
330
2A
100
AcDbVisualStyle
  2
Linepattern
 70
    14
177
     2
291
     1
 71
     2
176
     1
 72
     2
176
     1
 73
     0
176
     1
 90
        0
176
     1
 40
-0.6
176
     1
 41
-30.0
176
     1
 62
     5
 63
     7
421
 16777215
176
     1
 74
     1
176
     1
 91
        4
176
     1
 64
     7
176
     1
 65
   257
176
     1
 75
     7
176
     1
175
     7
176
     1
 42
1.0
176
     1
 92
        8
176
     1
 66
     7
176
     1
 43
1.0
176
     1
 76
     1
176
     1
 77
     6
176
     1
 78
     2
176
     1
 67
     7
176
     1
 79
     5
176
     1
170
     0
176
     1
171
     0
176
     1
290
     0
176
     1
 93
        1
176
     1
 44
0.0
176
     1
173
     0
176
     1
  0
VISUALSTYLE
  5
33
102
{ACAD_REACTORS
330
2A
102
}
330
2A
100
AcDbVisualStyle
  2
Realistic
 70
     8
177
     2
291
     0
 71
     2
176
     1
 72
     2
176
     1
 73
     0
176
     1
 90
        0
176
     1
 40
-0.6
176
     1
 41
-30.0
176
     1
 62
     5
 63
     7
421
 16777215
176
     1
 74
     1
176
     1
 91
        0
176
     1
 64
     7
176
     1
 65
   257
176
     1
 75
     1
176
     1
175
     1
176
     1
 42
1.0
176
     1
 92
        8
176
     1
 66
     8
424
  7895160
176
     1
 43
1.0
176
     1
 76
     1
176
     1
 77
     6
176
     1
 78
     2
176
     1
 67
     7
176
     1
 79
     5
176
     1
170
     0
176
     1
171
     0
176
     1
290
     0
176
     1
 93
       13
176
     1
 44
0.0
176
     1
173
     0
176
     1
  0
VISUALSTYLE
  5
37
102
{ACAD_REACTORS
330
2A
102
}
330
2A
100
AcDbVisualStyle
  2
Thicken
 70
    13
177
     2
291
     1
 71
     2
176
     1
 72
     2
176
     1
 73
     0
176
     1
 90
        0
176
     1
 40
-0.6
176
     1
 41
-30.0
176
     1
 62
     5
 63
     7
421
 16777215
176
     1
 74
     1
176
     1
 91
        4
176
     1
 64
     7
176
     1
 65
   257
176
     1
 75
     1
176
     1
175
     1
176
     1
 42
1.0
176
     1
 92
       12
176
     1
 66
     7
176
     1
 43
1.0
176
     1
 76
     1
176
     1
 77
     6
176
     1
 78
     2
176
     1
 67
     7
176
     1
 79
     5
176
     1
170
     0
176
     1
171
     0
176
     1
290
     0
176
     1
 93
        1
176
     1
 44
0.0
176
     1
173
     0
176
     1
  0
ENDSEC
  0
EOF
