  0
SECTION
  2
HEADER
  9
$ACADVER
  1
AC1024
  9
$ACADMAINTVER
 70
     6
  9
$DWGCODEPAGE
  3
UNDEFINED
  9
$INSBASE
 10
0.0
 20
0.0
 30
0.0
  9
$EXTMIN
 10
1.000000000000000E+20
 20
1.000000000000000E+20
 30
1.000000000000000E+20
  9
$EXTMAX
 10
-1.000000000000000E+20
 20
-1.000000000000000E+20
 30
-1.000000000000000E+20
  9
$LIMMIN
 10
0.0
 20
0.0
  9
$LIMMAX
 10
12.0
 20
9.0
  9
$ORTHOMODE
 70
     0
  9
$REGENMODE
 70
     1
  9
$FILLMODE
 70
     1
  9
$QTEXTMODE
 70
     0
  9
$MIRRTEXT
 70
     1
  9
$LTSCALE
 40
1.0
  9
$ATTMODE
 70
     1
  9
$TEXTSIZE
 40
0.2
  9
$TRACEWID
 40
0.05
  9
$TEXTSTYLE
  7
Standard
  9
$CLAYER
  8
0
  9
$CELTYPE
  6
ByLayer
  9
$CECOLOR
 62
   256
  9
$CELTSCALE
 40
1.0
  9
$DISPSILH
 70
     0
  9
$DIMSCALE
 40
1.0
  9
$DIMASZ
 40
0.18
  9
$DIMEXO
 40
0.0625
  9
$DIMDLI
 40
0.38
  9
$DIMRND
 40
0.0
  9
$DIMDLE
 40
0.0
  9
$DIMEXE
 40
0.18
  9
$DIMTP
 40
0.0
  9
$DIMTM
 40
0.0
  9
$DIMTXT
 40
0.18
  9
$DIMCEN
 40
0.09
  9
$DIMTSZ
 40
0.0
  9
$DIMTOL
 70
     0
  9
$DIMLIM
 70
     0
  9
$DIMTIH
 70
     1
  9
$DIMTOH
 70
     1
  9
$DIMSE1
 70
     0
  9
$DIMSE2
 70
     0
  9
$DIMTAD
 70
     0
  9
$DIMZIN
 70
     0
  9
$DIMBLK
  1

  9
$DIMASO
 70
     1
  9
$DIMSHO
 70
     1
  9
$DIMPOST
  1

  9
$DIMAPOST
  1

  9
$DIMALT
 70
     0
  9
$DIMALTD
 70
     2
  9
$DIMALTF
 40
25.4
  9
$DIMLFAC
 40
1.0
  9
$DIMTOFL
 70
     0
  9
$DIMTVP
 40
0.0
  9
$DIMTIX
 70
     0
  9
$DIMSOXD
 70
     0
  9
$DIMSAH
 70
     0
  9
$DIMBLK1
  1

  9
$DIMBLK2
  1

  9
$DIMSTYLE
  2
Standard
  9
$DIMCLRD
 70
     0
  9
$DIMCLRE
 70
     0
  9
$DIMCLRT
 70
     0
  9
$DIMTFAC
 40
1.0
  9
$DIMGAP
 40
0.09
  9
$DIMJUST
 70
     0
  9
$DIMSD1
 70
     0
  9
$DIMSD2
 70
     0
  9
$DIMTOLJ
 70
     1
  9
$DIMTZIN
 70
     0
  9
$DIMALTZ
 70
     0
  9
$DIMALTTZ
 70
     0
  9
$DIMUPT
 70
     0
  9
$DIMDEC
 70
     4
  9
$DIMTDEC
 70
     4
  9
$DIMALTU
 70
     2
  9
$DIMALTTD
 70
     2
  9
$DIMTXSTY
  7
Standard
  9
$DIMAUNIT
 70
     0
  9
$DIMADEC
 70
     0
  9
$DIMALTRND
 40
0.0
  9
$DIMAZIN
 70
     0
  9
$DIMDSEP
 70
    46
  9
$DIMATFIT
 70
     3
  9
$DIMFRAC
 70
     0
  9
$DIMLDRBLK
  1

  9
$DIMLUNIT
 70
     2
  9
$DIMLWD
 70
    -2
  9
$DIMLWE
 70
    -2
  9
$DIMTMOVE
 70
     0
  9
$DIMFXL
 40
1.0
  9
$DIMFXLON
 70
     0
  9
$DIMJOGANG
 40
0.7853981633974483
  9
$DIMTFILL
 70
     0
  9
$DIMTFILLCLR
 70
     0
  9
$DIMARCSYM
 70
     0
  9
$DIMLTYPE
  6

  9
$DIMLTEX1
  6

  9
$DIMLTEX2
  6

  9
$DIMTXTDIRECTION
 70
     0
  9
$LUNITS
 70
     2
  9
$LUPREC
 70
     4
  9
$SKETCHINC
 40
0.1
  9
$FILLETRAD
 40
0.5
  9
$AUNITS
 70
     0
  9
$AUPREC
 70
     0
  9
$MENU
  1
.
  9
$ELEVATION
 40
0.0
  9
$PELEVATION
 40
0.0
  9
$THICKNESS
 40
0.0
  9
$LIMCHECK
 70
     0
  9
$CHAMFERA
 40
0.5
  9
$CHAMFERB
 40
0.5
  9
$CHAMFERC
 40
1.0
  9
$CHAMFERD
 40
0.0
  9
$SKPOLY
 70
     0
  9
$TDCREATE
 40
2457917.583171296
  9
$TDUCREATE
 40
2457917.208171296
  9
$TDUPDATE
 40
2457917.583171296
  9
$TDUUPDATE
 40
2457917.208171296
  9
$TDINDWG
 40
0.0000000116
  9
$TDUSRTIMER
 40
0.0000000116
  9
$USRTIMER
 70
     1
  9
$ANGBASE
 50
0.0
  9
$ANGDIR
 70
     0
  9
$PDMODE
 70
     0
  9
$PDSIZE
 40
0.0
  9
$PLINEWID
 40
0.0
  9
$SPLFRAME
 70
     0
  9
$SPLINETYPE
 70
     6
  9
$SPLINESEGS
 70
     8
  9
$HANDSEED
  5
B9
  9
$SURFTAB1
 70
     6
  9
$SURFTAB2
 70
     6
  9
$SURFTYPE
 70
     6
  9
$SURFU
 70
     6
  9
$SURFV
 70
     6
  9
$UCSBASE
  2

  9
$UCSNAME
  2

  9
$UCSORG
 10
0.0
 20
0.0
 30
0.0
  9
$UCSXDIR
 10
1.0
 20
0.0
 30
0.0
  9
$UCSYDIR
 10
0.0
 20
1.0
 30
0.0
  9
$UCSORTHOREF
  2

  9
$UCSORTHOVIEW
 70
     0
  9
$UCSORGTOP
 10
0.0
 20
0.0
 30
0.0
  9
$UCSORGBOTTOM
 10
0.0
 20
0.0
 30
0.0
  9
$UCSORGLEFT
 10
0.0
 20
0.0
 30
0.0
  9
$UCSORGRIGHT
 10
0.0
 20
0.0
 30
0.0
  9
$UCSORGFRONT
 10
0.0
 20
0.0
 30
0.0
  9
$UCSORGBACK
 10
0.0
 20
0.0
 30
0.0
  9
$PUCSBASE
  2

  9
$PUCSNAME
  2

  9
$PUCSORG
 10
0.0
 20
0.0
 30
0.0
  9
$PUCSXDIR
 10
1.0
 20
0.0
 30
0.0
  9
$PUCSYDIR
 10
0.0
 20
1.0
 30
0.0
  9
$PUCSORTHOREF
  2

  9
$PUCSORTHOVIEW
 70
     0
  9
$PUCSORGTOP
 10
0.0
 20
0.0
 30
0.0
  9
$PUCSORGBOTTOM
 10
0.0
 20
0.0
 30
0.0
  9
$PUCSORGLEFT
 10
0.0
 20
0.0
 30
0.0
  9
$PUCSORGRIGHT
 10
0.0
 20
0.0
 30
0.0
  9
$PUCSORGFRONT
 10
0.0
 20
0.0
 30
0.0
  9
$PUCSORGBACK
 10
0.0
 20
0.0
 30
0.0
  9
$USERI1
 70
     0
  9
$USERI2
 70
     0
  9
$USERI3
 70
     0
  9
$USERI4
 70
     0
  9
$USERI5
 70
     0
  9
$USERR1
 40
0.0
  9
$USERR2
 40
0.0
  9
$USERR3
 40
0.0
  9
$USERR4
 40
0.0
  9
$USERR5
 40
0.0
  9
$WORLDVIEW
 70
     1
  9
$SHADEDGE
 70
     3
  9
$SHADEDIF
 70
    70
  9
$TILEMODE
 70
     1
  9
$MAXACTVP
 70
    64
  9
$PINSBASE
 10
0.0
 20
0.0
 30
0.0
  9
$PLIMCHECK
 70
     0
  9
$PEXTMIN
 10
1.000000000000000E+20
 20
1.000000000000000E+20
 30
1.000000000000000E+20
  9
$PEXTMAX
 10
-1.000000000000000E+20
 20
-1.000000000000000E+20
 30
-1.000000000000000E+20
  9
$PLIMMIN
 10
0.0
 20
0.0
  9
$PLIMMAX
 10
12.0
 20
9.0
  9
$UNITMODE
 70
     0
  9
$VISRETAIN
 70
     1
  9
$PLINEGEN
 70
     0
  9
$PSLTSCALE
 70
     1
  9
$TREEDEPTH
 70
  3020
  9
$CMLSTYLE
  2
Standard
  9
$CMLJUST
 70
     0
  9
$CMLSCALE
 40
1.0
  9
$PROXYGRAPHICS
 70
     1
  9
$MEASUREMENT
 70
     0
  9
$CELWEIGHT
370
    -1
  9
$ENDCAPS
280
     0
  9
$JOINSTYLE
280
     0
  9
$LWDISPLAY
290
     1
  9
$INSUNITS
 70
     1
  9
$HYPERLINKBASE
  1

  9
$STYLESHEET
  1

  9
$XEDIT
290
     1
  9
$CEPSNTYPE
380
     0
  9
$PSTYLEMODE
290
     1
  9
$FINGERPRINTGUID
  2
{158A6DA3-6B5F-0099-7307-BC8E3B62B196}
  9
$VERSIONGUID
  2
{FAEB1C32-E019-11D5-929B-00C0DF256EC4}
  9
$EXTNAMES
290
     1
  9
$PSVPSCALE
 40
0.0
  9
$OLESTARTUP
290
     0
  9
$SORTENTS
280
   127
  9
$INDEXCTL
280
     0
  9
$HIDETEXT
280
     1
  9
$XCLIPFRAME
280
     2
  9
$HALOGAP
280
     0
  9
$OBSCOLOR
 70
   257
  9
$OBSLTYPE
280
     0
  9
$INTERSECTIONDISPLAY
280
     0
  9
$INTERSECTIONCOLOR
 70
   257
  9
$DIMASSOC
280
     2
  9
$PROJECTNAME
  1

  9
$CAMERADISPLAY
290
     0
  9
$LENSLENGTH
 40
50.0
  9
$CAMERAHEIGHT
 40
0.0
  9
$STEPSPERSEC
 40
2.0
  9
$STEPSIZE
 40
6.0
  9
$3DDWFPREC
 40
2.0
  9
$PSOLWIDTH
 40
0.25
  9
$PSOLHEIGHT
 40
4.0
  9
$LOFTANG1
 40
1.570796326794897
  9
$LOFTANG2
 40
1.570796326794897
  9
$LOFTMAG1
 40
0.0
  9
$LOFTMAG2
 40
0.0
  9
$LOFTPARAM
 70
     7
  9
$LOFTNORMALS
280
     1
  9
$LATITUDE
 40
37.795
  9
$LONGITUDE
 40
-122.394
  9
$NORTHDIRECTION
 40
0.0
  9
$TIMEZONE
 70
 -8000
  9
$LIGHTGLYPHDISPLAY
280
     1
  9
$TILEMODELIGHTSYNCH
280
     1
  9
$CMATERIAL
347
3C
  9
$SOLIDHIST
280
     1
  9
$SHOWHIST
280
     1
  9
$DWFFRAME
280
     2
  9
$DGNFRAME
280
     2
  9
$REALWORLDSCALE
290
     1
  9
$INTERFERECOLOR
 62
   256
  9
$CSHADOW
280
     0
  9
$SHADOWPLANELOCATION
 40
0.0
  0
ENDSEC
  0
SECTION
  2
CLASSES
  0
CLASS
  1
ACDBDICTIONARYWDFLT
  2
AcDbDictionaryWithDefault
  3
ObjectDBX Classes
 90
        0
 91
        4
280
     0
281
     0
  0
CLASS
  1
VISUALSTYLE
  2
AcDbVisualStyle
  3
ObjectDBX Classes
 90
     4095
 91
        4
280
     0
281
     0
  0
CLASS
  1
MATERIAL
  2
AcDbMaterial
  3
ObjectDBX Classes
 90
     1153
 91
        4
280
     0
281
     0
  0
CLASS
  1
SUN
  2
AcDbSun
  3
SCENEOE
 90
     1024
 91
        4
280
     0
281
     0
  0
ENDSEC
  0
SECTION
  2
TABLES
  0
TABLE
  2
VPORT
  5
8
330
0
100
AcDbSymbolTable
 70
     1
  0
VPORT
  5
29
330
8
100
AcDbSymbolTableRecord
100
AcDbViewportTableRecord
  2
*Active
 70
     0
 10
0.0
 20
0.0
 11
1.0
 21
1.0
 12
0.0
 22
0.0
 13
0.0
 23
0.0
 14
0.5
 24
0.5
 15
0.5
 25
0.5
 16
0.0
 26
0.0
 36
1.0
 17
91.00082462281999
 27
-128.4993055234307
 37
0.0
 40
256.9986110468615
 41
0.7081814508812795
 42
50.0
 43
0.0
 44
0.0
 50
0.0
 51
0.0
 71
     0
 72
   100
 73
     1
 74
     3
 75
     0
 76
     0
 77
     0
 78
     0
281
     0
 65
     1
110
0.0
120
0.0
130
0.0
111
1.0
121
0.0
131
0.0
112
0.0
122
1.0
132
0.0
 79
     0
146
0.0
 60
     3
 61
     5
292
     1
282
     1
141
0.0
142
0.0
 63
   250
361
3F
  0
ENDTAB
  0
TABLE
  2
LTYPE
  5
5
330
0
100
AcDbSymbolTable
 70
     1
  0
LTYPE
  5
14
330
5
100
AcDbSymbolTableRecord
100
AcDbLinetypeTableRecord
  2
ByBlock
 70
     0
  3

 72
    65
 73
     0
 40
0.0
  0
LTYPE
  5
15
330
5
100
AcDbSymbolTableRecord
100
AcDbLinetypeTableRecord
  2
ByLayer
 70
     0
  3

 72
    65
 73
     0
 40
0.0
  0
LTYPE
  5
16
330
5
100
AcDbSymbolTableRecord
100
AcDbLinetypeTableRecord
  2
Continuous
 70
     0
  3
Solid line
 72
    65
 73
     0
 40
0.0
  0
ENDTAB
  0
TABLE
  2
LAYER
  5
2
330
0
100
AcDbSymbolTable
 70
     2
  0
LAYER
  5
10
330
2
100
AcDbSymbolTableRecord
100
AcDbLayerTableRecord
  2
0
 70
     0
 62
     7
  6
Continuous
370
    -3
390
F
347
3E
  0
LAYER
  5
40
330
2
100
AcDbSymbolTableRecord
100
AcDbLayerTableRecord
  2
_U+30EC_U+30A4_U+30E4_U+30FC 1
 70
     0
 62
     7
  6
Continuous
370
    -3
390
F
347
3E
  0
ENDTAB
  0
TABLE
  2
STYLE
  5
3
330
0
100
AcDbSymbolTable
 70
     1
  0
STYLE
  5
11
330
3
100
AcDbSymbolTableRecord
100
AcDbTextStyleTableRecord
  2
Standard
 70
     0
 40
0.0
 41
1.0
 50
0.0
 71
     0
 42
0.2
  3
txt
  4

  0
ENDTAB
  0
TABLE
  2
VIEW
  5
6
330
0
100
AcDbSymbolTable
 70
     0
  0
ENDTAB
  0
TABLE
  2
UCS
  5
7
330
0
100
AcDbSymbolTable
 70
     0
  0
ENDTAB
  0
TABLE
  2
APPID
  5
9
330
0
100
AcDbSymbolTable
 70
     1
  0
APPID
  5
12
330
9
100
AcDbSymbolTableRecord
100
AcDbRegAppTableRecord
  2
ACAD
 70
     0
  0
ENDTAB
  0
TABLE
  2
DIMSTYLE
  5
A
330
0
100
AcDbSymbolTable
 70
     1
100
AcDbDimStyleTable
  0
DIMSTYLE
105
27
330
A
100
AcDbSymbolTableRecord
100
AcDbDimStyleTableRecord
  2
Standard
 70
     0
178
     0
340
11
  0
ENDTAB
  0
TABLE
  2
BLOCK_RECORD
  5
1
330
0
100
AcDbSymbolTable
 70
     7
  0
BLOCK_RECORD
  5
1F
330
1
100
AcDbSymbolTableRecord
100
AcDbBlockTableRecord
  2
*Model_Space
340
22
 70
     0
280
     1
281
     0
  0
BLOCK_RECORD
  5
1B
330
1
100
AcDbSymbolTableRecord
100
AcDbBlockTableRecord
  2
*Paper_Space
340
1E
 70
     0
280
     1
281
     0
  0
BLOCK_RECORD
  5
23
330
1
100
AcDbSymbolTableRecord
100
AcDbBlockTableRecord
  2
*Paper_Space0
340
26
 70
     0
280
     1
281
     0
  0
BLOCK_RECORD
  5
41
330
1
100
AcDbSymbolTableRecord
100
AcDbBlockTableRecord
  2
block 2
340
0
102
{BLKREFS
331
42
102
}
 70
     0
280
     1
281
     0
  0
BLOCK_RECORD
  5
55
330
1
100
AcDbSymbolTableRecord
100
AcDbBlockTableRecord
  2
block 3
340
0
102
{BLKREFS
331
56
102
}
 70
     0
280
     1
281
     0
  0
BLOCK_RECORD
  5
69
330
1
100
AcDbSymbolTableRecord
100
AcDbBlockTableRecord
  2
block 4
340
0
102
{BLKREFS
331
6A
102
}
 70
     0
280
     1
281
     0
  0
BLOCK_RECORD
  5
9B
330
1
100
AcDbSymbolTableRecord
100
AcDbBlockTableRecord
  2
block 5
340
0
102
{BLKREFS
331
9C
102
}
 70
     0
280
     1
281
     0
  0
BLOCK_RECORD
  5
A3
330
1
100
AcDbSymbolTableRecord
100
AcDbBlockTableRecord
  2
block 6
340
0
102
{BLKREFS
331
A4
102
}
 70
     0
280
     1
281
     0
  0
BLOCK_RECORD
  5
AF
330
1
100
AcDbSymbolTableRecord
100
AcDbBlockTableRecord
  2
block 7
340
0
102
{BLKREFS
331
B0
102
}
 70
     0
280
     1
281
     0
  0
ENDTAB
  0
ENDSEC
  0
SECTION
  2
BLOCKS
  0
BLOCK
  5
20
330
1F
100
AcDbEntity
  8
0
100
AcDbBlockBegin
  2
*Model_Space
 70
     0
 10
0.0
 20
0.0
 30
0.0
  3
*Model_Space
  1

  0
ENDBLK
  5
21
330
1F
100
AcDbEntity
  8
0
100
AcDbBlockEnd
  0
BLOCK
  5
1C
330
1B
100
AcDbEntity
 67
     1
  8
0
100
AcDbBlockBegin
  2
*Paper_Space
 70
     0
 10
0.0
 20
0.0
 30
0.0
  3
*Paper_Space
  1

  0
ENDBLK
  5
1D
330
1B
100
AcDbEntity
 67
     1
  8
0
100
AcDbBlockEnd
  0
BLOCK
  5
24
330
23
100
AcDbEntity
  8
0
100
AcDbBlockBegin
  2
*Paper_Space0
 70
     0
 10
0.0
 20
0.0
 30
0.0
  3
*Paper_Space0
  1

  0
ENDBLK
  5
25
330
23
100
AcDbEntity
  8
0
100
AcDbBlockEnd
  0
BLOCK
  5
43
330
41
100
AcDbEntity
  8
0
100
AcDbBlockBegin
  2
block 2
 70
     0
 10
0.0
 20
0.0
 30
0.0
  3
block 2
  1

  0
SPLINE
  5
45
330
41
100
AcDbEntity
  8
_U+30EC_U+30A4_U+30E4_U+30FC 1
 62
     7
420
 16777215
370
     9
100
AcDbSpline
210
0.0
220
0.0
230
1.0
 70
    11
 71
     3
 72
    17
 73
    13
 74
     0
 42
0.0000000001
 43
0.0000000001
 12
1.0
 22
0.0
 32
0.0
 13
1.0
 23
0.0
 33
0.0
 40
0.0
 40
0.0
 40
0.0
 40
0.0
 40
1.0
 40
1.0
 40
1.0
 40
2.0
 40
2.0
 40
2.0
 40
3.0
 40
3.0
 40
3.0
 40
4.0
 40
4.0
 40
4.0
 40
4.0
 10
67.02777776102084
 20
-136.4305966325593
 30
0.0
 10
67.02777776102084
 20
-136.3747871881282
 30
0.0
 10
66.98297498325411
 20
-136.3300196881397
 30
0.0
 10
66.92786940363891
 20
-136.3300196881397
 30
0.0
 10
66.87273023837896
 20
-136.3300196881397
 30
0.0
 10
66.82796273952107
 20
-136.3747871881282
 30
0.0
 10
66.82796273952107
 20
-136.4305966325593
 30
0.0
 10
66.82796273952107
 20
-136.4857357992117
 30
0.0
 10
66.87273023837896
 20
-136.5305032992009
 30
0.0
 10
66.92786940363891
 20
-136.5305032992009
 30
0.0
 10
66.98297498325411
 20
-136.5305032992009
 30
0.0
 10
67.02777776102084
 20
-136.4857357992117
 30
0.0
 10
67.02777776102084
 20
-136.4305966325593
 30
0.0
  0
SPLINE
  5
46
330
41
100
AcDbEntity
  8
_U+30EC_U+30A4_U+30E4_U+30FC 1
 62
     7
420
 16777215
370
     9
100
AcDbSpline
210
0.0
220
0.0
230
1.0
 70
    11
 71
     3
 72
    17
 73
    13
 74
     0
 42
0.0000000001
 43
0.0000000001
 12
1.0
 22
0.0
 32
0.0
 13
1.0
 23
0.0
 33
0.0
 40
0.0
 40
0.0
 40
0.0
 40
0.0
 40
1.0
 40
1.0
 40
1.0
 40
2.0
 40
2.0
 40
2.0
 40
3.0
 40
3.0
 40
3.0
 40
4.0
 40
4.0
 40
4.0
 40
4.0
 10
77.63386329717292
 20
-147.0366841299073
 30
0.0
 10
77.63386329717292
 20
-146.9815449632548
 30
0.0
 10
77.58906052053815
 20
-146.9367774632656
 30
0.0
 10
77.53395663305508
 20
-146.9367774632656
 30
0.0
 10
77.47881942507475
 20
-146.9367774632656
 30
0.0
 10
77.43401664730803
 20
-146.9815449632548
 30
0.0
 10
77.43401664730803
 20
-147.0366841299073
 30
0.0
 10
77.43401664730803
 20
-147.0917880187828
 30
0.0
 10
77.47881942507475
 20
-147.1365907965489
 30
0.0
 10
77.53395663305508
 20
-147.1365907965489
 30
0.0
 10
77.58906052053815
 20
-147.1365907965489
 30
0.0
 10
77.63386329717292
 20
-147.0917880187828
 30
0.0
 10
77.63386329717292
 20
-147.0366841299073
 30
0.0
  0
SPLINE
  5
47
330
41
100
AcDbEntity
  8
_U+30EC_U+30A4_U+30E4_U+30FC 1
 62
     7
420
 16777215
370
     9
100
AcDbSpline
210
0.0
220
0.0
230
1.0
 70
    11
 71
     3
 72
    17
 73
    13
 74
     0
 42
0.0000000001
 43
0.0000000001
 12
1.0
 22
0.0
 32
0.0
 13
1.0
 23
0.0
 33
0.0
 40
0.0
 40
0.0
 40
0.0
 40
0.0
 40
1.0
 40
1.0
 40
1.0
 40
2.0
 40
2.0
 40
2.0
 40
3.0
 40
3.0
 40
3.0
 40
4.0
 40
4.0
 40
4.0
 40
4.0
 10
80.83570960437591
 20
-148.2086824629478
 30
0.0
 10
80.83570960437591
 20
-148.1528730185174
 30
0.0
 10
80.79094210551801
 20
-148.1081055185288
 30
0.0
 10
80.73513266249739
 20
-148.1081055185288
 30
0.0
 10
80.67999349723745
 20
-148.1081055185288
 30
0.0
 10
80.63522599837955
 20
-148.1528730185174
 30
0.0
 10
80.63522599837955
 20
-148.2086824629478
 30
0.0
 10
80.63522599837955
 20
-148.2638216296009
 30
0.0
 10
80.67999349723745
 20
-148.3085891295894
 30
0.0
 10
80.73513266249739
 20
-148.3085891295894
 30
0.0
 10
80.79094210551801
 20
-148.3085891295894
 30
0.0
 10
80.83570960437591
 20
-148.2638216296009
 30
0.0
 10
80.83570960437591
 20
-148.2086824629478
 30
0.0
  0
SPLINE
  5
48
330
41
100
AcDbEntity
  8
_U+30EC_U+30A4_U+30E4_U+30FC 1
 62
     7
420
 16777215
370
     9
100
AcDbSpline
210
0.0
220
0.0
230
1.0
 70
    11
 71
     3
 72
    17
 73
    13
 74
     0
 42
0.0000000001
 43
0.0000000001
 12
1.0
 22
0.0
 32
0.0
 13
1.0
 23
0.0
 33
0.0
 40
0.0
 40
0.0
 40
0.0
 40
0.0
 40
1.0
 40
1.0
 40
1.0
 40
2.0
 40
2.0
 40
2.0
 40
3.0
 40
3.0
 40
3.0
 40
4.0
 40
4.0
 40
4.0
 40
4.0
 10
92.83428124271128
 20
-148.2086824629478
 30
0.0
 10
92.83428124271128
 20
-148.1528730185174
 30
0.0
 10
92.78951374385339
 20
-148.1081055185288
 30
0.0
 10
92.73437457859345
 20
-148.1081055185288
 30
0.0
 10
92.67927069111037
 20
-148.1081055185288
 30
0.0
 10
92.63446791447561
 20
-148.1528730185174
 30
0.0
 10
92.63446791447561
 20
-148.2086824629478
 30
0.0
 10
92.63446791447561
 20
-148.2638216296009
 30
0.0
 10
92.67927069111037
 20
-148.3085891295894
 30
0.0
 10
92.73437457859345
 20
-148.3085891295894
 30
0.0
 10
92.78951374385339
 20
-148.3085891295894
 30
0.0
 10
92.83428124271128
 20
-148.2638216296009
 30
0.0
 10
92.83428124271128
 20
-148.2086824629478
 30
0.0
  0
POLYLINE
  5
49
330
41
100
AcDbEntity
  8
_U+30EC_U+30A4_U+30E4_U+30FC 1
 62
     7
420
 16777215
370
     9
100
AcDb2dPolyline
 66
     1
 10
0.0
 20
0.0
 30
0.0
  0
VERTEX
  5
4A
330
49
100
AcDbEntity
  8
_U+30EC_U+30A4_U+30E4_U+30FC 1
 62
     7
420
 16777215
370
     9
100
AcDbVertex
100
AcDb2dVertex
 10
66.92786940363891
 20
-136.4305966325593
 30
0.0
  0
VERTEX
  5
4B
330
49
100
AcDbEntity
  8
_U+30EC_U+30A4_U+30E4_U+30FC 1
 62
     7
420
 16777215
370
     9
100
AcDbVertex
100
AcDb2dVertex
 10
77.53395663305508
 20
-147.0366841299073
 30
0.0
  0
SEQEND
  5
4C
330
49
100
AcDbEntity
  8
_U+30EC_U+30A4_U+30E4_U+30FC 1
 62
     7
420
 16777215
370
     9
  0
POLYLINE
  5
4D
330
41
100
AcDbEntity
  8
_U+30EC_U+30A4_U+30E4_U+30FC 1
 62
     7
420
 16777215
370
     9
100
AcDb2dPolyline
 66
     1
 10
0.0
 20
0.0
 30
0.0
  0
VERTEX
  5
4E
330
4D
100
AcDbEntity
  8
_U+30EC_U+30A4_U+30E4_U+30FC 1
 62
     7
420
 16777215
370
     9
100
AcDbVertex
100
AcDb2dVertex
 10
67.9600265995286
 20
-135.3977691328174
 30
0.0
  0
VERTEX
  5
4F
330
4D
100
AcDbEntity
  8
_U+30EC_U+30A4_U+30E4_U+30FC 1
 62
     7
420
 16777215
370
     9
100
AcDbVertex
100
AcDb2dVertex
 10
66.22023247724779
 20
-137.1375280212714
 30
0.0
  0
SEQEND
  5
50
330
4D
100
AcDbEntity
  8
_U+30EC_U+30A4_U+30E4_U+30FC 1
 62
     7
420
 16777215
370
     9
  0
POLYLINE
  5
51
330
41
100
AcDbEntity
  8
_U+30EC_U+30A4_U+30E4_U+30FC 1
 62
     7
420
 16777215
370
     9
100
AcDb2dPolyline
 66
     1
 10
0.0
 20
0.0
 30
0.0
  0
VERTEX
  5
52
330
51
100
AcDbEntity
  8
_U+30EC_U+30A4_U+30E4_U+30FC 1
 62
     7
420
 16777215
370
     9
100
AcDbVertex
100
AcDb2dVertex
 10
78.56678609146935
 20
-146.0045269079434
 30
0.0
  0
VERTEX
  5
53
330
51
100
AcDbEntity
  8
_U+30EC_U+30A4_U+30E4_U+30FC 1
 62
     7
420
 16777215
370
     9
100
AcDbVertex
100
AcDb2dVertex
 10
76.82698998442464
 20
-147.74361551862
 30
0.0
  0
SEQEND
  5
54
330
51
100
AcDbEntity
  8
_U+30EC_U+30A4_U+30E4_U+30FC 1
 62
     7
420
 16777215
370
     9
  0
INSERT
  5
56
330
41
100
AcDbEntity
  8
_U+30EC_U+30A4_U+30E4_U+30FC 1
100
AcDbBlockReference
  2
block 3
 10
0.0
 20
0.0
 30
0.0
  0
POLYLINE
  5
5D
330
41
100
AcDbEntity
  8
_U+30EC_U+30A4_U+30E4_U+30FC 1
 62
     7
420
 16777215
370
     9
100
AcDb2dPolyline
 66
     1
 10
0.0
 20
0.0
 30
0.0
  0
VERTEX
  5
5E
330
5D
100
AcDbEntity
  8
_U+30EC_U+30A4_U+30E4_U+30FC 1
 62
     7
420
 16777215
370
     9
100
AcDbVertex
100
AcDb2dVertex
 10
80.73513266249739
 20
-148.2086824629478
 30
0.0
  0
VERTEX
  5
5F
330
5D
100
AcDbEntity
  8
_U+30EC_U+30A4_U+30E4_U+30FC 1
 62
     7
420
 16777215
370
     9
100
AcDbVertex
100
AcDb2dVertex
 10
92.73437457859345
 20
-148.2086824629478
 30
0.0
  0
SEQEND
  5
60
330
5D
100
AcDbEntity
  8
_U+30EC_U+30A4_U+30E4_U+30FC 1
 62
     7
420
 16777215
370
     9
  0
POLYLINE
  5
61
330
41
100
AcDbEntity
  8
_U+30EC_U+30A4_U+30E4_U+30FC 1
 62
     7
420
 16777215
370
     9
100
AcDb2dPolyline
 66
     1
 10
0.0
 20
0.0
 30
0.0
  0
VERTEX
  5
62
330
61
100
AcDbEntity
  8
_U+30EC_U+30A4_U+30E4_U+30FC 1
 62
     7
420
 16777215
370
     9
100
AcDbVertex
100
AcDb2dVertex
 10
80.73513266249739
 20
-145.8481052413158
 30
0.0
  0
VERTEX
  5
63
330
61
100
AcDbEntity
  8
_U+30EC_U+30A4_U+30E4_U+30FC 1
 62
     7
420
 16777215
370
     9
100
AcDbVertex
100
AcDb2dVertex
 10
80.73513266249739
 20
-149.2084546849203
 30
0.0
  0
SEQEND
  5
64
330
61
100
AcDbEntity
  8
_U+30EC_U+30A4_U+30E4_U+30FC 1
 62
     7
420
 16777215
370
     9
  0
POLYLINE
  5
65
330
41
100
AcDbEntity
  8
_U+30EC_U+30A4_U+30E4_U+30FC 1
 62
     7
420
 16777215
370
     9
100
AcDb2dPolyline
 66
     1
 10
0.0
 20
0.0
 30
0.0
  0
VERTEX
  5
66
330
65
100
AcDbEntity
  8
_U+30EC_U+30A4_U+30E4_U+30FC 1
 62
     7
420
 16777215
370
     9
100
AcDbVertex
100
AcDb2dVertex
 10
92.73437457859345
 20
-146.3483441300795
 30
0.0
  0
VERTEX
  5
67
330
65
100
AcDbEntity
  8
_U+30EC_U+30A4_U+30E4_U+30FC 1
 62
     7
420
 16777215
370
     9
100
AcDbVertex
100
AcDb2dVertex
 10
92.73437457859345
 20
-149.2084546849203
 30
0.0
  0
SEQEND
  5
68
330
65
100
AcDbEntity
  8
_U+30EC_U+30A4_U+30E4_U+30FC 1
 62
     7
420
 16777215
370
     9
  0
INSERT
  5
6A
330
41
100
AcDbEntity
  8
_U+30EC_U+30A4_U+30E4_U+30FC 1
100
AcDbBlockReference
  2
block 4
 10
0.0
 20
0.0
 30
0.0
  0
ENDBLK
  5
44
330
41
100
AcDbEntity
  8
0
100
AcDbBlockEnd
  0
BLOCK
  5
57
330
55
100
AcDbEntity
  8
0
100
AcDbBlockBegin
  2
block 3
 70
     0
 10
0.0
 20
0.0
 30
0.0
  3
block 3
  1

  0
SPLINE
  5
59
330
55
100
AcDbEntity
  8
_U+30EC_U+30A4_U+30E4_U+30FC 1
370
     0
100
AcDbSpline
210
0.0
220
0.0
230
1.0
 70
    11
 71
     3
 72
    26
 73
    22
 74
     0
 42
0.0000000001
 43
0.0000000001
 12
1.0
 22
0.0
 32
0.0
 13
1.0
 23
0.0
 33
0.0
 40
0.0
 40
0.0
 40
0.0
 40
0.0
 40
1.0
 40
1.0
 40
1.0
 40
2.0
 40
2.0
 40
2.0
 40
3.0
 40
3.0
 40
3.0
 40
4.0
 40
4.0
 40
4.0
 40
5.0
 40
5.0
 40
5.0
 40
6.0
 40
6.0
 40
6.0
 40
7.0
 40
7.0
 40
7.0
 40
7.0
 10
71.82490096945698
 20
-140.4686007678342
 30
0.0
 10
71.82490096945698
 20
-140.4686007678342
 30
0.0
 10
72.60573186118884
 20
-139.6875976213281
 30
0.0
 10
72.60573186118884
 20
-139.6875976213281
 30
0.0
 10
72.60573186118884
 20
-139.6875976213281
 30
0.0
 10
72.37249889683743
 20
-139.4543646569767
 30
0.0
 10
72.37249889683743
 20
-139.4543646569767
 30
0.0
 10
72.37249889683743
 20
-139.4543646569767
 30
0.0
 10
72.47722979958903
 20
-139.3496337542251
 30
0.0
 10
72.47722979958903
 20
-139.3496337542251
 30
0.0
 10
72.72234834336456
 20
-139.5739094703149
 30
0.0
 10
72.8704874492303
 20
-139.4915716882174
 30
0.0
 10
72.97229002081943
 20
-139.4319715363226
 30
0.0
 10
72.97229002081943
 20
-139.4319715363226
 30
0.0
 10
73.07564288537692
 20
-139.5353244008801
 30
0.0
 10
73.07564288537692
 20
-139.5353244008801
 30
0.0
 10
73.07564288537692
 20
-139.5353244008801
 30
0.0
 10
71.983719871327
 20
-140.6274196697043
 30
0.0
 10
71.983719871327
 20
-140.6274196697043
 30
0.0
 10
71.983719871327
 20
-140.6274196697043
 30
0.0
 10
71.82490096945698
 20
-140.4686007678342
 30
0.0
 10
71.82490096945698
 20
-140.4686007678342
 30
0.0
  0
HATCH
  5
5A
330
55
100
AcDbEntity
  8
_U+30EC_U+30A4_U+30E4_U+30FC 1
 62
     7
420
 16777215
100
AcDbHatch
 10
0.0
 20
0.0
 30
0.0
210
0.0
220
0.0
230
1.0
  2
SOLID
 70
     1
 71
     0
 91
        1
 92
        1
 93
        1
 72
     4
 94
        3
 73
     0
 74
     1
 95
       26
 96
       22
 40
0.0
 40
0.0
 40
0.0
 40
0.0
 40
1.0
 40
1.0
 40
1.0
 40
2.0
 40
2.0
 40
2.0
 40
3.0
 40
3.0
 40
3.0
 40
4.0
 40
4.0
 40
4.0
 40
5.0
 40
5.0
 40
5.0
 40
6.0
 40
6.0
 40
6.0
 40
7.0
 40
7.0
 40
7.0
 40
7.0
 10
71.82490096945698
 20
-140.4686007678342
 10
71.82490096945698
 20
-140.4686007678342
 10
72.60573186118884
 20
-139.6875976213281
 10
72.60573186118884
 20
-139.6875976213281
 10
72.60573186118884
 20
-139.6875976213281
 10
72.37249889683743
 20
-139.4543646569767
 10
72.37249889683743
 20
-139.4543646569767
 10
72.37249889683743
 20
-139.4543646569767
 10
72.47722979958903
 20
-139.3496337542251
 10
72.47722979958903
 20
-139.3496337542251
 10
72.72234834336456
 20
-139.5739094703149
 10
72.8704874492303
 20
-139.4915716882174
 10
72.97229002081943
 20
-139.4319715363226
 10
72.97229002081943
 20
-139.4319715363226
 10
73.07564288537692
 20
-139.5353244008801
 10
73.07564288537692
 20
-139.5353244008801
 10
73.07564288537692
 20
-139.5353244008801
 10
71.983719871327
 20
-140.6274196697043
 10
71.983719871327
 20
-140.6274196697043
 10
71.983719871327
 20
-140.6274196697043
 10
71.82490096945698
 20
-140.4686007678342
 10
71.82490096945698
 20
-140.4686007678342
 97
        0
 97
        0
 75
     2
 76
     1
 98
        0
  0
SPLINE
  5
5B
330
55
100
AcDbEntity
  8
_U+30EC_U+30A4_U+30E4_U+30FC 1
370
     0
100
AcDbSpline
210
0.0
220
0.0
230
1.0
 70
    11
 71
     3
 72
    53
 73
    49
 74
     0
 42
0.0000000001
 43
0.0000000001
 12
1.0
 22
0.0
 32
0.0
 13
1.0
 23
0.0
 33
0.0
 40
0.0
 40
0.0
 40
0.0
 40
0.0
 40
1.0
 40
1.0
 40
1.0
 40
2.0
 40
2.0
 40
2.0
 40
3.0
 40
3.0
 40
3.0
 40
4.0
 40
4.0
 40
4.0
 40
5.0
 40
5.0
 40
5.0
 40
6.0
 40
6.0
 40
6.0
 40
7.0
 40
7.0
 40
7.0
 40
8.0
 40
8.0
 40
8.0
 40
9.0
 40
9.0
 40
9.0
 40
10.0
 40
10.0
 40
10.0
 40
11.0
 40
11.0
 40
11.0
 40
12.0
 40
12.0
 40
12.0
 40
13.0
 40
13.0
 40
13.0
 40
14.0
 40
14.0
 40
14.0
 40
15.0
 40
15.0
 40
15.0
 40
16.0
 40
16.0
 40
16.0
 40
16.0
 10
72.6422498733325
 20
-141.3577799125772
 30
0.0
 10
72.58678383601998
 20
-141.3023138752647
 30
0.0
 10
72.52683917457662
 20
-141.2182535454246
 30
0.0
 10
72.49996742979168
 20
-141.1018093180232
 30
0.0
 10
72.45518118848344
 20
-140.9013047607816
 30
0.0
 10
72.53269583690155
 20
-140.7934732720933
 30
0.0
 10
72.59556882950736
 20
-140.7035562799283
 30
0.0
 10
72.59556882950736
 20
-140.7035562799283
 30
0.0
 10
72.75266518363475
 20
-140.8606526340557
 30
0.0
 10
72.75266518363475
 20
-140.8606526340557
 30
0.0
 10
72.65103486681988
 20
-141.0404866183857
 30
0.0
 10
72.71993677652488
 20
-141.1510741834622
 30
0.0
 10
72.78573810029316
 20
-141.2168755072305
 30
0.0
 10
72.8842678311713
 20
-141.3154052381087
 30
0.0
 10
73.06255152253297
 20
-141.3529567788979
 30
0.0
 10
73.22705483195365
 20
-141.1886257242515
 30
0.0
 10
73.40809459970353
 20
-141.0074137017273
 30
0.0
 10
73.33023544173689
 20
-140.8310248128825
 30
0.0
 10
73.2447970737027
 20
-140.7455864448483
 30
0.0
 10
73.22240395304857
 20
-140.7231933241942
 30
0.0
 10
73.1221516744278
 20
-140.6229410455734
 30
0.0
 10
72.96815590623713
 20
-140.651535338101
 30
0.0
 10
72.96815590623713
 20
-140.651535338101
 30
0.0
 10
72.85739608638634
 20
-140.513731518691
 30
0.0
 10
72.85739608638634
 20
-140.513731518691
 30
0.0
 10
72.85739608638634
 20
-140.513731518691
 30
0.0
 10
73.54107528543418
 20
-140.0007568009373
 30
0.0
 10
73.54107528543418
 20
-140.0007568009373
 30
0.0
 10
73.54107528543418
 20
-140.0007568009373
 30
0.0
 10
74.0916015439771
 20
-140.5512830594803
 30
0.0
 10
74.0916015439771
 20
-140.5512830594803
 30
0.0
 10
74.0916015439771
 20
-140.5512830594803
 30
0.0
 10
73.95396997934137
 20
-140.6887423693417
 30
0.0
 10
73.95396997934137
 20
-140.6887423693417
 30
0.0
 10
73.95396997934137
 20
-140.6887423693417
 30
0.0
 10
73.51850991000579
 20
-140.2532823000061
 30
0.0
 10
73.51850991000579
 20
-140.2532823000061
 30
0.0
 10
73.51850991000579
 20
-140.2532823000061
 30
0.0
 10
73.1731390876095
 20
-140.506496818172
 30
0.0
 10
73.1731390876095
 20
-140.506496818172
 30
0.0
 10
73.24049070434613
 20
-140.5257893528894
 30
0.0
 10
73.32713485580017
 20
-140.5557616836111
 30
0.0
 10
73.41085067609174
 20
-140.6394775039026
 30
0.0
 10
73.59034015087325
 20
-140.8189669786842
 30
0.0
 10
73.62651365346838
 20
-141.1183457763524
 30
0.0
 10
73.40516626854107
 20
-141.3398654160539
 30
0.0
 10
73.18071829767705
 20
-141.5641411321437
 30
0.0
 10
72.85584579341798
 20
-141.5713758326627
 30
0.0
 10
72.6422498733325
 20
-141.3577799125772
 30
0.0
  0
HATCH
  5
5C
330
55
100
AcDbEntity
  8
_U+30EC_U+30A4_U+30E4_U+30FC 1
 62
     7
420
 16777215
100
AcDbHatch
 10
0.0
 20
0.0
 30
0.0
210
0.0
220
0.0
230
1.0
  2
SOLID
 70
     1
 71
     0
 91
        1
 92
        1
 93
        1
 72
     4
 94
        3
 73
     0
 74
     1
 95
       53
 96
       49
 40
0.0
 40
0.0
 40
0.0
 40
0.0
 40
1.0
 40
1.0
 40
1.0
 40
2.0
 40
2.0
 40
2.0
 40
3.0
 40
3.0
 40
3.0
 40
4.0
 40
4.0
 40
4.0
 40
5.0
 40
5.0
 40
5.0
 40
6.0
 40
6.0
 40
6.0
 40
7.0
 40
7.0
 40
7.0
 40
8.0
 40
8.0
 40
8.0
 40
9.0
 40
9.0
 40
9.0
 40
10.0
 40
10.0
 40
10.0
 40
11.0
 40
11.0
 40
11.0
 40
12.0
 40
12.0
 40
12.0
 40
13.0
 40
13.0
 40
13.0
 40
14.0
 40
14.0
 40
14.0
 40
15.0
 40
15.0
 40
15.0
 40
16.0
 40
16.0
 40
16.0
 40
16.0
 10
72.6422498733325
 20
-141.3577799125772
 10
72.58678383601998
 20
-141.3023138752647
 10
72.52683917457662
 20
-141.2182535454246
 10
72.49996742979168
 20
-141.1018093180232
 10
72.45518118848344
 20
-140.9013047607816
 10
72.53269583690155
 20
-140.7934732720933
 10
72.59556882950736
 20
-140.7035562799283
 10
72.59556882950736
 20
-140.7035562799283
 10
72.75266518363475
 20
-140.8606526340557
 10
72.75266518363475
 20
-140.8606526340557
 10
72.65103486681988
 20
-141.0404866183857
 10
72.71993677652488
 20
-141.1510741834622
 10
72.78573810029316
 20
-141.2168755072305
 10
72.8842678311713
 20
-141.3154052381087
 10
73.06255152253297
 20
-141.3529567788979
 10
73.22705483195365
 20
-141.1886257242515
 10
73.40809459970353
 20
-141.0074137017273
 10
73.33023544173689
 20
-140.8310248128825
 10
73.2447970737027
 20
-140.7455864448483
 10
73.22240395304857
 20
-140.7231933241942
 10
73.1221516744278
 20
-140.6229410455734
 10
72.96815590623713
 20
-140.651535338101
 10
72.96815590623713
 20
-140.651535338101
 10
72.85739608638634
 20
-140.513731518691
 10
72.85739608638634
 20
-140.513731518691
 10
72.85739608638634
 20
-140.513731518691
 10
73.54107528543418
 20
-140.0007568009373
 10
73.54107528543418
 20
-140.0007568009373
 10
73.54107528543418
 20
-140.0007568009373
 10
74.0916015439771
 20
-140.5512830594803
 10
74.0916015439771
 20
-140.5512830594803
 10
74.0916015439771
 20
-140.5512830594803
 10
73.95396997934137
 20
-140.6887423693417
 10
73.95396997934137
 20
-140.6887423693417
 10
73.95396997934137
 20
-140.6887423693417
 10
73.51850991000579
 20
-140.2532823000061
 10
73.51850991000579
 20
-140.2532823000061
 10
73.51850991000579
 20
-140.2532823000061
 10
73.1731390876095
 20
-140.506496818172
 10
73.1731390876095
 20
-140.506496818172
 10
73.24049070434613
 20
-140.5257893528894
 10
73.32713485580017
 20
-140.5557616836111
 10
73.41085067609174
 20
-140.6394775039026
 10
73.59034015087325
 20
-140.8189669786842
 10
73.62651365346838
 20
-141.1183457763524
 10
73.40516626854107
 20
-141.3398654160539
 10
73.18071829767705
 20
-141.5641411321437
 10
72.85584579341798
 20
-141.5713758326627
 10
72.6422498733325
 20
-141.3577799125772
 97
        0
 97
        0
 75
     2
 76
     1
 98
        0
  0
ENDBLK
  5
58
330
55
100
AcDbEntity
  8
0
100
AcDbBlockEnd
  0
BLOCK
  5
6B
330
69
100
AcDbEntity
  8
0
100
AcDbBlockBegin
  2
block 4
 70
     0
 10
0.0
 20
0.0
 30
0.0
  3
block 4
  1

  0
SPLINE
  5
6D
330
69
100
AcDbEntity
  8
_U+30EC_U+30A4_U+30E4_U+30FC 1
370
     0
100
AcDbSpline
210
0.0
220
0.0
230
1.0
 70
    11
 71
     3
 72
    26
 73
    22
 74
     0
 42
0.0000000001
 43
0.0000000001
 12
1.0
 22
0.0
 32
0.0
 13
1.0
 23
0.0
 33
0.0
 40
0.0
 40
0.0
 40
0.0
 40
0.0
 40
1.0
 40
1.0
 40
1.0
 40
2.0
 40
2.0
 40
2.0
 40
3.0
 40
3.0
 40
3.0
 40
4.0
 40
4.0
 40
4.0
 40
5.0
 40
5.0
 40
5.0
 40
6.0
 40
6.0
 40
6.0
 40
7.0
 40
7.0
 40
7.0
 40
7.0
 10
86.09758705529852
 20
-147.4948730100013
 30
0.0
 10
86.09758705529852
 20
-147.4948730100013
 30
0.0
 10
86.09758705529852
 20
-146.3907199069787
 30
0.0
 10
86.09758705529852
 20
-146.3907199069787
 30
0.0
 10
86.09758705529852
 20
-146.3907199069787
 30
0.0
 10
85.76754690781159
 20
-146.3907199069787
 30
0.0
 10
85.76754690781159
 20
-146.3907199069787
 30
0.0
 10
85.76754690781159
 20
-146.3907199069787
 30
0.0
 10
85.76754690781159
 20
-146.242580801113
 30
0.0
 10
85.76754690781159
 20
-146.242580801113
 30
0.0
 10
86.09965411258968
 20
-146.2277668905264
 30
0.0
 10
86.14616290164055
 20
-146.0648138740741
 30
0.0
 10
86.1757907228137
 20
-145.9504367039638
 30
0.0
 10
86.1757907228137
 20
-145.9504367039638
 30
0.0
 10
86.32186277138828
 20
-145.9504367039638
 30
0.0
 10
86.32186277138828
 20
-145.9504367039638
 30
0.0
 10
86.32186277138828
 20
-145.9504367039638
 30
0.0
 10
86.32186277138828
 20
-147.4948730100013
 30
0.0
 10
86.32186277138828
 20
-147.4948730100013
 30
0.0
 10
86.32186277138828
 20
-147.4948730100013
 30
0.0
 10
86.09758705529852
 20
-147.4948730100013
 30
0.0
 10
86.09758705529852
 20
-147.4948730100013
 30
0.0
  0
HATCH
  5
6E
330
69
100
AcDbEntity
  8
_U+30EC_U+30A4_U+30E4_U+30FC 1
 62
     7
420
 16777215
100
AcDbHatch
 10
0.0
 20
0.0
 30
0.0
210
0.0
220
0.0
230
1.0
  2
SOLID
 70
     1
 71
     0
 91
        1
 92
        1
 93
        1
 72
     4
 94
        3
 73
     0
 74
     1
 95
       26
 96
       22
 40
0.0
 40
0.0
 40
0.0
 40
0.0
 40
1.0
 40
1.0
 40
1.0
 40
2.0
 40
2.0
 40
2.0
 40
3.0
 40
3.0
 40
3.0
 40
4.0
 40
4.0
 40
4.0
 40
5.0
 40
5.0
 40
5.0
 40
6.0
 40
6.0
 40
6.0
 40
7.0
 40
7.0
 40
7.0
 40
7.0
 10
86.09758705529852
 20
-147.4948730100013
 10
86.09758705529852
 20
-147.4948730100013
 10
86.09758705529852
 20
-146.3907199069787
 10
86.09758705529852
 20
-146.3907199069787
 10
86.09758705529852
 20
-146.3907199069787
 10
85.76754690781159
 20
-146.3907199069787
 10
85.76754690781159
 20
-146.3907199069787
 10
85.76754690781159
 20
-146.3907199069787
 10
85.76754690781159
 20
-146.242580801113
 10
85.76754690781159
 20
-146.242580801113
 10
86.09965411258968
 20
-146.2277668905264
 10
86.14616290164055
 20
-146.0648138740741
 10
86.1757907228137
 20
-145.9504367039638
 10
86.1757907228137
 20
-145.9504367039638
 10
86.32186277138828
 20
-145.9504367039638
 10
86.32186277138828
 20
-145.9504367039638
 10
86.32186277138828
 20
-145.9504367039638
 10
86.32186277138828
 20
-147.4948730100013
 10
86.32186277138828
 20
-147.4948730100013
 10
86.32186277138828
 20
-147.4948730100013
 10
86.09758705529852
 20
-147.4948730100013
 10
86.09758705529852
 20
-147.4948730100013
 97
        0
 97
        0
 75
     2
 76
     1
 98
        0
  0
SPLINE
  5
6F
330
69
100
AcDbEntity
  8
_U+30EC_U+30A4_U+30E4_U+30FC 1
370
     0
100
AcDbSpline
210
0.0
220
0.0
230
1.0
 70
    11
 71
     3
 72
    44
 73
    40
 74
     0
 42
0.0000000001
 43
0.0000000001
 12
1.0
 22
0.0
 32
0.0
 13
1.0
 23
0.0
 33
0.0
 40
0.0
 40
0.0
 40
0.0
 40
0.0
 40
1.0
 40
1.0
 40
1.0
 40
2.0
 40
2.0
 40
2.0
 40
3.0
 40
3.0
 40
3.0
 40
4.0
 40
4.0
 40
4.0
 40
5.0
 40
5.0
 40
5.0
 40
6.0
 40
6.0
 40
6.0
 40
7.0
 40
7.0
 40
7.0
 40
8.0
 40
8.0
 40
8.0
 40
9.0
 40
9.0
 40
9.0
 40
10.0
 40
10.0
 40
10.0
 40
11.0
 40
11.0
 40
11.0
 40
12.0
 40
12.0
 40
12.0
 40
13.0
 40
13.0
 40
13.0
 40
13.0
 10
87.41602509750363
 20
-146.9129963825426
 30
0.0
 10
87.19829506283585
 20
-147.0718152844126
 30
0.0
 10
87.1052774847341
 20
-147.1458848373455
 30
0.0
 10
87.05635712884356
 20
-147.2895453190804
 30
0.0
 10
87.05635712884356
 20
-147.2895453190804
 30
0.0
 10
87.83494870851001
 20
-147.2895453190804
 30
0.0
 10
87.83494870851001
 20
-147.2895453190804
 30
0.0
 10
87.83494870851001
 20
-147.2895453190804
 30
0.0
 10
87.83494870851001
 20
-147.4948730100013
 30
0.0
 10
87.83494870851001
 20
-147.4948730100013
 30
0.0
 10
87.83494870851001
 20
-147.4948730100013
 30
0.0
 10
86.80693221571147
 20
-147.4948730100013
 30
0.0
 10
86.80693221571147
 20
-147.4948730100013
 30
0.0
 10
86.83862709417576
 20
-147.1372720986324
 30
0.0
 10
86.9040839083955
 20
-147.0590684311172
 30
0.0
 10
87.28924558364645
 20
-146.7607231620945
 30
0.0
 10
87.5452161782005
 20
-146.5619411525956
 30
0.0
 10
87.61067299242025
 20
-146.4940727715362
 30
0.0
 10
87.61067299242025
 20
-146.3566134616748
 30
0.0
 10
87.61067299242025
 20
-146.2381021769822
 30
0.0
 10
87.53867049677854
 20
-146.1071885485427
 30
0.0
 10
87.34195554457077
 20
-146.1071885485427
 30
0.0
 10
87.08185083543441
 20
-146.1071885485427
 30
0.0
 10
87.07358260626981
 20
-146.3376654365059
 30
0.0
 10
87.06910398213898
 20
-146.4541096639073
 30
0.0
 10
87.06910398213898
 20
-146.4541096639073
 30
0.0
 10
86.84482826604922
 20
-146.4541096639073
 30
0.0
 10
86.84482826604922
 20
-146.4541096639073
 30
0.0
 10
86.85344100476233
 20
-146.3269856405016
 30
0.0
 10
86.86412080076661
 20
-146.215020037231
 30
0.0
 10
86.94439152557294
 20
-146.0965087525384
 30
0.0
 10
87.0542900715524
 20
-145.9356227933772
 30
0.0
 10
87.24066973730442
 20
-145.9018608576218
 30
0.0
 10
87.35676945515733
 20
-145.9018608576218
 30
0.0
 10
87.63409964171996
 20
-145.9018608576218
 30
0.0
 10
87.841494389932
 20
-146.0858289565341
 30
0.0
 10
87.841494389932
 20
-146.3586805189659
 30
0.0
 10
87.841494389932
 20
-146.5874348591865
 30
0.0
 10
87.72505016253055
 20
-146.6866536091617
 30
0.0
 10
87.41602509750363
 20
-146.9129963825426
 30
0.0
  0
HATCH
  5
70
330
69
100
AcDbEntity
  8
_U+30EC_U+30A4_U+30E4_U+30FC 1
 62
     7
420
 16777215
100
AcDbHatch
 10
0.0
 20
0.0
 30
0.0
210
0.0
220
0.0
230
1.0
  2
SOLID
 70
     1
 71
     0
 91
        1
 92
        1
 93
        1
 72
     4
 94
        3
 73
     0
 74
     1
 95
       44
 96
       40
 40
0.0
 40
0.0
 40
0.0
 40
0.0
 40
1.0
 40
1.0
 40
1.0
 40
2.0
 40
2.0
 40
2.0
 40
3.0
 40
3.0
 40
3.0
 40
4.0
 40
4.0
 40
4.0
 40
5.0
 40
5.0
 40
5.0
 40
6.0
 40
6.0
 40
6.0
 40
7.0
 40
7.0
 40
7.0
 40
8.0
 40
8.0
 40
8.0
 40
9.0
 40
9.0
 40
9.0
 40
10.0
 40
10.0
 40
10.0
 40
11.0
 40
11.0
 40
11.0
 40
12.0
 40
12.0
 40
12.0
 40
13.0
 40
13.0
 40
13.0
 40
13.0
 10
87.41602509750363
 20
-146.9129963825426
 10
87.19829506283585
 20
-147.0718152844126
 10
87.1052774847341
 20
-147.1458848373455
 10
87.05635712884356
 20
-147.2895453190804
 10
87.05635712884356
 20
-147.2895453190804
 10
87.83494870851001
 20
-147.2895453190804
 10
87.83494870851001
 20
-147.2895453190804
 10
87.83494870851001
 20
-147.2895453190804
 10
87.83494870851001
 20
-147.4948730100013
 10
87.83494870851001
 20
-147.4948730100013
 10
87.83494870851001
 20
-147.4948730100013
 10
86.80693221571147
 20
-147.4948730100013
 10
86.80693221571147
 20
-147.4948730100013
 10
86.83862709417576
 20
-147.1372720986324
 10
86.9040839083955
 20
-147.0590684311172
 10
87.28924558364645
 20
-146.7607231620945
 10
87.5452161782005
 20
-146.5619411525956
 10
87.61067299242025
 20
-146.4940727715362
 10
87.61067299242025
 20
-146.3566134616748
 10
87.61067299242025
 20
-146.2381021769822
 10
87.53867049677854
 20
-146.1071885485427
 10
87.34195554457077
 20
-146.1071885485427
 10
87.08185083543441
 20
-146.1071885485427
 10
87.07358260626981
 20
-146.3376654365059
 10
87.06910398213898
 20
-146.4541096639073
 10
87.06910398213898
 20
-146.4541096639073
 10
86.84482826604922
 20
-146.4541096639073
 10
86.84482826604922
 20
-146.4541096639073
 10
86.85344100476233
 20
-146.3269856405016
 10
86.86412080076661
 20
-146.215020037231
 10
86.94439152557294
 20
-146.0965087525384
 10
87.0542900715524
 20
-145.9356227933772
 10
87.24066973730442
 20
-145.9018608576218
 10
87.35676945515733
 20
-145.9018608576218
 10
87.63409964171996
 20
-145.9018608576218
 10
87.841494389932
 20
-146.0858289565341
 10
87.841494389932
 20
-146.3586805189659
 10
87.841494389932
 20
-146.5874348591865
 10
87.72505016253055
 20
-146.6866536091617
 10
87.41602509750363
 20
-146.9129963825426
 97
        0
 97
        0
 75
     2
 76
     1
 98
        0
  0
ENDBLK
  5
6C
330
69
100
AcDbEntity
  8
0
100
AcDbBlockEnd
  0
BLOCK
  5
9D
330
9B
100
AcDbEntity
  8
0
100
AcDbBlockBegin
  2
block 5
 70
     0
 10
0.0
 20
0.0
 30
0.0
  3
block 5
  1

  0
SPLINE
  5
9F
330
9B
100
AcDbEntity
  8
_U+30EC_U+30A4_U+30E4_U+30FC 1
370
     0
100
AcDbSpline
210
0.0
220
0.0
230
1.0
 70
    11
 71
     3
 72
    26
 73
    22
 74
     0
 42
0.0000000001
 43
0.0000000001
 12
1.0
 22
0.0
 32
0.0
 13
1.0
 23
0.0
 33
0.0
 40
0.0
 40
0.0
 40
0.0
 40
0.0
 40
1.0
 40
1.0
 40
1.0
 40
2.0
 40
2.0
 40
2.0
 40
3.0
 40
3.0
 40
3.0
 40
4.0
 40
4.0
 40
4.0
 40
5.0
 40
5.0
 40
5.0
 40
6.0
 40
6.0
 40
6.0
 40
7.0
 40
7.0
 40
7.0
 40
7.0
 10
114.4681206311052
 20
-137.4028102955104
 30
0.0
 10
114.4681206311052
 20
-137.4028102955104
 30
0.0
 10
113.3639675280826
 20
-137.4028102955104
 30
0.0
 10
113.3639675280826
 20
-137.4028102955104
 30
0.0
 10
113.3639675280826
 20
-137.4028102955104
 30
0.0
 10
113.3639675280826
 20
-137.7328504429973
 30
0.0
 10
113.3639675280826
 20
-137.7328504429973
 30
0.0
 10
113.3639675280826
 20
-137.7328504429973
 30
0.0
 10
113.2158284222169
 20
-137.7328504429973
 30
0.0
 10
113.2158284222169
 20
-137.7328504429973
 30
0.0
 10
113.2010145116303
 20
-137.4007432382193
 30
0.0
 10
113.0384060047265
 20
-137.3542344491684
 30
0.0
 10
112.9240288346162
 20
-137.3246066279953
 30
0.0
 10
112.9240288346162
 20
-137.3246066279953
 30
0.0
 10
112.9240288346162
 20
-137.1785345794206
 30
0.0
 10
112.9240288346162
 20
-137.1785345794206
 30
0.0
 10
112.9240288346162
 20
-137.1785345794206
 30
0.0
 10
114.4681206311052
 20
-137.1785345794206
 30
0.0
 10
114.4681206311052
 20
-137.1785345794206
 30
0.0
 10
114.4681206311052
 20
-137.1785345794206
 30
0.0
 10
114.4681206311052
 20
-137.4028102955104
 30
0.0
 10
114.4681206311052
 20
-137.4028102955104
 30
0.0
  0
HATCH
  5
A0
330
9B
100
AcDbEntity
  8
_U+30EC_U+30A4_U+30E4_U+30FC 1
 62
     7
420
 16777215
100
AcDbHatch
 10
0.0
 20
0.0
 30
0.0
210
0.0
220
0.0
230
1.0
  2
SOLID
 70
     1
 71
     0
 91
        1
 92
        1
 93
        1
 72
     4
 94
        3
 73
     0
 74
     1
 95
       26
 96
       22
 40
0.0
 40
0.0
 40
0.0
 40
0.0
 40
1.0
 40
1.0
 40
1.0
 40
2.0
 40
2.0
 40
2.0
 40
3.0
 40
3.0
 40
3.0
 40
4.0
 40
4.0
 40
4.0
 40
5.0
 40
5.0
 40
5.0
 40
6.0
 40
6.0
 40
6.0
 40
7.0
 40
7.0
 40
7.0
 40
7.0
 10
114.4681206311052
 20
-137.4028102955104
 10
114.4681206311052
 20
-137.4028102955104
 10
113.3639675280826
 20
-137.4028102955104
 10
113.3639675280826
 20
-137.4028102955104
 10
113.3639675280826
 20
-137.4028102955104
 10
113.3639675280826
 20
-137.7328504429973
 10
113.3639675280826
 20
-137.7328504429973
 10
113.3639675280826
 20
-137.7328504429973
 10
113.2158284222169
 20
-137.7328504429973
 10
113.2158284222169
 20
-137.7328504429973
 10
113.2010145116303
 20
-137.4007432382193
 10
113.0384060047265
 20
-137.3542344491684
 10
112.9240288346162
 20
-137.3246066279953
 10
112.9240288346162
 20
-137.3246066279953
 10
112.9240288346162
 20
-137.1785345794206
 10
112.9240288346162
 20
-137.1785345794206
 10
112.9240288346162
 20
-137.1785345794206
 10
114.4681206311052
 20
-137.1785345794206
 10
114.4681206311052
 20
-137.1785345794206
 10
114.4681206311052
 20
-137.1785345794206
 10
114.4681206311052
 20
-137.4028102955104
 10
114.4681206311052
 20
-137.4028102955104
 97
        0
 97
        0
 75
     2
 76
     1
 98
        0
  0
SPLINE
  5
A1
330
9B
100
AcDbEntity
  8
_U+30EC_U+30A4_U+30E4_U+30FC 1
370
     0
100
AcDbSpline
210
0.0
220
0.0
230
1.0
 70
    11
 71
     3
 72
    62
 73
    58
 74
     0
 42
0.0000000001
 43
0.0000000001
 12
1.0
 22
0.0
 32
0.0
 13
1.0
 23
0.0
 33
0.0
 40
0.0
 40
0.0
 40
0.0
 40
0.0
 40
1.0
 40
1.0
 40
1.0
 40
2.0
 40
2.0
 40
2.0
 40
3.0
 40
3.0
 40
3.0
 40
4.0
 40
4.0
 40
4.0
 40
5.0
 40
5.0
 40
5.0
 40
6.0
 40
6.0
 40
6.0
 40
7.0
 40
7.0
 40
7.0
 40
8.0
 40
8.0
 40
8.0
 40
9.0
 40
9.0
 40
9.0
 40
10.0
 40
10.0
 40
10.0
 40
11.0
 40
11.0
 40
11.0
 40
12.0
 40
12.0
 40
12.0
 40
13.0
 40
13.0
 40
13.0
 40
14.0
 40
14.0
 40
14.0
 40
15.0
 40
15.0
 40
15.0
 40
16.0
 40
16.0
 40
16.0
 40
17.0
 40
17.0
 40
17.0
 40
18.0
 40
18.0
 40
18.0
 40
19.0
 40
19.0
 40
19.0
 40
19.0
 10
114.5191080442869
 20
-136.1860025701202
 30
0.0
 10
114.5191080442869
 20
-136.2810872055131
 30
0.0
 10
114.4977484522783
 20
-136.4991617497294
 30
0.0
 10
114.3117132960749
 20
-136.6238742062954
 30
0.0
 10
114.1994031832557
 20
-136.6979437592283
 30
0.0
 10
114.1001844332805
 20
-136.7020778738106
 30
0.0
 10
114.0154350843434
 20
-136.7062119883929
 30
0.0
 10
114.0154350843434
 20
-136.7062119883929
 30
0.0
 10
114.0154350843434
 20
-136.486414896434
 30
0.0
 10
114.0154350843434
 20
-136.486414896434
 30
0.0
 10
114.0898491468248
 20
-136.4843478391428
 30
0.0
 10
114.3244601493703
 20
-136.4736680431385
 30
0.0
 10
114.3244601493703
 20
-136.1901366847025
 30
0.0
 10
114.3244601493703
 20
-136.052677374841
 30
0.0
 10
114.2545247110197
 20
-135.900404154393
 30
0.0
 10
114.0261148803476
 20
-135.900404154393
 30
0.0
 10
113.9100151624947
 20
-135.900404154393
 30
0.0
 10
113.8610948066042
 20
-135.9383002047307
 30
0.0
 10
113.8293999281399
 20
-135.969995083195
 30
0.0
 10
113.755330375207
 20
-136.0440646361279
 30
0.0
 10
113.7425835219116
 20
-136.1605088635293
 30
0.0
 10
113.7425835219116
 20
-136.2156303912933
 30
0.0
 10
113.7425835219116
 20
-136.2345784164622
 30
0.0
 10
113.7446505792027
 20
-136.2704074095088
 30
0.0
 10
113.748784693785
 20
-136.2979681733908
 30
0.0
 10
113.748784693785
 20
-136.2979681733908
 30
0.0
 10
113.5544813084169
 20
-136.2979681733908
 30
0.0
 10
113.5544813084169
 20
-136.2979681733908
 30
0.0
 10
113.5606824802904
 20
-136.260072123053
 30
0.0
 10
113.5627495375815
 20
-136.2176974485845
 30
0.0
 10
113.5627495375815
 20
-136.2111517671625
 30
0.0
 10
113.5627495375815
 20
-136.1456949529428
 30
0.0
 10
113.5417344551215
 20
-135.9469129434438
 30
0.0
 10
113.3047118857363
 20
-135.9469129434438
 30
0.0
 10
113.127289468246
 20
-135.9469129434438
 30
0.0
 10
113.072167940482
 20
-136.0781710814319
 30
0.0
 10
113.072167940482
 20
-136.1880696274113
 30
0.0
 10
113.072167940482
 20
-136.45230845113
 30
0.0
 10
113.3047118857363
 20
-136.4609211898431
 30
0.0
 10
113.3767143813781
 20
-136.4650553044254
 30
0.0
 10
113.3767143813781
 20
-136.4650553044254
 30
0.0
 10
113.3767143813781
 20
-136.6683159380551
 30
0.0
 10
113.3767143813781
 20
-136.6683159380551
 30
0.0
 10
113.252001924812
 20
-136.659703199342
 30
0.0
 10
112.8751084787257
 20
-136.63214243546
 30
0.0
 10
112.8751084787257
 20
-136.1753227741159
 30
0.0
 10
112.8751084787257
 20
-135.9510470580261
 30
0.0
 10
113.0022325021314
 20
-135.7098903740586
 30
0.0
 10
113.2981662043144
 20
-135.7098903740586
 30
0.0
 10
113.4845458700664
 20
-135.7098903740586
 30
0.0
 10
113.5668836521638
 20
-135.8049750094515
 30
0.0
 10
113.6282063518013
 20
-135.9045382689753
 30
0.0
 10
113.6557671156833
 20
-135.8432155693378
 30
0.0
 10
113.7363823500381
 20
-135.6613145277166
 30
0.0
 10
114.0133680270522
 20
-135.6613145277166
 30
0.0
 10
114.3520209132523
 20
-135.6613145277166
 30
0.0
 10
114.5191080442869
 20
-135.9086723835576
 30
0.0
 10
114.5191080442869
 20
-136.1860025701202
 30
0.0
  0
HATCH
  5
A2
330
9B
100
AcDbEntity
  8
_U+30EC_U+30A4_U+30E4_U+30FC 1
 62
     7
420
 16777215
100
AcDbHatch
 10
0.0
 20
0.0
 30
0.0
210
0.0
220
0.0
230
1.0
  2
SOLID
 70
     1
 71
     0
 91
        1
 92
        1
 93
        1
 72
     4
 94
        3
 73
     0
 74
     1
 95
       62
 96
       58
 40
0.0
 40
0.0
 40
0.0
 40
0.0
 40
1.0
 40
1.0
 40
1.0
 40
2.0
 40
2.0
 40
2.0
 40
3.0
 40
3.0
 40
3.0
 40
4.0
 40
4.0
 40
4.0
 40
5.0
 40
5.0
 40
5.0
 40
6.0
 40
6.0
 40
6.0
 40
7.0
 40
7.0
 40
7.0
 40
8.0
 40
8.0
 40
8.0
 40
9.0
 40
9.0
 40
9.0
 40
10.0
 40
10.0
 40
10.0
 40
11.0
 40
11.0
 40
11.0
 40
12.0
 40
12.0
 40
12.0
 40
13.0
 40
13.0
 40
13.0
 40
14.0
 40
14.0
 40
14.0
 40
15.0
 40
15.0
 40
15.0
 40
16.0
 40
16.0
 40
16.0
 40
17.0
 40
17.0
 40
17.0
 40
18.0
 40
18.0
 40
18.0
 40
19.0
 40
19.0
 40
19.0
 40
19.0
 10
114.5191080442869
 20
-136.1860025701202
 10
114.5191080442869
 20
-136.2810872055131
 10
114.4977484522783
 20
-136.4991617497294
 10
114.3117132960749
 20
-136.6238742062954
 10
114.1994031832557
 20
-136.6979437592283
 10
114.1001844332805
 20
-136.7020778738106
 10
114.0154350843434
 20
-136.7062119883929
 10
114.0154350843434
 20
-136.7062119883929
 10
114.0154350843434
 20
-136.486414896434
 10
114.0154350843434
 20
-136.486414896434
 10
114.0898491468248
 20
-136.4843478391428
 10
114.3244601493703
 20
-136.4736680431385
 10
114.3244601493703
 20
-136.1901366847025
 10
114.3244601493703
 20
-136.052677374841
 10
114.2545247110197
 20
-135.900404154393
 10
114.0261148803476
 20
-135.900404154393
 10
113.9100151624947
 20
-135.900404154393
 10
113.8610948066042
 20
-135.9383002047307
 10
113.8293999281399
 20
-135.969995083195
 10
113.755330375207
 20
-136.0440646361279
 10
113.7425835219116
 20
-136.1605088635293
 10
113.7425835219116
 20
-136.2156303912933
 10
113.7425835219116
 20
-136.2345784164622
 10
113.7446505792027
 20
-136.2704074095088
 10
113.748784693785
 20
-136.2979681733908
 10
113.748784693785
 20
-136.2979681733908
 10
113.5544813084169
 20
-136.2979681733908
 10
113.5544813084169
 20
-136.2979681733908
 10
113.5606824802904
 20
-136.260072123053
 10
113.5627495375815
 20
-136.2176974485845
 10
113.5627495375815
 20
-136.2111517671625
 10
113.5627495375815
 20
-136.1456949529428
 10
113.5417344551215
 20
-135.9469129434438
 10
113.3047118857363
 20
-135.9469129434438
 10
113.127289468246
 20
-135.9469129434438
 10
113.072167940482
 20
-136.0781710814319
 10
113.072167940482
 20
-136.1880696274113
 10
113.072167940482
 20
-136.45230845113
 10
113.3047118857363
 20
-136.4609211898431
 10
113.3767143813781
 20
-136.4650553044254
 10
113.3767143813781
 20
-136.4650553044254
 10
113.3767143813781
 20
-136.6683159380551
 10
113.3767143813781
 20
-136.6683159380551
 10
113.252001924812
 20
-136.659703199342
 10
112.8751084787257
 20
-136.63214243546
 10
112.8751084787257
 20
-136.1753227741159
 10
112.8751084787257
 20
-135.9510470580261
 10
113.0022325021314
 20
-135.7098903740586
 10
113.2981662043144
 20
-135.7098903740586
 10
113.4845458700664
 20
-135.7098903740586
 10
113.5668836521638
 20
-135.8049750094515
 10
113.6282063518013
 20
-135.9045382689753
 10
113.6557671156833
 20
-135.8432155693378
 10
113.7363823500381
 20
-135.6613145277166
 10
114.0133680270522
 20
-135.6613145277166
 10
114.3520209132523
 20
-135.6613145277166
 10
114.5191080442869
 20
-135.9086723835576
 10
114.5191080442869
 20
-136.1860025701202
 97
        0
 97
        0
 75
     2
 76
     1
 98
        0
  0
ENDBLK
  5
9E
330
9B
100
AcDbEntity
  8
0
100
AcDbBlockEnd
  0
BLOCK
  5
A5
330
A3
100
AcDbEntity
  8
0
100
AcDbBlockBegin
  2
block 6
 70
     0
 10
0.0
 20
0.0
 30
0.0
  3
block 6
  1

  0
SPLINE
  5
A7
330
A3
100
AcDbEntity
  8
_U+30EC_U+30A4_U+30E4_U+30FC 1
370
     0
100
AcDbSpline
210
0.0
220
0.0
230
1.0
 70
    11
 71
     3
 72
    26
 73
    22
 74
     0
 42
0.0000000001
 43
0.0000000001
 12
1.0
 22
0.0
 32
0.0
 13
1.0
 23
0.0
 33
0.0
 40
0.0
 40
0.0
 40
0.0
 40
0.0
 40
1.0
 40
1.0
 40
1.0
 40
2.0
 40
2.0
 40
2.0
 40
3.0
 40
3.0
 40
3.0
 40
4.0
 40
4.0
 40
4.0
 40
5.0
 40
5.0
 40
5.0
 40
6.0
 40
6.0
 40
6.0
 40
7.0
 40
7.0
 40
7.0
 40
7.0
 10
114.4681206311052
 20
-129.826356304349
 30
0.0
 10
114.4681206311052
 20
-129.826356304349
 30
0.0
 10
113.3639675280826
 20
-129.826356304349
 30
0.0
 10
113.3639675280826
 20
-129.826356304349
 30
0.0
 10
113.3639675280826
 20
-129.826356304349
 30
0.0
 10
113.3639675280826
 20
-130.1563964518359
 30
0.0
 10
113.3639675280826
 20
-130.1563964518359
 30
0.0
 10
113.3639675280826
 20
-130.1563964518359
 30
0.0
 10
113.2158284222169
 20
-130.1563964518359
 30
0.0
 10
113.2158284222169
 20
-130.1563964518359
 30
0.0
 10
113.2010145116303
 20
-129.8242892470578
 30
0.0
 10
113.0384060047265
 20
-129.777780458007
 30
0.0
 10
112.9240288346162
 20
-129.7481526368338
 30
0.0
 10
112.9240288346162
 20
-129.7481526368338
 30
0.0
 10
112.9240288346162
 20
-129.6020805882592
 30
0.0
 10
112.9240288346162
 20
-129.6020805882592
 30
0.0
 10
112.9240288346162
 20
-129.6020805882592
 30
0.0
 10
114.4681206311052
 20
-129.6020805882592
 30
0.0
 10
114.4681206311052
 20
-129.6020805882592
 30
0.0
 10
114.4681206311052
 20
-129.6020805882592
 30
0.0
 10
114.4681206311052
 20
-129.826356304349
 30
0.0
 10
114.4681206311052
 20
-129.826356304349
 30
0.0
  0
HATCH
  5
A8
330
A3
100
AcDbEntity
  8
_U+30EC_U+30A4_U+30E4_U+30FC 1
 62
     7
420
 16777215
100
AcDbHatch
 10
0.0
 20
0.0
 30
0.0
210
0.0
220
0.0
230
1.0
  2
SOLID
 70
     1
 71
     0
 91
        1
 92
        1
 93
        1
 72
     4
 94
        3
 73
     0
 74
     1
 95
       26
 96
       22
 40
0.0
 40
0.0
 40
0.0
 40
0.0
 40
1.0
 40
1.0
 40
1.0
 40
2.0
 40
2.0
 40
2.0
 40
3.0
 40
3.0
 40
3.0
 40
4.0
 40
4.0
 40
4.0
 40
5.0
 40
5.0
 40
5.0
 40
6.0
 40
6.0
 40
6.0
 40
7.0
 40
7.0
 40
7.0
 40
7.0
 10
114.4681206311052
 20
-129.826356304349
 10
114.4681206311052
 20
-129.826356304349
 10
113.3639675280826
 20
-129.826356304349
 10
113.3639675280826
 20
-129.826356304349
 10
113.3639675280826
 20
-129.826356304349
 10
113.3639675280826
 20
-130.1563964518359
 10
113.3639675280826
 20
-130.1563964518359
 10
113.3639675280826
 20
-130.1563964518359
 10
113.2158284222169
 20
-130.1563964518359
 10
113.2158284222169
 20
-130.1563964518359
 10
113.2010145116303
 20
-129.8242892470578
 10
113.0384060047265
 20
-129.777780458007
 10
112.9240288346162
 20
-129.7481526368338
 10
112.9240288346162
 20
-129.7481526368338
 10
112.9240288346162
 20
-129.6020805882592
 10
112.9240288346162
 20
-129.6020805882592
 10
112.9240288346162
 20
-129.6020805882592
 10
114.4681206311052
 20
-129.6020805882592
 10
114.4681206311052
 20
-129.6020805882592
 10
114.4681206311052
 20
-129.6020805882592
 10
114.4681206311052
 20
-129.826356304349
 10
114.4681206311052
 20
-129.826356304349
 97
        0
 97
        0
 75
     2
 76
     1
 98
        0
  0
ENDBLK
  5
A6
330
A3
100
AcDbEntity
  8
0
100
AcDbBlockEnd
  0
BLOCK
  5
B1
330
AF
100
AcDbEntity
  8
0
100
AcDbBlockBegin
  2
block 7
 70
     0
 10
0.0
 20
0.0
 30
0.0
  3
block 7
  1

  0
SPLINE
  5
B3
330
AF
100
AcDbEntity
  8
_U+30EC_U+30A4_U+30E4_U+30FC 1
370
     0
100
AcDbSpline
210
0.0
220
0.0
230
1.0
 70
    11
 71
     3
 72
    44
 73
    40
 74
     0
 42
0.0000000001
 43
0.0000000001
 12
1.0
 22
0.0
 32
0.0
 13
1.0
 23
0.0
 33
0.0
 40
0.0
 40
0.0
 40
0.0
 40
0.0
 40
1.0
 40
1.0
 40
1.0
 40
2.0
 40
2.0
 40
2.0
 40
3.0
 40
3.0
 40
3.0
 40
4.0
 40
4.0
 40
4.0
 40
5.0
 40
5.0
 40
5.0
 40
6.0
 40
6.0
 40
6.0
 40
7.0
 40
7.0
 40
7.0
 40
8.0
 40
8.0
 40
8.0
 40
9.0
 40
9.0
 40
9.0
 40
10.0
 40
10.0
 40
10.0
 40
11.0
 40
11.0
 40
11.0
 40
12.0
 40
12.0
 40
12.0
 40
13.0
 40
13.0
 40
13.0
 40
13.0
 10
113.886588513195
 20
-118.8740532471912
 30
0.0
 10
114.0450629055165
 20
-119.091783281859
 30
0.0
 10
114.1191324584494
 20
-119.1848008599607
 30
0.0
 10
114.2631374497328
 20
-119.2337212158513
 30
0.0
 10
114.2631374497328
 20
-119.2337212158513
 30
0.0
 10
114.2631374497328
 20
-118.4551296361848
 30
0.0
 10
114.2631374497328
 20
-118.4551296361848
 30
0.0
 10
114.2631374497328
 20
-118.4551296361848
 30
0.0
 10
114.4681206311052
 20
-118.4551296361848
 30
0.0
 10
114.4681206311052
 20
-118.4551296361848
 30
0.0
 10
114.4681206311052
 20
-118.4551296361848
 30
0.0
 10
114.4681206311052
 20
-119.4831461289834
 30
0.0
 10
114.4681206311052
 20
-119.4831461289834
 30
0.0
 10
114.1108642292848
 20
-119.4514512505191
 30
0.0
 10
114.0323160522211
 20
-119.3859944362993
 30
0.0
 10
113.7339707831985
 20
-119.0008327610484
 30
0.0
 10
113.5351887736995
 20
-118.7448621664943
 30
0.0
 10
113.4676649021886
 20
-118.6794053522746
 30
0.0
 10
113.3302055923272
 20
-118.6794053522746
 30
0.0
 10
113.2116943076346
 20
-118.6794053522746
 30
0.0
 10
113.0804361696466
 20
-118.7514078479163
 30
0.0
 10
113.0804361696466
 20
-118.9481228001241
 30
0.0
 10
113.0804361696466
 20
-119.2082275092605
 30
0.0
 10
113.3109130576098
 20
-119.2168402479736
 30
0.0
 10
113.4273572850112
 20
-119.2209743625559
 30
0.0
 10
113.4273572850112
 20
-119.2209743625559
 30
0.0
 10
113.4273572850112
 20
-119.4452500786456
 30
0.0
 10
113.4273572850112
 20
-119.4452500786456
 30
0.0
 10
113.300577771154
 20
-119.4366373399325
 30
0.0
 10
113.1882676583349
 20
-119.4259575439282
 30
0.0
 10
113.0697563736423
 20
-119.3456868191219
 30
0.0
 10
112.9092149240296
 20
-119.2357882731424
 30
0.0
 10
112.8751084787257
 20
-119.0494086073904
 30
0.0
 10
112.8751084787257
 20
-118.9333088895375
 30
0.0
 10
112.8751084787257
 20
-118.6559787029749
 30
0.0
 10
113.0594210871865
 20
-118.4485839547629
 30
0.0
 10
113.3322726496183
 20
-118.4485839547629
 30
0.0
 10
113.5606824802904
 20
-118.4485839547629
 30
0.0
 10
113.6602457398141
 20
-118.5650281821643
 30
0.0
 10
113.886588513195
 20
-118.8740532471912
 30
0.0
  0
HATCH
  5
B4
330
AF
100
AcDbEntity
  8
_U+30EC_U+30A4_U+30E4_U+30FC 1
 62
     7
420
 16777215
100
AcDbHatch
 10
0.0
 20
0.0
 30
0.0
210
0.0
220
0.0
230
1.0
  2
SOLID
 70
     1
 71
     0
 91
        1
 92
        1
 93
        1
 72
     4
 94
        3
 73
     0
 74
     1
 95
       44
 96
       40
 40
0.0
 40
0.0
 40
0.0
 40
0.0
 40
1.0
 40
1.0
 40
1.0
 40
2.0
 40
2.0
 40
2.0
 40
3.0
 40
3.0
 40
3.0
 40
4.0
 40
4.0
 40
4.0
 40
5.0
 40
5.0
 40
5.0
 40
6.0
 40
6.0
 40
6.0
 40
7.0
 40
7.0
 40
7.0
 40
8.0
 40
8.0
 40
8.0
 40
9.0
 40
9.0
 40
9.0
 40
10.0
 40
10.0
 40
10.0
 40
11.0
 40
11.0
 40
11.0
 40
12.0
 40
12.0
 40
12.0
 40
13.0
 40
13.0
 40
13.0
 40
13.0
 10
113.886588513195
 20
-118.8740532471912
 10
114.0450629055165
 20
-119.091783281859
 10
114.1191324584494
 20
-119.1848008599607
 10
114.2631374497328
 20
-119.2337212158513
 10
114.2631374497328
 20
-119.2337212158513
 10
114.2631374497328
 20
-118.4551296361848
 10
114.2631374497328
 20
-118.4551296361848
 10
114.2631374497328
 20
-118.4551296361848
 10
114.4681206311052
 20
-118.4551296361848
 10
114.4681206311052
 20
-118.4551296361848
 10
114.4681206311052
 20
-118.4551296361848
 10
114.4681206311052
 20
-119.4831461289834
 10
114.4681206311052
 20
-119.4831461289834
 10
114.1108642292848
 20
-119.4514512505191
 10
114.0323160522211
 20
-119.3859944362993
 10
113.7339707831985
 20
-119.0008327610484
 10
113.5351887736995
 20
-118.7448621664943
 10
113.4676649021886
 20
-118.6794053522746
 10
113.3302055923272
 20
-118.6794053522746
 10
113.2116943076346
 20
-118.6794053522746
 10
113.0804361696466
 20
-118.7514078479163
 10
113.0804361696466
 20
-118.9481228001241
 10
113.0804361696466
 20
-119.2082275092605
 10
113.3109130576098
 20
-119.2168402479736
 10
113.4273572850112
 20
-119.2209743625559
 10
113.4273572850112
 20
-119.2209743625559
 10
113.4273572850112
 20
-119.4452500786456
 10
113.4273572850112
 20
-119.4452500786456
 10
113.300577771154
 20
-119.4366373399325
 10
113.1882676583349
 20
-119.4259575439282
 10
113.0697563736423
 20
-119.3456868191219
 10
112.9092149240296
 20
-119.2357882731424
 10
112.8751084787257
 20
-119.0494086073904
 10
112.8751084787257
 20
-118.9333088895375
 10
112.8751084787257
 20
-118.6559787029749
 10
113.0594210871865
 20
-118.4485839547629
 10
113.3322726496183
 20
-118.4485839547629
 10
113.5606824802904
 20
-118.4485839547629
 10
113.6602457398141
 20
-118.5650281821643
 10
113.886588513195
 20
-118.8740532471912
 97
        0
 97
        0
 75
     2
 76
     1
 98
        0
  0
SPLINE
  5
B5
330
AF
100
AcDbEntity
  8
_U+30EC_U+30A4_U+30E4_U+30FC 1
370
     0
100
AcDbSpline
210
0.0
220
0.0
230
1.0
 70
    11
 71
     3
 72
    44
 73
    40
 74
     0
 42
0.0000000001
 43
0.0000000001
 12
1.0
 22
0.0
 32
0.0
 13
1.0
 23
0.0
 33
0.0
 40
0.0
 40
0.0
 40
0.0
 40
0.0
 40
1.0
 40
1.0
 40
1.0
 40
2.0
 40
2.0
 40
2.0
 40
3.0
 40
3.0
 40
3.0
 40
4.0
 40
4.0
 40
4.0
 40
5.0
 40
5.0
 40
5.0
 40
6.0
 40
6.0
 40
6.0
 40
7.0
 40
7.0
 40
7.0
 40
8.0
 40
8.0
 40
8.0
 40
9.0
 40
9.0
 40
9.0
 40
10.0
 40
10.0
 40
10.0
 40
11.0
 40
11.0
 40
11.0
 40
12.0
 40
12.0
 40
12.0
 40
13.0
 40
13.0
 40
13.0
 40
13.0
 10
113.886588513195
 20
-117.6972086294299
 30
0.0
 10
114.0450629055165
 20
-117.9149386640977
 30
0.0
 10
114.1191324584494
 20
-118.0079562421994
 30
0.0
 10
114.2631374497328
 20
-118.05687659809
 30
0.0
 10
114.2631374497328
 20
-118.05687659809
 30
0.0
 10
114.2631374497328
 20
-117.2782850184235
 30
0.0
 10
114.2631374497328
 20
-117.2782850184235
 30
0.0
 10
114.2631374497328
 20
-117.2782850184235
 30
0.0
 10
114.4681206311052
 20
-117.2782850184235
 30
0.0
 10
114.4681206311052
 20
-117.2782850184235
 30
0.0
 10
114.4681206311052
 20
-117.2782850184235
 30
0.0
 10
114.4681206311052
 20
-118.306301511222
 30
0.0
 10
114.4681206311052
 20
-118.306301511222
 30
0.0
 10
114.1108642292848
 20
-118.2746066327577
 30
0.0
 10
114.0323160522211
 20
-118.209149818538
 30
0.0
 10
113.7339707831985
 20
-117.8239881432871
 30
0.0
 10
113.5351887736995
 20
-117.568017548733
 30
0.0
 10
113.4676649021886
 20
-117.5025607345133
 30
0.0
 10
113.3302055923272
 20
-117.5025607345133
 30
0.0
 10
113.2116943076346
 20
-117.5025607345133
 30
0.0
 10
113.0804361696466
 20
-117.574563230155
 30
0.0
 10
113.0804361696466
 20
-117.7712781823627
 30
0.0
 10
113.0804361696466
 20
-118.0313828914991
 30
0.0
 10
113.3109130576098
 20
-118.0399956302122
 30
0.0
 10
113.4273572850112
 20
-118.0441297447945
 30
0.0
 10
113.4273572850112
 20
-118.0441297447945
 30
0.0
 10
113.4273572850112
 20
-118.2684054608843
 30
0.0
 10
113.4273572850112
 20
-118.2684054608843
 30
0.0
 10
113.300577771154
 20
-118.2597927221712
 30
0.0
 10
113.1882676583349
 20
-118.2491129261669
 30
0.0
 10
113.0697563736423
 20
-118.1688422013606
 30
0.0
 10
112.9092149240296
 20
-118.0589436553811
 30
0.0
 10
112.8751084787257
 20
-117.8725639896291
 30
0.0
 10
112.8751084787257
 20
-117.7564642717762
 30
0.0
 10
112.8751084787257
 20
-117.4791340852136
 30
0.0
 10
113.0594210871865
 20
-117.2717393370015
 30
0.0
 10
113.3322726496183
 20
-117.2717393370015
 30
0.0
 10
113.5606824802904
 20
-117.2717393370015
 30
0.0
 10
113.6602457398141
 20
-117.388183564403
 30
0.0
 10
113.886588513195
 20
-117.6972086294299
 30
0.0
  0
HATCH
  5
B6
330
AF
100
AcDbEntity
  8
_U+30EC_U+30A4_U+30E4_U+30FC 1
 62
     7
420
 16777215
100
AcDbHatch
 10
0.0
 20
0.0
 30
0.0
210
0.0
220
0.0
230
1.0
  2
SOLID
 70
     1
 71
     0
 91
        1
 92
        1
 93
        1
 72
     4
 94
        3
 73
     0
 74
     1
 95
       44
 96
       40
 40
0.0
 40
0.0
 40
0.0
 40
0.0
 40
1.0
 40
1.0
 40
1.0
 40
2.0
 40
2.0
 40
2.0
 40
3.0
 40
3.0
 40
3.0
 40
4.0
 40
4.0
 40
4.0
 40
5.0
 40
5.0
 40
5.0
 40
6.0
 40
6.0
 40
6.0
 40
7.0
 40
7.0
 40
7.0
 40
8.0
 40
8.0
 40
8.0
 40
9.0
 40
9.0
 40
9.0
 40
10.0
 40
10.0
 40
10.0
 40
11.0
 40
11.0
 40
11.0
 40
12.0
 40
12.0
 40
12.0
 40
13.0
 40
13.0
 40
13.0
 40
13.0
 10
113.886588513195
 20
-117.6972086294299
 10
114.0450629055165
 20
-117.9149386640977
 10
114.1191324584494
 20
-118.0079562421994
 10
114.2631374497328
 20
-118.05687659809
 10
114.2631374497328
 20
-118.05687659809
 10
114.2631374497328
 20
-117.2782850184235
 10
114.2631374497328
 20
-117.2782850184235
 10
114.2631374497328
 20
-117.2782850184235
 10
114.4681206311052
 20
-117.2782850184235
 10
114.4681206311052
 20
-117.2782850184235
 10
114.4681206311052
 20
-117.2782850184235
 10
114.4681206311052
 20
-118.306301511222
 10
114.4681206311052
 20
-118.306301511222
 10
114.1108642292848
 20
-118.2746066327577
 10
114.0323160522211
 20
-118.209149818538
 10
113.7339707831985
 20
-117.8239881432871
 10
113.5351887736995
 20
-117.568017548733
 10
113.4676649021886
 20
-117.5025607345133
 10
113.3302055923272
 20
-117.5025607345133
 10
113.2116943076346
 20
-117.5025607345133
 10
113.0804361696466
 20
-117.574563230155
 10
113.0804361696466
 20
-117.7712781823627
 10
113.0804361696466
 20
-118.0313828914991
 10
113.3109130576098
 20
-118.0399956302122
 10
113.4273572850112
 20
-118.0441297447945
 10
113.4273572850112
 20
-118.0441297447945
 10
113.4273572850112
 20
-118.2684054608843
 10
113.4273572850112
 20
-118.2684054608843
 10
113.300577771154
 20
-118.2597927221712
 10
113.1882676583349
 20
-118.2491129261669
 10
113.0697563736423
 20
-118.1688422013606
 10
112.9092149240296
 20
-118.0589436553811
 10
112.8751084787257
 20
-117.8725639896291
 10
112.8751084787257
 20
-117.7564642717762
 10
112.8751084787257
 20
-117.4791340852136
 10
113.0594210871865
 20
-117.2717393370015
 10
113.3322726496183
 20
-117.2717393370015
 10
113.5606824802904
 20
-117.2717393370015
 10
113.6602457398141
 20
-117.388183564403
 10
113.886588513195
 20
-117.6972086294299
 97
        0
 97
        0
 75
     2
 76
     1
 98
        0
  0
ENDBLK
  5
B2
330
AF
100
AcDbEntity
  8
0
100
AcDbBlockEnd
  0
ENDSEC
  0
SECTION
  2
ENTITIES
  0
INSERT
  5
42
330
1F
100
AcDbEntity
  8
_U+30EC_U+30A4_U+30E4_U+30FC 1
100
AcDbBlockReference
  2
block 2
 10
0.0
 20
0.0
 30
0.0
  0
POLYLINE
  5
71
330
1F
100
AcDbEntity
  8
_U+30EC_U+30A4_U+30E4_U+30FC 1
 62
     7
420
 16777215
370
    25
100
AcDb2dPolyline
 66
     1
 10
0.0
 20
0.0
 30
0.0
  0
VERTEX
  5
72
330
71
100
AcDbEntity
  8
_U+30EC_U+30A4_U+30E4_U+30FC 1
 62
     7
420
 16777215
370
    25
100
AcDbVertex
100
AcDb2dVertex
 10
92.73437457859345
 20
-143.3083874641727
 30
0.0
  0
VERTEX
  5
73
330
71
100
AcDbEntity
  8
_U+30EC_U+30A4_U+30E4_U+30FC 1
 62
     7
420
 16777215
370
    25
100
AcDbVertex
100
AcDb2dVertex
 10
92.73437457859345
 20
-143.808626352937
 30
0.0
  0
VERTEX
  5
74
330
71
100
AcDbEntity
  8
_U+30EC_U+30A4_U+30E4_U+30FC 1
 62
     7
420
 16777215
370
    25
100
AcDbVertex
100
AcDb2dVertex
 10
80.36235239423003
 20
-144.2082530195036
 30
0.0
  0
VERTEX
  5
75
330
71
100
AcDbEntity
  8
_U+30EC_U+30A4_U+30E4_U+30FC 1
 62
     7
420
 16777215
370
    25
100
AcDbVertex
100
AcDb2dVertex
 10
69.75630044259074
 20
-133.6021655221549
 30
0.0
  0
VERTEX
  5
76
330
71
100
AcDbEntity
  8
_U+30EC_U+30A4_U+30E4_U+30FC 1
 62
     7
420
 16777215
370
    25
100
AcDbVertex
100
AcDb2dVertex
 10
70.15592709906208
 20
-121.2282733030261
 30
0.0
  0
VERTEX
  5
77
330
71
100
AcDbEntity
  8
_U+30EC_U+30A4_U+30E4_U+30FC 1
 62
     7
420
 16777215
370
    25
100
AcDbVertex
100
AcDb2dVertex
 10
70.65616597518881
 20
-121.2282733030261
 30
0.0
  0
VERTEX
  5
78
330
71
100
AcDbEntity
  8
_U+30EC_U+30A4_U+30E4_U+30FC 1
 62
     7
420
 16777215
370
    25
100
AcDbVertex
100
AcDb2dVertex
 10
70.65616597518881
 20
-133.2287502444708
 30
0.0
  0
VERTEX
  5
79
330
71
100
AcDbEntity
  8
_U+30EC_U+30A4_U+30E4_U+30FC 1
 62
     7
420
 16777215
370
    25
100
AcDbVertex
100
AcDb2dVertex
 10
75.47514557446861
 20
-138.0504816321537
 30
0.0
  0
VERTEX
  5
7A
330
71
100
AcDbEntity
  8
_U+30EC_U+30A4_U+30E4_U+30FC 1
 62
     7
420
 16777215
370
    25
100
AcDbVertex
100
AcDb2dVertex
 10
83.95317146928727
 20
-129.6299935787033
 30
0.0
  0
VERTEX
  5
7B
330
71
100
AcDbEntity
  8
_U+30EC_U+30A4_U+30E4_U+30FC 1
 62
     7
420
 16777215
370
    25
100
AcDbVertex
100
AcDb2dVertex
 10
83.95317146928727
 20
-107.4051699731488
 30
0.0
  0
VERTEX
  5
7C
330
71
100
AcDbEntity
  8
_U+30EC_U+30A4_U+30E4_U+30FC 1
 62
     7
420
 16777215
370
    25
100
AcDbVertex
100
AcDb2dVertex
 10
84.85511839072113
 20
-107.4017127509275
 30
0.0
  0
VERTEX
  5
7D
330
71
100
AcDbEntity
  8
_U+30EC_U+30A4_U+30E4_U+30FC 1
 62
     7
420
 16777215
370
    25
100
AcDbVertex
100
AcDb2dVertex
 10
84.85511839072113
 20
-129.4019227454274
 30
0.0
  0
VERTEX
  5
7E
330
71
100
AcDbEntity
  8
_U+30EC_U+30A4_U+30E4_U+30FC 1
 62
     7
420
 16777215
370
    25
100
AcDbVertex
100
AcDb2dVertex
 10
106.8551514405646
 20
-129.4019227454274
 30
0.0
  0
VERTEX
  5
7F
330
71
100
AcDbEntity
  8
_U+30EC_U+30A4_U+30E4_U+30FC 1
 62
     7
420
 16777215
370
    25
100
AcDbVertex
100
AcDb2dVertex
 10
106.8510239406699
 20
-130.2859485785398
 30
0.0
  0
VERTEX
  5
80
330
71
100
AcDbEntity
  8
_U+30EC_U+30A4_U+30E4_U+30FC 1
 62
     7
420
 16777215
370
    25
100
AcDbVertex
100
AcDb2dVertex
 10
84.57434256455099
 20
-130.2859485785398
 30
0.0
  0
VERTEX
  5
81
330
71
100
AcDbEntity
  8
_U+30EC_U+30A4_U+30E4_U+30FC 1
 62
     7
420
 16777215
370
    25
100
AcDbVertex
100
AcDb2dVertex
 10
76.10905194718521
 20
-138.6898913542161
 30
0.0
  0
VERTEX
  5
82
330
71
100
AcDbEntity
  8
_U+30EC_U+30A4_U+30E4_U+30FC 1
 62
     7
420
 16777215
370
    25
100
AcDbVertex
100
AcDb2dVertex
 10
80.73513266249739
 20
-143.3083874641727
 30
0.0
  0
VERTEX
  5
83
330
71
100
AcDbEntity
  8
_U+30EC_U+30A4_U+30E4_U+30FC 1
 62
     7
420
 16777215
370
    25
100
AcDbVertex
100
AcDb2dVertex
 10
92.73437457859345
 20
-143.3083874641727
 30
0.0
  0
SEQEND
  5
84
330
71
100
AcDbEntity
  8
_U+30EC_U+30A4_U+30E4_U+30FC 1
 62
     7
420
 16777215
370
    25
  0
SPLINE
  5
85
330
1F
100
AcDbEntity
  8
_U+30EC_U+30A4_U+30E4_U+30FC 1
 62
     7
420
 16777215
370
     9
100
AcDbSpline
210
0.0
220
0.0
230
1.0
 70
    11
 71
     3
 72
    17
 73
    13
 74
     0
 42
0.0000000001
 43
0.0000000001
 12
1.0
 22
0.0
 32
0.0
 13
1.0
 23
0.0
 33
0.0
 40
0.0
 40
0.0
 40
0.0
 40
0.0
 40
1.0
 40
1.0
 40
1.0
 40
2.0
 40
2.0
 40
2.0
 40
3.0
 40
3.0
 40
3.0
 40
4.0
 40
4.0
 40
4.0
 40
4.0
 10
110.9603205024997
 20
-130.2659460785444
 30
0.0
 10
110.9603205024997
 20
-130.2104894118917
 30
0.0
 10
110.9155530036418
 20
-130.165686634125
 30
0.0
 10
110.8604166389516
 20
-130.165686634125
 30
0.0
 10
110.8053099508988
 20
-130.165686634125
 30
0.0
 10
110.760507174264
 20
-130.2104894118917
 30
0.0
 10
110.760507174264
 20
-130.2659460785444
 30
0.0
 10
110.760507174264
 20
-130.3210852451975
 30
0.0
 10
110.8053099508988
 20
-130.3658527451861
 30
0.0
 10
110.8604166389516
 20
-130.3658527451861
 30
0.0
 10
110.9155530036418
 20
-130.3658527451861
 30
0.0
 10
110.9603205024997
 20
-130.3210852451975
 30
0.0
 10
110.9603205024997
 20
-130.2659460785444
 30
0.0
  0
SPLINE
  5
86
330
1F
100
AcDbEntity
  8
_U+30EC_U+30A4_U+30E4_U+30FC 1
 62
     7
420
 16777215
370
     9
100
AcDbSpline
210
0.0
220
0.0
230
1.0
 70
    11
 71
     3
 72
    17
 73
    13
 74
     0
 42
0.0000000001
 43
0.0000000001
 12
1.0
 22
0.0
 32
0.0
 13
1.0
 23
0.0
 33
0.0
 40
0.0
 40
0.0
 40
0.0
 40
0.0
 40
1.0
 40
1.0
 40
1.0
 40
2.0
 40
2.0
 40
2.0
 40
3.0
 40
3.0
 40
3.0
 40
4.0
 40
4.0
 40
4.0
 40
4.0
 10
110.9603205024997
 20
-143.2660188530721
 30
0.0
 10
110.9603205024997
 20
-143.2108796864197
 30
0.0
 10
110.9155530036418
 20
-143.1661121864305
 30
0.0
 10
110.8604166389516
 20
-143.1661121864305
 30
0.0
 10
110.8053099508988
 20
-143.1661121864305
 30
0.0
 10
110.760507174264
 20
-143.2108796864197
 30
0.0
 10
110.760507174264
 20
-143.2660188530721
 30
0.0
 10
110.760507174264
 20
-143.3211227419476
 30
0.0
 10
110.8053099508988
 20
-143.3659255197144
 30
0.0
 10
110.8604166389516
 20
-143.3659255197144
 30
0.0
 10
110.9155530036418
 20
-143.3659255197144
 30
0.0
 10
110.9603205024997
 20
-143.3211227419476
 30
0.0
 10
110.9603205024997
 20
-143.2660188530721
 30
0.0
  0
POLYLINE
  5
87
330
1F
100
AcDbEntity
  8
_U+30EC_U+30A4_U+30E4_U+30FC 1
 62
     7
420
 16777215
370
     9
100
AcDb2dPolyline
 66
     1
 10
0.0
 20
0.0
 30
0.0
  0
VERTEX
  5
88
330
87
100
AcDbEntity
  8
_U+30EC_U+30A4_U+30E4_U+30FC 1
 62
     7
420
 16777215
370
     9
100
AcDbVertex
100
AcDb2dVertex
 10
110.8604166389516
 20
-143.2660188530721
 30
0.0
  0
VERTEX
  5
89
330
87
100
AcDbEntity
  8
_U+30EC_U+30A4_U+30E4_U+30FC 1
 62
     7
420
 16777215
370
     9
100
AcDbVertex
100
AcDb2dVertex
 10
110.8604166389516
 20
-129.3805444120992
 30
0.0
  0
SEQEND
  5
8A
330
87
100
AcDbEntity
  8
_U+30EC_U+30A4_U+30E4_U+30FC 1
 62
     7
420
 16777215
370
     9
  0
POLYLINE
  5
8B
330
1F
100
AcDbEntity
  8
_U+30EC_U+30A4_U+30E4_U+30FC 1
 62
     7
420
 16777215
370
     9
100
AcDb2dPolyline
 66
     1
 10
0.0
 20
0.0
 30
0.0
  0
VERTEX
  5
8C
330
8B
100
AcDbEntity
  8
_U+30EC_U+30A4_U+30E4_U+30FC 1
 62
     7
420
 16777215
370
     9
100
AcDbVertex
100
AcDb2dVertex
 10
112.2205485259042
 20
-143.2660188530721
 30
0.0
  0
VERTEX
  5
8D
330
8B
100
AcDbEntity
  8
_U+30EC_U+30A4_U+30E4_U+30FC 1
 62
     7
420
 16777215
370
     9
100
AcDbVertex
100
AcDb2dVertex
 10
94.80006480367108
 20
-143.2660188530721
 30
0.0
  0
SEQEND
  5
8E
330
8B
100
AcDbEntity
  8
_U+30EC_U+30A4_U+30E4_U+30FC 1
 62
     7
420
 16777215
370
     9
  0
POLYLINE
  5
8F
330
1F
100
AcDbEntity
  8
_U+30EC_U+30A4_U+30E4_U+30FC 1
 62
     7
420
 16777215
370
     9
100
AcDb2dPolyline
 66
     1
 10
0.0
 20
0.0
 30
0.0
  0
VERTEX
  5
90
330
8F
100
AcDbEntity
  8
_U+30EC_U+30A4_U+30E4_U+30FC 1
 62
     7
420
 16777215
370
     9
100
AcDbVertex
100
AcDb2dVertex
 10
112.2205485259042
 20
-130.2659460785444
 30
0.0
  0
VERTEX
  5
91
330
8F
100
AcDbEntity
  8
_U+30EC_U+30A4_U+30E4_U+30FC 1
 62
     7
420
 16777215
370
     9
100
AcDbVertex
100
AcDb2dVertex
 10
108.9607761090679
 20
-130.2659460785444
 30
0.0
  0
SEQEND
  5
92
330
8F
100
AcDbEntity
  8
_U+30EC_U+30A4_U+30E4_U+30FC 1
 62
     7
420
 16777215
370
     9
  0
POLYLINE
  5
93
330
1F
100
AcDbEntity
  8
_U+30EC_U+30A4_U+30E4_U+30FC 1
 62
     7
420
 16777215
370
     9
100
AcDb2dPolyline
 66
     1
 10
0.0
 20
0.0
 30
0.0
  0
VERTEX
  5
94
330
93
100
AcDbEntity
  8
_U+30EC_U+30A4_U+30E4_U+30FC 1
 62
     7
420
 16777215
370
     9
100
AcDbVertex
100
AcDb2dVertex
 10
112.2205485259042
 20
-129.3805444120992
 30
0.0
  0
VERTEX
  5
95
330
93
100
AcDbEntity
  8
_U+30EC_U+30A4_U+30E4_U+30FC 1
 62
     7
420
 16777215
370
     9
100
AcDbVertex
100
AcDb2dVertex
 10
108.9607761090679
 20
-129.3805444120992
 30
0.0
  0
SEQEND
  5
96
330
93
100
AcDbEntity
  8
_U+30EC_U+30A4_U+30E4_U+30FC 1
 62
     7
420
 16777215
370
     9
  0
POLYLINE
  5
97
330
1F
100
AcDbEntity
  8
_U+30EC_U+30A4_U+30E4_U+30FC 1
 62
     7
420
 16777215
370
     9
100
AcDb2dPolyline
 66
     1
 10
0.0
 20
0.0
 30
0.0
  0
VERTEX
  5
98
330
97
100
AcDbEntity
  8
_U+30EC_U+30A4_U+30E4_U+30FC 1
 62
     7
420
 16777215
370
     9
100
AcDbVertex
100
AcDb2dVertex
 10
112.2205485259042
 20
-107.3775827509335
 30
0.0
  0
VERTEX
  5
99
330
97
100
AcDbEntity
  8
_U+30EC_U+30A4_U+30E4_U+30FC 1
 62
     7
420
 16777215
370
     9
100
AcDbVertex
100
AcDb2dVertex
 10
108.9607761090679
 20
-107.3775827509335
 30
0.0
  0
SEQEND
  5
9A
330
97
100
AcDbEntity
  8
_U+30EC_U+30A4_U+30E4_U+30FC 1
 62
     7
420
 16777215
370
     9
  0
INSERT
  5
9C
330
1F
100
AcDbEntity
  8
_U+30EC_U+30A4_U+30E4_U+30FC 1
100
AcDbBlockReference
  2
block 5
 10
0.0
 20
0.0
 30
0.0
  0
INSERT
  5
A4
330
1F
100
AcDbEntity
  8
_U+30EC_U+30A4_U+30E4_U+30FC 1
100
AcDbBlockReference
  2
block 6
 10
0.0
 20
0.0
 30
0.0
  0
SPLINE
  5
A9
330
1F
100
AcDbEntity
  8
_U+30EC_U+30A4_U+30E4_U+30FC 1
 62
     7
420
 16777215
370
     9
100
AcDbSpline
210
0.0
220
0.0
230
1.0
 70
    11
 71
     3
 72
    17
 73
    13
 74
     0
 42
0.0000000001
 43
0.0000000001
 12
1.0
 22
0.0
 32
0.0
 13
1.0
 23
0.0
 33
0.0
 40
0.0
 40
0.0
 40
0.0
 40
0.0
 40
1.0
 40
1.0
 40
1.0
 40
2.0
 40
2.0
 40
2.0
 40
3.0
 40
3.0
 40
3.0
 40
4.0
 40
4.0
 40
4.0
 40
4.0
 10
110.7811799515144
 20
-129.3096008010057
 30
0.0
 10
110.7419157858495
 20
-129.3488649676627
 30
0.0
 10
110.7419157858495
 20
-129.4122591343138
 30
0.0
 10
110.7811799515144
 20
-129.4508530231928
 30
0.0
 10
110.8204441171794
 20
-129.4907874676272
 30
0.0
 10
110.8838382822287
 20
-129.4907874676272
 30
0.0
 10
110.9231024478937
 20
-129.4515233009701
 30
0.0
 10
110.961696335798
 20
-129.4129294120911
 30
0.0
 10
110.961696335798
 20
-129.3495705232183
 30
0.0
 10
110.922432170133
 20
-129.3096008010057
 30
0.0
 10
110.883168004468
 20
-129.2710069121267
 30
0.0
 10
110.8197738394187
 20
-129.2710069121267
 30
0.0
 10
110.7811799515144
 20
-129.3096008010057
 30
0.0
  0
SPLINE
  5
AA
330
1F
100
AcDbEntity
  8
_U+30EC_U+30A4_U+30E4_U+30FC 1
 62
     7
420
 16777215
370
     9
100
AcDbSpline
210
0.0
220
0.0
230
1.0
 70
    11
 71
     3
 72
    17
 73
    13
 74
     0
 42
0.0000000001
 43
0.0000000001
 12
1.0
 22
0.0
 32
0.0
 13
1.0
 23
0.0
 33
0.0
 40
0.0
 40
0.0
 40
0.0
 40
0.0
 40
1.0
 40
1.0
 40
1.0
 40
2.0
 40
2.0
 40
2.0
 40
3.0
 40
3.0
 40
3.0
 40
4.0
 40
4.0
 40
4.0
 40
4.0
 10
110.7825557848127
 20
-107.3073094176177
 30
0.0
 10
110.7432944167585
 20
-107.3462560842745
 30
0.0
 10
110.7432944167585
 20
-107.4096502509255
 30
0.0
 10
110.7825557848127
 20
-107.4485616398045
 30
0.0
 10
110.8218199504776
 20
-107.4878258064615
 30
0.0
 10
110.8852141155269
 20
-107.4878258064615
 30
0.0
 10
110.9238080034312
 20
-107.4485616398045
 30
0.0
 10
110.963074972259
 20
-107.4099677509251
 30
0.0
 10
110.963074972259
 20
-107.3466088620523
 30
0.0
 10
110.9238080034312
 20
-107.3073094176177
 30
0.0
 10
110.8845438377663
 20
-107.2683980287385
 30
0.0
 10
110.8211496727169
 20
-107.2683980287385
 30
0.0
 10
110.7825557848127
 20
-107.3073094176177
 30
0.0
  0
POLYLINE
  5
AB
330
1F
100
AcDbEntity
  8
_U+30EC_U+30A4_U+30E4_U+30FC 1
 62
     7
420
 16777215
370
     9
100
AcDb2dPolyline
 66
     1
 10
0.0
 20
0.0
 30
0.0
  0
VERTEX
  5
AC
330
AB
100
AcDbEntity
  8
_U+30EC_U+30A4_U+30E4_U+30FC 1
 62
     7
420
 16777215
370
     9
100
AcDbVertex
100
AcDb2dVertex
 10
110.8514532830549
 20
-129.3805444120992
 30
0.0
  0
VERTEX
  5
AD
330
AB
100
AcDbEntity
  8
_U+30EC_U+30A4_U+30E4_U+30FC 1
 62
     7
420
 16777215
370
     9
100
AcDbVertex
100
AcDb2dVertex
 10
110.8528291163532
 20
-107.3779355287109
 30
0.0
  0
SEQEND
  5
AE
330
AB
100
AcDbEntity
  8
_U+30EC_U+30A4_U+30E4_U+30FC 1
 62
     7
420
 16777215
370
     9
  0
INSERT
  5
B0
330
1F
100
AcDbEntity
  8
_U+30EC_U+30A4_U+30E4_U+30FC 1
100
AcDbBlockReference
  2
block 7
 10
0.0
 20
0.0
 30
0.0
  0
ENDSEC
  0
SECTION
  2
OBJECTS
  0
DICTIONARY
  5
C
330
0
100
AcDbDictionary
281
     1
  3
ACAD_GROUP
350
D
  3
ACAD_LAYOUT
350
1A
  3
ACAD_MATERIAL
350
3B
  3
ACAD_MLEADERSTYLE
350
B8
  3
ACAD_MLINESTYLE
350
17
  3
ACAD_PLOTSETTINGS
350
19
  3
ACAD_PLOTSTYLENAME
350
E
  3
ACAD_TABLESTYLE
350
B7
  3
ACAD_VISUALSTYLE
350
2A
  0
SUN
  5
3F
330
29
100
AcDbSun
 90
        1
290
     0
 63
     7
421
 16777215
 40
1.0
291
     1
 91
  2455826
 92
 54000000
292
     0
 70
     2
 71
   256
280
     1
  0
DICTIONARY
  5
D
102
{ACAD_REACTORS
330
C
102
}
330
C
100
AcDbDictionary
281
     1
  0
DICTIONARY
  5
1A
102
{ACAD_REACTORS
330
C
102
}
330
C
100
AcDbDictionary
281
     1
  3
Layout1
350
1E
  3
Layout2
350
26
  3
Model
350
22
  0
DICTIONARY
  5
3B
102
{ACAD_REACTORS
330
C
102
}
330
C
100
AcDbDictionary
281
     1
  3
ByBlock
350
3D
  3
ByLayer
350
3C
  3
Global
350
3E
  0
DICTIONARY
  5
B8
102
{ACAD_REACTORS
330
C
102
}
330
C
100
AcDbDictionary
281
     1
  0
DICTIONARY
  5
17
102
{ACAD_REACTORS
330
C
102
}
330
C
100
AcDbDictionary
281
     1
  3
Standard
350
18
  0
DICTIONARY
  5
19
102
{ACAD_REACTORS
330
C
102
}
330
C
100
AcDbDictionary
281
     1
  0
ACDBDICTIONARYWDFLT
  5
E
102
{ACAD_REACTORS
330
C
102
}
330
C
100
AcDbDictionary
281
     1
  3
Normal
350
F
100
AcDbDictionaryWithDefault
340
F
  0
DICTIONARY
  5
B7
102
{ACAD_REACTORS
330
C
102
}
330
C
100
AcDbDictionary
281
     1
  0
DICTIONARY
  5
2A
102
{ACAD_REACTORS
330
C
102
}
330
C
100
AcDbDictionary
281
     1
  3
2dWireframe
350
2F
  3
3D Hidden
350
31
  3
3dWireframe
350
30
  3
Basic
350
32
  3
Brighten
350
36
  3
ColorChange
350
3A
  3
Conceptual
350
34
  3
Dim
350
35
  3
Facepattern
350
39
  3
Flat
350
2B
  3
FlatWithEdges
350
2C
  3
Gouraud
350
2D
  3
GouraudWithEdges
350
2E
  3
Linepattern
350
38
  3
Realistic
350
33
  3
Thicken
350
37
  0
LAYOUT
  5
1E
102
{ACAD_REACTORS
330
1A
102
}
330
1A
100
AcDbPlotSettings
  1

  2
none_device
  4

  6

 40
0.0
 41
0.0
 42
0.0
 43
0.0
 44
0.0
 45
0.0
 46
0.0
 47
0.0
 48
0.0
 49
0.0
140
0.0
141
0.0
142
1.0
143
1.0
 70
   688
 72
     0
 73
     0
 74
     5
  7

 75
    16
 76
     0
 77
     2
 78
   300
147
1.0
148
0.0
149
0.0
100
AcDbLayout
  1
Layout1
 70
     1
 71
     1
 10
0.0
 20
0.0
 11
12.0
 21
9.0
 12
0.0
 22
0.0
 32
0.0
 14
1.000000000000000E+20
 24
1.000000000000000E+20
 34
1.000000000000000E+20
 15
-1.000000000000000E+20
 25
-1.000000000000000E+20
 35
-1.000000000000000E+20
146
0.0
 13
0.0
 23
0.0
 33
0.0
 16
1.0
 26
0.0
 36
0.0
 17
0.0
 27
1.0
 37
0.0
 76
     0
330
1B
  0
LAYOUT
  5
26
102
{ACAD_REACTORS
330
1A
102
}
330
1A
100
AcDbPlotSettings
  1

  2
none_device
  4

  6

 40
0.0
 41
0.0
 42
0.0
 43
0.0
 44
0.0
 45
0.0
 46
0.0
 47
0.0
 48
0.0
 49
0.0
140
0.0
141
0.0
142
1.0
143
1.0
 70
   688
 72
     0
 73
     0
 74
     5
  7

 75
    16
 76
     0
 77
     2
 78
   300
147
1.0
148
0.0
149
0.0
100
AcDbLayout
  1
Layout2
 70
     1
 71
     2
 10
0.0
 20
0.0
 11
0.0
 21
0.0
 12
0.0
 22
0.0
 32
0.0
 14
0.0
 24
0.0
 34
0.0
 15
0.0
 25
0.0
 35
0.0
146
0.0
 13
0.0
 23
0.0
 33
0.0
 16
1.0
 26
0.0
 36
0.0
 17
0.0
 27
1.0
 37
0.0
 76
     0
330
23
  0
LAYOUT
  5
22
102
{ACAD_REACTORS
330
1A
102
}
330
1A
100
AcDbPlotSettings
  1

  2
none_device
  4

  6

 40
0.0
 41
0.0
 42
0.0
 43
0.0
 44
0.0
 45
0.0
 46
0.0
 47
0.0
 48
0.0
 49
0.0
140
0.0
141
0.0
142
1.0
143
1.0
 70
  1712
 72
     0
 73
     0
 74
     0
  7

 75
     0
 76
     0
 77
     2
 78
   300
147
1.0
148
0.0
149
0.0
100
AcDbLayout
  1
Model
 70
     1
 71
     0
 10
0.0
 20
0.0
 11
12.0
 21
9.0
 12
0.0
 22
0.0
 32
0.0
 14
1.000000000000000E+20
 24
1.000000000000000E+20
 34
1.000000000000000E+20
 15
-1.000000000000000E+20
 25
-1.000000000000000E+20
 35
-1.000000000000000E+20
146
0.0
 13
0.0
 23
0.0
 33
0.0
 16
1.0
 26
0.0
 36
0.0
 17
0.0
 27
1.0
 37
0.0
 76
     0
330
1F
331
29
  0
MATERIAL
  5
3D
102
{ACAD_REACTORS
330
3B
102
}
330
3B
100
AcDbMaterial
  1
ByBlock
 72
     1
 94
      127
  0
MATERIAL
  5
3C
102
{ACAD_REACTORS
330
3B
102
}
330
3B
100
AcDbMaterial
  1
ByLayer
 72
     1
 94
      127
  0
MATERIAL
  5
3E
102
{ACAD_REACTORS
330
3B
102
}
330
3B
100
AcDbMaterial
  1
Global
 72
     1
 94
      127
  0
MLINESTYLE
  5
18
102
{ACAD_REACTORS
330
17
102
}
330
17
100
AcDbMlineStyle
  2
Standard
 70
     0
  3

 62
   256
 51
90.0
 52
90.0
 71
     2
 49
0.5
 62
   256
  6
BYLAYER
 49
-0.5
 62
   256
  6
BYLAYER
  0
ACDBPLACEHOLDER
  5
F
102
{ACAD_REACTORS
330
E
102
}
330
E
  0
VISUALSTYLE
  5
2F
102
{ACAD_REACTORS
330
2A
102
}
330
2A
100
AcDbVisualStyle
  2
2dWireframe
 70
     4
177
     2
291
     0
 71
     0
176
     1
 72
     2
176
     1
 73
     0
176
     1
 90
        0
176
     1
 40
-0.6
176
     1
 41
-30.0
176
     1
 62
     5
 63
     7
421
 16777215
176
     1
 74
     1
176
     1
 91
        4
176
     1
 64
     7
176
     1
 65
   257
176
     1
 75
     1
176
     1
175
     1
176
     1
 42
1.0
176
     1
 92
        0
176
     1
 66
   257
176
     1
 43
1.0
176
     1
 76
     1
176
     1
 77
     6
176
     1
 78
     2
176
     1
 67
     7
176
     1
 79
     5
176
     1
170
     0
176
     1
171
     0
176
     1
290
     0
176
     1
 93
        1
176
     1
 44
0.0
176
     1
173
     0
176
     1
  0
VISUALSTYLE
  5
31
102
{ACAD_REACTORS
330
2A
102
}
330
2A
100
AcDbVisualStyle
  2
3D Hidden
 70
     6
177
     2
291
     0
 71
     1
176
     1
 72
     2
176
     1
 73
     2
176
     1
 90
        0
176
     1
 40
-0.6
176
     1
 41
-30.0
176
     1
 62
     5
 63
     7
421
 16777215
176
     1
 74
     2
176
     1
 91
        2
176
     1
 64
     7
176
     1
 65
   257
176
     1
 75
     2
176
     1
175
     1
176
     1
 42
40.0
176
     1
 92
        0
176
     1
 66
   257
176
     1
 43
1.0
176
     1
 76
     1
176
     1
 77
     6
176
     1
 78
     2
176
     1
 67
     7
176
     1
 79
     3
176
     1
170
     0
176
     1
171
     0
176
     1
290
     0
176
     1
 93
        1
176
     1
 44
0.0
176
     1
173
     0
176
     1
  0
VISUALSTYLE
  5
30
102
{ACAD_REACTORS
330
2A
102
}
330
2A
100
AcDbVisualStyle
  2
3dWireframe
 70
     5
177
     2
291
     0
 71
     0
176
     1
 72
     2
176
     1
 73
     0
176
     1
 90
        0
176
     1
 40
-0.6
176
     1
 41
-30.0
176
     1
 62
     5
 63
     7
421
 16777215
176
     1
 74
     1
176
     1
 91
        4
176
     1
 64
     7
176
     1
 65
   257
176
     1
 75
     1
176
     1
175
     1
176
     1
 42
1.0
176
     1
 92
        0
176
     1
 66
   257
176
     1
 43
1.0
176
     1
 76
     1
176
     1
 77
     6
176
     1
 78
     2
176
     1
 67
     7
176
     1
 79
     5
176
     1
170
     0
176
     1
171
     0
176
     1
290
     0
176
     1
 93
        1
176
     1
 44
0.0
176
     1
173
     0
176
     1
  0
VISUALSTYLE
  5
32
102
{ACAD_REACTORS
330
2A
102
}
330
2A
100
AcDbVisualStyle
  2
Basic
 70
     7
177
     2
291
     1
 71
     1
176
     1
 72
     0
176
     1
 73
     1
176
     1
 90
        0
176
     1
 40
-0.6
176
     1
 41
-30.0
176
     1
 62
     5
 63
     7
421
 16777215
176
     1
 74
     0
176
     1
 91
        4
176
     1
 64
     7
176
     1
 65
   257
176
     1
 75
     1
176
     1
175
     1
176
     1
 42
1.0
176
     1
 92
        8
176
     1
 66
     7
176
     1
 43
1.0
176
     1
 76
     1
176
     1
 77
     6
176
     1
 78
     2
176
     1
 67
     7
176
     1
 79
     5
176
     1
170
     0
176
     1
171
     0
176
     1
290
     0
176
     1
 93
        1
176
     1
 44
0.0
176
     1
173
     0
176
     1
  0
VISUALSTYLE
  5
36
102
{ACAD_REACTORS
330
2A
102
}
330
2A
100
AcDbVisualStyle
  2
Brighten
 70
    12
177
     2
291
     1
 71
     2
176
     1
 72
     2
176
     1
 73
     0
176
     1
 90
        0
176
     1
 40
-0.6
176
     1
 41
-30.0
176
     1
 62
     5
 63
     7
421
 16777215
176
     1
 74
     1
176
     1
 91
        4
176
     1
 64
     7
176
     1
 65
   257
176
     1
 75
     1
176
     1
175
     1
176
     1
 42
1.0
176
     1
 92
        8
176
     1
 66
     7
176
     1
 43
1.0
176
     1
 76
     1
176
     1
 77
     6
176
     1
 78
     2
176
     1
 67
     7
176
     1
 79
     5
176
     1
170
     0
176
     1
171
     0
176
     1
290
     0
176
     1
 93
        1
176
     1
 44
50.0
176
     1
173
     0
176
     1
  0
VISUALSTYLE
  5
3A
102
{ACAD_REACTORS
330
2A
102
}
330
2A
100
AcDbVisualStyle
  2
ColorChange
 70
    16
177
     2
291
     1
 71
     2
176
     1
 72
     2
176
     1
 73
     3
176
     1
 90
        0
176
     1
 40
-0.6
176
     1
 41
-30.0
176
     1
 62
     5
 63
     8
421
  8421504
176
     1
 74
     1
176
     1
 91
        4
176
     1
 64
     7
176
     1
 65
   257
176
     1
 75
     1
176
     1
175
     1
176
     1
 42
1.0
176
     1
 92
        8
176
     1
 66
     8
424
  8421504
176
     1
 43
1.0
176
     1
 76
     1
176
     1
 77
     6
176
     1
 78
     2
176
     1
 67
     7
176
     1
 79
     5
176
     1
170
     0
176
     1
171
     0
176
     1
290
     0
176
     1
 93
        1
176
     1
 44
0.0
176
     1
173
     0
176
     1
  0
VISUALSTYLE
  5
34
102
{ACAD_REACTORS
330
2A
102
}
330
2A
100
AcDbVisualStyle
  2
Conceptual
 70
     9
177
     2
291
     0
 71
     3
176
     1
 72
     2
176
     1
 73
     0
176
     1
 90
        0
176
     1
 40
-0.6
176
     1
 41
-30.0
176
     1
 62
     5
 63
     7
421
 16777215
176
     1
 74
     2
176
     1
 91
        2
176
     1
 64
     7
176
     1
 65
   257
176
     1
 75
     1
176
     1
175
     1
176
     1
 42
40.0
176
     1
 92
        8
176
     1
 66
     7
176
     1
 43
1.0
176
     1
 76
     1
176
     1
 77
     6
176
     1
 78
     2
176
     1
 67
     7
176
     1
 79
     3
176
     1
170
     0
176
     1
171
     0
176
     1
290
     0
176
     1
 93
        1
176
     1
 44
0.0
176
     1
173
     0
176
     1
  0
VISUALSTYLE
  5
35
102
{ACAD_REACTORS
330
2A
102
}
330
2A
100
AcDbVisualStyle
  2
Dim
 70
    11
177
     2
291
     1
 71
     2
176
     1
 72
     2
176
     1
 73
     0
176
     1
 90
        0
176
     1
 40
-0.6
176
     1
 41
-30.0
176
     1
 62
     5
 63
     7
421
 16777215
176
     1
 74
     1
176
     1
 91
        4
176
     1
 64
     7
176
     1
 65
   257
176
     1
 75
     1
176
     1
175
     1
176
     1
 42
1.0
176
     1
 92
        8
176
     1
 66
     7
176
     1
 43
1.0
176
     1
 76
     1
176
     1
 77
     6
176
     1
 78
     2
176
     1
 67
     7
176
     1
 79
     5
176
     1
170
     0
176
     1
171
     0
176
     1
290
     0
176
     1
 93
        1
176
     1
 44
-50.0
176
     1
173
     0
176
     1
  0
VISUALSTYLE
  5
39
102
{ACAD_REACTORS
330
2A
102
}
330
2A
100
AcDbVisualStyle
  2
Facepattern
 70
    15
177
     2
291
     1
 71
     2
176
     1
 72
     2
176
     1
 73
     0
176
     1
 90
        0
176
     1
 40
-0.6
176
     1
 41
-30.0
176
     1
 62
     5
 63
     7
421
 16777215
176
     1
 74
     1
176
     1
 91
        4
176
     1
 64
     7
176
     1
 65
   257
176
     1
 75
     1
176
     1
175
     1
176
     1
 42
1.0
176
     1
 92
        8
176
     1
 66
     7
176
     1
 43
1.0
176
     1
 76
     1
176
     1
 77
     6
176
     1
 78
     2
176
     1
 67
     7
176
     1
 79
     5
176
     1
170
     0
176
     1
171
     0
176
     1
290
     0
176
     1
 93
        1
176
     1
 44
0.0
176
     1
173
     0
176
     1
  0
VISUALSTYLE
  5
2B
102
{ACAD_REACTORS
330
2A
102
}
330
2A
100
AcDbVisualStyle
  2
Flat
 70
     0
177
     2
291
     1
 71
     2
176
     1
 72
     1
176
     1
 73
     1
176
     1
 90
        2
176
     1
 40
-0.6
176
     1
 41
30.0
176
     1
 62
     5
 63
     7
421
 16777215
176
     1
 74
     0
176
     1
 91
        4
176
     1
 64
     7
176
     1
 65
   257
176
     1
 75
     1
176
     1
175
     1
176
     1
 42
1.0
176
     1
 92
        8
176
     1
 66
     7
176
     1
 43
1.0
176
     1
 76
     1
176
     1
 77
     6
176
     1
 78
     2
176
     1
 67
     7
176
     1
 79
     5
176
     1
170
     0
176
     1
171
     0
176
     1
290
     0
176
     1
 93
       13
176
     1
 44
0.0
176
     1
173
     0
176
     1
  0
VISUALSTYLE
  5
2C
102
{ACAD_REACTORS
330
2A
102
}
330
2A
100
AcDbVisualStyle
  2
FlatWithEdges
 70
     1
177
     2
291
     1
 71
     2
176
     1
 72
     1
176
     1
 73
     1
176
     1
 90
        2
176
     1
 40
-0.6
176
     1
 41
30.0
176
     1
 62
     5
 63
     7
421
 16777215
176
     1
 74
     1
176
     1
 91
        4
176
     1
 64
     7
176
     1
 65
   257
176
     1
 75
     1
176
     1
175
     1
176
     1
 42
1.0
176
     1
 92
        0
176
     1
 66
   257
176
     1
 43
1.0
176
     1
 76
     1
176
     1
 77
     6
176
     1
 78
     2
176
     1
 67
     7
176
     1
 79
     5
176
     1
170
     0
176
     1
171
     0
176
     1
290
     0
176
     1
 93
       13
176
     1
 44
0.0
176
     1
173
     0
176
     1
  0
VISUALSTYLE
  5
2D
102
{ACAD_REACTORS
330
2A
102
}
330
2A
100
AcDbVisualStyle
  2
Gouraud
 70
     2
177
     2
291
     1
 71
     2
176
     1
 72
     2
176
     1
 73
     1
176
     1
 90
        2
176
     1
 40
-0.6
176
     1
 41
30.0
176
     1
 62
     5
 63
     7
421
 16777215
176
     1
 74
     0
176
     1
 91
        4
176
     1
 64
     7
176
     1
 65
   257
176
     1
 75
     1
176
     1
175
     1
176
     1
 42
1.0
176
     1
 92
        0
176
     1
 66
     7
176
     1
 43
1.0
176
     1
 76
     1
176
     1
 77
     6
176
     1
 78
     2
176
     1
 67
     7
176
     1
 79
     5
176
     1
170
     0
176
     1
171
     0
176
     1
290
     0
176
     1
 93
       13
176
     1
 44
0.0
176
     1
173
     0
176
     1
  0
VISUALSTYLE
  5
2E
102
{ACAD_REACTORS
330
2A
102
}
330
2A
100
AcDbVisualStyle
  2
GouraudWithEdges
 70
     3
177
     2
291
     1
 71
     2
176
     1
 72
     2
176
     1
 73
     1
176
     1
 90
        2
176
     1
 40
-0.6
176
     1
 41
30.0
176
     1
 62
     5
 63
     7
421
 16777215
176
     1
 74
     1
176
     1
 91
        4
176
     1
 64
     7
176
     1
 65
   257
176
     1
 75
     1
176
     1
175
     1
176
     1
 42
1.0
176
     1
 92
        0
176
     1
 66
   257
176
     1
 43
1.0
176
     1
 76
     1
176
     1
 77
     6
176
     1
 78
     2
176
     1
 67
     7
176
     1
 79
     5
176
     1
170
     0
176
     1
171
     0
176
     1
290
     0
176
     1
 93
       13
176
     1
 44
0.0
176
     1
173
     0
176
     1
  0
VISUALSTYLE
  5
38
102
{ACAD_REACTORS
330
2A
102
}
330
2A
100
AcDbVisualStyle
  2
Linepattern
 70
    14
177
     2
291
     1
 71
     2
176
     1
 72
     2
176
     1
 73
     0
176
     1
 90
        0
176
     1
 40
-0.6
176
     1
 41
-30.0
176
     1
 62
     5
 63
     7
421
 16777215
176
     1
 74
     1
176
     1
 91
        4
176
     1
 64
     7
176
     1
 65
   257
176
     1
 75
     7
176
     1
175
     7
176
     1
 42
1.0
176
     1
 92
        8
176
     1
 66
     7
176
     1
 43
1.0
176
     1
 76
     1
176
     1
 77
     6
176
     1
 78
     2
176
     1
 67
     7
176
     1
 79
     5
176
     1
170
     0
176
     1
171
     0
176
     1
290
     0
176
     1
 93
        1
176
     1
 44
0.0
176
     1
173
     0
176
     1
  0
VISUALSTYLE
  5
33
102
{ACAD_REACTORS
330
2A
102
}
330
2A
100
AcDbVisualStyle
  2
Realistic
 70
     8
177
     2
291
     0
 71
     2
176
     1
 72
     2
176
     1
 73
     0
176
     1
 90
        0
176
     1
 40
-0.6
176
     1
 41
-30.0
176
     1
 62
     5
 63
     7
421
 16777215
176
     1
 74
     1
176
     1
 91
        0
176
     1
 64
     7
176
     1
 65
   257
176
     1
 75
     1
176
     1
175
     1
176
     1
 42
1.0
176
     1
 92
        8
176
     1
 66
     8
424
  7895160
176
     1
 43
1.0
176
     1
 76
     1
176
     1
 77
     6
176
     1
 78
     2
176
     1
 67
     7
176
     1
 79
     5
176
     1
170
     0
176
     1
171
     0
176
     1
290
     0
176
     1
 93
       13
176
     1
 44
0.0
176
     1
173
     0
176
     1
  0
VISUALSTYLE
  5
37
102
{ACAD_REACTORS
330
2A
102
}
330
2A
100
AcDbVisualStyle
  2
Thicken
 70
    13
177
     2
291
     1
 71
     2
176
     1
 72
     2
176
     1
 73
     0
176
     1
 90
        0
176
     1
 40
-0.6
176
     1
 41
-30.0
176
     1
 62
     5
 63
     7
421
 16777215
176
     1
 74
     1
176
     1
 91
        4
176
     1
 64
     7
176
     1
 65
   257
176
     1
 75
     1
176
     1
175
     1
176
     1
 42
1.0
176
     1
 92
       12
176
     1
 66
     7
176
     1
 43
1.0
176
     1
 76
     1
176
     1
 77
     6
176
     1
 78
     2
176
     1
 67
     7
176
     1
 79
     5
176
     1
170
     0
176
     1
171
     0
176
     1
290
     0
176
     1
 93
        1
176
     1
 44
0.0
176
     1
173
     0
176
     1
  0
ENDSEC
  0
EOF
