  0
SECTION
  2
HEADER
  9
$ACADVER
  1
AC1024
  9
$ACADMAINTVER
 70
     6
  9
$DWGCODEPAGE
  3
UNDEFINED
  9
$INSBASE
 10
0.0
 20
0.0
 30
0.0
  9
$EXTMIN
 10
1.000000000000000E+20
 20
1.000000000000000E+20
 30
1.000000000000000E+20
  9
$EXTMAX
 10
-1.000000000000000E+20
 20
-1.000000000000000E+20
 30
-1.000000000000000E+20
  9
$LIMMIN
 10
0.0
 20
0.0
  9
$LIMMAX
 10
12.0
 20
9.0
  9
$ORTHOMODE
 70
     0
  9
$REGENMODE
 70
     1
  9
$FILLMODE
 70
     1
  9
$QTEXTMODE
 70
     0
  9
$MIRRTEXT
 70
     1
  9
$LTSCALE
 40
1.0
  9
$ATTMODE
 70
     1
  9
$TEXTSIZE
 40
0.2
  9
$TRACEWID
 40
0.05
  9
$TEXTSTYLE
  7
Standard
  9
$CLAYER
  8
0
  9
$CELTYPE
  6
ByLayer
  9
$CECOLOR
 62
   256
  9
$CELTSCALE
 40
1.0
  9
$DISPSILH
 70
     0
  9
$DIMSCALE
 40
1.0
  9
$DIMASZ
 40
0.18
  9
$DIMEXO
 40
0.0625
  9
$DIMDLI
 40
0.38
  9
$DIMRND
 40
0.0
  9
$DIMDLE
 40
0.0
  9
$DIMEXE
 40
0.18
  9
$DIMTP
 40
0.0
  9
$DIMTM
 40
0.0
  9
$DIMTXT
 40
0.18
  9
$DIMCEN
 40
0.09
  9
$DIMTSZ
 40
0.0
  9
$DIMTOL
 70
     0
  9
$DIMLIM
 70
     0
  9
$DIMTIH
 70
     1
  9
$DIMTOH
 70
     1
  9
$DIMSE1
 70
     0
  9
$DIMSE2
 70
     0
  9
$DIMTAD
 70
     0
  9
$DIMZIN
 70
     0
  9
$DIMBLK
  1

  9
$DIMASO
 70
     1
  9
$DIMSHO
 70
     1
  9
$DIMPOST
  1

  9
$DIMAPOST
  1

  9
$DIMALT
 70
     0
  9
$DIMALTD
 70
     2
  9
$DIMALTF
 40
25.4
  9
$DIMLFAC
 40
1.0
  9
$DIMTOFL
 70
     0
  9
$DIMTVP
 40
0.0
  9
$DIMTIX
 70
     0
  9
$DIMSOXD
 70
     0
  9
$DIMSAH
 70
     0
  9
$DIMBLK1
  1

  9
$DIMBLK2
  1

  9
$DIMSTYLE
  2
Standard
  9
$DIMCLRD
 70
     0
  9
$DIMCLRE
 70
     0
  9
$DIMCLRT
 70
     0
  9
$DIMTFAC
 40
1.0
  9
$DIMGAP
 40
0.09
  9
$DIMJUST
 70
     0
  9
$DIMSD1
 70
     0
  9
$DIMSD2
 70
     0
  9
$DIMTOLJ
 70
     1
  9
$DIMTZIN
 70
     0
  9
$DIMALTZ
 70
     0
  9
$DIMALTTZ
 70
     0
  9
$DIMUPT
 70
     0
  9
$DIMDEC
 70
     4
  9
$DIMTDEC
 70
     4
  9
$DIMALTU
 70
     2
  9
$DIMALTTD
 70
     2
  9
$DIMTXSTY
  7
Standard
  9
$DIMAUNIT
 70
     0
  9
$DIMADEC
 70
     0
  9
$DIMALTRND
 40
0.0
  9
$DIMAZIN
 70
     0
  9
$DIMDSEP
 70
    46
  9
$DIMATFIT
 70
     3
  9
$DIMFRAC
 70
     0
  9
$DIMLDRBLK
  1

  9
$DIMLUNIT
 70
     2
  9
$DIMLWD
 70
    -2
  9
$DIMLWE
 70
    -2
  9
$DIMTMOVE
 70
     0
  9
$DIMFXL
 40
1.0
  9
$DIMFXLON
 70
     0
  9
$DIMJOGANG
 40
0.7853981633974483
  9
$DIMTFILL
 70
     0
  9
$DIMTFILLCLR
 70
     0
  9
$DIMARCSYM
 70
     0
  9
$DIMLTYPE
  6

  9
$DIMLTEX1
  6

  9
$DIMLTEX2
  6

  9
$DIMTXTDIRECTION
 70
     0
  9
$LUNITS
 70
     2
  9
$LUPREC
 70
     4
  9
$SKETCHINC
 40
0.1
  9
$FILLETRAD
 40
0.5
  9
$AUNITS
 70
     0
  9
$AUPREC
 70
     0
  9
$MENU
  1
.
  9
$ELEVATION
 40
0.0
  9
$PELEVATION
 40
0.0
  9
$THICKNESS
 40
0.0
  9
$LIMCHECK
 70
     0
  9
$CHAMFERA
 40
0.5
  9
$CHAMFERB
 40
0.5
  9
$CHAMFERC
 40
1.0
  9
$CHAMFERD
 40
0.0
  9
$SKPOLY
 70
     0
  9
$TDCREATE
 40
2457917.583148148
  9
$TDUCREATE
 40
2457917.208148148
  9
$TDUPDATE
 40
2457917.583148148
  9
$TDUUPDATE
 40
2457917.208148148
  9
$TDINDWG
 40
0.0000000116
  9
$TDUSRTIMER
 40
0.0000000116
  9
$USRTIMER
 70
     1
  9
$ANGBASE
 50
0.0
  9
$ANGDIR
 70
     0
  9
$PDMODE
 70
     0
  9
$PDSIZE
 40
0.0
  9
$PLINEWID
 40
0.0
  9
$SPLFRAME
 70
     0
  9
$SPLINETYPE
 70
     6
  9
$SPLINESEGS
 70
     8
  9
$HANDSEED
  5
B5
  9
$SURFTAB1
 70
     6
  9
$SURFTAB2
 70
     6
  9
$SURFTYPE
 70
     6
  9
$SURFU
 70
     6
  9
$SURFV
 70
     6
  9
$UCSBASE
  2

  9
$UCSNAME
  2

  9
$UCSORG
 10
0.0
 20
0.0
 30
0.0
  9
$UCSXDIR
 10
1.0
 20
0.0
 30
0.0
  9
$UCSYDIR
 10
0.0
 20
1.0
 30
0.0
  9
$UCSORTHOREF
  2

  9
$UCSORTHOVIEW
 70
     0
  9
$UCSORGTOP
 10
0.0
 20
0.0
 30
0.0
  9
$UCSORGBOTTOM
 10
0.0
 20
0.0
 30
0.0
  9
$UCSORGLEFT
 10
0.0
 20
0.0
 30
0.0
  9
$UCSORGRIGHT
 10
0.0
 20
0.0
 30
0.0
  9
$UCSORGFRONT
 10
0.0
 20
0.0
 30
0.0
  9
$UCSORGBACK
 10
0.0
 20
0.0
 30
0.0
  9
$PUCSBASE
  2

  9
$PUCSNAME
  2

  9
$PUCSORG
 10
0.0
 20
0.0
 30
0.0
  9
$PUCSXDIR
 10
1.0
 20
0.0
 30
0.0
  9
$PUCSYDIR
 10
0.0
 20
1.0
 30
0.0
  9
$PUCSORTHOREF
  2

  9
$PUCSORTHOVIEW
 70
     0
  9
$PUCSORGTOP
 10
0.0
 20
0.0
 30
0.0
  9
$PUCSORGBOTTOM
 10
0.0
 20
0.0
 30
0.0
  9
$PUCSORGLEFT
 10
0.0
 20
0.0
 30
0.0
  9
$PUCSORGRIGHT
 10
0.0
 20
0.0
 30
0.0
  9
$PUCSORGFRONT
 10
0.0
 20
0.0
 30
0.0
  9
$PUCSORGBACK
 10
0.0
 20
0.0
 30
0.0
  9
$USERI1
 70
     0
  9
$USERI2
 70
     0
  9
$USERI3
 70
     0
  9
$USERI4
 70
     0
  9
$USERI5
 70
     0
  9
$USERR1
 40
0.0
  9
$USERR2
 40
0.0
  9
$USERR3
 40
0.0
  9
$USERR4
 40
0.0
  9
$USERR5
 40
0.0
  9
$WORLDVIEW
 70
     1
  9
$SHADEDGE
 70
     3
  9
$SHADEDIF
 70
    70
  9
$TILEMODE
 70
     1
  9
$MAXACTVP
 70
    64
  9
$PINSBASE
 10
0.0
 20
0.0
 30
0.0
  9
$PLIMCHECK
 70
     0
  9
$PEXTMIN
 10
1.000000000000000E+20
 20
1.000000000000000E+20
 30
1.000000000000000E+20
  9
$PEXTMAX
 10
-1.000000000000000E+20
 20
-1.000000000000000E+20
 30
-1.000000000000000E+20
  9
$PLIMMIN
 10
0.0
 20
0.0
  9
$PLIMMAX
 10
12.0
 20
9.0
  9
$UNITMODE
 70
     0
  9
$VISRETAIN
 70
     1
  9
$PLINEGEN
 70
     0
  9
$PSLTSCALE
 70
     1
  9
$TREEDEPTH
 70
  3020
  9
$CMLSTYLE
  2
Standard
  9
$CMLJUST
 70
     0
  9
$CMLSCALE
 40
1.0
  9
$PROXYGRAPHICS
 70
     1
  9
$MEASUREMENT
 70
     0
  9
$CELWEIGHT
370
    -1
  9
$ENDCAPS
280
     0
  9
$JOINSTYLE
280
     0
  9
$LWDISPLAY
290
     1
  9
$INSUNITS
 70
     1
  9
$HYPERLINKBASE
  1

  9
$STYLESHEET
  1

  9
$XEDIT
290
     1
  9
$CEPSNTYPE
380
     0
  9
$PSTYLEMODE
290
     1
  9
$FINGERPRINTGUID
  2
{3D4F2E14-F131-8555-9ABE-F74A0E7049C4}
  9
$VERSIONGUID
  2
{FAEB1C32-E019-11D5-929B-00C0DF256EC4}
  9
$EXTNAMES
290
     1
  9
$PSVPSCALE
 40
0.0
  9
$OLESTARTUP
290
     0
  9
$SORTENTS
280
   127
  9
$INDEXCTL
280
     0
  9
$HIDETEXT
280
     1
  9
$XCLIPFRAME
280
     2
  9
$HALOGAP
280
     0
  9
$OBSCOLOR
 70
   257
  9
$OBSLTYPE
280
     0
  9
$INTERSECTIONDISPLAY
280
     0
  9
$INTERSECTIONCOLOR
 70
   257
  9
$DIMASSOC
280
     2
  9
$PROJECTNAME
  1

  9
$CAMERADISPLAY
290
     0
  9
$LENSLENGTH
 40
50.0
  9
$CAMERAHEIGHT
 40
0.0
  9
$STEPSPERSEC
 40
2.0
  9
$STEPSIZE
 40
6.0
  9
$3DDWFPREC
 40
2.0
  9
$PSOLWIDTH
 40
0.25
  9
$PSOLHEIGHT
 40
4.0
  9
$LOFTANG1
 40
1.570796326794897
  9
$LOFTANG2
 40
1.570796326794897
  9
$LOFTMAG1
 40
0.0
  9
$LOFTMAG2
 40
0.0
  9
$LOFTPARAM
 70
     7
  9
$LOFTNORMALS
280
     1
  9
$LATITUDE
 40
37.795
  9
$LONGITUDE
 40
-122.394
  9
$NORTHDIRECTION
 40
0.0
  9
$TIMEZONE
 70
 -8000
  9
$LIGHTGLYPHDISPLAY
280
     1
  9
$TILEMODELIGHTSYNCH
280
     1
  9
$CMATERIAL
347
3C
  9
$SOLIDHIST
280
     1
  9
$SHOWHIST
280
     1
  9
$DWFFRAME
280
     2
  9
$DGNFRAME
280
     2
  9
$REALWORLDSCALE
290
     1
  9
$INTERFERECOLOR
 62
   256
  9
$CSHADOW
280
     0
  9
$SHADOWPLANELOCATION
 40
0.0
  0
ENDSEC
  0
SECTION
  2
CLASSES
  0
CLASS
  1
ACDBDICTIONARYWDFLT
  2
AcDbDictionaryWithDefault
  3
ObjectDBX Classes
 90
        0
 91
        4
280
     0
281
     0
  0
CLASS
  1
VISUALSTYLE
  2
AcDbVisualStyle
  3
ObjectDBX Classes
 90
     4095
 91
        4
280
     0
281
     0
  0
CLASS
  1
MATERIAL
  2
AcDbMaterial
  3
ObjectDBX Classes
 90
     1153
 91
        4
280
     0
281
     0
  0
CLASS
  1
SUN
  2
AcDbSun
  3
SCENEOE
 90
     1024
 91
        4
280
     0
281
     0
  0
ENDSEC
  0
SECTION
  2
TABLES
  0
TABLE
  2
VPORT
  5
8
330
0
100
AcDbSymbolTable
 70
     1
  0
VPORT
  5
29
330
8
100
AcDbSymbolTableRecord
100
AcDbViewportTableRecord
  2
*Active
 70
     0
 10
0.0
 20
0.0
 11
1.0
 21
1.0
 12
0.0
 22
0.0
 13
0.0
 23
0.0
 14
0.5
 24
0.5
 15
0.5
 25
0.5
 16
0.0
 26
0.0
 36
1.0
 17
91.00082462281999
 27
-128.4993055234307
 37
0.0
 40
256.9986110468615
 41
0.7081814508812795
 42
50.0
 43
0.0
 44
0.0
 50
0.0
 51
0.0
 71
     0
 72
   100
 73
     1
 74
     3
 75
     0
 76
     0
 77
     0
 78
     0
281
     0
 65
     1
110
0.0
120
0.0
130
0.0
111
1.0
121
0.0
131
0.0
112
0.0
122
1.0
132
0.0
 79
     0
146
0.0
 60
     3
 61
     5
292
     1
282
     1
141
0.0
142
0.0
 63
   250
361
3F
  0
ENDTAB
  0
TABLE
  2
LTYPE
  5
5
330
0
100
AcDbSymbolTable
 70
     1
  0
LTYPE
  5
14
330
5
100
AcDbSymbolTableRecord
100
AcDbLinetypeTableRecord
  2
ByBlock
 70
     0
  3

 72
    65
 73
     0
 40
0.0
  0
LTYPE
  5
15
330
5
100
AcDbSymbolTableRecord
100
AcDbLinetypeTableRecord
  2
ByLayer
 70
     0
  3

 72
    65
 73
     0
 40
0.0
  0
LTYPE
  5
16
330
5
100
AcDbSymbolTableRecord
100
AcDbLinetypeTableRecord
  2
Continuous
 70
     0
  3
Solid line
 72
    65
 73
     0
 40
0.0
  0
ENDTAB
  0
TABLE
  2
LAYER
  5
2
330
0
100
AcDbSymbolTable
 70
     2
  0
LAYER
  5
10
330
2
100
AcDbSymbolTableRecord
100
AcDbLayerTableRecord
  2
0
 70
     0
 62
     7
  6
Continuous
370
    -3
390
F
347
3E
  0
LAYER
  5
40
330
2
100
AcDbSymbolTableRecord
100
AcDbLayerTableRecord
  2
_U+30EC_U+30A4_U+30E4_U+30FC 1
 70
     0
 62
     7
  6
Continuous
370
    -3
390
F
347
3E
  0
ENDTAB
  0
TABLE
  2
STYLE
  5
3
330
0
100
AcDbSymbolTable
 70
     1
  0
STYLE
  5
11
330
3
100
AcDbSymbolTableRecord
100
AcDbTextStyleTableRecord
  2
Standard
 70
     0
 40
0.0
 41
1.0
 50
0.0
 71
     0
 42
0.2
  3
txt
  4

  0
ENDTAB
  0
TABLE
  2
VIEW
  5
6
330
0
100
AcDbSymbolTable
 70
     0
  0
ENDTAB
  0
TABLE
  2
UCS
  5
7
330
0
100
AcDbSymbolTable
 70
     0
  0
ENDTAB
  0
TABLE
  2
APPID
  5
9
330
0
100
AcDbSymbolTable
 70
     1
  0
APPID
  5
12
330
9
100
AcDbSymbolTableRecord
100
AcDbRegAppTableRecord
  2
ACAD
 70
     0
  0
ENDTAB
  0
TABLE
  2
DIMSTYLE
  5
A
330
0
100
AcDbSymbolTable
 70
     1
100
AcDbDimStyleTable
  0
DIMSTYLE
105
27
330
A
100
AcDbSymbolTableRecord
100
AcDbDimStyleTableRecord
  2
Standard
 70
     0
178
     0
340
11
  0
ENDTAB
  0
TABLE
  2
BLOCK_RECORD
  5
1
330
0
100
AcDbSymbolTable
 70
     7
  0
BLOCK_RECORD
  5
1F
330
1
100
AcDbSymbolTableRecord
100
AcDbBlockTableRecord
  2
*Model_Space
340
22
 70
     0
280
     1
281
     0
  0
BLOCK_RECORD
  5
1B
330
1
100
AcDbSymbolTableRecord
100
AcDbBlockTableRecord
  2
*Paper_Space
340
1E
 70
     0
280
     1
281
     0
  0
BLOCK_RECORD
  5
23
330
1
100
AcDbSymbolTableRecord
100
AcDbBlockTableRecord
  2
*Paper_Space0
340
26
 70
     0
280
     1
281
     0
  0
BLOCK_RECORD
  5
41
330
1
100
AcDbSymbolTableRecord
100
AcDbBlockTableRecord
  2
block 2
340
0
102
{BLKREFS
331
42
102
}
 70
     0
280
     1
281
     0
  0
BLOCK_RECORD
  5
55
330
1
100
AcDbSymbolTableRecord
100
AcDbBlockTableRecord
  2
block 3
340
0
102
{BLKREFS
331
56
102
}
 70
     0
280
     1
281
     0
  0
BLOCK_RECORD
  5
69
330
1
100
AcDbSymbolTableRecord
100
AcDbBlockTableRecord
  2
block 4
340
0
102
{BLKREFS
331
6A
102
}
 70
     0
280
     1
281
     0
  0
BLOCK_RECORD
  5
97
330
1
100
AcDbSymbolTableRecord
100
AcDbBlockTableRecord
  2
block 5
340
0
102
{BLKREFS
331
98
102
}
 70
     0
280
     1
281
     0
  0
BLOCK_RECORD
  5
A0
330
1
100
AcDbSymbolTableRecord
100
AcDbBlockTableRecord
  2
block 6
340
0
102
{BLKREFS
331
A1
102
}
 70
     0
280
     1
281
     0
  0
BLOCK_RECORD
  5
AB
330
1
100
AcDbSymbolTableRecord
100
AcDbBlockTableRecord
  2
block 7
340
0
102
{BLKREFS
331
AC
102
}
 70
     0
280
     1
281
     0
  0
ENDTAB
  0
ENDSEC
  0
SECTION
  2
BLOCKS
  0
BLOCK
  5
20
330
1F
100
AcDbEntity
  8
0
100
AcDbBlockBegin
  2
*Model_Space
 70
     0
 10
0.0
 20
0.0
 30
0.0
  3
*Model_Space
  1

  0
ENDBLK
  5
21
330
1F
100
AcDbEntity
  8
0
100
AcDbBlockEnd
  0
BLOCK
  5
1C
330
1B
100
AcDbEntity
 67
     1
  8
0
100
AcDbBlockBegin
  2
*Paper_Space
 70
     0
 10
0.0
 20
0.0
 30
0.0
  3
*Paper_Space
  1

  0
ENDBLK
  5
1D
330
1B
100
AcDbEntity
 67
     1
  8
0
100
AcDbBlockEnd
  0
BLOCK
  5
24
330
23
100
AcDbEntity
  8
0
100
AcDbBlockBegin
  2
*Paper_Space0
 70
     0
 10
0.0
 20
0.0
 30
0.0
  3
*Paper_Space0
  1

  0
ENDBLK
  5
25
330
23
100
AcDbEntity
  8
0
100
AcDbBlockEnd
  0
BLOCK
  5
43
330
41
100
AcDbEntity
  8
0
100
AcDbBlockBegin
  2
block 2
 70
     0
 10
0.0
 20
0.0
 30
0.0
  3
block 2
  1

  0
SPLINE
  5
45
330
41
100
AcDbEntity
  8
_U+30EC_U+30A4_U+30E4_U+30FC 1
 62
     7
420
 16777215
370
     9
100
AcDbSpline
210
0.0
220
0.0
230
1.0
 70
    11
 71
     3
 72
    17
 73
    13
 74
     0
 42
0.0000000001
 43
0.0000000001
 12
1.0
 22
0.0
 32
0.0
 13
1.0
 23
0.0
 33
0.0
 40
0.0
 40
0.0
 40
0.0
 40
0.0
 40
1.0
 40
1.0
 40
1.0
 40
2.0
 40
2.0
 40
2.0
 40
3.0
 40
3.0
 40
3.0
 40
4.0
 40
4.0
 40
4.0
 40
4.0
 10
68.7449924128358
 20
-135.019485521801
 30
0.0
 10
68.7449924128358
 20
-134.9636760773699
 30
0.0
 10
68.70018963620103
 20
-134.9189085773813
 30
0.0
 10
68.64508574871796
 20
-134.9189085773813
 30
0.0
 10
68.58994658345802
 20
-134.9189085773813
 30
0.0
 10
68.54517908460012
 20
-134.9636760773699
 30
0.0
 10
68.54517908460012
 20
-135.019485521801
 30
0.0
 10
68.54517908460012
 20
-135.0746246884534
 30
0.0
 10
68.58994658345802
 20
-135.1193921884426
 30
0.0
 10
68.64508574871796
 20
-135.1193921884426
 30
0.0
 10
68.70018963620103
 20
-135.1193921884426
 30
0.0
 10
68.7449924128358
 20
-135.0746246884534
 30
0.0
 10
68.7449924128358
 20
-135.019485521801
 30
0.0
  0
SPLINE
  5
46
330
41
100
AcDbEntity
  8
_U+30EC_U+30A4_U+30E4_U+30FC 1
 62
     7
420
 16777215
370
     9
100
AcDbSpline
210
0.0
220
0.0
230
1.0
 70
    11
 71
     3
 72
    17
 73
    13
 74
     0
 42
0.0000000001
 43
0.0000000001
 12
1.0
 22
0.0
 32
0.0
 13
1.0
 23
0.0
 33
0.0
 40
0.0
 40
0.0
 40
0.0
 40
0.0
 40
1.0
 40
1.0
 40
1.0
 40
2.0
 40
2.0
 40
2.0
 40
3.0
 40
3.0
 40
3.0
 40
4.0
 40
4.0
 40
4.0
 40
4.0
 10
79.35104436447509
 20
-145.625573019149
 30
0.0
 10
79.35104436447509
 20
-145.5704338524965
 30
0.0
 10
79.3062768656172
 20
-145.5256663525073
 30
0.0
 10
79.25113770035726
 20
-145.5256663525073
 30
0.0
 10
79.19603381287419
 20
-145.5256663525073
 30
0.0
 10
79.15123103623942
 20
-145.5704338524965
 30
0.0
 10
79.15123103623942
 20
-145.625573019149
 30
0.0
 10
79.15123103623942
 20
-145.6806769080245
 30
0.0
 10
79.19603381287419
 20
-145.7254796857906
 30
0.0
 10
79.25113770035726
 20
-145.7254796857906
 30
0.0
 10
79.3062768656172
 20
-145.7254796857906
 30
0.0
 10
79.35104436447509
 20
-145.6806769080245
 30
0.0
 10
79.35104436447509
 20
-145.625573019149
 30
0.0
  0
SPLINE
  5
47
330
41
100
AcDbEntity
  8
_U+30EC_U+30A4_U+30E4_U+30FC 1
 62
     7
420
 16777215
370
     9
100
AcDbSpline
210
0.0
220
0.0
230
1.0
 70
    11
 71
     3
 72
    17
 73
    13
 74
     0
 42
0.0000000001
 43
0.0000000001
 12
1.0
 22
0.0
 32
0.0
 13
1.0
 23
0.0
 33
0.0
 40
0.0
 40
0.0
 40
0.0
 40
0.0
 40
1.0
 40
1.0
 40
1.0
 40
2.0
 40
2.0
 40
2.0
 40
3.0
 40
3.0
 40
3.0
 40
4.0
 40
4.0
 40
4.0
 40
4.0
 10
82.55292594945496
 20
-146.7975713521895
 30
0.0
 10
82.55292594945496
 20
-146.741761907759
 30
0.0
 10
82.50812317282019
 20
-146.6969944077705
 30
0.0
 10
82.45231372979956
 20
-146.6969944077705
 30
0.0
 10
82.39720984231649
 20
-146.6969944077705
 30
0.0
 10
82.35240706568173
 20
-146.741761907759
 30
0.0
 10
82.35240706568173
 20
-146.7975713521895
 30
0.0
 10
82.35240706568173
 20
-146.8527105188425
 30
0.0
 10
82.39720984231649
 20
-146.8974780188311
 30
0.0
 10
82.45231372979956
 20
-146.8974780188311
 30
0.0
 10
82.50812317282019
 20
-146.8974780188311
 30
0.0
 10
82.55292594945496
 20
-146.8527105188425
 30
0.0
 10
82.55292594945496
 20
-146.7975713521895
 30
0.0
  0
SPLINE
  5
48
330
41
100
AcDbEntity
  8
_U+30EC_U+30A4_U+30E4_U+30FC 1
 62
     7
420
 16777215
370
     9
100
AcDbSpline
210
0.0
220
0.0
230
1.0
 70
    11
 71
     3
 72
    17
 73
    13
 74
     0
 42
0.0000000001
 43
0.0000000001
 12
1.0
 22
0.0
 32
0.0
 13
1.0
 23
0.0
 33
0.0
 40
0.0
 40
0.0
 40
0.0
 40
0.0
 40
1.0
 40
1.0
 40
1.0
 40
2.0
 40
2.0
 40
2.0
 40
3.0
 40
3.0
 40
3.0
 40
4.0
 40
4.0
 40
4.0
 40
4.0
 10
94.55132119890594
 20
-146.7975713521895
 30
0.0
 10
94.55132119890594
 20
-146.741761907759
 30
0.0
 10
94.50655370004806
 20
-146.6969944077705
 30
0.0
 10
94.45141453478811
 20
-146.6969944077705
 30
0.0
 10
94.39631064730504
 20
-146.6969944077705
 30
0.0
 10
94.35150787067028
 20
-146.741761907759
 30
0.0
 10
94.35150787067028
 20
-146.7975713521895
 30
0.0
 10
94.35150787067028
 20
-146.8527105188425
 30
0.0
 10
94.39631064730504
 20
-146.8974780188311
 30
0.0
 10
94.45141453478811
 20
-146.8974780188311
 30
0.0
 10
94.50655370004806
 20
-146.8974780188311
 30
0.0
 10
94.55132119890594
 20
-146.8527105188425
 30
0.0
 10
94.55132119890594
 20
-146.7975713521895
 30
0.0
  0
POLYLINE
  5
49
330
41
100
AcDbEntity
  8
_U+30EC_U+30A4_U+30E4_U+30FC 1
 62
     7
420
 16777215
370
     9
100
AcDb2dPolyline
 66
     1
 10
0.0
 20
0.0
 30
0.0
  0
VERTEX
  5
4A
330
49
100
AcDbEntity
  8
_U+30EC_U+30A4_U+30E4_U+30FC 1
 62
     7
420
 16777215
370
     9
100
AcDbVertex
100
AcDb2dVertex
 10
68.64508574871796
 20
-135.019485521801
 30
0.0
  0
VERTEX
  5
4B
330
49
100
AcDbEntity
  8
_U+30EC_U+30A4_U+30E4_U+30FC 1
 62
     7
420
 16777215
370
     9
100
AcDbVertex
100
AcDb2dVertex
 10
79.25113770035726
 20
-145.625573019149
 30
0.0
  0
SEQEND
  5
4C
330
49
100
AcDbEntity
  8
_U+30EC_U+30A4_U+30E4_U+30FC 1
 62
     7
420
 16777215
370
     9
  0
POLYLINE
  5
4D
330
41
100
AcDbEntity
  8
_U+30EC_U+30A4_U+30E4_U+30FC 1
 62
     7
420
 16777215
370
     9
100
AcDb2dPolyline
 66
     1
 10
0.0
 20
0.0
 30
0.0
  0
VERTEX
  5
4E
330
4D
100
AcDbEntity
  8
_U+30EC_U+30A4_U+30E4_U+30FC 1
 62
     7
420
 16777215
370
     9
100
AcDbVertex
100
AcDb2dVertex
 10
69.67724294460766
 20
-133.9866580220591
 30
0.0
  0
VERTEX
  5
4F
330
4D
100
AcDbEntity
  8
_U+30EC_U+30A4_U+30E4_U+30FC 1
 62
     7
420
 16777215
370
     9
100
AcDbVertex
100
AcDb2dVertex
 10
67.93744882232684
 20
-135.726416910513
 30
0.0
  0
SEQEND
  5
50
330
4D
100
AcDbEntity
  8
_U+30EC_U+30A4_U+30E4_U+30FC 1
 62
     7
420
 16777215
370
     9
  0
POLYLINE
  5
51
330
41
100
AcDbEntity
  8
_U+30EC_U+30A4_U+30E4_U+30FC 1
 62
     7
420
 16777215
370
     9
100
AcDb2dPolyline
 66
     1
 10
0.0
 20
0.0
 30
0.0
  0
VERTEX
  5
52
330
51
100
AcDbEntity
  8
_U+30EC_U+30A4_U+30E4_U+30FC 1
 62
     7
420
 16777215
370
     9
100
AcDbVertex
100
AcDb2dVertex
 10
80.28400045178451
 20
-144.5934157971851
 30
0.0
  0
VERTEX
  5
53
330
51
100
AcDbEntity
  8
_U+30EC_U+30A4_U+30E4_U+30FC 1
 62
     7
420
 16777215
370
     9
100
AcDbVertex
100
AcDb2dVertex
 10
78.54420831369744
 20
-146.3325044078616
 30
0.0
  0
SEQEND
  5
54
330
51
100
AcDbEntity
  8
_U+30EC_U+30A4_U+30E4_U+30FC 1
 62
     7
420
 16777215
370
     9
  0
INSERT
  5
56
330
41
100
AcDbEntity
  8
_U+30EC_U+30A4_U+30E4_U+30FC 1
100
AcDbBlockReference
  2
block 3
 10
0.0
 20
0.0
 30
0.0
  0
POLYLINE
  5
5D
330
41
100
AcDbEntity
  8
_U+30EC_U+30A4_U+30E4_U+30FC 1
 62
     7
420
 16777215
370
     9
100
AcDb2dPolyline
 66
     1
 10
0.0
 20
0.0
 30
0.0
  0
VERTEX
  5
5E
330
5D
100
AcDbEntity
  8
_U+30EC_U+30A4_U+30E4_U+30FC 1
 62
     7
420
 16777215
370
     9
100
AcDbVertex
100
AcDb2dVertex
 10
82.45231372979956
 20
-146.7975713521895
 30
0.0
  0
VERTEX
  5
5F
330
5D
100
AcDbEntity
  8
_U+30EC_U+30A4_U+30E4_U+30FC 1
 62
     7
420
 16777215
370
     9
100
AcDbVertex
100
AcDb2dVertex
 10
94.45141453478811
 20
-146.7975713521895
 30
0.0
  0
SEQEND
  5
60
330
5D
100
AcDbEntity
  8
_U+30EC_U+30A4_U+30E4_U+30FC 1
 62
     7
420
 16777215
370
     9
  0
POLYLINE
  5
61
330
41
100
AcDbEntity
  8
_U+30EC_U+30A4_U+30E4_U+30FC 1
 62
     7
420
 16777215
370
     9
100
AcDb2dPolyline
 66
     1
 10
0.0
 20
0.0
 30
0.0
  0
VERTEX
  5
62
330
61
100
AcDbEntity
  8
_U+30EC_U+30A4_U+30E4_U+30FC 1
 62
     7
420
 16777215
370
     9
100
AcDbVertex
100
AcDb2dVertex
 10
82.45231372979956
 20
-144.4369941305575
 30
0.0
  0
VERTEX
  5
63
330
61
100
AcDbEntity
  8
_U+30EC_U+30A4_U+30E4_U+30FC 1
 62
     7
420
 16777215
370
     9
100
AcDbVertex
100
AcDb2dVertex
 10
82.45231372979956
 20
-147.797343574162
 30
0.0
  0
SEQEND
  5
64
330
61
100
AcDbEntity
  8
_U+30EC_U+30A4_U+30E4_U+30FC 1
 62
     7
420
 16777215
370
     9
  0
POLYLINE
  5
65
330
41
100
AcDbEntity
  8
_U+30EC_U+30A4_U+30E4_U+30FC 1
 62
     7
420
 16777215
370
     9
100
AcDb2dPolyline
 66
     1
 10
0.0
 20
0.0
 30
0.0
  0
VERTEX
  5
66
330
65
100
AcDbEntity
  8
_U+30EC_U+30A4_U+30E4_U+30FC 1
 62
     7
420
 16777215
370
     9
100
AcDbVertex
100
AcDb2dVertex
 10
94.45141453478811
 20
-144.9372330193212
 30
0.0
  0
VERTEX
  5
67
330
65
100
AcDbEntity
  8
_U+30EC_U+30A4_U+30E4_U+30FC 1
 62
     7
420
 16777215
370
     9
100
AcDbVertex
100
AcDb2dVertex
 10
94.45141453478811
 20
-147.797343574162
 30
0.0
  0
SEQEND
  5
68
330
65
100
AcDbEntity
  8
_U+30EC_U+30A4_U+30E4_U+30FC 1
 62
     7
420
 16777215
370
     9
  0
INSERT
  5
6A
330
41
100
AcDbEntity
  8
_U+30EC_U+30A4_U+30E4_U+30FC 1
100
AcDbBlockReference
  2
block 4
 10
0.0
 20
0.0
 30
0.0
  0
ENDBLK
  5
44
330
41
100
AcDbEntity
  8
0
100
AcDbBlockEnd
  0
BLOCK
  5
57
330
55
100
AcDbEntity
  8
0
100
AcDbBlockBegin
  2
block 3
 70
     0
 10
0.0
 20
0.0
 30
0.0
  3
block 3
  1

  0
SPLINE
  5
59
330
55
100
AcDbEntity
  8
_U+30EC_U+30A4_U+30E4_U+30FC 1
370
     0
100
AcDbSpline
210
0.0
220
0.0
230
1.0
 70
    11
 71
     3
 72
    26
 73
    22
 74
     0
 42
0.0000000001
 43
0.0000000001
 12
1.0
 22
0.0
 32
0.0
 13
1.0
 23
0.0
 33
0.0
 40
0.0
 40
0.0
 40
0.0
 40
0.0
 40
1.0
 40
1.0
 40
1.0
 40
2.0
 40
2.0
 40
2.0
 40
3.0
 40
3.0
 40
3.0
 40
4.0
 40
4.0
 40
4.0
 40
5.0
 40
5.0
 40
5.0
 40
6.0
 40
6.0
 40
6.0
 40
7.0
 40
7.0
 40
7.0
 40
7.0
 10
73.5419365593055
 20
-139.0574896570759
 30
0.0
 10
73.5419365593055
 20
-139.0574896570759
 30
0.0
 10
74.32276745103736
 20
-138.2764865105698
 30
0.0
 10
74.32276745103736
 20
-138.2764865105698
 30
0.0
 10
74.32276745103736
 20
-138.2764865105698
 30
0.0
 10
74.08953448668595
 20
-138.0432535462184
 30
0.0
 10
74.08953448668595
 20
-138.0432535462184
 30
0.0
 10
74.08953448668595
 20
-138.0432535462184
 30
0.0
 10
74.19426538943755
 20
-137.9385226434668
 30
0.0
 10
74.19426538943755
 20
-137.9385226434668
 30
0.0
 10
74.43938393321308
 20
-138.1627983595565
 30
0.0
 10
74.58752303907882
 20
-138.0804605774591
 30
0.0
 10
74.68932561066795
 20
-138.0208604255642
 30
0.0
 10
74.68932561066795
 20
-138.0208604255642
 30
0.0
 10
74.79267847522544
 20
-138.1242132901217
 30
0.0
 10
74.79267847522544
 20
-138.1242132901217
 30
0.0
 10
74.79267847522544
 20
-138.1242132901217
 30
0.0
 10
73.7007554611755
 20
-139.2163085589459
 30
0.0
 10
73.7007554611755
 20
-139.2163085589459
 30
0.0
 10
73.7007554611755
 20
-139.2163085589459
 30
0.0
 10
73.5419365593055
 20
-139.0574896570759
 30
0.0
 10
73.5419365593055
 20
-139.0574896570759
 30
0.0
  0
HATCH
  5
5A
330
55
100
AcDbEntity
  8
_U+30EC_U+30A4_U+30E4_U+30FC 1
 62
     7
420
 16777215
100
AcDbHatch
 10
0.0
 20
0.0
 30
0.0
210
0.0
220
0.0
230
1.0
  2
SOLID
 70
     1
 71
     0
 91
        1
 92
        1
 93
        1
 72
     4
 94
        3
 73
     0
 74
     1
 95
       26
 96
       22
 40
0.0
 40
0.0
 40
0.0
 40
0.0
 40
1.0
 40
1.0
 40
1.0
 40
2.0
 40
2.0
 40
2.0
 40
3.0
 40
3.0
 40
3.0
 40
4.0
 40
4.0
 40
4.0
 40
5.0
 40
5.0
 40
5.0
 40
6.0
 40
6.0
 40
6.0
 40
7.0
 40
7.0
 40
7.0
 40
7.0
 10
73.5419365593055
 20
-139.0574896570759
 10
73.5419365593055
 20
-139.0574896570759
 10
74.32276745103736
 20
-138.2764865105698
 10
74.32276745103736
 20
-138.2764865105698
 10
74.32276745103736
 20
-138.2764865105698
 10
74.08953448668595
 20
-138.0432535462184
 10
74.08953448668595
 20
-138.0432535462184
 10
74.08953448668595
 20
-138.0432535462184
 10
74.19426538943755
 20
-137.9385226434668
 10
74.19426538943755
 20
-137.9385226434668
 10
74.43938393321308
 20
-138.1627983595565
 10
74.58752303907882
 20
-138.0804605774591
 10
74.68932561066795
 20
-138.0208604255642
 10
74.68932561066795
 20
-138.0208604255642
 10
74.79267847522544
 20
-138.1242132901217
 10
74.79267847522544
 20
-138.1242132901217
 10
74.79267847522544
 20
-138.1242132901217
 10
73.7007554611755
 20
-139.2163085589459
 10
73.7007554611755
 20
-139.2163085589459
 10
73.7007554611755
 20
-139.2163085589459
 10
73.5419365593055
 20
-139.0574896570759
 10
73.5419365593055
 20
-139.0574896570759
 97
        0
 97
        0
 75
     2
 76
     1
 98
        0
  0
SPLINE
  5
5B
330
55
100
AcDbEntity
  8
_U+30EC_U+30A4_U+30E4_U+30FC 1
370
     0
100
AcDbSpline
210
0.0
220
0.0
230
1.0
 70
    11
 71
     3
 72
    53
 73
    49
 74
     0
 42
0.0000000001
 43
0.0000000001
 12
1.0
 22
0.0
 32
0.0
 13
1.0
 23
0.0
 33
0.0
 40
0.0
 40
0.0
 40
0.0
 40
0.0
 40
1.0
 40
1.0
 40
1.0
 40
2.0
 40
2.0
 40
2.0
 40
3.0
 40
3.0
 40
3.0
 40
4.0
 40
4.0
 40
4.0
 40
5.0
 40
5.0
 40
5.0
 40
6.0
 40
6.0
 40
6.0
 40
7.0
 40
7.0
 40
7.0
 40
8.0
 40
8.0
 40
8.0
 40
9.0
 40
9.0
 40
9.0
 40
10.0
 40
10.0
 40
10.0
 40
11.0
 40
11.0
 40
11.0
 40
12.0
 40
12.0
 40
12.0
 40
13.0
 40
13.0
 40
13.0
 40
14.0
 40
14.0
 40
14.0
 40
15.0
 40
15.0
 40
15.0
 40
16.0
 40
16.0
 40
16.0
 40
16.0
 10
74.35928546318101
 20
-139.9466688018189
 30
0.0
 10
74.3038194258685
 20
-139.8912027645064
 30
0.0
 10
74.24387476442514
 20
-139.8071424346663
 30
0.0
 10
74.2170030196402
 20
-139.6906982072648
 30
0.0
 10
74.17221677833194
 20
-139.4901936500233
 30
0.0
 10
74.24973142675007
 20
-139.382362161335
 30
0.0
 10
74.31260441935588
 20
-139.29244516917
 30
0.0
 10
74.31260441935588
 20
-139.29244516917
 30
0.0
 10
74.46970077348327
 20
-139.4495415232973
 30
0.0
 10
74.46970077348327
 20
-139.4495415232973
 30
0.0
 10
74.3680704566684
 20
-139.6293755076274
 30
0.0
 10
74.4369723663734
 20
-139.7399630727039
 30
0.0
 10
74.50277369014167
 20
-139.8057643964722
 30
0.0
 10
74.60130342101982
 20
-139.9042941273503
 30
0.0
 10
74.77958711238149
 20
-139.9418456681395
 30
0.0
 10
74.94409042180217
 20
-139.7775146134931
 30
0.0
 10
75.12513018955205
 20
-139.596302590969
 30
0.0
 10
75.04727103158541
 20
-139.4199137021242
 30
0.0
 10
74.9618326635512
 20
-139.33447533409
 30
0.0
 10
74.93943954289709
 20
-139.3120822134359
 30
0.0
 10
74.83918726427632
 20
-139.2118299348151
 30
0.0
 10
74.68519149608565
 20
-139.2404242273427
 30
0.0
 10
74.68519149608565
 20
-139.2404242273427
 30
0.0
 10
74.57443167623487
 20
-139.1026204079327
 30
0.0
 10
74.57443167623487
 20
-139.1026204079327
 30
0.0
 10
74.57443167623487
 20
-139.1026204079327
 30
0.0
 10
75.2581108752827
 20
-138.589645690179
 30
0.0
 10
75.2581108752827
 20
-138.589645690179
 30
0.0
 10
75.2581108752827
 20
-138.589645690179
 30
0.0
 10
75.80863713382563
 20
-139.1401719487219
 30
0.0
 10
75.80863713382563
 20
-139.1401719487219
 30
0.0
 10
75.80863713382563
 20
-139.1401719487219
 30
0.0
 10
75.67100556918989
 20
-139.2776312585834
 30
0.0
 10
75.67100556918989
 20
-139.2776312585834
 30
0.0
 10
75.67100556918989
 20
-139.2776312585834
 30
0.0
 10
75.23554549985431
 20
-138.8421711892478
 30
0.0
 10
75.23554549985431
 20
-138.8421711892478
 30
0.0
 10
75.23554549985431
 20
-138.8421711892478
 30
0.0
 10
74.89017467745802
 20
-139.0953857074137
 30
0.0
 10
74.89017467745802
 20
-139.0953857074137
 30
0.0
 10
74.95752629419465
 20
-139.114678242131
 30
0.0
 10
75.04417044564869
 20
-139.1446505728527
 30
0.0
 10
75.12788626594025
 20
-139.2283663931443
 30
0.0
 10
75.30737574072177
 20
-139.4078558679258
 30
0.0
 10
75.3435492433169
 20
-139.707234665594
 30
0.0
 10
75.12220185838959
 20
-139.9287543052956
 30
0.0
 10
74.89775388752557
 20
-140.1530300213853
 30
0.0
 10
74.5728813832665
 20
-140.1602647219044
 30
0.0
 10
74.35928546318101
 20
-139.9466688018189
 30
0.0
  0
HATCH
  5
5C
330
55
100
AcDbEntity
  8
_U+30EC_U+30A4_U+30E4_U+30FC 1
 62
     7
420
 16777215
100
AcDbHatch
 10
0.0
 20
0.0
 30
0.0
210
0.0
220
0.0
230
1.0
  2
SOLID
 70
     1
 71
     0
 91
        1
 92
        1
 93
        1
 72
     4
 94
        3
 73
     0
 74
     1
 95
       53
 96
       49
 40
0.0
 40
0.0
 40
0.0
 40
0.0
 40
1.0
 40
1.0
 40
1.0
 40
2.0
 40
2.0
 40
2.0
 40
3.0
 40
3.0
 40
3.0
 40
4.0
 40
4.0
 40
4.0
 40
5.0
 40
5.0
 40
5.0
 40
6.0
 40
6.0
 40
6.0
 40
7.0
 40
7.0
 40
7.0
 40
8.0
 40
8.0
 40
8.0
 40
9.0
 40
9.0
 40
9.0
 40
10.0
 40
10.0
 40
10.0
 40
11.0
 40
11.0
 40
11.0
 40
12.0
 40
12.0
 40
12.0
 40
13.0
 40
13.0
 40
13.0
 40
14.0
 40
14.0
 40
14.0
 40
15.0
 40
15.0
 40
15.0
 40
16.0
 40
16.0
 40
16.0
 40
16.0
 10
74.35928546318101
 20
-139.9466688018189
 10
74.3038194258685
 20
-139.8912027645064
 10
74.24387476442514
 20
-139.8071424346663
 10
74.2170030196402
 20
-139.6906982072648
 10
74.17221677833194
 20
-139.4901936500233
 10
74.24973142675007
 20
-139.382362161335
 10
74.31260441935588
 20
-139.29244516917
 10
74.31260441935588
 20
-139.29244516917
 10
74.46970077348327
 20
-139.4495415232973
 10
74.46970077348327
 20
-139.4495415232973
 10
74.3680704566684
 20
-139.6293755076274
 10
74.4369723663734
 20
-139.7399630727039
 10
74.50277369014167
 20
-139.8057643964722
 10
74.60130342101982
 20
-139.9042941273503
 10
74.77958711238149
 20
-139.9418456681395
 10
74.94409042180217
 20
-139.7775146134931
 10
75.12513018955205
 20
-139.596302590969
 10
75.04727103158541
 20
-139.4199137021242
 10
74.9618326635512
 20
-139.33447533409
 10
74.93943954289709
 20
-139.3120822134359
 10
74.83918726427632
 20
-139.2118299348151
 10
74.68519149608565
 20
-139.2404242273427
 10
74.68519149608565
 20
-139.2404242273427
 10
74.57443167623487
 20
-139.1026204079327
 10
74.57443167623487
 20
-139.1026204079327
 10
74.57443167623487
 20
-139.1026204079327
 10
75.2581108752827
 20
-138.589645690179
 10
75.2581108752827
 20
-138.589645690179
 10
75.2581108752827
 20
-138.589645690179
 10
75.80863713382563
 20
-139.1401719487219
 10
75.80863713382563
 20
-139.1401719487219
 10
75.80863713382563
 20
-139.1401719487219
 10
75.67100556918989
 20
-139.2776312585834
 10
75.67100556918989
 20
-139.2776312585834
 10
75.67100556918989
 20
-139.2776312585834
 10
75.23554549985431
 20
-138.8421711892478
 10
75.23554549985431
 20
-138.8421711892478
 10
75.23554549985431
 20
-138.8421711892478
 10
74.89017467745802
 20
-139.0953857074137
 10
74.89017467745802
 20
-139.0953857074137
 10
74.95752629419465
 20
-139.114678242131
 10
75.04417044564869
 20
-139.1446505728527
 10
75.12788626594025
 20
-139.2283663931443
 10
75.30737574072177
 20
-139.4078558679258
 10
75.3435492433169
 20
-139.707234665594
 10
75.12220185838959
 20
-139.9287543052956
 10
74.89775388752557
 20
-140.1530300213853
 10
74.5728813832665
 20
-140.1602647219044
 10
74.35928546318101
 20
-139.9466688018189
 97
        0
 97
        0
 75
     2
 76
     1
 98
        0
  0
ENDBLK
  5
58
330
55
100
AcDbEntity
  8
0
100
AcDbBlockEnd
  0
BLOCK
  5
6B
330
69
100
AcDbEntity
  8
0
100
AcDbBlockBegin
  2
block 4
 70
     0
 10
0.0
 20
0.0
 30
0.0
  3
block 4
  1

  0
SPLINE
  5
6D
330
69
100
AcDbEntity
  8
_U+30EC_U+30A4_U+30E4_U+30FC 1
370
     0
100
AcDbSpline
210
0.0
220
0.0
230
1.0
 70
    11
 71
     3
 72
    26
 73
    22
 74
     0
 42
0.0000000001
 43
0.0000000001
 12
1.0
 22
0.0
 32
0.0
 13
1.0
 23
0.0
 33
0.0
 40
0.0
 40
0.0
 40
0.0
 40
0.0
 40
1.0
 40
1.0
 40
1.0
 40
2.0
 40
2.0
 40
2.0
 40
3.0
 40
3.0
 40
3.0
 40
4.0
 40
4.0
 40
4.0
 40
5.0
 40
5.0
 40
5.0
 40
6.0
 40
6.0
 40
6.0
 40
7.0
 40
7.0
 40
7.0
 40
7.0
 10
87.81462264514704
 20
-146.0837618992429
 30
0.0
 10
87.81462264514704
 20
-146.0837618992429
 30
0.0
 10
87.81462264514704
 20
-144.9796087962204
 30
0.0
 10
87.81462264514704
 20
-144.9796087962204
 30
0.0
 10
87.81462264514704
 20
-144.9796087962204
 30
0.0
 10
87.48458249766011
 20
-144.9796087962204
 30
0.0
 10
87.48458249766011
 20
-144.9796087962204
 30
0.0
 10
87.48458249766011
 20
-144.9796087962204
 30
0.0
 10
87.48458249766011
 20
-144.8314696903547
 30
0.0
 10
87.48458249766011
 20
-144.8314696903547
 30
0.0
 10
87.8166897024382
 20
-144.8166557797681
 30
0.0
 10
87.86319849148907
 20
-144.6537027633157
 30
0.0
 10
87.89282631266221
 20
-144.5393255932055
 30
0.0
 10
87.89282631266221
 20
-144.5393255932055
 30
0.0
 10
88.0388983612368
 20
-144.5393255932055
 30
0.0
 10
88.0388983612368
 20
-144.5393255932055
 30
0.0
 10
88.0388983612368
 20
-144.5393255932055
 30
0.0
 10
88.0388983612368
 20
-146.0837618992429
 30
0.0
 10
88.0388983612368
 20
-146.0837618992429
 30
0.0
 10
88.0388983612368
 20
-146.0837618992429
 30
0.0
 10
87.81462264514704
 20
-146.0837618992429
 30
0.0
 10
87.81462264514704
 20
-146.0837618992429
 30
0.0
  0
HATCH
  5
6E
330
69
100
AcDbEntity
  8
_U+30EC_U+30A4_U+30E4_U+30FC 1
 62
     7
420
 16777215
100
AcDbHatch
 10
0.0
 20
0.0
 30
0.0
210
0.0
220
0.0
230
1.0
  2
SOLID
 70
     1
 71
     0
 91
        1
 92
        1
 93
        1
 72
     4
 94
        3
 73
     0
 74
     1
 95
       26
 96
       22
 40
0.0
 40
0.0
 40
0.0
 40
0.0
 40
1.0
 40
1.0
 40
1.0
 40
2.0
 40
2.0
 40
2.0
 40
3.0
 40
3.0
 40
3.0
 40
4.0
 40
4.0
 40
4.0
 40
5.0
 40
5.0
 40
5.0
 40
6.0
 40
6.0
 40
6.0
 40
7.0
 40
7.0
 40
7.0
 40
7.0
 10
87.81462264514704
 20
-146.0837618992429
 10
87.81462264514704
 20
-146.0837618992429
 10
87.81462264514704
 20
-144.9796087962204
 10
87.81462264514704
 20
-144.9796087962204
 10
87.81462264514704
 20
-144.9796087962204
 10
87.48458249766011
 20
-144.9796087962204
 10
87.48458249766011
 20
-144.9796087962204
 10
87.48458249766011
 20
-144.9796087962204
 10
87.48458249766011
 20
-144.8314696903547
 10
87.48458249766011
 20
-144.8314696903547
 10
87.8166897024382
 20
-144.8166557797681
 10
87.86319849148907
 20
-144.6537027633157
 10
87.89282631266221
 20
-144.5393255932055
 10
87.89282631266221
 20
-144.5393255932055
 10
88.0388983612368
 20
-144.5393255932055
 10
88.0388983612368
 20
-144.5393255932055
 10
88.0388983612368
 20
-144.5393255932055
 10
88.0388983612368
 20
-146.0837618992429
 10
88.0388983612368
 20
-146.0837618992429
 10
88.0388983612368
 20
-146.0837618992429
 10
87.81462264514704
 20
-146.0837618992429
 10
87.81462264514704
 20
-146.0837618992429
 97
        0
 97
        0
 75
     2
 76
     1
 98
        0
  0
SPLINE
  5
6F
330
69
100
AcDbEntity
  8
_U+30EC_U+30A4_U+30E4_U+30FC 1
370
     0
100
AcDbSpline
210
0.0
220
0.0
230
1.0
 70
    11
 71
     3
 72
    44
 73
    40
 74
     0
 42
0.0000000001
 43
0.0000000001
 12
1.0
 22
0.0
 32
0.0
 13
1.0
 23
0.0
 33
0.0
 40
0.0
 40
0.0
 40
0.0
 40
0.0
 40
1.0
 40
1.0
 40
1.0
 40
2.0
 40
2.0
 40
2.0
 40
3.0
 40
3.0
 40
3.0
 40
4.0
 40
4.0
 40
4.0
 40
5.0
 40
5.0
 40
5.0
 40
6.0
 40
6.0
 40
6.0
 40
7.0
 40
7.0
 40
7.0
 40
8.0
 40
8.0
 40
8.0
 40
9.0
 40
9.0
 40
9.0
 40
10.0
 40
10.0
 40
10.0
 40
11.0
 40
11.0
 40
11.0
 40
12.0
 40
12.0
 40
12.0
 40
13.0
 40
13.0
 40
13.0
 40
13.0
 10
89.13306068735216
 20
-145.5018852717843
 30
0.0
 10
88.91533065268436
 20
-145.6607041736543
 30
0.0
 10
88.82231307458262
 20
-145.7347737265872
 30
0.0
 10
88.77339271869208
 20
-145.8784342083221
 30
0.0
 10
88.77339271869208
 20
-145.8784342083221
 30
0.0
 10
89.55198429835853
 20
-145.8784342083221
 30
0.0
 10
89.55198429835853
 20
-145.8784342083221
 30
0.0
 10
89.55198429835853
 20
-145.8784342083221
 30
0.0
 10
89.55198429835853
 20
-146.0837618992429
 30
0.0
 10
89.55198429835853
 20
-146.0837618992429
 30
0.0
 10
89.55198429835853
 20
-146.0837618992429
 30
0.0
 10
88.52396780555999
 20
-146.0837618992429
 30
0.0
 10
88.52396780555999
 20
-146.0837618992429
 30
0.0
 10
88.55566268402428
 20
-145.726160987874
 30
0.0
 10
88.62111949824403
 20
-145.6479573203588
 30
0.0
 10
89.00628117349495
 20
-145.3496120513362
 30
0.0
 10
89.26225176804903
 20
-145.1508300418373
 30
0.0
 10
89.32770858226877
 20
-145.0829616607779
 30
0.0
 10
89.32770858226877
 20
-144.9455023509164
 30
0.0
 10
89.32770858226877
 20
-144.8269910662238
 30
0.0
 10
89.25570608662704
 20
-144.6960774377843
 30
0.0
 10
89.05899113441929
 20
-144.6960774377843
 30
0.0
 10
88.79888642528292
 20
-144.6960774377843
 30
0.0
 10
88.79061819611832
 20
-144.9265543257475
 30
0.0
 10
88.78613957198749
 20
-145.042998553149
 30
0.0
 10
88.78613957198749
 20
-145.042998553149
 30
0.0
 10
88.56186385589773
 20
-145.042998553149
 30
0.0
 10
88.56186385589773
 20
-145.042998553149
 30
0.0
 10
88.57047659461085
 20
-144.9158745297433
 30
0.0
 10
88.58115639061513
 20
-144.8039089264726
 30
0.0
 10
88.66142711542145
 20
-144.68539764178
 30
0.0
 10
88.77132566140092
 20
-144.5245116826189
 30
0.0
 10
88.95770532715294
 20
-144.4907497468634
 30
0.0
 10
89.07380504500586
 20
-144.4907497468634
 30
0.0
 10
89.35113523156846
 20
-144.4907497468634
 30
0.0
 10
89.55852997978052
 20
-144.6747178457758
 30
0.0
 10
89.55852997978052
 20
-144.9475694082076
 30
0.0
 10
89.55852997978052
 20
-145.1763237484282
 30
0.0
 10
89.44208575237907
 20
-145.2755424984034
 30
0.0
 10
89.13306068735216
 20
-145.5018852717843
 30
0.0
  0
HATCH
  5
70
330
69
100
AcDbEntity
  8
_U+30EC_U+30A4_U+30E4_U+30FC 1
 62
     7
420
 16777215
100
AcDbHatch
 10
0.0
 20
0.0
 30
0.0
210
0.0
220
0.0
230
1.0
  2
SOLID
 70
     1
 71
     0
 91
        1
 92
        1
 93
        1
 72
     4
 94
        3
 73
     0
 74
     1
 95
       44
 96
       40
 40
0.0
 40
0.0
 40
0.0
 40
0.0
 40
1.0
 40
1.0
 40
1.0
 40
2.0
 40
2.0
 40
2.0
 40
3.0
 40
3.0
 40
3.0
 40
4.0
 40
4.0
 40
4.0
 40
5.0
 40
5.0
 40
5.0
 40
6.0
 40
6.0
 40
6.0
 40
7.0
 40
7.0
 40
7.0
 40
8.0
 40
8.0
 40
8.0
 40
9.0
 40
9.0
 40
9.0
 40
10.0
 40
10.0
 40
10.0
 40
11.0
 40
11.0
 40
11.0
 40
12.0
 40
12.0
 40
12.0
 40
13.0
 40
13.0
 40
13.0
 40
13.0
 10
89.13306068735216
 20
-145.5018852717843
 10
88.91533065268436
 20
-145.6607041736543
 10
88.82231307458262
 20
-145.7347737265872
 10
88.77339271869208
 20
-145.8784342083221
 10
88.77339271869208
 20
-145.8784342083221
 10
89.55198429835853
 20
-145.8784342083221
 10
89.55198429835853
 20
-145.8784342083221
 10
89.55198429835853
 20
-145.8784342083221
 10
89.55198429835853
 20
-146.0837618992429
 10
89.55198429835853
 20
-146.0837618992429
 10
89.55198429835853
 20
-146.0837618992429
 10
88.52396780555999
 20
-146.0837618992429
 10
88.52396780555999
 20
-146.0837618992429
 10
88.55566268402428
 20
-145.726160987874
 10
88.62111949824403
 20
-145.6479573203588
 10
89.00628117349495
 20
-145.3496120513362
 10
89.26225176804903
 20
-145.1508300418373
 10
89.32770858226877
 20
-145.0829616607779
 10
89.32770858226877
 20
-144.9455023509164
 10
89.32770858226877
 20
-144.8269910662238
 10
89.25570608662704
 20
-144.6960774377843
 10
89.05899113441929
 20
-144.6960774377843
 10
88.79888642528292
 20
-144.6960774377843
 10
88.79061819611832
 20
-144.9265543257475
 10
88.78613957198749
 20
-145.042998553149
 10
88.78613957198749
 20
-145.042998553149
 10
88.56186385589773
 20
-145.042998553149
 10
88.56186385589773
 20
-145.042998553149
 10
88.57047659461085
 20
-144.9158745297433
 10
88.58115639061513
 20
-144.8039089264726
 10
88.66142711542145
 20
-144.68539764178
 10
88.77132566140092
 20
-144.5245116826189
 10
88.95770532715294
 20
-144.4907497468634
 10
89.07380504500586
 20
-144.4907497468634
 10
89.35113523156846
 20
-144.4907497468634
 10
89.55852997978052
 20
-144.6747178457758
 10
89.55852997978052
 20
-144.9475694082076
 10
89.55852997978052
 20
-145.1763237484282
 10
89.44208575237907
 20
-145.2755424984034
 10
89.13306068735216
 20
-145.5018852717843
 97
        0
 97
        0
 75
     2
 76
     1
 98
        0
  0
ENDBLK
  5
6C
330
69
100
AcDbEntity
  8
0
100
AcDbBlockEnd
  0
BLOCK
  5
99
330
97
100
AcDbEntity
  8
0
100
AcDbBlockBegin
  2
block 5
 70
     0
 10
0.0
 20
0.0
 30
0.0
  3
block 5
  1

  0
SPLINE
  5
9B
330
97
100
AcDbEntity
  8
_U+30EC_U+30A4_U+30E4_U+30FC 1
370
     0
100
AcDbSpline
210
0.0
220
0.0
230
1.0
 70
    11
 71
     3
 72
    26
 73
    22
 74
     0
 42
0.0000000001
 43
0.0000000001
 12
1.0
 22
0.0
 32
0.0
 13
1.0
 23
0.0
 33
0.0
 40
0.0
 40
0.0
 40
0.0
 40
0.0
 40
1.0
 40
1.0
 40
1.0
 40
2.0
 40
2.0
 40
2.0
 40
3.0
 40
3.0
 40
3.0
 40
4.0
 40
4.0
 40
4.0
 40
5.0
 40
5.0
 40
5.0
 40
6.0
 40
6.0
 40
6.0
 40
7.0
 40
7.0
 40
7.0
 40
7.0
 10
113.444927271986
 20
-137.5109862937473
 30
0.0
 10
113.444927271986
 20
-137.5109862937473
 30
0.0
 10
112.3407741689634
 20
-137.5109862937473
 30
0.0
 10
112.3407741689634
 20
-137.5109862937473
 30
0.0
 10
112.3407741689634
 20
-137.5109862937473
 30
0.0
 10
112.3407741689634
 20
-137.8410264412342
 30
0.0
 10
112.3407741689634
 20
-137.8410264412342
 30
0.0
 10
112.3407741689634
 20
-137.8410264412342
 30
0.0
 10
112.1926350630977
 20
-137.8410264412342
 30
0.0
 10
112.1926350630977
 20
-137.8410264412342
 30
0.0
 10
112.1778211525111
 20
-137.5089192364561
 30
0.0
 10
112.0152126456073
 20
-137.4624104474052
 30
0.0
 10
111.900835475497
 20
-137.4327826262321
 30
0.0
 10
111.900835475497
 20
-137.4327826262321
 30
0.0
 10
111.900835475497
 20
-137.2867105776575
 30
0.0
 10
111.900835475497
 20
-137.2867105776575
 30
0.0
 10
111.900835475497
 20
-137.2867105776575
 30
0.0
 10
113.444927271986
 20
-137.2867105776575
 30
0.0
 10
113.444927271986
 20
-137.2867105776575
 30
0.0
 10
113.444927271986
 20
-137.2867105776575
 30
0.0
 10
113.444927271986
 20
-137.5109862937473
 30
0.0
 10
113.444927271986
 20
-137.5109862937473
 30
0.0
  0
HATCH
  5
9C
330
97
100
AcDbEntity
  8
_U+30EC_U+30A4_U+30E4_U+30FC 1
 62
     7
420
 16777215
100
AcDbHatch
 10
0.0
 20
0.0
 30
0.0
210
0.0
220
0.0
230
1.0
  2
SOLID
 70
     1
 71
     0
 91
        1
 92
        1
 93
        1
 72
     4
 94
        3
 73
     0
 74
     1
 95
       26
 96
       22
 40
0.0
 40
0.0
 40
0.0
 40
0.0
 40
1.0
 40
1.0
 40
1.0
 40
2.0
 40
2.0
 40
2.0
 40
3.0
 40
3.0
 40
3.0
 40
4.0
 40
4.0
 40
4.0
 40
5.0
 40
5.0
 40
5.0
 40
6.0
 40
6.0
 40
6.0
 40
7.0
 40
7.0
 40
7.0
 40
7.0
 10
113.444927271986
 20
-137.5109862937473
 10
113.444927271986
 20
-137.5109862937473
 10
112.3407741689634
 20
-137.5109862937473
 10
112.3407741689634
 20
-137.5109862937473
 10
112.3407741689634
 20
-137.5109862937473
 10
112.3407741689634
 20
-137.8410264412342
 10
112.3407741689634
 20
-137.8410264412342
 10
112.3407741689634
 20
-137.8410264412342
 10
112.1926350630977
 20
-137.8410264412342
 10
112.1926350630977
 20
-137.8410264412342
 10
112.1778211525111
 20
-137.5089192364561
 10
112.0152126456073
 20
-137.4624104474052
 10
111.900835475497
 20
-137.4327826262321
 10
111.900835475497
 20
-137.4327826262321
 10
111.900835475497
 20
-137.2867105776575
 10
111.900835475497
 20
-137.2867105776575
 10
111.900835475497
 20
-137.2867105776575
 10
113.444927271986
 20
-137.2867105776575
 10
113.444927271986
 20
-137.2867105776575
 10
113.444927271986
 20
-137.2867105776575
 10
113.444927271986
 20
-137.5109862937473
 10
113.444927271986
 20
-137.5109862937473
 97
        0
 97
        0
 75
     2
 76
     1
 98
        0
  0
SPLINE
  5
9D
330
97
100
AcDbEntity
  8
_U+30EC_U+30A4_U+30E4_U+30FC 1
370
     0
100
AcDbSpline
210
0.0
220
0.0
230
1.0
 70
    11
 71
     3
 72
    29
 73
    25
 74
     0
 42
0.0000000001
 43
0.0000000001
 12
1.0
 22
0.0
 32
0.0
 13
1.0
 23
0.0
 33
0.0
 40
0.0
 40
0.0
 40
0.0
 40
0.0
 40
1.0
 40
1.0
 40
1.0
 40
2.0
 40
2.0
 40
2.0
 40
3.0
 40
3.0
 40
3.0
 40
4.0
 40
4.0
 40
4.0
 40
5.0
 40
5.0
 40
5.0
 40
6.0
 40
6.0
 40
6.0
 40
7.0
 40
7.0
 40
7.0
 40
8.0
 40
8.0
 40
8.0
 40
8.0
 10
113.2671603449471
 20
-135.8880018106461
 30
0.0
 10
113.4766221504503
 20
-135.9958332993344
 30
0.0
 10
113.4959146851677
 20
-136.1691216022425
 30
0.0
 10
113.4959146851677
 20
-136.2855658296439
 30
0.0
 10
113.4959146851677
 20
-136.4464517888051
 30
0.0
 10
113.4494058961168
 20
-136.5880452132488
 30
0.0
 10
113.2671603449471
 20
-136.6834743581902
 30
0.0
 10
113.072856959579
 20
-136.7868272227477
 30
0.0
 10
112.8358343901938
 20
-136.8061197574652
 30
0.0
 10
112.6728813737415
 20
-136.8061197574652
 30
0.0
 10
112.5292208920066
 20
-136.8061197574652
 30
0.0
 10
112.2773844120348
 20
-136.7892387895874
 30
0.0
 10
112.0786024025359
 20
-136.6834743581902
 30
0.0
 10
111.8753417689062
 20
-136.5752983599534
 30
0.0
 10
111.8519151196065
 20
-136.4147569103408
 30
0.0
 10
111.8519151196065
 20
-136.2855658296439
 30
0.0
 10
111.8519151196065
 20
-136.1270914373224
 30
0.0
 10
111.8967013609147
 20
-135.983086446039
 30
0.0
 10
112.0786024025359
 20
-135.8880018106461
 30
0.0
 10
112.2708387306129
 20
-135.7884385511223
 30
0.0
 10
112.4995930708334
 20
-135.7653564113712
 30
0.0
 10
112.6728813737415
 20
-135.7653564113712
 30
0.0
 10
112.8441026193584
 20
-135.7653564113712
 30
0.0
 10
113.0749240168702
 20
-135.7863714938312
 30
0.0
 10
113.2671603449471
 20
-135.8880018106461
 30
0.0
  0
SPLINE
  5
9E
330
97
100
AcDbEntity
  8
_U+30EC_U+30A4_U+30E4_U+30FC 1
370
     0
100
AcDbSpline
210
0.0
220
0.0
230
1.0
 70
    11
 71
     3
 72
    17
 73
    13
 74
     0
 42
0.0000000001
 43
0.0000000001
 12
1.0
 22
0.0
 32
0.0
 13
1.0
 23
0.0
 33
0.0
 40
0.0
 40
0.0
 40
0.0
 40
0.0
 40
1.0
 40
1.0
 40
1.0
 40
2.0
 40
2.0
 40
2.0
 40
3.0
 40
3.0
 40
3.0
 40
4.0
 40
4.0
 40
4.0
 40
4.0
 10
112.0448404667805
 20
-136.2855658296439
 30
0.0
 10
112.0448404667805
 20
-136.5353352523245
 30
0.0
 10
112.328027315668
 20
-136.5818440413754
 30
0.0
 10
112.6728813737415
 20
-136.5818440413754
 30
0.0
 10
112.9922417252242
 20
-136.5818440413754
 30
0.0
 10
113.3012667902511
 20
-136.5456705387803
 30
0.0
 10
113.3012667902511
 20
-136.2855658296439
 30
0.0
 10
113.3012667902511
 20
-136.0382079738029
 30
0.0
 10
113.0198024891062
 20
-135.9892876179124
 30
0.0
 10
112.6728813737415
 20
-135.9892876179124
 30
0.0
 10
112.3535210222588
 20
-135.9892876179124
 30
0.0
 10
112.0448404667805
 20
-136.0275281777987
 30
0.0
 10
112.0448404667805
 20
-136.2855658296439
 30
0.0
  0
HATCH
  5
9F
330
97
100
AcDbEntity
  8
_U+30EC_U+30A4_U+30E4_U+30FC 1
 62
     7
420
 16777215
100
AcDbHatch
 10
0.0
 20
0.0
 30
0.0
210
0.0
220
0.0
230
1.0
  2
SOLID
 70
     1
 71
     0
 91
        2
 92
        1
 93
        1
 72
     4
 94
        3
 73
     0
 74
     1
 95
       29
 96
       25
 40
0.0
 40
0.0
 40
0.0
 40
0.0
 40
1.0
 40
1.0
 40
1.0
 40
2.0
 40
2.0
 40
2.0
 40
3.0
 40
3.0
 40
3.0
 40
4.0
 40
4.0
 40
4.0
 40
5.0
 40
5.0
 40
5.0
 40
6.0
 40
6.0
 40
6.0
 40
7.0
 40
7.0
 40
7.0
 40
8.0
 40
8.0
 40
8.0
 40
8.0
 10
113.2671603449471
 20
-135.8880018106461
 10
113.4766221504503
 20
-135.9958332993344
 10
113.4959146851677
 20
-136.1691216022425
 10
113.4959146851677
 20
-136.2855658296439
 10
113.4959146851677
 20
-136.4464517888051
 10
113.4494058961168
 20
-136.5880452132488
 10
113.2671603449471
 20
-136.6834743581902
 10
113.072856959579
 20
-136.7868272227477
 10
112.8358343901938
 20
-136.8061197574652
 10
112.6728813737415
 20
-136.8061197574652
 10
112.5292208920066
 20
-136.8061197574652
 10
112.2773844120348
 20
-136.7892387895874
 10
112.0786024025359
 20
-136.6834743581902
 10
111.8753417689062
 20
-136.5752983599534
 10
111.8519151196065
 20
-136.4147569103408
 10
111.8519151196065
 20
-136.2855658296439
 10
111.8519151196065
 20
-136.1270914373224
 10
111.8967013609147
 20
-135.983086446039
 10
112.0786024025359
 20
-135.8880018106461
 10
112.2708387306129
 20
-135.7884385511223
 10
112.4995930708334
 20
-135.7653564113712
 10
112.6728813737415
 20
-135.7653564113712
 10
112.8441026193584
 20
-135.7653564113712
 10
113.0749240168702
 20
-135.7863714938312
 10
113.2671603449471
 20
-135.8880018106461
 97
        0
 97
        0
 92
        1
 93
        1
 72
     4
 94
        3
 73
     0
 74
     1
 95
       17
 96
       13
 40
0.0
 40
0.0
 40
0.0
 40
0.0
 40
1.0
 40
1.0
 40
1.0
 40
2.0
 40
2.0
 40
2.0
 40
3.0
 40
3.0
 40
3.0
 40
4.0
 40
4.0
 40
4.0
 40
4.0
 10
112.0448404667805
 20
-136.2855658296439
 10
112.0448404667805
 20
-136.5353352523245
 10
112.328027315668
 20
-136.5818440413754
 10
112.6728813737415
 20
-136.5818440413754
 10
112.9922417252242
 20
-136.5818440413754
 10
113.3012667902511
 20
-136.5456705387803
 10
113.3012667902511
 20
-136.2855658296439
 10
113.3012667902511
 20
-136.0382079738029
 10
113.0198024891062
 20
-135.9892876179124
 10
112.6728813737415
 20
-135.9892876179124
 10
112.3535210222588
 20
-135.9892876179124
 10
112.0448404667805
 20
-136.0275281777987
 10
112.0448404667805
 20
-136.2855658296439
 97
        0
 97
        0
 75
     2
 76
     1
 98
        0
  0
ENDBLK
  5
9A
330
97
100
AcDbEntity
  8
0
100
AcDbBlockEnd
  0
BLOCK
  5
A2
330
A0
100
AcDbEntity
  8
0
100
AcDbBlockBegin
  2
block 6
 70
     0
 10
0.0
 20
0.0
 30
0.0
  3
block 6
  1

  0
SPLINE
  5
A4
330
A0
100
AcDbEntity
  8
_U+30EC_U+30A4_U+30E4_U+30FC 1
370
     0
100
AcDbSpline
210
0.0
220
0.0
230
1.0
 70
    11
 71
     3
 72
    26
 73
    22
 74
     0
 42
0.0000000001
 43
0.0000000001
 12
1.0
 22
0.0
 32
0.0
 13
1.0
 23
0.0
 33
0.0
 40
0.0
 40
0.0
 40
0.0
 40
0.0
 40
1.0
 40
1.0
 40
1.0
 40
2.0
 40
2.0
 40
2.0
 40
3.0
 40
3.0
 40
3.0
 40
4.0
 40
4.0
 40
4.0
 40
5.0
 40
5.0
 40
5.0
 40
6.0
 40
6.0
 40
6.0
 40
7.0
 40
7.0
 40
7.0
 40
7.0
 10
113.444927271986
 20
-131.4331488386695
 30
0.0
 10
113.444927271986
 20
-131.4331488386695
 30
0.0
 10
112.3407741689634
 20
-131.4331488386695
 30
0.0
 10
112.3407741689634
 20
-131.4331488386695
 30
0.0
 10
112.3407741689634
 20
-131.4331488386695
 30
0.0
 10
112.3407741689634
 20
-131.7631889861564
 30
0.0
 10
112.3407741689634
 20
-131.7631889861564
 30
0.0
 10
112.3407741689634
 20
-131.7631889861564
 30
0.0
 10
112.1926350630977
 20
-131.7631889861564
 30
0.0
 10
112.1926350630977
 20
-131.7631889861564
 30
0.0
 10
112.1778211525111
 20
-131.4310817813783
 30
0.0
 10
112.0152126456073
 20
-131.3845729923275
 30
0.0
 10
111.900835475497
 20
-131.3549451711543
 30
0.0
 10
111.900835475497
 20
-131.3549451711543
 30
0.0
 10
111.900835475497
 20
-131.2088731225797
 30
0.0
 10
111.900835475497
 20
-131.2088731225797
 30
0.0
 10
111.900835475497
 20
-131.2088731225797
 30
0.0
 10
113.444927271986
 20
-131.2088731225797
 30
0.0
 10
113.444927271986
 20
-131.2088731225797
 30
0.0
 10
113.444927271986
 20
-131.2088731225797
 30
0.0
 10
113.444927271986
 20
-131.4331488386695
 30
0.0
 10
113.444927271986
 20
-131.4331488386695
 30
0.0
  0
HATCH
  5
A5
330
A0
100
AcDbEntity
  8
_U+30EC_U+30A4_U+30E4_U+30FC 1
 62
     7
420
 16777215
100
AcDbHatch
 10
0.0
 20
0.0
 30
0.0
210
0.0
220
0.0
230
1.0
  2
SOLID
 70
     1
 71
     0
 91
        1
 92
        1
 93
        1
 72
     4
 94
        3
 73
     0
 74
     1
 95
       26
 96
       22
 40
0.0
 40
0.0
 40
0.0
 40
0.0
 40
1.0
 40
1.0
 40
1.0
 40
2.0
 40
2.0
 40
2.0
 40
3.0
 40
3.0
 40
3.0
 40
4.0
 40
4.0
 40
4.0
 40
5.0
 40
5.0
 40
5.0
 40
6.0
 40
6.0
 40
6.0
 40
7.0
 40
7.0
 40
7.0
 40
7.0
 10
113.444927271986
 20
-131.4331488386695
 10
113.444927271986
 20
-131.4331488386695
 10
112.3407741689634
 20
-131.4331488386695
 10
112.3407741689634
 20
-131.4331488386695
 10
112.3407741689634
 20
-131.4331488386695
 10
112.3407741689634
 20
-131.7631889861564
 10
112.3407741689634
 20
-131.7631889861564
 10
112.3407741689634
 20
-131.7631889861564
 10
112.1926350630977
 20
-131.7631889861564
 10
112.1926350630977
 20
-131.7631889861564
 10
112.1778211525111
 20
-131.4310817813783
 10
112.0152126456073
 20
-131.3845729923275
 10
111.900835475497
 20
-131.3549451711543
 10
111.900835475497
 20
-131.3549451711543
 10
111.900835475497
 20
-131.2088731225797
 10
111.900835475497
 20
-131.2088731225797
 10
111.900835475497
 20
-131.2088731225797
 10
113.444927271986
 20
-131.2088731225797
 10
113.444927271986
 20
-131.2088731225797
 10
113.444927271986
 20
-131.2088731225797
 10
113.444927271986
 20
-131.4331488386695
 10
113.444927271986
 20
-131.4331488386695
 97
        0
 97
        0
 75
     2
 76
     1
 98
        0
  0
ENDBLK
  5
A3
330
A0
100
AcDbEntity
  8
0
100
AcDbBlockEnd
  0
BLOCK
  5
AD
330
AB
100
AcDbEntity
  8
0
100
AcDbBlockBegin
  2
block 7
 70
     0
 10
0.0
 20
0.0
 30
0.0
  3
block 7
  1

  0
SPLINE
  5
AF
330
AB
100
AcDbEntity
  8
_U+30EC_U+30A4_U+30E4_U+30FC 1
370
     0
100
AcDbSpline
210
0.0
220
0.0
230
1.0
 70
    11
 71
     3
 72
    44
 73
    40
 74
     0
 42
0.0000000001
 43
0.0000000001
 12
1.0
 22
0.0
 32
0.0
 13
1.0
 23
0.0
 33
0.0
 40
0.0
 40
0.0
 40
0.0
 40
0.0
 40
1.0
 40
1.0
 40
1.0
 40
2.0
 40
2.0
 40
2.0
 40
3.0
 40
3.0
 40
3.0
 40
4.0
 40
4.0
 40
4.0
 40
5.0
 40
5.0
 40
5.0
 40
6.0
 40
6.0
 40
6.0
 40
7.0
 40
7.0
 40
7.0
 40
8.0
 40
8.0
 40
8.0
 40
9.0
 40
9.0
 40
9.0
 40
10.0
 40
10.0
 40
10.0
 40
11.0
 40
11.0
 40
11.0
 40
12.0
 40
12.0
 40
12.0
 40
13.0
 40
13.0
 40
13.0
 40
13.0
 10
112.8633951540758
 20
-120.4829128388029
 30
0.0
 10
113.0218695463973
 20
-120.7006428734707
 30
0.0
 10
113.0959390993302
 20
-120.7936604515724
 30
0.0
 10
113.2399440906136
 20
-120.842580807463
 30
0.0
 10
113.2399440906136
 20
-120.842580807463
 30
0.0
 10
113.2399440906136
 20
-120.0639892277965
 30
0.0
 10
113.2399440906136
 20
-120.0639892277965
 30
0.0
 10
113.2399440906136
 20
-120.0639892277965
 30
0.0
 10
113.444927271986
 20
-120.0639892277965
 30
0.0
 10
113.444927271986
 20
-120.0639892277965
 30
0.0
 10
113.444927271986
 20
-120.0639892277965
 30
0.0
 10
113.444927271986
 20
-121.0920057205951
 30
0.0
 10
113.444927271986
 20
-121.0920057205951
 30
0.0
 10
113.0876708701656
 20
-121.0603108421308
 30
0.0
 10
113.0091226931019
 20
-120.994854027911
 30
0.0
 10
112.7107774240793
 20
-120.6096923526601
 30
0.0
 10
112.5119954145803
 20
-120.353721758106
 30
0.0
 10
112.4444715430694
 20
-120.2882649438863
 30
0.0
 10
112.307012233208
 20
-120.2882649438863
 30
0.0
 10
112.1885009485154
 20
-120.2882649438863
 30
0.0
 10
112.0572428105274
 20
-120.360267439528
 30
0.0
 10
112.0572428105274
 20
-120.5569823917358
 30
0.0
 10
112.0572428105274
 20
-120.8170871008721
 30
0.0
 10
112.2877196984906
 20
-120.8256998395852
 30
0.0
 10
112.404163925892
 20
-120.8298339541675
 30
0.0
 10
112.404163925892
 20
-120.8298339541675
 30
0.0
 10
112.404163925892
 20
-121.0541096702573
 30
0.0
 10
112.404163925892
 20
-121.0541096702573
 30
0.0
 10
112.2773844120348
 20
-121.0454969315442
 30
0.0
 10
112.1650742992157
 20
-121.0348171355399
 30
0.0
 10
112.0465630145231
 20
-120.9545464107336
 30
0.0
 10
111.8860215649105
 20
-120.8446478647541
 30
0.0
 10
111.8519151196065
 20
-120.6582681990021
 30
0.0
 10
111.8519151196065
 20
-120.5421684811492
 30
0.0
 10
111.8519151196065
 20
-120.2648382945866
 30
0.0
 10
112.0362277280673
 20
-120.0574435463745
 30
0.0
 10
112.3090792904991
 20
-120.0574435463745
 30
0.0
 10
112.5374891211712
 20
-120.0574435463745
 30
0.0
 10
112.6370523806949
 20
-120.173887773776
 30
0.0
 10
112.8633951540758
 20
-120.4829128388029
 30
0.0
  0
HATCH
  5
B0
330
AB
100
AcDbEntity
  8
_U+30EC_U+30A4_U+30E4_U+30FC 1
 62
     7
420
 16777215
100
AcDbHatch
 10
0.0
 20
0.0
 30
0.0
210
0.0
220
0.0
230
1.0
  2
SOLID
 70
     1
 71
     0
 91
        1
 92
        1
 93
        1
 72
     4
 94
        3
 73
     0
 74
     1
 95
       44
 96
       40
 40
0.0
 40
0.0
 40
0.0
 40
0.0
 40
1.0
 40
1.0
 40
1.0
 40
2.0
 40
2.0
 40
2.0
 40
3.0
 40
3.0
 40
3.0
 40
4.0
 40
4.0
 40
4.0
 40
5.0
 40
5.0
 40
5.0
 40
6.0
 40
6.0
 40
6.0
 40
7.0
 40
7.0
 40
7.0
 40
8.0
 40
8.0
 40
8.0
 40
9.0
 40
9.0
 40
9.0
 40
10.0
 40
10.0
 40
10.0
 40
11.0
 40
11.0
 40
11.0
 40
12.0
 40
12.0
 40
12.0
 40
13.0
 40
13.0
 40
13.0
 40
13.0
 10
112.8633951540758
 20
-120.4829128388029
 10
113.0218695463973
 20
-120.7006428734707
 10
113.0959390993302
 20
-120.7936604515724
 10
113.2399440906136
 20
-120.842580807463
 10
113.2399440906136
 20
-120.842580807463
 10
113.2399440906136
 20
-120.0639892277965
 10
113.2399440906136
 20
-120.0639892277965
 10
113.2399440906136
 20
-120.0639892277965
 10
113.444927271986
 20
-120.0639892277965
 10
113.444927271986
 20
-120.0639892277965
 10
113.444927271986
 20
-120.0639892277965
 10
113.444927271986
 20
-121.0920057205951
 10
113.444927271986
 20
-121.0920057205951
 10
113.0876708701656
 20
-121.0603108421308
 10
113.0091226931019
 20
-120.994854027911
 10
112.7107774240793
 20
-120.6096923526601
 10
112.5119954145803
 20
-120.353721758106
 10
112.4444715430694
 20
-120.2882649438863
 10
112.307012233208
 20
-120.2882649438863
 10
112.1885009485154
 20
-120.2882649438863
 10
112.0572428105274
 20
-120.360267439528
 10
112.0572428105274
 20
-120.5569823917358
 10
112.0572428105274
 20
-120.8170871008721
 10
112.2877196984906
 20
-120.8256998395852
 10
112.404163925892
 20
-120.8298339541675
 10
112.404163925892
 20
-120.8298339541675
 10
112.404163925892
 20
-121.0541096702573
 10
112.404163925892
 20
-121.0541096702573
 10
112.2773844120348
 20
-121.0454969315442
 10
112.1650742992157
 20
-121.0348171355399
 10
112.0465630145231
 20
-120.9545464107336
 10
111.8860215649105
 20
-120.8446478647541
 10
111.8519151196065
 20
-120.6582681990021
 10
111.8519151196065
 20
-120.5421684811492
 10
111.8519151196065
 20
-120.2648382945866
 10
112.0362277280673
 20
-120.0574435463745
 10
112.3090792904991
 20
-120.0574435463745
 10
112.5374891211712
 20
-120.0574435463745
 10
112.6370523806949
 20
-120.173887773776
 10
112.8633951540758
 20
-120.4829128388029
 97
        0
 97
        0
 75
     2
 76
     1
 98
        0
  0
SPLINE
  5
B1
330
AB
100
AcDbEntity
  8
_U+30EC_U+30A4_U+30E4_U+30FC 1
370
     0
100
AcDbSpline
210
0.0
220
0.0
230
1.0
 70
    11
 71
     3
 72
    44
 73
    40
 74
     0
 42
0.0000000001
 43
0.0000000001
 12
1.0
 22
0.0
 32
0.0
 13
1.0
 23
0.0
 33
0.0
 40
0.0
 40
0.0
 40
0.0
 40
0.0
 40
1.0
 40
1.0
 40
1.0
 40
2.0
 40
2.0
 40
2.0
 40
3.0
 40
3.0
 40
3.0
 40
4.0
 40
4.0
 40
4.0
 40
5.0
 40
5.0
 40
5.0
 40
6.0
 40
6.0
 40
6.0
 40
7.0
 40
7.0
 40
7.0
 40
8.0
 40
8.0
 40
8.0
 40
9.0
 40
9.0
 40
9.0
 40
10.0
 40
10.0
 40
10.0
 40
11.0
 40
11.0
 40
11.0
 40
12.0
 40
12.0
 40
12.0
 40
13.0
 40
13.0
 40
13.0
 40
13.0
 10
112.8633951540758
 20
-119.3060682210415
 30
0.0
 10
113.0218695463973
 20
-119.5237982557093
 30
0.0
 10
113.0959390993302
 20
-119.6168158338111
 30
0.0
 10
113.2399440906136
 20
-119.6657361897016
 30
0.0
 10
113.2399440906136
 20
-119.6657361897016
 30
0.0
 10
113.2399440906136
 20
-118.8871446100352
 30
0.0
 10
113.2399440906136
 20
-118.8871446100352
 30
0.0
 10
113.2399440906136
 20
-118.8871446100352
 30
0.0
 10
113.444927271986
 20
-118.8871446100352
 30
0.0
 10
113.444927271986
 20
-118.8871446100352
 30
0.0
 10
113.444927271986
 20
-118.8871446100352
 30
0.0
 10
113.444927271986
 20
-119.9151611028337
 30
0.0
 10
113.444927271986
 20
-119.9151611028337
 30
0.0
 10
113.0876708701656
 20
-119.8834662243694
 30
0.0
 10
113.0091226931019
 20
-119.8180094101497
 30
0.0
 10
112.7107774240793
 20
-119.4328477348987
 30
0.0
 10
112.5119954145803
 20
-119.1768771403447
 30
0.0
 10
112.4444715430694
 20
-119.1114203261249
 30
0.0
 10
112.307012233208
 20
-119.1114203261249
 30
0.0
 10
112.1885009485154
 20
-119.1114203261249
 30
0.0
 10
112.0572428105274
 20
-119.1834228217667
 30
0.0
 10
112.0572428105274
 20
-119.3801377739744
 30
0.0
 10
112.0572428105274
 20
-119.6402424831108
 30
0.0
 10
112.2877196984906
 20
-119.6488552218239
 30
0.0
 10
112.404163925892
 20
-119.6529893364062
 30
0.0
 10
112.404163925892
 20
-119.6529893364062
 30
0.0
 10
112.404163925892
 20
-119.877265052496
 30
0.0
 10
112.404163925892
 20
-119.877265052496
 30
0.0
 10
112.2773844120348
 20
-119.8686523137828
 30
0.0
 10
112.1650742992157
 20
-119.8579725177786
 30
0.0
 10
112.0465630145231
 20
-119.7777017929723
 30
0.0
 10
111.8860215649105
 20
-119.6678032469928
 30
0.0
 10
111.8519151196065
 20
-119.4814235812408
 30
0.0
 10
111.8519151196065
 20
-119.3653238633878
 30
0.0
 10
111.8519151196065
 20
-119.0879936768252
 30
0.0
 10
112.0362277280673
 20
-118.8805989286132
 30
0.0
 10
112.3090792904991
 20
-118.8805989286132
 30
0.0
 10
112.5374891211712
 20
-118.8805989286132
 30
0.0
 10
112.6370523806949
 20
-118.9970431560146
 30
0.0
 10
112.8633951540758
 20
-119.3060682210415
 30
0.0
  0
HATCH
  5
B2
330
AB
100
AcDbEntity
  8
_U+30EC_U+30A4_U+30E4_U+30FC 1
 62
     7
420
 16777215
100
AcDbHatch
 10
0.0
 20
0.0
 30
0.0
210
0.0
220
0.0
230
1.0
  2
SOLID
 70
     1
 71
     0
 91
        1
 92
        1
 93
        1
 72
     4
 94
        3
 73
     0
 74
     1
 95
       44
 96
       40
 40
0.0
 40
0.0
 40
0.0
 40
0.0
 40
1.0
 40
1.0
 40
1.0
 40
2.0
 40
2.0
 40
2.0
 40
3.0
 40
3.0
 40
3.0
 40
4.0
 40
4.0
 40
4.0
 40
5.0
 40
5.0
 40
5.0
 40
6.0
 40
6.0
 40
6.0
 40
7.0
 40
7.0
 40
7.0
 40
8.0
 40
8.0
 40
8.0
 40
9.0
 40
9.0
 40
9.0
 40
10.0
 40
10.0
 40
10.0
 40
11.0
 40
11.0
 40
11.0
 40
12.0
 40
12.0
 40
12.0
 40
13.0
 40
13.0
 40
13.0
 40
13.0
 10
112.8633951540758
 20
-119.3060682210415
 10
113.0218695463973
 20
-119.5237982557093
 10
113.0959390993302
 20
-119.6168158338111
 10
113.2399440906136
 20
-119.6657361897016
 10
113.2399440906136
 20
-119.6657361897016
 10
113.2399440906136
 20
-118.8871446100352
 10
113.2399440906136
 20
-118.8871446100352
 10
113.2399440906136
 20
-118.8871446100352
 10
113.444927271986
 20
-118.8871446100352
 10
113.444927271986
 20
-118.8871446100352
 10
113.444927271986
 20
-118.8871446100352
 10
113.444927271986
 20
-119.9151611028337
 10
113.444927271986
 20
-119.9151611028337
 10
113.0876708701656
 20
-119.8834662243694
 10
113.0091226931019
 20
-119.8180094101497
 10
112.7107774240793
 20
-119.4328477348987
 10
112.5119954145803
 20
-119.1768771403447
 10
112.4444715430694
 20
-119.1114203261249
 10
112.307012233208
 20
-119.1114203261249
 10
112.1885009485154
 20
-119.1114203261249
 10
112.0572428105274
 20
-119.1834228217667
 10
112.0572428105274
 20
-119.3801377739744
 10
112.0572428105274
 20
-119.6402424831108
 10
112.2877196984906
 20
-119.6488552218239
 10
112.404163925892
 20
-119.6529893364062
 10
112.404163925892
 20
-119.6529893364062
 10
112.404163925892
 20
-119.877265052496
 10
112.404163925892
 20
-119.877265052496
 10
112.2773844120348
 20
-119.8686523137828
 10
112.1650742992157
 20
-119.8579725177786
 10
112.0465630145231
 20
-119.7777017929723
 10
111.8860215649105
 20
-119.6678032469928
 10
111.8519151196065
 20
-119.4814235812408
 10
111.8519151196065
 20
-119.3653238633878
 10
111.8519151196065
 20
-119.0879936768252
 10
112.0362277280673
 20
-118.8805989286132
 10
112.3090792904991
 20
-118.8805989286132
 10
112.5374891211712
 20
-118.8805989286132
 10
112.6370523806949
 20
-118.9970431560146
 10
112.8633951540758
 20
-119.3060682210415
 97
        0
 97
        0
 75
     2
 76
     1
 98
        0
  0
ENDBLK
  5
AE
330
AB
100
AcDbEntity
  8
0
100
AcDbBlockEnd
  0
ENDSEC
  0
SECTION
  2
ENTITIES
  0
INSERT
  5
42
330
1F
100
AcDbEntity
  8
_U+30EC_U+30A4_U+30E4_U+30FC 1
100
AcDbBlockReference
  2
block 2
 10
0.0
 20
0.0
 30
0.0
  0
POLYLINE
  5
71
330
1F
100
AcDbEntity
  8
_U+30EC_U+30A4_U+30E4_U+30FC 1
 62
     7
420
 16777215
370
    25
100
AcDb2dPolyline
 66
     1
 10
0.0
 20
0.0
 30
0.0
  0
VERTEX
  5
72
330
71
100
AcDbEntity
  8
_U+30EC_U+30A4_U+30E4_U+30FC 1
 62
     7
420
 16777215
370
    25
100
AcDbVertex
100
AcDb2dVertex
 10
94.45141453478811
 20
-141.8972763534143
 30
0.0
  0
VERTEX
  5
73
330
71
100
AcDbEntity
  8
_U+30EC_U+30A4_U+30E4_U+30FC 1
 62
     7
420
 16777215
370
    25
100
AcDbVertex
100
AcDb2dVertex
 10
94.45141453478811
 20
-142.3975152421787
 30
0.0
  0
VERTEX
  5
74
330
71
100
AcDbEntity
  8
_U+30EC_U+30A4_U+30E4_U+30FC 1
 62
     7
420
 16777215
370
    25
100
AcDbVertex
100
AcDb2dVertex
 10
82.07956873930908
 20
-142.7971419087452
 30
0.0
  0
VERTEX
  5
75
330
71
100
AcDbEntity
  8
_U+30EC_U+30A4_U+30E4_U+30FC 1
 62
     7
420
 16777215
370
    25
100
AcDbVertex
100
AcDb2dVertex
 10
71.47351678766978
 20
-132.1910544113966
 30
0.0
  0
VERTEX
  5
76
330
71
100
AcDbEntity
  8
_U+30EC_U+30A4_U+30E4_U+30FC 1
 62
     7
420
 16777215
370
    25
100
AcDbVertex
100
AcDb2dVertex
 10
71.87314344414112
 20
-119.8171621922678
 30
0.0
  0
VERTEX
  5
77
330
71
100
AcDbEntity
  8
_U+30EC_U+30A4_U+30E4_U+30FC 1
 62
     7
420
 16777215
370
    25
100
AcDbVertex
100
AcDb2dVertex
 10
72.37334704249098
 20
-119.8171621922678
 30
0.0
  0
VERTEX
  5
78
330
71
100
AcDbEntity
  8
_U+30EC_U+30A4_U+30E4_U+30FC 1
 62
     7
420
 16777215
370
    25
100
AcDbVertex
100
AcDb2dVertex
 10
72.37334704249098
 20
-131.8176391337124
 30
0.0
  0
VERTEX
  5
79
330
71
100
AcDbEntity
  8
_U+30EC_U+30A4_U+30E4_U+30FC 1
 62
     7
420
 16777215
370
    25
100
AcDbVertex
100
AcDb2dVertex
 10
77.19236386959084
 20
-136.6393705213954
 30
0.0
  0
VERTEX
  5
7A
330
71
100
AcDbEntity
  8
_U+30EC_U+30A4_U+30E4_U+30FC 1
 62
     7
420
 16777215
370
    25
100
AcDbVertex
100
AcDb2dVertex
 10
82.57772622660002
 20
-131.2374608005236
 30
0.0
  0
VERTEX
  5
7B
330
71
100
AcDbEntity
  8
_U+30EC_U+30A4_U+30E4_U+30FC 1
 62
     7
420
 16777215
370
    25
100
AcDbVertex
100
AcDb2dVertex
 10
82.57772622660002
 20
-109.0122844171914
 30
0.0
  0
VERTEX
  5
7C
330
71
100
AcDbEntity
  8
_U+30EC_U+30A4_U+30E4_U+30FC 1
 62
     7
420
 16777215
370
    25
100
AcDbVertex
100
AcDb2dVertex
 10
83.47967314803388
 20
-109.0088624727479
 30
0.0
  0
VERTEX
  5
7D
330
71
100
AcDbEntity
  8
_U+30EC_U+30A4_U+30E4_U+30FC 1
 62
     7
420
 16777215
370
    25
100
AcDbVertex
100
AcDb2dVertex
 10
83.47967314803388
 20
-131.0087196894704
 30
0.0
  0
VERTEX
  5
7E
330
71
100
AcDbEntity
  8
_U+30EC_U+30A4_U+30E4_U+30FC 1
 62
     7
420
 16777215
370
    25
100
AcDbVertex
100
AcDb2dVertex
 10
105.4798499736299
 20
-131.0087196894704
 30
0.0
  0
VERTEX
  5
7F
330
71
100
AcDbEntity
  8
_U+30EC_U+30A4_U+30E4_U+30FC 1
 62
     7
420
 16777215
370
    25
100
AcDbVertex
100
AcDb2dVertex
 10
105.4750495313295
 20
-131.8934158003601
 30
0.0
  0
VERTEX
  5
80
330
71
100
AcDbEntity
  8
_U+30EC_U+30A4_U+30E4_U+30FC 1
 62
     7
420
 16777215
370
    25
100
AcDbVertex
100
AcDb2dVertex
 10
83.19889732186374
 20
-131.8934158003601
 30
0.0
  0
VERTEX
  5
81
330
71
100
AcDbEntity
  8
_U+30EC_U+30A4_U+30E4_U+30FC 1
 62
     7
420
 16777215
370
    25
100
AcDbVertex
100
AcDb2dVertex
 10
77.82626829226426
 20
-137.2787802434578
 30
0.0
  0
VERTEX
  5
82
330
71
100
AcDbEntity
  8
_U+30EC_U+30A4_U+30E4_U+30FC 1
 62
     7
420
 16777215
370
    25
100
AcDbVertex
100
AcDb2dVertex
 10
82.45231372979956
 20
-141.8972763534143
 30
0.0
  0
VERTEX
  5
83
330
71
100
AcDbEntity
  8
_U+30EC_U+30A4_U+30E4_U+30FC 1
 62
     7
420
 16777215
370
    25
100
AcDbVertex
100
AcDb2dVertex
 10
94.45141453478811
 20
-141.8972763534143
 30
0.0
  0
SEQEND
  5
84
330
71
100
AcDbEntity
  8
_U+30EC_U+30A4_U+30E4_U+30FC 1
 62
     7
420
 16777215
370
    25
  0
SPLINE
  5
85
330
1F
100
AcDbEntity
  8
_U+30EC_U+30A4_U+30E4_U+30FC 1
 62
     7
420
 16777215
370
     9
100
AcDbSpline
210
0.0
220
0.0
230
1.0
 70
    11
 71
     3
 72
    17
 73
    13
 74
     0
 42
0.0000000001
 43
0.0000000001
 12
1.0
 22
0.0
 32
0.0
 13
1.0
 23
0.0
 33
0.0
 40
0.0
 40
0.0
 40
0.0
 40
0.0
 40
1.0
 40
1.0
 40
1.0
 40
2.0
 40
2.0
 40
2.0
 40
3.0
 40
3.0
 40
3.0
 40
4.0
 40
4.0
 40
4.0
 40
4.0
 10
109.5850516486969
 20
-131.8730958003651
 30
0.0
 10
109.5850516486969
 20
-131.8176391337124
 30
0.0
 10
109.5402488720621
 20
-131.7728363559457
 30
0.0
 10
109.485144984579
 20
-131.7728363559457
 30
0.0
 10
109.4300058193191
 20
-131.7728363559457
 30
0.0
 10
109.3852383204612
 20
-131.8176391337124
 30
0.0
 10
109.3852383204612
 20
-131.8730958003651
 30
0.0
 10
109.3852383204612
 20
-131.92819968924
 30
0.0
 10
109.4300058193191
 20
-131.9730024670068
 30
0.0
 10
109.485144984579
 20
-131.9730024670068
 30
0.0
 10
109.5402488720621
 20
-131.9730024670068
 30
0.0
 10
109.5850516486969
 20
-131.92819968924
 30
0.0
 10
109.5850516486969
 20
-131.8730958003651
 30
0.0
  0
SPLINE
  5
86
330
1F
100
AcDbEntity
  8
_U+30EC_U+30A4_U+30E4_U+30FC 1
 62
     7
420
 16777215
370
     9
100
AcDbSpline
210
0.0
220
0.0
230
1.0
 70
    11
 71
     3
 72
    17
 73
    13
 74
     0
 42
0.0000000001
 43
0.0000000001
 12
1.0
 22
0.0
 32
0.0
 13
1.0
 23
0.0
 33
0.0
 40
0.0
 40
0.0
 40
0.0
 40
0.0
 40
1.0
 40
1.0
 40
1.0
 40
2.0
 40
2.0
 40
2.0
 40
3.0
 40
3.0
 40
3.0
 40
4.0
 40
4.0
 40
4.0
 40
4.0
 10
109.5850516486969
 20
-141.8731816311985
 30
0.0
 10
109.5850516486969
 20
-141.8180424645454
 30
0.0
 10
109.5402488720621
 20
-141.7732749645568
 30
0.0
 10
109.485144984579
 20
-141.7732749645568
 30
0.0
 10
109.4300058193191
 20
-141.7732749645568
 30
0.0
 10
109.3852383204612
 20
-141.8180424645454
 30
0.0
 10
109.3852383204612
 20
-141.8731816311985
 30
0.0
 10
109.3852383204612
 20
-141.9282855200734
 30
0.0
 10
109.4300058193191
 20
-141.9730882978401
 30
0.0
 10
109.485144984579
 20
-141.9730882978401
 30
0.0
 10
109.5402488720621
 20
-141.9730882978401
 30
0.0
 10
109.5850516486969
 20
-141.9282855200734
 30
0.0
 10
109.5850516486969
 20
-141.8731816311985
 30
0.0
  0
POLYLINE
  5
87
330
1F
100
AcDbEntity
  8
_U+30EC_U+30A4_U+30E4_U+30FC 1
 62
     7
420
 16777215
370
     9
100
AcDb2dPolyline
 66
     1
 10
0.0
 20
0.0
 30
0.0
  0
VERTEX
  5
88
330
87
100
AcDbEntity
  8
_U+30EC_U+30A4_U+30E4_U+30FC 1
 62
     7
420
 16777215
370
     9
100
AcDbVertex
100
AcDb2dVertex
 10
109.485144984579
 20
-141.8731816311985
 30
0.0
  0
VERTEX
  5
89
330
87
100
AcDbEntity
  8
_U+30EC_U+30A4_U+30E4_U+30FC 1
 62
     7
420
 16777215
370
     9
100
AcDbVertex
100
AcDb2dVertex
 10
109.485144984579
 20
-131.8730958003651
 30
0.0
  0
SEQEND
  5
8A
330
87
100
AcDbEntity
  8
_U+30EC_U+30A4_U+30E4_U+30FC 1
 62
     7
420
 16777215
370
     9
  0
POLYLINE
  5
8B
330
1F
100
AcDbEntity
  8
_U+30EC_U+30A4_U+30E4_U+30FC 1
 62
     7
420
 16777215
370
     9
100
AcDb2dPolyline
 66
     1
 10
0.0
 20
0.0
 30
0.0
  0
VERTEX
  5
8C
330
8B
100
AcDbEntity
  8
_U+30EC_U+30A4_U+30E4_U+30FC 1
 62
     7
420
 16777215
370
     9
100
AcDbVertex
100
AcDb2dVertex
 10
110.845247194511
 20
-141.8731816311985
 30
0.0
  0
VERTEX
  5
8D
330
8B
100
AcDbEntity
  8
_U+30EC_U+30A4_U+30E4_U+30FC 1
 62
     7
420
 16777215
370
     9
100
AcDbVertex
100
AcDb2dVertex
 10
96.51710475986575
 20
-141.8731816311985
 30
0.0
  0
SEQEND
  5
8E
330
8B
100
AcDbEntity
  8
_U+30EC_U+30A4_U+30E4_U+30FC 1
 62
     7
420
 16777215
370
     9
  0
POLYLINE
  5
8F
330
1F
100
AcDbEntity
  8
_U+30EC_U+30A4_U+30E4_U+30FC 1
 62
     7
420
 16777215
370
     9
100
AcDb2dPolyline
 66
     1
 10
0.0
 20
0.0
 30
0.0
  0
VERTEX
  5
90
330
8F
100
AcDbEntity
  8
_U+30EC_U+30A4_U+30E4_U+30FC 1
 62
     7
420
 16777215
370
     9
100
AcDbVertex
100
AcDb2dVertex
 10
110.845247194511
 20
-131.8730958003651
 30
0.0
  0
VERTEX
  5
91
330
8F
100
AcDbEntity
  8
_U+30EC_U+30A4_U+30E4_U+30FC 1
 62
     7
420
 16777215
370
     9
100
AcDbVertex
100
AcDb2dVertex
 10
107.585507255265
 20
-131.8730958003651
 30
0.0
  0
SEQEND
  5
92
330
8F
100
AcDbEntity
  8
_U+30EC_U+30A4_U+30E4_U+30FC 1
 62
     7
420
 16777215
370
     9
  0
POLYLINE
  5
93
330
1F
100
AcDbEntity
  8
_U+30EC_U+30A4_U+30E4_U+30FC 1
 62
     7
420
 16777215
370
     9
100
AcDb2dPolyline
 66
     1
 10
0.0
 20
0.0
 30
0.0
  0
VERTEX
  5
94
330
93
100
AcDbEntity
  8
_U+30EC_U+30A4_U+30E4_U+30FC 1
 62
     7
420
 16777215
370
     9
100
AcDbVertex
100
AcDb2dVertex
 10
110.845247194511
 20
-130.9873413561421
 30
0.0
  0
VERTEX
  5
95
330
93
100
AcDbEntity
  8
_U+30EC_U+30A4_U+30E4_U+30FC 1
 62
     7
420
 16777215
370
     9
100
AcDbVertex
100
AcDb2dVertex
 10
107.585507255265
 20
-130.9873413561421
 30
0.0
  0
SEQEND
  5
96
330
93
100
AcDbEntity
  8
_U+30EC_U+30A4_U+30E4_U+30FC 1
 62
     7
420
 16777215
370
     9
  0
INSERT
  5
98
330
1F
100
AcDbEntity
  8
_U+30EC_U+30A4_U+30E4_U+30FC 1
100
AcDbBlockReference
  2
block 5
 10
0.0
 20
0.0
 30
0.0
  0
INSERT
  5
A1
330
1F
100
AcDbEntity
  8
_U+30EC_U+30A4_U+30E4_U+30FC 1
100
AcDbBlockReference
  2
block 6
 10
0.0
 20
0.0
 30
0.0
  0
SPLINE
  5
A6
330
1F
100
AcDbEntity
  8
_U+30EC_U+30A4_U+30E4_U+30FC 1
 62
     7
420
 16777215
370
     9
100
AcDbSpline
210
0.0
220
0.0
230
1.0
 70
    11
 71
     3
 72
    17
 73
    13
 74
     0
 42
0.0000000001
 43
0.0000000001
 12
1.0
 22
0.0
 32
0.0
 13
1.0
 23
0.0
 33
0.0
 40
0.0
 40
0.0
 40
0.0
 40
0.0
 40
1.0
 40
1.0
 40
1.0
 40
2.0
 40
2.0
 40
2.0
 40
3.0
 40
3.0
 40
3.0
 40
4.0
 40
4.0
 40
4.0
 40
4.0
 10
109.4059138615376
 20
-130.917068022826
 30
0.0
 10
109.3666116542697
 20
-130.9556619117057
 30
0.0
 10
109.3666116542697
 20
-131.0190560783561
 30
0.0
 10
109.4059138615376
 20
-131.0583202450131
 30
0.0
 10
109.4451752633765
 20
-131.0975844116701
 30
0.0
 10
109.508572194845
 20
-131.0975844116701
 30
0.0
 10
109.5478335940908
 20
-131.0583202450131
 30
0.0
 10
109.5864274819951
 20
-131.0197263561341
 30
0.0
 10
109.5864274819951
 20
-130.956332189483
 30
0.0
 10
109.5471280385533
 20
-130.917068022826
 30
0.0
 10
109.5078666392894
 20
-130.8778038561697
 30
0.0
 10
109.444469707839
 20
-130.8778038561697
 30
0.0
 10
109.4059138615376
 20
-130.917068022826
 30
0.0
  0
POLYLINE
  5
A7
330
1F
100
AcDbEntity
  8
_U+30EC_U+30A4_U+30E4_U+30FC 1
 62
     7
420
 16777215
370
     9
100
AcDb2dPolyline
 66
     1
 10
0.0
 20
0.0
 30
0.0
  0
VERTEX
  5
A8
330
A7
100
AcDbEntity
  8
_U+30EC_U+30A4_U+30E4_U+30FC 1
 62
     7
420
 16777215
370
     9
100
AcDbVertex
100
AcDb2dVertex
 10
109.4761844292521
 20
-131.8730958003651
 30
0.0
  0
VERTEX
  5
A9
330
A7
100
AcDbEntity
  8
_U+30EC_U+30A4_U+30E4_U+30FC 1
 62
     7
420
 16777215
370
     9
100
AcDbVertex
100
AcDb2dVertex
 10
109.4775602625503
 20
-108.9850852505317
 30
0.0
  0
SEQEND
  5
AA
330
A7
100
AcDbEntity
  8
_U+30EC_U+30A4_U+30E4_U+30FC 1
 62
     7
420
 16777215
370
     9
  0
INSERT
  5
AC
330
1F
100
AcDbEntity
  8
_U+30EC_U+30A4_U+30E4_U+30FC 1
100
AcDbBlockReference
  2
block 7
 10
0.0
 20
0.0
 30
0.0
  0
ENDSEC
  0
SECTION
  2
OBJECTS
  0
DICTIONARY
  5
C
330
0
100
AcDbDictionary
281
     1
  3
ACAD_GROUP
350
D
  3
ACAD_LAYOUT
350
1A
  3
ACAD_MATERIAL
350
3B
  3
ACAD_MLEADERSTYLE
350
B4
  3
ACAD_MLINESTYLE
350
17
  3
ACAD_PLOTSETTINGS
350
19
  3
ACAD_PLOTSTYLENAME
350
E
  3
ACAD_TABLESTYLE
350
B3
  3
ACAD_VISUALSTYLE
350
2A
  0
SUN
  5
3F
330
29
100
AcDbSun
 90
        1
290
     0
 63
     7
421
 16777215
 40
1.0
291
     1
 91
  2455826
 92
 54000000
292
     0
 70
     2
 71
   256
280
     1
  0
DICTIONARY
  5
D
102
{ACAD_REACTORS
330
C
102
}
330
C
100
AcDbDictionary
281
     1
  0
DICTIONARY
  5
1A
102
{ACAD_REACTORS
330
C
102
}
330
C
100
AcDbDictionary
281
     1
  3
Layout1
350
1E
  3
Layout2
350
26
  3
Model
350
22
  0
DICTIONARY
  5
3B
102
{ACAD_REACTORS
330
C
102
}
330
C
100
AcDbDictionary
281
     1
  3
ByBlock
350
3D
  3
ByLayer
350
3C
  3
Global
350
3E
  0
DICTIONARY
  5
B4
102
{ACAD_REACTORS
330
C
102
}
330
C
100
AcDbDictionary
281
     1
  0
DICTIONARY
  5
17
102
{ACAD_REACTORS
330
C
102
}
330
C
100
AcDbDictionary
281
     1
  3
Standard
350
18
  0
DICTIONARY
  5
19
102
{ACAD_REACTORS
330
C
102
}
330
C
100
AcDbDictionary
281
     1
  0
ACDBDICTIONARYWDFLT
  5
E
102
{ACAD_REACTORS
330
C
102
}
330
C
100
AcDbDictionary
281
     1
  3
Normal
350
F
100
AcDbDictionaryWithDefault
340
F
  0
DICTIONARY
  5
B3
102
{ACAD_REACTORS
330
C
102
}
330
C
100
AcDbDictionary
281
     1
  0
DICTIONARY
  5
2A
102
{ACAD_REACTORS
330
C
102
}
330
C
100
AcDbDictionary
281
     1
  3
2dWireframe
350
2F
  3
3D Hidden
350
31
  3
3dWireframe
350
30
  3
Basic
350
32
  3
Brighten
350
36
  3
ColorChange
350
3A
  3
Conceptual
350
34
  3
Dim
350
35
  3
Facepattern
350
39
  3
Flat
350
2B
  3
FlatWithEdges
350
2C
  3
Gouraud
350
2D
  3
GouraudWithEdges
350
2E
  3
Linepattern
350
38
  3
Realistic
350
33
  3
Thicken
350
37
  0
LAYOUT
  5
1E
102
{ACAD_REACTORS
330
1A
102
}
330
1A
100
AcDbPlotSettings
  1

  2
none_device
  4

  6

 40
0.0
 41
0.0
 42
0.0
 43
0.0
 44
0.0
 45
0.0
 46
0.0
 47
0.0
 48
0.0
 49
0.0
140
0.0
141
0.0
142
1.0
143
1.0
 70
   688
 72
     0
 73
     0
 74
     5
  7

 75
    16
 76
     0
 77
     2
 78
   300
147
1.0
148
0.0
149
0.0
100
AcDbLayout
  1
Layout1
 70
     1
 71
     1
 10
0.0
 20
0.0
 11
12.0
 21
9.0
 12
0.0
 22
0.0
 32
0.0
 14
1.000000000000000E+20
 24
1.000000000000000E+20
 34
1.000000000000000E+20
 15
-1.000000000000000E+20
 25
-1.000000000000000E+20
 35
-1.000000000000000E+20
146
0.0
 13
0.0
 23
0.0
 33
0.0
 16
1.0
 26
0.0
 36
0.0
 17
0.0
 27
1.0
 37
0.0
 76
     0
330
1B
  0
LAYOUT
  5
26
102
{ACAD_REACTORS
330
1A
102
}
330
1A
100
AcDbPlotSettings
  1

  2
none_device
  4

  6

 40
0.0
 41
0.0
 42
0.0
 43
0.0
 44
0.0
 45
0.0
 46
0.0
 47
0.0
 48
0.0
 49
0.0
140
0.0
141
0.0
142
1.0
143
1.0
 70
   688
 72
     0
 73
     0
 74
     5
  7

 75
    16
 76
     0
 77
     2
 78
   300
147
1.0
148
0.0
149
0.0
100
AcDbLayout
  1
Layout2
 70
     1
 71
     2
 10
0.0
 20
0.0
 11
0.0
 21
0.0
 12
0.0
 22
0.0
 32
0.0
 14
0.0
 24
0.0
 34
0.0
 15
0.0
 25
0.0
 35
0.0
146
0.0
 13
0.0
 23
0.0
 33
0.0
 16
1.0
 26
0.0
 36
0.0
 17
0.0
 27
1.0
 37
0.0
 76
     0
330
23
  0
LAYOUT
  5
22
102
{ACAD_REACTORS
330
1A
102
}
330
1A
100
AcDbPlotSettings
  1

  2
none_device
  4

  6

 40
0.0
 41
0.0
 42
0.0
 43
0.0
 44
0.0
 45
0.0
 46
0.0
 47
0.0
 48
0.0
 49
0.0
140
0.0
141
0.0
142
1.0
143
1.0
 70
  1712
 72
     0
 73
     0
 74
     0
  7

 75
     0
 76
     0
 77
     2
 78
   300
147
1.0
148
0.0
149
0.0
100
AcDbLayout
  1
Model
 70
     1
 71
     0
 10
0.0
 20
0.0
 11
12.0
 21
9.0
 12
0.0
 22
0.0
 32
0.0
 14
1.000000000000000E+20
 24
1.000000000000000E+20
 34
1.000000000000000E+20
 15
-1.000000000000000E+20
 25
-1.000000000000000E+20
 35
-1.000000000000000E+20
146
0.0
 13
0.0
 23
0.0
 33
0.0
 16
1.0
 26
0.0
 36
0.0
 17
0.0
 27
1.0
 37
0.0
 76
     0
330
1F
331
29
  0
MATERIAL
  5
3D
102
{ACAD_REACTORS
330
3B
102
}
330
3B
100
AcDbMaterial
  1
ByBlock
 72
     1
 94
      127
  0
MATERIAL
  5
3C
102
{ACAD_REACTORS
330
3B
102
}
330
3B
100
AcDbMaterial
  1
ByLayer
 72
     1
 94
      127
  0
MATERIAL
  5
3E
102
{ACAD_REACTORS
330
3B
102
}
330
3B
100
AcDbMaterial
  1
Global
 72
     1
 94
      127
  0
MLINESTYLE
  5
18
102
{ACAD_REACTORS
330
17
102
}
330
17
100
AcDbMlineStyle
  2
Standard
 70
     0
  3

 62
   256
 51
90.0
 52
90.0
 71
     2
 49
0.5
 62
   256
  6
BYLAYER
 49
-0.5
 62
   256
  6
BYLAYER
  0
ACDBPLACEHOLDER
  5
F
102
{ACAD_REACTORS
330
E
102
}
330
E
  0
VISUALSTYLE
  5
2F
102
{ACAD_REACTORS
330
2A
102
}
330
2A
100
AcDbVisualStyle
  2
2dWireframe
 70
     4
177
     2
291
     0
 71
     0
176
     1
 72
     2
176
     1
 73
     0
176
     1
 90
        0
176
     1
 40
-0.6
176
     1
 41
-30.0
176
     1
 62
     5
 63
     7
421
 16777215
176
     1
 74
     1
176
     1
 91
        4
176
     1
 64
     7
176
     1
 65
   257
176
     1
 75
     1
176
     1
175
     1
176
     1
 42
1.0
176
     1
 92
        0
176
     1
 66
   257
176
     1
 43
1.0
176
     1
 76
     1
176
     1
 77
     6
176
     1
 78
     2
176
     1
 67
     7
176
     1
 79
     5
176
     1
170
     0
176
     1
171
     0
176
     1
290
     0
176
     1
 93
        1
176
     1
 44
0.0
176
     1
173
     0
176
     1
  0
VISUALSTYLE
  5
31
102
{ACAD_REACTORS
330
2A
102
}
330
2A
100
AcDbVisualStyle
  2
3D Hidden
 70
     6
177
     2
291
     0
 71
     1
176
     1
 72
     2
176
     1
 73
     2
176
     1
 90
        0
176
     1
 40
-0.6
176
     1
 41
-30.0
176
     1
 62
     5
 63
     7
421
 16777215
176
     1
 74
     2
176
     1
 91
        2
176
     1
 64
     7
176
     1
 65
   257
176
     1
 75
     2
176
     1
175
     1
176
     1
 42
40.0
176
     1
 92
        0
176
     1
 66
   257
176
     1
 43
1.0
176
     1
 76
     1
176
     1
 77
     6
176
     1
 78
     2
176
     1
 67
     7
176
     1
 79
     3
176
     1
170
     0
176
     1
171
     0
176
     1
290
     0
176
     1
 93
        1
176
     1
 44
0.0
176
     1
173
     0
176
     1
  0
VISUALSTYLE
  5
30
102
{ACAD_REACTORS
330
2A
102
}
330
2A
100
AcDbVisualStyle
  2
3dWireframe
 70
     5
177
     2
291
     0
 71
     0
176
     1
 72
     2
176
     1
 73
     0
176
     1
 90
        0
176
     1
 40
-0.6
176
     1
 41
-30.0
176
     1
 62
     5
 63
     7
421
 16777215
176
     1
 74
     1
176
     1
 91
        4
176
     1
 64
     7
176
     1
 65
   257
176
     1
 75
     1
176
     1
175
     1
176
     1
 42
1.0
176
     1
 92
        0
176
     1
 66
   257
176
     1
 43
1.0
176
     1
 76
     1
176
     1
 77
     6
176
     1
 78
     2
176
     1
 67
     7
176
     1
 79
     5
176
     1
170
     0
176
     1
171
     0
176
     1
290
     0
176
     1
 93
        1
176
     1
 44
0.0
176
     1
173
     0
176
     1
  0
VISUALSTYLE
  5
32
102
{ACAD_REACTORS
330
2A
102
}
330
2A
100
AcDbVisualStyle
  2
Basic
 70
     7
177
     2
291
     1
 71
     1
176
     1
 72
     0
176
     1
 73
     1
176
     1
 90
        0
176
     1
 40
-0.6
176
     1
 41
-30.0
176
     1
 62
     5
 63
     7
421
 16777215
176
     1
 74
     0
176
     1
 91
        4
176
     1
 64
     7
176
     1
 65
   257
176
     1
 75
     1
176
     1
175
     1
176
     1
 42
1.0
176
     1
 92
        8
176
     1
 66
     7
176
     1
 43
1.0
176
     1
 76
     1
176
     1
 77
     6
176
     1
 78
     2
176
     1
 67
     7
176
     1
 79
     5
176
     1
170
     0
176
     1
171
     0
176
     1
290
     0
176
     1
 93
        1
176
     1
 44
0.0
176
     1
173
     0
176
     1
  0
VISUALSTYLE
  5
36
102
{ACAD_REACTORS
330
2A
102
}
330
2A
100
AcDbVisualStyle
  2
Brighten
 70
    12
177
     2
291
     1
 71
     2
176
     1
 72
     2
176
     1
 73
     0
176
     1
 90
        0
176
     1
 40
-0.6
176
     1
 41
-30.0
176
     1
 62
     5
 63
     7
421
 16777215
176
     1
 74
     1
176
     1
 91
        4
176
     1
 64
     7
176
     1
 65
   257
176
     1
 75
     1
176
     1
175
     1
176
     1
 42
1.0
176
     1
 92
        8
176
     1
 66
     7
176
     1
 43
1.0
176
     1
 76
     1
176
     1
 77
     6
176
     1
 78
     2
176
     1
 67
     7
176
     1
 79
     5
176
     1
170
     0
176
     1
171
     0
176
     1
290
     0
176
     1
 93
        1
176
     1
 44
50.0
176
     1
173
     0
176
     1
  0
VISUALSTYLE
  5
3A
102
{ACAD_REACTORS
330
2A
102
}
330
2A
100
AcDbVisualStyle
  2
ColorChange
 70
    16
177
     2
291
     1
 71
     2
176
     1
 72
     2
176
     1
 73
     3
176
     1
 90
        0
176
     1
 40
-0.6
176
     1
 41
-30.0
176
     1
 62
     5
 63
     8
421
  8421504
176
     1
 74
     1
176
     1
 91
        4
176
     1
 64
     7
176
     1
 65
   257
176
     1
 75
     1
176
     1
175
     1
176
     1
 42
1.0
176
     1
 92
        8
176
     1
 66
     8
424
  8421504
176
     1
 43
1.0
176
     1
 76
     1
176
     1
 77
     6
176
     1
 78
     2
176
     1
 67
     7
176
     1
 79
     5
176
     1
170
     0
176
     1
171
     0
176
     1
290
     0
176
     1
 93
        1
176
     1
 44
0.0
176
     1
173
     0
176
     1
  0
VISUALSTYLE
  5
34
102
{ACAD_REACTORS
330
2A
102
}
330
2A
100
AcDbVisualStyle
  2
Conceptual
 70
     9
177
     2
291
     0
 71
     3
176
     1
 72
     2
176
     1
 73
     0
176
     1
 90
        0
176
     1
 40
-0.6
176
     1
 41
-30.0
176
     1
 62
     5
 63
     7
421
 16777215
176
     1
 74
     2
176
     1
 91
        2
176
     1
 64
     7
176
     1
 65
   257
176
     1
 75
     1
176
     1
175
     1
176
     1
 42
40.0
176
     1
 92
        8
176
     1
 66
     7
176
     1
 43
1.0
176
     1
 76
     1
176
     1
 77
     6
176
     1
 78
     2
176
     1
 67
     7
176
     1
 79
     3
176
     1
170
     0
176
     1
171
     0
176
     1
290
     0
176
     1
 93
        1
176
     1
 44
0.0
176
     1
173
     0
176
     1
  0
VISUALSTYLE
  5
35
102
{ACAD_REACTORS
330
2A
102
}
330
2A
100
AcDbVisualStyle
  2
Dim
 70
    11
177
     2
291
     1
 71
     2
176
     1
 72
     2
176
     1
 73
     0
176
     1
 90
        0
176
     1
 40
-0.6
176
     1
 41
-30.0
176
     1
 62
     5
 63
     7
421
 16777215
176
     1
 74
     1
176
     1
 91
        4
176
     1
 64
     7
176
     1
 65
   257
176
     1
 75
     1
176
     1
175
     1
176
     1
 42
1.0
176
     1
 92
        8
176
     1
 66
     7
176
     1
 43
1.0
176
     1
 76
     1
176
     1
 77
     6
176
     1
 78
     2
176
     1
 67
     7
176
     1
 79
     5
176
     1
170
     0
176
     1
171
     0
176
     1
290
     0
176
     1
 93
        1
176
     1
 44
-50.0
176
     1
173
     0
176
     1
  0
VISUALSTYLE
  5
39
102
{ACAD_REACTORS
330
2A
102
}
330
2A
100
AcDbVisualStyle
  2
Facepattern
 70
    15
177
     2
291
     1
 71
     2
176
     1
 72
     2
176
     1
 73
     0
176
     1
 90
        0
176
     1
 40
-0.6
176
     1
 41
-30.0
176
     1
 62
     5
 63
     7
421
 16777215
176
     1
 74
     1
176
     1
 91
        4
176
     1
 64
     7
176
     1
 65
   257
176
     1
 75
     1
176
     1
175
     1
176
     1
 42
1.0
176
     1
 92
        8
176
     1
 66
     7
176
     1
 43
1.0
176
     1
 76
     1
176
     1
 77
     6
176
     1
 78
     2
176
     1
 67
     7
176
     1
 79
     5
176
     1
170
     0
176
     1
171
     0
176
     1
290
     0
176
     1
 93
        1
176
     1
 44
0.0
176
     1
173
     0
176
     1
  0
VISUALSTYLE
  5
2B
102
{ACAD_REACTORS
330
2A
102
}
330
2A
100
AcDbVisualStyle
  2
Flat
 70
     0
177
     2
291
     1
 71
     2
176
     1
 72
     1
176
     1
 73
     1
176
     1
 90
        2
176
     1
 40
-0.6
176
     1
 41
30.0
176
     1
 62
     5
 63
     7
421
 16777215
176
     1
 74
     0
176
     1
 91
        4
176
     1
 64
     7
176
     1
 65
   257
176
     1
 75
     1
176
     1
175
     1
176
     1
 42
1.0
176
     1
 92
        8
176
     1
 66
     7
176
     1
 43
1.0
176
     1
 76
     1
176
     1
 77
     6
176
     1
 78
     2
176
     1
 67
     7
176
     1
 79
     5
176
     1
170
     0
176
     1
171
     0
176
     1
290
     0
176
     1
 93
       13
176
     1
 44
0.0
176
     1
173
     0
176
     1
  0
VISUALSTYLE
  5
2C
102
{ACAD_REACTORS
330
2A
102
}
330
2A
100
AcDbVisualStyle
  2
FlatWithEdges
 70
     1
177
     2
291
     1
 71
     2
176
     1
 72
     1
176
     1
 73
     1
176
     1
 90
        2
176
     1
 40
-0.6
176
     1
 41
30.0
176
     1
 62
     5
 63
     7
421
 16777215
176
     1
 74
     1
176
     1
 91
        4
176
     1
 64
     7
176
     1
 65
   257
176
     1
 75
     1
176
     1
175
     1
176
     1
 42
1.0
176
     1
 92
        0
176
     1
 66
   257
176
     1
 43
1.0
176
     1
 76
     1
176
     1
 77
     6
176
     1
 78
     2
176
     1
 67
     7
176
     1
 79
     5
176
     1
170
     0
176
     1
171
     0
176
     1
290
     0
176
     1
 93
       13
176
     1
 44
0.0
176
     1
173
     0
176
     1
  0
VISUALSTYLE
  5
2D
102
{ACAD_REACTORS
330
2A
102
}
330
2A
100
AcDbVisualStyle
  2
Gouraud
 70
     2
177
     2
291
     1
 71
     2
176
     1
 72
     2
176
     1
 73
     1
176
     1
 90
        2
176
     1
 40
-0.6
176
     1
 41
30.0
176
     1
 62
     5
 63
     7
421
 16777215
176
     1
 74
     0
176
     1
 91
        4
176
     1
 64
     7
176
     1
 65
   257
176
     1
 75
     1
176
     1
175
     1
176
     1
 42
1.0
176
     1
 92
        0
176
     1
 66
     7
176
     1
 43
1.0
176
     1
 76
     1
176
     1
 77
     6
176
     1
 78
     2
176
     1
 67
     7
176
     1
 79
     5
176
     1
170
     0
176
     1
171
     0
176
     1
290
     0
176
     1
 93
       13
176
     1
 44
0.0
176
     1
173
     0
176
     1
  0
VISUALSTYLE
  5
2E
102
{ACAD_REACTORS
330
2A
102
}
330
2A
100
AcDbVisualStyle
  2
GouraudWithEdges
 70
     3
177
     2
291
     1
 71
     2
176
     1
 72
     2
176
     1
 73
     1
176
     1
 90
        2
176
     1
 40
-0.6
176
     1
 41
30.0
176
     1
 62
     5
 63
     7
421
 16777215
176
     1
 74
     1
176
     1
 91
        4
176
     1
 64
     7
176
     1
 65
   257
176
     1
 75
     1
176
     1
175
     1
176
     1
 42
1.0
176
     1
 92
        0
176
     1
 66
   257
176
     1
 43
1.0
176
     1
 76
     1
176
     1
 77
     6
176
     1
 78
     2
176
     1
 67
     7
176
     1
 79
     5
176
     1
170
     0
176
     1
171
     0
176
     1
290
     0
176
     1
 93
       13
176
     1
 44
0.0
176
     1
173
     0
176
     1
  0
VISUALSTYLE
  5
38
102
{ACAD_REACTORS
330
2A
102
}
330
2A
100
AcDbVisualStyle
  2
Linepattern
 70
    14
177
     2
291
     1
 71
     2
176
     1
 72
     2
176
     1
 73
     0
176
     1
 90
        0
176
     1
 40
-0.6
176
     1
 41
-30.0
176
     1
 62
     5
 63
     7
421
 16777215
176
     1
 74
     1
176
     1
 91
        4
176
     1
 64
     7
176
     1
 65
   257
176
     1
 75
     7
176
     1
175
     7
176
     1
 42
1.0
176
     1
 92
        8
176
     1
 66
     7
176
     1
 43
1.0
176
     1
 76
     1
176
     1
 77
     6
176
     1
 78
     2
176
     1
 67
     7
176
     1
 79
     5
176
     1
170
     0
176
     1
171
     0
176
     1
290
     0
176
     1
 93
        1
176
     1
 44
0.0
176
     1
173
     0
176
     1
  0
VISUALSTYLE
  5
33
102
{ACAD_REACTORS
330
2A
102
}
330
2A
100
AcDbVisualStyle
  2
Realistic
 70
     8
177
     2
291
     0
 71
     2
176
     1
 72
     2
176
     1
 73
     0
176
     1
 90
        0
176
     1
 40
-0.6
176
     1
 41
-30.0
176
     1
 62
     5
 63
     7
421
 16777215
176
     1
 74
     1
176
     1
 91
        0
176
     1
 64
     7
176
     1
 65
   257
176
     1
 75
     1
176
     1
175
     1
176
     1
 42
1.0
176
     1
 92
        8
176
     1
 66
     8
424
  7895160
176
     1
 43
1.0
176
     1
 76
     1
176
     1
 77
     6
176
     1
 78
     2
176
     1
 67
     7
176
     1
 79
     5
176
     1
170
     0
176
     1
171
     0
176
     1
290
     0
176
     1
 93
       13
176
     1
 44
0.0
176
     1
173
     0
176
     1
  0
VISUALSTYLE
  5
37
102
{ACAD_REACTORS
330
2A
102
}
330
2A
100
AcDbVisualStyle
  2
Thicken
 70
    13
177
     2
291
     1
 71
     2
176
     1
 72
     2
176
     1
 73
     0
176
     1
 90
        0
176
     1
 40
-0.6
176
     1
 41
-30.0
176
     1
 62
     5
 63
     7
421
 16777215
176
     1
 74
     1
176
     1
 91
        4
176
     1
 64
     7
176
     1
 65
   257
176
     1
 75
     1
176
     1
175
     1
176
     1
 42
1.0
176
     1
 92
       12
176
     1
 66
     7
176
     1
 43
1.0
176
     1
 76
     1
176
     1
 77
     6
176
     1
 78
     2
176
     1
 67
     7
176
     1
 79
     5
176
     1
170
     0
176
     1
171
     0
176
     1
290
     0
176
     1
 93
        1
176
     1
 44
0.0
176
     1
173
     0
176
     1
  0
ENDSEC
  0
EOF
