  0
SECTION
  2
HEADER
  9
$ACADVER
  1
AC1024
  9
$ACADMAINTVER
 70
     6
  9
$DWGCODEPAGE
  3
UNDEFINED
  9
$INSBASE
 10
0.0
 20
0.0
 30
0.0
  9
$EXTMIN
 10
1.000000000000000E+20
 20
1.000000000000000E+20
 30
1.000000000000000E+20
  9
$EXTMAX
 10
-1.000000000000000E+20
 20
-1.000000000000000E+20
 30
-1.000000000000000E+20
  9
$LIMMIN
 10
0.0
 20
0.0
  9
$LIMMAX
 10
12.0
 20
9.0
  9
$ORTHOMODE
 70
     0
  9
$REGENMODE
 70
     1
  9
$FILLMODE
 70
     1
  9
$QTEXTMODE
 70
     0
  9
$MIRRTEXT
 70
     1
  9
$LTSCALE
 40
1.0
  9
$ATTMODE
 70
     1
  9
$TEXTSIZE
 40
0.2
  9
$TRACEWID
 40
0.05
  9
$TEXTSTYLE
  7
Standard
  9
$CLAYER
  8
0
  9
$CELTYPE
  6
ByLayer
  9
$CECOLOR
 62
   256
  9
$CELTSCALE
 40
1.0
  9
$DISPSILH
 70
     0
  9
$DIMSCALE
 40
1.0
  9
$DIMASZ
 40
0.18
  9
$DIMEXO
 40
0.0625
  9
$DIMDLI
 40
0.38
  9
$DIMRND
 40
0.0
  9
$DIMDLE
 40
0.0
  9
$DIMEXE
 40
0.18
  9
$DIMTP
 40
0.0
  9
$DIMTM
 40
0.0
  9
$DIMTXT
 40
0.18
  9
$DIMCEN
 40
0.09
  9
$DIMTSZ
 40
0.0
  9
$DIMTOL
 70
     0
  9
$DIMLIM
 70
     0
  9
$DIMTIH
 70
     1
  9
$DIMTOH
 70
     1
  9
$DIMSE1
 70
     0
  9
$DIMSE2
 70
     0
  9
$DIMTAD
 70
     0
  9
$DIMZIN
 70
     0
  9
$DIMBLK
  1

  9
$DIMASO
 70
     1
  9
$DIMSHO
 70
     1
  9
$DIMPOST
  1

  9
$DIMAPOST
  1

  9
$DIMALT
 70
     0
  9
$DIMALTD
 70
     2
  9
$DIMALTF
 40
25.4
  9
$DIMLFAC
 40
1.0
  9
$DIMTOFL
 70
     0
  9
$DIMTVP
 40
0.0
  9
$DIMTIX
 70
     0
  9
$DIMSOXD
 70
     0
  9
$DIMSAH
 70
     0
  9
$DIMBLK1
  1

  9
$DIMBLK2
  1

  9
$DIMSTYLE
  2
Standard
  9
$DIMCLRD
 70
     0
  9
$DIMCLRE
 70
     0
  9
$DIMCLRT
 70
     0
  9
$DIMTFAC
 40
1.0
  9
$DIMGAP
 40
0.09
  9
$DIMJUST
 70
     0
  9
$DIMSD1
 70
     0
  9
$DIMSD2
 70
     0
  9
$DIMTOLJ
 70
     1
  9
$DIMTZIN
 70
     0
  9
$DIMALTZ
 70
     0
  9
$DIMALTTZ
 70
     0
  9
$DIMUPT
 70
     0
  9
$DIMDEC
 70
     4
  9
$DIMTDEC
 70
     4
  9
$DIMALTU
 70
     2
  9
$DIMALTTD
 70
     2
  9
$DIMTXSTY
  7
Standard
  9
$DIMAUNIT
 70
     0
  9
$DIMADEC
 70
     0
  9
$DIMALTRND
 40
0.0
  9
$DIMAZIN
 70
     0
  9
$DIMDSEP
 70
    46
  9
$DIMATFIT
 70
     3
  9
$DIMFRAC
 70
     0
  9
$DIMLDRBLK
  1

  9
$DIMLUNIT
 70
     2
  9
$DIMLWD
 70
    -2
  9
$DIMLWE
 70
    -2
  9
$DIMTMOVE
 70
     0
  9
$DIMFXL
 40
1.0
  9
$DIMFXLON
 70
     0
  9
$DIMJOGANG
 40
0.7853981633974483
  9
$DIMTFILL
 70
     0
  9
$DIMTFILLCLR
 70
     0
  9
$DIMARCSYM
 70
     0
  9
$DIMLTYPE
  6

  9
$DIMLTEX1
  6

  9
$DIMLTEX2
  6

  9
$DIMTXTDIRECTION
 70
     0
  9
$LUNITS
 70
     2
  9
$LUPREC
 70
     4
  9
$SKETCHINC
 40
0.1
  9
$FILLETRAD
 40
0.5
  9
$AUNITS
 70
     0
  9
$AUPREC
 70
     0
  9
$MENU
  1
.
  9
$ELEVATION
 40
0.0
  9
$PELEVATION
 40
0.0
  9
$THICKNESS
 40
0.0
  9
$LIMCHECK
 70
     0
  9
$CHAMFERA
 40
0.5
  9
$CHAMFERB
 40
0.5
  9
$CHAMFERC
 40
1.0
  9
$CHAMFERD
 40
0.0
  9
$SKPOLY
 70
     0
  9
$TDCREATE
 40
2457917.632303229
  9
$TDUCREATE
 40
2457917.257303241
  9
$TDUPDATE
 40
2457917.632314803
  9
$TDUUPDATE
 40
2457917.257314815
  9
$TDINDWG
 40
0.0000000116
  9
$TDUSRTIMER
 40
0.0000000116
  9
$USRTIMER
 70
     1
  9
$ANGBASE
 50
0.0
  9
$ANGDIR
 70
     0
  9
$PDMODE
 70
     0
  9
$PDSIZE
 40
0.0
  9
$PLINEWID
 40
0.0
  9
$SPLFRAME
 70
     0
  9
$SPLINETYPE
 70
     6
  9
$SPLINESEGS
 70
     8
  9
$HANDSEED
  5
1A3
  9
$SURFTAB1
 70
     6
  9
$SURFTAB2
 70
     6
  9
$SURFTYPE
 70
     6
  9
$SURFU
 70
     6
  9
$SURFV
 70
     6
  9
$UCSBASE
  2

  9
$UCSNAME
  2

  9
$UCSORG
 10
0.0
 20
0.0
 30
0.0
  9
$UCSXDIR
 10
1.0
 20
0.0
 30
0.0
  9
$UCSYDIR
 10
0.0
 20
1.0
 30
0.0
  9
$UCSORTHOREF
  2

  9
$UCSORTHOVIEW
 70
     0
  9
$UCSORGTOP
 10
0.0
 20
0.0
 30
0.0
  9
$UCSORGBOTTOM
 10
0.0
 20
0.0
 30
0.0
  9
$UCSORGLEFT
 10
0.0
 20
0.0
 30
0.0
  9
$UCSORGRIGHT
 10
0.0
 20
0.0
 30
0.0
  9
$UCSORGFRONT
 10
0.0
 20
0.0
 30
0.0
  9
$UCSORGBACK
 10
0.0
 20
0.0
 30
0.0
  9
$PUCSBASE
  2

  9
$PUCSNAME
  2

  9
$PUCSORG
 10
0.0
 20
0.0
 30
0.0
  9
$PUCSXDIR
 10
1.0
 20
0.0
 30
0.0
  9
$PUCSYDIR
 10
0.0
 20
1.0
 30
0.0
  9
$PUCSORTHOREF
  2

  9
$PUCSORTHOVIEW
 70
     0
  9
$PUCSORGTOP
 10
0.0
 20
0.0
 30
0.0
  9
$PUCSORGBOTTOM
 10
0.0
 20
0.0
 30
0.0
  9
$PUCSORGLEFT
 10
0.0
 20
0.0
 30
0.0
  9
$PUCSORGRIGHT
 10
0.0
 20
0.0
 30
0.0
  9
$PUCSORGFRONT
 10
0.0
 20
0.0
 30
0.0
  9
$PUCSORGBACK
 10
0.0
 20
0.0
 30
0.0
  9
$USERI1
 70
     0
  9
$USERI2
 70
     0
  9
$USERI3
 70
     0
  9
$USERI4
 70
     0
  9
$USERI5
 70
     0
  9
$USERR1
 40
0.0
  9
$USERR2
 40
0.0
  9
$USERR3
 40
0.0
  9
$USERR4
 40
0.0
  9
$USERR5
 40
0.0
  9
$WORLDVIEW
 70
     1
  9
$SHADEDGE
 70
     3
  9
$SHADEDIF
 70
    70
  9
$TILEMODE
 70
     1
  9
$MAXACTVP
 70
    64
  9
$PINSBASE
 10
0.0
 20
0.0
 30
0.0
  9
$PLIMCHECK
 70
     0
  9
$PEXTMIN
 10
1.000000000000000E+20
 20
1.000000000000000E+20
 30
1.000000000000000E+20
  9
$PEXTMAX
 10
-1.000000000000000E+20
 20
-1.000000000000000E+20
 30
-1.000000000000000E+20
  9
$PLIMMIN
 10
0.0
 20
0.0
  9
$PLIMMAX
 10
12.0
 20
9.0
  9
$UNITMODE
 70
     0
  9
$VISRETAIN
 70
     1
  9
$PLINEGEN
 70
     0
  9
$PSLTSCALE
 70
     1
  9
$TREEDEPTH
 70
  3020
  9
$CMLSTYLE
  2
Standard
  9
$CMLJUST
 70
     0
  9
$CMLSCALE
 40
1.0
  9
$PROXYGRAPHICS
 70
     1
  9
$MEASUREMENT
 70
     0
  9
$CELWEIGHT
370
    -1
  9
$ENDCAPS
280
     0
  9
$JOINSTYLE
280
     0
  9
$LWDISPLAY
290
     1
  9
$INSUNITS
 70
     1
  9
$HYPERLINKBASE
  1

  9
$STYLESHEET
  1

  9
$XEDIT
290
     1
  9
$CEPSNTYPE
380
     0
  9
$PSTYLEMODE
290
     1
  9
$FINGERPRINTGUID
  2
{702DA64D-6C52-A6F5-408F-FEC0FC28F018}
  9
$VERSIONGUID
  2
{FAEB1C32-E019-11D5-929B-00C0DF256EC4}
  9
$EXTNAMES
290
     1
  9
$PSVPSCALE
 40
0.0
  9
$OLESTARTUP
290
     0
  9
$SORTENTS
280
   127
  9
$INDEXCTL
280
     0
  9
$HIDETEXT
280
     1
  9
$XCLIPFRAME
280
     2
  9
$HALOGAP
280
     0
  9
$OBSCOLOR
 70
   257
  9
$OBSLTYPE
280
     0
  9
$INTERSECTIONDISPLAY
280
     0
  9
$INTERSECTIONCOLOR
 70
   257
  9
$DIMASSOC
280
     2
  9
$PROJECTNAME
  1

  9
$CAMERADISPLAY
290
     0
  9
$LENSLENGTH
 40
50.0
  9
$CAMERAHEIGHT
 40
0.0
  9
$STEPSPERSEC
 40
2.0
  9
$STEPSIZE
 40
6.0
  9
$3DDWFPREC
 40
2.0
  9
$PSOLWIDTH
 40
0.25
  9
$PSOLHEIGHT
 40
4.0
  9
$LOFTANG1
 40
1.570796326794897
  9
$LOFTANG2
 40
1.570796326794897
  9
$LOFTMAG1
 40
0.0
  9
$LOFTMAG2
 40
0.0
  9
$LOFTPARAM
 70
     7
  9
$LOFTNORMALS
280
     1
  9
$LATITUDE
 40
37.795
  9
$LONGITUDE
 40
-122.394
  9
$NORTHDIRECTION
 40
0.0
  9
$TIMEZONE
 70
 -8000
  9
$LIGHTGLYPHDISPLAY
280
     1
  9
$TILEMODELIGHTSYNCH
280
     1
  9
$CMATERIAL
347
3C
  9
$SOLIDHIST
280
     1
  9
$SHOWHIST
280
     1
  9
$DWFFRAME
280
     2
  9
$DGNFRAME
280
     2
  9
$REALWORLDSCALE
290
     1
  9
$INTERFERECOLOR
 62
   256
  9
$CSHADOW
280
     0
  9
$SHADOWPLANELOCATION
 40
0.0
  0
ENDSEC
  0
SECTION
  2
CLASSES
  0
CLASS
  1
ACDBDICTIONARYWDFLT
  2
AcDbDictionaryWithDefault
  3
ObjectDBX Classes
 90
        0
 91
        4
280
     0
281
     0
  0
CLASS
  1
VISUALSTYLE
  2
AcDbVisualStyle
  3
ObjectDBX Classes
 90
     4095
 91
        4
280
     0
281
     0
  0
CLASS
  1
MATERIAL
  2
AcDbMaterial
  3
ObjectDBX Classes
 90
     1153
 91
        4
280
     0
281
     0
  0
CLASS
  1
SUN
  2
AcDbSun
  3
SCENEOE
 90
     1024
 91
        4
280
     0
281
     0
  0
ENDSEC
  0
SECTION
  2
TABLES
  0
TABLE
  2
VPORT
  5
8
330
0
100
AcDbSymbolTable
 70
     1
  0
VPORT
  5
29
330
8
100
AcDbSymbolTableRecord
100
AcDbViewportTableRecord
  2
*Active
 70
     0
 10
0.0
 20
0.0
 11
1.0
 21
1.0
 12
0.0
 22
0.0
 13
0.0
 23
0.0
 14
0.5
 24
0.5
 15
0.5
 25
0.5
 16
0.0
 26
0.0
 36
1.0
 17
91.00082462281999
 27
-128.4993055234307
 37
0.0
 40
256.9986110468615
 41
0.7081814508812795
 42
50.0
 43
0.0
 44
0.0
 50
0.0
 51
0.0
 71
     0
 72
   100
 73
     1
 74
     3
 75
     0
 76
     0
 77
     0
 78
     0
281
     0
 65
     1
110
0.0
120
0.0
130
0.0
111
1.0
121
0.0
131
0.0
112
0.0
122
1.0
132
0.0
 79
     0
146
0.0
 60
     3
 61
     5
292
     1
282
     1
141
0.0
142
0.0
 63
   250
361
3F
  0
ENDTAB
  0
TABLE
  2
LTYPE
  5
5
330
0
100
AcDbSymbolTable
 70
     1
  0
LTYPE
  5
14
330
5
100
AcDbSymbolTableRecord
100
AcDbLinetypeTableRecord
  2
ByBlock
 70
     0
  3

 72
    65
 73
     0
 40
0.0
  0
LTYPE
  5
15
330
5
100
AcDbSymbolTableRecord
100
AcDbLinetypeTableRecord
  2
ByLayer
 70
     0
  3

 72
    65
 73
     0
 40
0.0
  0
LTYPE
  5
16
330
5
100
AcDbSymbolTableRecord
100
AcDbLinetypeTableRecord
  2
Continuous
 70
     0
  3
Solid line
 72
    65
 73
     0
 40
0.0
  0
ENDTAB
  0
TABLE
  2
LAYER
  5
2
330
0
100
AcDbSymbolTable
 70
     2
  0
LAYER
  5
10
330
2
100
AcDbSymbolTableRecord
100
AcDbLayerTableRecord
  2
0
 70
     0
 62
     7
  6
Continuous
370
    -3
390
F
347
3E
  0
LAYER
  5
40
330
2
100
AcDbSymbolTableRecord
100
AcDbLayerTableRecord
  2
_U+30EC_U+30A4_U+30E4_U+30FC 1
 70
     0
 62
     7
  6
Continuous
370
    -3
390
F
347
3E
  0
ENDTAB
  0
TABLE
  2
STYLE
  5
3
330
0
100
AcDbSymbolTable
 70
     1
  0
STYLE
  5
11
330
3
100
AcDbSymbolTableRecord
100
AcDbTextStyleTableRecord
  2
Standard
 70
     0
 40
0.0
 41
1.0
 50
0.0
 71
     0
 42
0.2
  3
txt
  4

  0
ENDTAB
  0
TABLE
  2
VIEW
  5
6
330
0
100
AcDbSymbolTable
 70
     0
  0
ENDTAB
  0
TABLE
  2
UCS
  5
7
330
0
100
AcDbSymbolTable
 70
     0
  0
ENDTAB
  0
TABLE
  2
APPID
  5
9
330
0
100
AcDbSymbolTable
 70
     1
  0
APPID
  5
12
330
9
100
AcDbSymbolTableRecord
100
AcDbRegAppTableRecord
  2
ACAD
 70
     0
  0
ENDTAB
  0
TABLE
  2
DIMSTYLE
  5
A
330
0
100
AcDbSymbolTable
 70
     1
100
AcDbDimStyleTable
  0
DIMSTYLE
105
27
330
A
100
AcDbSymbolTableRecord
100
AcDbDimStyleTableRecord
  2
Standard
 70
     0
178
     0
340
11
  0
ENDTAB
  0
TABLE
  2
BLOCK_RECORD
  5
1
330
0
100
AcDbSymbolTable
 70
     6
  0
BLOCK_RECORD
  5
1F
330
1
100
AcDbSymbolTableRecord
100
AcDbBlockTableRecord
  2
*Model_Space
340
22
 70
     0
280
     1
281
     0
  0
BLOCK_RECORD
  5
1B
330
1
100
AcDbSymbolTableRecord
100
AcDbBlockTableRecord
  2
*Paper_Space
340
1E
 70
     0
280
     1
281
     0
  0
BLOCK_RECORD
  5
23
330
1
100
AcDbSymbolTableRecord
100
AcDbBlockTableRecord
  2
*Paper_Space0
340
26
 70
     0
280
     1
281
     0
  0
BLOCK_RECORD
  5
94
330
1
100
AcDbSymbolTableRecord
100
AcDbBlockTableRecord
  2
block 2
340
0
102
{BLKREFS
331
95
102
}
 70
     0
280
     1
281
     0
  0
BLOCK_RECORD
  5
B0
330
1
100
AcDbSymbolTableRecord
100
AcDbBlockTableRecord
  2
block 3
340
0
102
{BLKREFS
331
B1
102
}
 70
     0
280
     1
281
     0
  0
BLOCK_RECORD
  5
CC
330
1
100
AcDbSymbolTableRecord
100
AcDbBlockTableRecord
  2
block 4
340
0
102
{BLKREFS
331
CD
102
}
 70
     0
280
     1
281
     0
  0
BLOCK_RECORD
  5
D2
330
1
100
AcDbSymbolTableRecord
100
AcDbBlockTableRecord
  2
block 5
340
0
102
{BLKREFS
331
D3
102
}
 70
     0
280
     1
281
     0
  0
BLOCK_RECORD
  5
131
330
1
100
AcDbSymbolTableRecord
100
AcDbBlockTableRecord
  2
block 6
340
0
102
{BLKREFS
331
132
102
}
 70
     0
280
     1
281
     0
  0
ENDTAB
  0
ENDSEC
  0
SECTION
  2
BLOCKS
  0
BLOCK
  5
20
330
1F
100
AcDbEntity
  8
0
100
AcDbBlockBegin
  2
*Model_Space
 70
     0
 10
0.0
 20
0.0
 30
0.0
  3
*Model_Space
  1

  0
ENDBLK
  5
21
330
1F
100
AcDbEntity
  8
0
100
AcDbBlockEnd
  0
BLOCK
  5
1C
330
1B
100
AcDbEntity
 67
     1
  8
0
100
AcDbBlockBegin
  2
*Paper_Space
 70
     0
 10
0.0
 20
0.0
 30
0.0
  3
*Paper_Space
  1

  0
ENDBLK
  5
1D
330
1B
100
AcDbEntity
 67
     1
  8
0
100
AcDbBlockEnd
  0
BLOCK
  5
24
330
23
100
AcDbEntity
  8
0
100
AcDbBlockBegin
  2
*Paper_Space0
 70
     0
 10
0.0
 20
0.0
 30
0.0
  3
*Paper_Space0
  1

  0
ENDBLK
  5
25
330
23
100
AcDbEntity
  8
0
100
AcDbBlockEnd
  0
BLOCK
  5
96
330
94
100
AcDbEntity
  8
0
100
AcDbBlockBegin
  2
block 2
 70
     0
 10
0.0
 20
0.0
 30
0.0
  3
block 2
  1

  0
POLYLINE
  5
98
330
94
100
AcDbEntity
  8
_U+30EC_U+30A4_U+30E4_U+30FC 1
370
     0
100
AcDb2dPolyline
 66
     1
 10
0.0
 20
0.0
 30
0.0
  0
VERTEX
  5
99
330
98
100
AcDbEntity
  8
_U+30EC_U+30A4_U+30E4_U+30FC 1
370
     0
100
AcDbVertex
100
AcDb2dVertex
 10
90.21499292449487
 20
-147.9582383527674
 30
0.0
  0
VERTEX
  5
9A
330
98
100
AcDbEntity
  8
_U+30EC_U+30A4_U+30E4_U+30FC 1
370
     0
100
AcDbVertex
100
AcDb2dVertex
 10
90.21499292449487
 20
-148.305159468132
 30
0.0
  0
VERTEX
  5
9B
330
98
100
AcDbEntity
  8
_U+30EC_U+30A4_U+30E4_U+30FC 1
370
     0
100
AcDbVertex
100
AcDb2dVertex
 10
89.99709063505281
 20
-148.305159468132
 30
0.0
  0
VERTEX
  5
9C
330
98
100
AcDbEntity
  8
_U+30EC_U+30A4_U+30E4_U+30FC 1
370
     0
100
AcDbVertex
100
AcDb2dVertex
 10
89.99709063505281
 20
-147.9582383527674
 30
0.0
  0
VERTEX
  5
9D
330
98
100
AcDbEntity
  8
_U+30EC_U+30A4_U+30E4_U+30FC 1
370
     0
100
AcDbVertex
100
AcDb2dVertex
 10
89.3413167094355
 20
-147.9582383527674
 30
0.0
  0
VERTEX
  5
9E
330
98
100
AcDbEntity
  8
_U+30EC_U+30A4_U+30E4_U+30FC 1
370
     0
100
AcDbVertex
100
AcDb2dVertex
 10
89.3413167094355
 20
-147.7339626366776
 30
0.0
  0
VERTEX
  5
9F
330
98
100
AcDbEntity
  8
_U+30EC_U+30A4_U+30E4_U+30FC 1
370
     0
100
AcDbVertex
100
AcDb2dVertex
 10
90.02034502957825
 20
-146.7607231620945
 30
0.0
  0
VERTEX
  5
A0
330
98
100
AcDbEntity
  8
_U+30EC_U+30A4_U+30E4_U+30FC 1
370
     0
100
AcDbVertex
100
AcDb2dVertex
 10
90.21499292449487
 20
-146.7607231620945
 30
0.0
  0
VERTEX
  5
A1
330
98
100
AcDbEntity
  8
_U+30EC_U+30A4_U+30E4_U+30FC 1
370
     0
100
AcDbVertex
100
AcDb2dVertex
 10
90.21499292449487
 20
-147.7594563432685
 30
0.0
  0
VERTEX
  5
A2
330
98
100
AcDbEntity
  8
_U+30EC_U+30A4_U+30E4_U+30FC 1
370
     0
100
AcDbVertex
100
AcDb2dVertex
 10
90.4223876727069
 20
-147.7594563432685
 30
0.0
  0
VERTEX
  5
A3
330
98
100
AcDbEntity
  8
_U+30EC_U+30A4_U+30E4_U+30FC 1
370
     0
100
AcDbVertex
100
AcDb2dVertex
 10
90.4223876727069
 20
-147.9582383527674
 30
0.0
  0
VERTEX
  5
A4
330
98
100
AcDbEntity
  8
_U+30EC_U+30A4_U+30E4_U+30FC 1
370
     0
100
AcDbVertex
100
AcDb2dVertex
 10
90.21499292449487
 20
-147.9582383527674
 30
0.0
  0
SEQEND
  5
A5
330
98
100
AcDbEntity
  8
_U+30EC_U+30A4_U+30E4_U+30FC 1
370
     0
  0
POLYLINE
  5
A6
330
94
100
AcDbEntity
  8
_U+30EC_U+30A4_U+30E4_U+30FC 1
370
     0
100
AcDb2dPolyline
 66
     1
 10
0.0
 20
0.0
 30
0.0
  0
VERTEX
  5
A7
330
A6
100
AcDbEntity
  8
_U+30EC_U+30A4_U+30E4_U+30FC 1
370
     0
100
AcDbVertex
100
AcDb2dVertex
 10
89.99709063505281
 20
-147.1035101628769
 30
0.0
  0
VERTEX
  5
A8
330
A6
100
AcDbEntity
  8
_U+30EC_U+30A4_U+30E4_U+30FC 1
370
     0
100
AcDbVertex
100
AcDb2dVertex
 10
89.54009871893443
 20
-147.7594563432685
 30
0.0
  0
VERTEX
  5
A9
330
A6
100
AcDbEntity
  8
_U+30EC_U+30A4_U+30E4_U+30FC 1
370
     0
100
AcDbVertex
100
AcDb2dVertex
 10
89.99709063505281
 20
-147.7594563432685
 30
0.0
  0
VERTEX
  5
AA
330
A6
100
AcDbEntity
  8
_U+30EC_U+30A4_U+30E4_U+30FC 1
370
     0
100
AcDbVertex
100
AcDb2dVertex
 10
89.99709063505281
 20
-147.1035101628769
 30
0.0
  0
SEQEND
  5
AB
330
A6
100
AcDbEntity
  8
_U+30EC_U+30A4_U+30E4_U+30FC 1
370
     0
  0
HATCH
  5
AC
330
94
100
AcDbEntity
  8
_U+30EC_U+30A4_U+30E4_U+30FC 1
 62
   179
420
  2234388
100
AcDbHatch
 10
0.0
 20
0.0
 30
0.0
210
0.0
220
0.0
230
1.0
  2
SOLID
 70
     1
 71
     0
 91
        2
 92
        1
 93
       11
 72
     1
 10
90.21499292449487
 20
-147.9582383527674
 11
90.21499292449487
 21
-148.305159468132
 72
     1
 10
90.21499292449487
 20
-148.305159468132
 11
89.99709063505281
 21
-148.305159468132
 72
     1
 10
89.99709063505281
 20
-148.305159468132
 11
89.99709063505281
 21
-147.9582383527674
 72
     1
 10
89.99709063505281
 20
-147.9582383527674
 11
89.3413167094355
 21
-147.9582383527674
 72
     1
 10
89.3413167094355
 20
-147.9582383527674
 11
89.3413167094355
 21
-147.7339626366776
 72
     1
 10
89.3413167094355
 20
-147.7339626366776
 11
90.02034502957825
 21
-146.7607231620945
 72
     1
 10
90.02034502957825
 20
-146.7607231620945
 11
90.21499292449487
 21
-146.7607231620945
 72
     1
 10
90.21499292449487
 20
-146.7607231620945
 11
90.21499292449487
 21
-147.7594563432685
 72
     1
 10
90.21499292449487
 20
-147.7594563432685
 11
90.4223876727069
 21
-147.7594563432685
 72
     1
 10
90.4223876727069
 20
-147.7594563432685
 11
90.4223876727069
 21
-147.9582383527674
 72
     1
 10
90.4223876727069
 20
-147.9582383527674
 11
90.21499292449487
 21
-147.9582383527674
 97
        0
 92
        1
 93
        3
 72
     1
 10
89.99709063505281
 20
-147.1035101628769
 11
89.54009871893443
 21
-147.7594563432685
 72
     1
 10
89.54009871893443
 20
-147.7594563432685
 11
89.99709063505281
 21
-147.7594563432685
 72
     1
 10
89.99709063505281
 20
-147.7594563432685
 11
89.99709063505281
 21
-147.1035101628769
 97
        0
 75
     2
 76
     1
 98
        0
  0
SPLINE
  5
AD
330
94
100
AcDbEntity
  8
_U+30EC_U+30A4_U+30E4_U+30FC 1
370
     0
100
AcDbSpline
210
0.0
220
0.0
230
1.0
 70
    11
 71
     3
 72
    29
 73
    25
 74
     0
 42
0.0000000001
 43
0.0000000001
 12
1.0
 22
0.0
 32
0.0
 13
1.0
 23
0.0
 33
0.0
 40
0.0
 40
0.0
 40
0.0
 40
0.0
 40
1.0
 40
1.0
 40
1.0
 40
2.0
 40
2.0
 40
2.0
 40
3.0
 40
3.0
 40
3.0
 40
4.0
 40
4.0
 40
4.0
 40
5.0
 40
5.0
 40
5.0
 40
6.0
 40
6.0
 40
6.0
 40
7.0
 40
7.0
 40
7.0
 40
8.0
 40
8.0
 40
8.0
 40
8.0
 10
91.45763886602448
 20
-148.1273925410932
 30
0.0
 10
91.3496351225619
 20
-148.3368543465963
 30
0.0
 10
91.17617456487957
 20
-148.3558023717652
 30
0.0
 10
91.05973033747813
 20
-148.3558023717652
 30
0.0
 10
90.89901663309122
 20
-148.3558023717652
 30
0.0
 10
90.7572509538732
 20
-148.3092935827144
 30
0.0
 10
90.66199406370603
 20
-148.1273925410932
 30
0.0
 10
90.55846894437427
 20
-147.9327446461765
 30
0.0
 10
90.53934866443115
 20
-147.6960665863399
 30
0.0
 10
90.53934866443115
 20
-147.5331135698876
 30
0.0
 10
90.53934866443115
 20
-147.3891085786041
 30
0.0
 10
90.55622963230887
 20
-147.1372720986324
 30
0.0
 10
90.66199406370603
 20
-146.9384900891334
 30
0.0
 10
90.76999780716862
 20
-146.7355739650522
 30
0.0
 10
90.93071151155551
 20
-146.7121473157525
 30
0.0
 10
91.05973033747813
 20
-146.7121473157525
 30
0.0
 10
91.21837698457388
 20
-146.7121473157525
 30
0.0
 10
91.36220972108306
 20
-146.7565890475123
 30
0.0
 10
91.45763886602448
 20
-146.9384900891334
 30
0.0
 10
91.55685761599968
 20
-147.1310709267589
 30
0.0
 10
91.58028426529938
 20
-147.359480757431
 30
0.0
 10
91.58028426529938
 20
-147.5331135698876
 30
0.0
 10
91.58028426529938
 20
-147.7043348155045
 30
0.0
 10
91.55892467329083
 20
-147.9348117034677
 30
0.0
 10
91.45763886602448
 20
-148.1273925410932
 30
0.0
  0
SPLINE
  5
AE
330
94
100
AcDbEntity
  8
_U+30EC_U+30A4_U+30E4_U+30FC 1
370
     0
100
AcDbSpline
210
0.0
220
0.0
230
1.0
 70
    11
 71
     3
 72
    17
 73
    13
 74
     0
 42
0.0000000001
 43
0.0000000001
 12
1.0
 22
0.0
 32
0.0
 13
1.0
 23
0.0
 33
0.0
 40
0.0
 40
0.0
 40
0.0
 40
0.0
 40
1.0
 40
1.0
 40
1.0
 40
2.0
 40
2.0
 40
2.0
 40
3.0
 40
3.0
 40
3.0
 40
4.0
 40
4.0
 40
4.0
 40
4.0
 10
91.05973033747813
 20
-146.904728153378
 30
0.0
 10
90.81013316957177
 20
-146.904728153378
 30
0.0
 10
90.76362438052091
 20
-147.1882595118141
 30
0.0
 10
90.76362438052091
 20
-147.5331135698876
 30
0.0
 10
90.76362438052091
 20
-147.8524739213702
 30
0.0
 10
90.79962562834176
 20
-148.1611544768486
 30
0.0
 10
91.05973033747813
 20
-148.1611544768486
 30
0.0
 10
91.30726044809333
 20
-148.1611544768486
 30
0.0
 10
91.35600854920962
 20
-147.8800346852522
 30
0.0
 10
91.35600854920962
 20
-147.5331135698876
 30
0.0
 10
91.35600854920962
 20
-147.2134087088564
 30
0.0
 10
91.31776798932334
 20
-146.904728153378
 30
0.0
 10
91.05973033747813
 20
-146.904728153378
 30
0.0
  0
HATCH
  5
AF
330
94
100
AcDbEntity
  8
_U+30EC_U+30A4_U+30E4_U+30FC 1
 62
   179
420
  2234388
100
AcDbHatch
 10
0.0
 20
0.0
 30
0.0
210
0.0
220
0.0
230
1.0
  2
SOLID
 70
     1
 71
     0
 91
        2
 92
        1
 93
        1
 72
     4
 94
        3
 73
     0
 74
     1
 95
       29
 96
       25
 40
0.0
 40
0.0
 40
0.0
 40
0.0
 40
1.0
 40
1.0
 40
1.0
 40
2.0
 40
2.0
 40
2.0
 40
3.0
 40
3.0
 40
3.0
 40
4.0
 40
4.0
 40
4.0
 40
5.0
 40
5.0
 40
5.0
 40
6.0
 40
6.0
 40
6.0
 40
7.0
 40
7.0
 40
7.0
 40
8.0
 40
8.0
 40
8.0
 40
8.0
 10
91.45763886602448
 20
-148.1273925410932
 10
91.3496351225619
 20
-148.3368543465963
 10
91.17617456487957
 20
-148.3558023717652
 10
91.05973033747813
 20
-148.3558023717652
 10
90.89901663309122
 20
-148.3558023717652
 10
90.7572509538732
 20
-148.3092935827144
 10
90.66199406370603
 20
-148.1273925410932
 10
90.55846894437427
 20
-147.9327446461765
 10
90.53934866443115
 20
-147.6960665863399
 10
90.53934866443115
 20
-147.5331135698876
 10
90.53934866443115
 20
-147.3891085786041
 10
90.55622963230887
 20
-147.1372720986324
 10
90.66199406370603
 20
-146.9384900891334
 10
90.76999780716862
 20
-146.7355739650522
 10
90.93071151155551
 20
-146.7121473157525
 10
91.05973033747813
 20
-146.7121473157525
 10
91.21837698457388
 20
-146.7121473157525
 10
91.36220972108306
 20
-146.7565890475123
 10
91.45763886602448
 20
-146.9384900891334
 10
91.55685761599968
 20
-147.1310709267589
 10
91.58028426529938
 20
-147.359480757431
 10
91.58028426529938
 20
-147.5331135698876
 10
91.58028426529938
 20
-147.7043348155045
 10
91.55892467329083
 20
-147.9348117034677
 10
91.45763886602448
 20
-148.1273925410932
 97
        0
 97
        0
 92
        1
 93
        1
 72
     4
 94
        3
 73
     0
 74
     1
 95
       17
 96
       13
 40
0.0
 40
0.0
 40
0.0
 40
0.0
 40
1.0
 40
1.0
 40
1.0
 40
2.0
 40
2.0
 40
2.0
 40
3.0
 40
3.0
 40
3.0
 40
4.0
 40
4.0
 40
4.0
 40
4.0
 10
91.05973033747813
 20
-146.904728153378
 10
90.81013316957177
 20
-146.904728153378
 10
90.76362438052091
 20
-147.1882595118141
 10
90.76362438052091
 20
-147.5331135698876
 10
90.76362438052091
 20
-147.8524739213702
 10
90.79962562834176
 20
-148.1611544768486
 10
91.05973033747813
 20
-148.1611544768486
 10
91.30726044809333
 20
-148.1611544768486
 10
91.35600854920962
 20
-147.8800346852522
 10
91.35600854920962
 20
-147.5331135698876
 10
91.35600854920962
 20
-147.2134087088564
 10
91.31776798932334
 20
-146.904728153378
 10
91.05973033747813
 20
-146.904728153378
 97
        0
 97
        0
 75
     2
 76
     1
 98
        0
  0
ENDBLK
  5
97
330
94
100
AcDbEntity
  8
0
100
AcDbBlockEnd
  0
BLOCK
  5
B2
330
B0
100
AcDbEntity
  8
0
100
AcDbBlockBegin
  2
block 3
 70
     0
 10
0.0
 20
0.0
 30
0.0
  3
block 3
  1

  0
POLYLINE
  5
B4
330
B0
100
AcDbEntity
  8
_U+30EC_U+30A4_U+30E4_U+30FC 1
370
     0
100
AcDb2dPolyline
 66
     1
 10
0.0
 20
0.0
 30
0.0
  0
VERTEX
  5
B5
330
B4
100
AcDbEntity
  8
_U+30EC_U+30A4_U+30E4_U+30FC 1
370
     0
100
AcDbVertex
100
AcDb2dVertex
 10
67.50664603347056
 20
-124.3786268135234
 30
0.0
  0
VERTEX
  5
B6
330
B4
100
AcDbEntity
  8
_U+30EC_U+30A4_U+30E4_U+30FC 1
370
     0
100
AcDbVertex
100
AcDb2dVertex
 10
67.85356714883522
 20
-124.3786268135234
 30
0.0
  0
VERTEX
  5
B7
330
B4
100
AcDbEntity
  8
_U+30EC_U+30A4_U+30E4_U+30FC 1
370
     0
100
AcDbVertex
100
AcDb2dVertex
 10
67.85356714883522
 20
-124.5965291029655
 30
0.0
  0
VERTEX
  5
B8
330
B4
100
AcDbEntity
  8
_U+30EC_U+30A4_U+30E4_U+30FC 1
370
     0
100
AcDbVertex
100
AcDb2dVertex
 10
67.50664603347056
 20
-124.5965291029655
 30
0.0
  0
VERTEX
  5
B9
330
B4
100
AcDbEntity
  8
_U+30EC_U+30A4_U+30E4_U+30FC 1
370
     0
100
AcDbVertex
100
AcDb2dVertex
 10
67.50664603347056
 20
-125.2523030285828
 30
0.0
  0
VERTEX
  5
BA
330
B4
100
AcDbEntity
  8
_U+30EC_U+30A4_U+30E4_U+30FC 1
370
     0
100
AcDbVertex
100
AcDb2dVertex
 10
67.2823703173808
 20
-125.2523030285828
 30
0.0
  0
VERTEX
  5
BB
330
B4
100
AcDbEntity
  8
_U+30EC_U+30A4_U+30E4_U+30FC 1
370
     0
100
AcDbVertex
100
AcDb2dVertex
 10
66.30930309757198
 20
-124.57327470844
 30
0.0
  0
VERTEX
  5
BC
330
B4
100
AcDbEntity
  8
_U+30EC_U+30A4_U+30E4_U+30FC 1
370
     0
100
AcDbVertex
100
AcDb2dVertex
 10
66.30930309757198
 20
-124.3786268135234
 30
0.0
  0
VERTEX
  5
BD
330
B4
100
AcDbEntity
  8
_U+30EC_U+30A4_U+30E4_U+30FC 1
370
     0
100
AcDbVertex
100
AcDb2dVertex
 10
67.30769176919739
 20
-124.3786268135234
 30
0.0
  0
VERTEX
  5
BE
330
B4
100
AcDbEntity
  8
_U+30EC_U+30A4_U+30E4_U+30FC 1
370
     0
100
AcDbVertex
100
AcDb2dVertex
 10
67.30769176919739
 20
-124.1712320653114
 30
0.0
  0
VERTEX
  5
BF
330
B4
100
AcDbEntity
  8
_U+30EC_U+30A4_U+30E4_U+30FC 1
370
     0
100
AcDbVertex
100
AcDb2dVertex
 10
67.50664603347056
 20
-124.1712320653114
 30
0.0
  0
VERTEX
  5
C0
330
B4
100
AcDbEntity
  8
_U+30EC_U+30A4_U+30E4_U+30FC 1
370
     0
100
AcDbVertex
100
AcDb2dVertex
 10
67.50664603347056
 20
-124.3786268135234
 30
0.0
  0
SEQEND
  5
C1
330
B4
100
AcDbEntity
  8
_U+30EC_U+30A4_U+30E4_U+30FC 1
370
     0
  0
POLYLINE
  5
C2
330
B0
100
AcDbEntity
  8
_U+30EC_U+30A4_U+30E4_U+30FC 1
370
     0
100
AcDb2dPolyline
 66
     1
 10
0.0
 20
0.0
 30
0.0
  0
VERTEX
  5
C3
330
C2
100
AcDbEntity
  8
_U+30EC_U+30A4_U+30E4_U+30FC 1
370
     0
100
AcDbVertex
100
AcDb2dVertex
 10
66.65191784358008
 20
-124.5965291029655
 30
0.0
  0
VERTEX
  5
C4
330
C2
100
AcDbEntity
  8
_U+30EC_U+30A4_U+30E4_U+30FC 1
370
     0
100
AcDbVertex
100
AcDb2dVertex
 10
67.30769176919739
 20
-125.0535210190838
 30
0.0
  0
VERTEX
  5
C5
330
C2
100
AcDbEntity
  8
_U+30EC_U+30A4_U+30E4_U+30FC 1
370
     0
100
AcDbVertex
100
AcDb2dVertex
 10
67.30769176919739
 20
-124.5965291029655
 30
0.0
  0
VERTEX
  5
C6
330
C2
100
AcDbEntity
  8
_U+30EC_U+30A4_U+30E4_U+30FC 1
370
     0
100
AcDbVertex
100
AcDb2dVertex
 10
66.65191784358008
 20
-124.5965291029655
 30
0.0
  0
SEQEND
  5
C7
330
C2
100
AcDbEntity
  8
_U+30EC_U+30A4_U+30E4_U+30FC 1
370
     0
  0
HATCH
  5
C8
330
B0
100
AcDbEntity
  8
_U+30EC_U+30A4_U+30E4_U+30FC 1
 62
   179
420
  2234388
100
AcDbHatch
 10
0.0
 20
0.0
 30
0.0
210
0.0
220
0.0
230
1.0
  2
SOLID
 70
     1
 71
     0
 91
        2
 92
        1
 93
       11
 72
     1
 10
67.50664603347056
 20
-124.3786268135234
 11
67.85356714883522
 21
-124.3786268135234
 72
     1
 10
67.85356714883522
 20
-124.3786268135234
 11
67.85356714883522
 21
-124.5965291029655
 72
     1
 10
67.85356714883522
 20
-124.5965291029655
 11
67.50664603347056
 21
-124.5965291029655
 72
     1
 10
67.50664603347056
 20
-124.5965291029655
 11
67.50664603347056
 21
-125.2523030285828
 72
     1
 10
67.50664603347056
 20
-125.2523030285828
 11
67.2823703173808
 21
-125.2523030285828
 72
     1
 10
67.2823703173808
 20
-125.2523030285828
 11
66.30930309757198
 21
-124.57327470844
 72
     1
 10
66.30930309757198
 20
-124.57327470844
 11
66.30930309757198
 21
-124.3786268135234
 72
     1
 10
66.30930309757198
 20
-124.3786268135234
 11
67.30769176919739
 21
-124.3786268135234
 72
     1
 10
67.30769176919739
 20
-124.3786268135234
 11
67.30769176919739
 21
-124.1712320653114
 72
     1
 10
67.30769176919739
 20
-124.1712320653114
 11
67.50664603347056
 21
-124.1712320653114
 72
     1
 10
67.50664603347056
 20
-124.1712320653114
 11
67.50664603347056
 21
-124.3786268135234
 97
        0
 92
        1
 93
        3
 72
     1
 10
66.65191784358008
 20
-124.5965291029655
 11
67.30769176919739
 21
-125.0535210190838
 72
     1
 10
67.30769176919739
 20
-125.0535210190838
 11
67.30769176919739
 21
-124.5965291029655
 72
     1
 10
67.30769176919739
 20
-124.5965291029655
 11
66.65191784358008
 21
-124.5965291029655
 97
        0
 75
     2
 76
     1
 98
        0
  0
SPLINE
  5
C9
330
B0
100
AcDbEntity
  8
_U+30EC_U+30A4_U+30E4_U+30FC 1
370
     0
100
AcDbSpline
210
0.0
220
0.0
230
1.0
 70
    11
 71
     3
 72
    29
 73
    25
 74
     0
 42
0.0000000001
 43
0.0000000001
 12
1.0
 22
0.0
 32
0.0
 13
1.0
 23
0.0
 33
0.0
 40
0.0
 40
0.0
 40
0.0
 40
0.0
 40
1.0
 40
1.0
 40
1.0
 40
2.0
 40
2.0
 40
2.0
 40
3.0
 40
3.0
 40
3.0
 40
4.0
 40
4.0
 40
4.0
 40
5.0
 40
5.0
 40
5.0
 40
6.0
 40
6.0
 40
6.0
 40
7.0
 40
7.0
 40
7.0
 40
8.0
 40
8.0
 40
8.0
 40
8.0
 10
67.67580022179634
 20
-123.1361531267681
 30
0.0
 10
67.88526202729952
 20
-123.2439846154564
 30
0.0
 10
67.90438230724266
 20
-123.4174451731387
 30
0.0
 10
67.90438230724266
 20
-123.5338894005401
 30
0.0
 10
67.90438230724266
 20
-123.6946031049271
 30
0.0
 10
67.85787351819178
 20
-123.8363687841451
 30
0.0
 10
67.67580022179634
 20
-123.9316256743122
 30
0.0
 10
67.48115232687971
 20
-124.035150793644
 30
0.0
 10
67.24430201226879
 20
-124.0542710735871
 30
0.0
 10
67.08134899581647
 20
-124.0542710735871
 30
0.0
 10
66.93751625930729
 20
-124.0542710735871
 30
0.0
 10
66.68585203410979
 20
-124.0373901057094
 30
0.0
 10
66.48689776983662
 20
-123.9316256743122
 30
0.0
 10
66.28380939098113
 20
-123.8236219308497
 30
0.0
 10
66.2605549964557
 20
-123.6629082264627
 30
0.0
 10
66.2605549964557
 20
-123.5338894005401
 30
0.0
 10
66.2605549964557
 20
-123.3752427534444
 30
0.0
 10
66.30499672821541
 20
-123.2314100169352
 30
0.0
 10
66.48689776983662
 20
-123.1361531267681
 30
0.0
 10
66.67947860746207
 20
-123.0367621220186
 30
0.0
 10
66.90788843813414
 20
-123.0135077274932
 30
0.0
 10
67.08134899581647
 20
-123.0135077274932
 30
0.0
 10
67.25274249620765
 20
-123.0135077274932
 30
0.0
 10
67.48339163894512
 20
-123.0345228099532
 30
0.0
 10
67.67580022179634
 20
-123.1361531267681
 30
0.0
  0
SPLINE
  5
CA
330
B0
100
AcDbEntity
  8
_U+30EC_U+30A4_U+30E4_U+30FC 1
370
     0
100
AcDbSpline
210
0.0
220
0.0
230
1.0
 70
    11
 71
     3
 72
    17
 73
    13
 74
     0
 42
0.0000000001
 43
0.0000000001
 12
1.0
 22
0.0
 32
0.0
 13
1.0
 23
0.0
 33
0.0
 40
0.0
 40
0.0
 40
0.0
 40
0.0
 40
1.0
 40
1.0
 40
1.0
 40
2.0
 40
2.0
 40
2.0
 40
3.0
 40
3.0
 40
3.0
 40
4.0
 40
4.0
 40
4.0
 40
4.0
 10
66.45313583408117
 20
-123.5338894005401
 30
0.0
 10
66.45313583408117
 20
-123.7834865684465
 30
0.0
 10
66.73666719251723
 20
-123.8299953574974
 30
0.0
 10
67.08134899581647
 20
-123.8299953574974
 30
0.0
 10
67.4008816020734
 20
-123.8299953574974
 30
0.0
 10
67.70973441232604
 20
-123.7939941096765
 30
0.0
 10
67.70973441232604
 20
-123.5338894005401
 30
0.0
 10
67.70973441232604
 20
-123.2863592899249
 30
0.0
 10
67.42827011118113
 20
-123.2376111888087
 30
0.0
 10
67.08134899581647
 20
-123.2376111888087
 30
0.0
 10
66.76198864433381
 20
-123.2376111888087
 30
0.0
 10
66.45313583408117
 20
-123.2758517486949
 30
0.0
 10
66.45313583408117
 20
-123.5338894005401
 30
0.0
  0
HATCH
  5
CB
330
B0
100
AcDbEntity
  8
_U+30EC_U+30A4_U+30E4_U+30FC 1
 62
   179
420
  2234388
100
AcDbHatch
 10
0.0
 20
0.0
 30
0.0
210
0.0
220
0.0
230
1.0
  2
SOLID
 70
     1
 71
     0
 91
        2
 92
        1
 93
        1
 72
     4
 94
        3
 73
     0
 74
     1
 95
       29
 96
       25
 40
0.0
 40
0.0
 40
0.0
 40
0.0
 40
1.0
 40
1.0
 40
1.0
 40
2.0
 40
2.0
 40
2.0
 40
3.0
 40
3.0
 40
3.0
 40
4.0
 40
4.0
 40
4.0
 40
5.0
 40
5.0
 40
5.0
 40
6.0
 40
6.0
 40
6.0
 40
7.0
 40
7.0
 40
7.0
 40
8.0
 40
8.0
 40
8.0
 40
8.0
 10
67.67580022179634
 20
-123.1361531267681
 10
67.88526202729952
 20
-123.2439846154564
 10
67.90438230724266
 20
-123.4174451731387
 10
67.90438230724266
 20
-123.5338894005401
 10
67.90438230724266
 20
-123.6946031049271
 10
67.85787351819178
 20
-123.8363687841451
 10
67.67580022179634
 20
-123.9316256743122
 10
67.48115232687971
 20
-124.035150793644
 10
67.24430201226879
 20
-124.0542710735871
 10
67.08134899581647
 20
-124.0542710735871
 10
66.93751625930729
 20
-124.0542710735871
 10
66.68585203410979
 20
-124.0373901057094
 10
66.48689776983662
 20
-123.9316256743122
 10
66.28380939098113
 20
-123.8236219308497
 10
66.2605549964557
 20
-123.6629082264627
 10
66.2605549964557
 20
-123.5338894005401
 10
66.2605549964557
 20
-123.3752427534444
 10
66.30499672821541
 20
-123.2314100169352
 10
66.48689776983662
 20
-123.1361531267681
 10
66.67947860746207
 20
-123.0367621220186
 10
66.90788843813414
 20
-123.0135077274932
 10
67.08134899581647
 20
-123.0135077274932
 10
67.25274249620765
 20
-123.0135077274932
 10
67.48339163894512
 20
-123.0345228099532
 10
67.67580022179634
 20
-123.1361531267681
 97
        0
 97
        0
 92
        1
 93
        1
 72
     4
 94
        3
 73
     0
 74
     1
 95
       17
 96
       13
 40
0.0
 40
0.0
 40
0.0
 40
0.0
 40
1.0
 40
1.0
 40
1.0
 40
2.0
 40
2.0
 40
2.0
 40
3.0
 40
3.0
 40
3.0
 40
4.0
 40
4.0
 40
4.0
 40
4.0
 10
66.45313583408117
 20
-123.5338894005401
 10
66.45313583408117
 20
-123.7834865684465
 10
66.73666719251723
 20
-123.8299953574974
 10
67.08134899581647
 20
-123.8299953574974
 10
67.4008816020734
 20
-123.8299953574974
 10
67.70973441232604
 20
-123.7939941096765
 10
67.70973441232604
 20
-123.5338894005401
 10
67.70973441232604
 20
-123.2863592899249
 10
67.42827011118113
 20
-123.2376111888087
 10
67.08134899581647
 20
-123.2376111888087
 10
66.76198864433381
 20
-123.2376111888087
 10
66.45313583408117
 20
-123.2758517486949
 10
66.45313583408117
 20
-123.5338894005401
 97
        0
 97
        0
 75
     2
 76
     1
 98
        0
  0
ENDBLK
  5
B3
330
B0
100
AcDbEntity
  8
0
100
AcDbBlockEnd
  0
BLOCK
  5
CE
330
CC
100
AcDbEntity
  8
0
100
AcDbBlockBegin
  2
block 4
 70
     0
 10
0.0
 20
0.0
 30
0.0
  3
block 4
  1

  0
SPLINE
  5
D0
330
CC
100
AcDbEntity
  8
_U+30EC_U+30A4_U+30E4_U+30FC 1
370
     0
100
AcDbSpline
210
0.0
220
0.0
230
1.0
 70
    11
 71
     3
 72
    53
 73
    49
 74
     0
 42
0.0000000001
 43
0.0000000001
 12
1.0
 22
0.0
 32
0.0
 13
1.0
 23
0.0
 33
0.0
 40
0.0
 40
0.0
 40
0.0
 40
0.0
 40
1.0
 40
1.0
 40
1.0
 40
2.0
 40
2.0
 40
2.0
 40
3.0
 40
3.0
 40
3.0
 40
4.0
 40
4.0
 40
4.0
 40
5.0
 40
5.0
 40
5.0
 40
6.0
 40
6.0
 40
6.0
 40
7.0
 40
7.0
 40
7.0
 40
8.0
 40
8.0
 40
8.0
 40
9.0
 40
9.0
 40
9.0
 40
10.0
 40
10.0
 40
10.0
 40
11.0
 40
11.0
 40
11.0
 40
12.0
 40
12.0
 40
12.0
 40
13.0
 40
13.0
 40
13.0
 40
14.0
 40
14.0
 40
14.0
 40
15.0
 40
15.0
 40
15.0
 40
16.0
 40
16.0
 40
16.0
 40
16.0
 10
114.596622692705
 20
-141.6526800861146
 30
0.0
 10
114.596622692705
 20
-141.7308837536298
 30
0.0
 10
114.5797417248273
 20
-141.8325140704447
 30
0.0
 10
114.5163519678987
 20
-141.9341443872595
 30
0.0
 10
114.4064534219192
 20
-142.1074326901676
 30
0.0
 10
114.2751952839312
 20
-142.1287922821761
 30
0.0
 10
114.1673637952429
 20
-142.147740307345
 30
0.0
 10
114.1673637952429
 20
-142.147740307345
 30
0.0
 10
114.1673637952429
 20
-141.9255316485464
 30
0.0
 10
114.1673637952429
 20
-141.9255316485464
 30
0.0
 10
114.3661458047418
 20
-141.8707546303309
 30
0.0
 10
114.395773625915
 20
-141.7436306069252
 30
0.0
 10
114.395773625915
 20
-141.6506130288235
 30
0.0
 10
114.395773625915
 20
-141.5110866616708
 30
0.0
 10
114.2962103663912
 20
-141.3588134412228
 30
0.0
 10
114.0636664211369
 20
-141.3588134412228
 30
0.0
 10
113.8076958265828
 20
-141.3588134412228
 30
0.0
 10
113.7377603882322
 20
-141.5386474255529
 30
0.0
 10
113.7377603882322
 20
-141.6592257675366
 30
0.0
 10
113.7377603882322
 20
-141.6909206460009
 30
0.0
 10
113.7377603882322
 20
-141.8325140704447
 30
0.0
 10
113.8669514689291
 20
-141.9213975339641
 30
0.0
 10
113.8669514689291
 20
-141.9213975339641
 30
0.0
 10
113.8480034437602
 20
-142.0970974037118
 30
0.0
 10
113.8480034437602
 20
-142.0970974037118
 30
0.0
 10
113.8480034437602
 20
-142.0970974037118
 30
0.0
 10
113.0015434830343
 20
-141.9765190617281
 30
0.0
 10
113.0015434830343
 20
-141.9765190617281
 30
0.0
 10
113.0015434830343
 20
-141.9765190617281
 30
0.0
 10
113.0015434830343
 20
-141.1979274820616
 30
0.0
 10
113.0015434830343
 20
-141.1979274820616
 30
0.0
 10
113.0015434830343
 20
-141.1979274820616
 30
0.0
 10
113.196191377951
 20
-141.1979274820616
 30
0.0
 10
113.196191377951
 20
-141.1979274820616
 30
0.0
 10
113.196191377951
 20
-141.1979274820616
 30
0.0
 10
113.196191377951
 20
-141.8135660452758
 30
0.0
 10
113.196191377951
 20
-141.8135660452758
 30
0.0
 10
113.196191377951
 20
-141.8135660452758
 30
0.0
 10
113.6192491035396
 20
-141.8790228594955
 30
0.0
 10
113.6192491035396
 20
-141.8790228594955
 30
0.0
 10
113.5854871677842
 20
-141.8177001598581
 30
0.0
 10
113.5451795506068
 20
-141.7353623777606
 30
0.0
 10
113.5451795506068
 20
-141.616851093068
 30
0.0
 10
113.5451795506068
 20
-141.3629475558051
 30
0.0
 10
113.7315592163588
 20
-141.1259249864199
 30
0.0
 10
114.044718395968
 20
-141.1259249864199
 30
0.0
 10
114.3620116901595
 20
-141.1259249864199
 30
0.0
 10
114.596622692705
 20
-141.3502007025097
 30
0.0
 10
114.596622692705
 20
-141.6526800861146
 30
0.0
  0
HATCH
  5
D1
330
CC
100
AcDbEntity
  8
_U+30EC_U+30A4_U+30E4_U+30FC 1
 62
   179
420
  2234388
100
AcDbHatch
 10
0.0
 20
0.0
 30
0.0
210
0.0
220
0.0
230
1.0
  2
SOLID
 70
     1
 71
     0
 91
        1
 92
        1
 93
        1
 72
     4
 94
        3
 73
     0
 74
     1
 95
       53
 96
       49
 40
0.0
 40
0.0
 40
0.0
 40
0.0
 40
1.0
 40
1.0
 40
1.0
 40
2.0
 40
2.0
 40
2.0
 40
3.0
 40
3.0
 40
3.0
 40
4.0
 40
4.0
 40
4.0
 40
5.0
 40
5.0
 40
5.0
 40
6.0
 40
6.0
 40
6.0
 40
7.0
 40
7.0
 40
7.0
 40
8.0
 40
8.0
 40
8.0
 40
9.0
 40
9.0
 40
9.0
 40
10.0
 40
10.0
 40
10.0
 40
11.0
 40
11.0
 40
11.0
 40
12.0
 40
12.0
 40
12.0
 40
13.0
 40
13.0
 40
13.0
 40
14.0
 40
14.0
 40
14.0
 40
15.0
 40
15.0
 40
15.0
 40
16.0
 40
16.0
 40
16.0
 40
16.0
 10
114.596622692705
 20
-141.6526800861146
 10
114.596622692705
 20
-141.7308837536298
 10
114.5797417248273
 20
-141.8325140704447
 10
114.5163519678987
 20
-141.9341443872595
 10
114.4064534219192
 20
-142.1074326901676
 10
114.2751952839312
 20
-142.1287922821761
 10
114.1673637952429
 20
-142.147740307345
 10
114.1673637952429
 20
-142.147740307345
 10
114.1673637952429
 20
-141.9255316485464
 10
114.1673637952429
 20
-141.9255316485464
 10
114.3661458047418
 20
-141.8707546303309
 10
114.395773625915
 20
-141.7436306069252
 10
114.395773625915
 20
-141.6506130288235
 10
114.395773625915
 20
-141.5110866616708
 10
114.2962103663912
 20
-141.3588134412228
 10
114.0636664211369
 20
-141.3588134412228
 10
113.8076958265828
 20
-141.3588134412228
 10
113.7377603882322
 20
-141.5386474255529
 10
113.7377603882322
 20
-141.6592257675366
 10
113.7377603882322
 20
-141.6909206460009
 10
113.7377603882322
 20
-141.8325140704447
 10
113.8669514689291
 20
-141.9213975339641
 10
113.8669514689291
 20
-141.9213975339641
 10
113.8480034437602
 20
-142.0970974037118
 10
113.8480034437602
 20
-142.0970974037118
 10
113.8480034437602
 20
-142.0970974037118
 10
113.0015434830343
 20
-141.9765190617281
 10
113.0015434830343
 20
-141.9765190617281
 10
113.0015434830343
 20
-141.9765190617281
 10
113.0015434830343
 20
-141.1979274820616
 10
113.0015434830343
 20
-141.1979274820616
 10
113.0015434830343
 20
-141.1979274820616
 10
113.196191377951
 20
-141.1979274820616
 10
113.196191377951
 20
-141.1979274820616
 10
113.196191377951
 20
-141.1979274820616
 10
113.196191377951
 20
-141.8135660452758
 10
113.196191377951
 20
-141.8135660452758
 10
113.196191377951
 20
-141.8135660452758
 10
113.6192491035396
 20
-141.8790228594955
 10
113.6192491035396
 20
-141.8790228594955
 10
113.5854871677842
 20
-141.8177001598581
 10
113.5451795506068
 20
-141.7353623777606
 10
113.5451795506068
 20
-141.616851093068
 10
113.5451795506068
 20
-141.3629475558051
 10
113.7315592163588
 20
-141.1259249864199
 10
114.044718395968
 20
-141.1259249864199
 10
114.3620116901595
 20
-141.1259249864199
 10
114.596622692705
 20
-141.3502007025097
 10
114.596622692705
 20
-141.6526800861146
 97
        0
 97
        0
 75
     2
 76
     1
 98
        0
  0
ENDBLK
  5
CF
330
CC
100
AcDbEntity
  8
0
100
AcDbBlockEnd
  0
BLOCK
  5
D4
330
D2
100
AcDbEntity
  8
0
100
AcDbBlockBegin
  2
block 5
 70
     0
 10
0.0
 20
0.0
 30
0.0
  3
block 5
  1

  0
SPLINE
  5
D6
330
D2
100
AcDbEntity
  8
_U+30EC_U+30A4_U+30E4_U+30FC 1
370
     0
100
AcDbSpline
210
0.0
220
0.0
230
1.0
 70
    11
 71
     3
 72
   197
 73
   193
 74
     0
 42
0.0000000001
 43
0.0000000001
 12
1.0
 22
0.0
 32
0.0
 13
1.0
 23
0.0
 33
0.0
 40
0.0
 40
0.0
 40
0.0
 40
0.0
 40
1.0
 40
1.0
 40
1.0
 40
2.0
 40
2.0
 40
2.0
 40
3.0
 40
3.0
 40
3.0
 40
4.0
 40
4.0
 40
4.0
 40
5.0
 40
5.0
 40
5.0
 40
6.0
 40
6.0
 40
6.0
 40
7.0
 40
7.0
 40
7.0
 40
8.0
 40
8.0
 40
8.0
 40
9.0
 40
9.0
 40
9.0
 40
10.0
 40
10.0
 40
10.0
 40
11.0
 40
11.0
 40
11.0
 40
12.0
 40
12.0
 40
12.0
 40
13.0
 40
13.0
 40
13.0
 40
14.0
 40
14.0
 40
14.0
 40
15.0
 40
15.0
 40
15.0
 40
16.0
 40
16.0
 40
16.0
 40
17.0
 40
17.0
 40
17.0
 40
18.0
 40
18.0
 40
18.0
 40
19.0
 40
19.0
 40
19.0
 40
20.0
 40
20.0
 40
20.0
 40
21.0
 40
21.0
 40
21.0
 40
22.0
 40
22.0
 40
22.0
 40
23.0
 40
23.0
 40
23.0
 40
24.0
 40
24.0
 40
24.0
 40
25.0
 40
25.0
 40
25.0
 40
26.0
 40
26.0
 40
26.0
 40
27.0
 40
27.0
 40
27.0
 40
28.0
 40
28.0
 40
28.0
 40
29.0
 40
29.0
 40
29.0
 40
30.0
 40
30.0
 40
30.0
 40
31.0
 40
31.0
 40
31.0
 40
32.0
 40
32.0
 40
32.0
 40
33.0
 40
33.0
 40
33.0
 40
34.0
 40
34.0
 40
34.0
 40
35.0
 40
35.0
 40
35.0
 40
36.0
 40
36.0
 40
36.0
 40
37.0
 40
37.0
 40
37.0
 40
38.0
 40
38.0
 40
38.0
 40
39.0
 40
39.0
 40
39.0
 40
40.0
 40
40.0
 40
40.0
 40
41.0
 40
41.0
 40
41.0
 40
42.0
 40
42.0
 40
42.0
 40
43.0
 40
43.0
 40
43.0
 40
44.0
 40
44.0
 40
44.0
 40
45.0
 40
45.0
 40
45.0
 40
46.0
 40
46.0
 40
46.0
 40
47.0
 40
47.0
 40
47.0
 40
48.0
 40
48.0
 40
48.0
 40
49.0
 40
49.0
 40
49.0
 40
50.0
 40
50.0
 40
50.0
 40
51.0
 40
51.0
 40
51.0
 40
52.0
 40
52.0
 40
52.0
 40
53.0
 40
53.0
 40
53.0
 40
54.0
 40
54.0
 40
54.0
 40
55.0
 40
55.0
 40
55.0
 40
56.0
 40
56.0
 40
56.0
 40
57.0
 40
57.0
 40
57.0
 40
58.0
 40
58.0
 40
58.0
 40
59.0
 40
59.0
 40
59.0
 40
60.0
 40
60.0
 40
60.0
 40
61.0
 40
61.0
 40
61.0
 40
62.0
 40
62.0
 40
62.0
 40
63.0
 40
63.0
 40
63.0
 40
64.0
 40
64.0
 40
64.0
 40
64.0
 10
89.75042179830892
 20
-151.3220295845653
 30
0.0
 10
89.73974200230465
 20
-151.3516574057385
 30
0.0
 10
89.71648760777921
 20
-151.3981661947894
 30
0.0
 10
89.7059800665492
 20
-151.4257269586714
 30
0.0
 10
89.7059800665492
 20
-151.4257269586714
 30
0.0
 10
89.64465736691176
 20
-151.5780001791194
 30
0.0
 10
89.64465736691176
 20
-151.5780001791194
 30
0.0
 10
89.63397757090748
 20
-151.6034938857102
 30
0.0
 10
89.58540172456546
 20
-151.7154594889809
 30
0.0
 10
89.57265487127003
 20
-151.7388861382806
 30
0.0
 10
89.57058781397889
 20
-151.745087310154
 30
0.0
 10
89.56628144462232
 20
-151.7537000488671
 30
0.0
 10
89.56421438733118
 20
-151.7599012207406
 30
0.0
 10
89.56421438733118
 20
-151.7599012207406
 30
0.0
 10
89.35475258182798
 20
-151.7071912598163
 30
0.0
 10
89.35475258182798
 20
-151.7071912598163
 30
0.0
 10
89.43312850411742
 20
-151.5972927138368
 30
0.0
 10
89.49445120375486
 20
-151.4619004612665
 30
0.0
 10
89.52614608221916
 20
-151.3516574057385
 30
0.0
 10
89.52614608221916
 20
-151.3516574057385
 30
0.0
 10
89.0607136821619
 20
-151.3516574057385
 30
0.0
 10
89.0607136821619
 20
-151.3516574057385
 30
0.0
 10
88.98027070258132
 20
-151.516677479482
 30
0.0
 10
88.91257457629617
 20
-151.5948811469971
 30
0.0
 10
88.87881264054072
 20
-151.6351887641745
 30
0.0
 10
88.87881264054072
 20
-151.6351887641745
 30
0.0
 10
88.75616724126583
 20
-151.5697319499548
 30
0.0
 10
88.75616724126583
 20
-151.5697319499548
 30
0.0
 10
88.75616724126583
 20
-151.5697319499548
 30
0.0
 10
88.75616724126583
 20
-151.7409531955717
 30
0.0
 10
88.75616724126583
 20
-151.7409531955717
 30
0.0
 10
88.75616724126583
 20
-151.84878468426
 30
0.0
 10
88.75823429855697
 20
-151.8977050401506
 30
0.0
 10
88.76874183978698
 20
-152.0034694715478
 30
0.0
 10
88.69691159891953
 20
-152.0010579047081
 30
0.0
 10
88.67572426168525
 20
-152.0010579047081
 30
0.0
 10
88.4705688255386
 20
-152.0010579047081
 30
0.0
 10
88.4705688255386
 20
-152.0010579047081
 30
0.0
 10
88.41544729777462
 20
-152.0010579047081
 30
0.0
 10
88.41544729777462
 20
-152.0010579047081
 30
0.0
 10
88.41544729777462
 20
-152.0010579047081
 30
0.0
 10
88.41544729777462
 20
-152.1364501572784
 30
0.0
 10
88.41544729777462
 20
-152.1364501572784
 30
0.0
 10
88.41544729777462
 20
-152.1364501572784
 30
0.0
 10
88.48744979341633
 20
-152.1364501572784
 30
0.0
 10
88.48744979341633
 20
-152.1364501572784
 30
0.0
 10
88.55307886241035
 20
-152.1364501572784
 30
0.0
 10
88.69897865621067
 20
-152.1323160426961
 30
0.0
 10
88.80474308760785
 20
-152.1240478135315
 30
0.0
 10
88.80474308760785
 20
-152.1240478135315
 30
0.0
 10
88.80474308760785
 20
-152.3014702310219
 30
0.0
 10
88.80474308760785
 20
-152.3014702310219
 30
0.0
 10
88.70741914014954
 20
-152.2952690591484
 30
0.0
 10
88.54877249305379
 20
-152.2911349445661
 30
0.0
 10
88.48744979341633
 20
-152.2911349445661
 30
0.0
 10
88.48744979341633
 20
-152.2911349445661
 30
0.0
 10
88.41544729777462
 20
-152.2911349445661
 30
0.0
 10
88.41544729777462
 20
-152.2911349445661
 30
0.0
 10
88.41768660984003
 20
-152.3800184080856
 30
0.0
 10
88.42182072442233
 20
-152.6187635252134
 30
0.0
 10
88.42388778171347
 20
-152.6928330781462
 30
0.0
 10
88.42388778171347
 20
-152.6928330781462
 30
0.0
 10
88.2230387149234
 20
-152.6928330781462
 30
0.0
 10
88.2230387149234
 20
-152.6928330781462
 30
0.0
 10
88.23561331344457
 20
-152.4792371580608
 30
0.0
 10
88.23561331344457
 20
-152.4496093368876
 30
0.0
 10
88.23991968280113
 20
-152.2911349445661
 30
0.0
 10
88.23991968280113
 20
-152.2911349445661
 30
0.0
 10
88.17015649922483
 20
-152.2911349445661
 30
0.0
 10
88.17015649922483
 20
-152.2911349445661
 30
0.0
 10
88.11296791416967
 20
-152.2911349445661
 30
0.0
 10
87.96069469372163
 20
-152.2952690591484
 30
0.0
 10
87.8506238929679
 20
-152.3014702310219
 30
0.0
 10
87.8506238929679
 20
-152.3014702310219
 30
0.0
 10
87.8506238929679
 20
-152.1240478135315
 30
0.0
 10
87.8506238929679
 20
-152.1240478135315
 30
0.0
 10
87.95638832436508
 20
-152.1323160426961
 30
0.0
 10
88.10022106087425
 20
-152.1364501572784
 30
0.0
 10
88.17015649922483
 20
-152.1364501572784
 30
0.0
 10
88.17015649922483
 20
-152.1364501572784
 30
0.0
 10
88.2442260521577
 20
-152.1364501572784
 30
0.0
 10
88.2442260521577
 20
-152.1364501572784
 30
0.0
 10
88.2442260521577
 20
-152.1364501572784
 30
0.0
 10
88.2442260521577
 20
-152.0010579047081
 30
0.0
 10
88.2442260521577
 20
-152.0010579047081
 30
0.0
 10
88.2442260521577
 20
-152.0010579047081
 30
0.0
 10
88.19978432039798
 20
-152.0010579047081
 30
0.0
 10
88.19978432039798
 20
-152.0010579047081
 30
0.0
 10
88.12364771017396
 20
-152.0010579047081
 30
0.0
 10
87.93106687254848
 20
-152.0034694715478
 30
0.0
 10
87.89713268201878
 20
-152.0034694715478
 30
0.0
 10
87.90350610866649
 20
-151.931466975906
 30
0.0
 10
87.91194659260535
 20
-151.8508517415512
 30
0.0
 10
87.91194659260535
 20
-151.7302733995674
 30
0.0
 10
87.91194659260535
 20
-151.7302733995674
 30
0.0
 10
87.91194659260535
 20
-151.5569850966594
 30
0.0
 10
87.91194659260535
 20
-151.5569850966594
 30
0.0
 10
87.91194659260535
 20
-151.4849826010177
 30
0.0
 10
87.90350610866649
 20
-151.3644042590339
 30
0.0
 10
87.89713268201878
 20
-151.2841335342276
 30
0.0
 10
87.97550860430822
 20
-151.2882676488099
 30
0.0
 10
88.01357690942022
 20
-151.290334706101
 30
0.0
 10
88.14052867805168
 20
-151.290334706101
 30
0.0
 10
88.14052867805168
 20
-151.290334706101
 30
0.0
 10
88.2442260521577
 20
-151.290334706101
 30
0.0
 10
88.2442260521577
 20
-151.290334706101
 30
0.0
 10
88.2442260521577
 20
-151.290334706101
 30
0.0
 10
88.2442260521577
 20
-151.1442626575264
 30
0.0
 10
88.2442260521577
 20
-151.1442626575264
 30
0.0
 10
88.2442260521577
 20
-151.1442626575264
 30
0.0
 10
88.16585012986826
 20
-151.1442626575264
 30
0.0
 10
88.16585012986826
 20
-151.1442626575264
 30
0.0
 10
88.11090085687853
 20
-151.1442626575264
 30
0.0
 10
87.93950735648735
 20
-151.1487412816573
 30
0.0
 10
87.85493026232447
 20
-151.1549424535307
 30
0.0
 10
87.85493026232447
 20
-151.1549424535307
 30
0.0
 10
87.85493026232447
 20
-150.9771755264918
 30
0.0
 10
87.85493026232447
 20
-150.9771755264918
 30
0.0
 10
87.9374402991962
 20
-150.9837212079138
 30
0.0
 10
88.10022106087425
 20
-150.9878553224961
 30
0.0
 10
88.16585012986826
 20
-150.9878553224961
 30
0.0
 10
88.16585012986826
 20
-150.9878553224961
 30
0.0
 10
88.2442260521577
 20
-150.9878553224961
 30
0.0
 10
88.2442260521577
 20
-150.9878553224961
 30
0.0
 10
88.2442260521577
 20
-150.9540933867407
 30
0.0
 10
88.23991968280113
 20
-150.7997531090014
 30
0.0
 10
88.23991968280113
 20
-150.7677137209886
 30
0.0
 10
88.23991968280113
 20
-150.7677137209886
 30
0.0
 10
88.4366346350089
 20
-150.7849391984149
 30
0.0
 10
88.4366346350089
 20
-150.7849391984149
 30
0.0
 10
88.45351560288663
 20
-150.787006255706
 30
0.0
 10
88.4747029401209
 20
-150.7890733129972
 30
0.0
 10
88.4747029401209
 20
-150.8100883954572
 30
0.0
 10
88.4747029401209
 20
-150.8335150447569
 30
0.0
 10
88.45351560288663
 20
-150.8417832739215
 30
0.0
 10
88.42612709377889
 20
-150.8545301272169
 30
0.0
 10
88.42612709377889
 20
-150.8758897192255
 30
0.0
 10
88.42388778171347
 20
-150.9709743546184
 30
0.0
 10
88.42388778171347
 20
-150.9878553224961
 30
0.0
 10
88.42388778171347
 20
-150.9878553224961
 30
0.0
 10
88.48314342405978
 20
-150.9878553224961
 30
0.0
 10
88.48314342405978
 20
-150.9878553224961
 30
0.0
 10
88.55083955034493
 20
-150.9878553224961
 30
0.0
 10
88.69467228685411
 20
-150.9837212079138
 30
0.0
 10
88.80060897302555
 20
-150.9771755264918
 30
0.0
 10
88.80060897302555
 20
-150.9771755264918
 30
0.0
 10
88.80060897302555
 20
-151.1549424535307
 30
0.0
 10
88.80060897302555
 20
-151.1549424535307
 30
0.0
 10
88.70328502556724
 20
-151.1487412816573
 30
0.0
 10
88.54670543576263
 20
-151.1442626575264
 30
0.0
 10
88.48314342405978
 20
-151.1442626575264
 30
0.0
 10
88.48314342405978
 20
-151.1442626575264
 30
0.0
 10
88.41544729777462
 20
-151.1442626575264
 30
0.0
 10
88.41544729777462
 20
-151.1442626575264
 30
0.0
 10
88.41544729777462
 20
-151.1442626575264
 30
0.0
 10
88.41544729777462
 20
-151.290334706101
 30
0.0
 10
88.41544729777462
 20
-151.290334706101
 30
0.0
 10
88.41544729777462
 20
-151.290334706101
 30
0.0
 10
88.48538273612519
 20
-151.290334706101
 30
0.0
 10
88.48538273612519
 20
-151.290334706101
 30
0.0
 10
88.63558889928208
 20
-151.290334706101
 30
0.0
 10
88.70741914014954
 20
-151.2862005915187
 30
0.0
 10
88.76874183978698
 20
-151.2841335342276
 30
0.0
 10
88.76030135584813
 20
-151.3792181696205
 30
0.0
 10
88.75823429855697
 20
-151.4574218371357
 30
0.0
 10
88.75616724126583
 20
-151.4956623970219
 30
0.0
 10
88.91050751900502
 20
-151.2841335342276
 30
0.0
 10
89.01627195040219
 20
-151.0364311688381
 30
0.0
 10
89.03332517305417
 20
-150.7742594024106
 30
0.0
 10
89.03332517305417
 20
-150.7742594024106
 30
0.0
 10
89.24898815043082
 20
-150.8249023060438
 30
0.0
 10
89.24898815043082
 20
-150.8249023060438
 30
0.0
 10
89.26380206101739
 20
-150.8293809301746
 30
0.0
 10
89.27861597160395
 20
-150.8355821020481
 30
0.0
 10
89.27861597160395
 20
-150.8524630699258
 30
0.0
 10
89.27861597160395
 20
-150.8693440378035
 30
0.0
 10
89.27448185702166
 20
-150.8714110950947
 30
0.0
 10
89.22366669861422
 20
-150.8927706871032
 30
0.0
 10
89.2067857307365
 20
-150.9689072973272
 30
0.0
 10
89.18129202414565
 20
-151.0598578181378
 30
0.0
 10
89.13271617780363
 20
-151.186637331995
 30
0.0
 10
89.13271617780363
 20
-151.186637331995
 30
0.0
 10
89.47119680922943
 20
-151.186637331995
 30
0.0
 10
89.47119680922943
 20
-151.186637331995
 30
0.0
 10
89.50926511434143
 20
-151.186637331995
 30
0.0
 10
89.63828394026405
 20
-151.1825032174127
 30
0.0
 10
89.68685978660606
 20
-151.1763020455393
 30
0.0
 10
89.68685978660606
 20
-151.1763020455393
 30
0.0
 10
89.78004961948207
 20
-151.2458929743413
 30
0.0
 10
89.78004961948207
 20
-151.2458929743413
 30
0.0
 10
89.77160913554322
 20
-151.2672525663499
 30
0.0
 10
89.7652357088955
 20
-151.2862005915187
 30
0.0
 10
89.75042179830892
 20
-151.3220295845653
 30
0.0
  0
POLYLINE
  5
D7
330
D2
100
AcDbEntity
  8
_U+30EC_U+30A4_U+30E4_U+30FC 1
370
     0
100
AcDb2dPolyline
 66
     1
 10
0.0
 20
0.0
 30
0.0
  0
VERTEX
  5
D8
330
D7
100
AcDbEntity
  8
_U+30EC_U+30A4_U+30E4_U+30FC 1
370
     0
100
AcDbVertex
100
AcDb2dVertex
 10
88.2442260521577
 20
-151.4470865506799
 30
0.0
  0
VERTEX
  5
D9
330
D7
100
AcDbEntity
  8
_U+30EC_U+30A4_U+30E4_U+30FC 1
370
     0
100
AcDbVertex
100
AcDb2dVertex
 10
88.08557940506195
 20
-151.4470865506799
 30
0.0
  0
VERTEX
  5
DA
330
D7
100
AcDbEntity
  8
_U+30EC_U+30A4_U+30E4_U+30FC 1
370
     0
100
AcDbVertex
100
AcDb2dVertex
 10
88.08557940506195
 20
-151.5759331218283
 30
0.0
  0
VERTEX
  5
DB
330
D7
100
AcDbEntity
  8
_U+30EC_U+30A4_U+30E4_U+30FC 1
370
     0
100
AcDbVertex
100
AcDb2dVertex
 10
88.2442260521577
 20
-151.5759331218283
 30
0.0
  0
VERTEX
  5
DC
330
D7
100
AcDbEntity
  8
_U+30EC_U+30A4_U+30E4_U+30FC 1
370
     0
100
AcDbVertex
100
AcDb2dVertex
 10
88.2442260521577
 20
-151.4470865506799
 30
0.0
  0
SEQEND
  5
DD
330
D7
100
AcDbEntity
  8
_U+30EC_U+30A4_U+30E4_U+30FC 1
370
     0
  0
POLYLINE
  5
DE
330
D2
100
AcDbEntity
  8
_U+30EC_U+30A4_U+30E4_U+30FC 1
370
     0
100
AcDb2dPolyline
 66
     1
 10
0.0
 20
0.0
 30
0.0
  0
VERTEX
  5
DF
330
DE
100
AcDbEntity
  8
_U+30EC_U+30A4_U+30E4_U+30FC 1
370
     0
100
AcDbVertex
100
AcDb2dVertex
 10
88.2442260521577
 20
-151.7199381131117
 30
0.0
  0
VERTEX
  5
E0
330
DE
100
AcDbEntity
  8
_U+30EC_U+30A4_U+30E4_U+30FC 1
370
     0
100
AcDbVertex
100
AcDb2dVertex
 10
88.08557940506195
 20
-151.7199381131117
 30
0.0
  0
VERTEX
  5
E1
330
DE
100
AcDbEntity
  8
_U+30EC_U+30A4_U+30E4_U+30FC 1
370
     0
100
AcDbVertex
100
AcDb2dVertex
 10
88.08557940506195
 20
-151.84878468426
 30
0.0
  0
VERTEX
  5
E2
330
DE
100
AcDbEntity
  8
_U+30EC_U+30A4_U+30E4_U+30FC 1
370
     0
100
AcDbVertex
100
AcDb2dVertex
 10
88.2442260521577
 20
-151.84878468426
 30
0.0
  0
VERTEX
  5
E3
330
DE
100
AcDbEntity
  8
_U+30EC_U+30A4_U+30E4_U+30FC 1
370
     0
100
AcDbVertex
100
AcDb2dVertex
 10
88.2442260521577
 20
-151.7199381131117
 30
0.0
  0
SEQEND
  5
E4
330
DE
100
AcDbEntity
  8
_U+30EC_U+30A4_U+30E4_U+30FC 1
370
     0
  0
POLYLINE
  5
E5
330
D2
100
AcDbEntity
  8
_U+30EC_U+30A4_U+30E4_U+30FC 1
370
     0
100
AcDb2dPolyline
 66
     1
 10
0.0
 20
0.0
 30
0.0
  0
VERTEX
  5
E6
330
E5
100
AcDbEntity
  8
_U+30EC_U+30A4_U+30E4_U+30FC 1
370
     0
100
AcDbVertex
100
AcDb2dVertex
 10
88.57633325693578
 20
-151.4470865506799
 30
0.0
  0
VERTEX
  5
E7
330
E5
100
AcDbEntity
  8
_U+30EC_U+30A4_U+30E4_U+30FC 1
370
     0
100
AcDbVertex
100
AcDb2dVertex
 10
88.41544729777462
 20
-151.4470865506799
 30
0.0
  0
VERTEX
  5
E8
330
E5
100
AcDbEntity
  8
_U+30EC_U+30A4_U+30E4_U+30FC 1
370
     0
100
AcDbVertex
100
AcDb2dVertex
 10
88.41544729777462
 20
-151.5759331218283
 30
0.0
  0
VERTEX
  5
E9
330
E5
100
AcDbEntity
  8
_U+30EC_U+30A4_U+30E4_U+30FC 1
370
     0
100
AcDbVertex
100
AcDb2dVertex
 10
88.57633325693578
 20
-151.5759331218283
 30
0.0
  0
VERTEX
  5
EA
330
E5
100
AcDbEntity
  8
_U+30EC_U+30A4_U+30E4_U+30FC 1
370
     0
100
AcDbVertex
100
AcDb2dVertex
 10
88.57633325693578
 20
-151.4470865506799
 30
0.0
  0
SEQEND
  5
EB
330
E5
100
AcDbEntity
  8
_U+30EC_U+30A4_U+30E4_U+30FC 1
370
     0
  0
POLYLINE
  5
EC
330
D2
100
AcDbEntity
  8
_U+30EC_U+30A4_U+30E4_U+30FC 1
370
     0
100
AcDb2dPolyline
 66
     1
 10
0.0
 20
0.0
 30
0.0
  0
VERTEX
  5
ED
330
EC
100
AcDbEntity
  8
_U+30EC_U+30A4_U+30E4_U+30FC 1
370
     0
100
AcDbVertex
100
AcDb2dVertex
 10
88.57633325693578
 20
-151.7199381131117
 30
0.0
  0
VERTEX
  5
EE
330
EC
100
AcDbEntity
  8
_U+30EC_U+30A4_U+30E4_U+30FC 1
370
     0
100
AcDbVertex
100
AcDb2dVertex
 10
88.41544729777462
 20
-151.7199381131117
 30
0.0
  0
VERTEX
  5
EF
330
EC
100
AcDbEntity
  8
_U+30EC_U+30A4_U+30E4_U+30FC 1
370
     0
100
AcDbVertex
100
AcDb2dVertex
 10
88.41544729777462
 20
-151.84878468426
 30
0.0
  0
VERTEX
  5
F0
330
EC
100
AcDbEntity
  8
_U+30EC_U+30A4_U+30E4_U+30FC 1
370
     0
100
AcDbVertex
100
AcDb2dVertex
 10
88.57633325693578
 20
-151.84878468426
 30
0.0
  0
VERTEX
  5
F1
330
EC
100
AcDbEntity
  8
_U+30EC_U+30A4_U+30E4_U+30FC 1
370
     0
100
AcDbVertex
100
AcDb2dVertex
 10
88.57633325693578
 20
-151.7199381131117
 30
0.0
  0
SEQEND
  5
F2
330
EC
100
AcDbEntity
  8
_U+30EC_U+30A4_U+30E4_U+30FC 1
370
     0
  0
SPLINE
  5
F3
330
D2
100
AcDbEntity
  8
_U+30EC_U+30A4_U+30E4_U+30FC 1
370
     0
100
AcDbSpline
210
0.0
220
0.0
230
1.0
 70
    11
 71
     3
 72
    41
 73
    37
 74
     0
 42
0.0000000001
 43
0.0000000001
 12
1.0
 22
0.0
 32
0.0
 13
1.0
 23
0.0
 33
0.0
 40
0.0
 40
0.0
 40
0.0
 40
0.0
 40
1.0
 40
1.0
 40
1.0
 40
2.0
 40
2.0
 40
2.0
 40
3.0
 40
3.0
 40
3.0
 40
4.0
 40
4.0
 40
4.0
 40
5.0
 40
5.0
 40
5.0
 40
6.0
 40
6.0
 40
6.0
 40
7.0
 40
7.0
 40
7.0
 40
8.0
 40
8.0
 40
8.0
 40
9.0
 40
9.0
 40
9.0
 40
10.0
 40
10.0
 40
10.0
 40
11.0
 40
11.0
 40
11.0
 40
12.0
 40
12.0
 40
12.0
 40
12.0
 10
89.66584470414604
 20
-152.6780191675597
 30
0.0
 10
89.42468802017855
 20
-152.5426269149893
 30
0.0
 10
89.24692109313966
 20
-152.2466932128064
 30
0.0
 10
89.2067857307365
 20
-152.1175021321095
 30
0.0
 10
89.08620738875275
 20
-152.3820854653767
 30
0.0
 10
88.92325437230043
 20
-152.5598523924156
 30
0.0
 10
88.74135333067925
 20
-152.6738850529774
 30
0.0
 10
88.74135333067925
 20
-152.6738850529774
 30
0.0
 10
88.54463837847149
 20
-152.5364257431159
 30
0.0
 10
88.54463837847149
 20
-152.5364257431159
 30
0.0
 10
88.61440156204779
 20
-152.510932036525
 30
0.0
 10
88.76030135584813
 20
-152.4496093368876
 30
0.0
 10
88.88311900989729
 20
-152.2952690591484
 30
0.0
 10
89.00783146646333
 20
-152.1388617241181
 30
0.0
 10
89.09671492998277
 20
-151.9059732693152
 30
0.0
 10
89.09671492998277
 20
-151.6458685601788
 30
0.0
 10
89.09671492998277
 20
-151.5442382433639
 30
0.0
 10
89.08396807668734
 20
-151.4722357477222
 30
0.0
 10
89.07346053545733
 20
-151.4257269586714
 30
0.0
 10
89.07346053545733
 20
-151.4257269586714
 30
0.0
 10
89.27861597160395
 20
-151.4470865506799
 30
0.0
 10
89.27861597160395
 20
-151.4470865506799
 30
0.0
 10
89.29980330883825
 20
-151.4491536079711
 30
0.0
 10
89.32099064607253
 20
-151.4512206652622
 30
0.0
 10
89.32099064607253
 20
-151.4722357477222
 30
0.0
 10
89.32099064607253
 20
-151.4915282824396
 30
0.0
 10
89.31031085006826
 20
-151.4997965116042
 30
0.0
 10
89.27654891431281
 20
-151.5208115940642
 30
0.0
 10
89.26810843037394
 20
-151.7220051704028
 30
0.0
 10
89.32512476065483
 20
-151.9652289116615
 30
0.0
 10
89.38644746029227
 20
-152.0858072536452
 30
0.0
 10
89.47757023587714
 20
-152.261507123393
 30
0.0
 10
89.6720458760195
 20
-152.441341107723
 30
0.0
 10
89.80743812858981
 20
-152.4981851832296
 30
0.0
 10
89.80743812858981
 20
-152.4981851832296
 30
0.0
 10
89.66584470414604
 20
-152.6780191675597
 30
0.0
 10
89.66584470414604
 20
-152.6780191675597
 30
0.0
  0
HATCH
  5
F4
330
D2
100
AcDbEntity
  8
_U+30EC_U+30A4_U+30E4_U+30FC 1
 62
   179
420
  2234388
100
AcDbHatch
 10
0.0
 20
0.0
 30
0.0
210
0.0
220
0.0
230
1.0
  2
SOLID
 70
     1
 71
     0
 91
        6
 92
        1
 93
        1
 72
     4
 94
        3
 73
     0
 74
     1
 95
      197
 96
      193
 40
0.0
 40
0.0
 40
0.0
 40
0.0
 40
1.0
 40
1.0
 40
1.0
 40
2.0
 40
2.0
 40
2.0
 40
3.0
 40
3.0
 40
3.0
 40
4.0
 40
4.0
 40
4.0
 40
5.0
 40
5.0
 40
5.0
 40
6.0
 40
6.0
 40
6.0
 40
7.0
 40
7.0
 40
7.0
 40
8.0
 40
8.0
 40
8.0
 40
9.0
 40
9.0
 40
9.0
 40
10.0
 40
10.0
 40
10.0
 40
11.0
 40
11.0
 40
11.0
 40
12.0
 40
12.0
 40
12.0
 40
13.0
 40
13.0
 40
13.0
 40
14.0
 40
14.0
 40
14.0
 40
15.0
 40
15.0
 40
15.0
 40
16.0
 40
16.0
 40
16.0
 40
17.0
 40
17.0
 40
17.0
 40
18.0
 40
18.0
 40
18.0
 40
19.0
 40
19.0
 40
19.0
 40
20.0
 40
20.0
 40
20.0
 40
21.0
 40
21.0
 40
21.0
 40
22.0
 40
22.0
 40
22.0
 40
23.0
 40
23.0
 40
23.0
 40
24.0
 40
24.0
 40
24.0
 40
25.0
 40
25.0
 40
25.0
 40
26.0
 40
26.0
 40
26.0
 40
27.0
 40
27.0
 40
27.0
 40
28.0
 40
28.0
 40
28.0
 40
29.0
 40
29.0
 40
29.0
 40
30.0
 40
30.0
 40
30.0
 40
31.0
 40
31.0
 40
31.0
 40
32.0
 40
32.0
 40
32.0
 40
33.0
 40
33.0
 40
33.0
 40
34.0
 40
34.0
 40
34.0
 40
35.0
 40
35.0
 40
35.0
 40
36.0
 40
36.0
 40
36.0
 40
37.0
 40
37.0
 40
37.0
 40
38.0
 40
38.0
 40
38.0
 40
39.0
 40
39.0
 40
39.0
 40
40.0
 40
40.0
 40
40.0
 40
41.0
 40
41.0
 40
41.0
 40
42.0
 40
42.0
 40
42.0
 40
43.0
 40
43.0
 40
43.0
 40
44.0
 40
44.0
 40
44.0
 40
45.0
 40
45.0
 40
45.0
 40
46.0
 40
46.0
 40
46.0
 40
47.0
 40
47.0
 40
47.0
 40
48.0
 40
48.0
 40
48.0
 40
49.0
 40
49.0
 40
49.0
 40
50.0
 40
50.0
 40
50.0
 40
51.0
 40
51.0
 40
51.0
 40
52.0
 40
52.0
 40
52.0
 40
53.0
 40
53.0
 40
53.0
 40
54.0
 40
54.0
 40
54.0
 40
55.0
 40
55.0
 40
55.0
 40
56.0
 40
56.0
 40
56.0
 40
57.0
 40
57.0
 40
57.0
 40
58.0
 40
58.0
 40
58.0
 40
59.0
 40
59.0
 40
59.0
 40
60.0
 40
60.0
 40
60.0
 40
61.0
 40
61.0
 40
61.0
 40
62.0
 40
62.0
 40
62.0
 40
63.0
 40
63.0
 40
63.0
 40
64.0
 40
64.0
 40
64.0
 40
64.0
 10
89.75042179830892
 20
-151.3220295845653
 10
89.73974200230465
 20
-151.3516574057385
 10
89.71648760777921
 20
-151.3981661947894
 10
89.7059800665492
 20
-151.4257269586714
 10
89.7059800665492
 20
-151.4257269586714
 10
89.64465736691176
 20
-151.5780001791194
 10
89.64465736691176
 20
-151.5780001791194
 10
89.63397757090748
 20
-151.6034938857102
 10
89.58540172456546
 20
-151.7154594889809
 10
89.57265487127003
 20
-151.7388861382806
 10
89.57058781397889
 20
-151.745087310154
 10
89.56628144462232
 20
-151.7537000488671
 10
89.56421438733118
 20
-151.7599012207406
 10
89.56421438733118
 20
-151.7599012207406
 10
89.35475258182798
 20
-151.7071912598163
 10
89.35475258182798
 20
-151.7071912598163
 10
89.43312850411742
 20
-151.5972927138368
 10
89.49445120375486
 20
-151.4619004612665
 10
89.52614608221916
 20
-151.3516574057385
 10
89.52614608221916
 20
-151.3516574057385
 10
89.0607136821619
 20
-151.3516574057385
 10
89.0607136821619
 20
-151.3516574057385
 10
88.98027070258132
 20
-151.516677479482
 10
88.91257457629617
 20
-151.5948811469971
 10
88.87881264054072
 20
-151.6351887641745
 10
88.87881264054072
 20
-151.6351887641745
 10
88.75616724126583
 20
-151.5697319499548
 10
88.75616724126583
 20
-151.5697319499548
 10
88.75616724126583
 20
-151.5697319499548
 10
88.75616724126583
 20
-151.7409531955717
 10
88.75616724126583
 20
-151.7409531955717
 10
88.75616724126583
 20
-151.84878468426
 10
88.75823429855697
 20
-151.8977050401506
 10
88.76874183978698
 20
-152.0034694715478
 10
88.69691159891953
 20
-152.0010579047081
 10
88.67572426168525
 20
-152.0010579047081
 10
88.4705688255386
 20
-152.0010579047081
 10
88.4705688255386
 20
-152.0010579047081
 10
88.41544729777462
 20
-152.0010579047081
 10
88.41544729777462
 20
-152.0010579047081
 10
88.41544729777462
 20
-152.0010579047081
 10
88.41544729777462
 20
-152.1364501572784
 10
88.41544729777462
 20
-152.1364501572784
 10
88.41544729777462
 20
-152.1364501572784
 10
88.48744979341633
 20
-152.1364501572784
 10
88.48744979341633
 20
-152.1364501572784
 10
88.55307886241035
 20
-152.1364501572784
 10
88.69897865621067
 20
-152.1323160426961
 10
88.80474308760785
 20
-152.1240478135315
 10
88.80474308760785
 20
-152.1240478135315
 10
88.80474308760785
 20
-152.3014702310219
 10
88.80474308760785
 20
-152.3014702310219
 10
88.70741914014954
 20
-152.2952690591484
 10
88.54877249305379
 20
-152.2911349445661
 10
88.48744979341633
 20
-152.2911349445661
 10
88.48744979341633
 20
-152.2911349445661
 10
88.41544729777462
 20
-152.2911349445661
 10
88.41544729777462
 20
-152.2911349445661
 10
88.41768660984003
 20
-152.3800184080856
 10
88.42182072442233
 20
-152.6187635252134
 10
88.42388778171347
 20
-152.6928330781462
 10
88.42388778171347
 20
-152.6928330781462
 10
88.2230387149234
 20
-152.6928330781462
 10
88.2230387149234
 20
-152.6928330781462
 10
88.23561331344457
 20
-152.4792371580608
 10
88.23561331344457
 20
-152.4496093368876
 10
88.23991968280113
 20
-152.2911349445661
 10
88.23991968280113
 20
-152.2911349445661
 10
88.17015649922483
 20
-152.2911349445661
 10
88.17015649922483
 20
-152.2911349445661
 10
88.11296791416967
 20
-152.2911349445661
 10
87.96069469372163
 20
-152.2952690591484
 10
87.8506238929679
 20
-152.3014702310219
 10
87.8506238929679
 20
-152.3014702310219
 10
87.8506238929679
 20
-152.1240478135315
 10
87.8506238929679
 20
-152.1240478135315
 10
87.95638832436508
 20
-152.1323160426961
 10
88.10022106087425
 20
-152.1364501572784
 10
88.17015649922483
 20
-152.1364501572784
 10
88.17015649922483
 20
-152.1364501572784
 10
88.2442260521577
 20
-152.1364501572784
 10
88.2442260521577
 20
-152.1364501572784
 10
88.2442260521577
 20
-152.1364501572784
 10
88.2442260521577
 20
-152.0010579047081
 10
88.2442260521577
 20
-152.0010579047081
 10
88.2442260521577
 20
-152.0010579047081
 10
88.19978432039798
 20
-152.0010579047081
 10
88.19978432039798
 20
-152.0010579047081
 10
88.12364771017396
 20
-152.0010579047081
 10
87.93106687254848
 20
-152.0034694715478
 10
87.89713268201878
 20
-152.0034694715478
 10
87.90350610866649
 20
-151.931466975906
 10
87.91194659260535
 20
-151.8508517415512
 10
87.91194659260535
 20
-151.7302733995674
 10
87.91194659260535
 20
-151.7302733995674
 10
87.91194659260535
 20
-151.5569850966594
 10
87.91194659260535
 20
-151.5569850966594
 10
87.91194659260535
 20
-151.4849826010177
 10
87.90350610866649
 20
-151.3644042590339
 10
87.89713268201878
 20
-151.2841335342276
 10
87.97550860430822
 20
-151.2882676488099
 10
88.01357690942022
 20
-151.290334706101
 10
88.14052867805168
 20
-151.290334706101
 10
88.14052867805168
 20
-151.290334706101
 10
88.2442260521577
 20
-151.290334706101
 10
88.2442260521577
 20
-151.290334706101
 10
88.2442260521577
 20
-151.290334706101
 10
88.2442260521577
 20
-151.1442626575264
 10
88.2442260521577
 20
-151.1442626575264
 10
88.2442260521577
 20
-151.1442626575264
 10
88.16585012986826
 20
-151.1442626575264
 10
88.16585012986826
 20
-151.1442626575264
 10
88.11090085687853
 20
-151.1442626575264
 10
87.93950735648735
 20
-151.1487412816573
 10
87.85493026232447
 20
-151.1549424535307
 10
87.85493026232447
 20
-151.1549424535307
 10
87.85493026232447
 20
-150.9771755264918
 10
87.85493026232447
 20
-150.9771755264918
 10
87.9374402991962
 20
-150.9837212079138
 10
88.10022106087425
 20
-150.9878553224961
 10
88.16585012986826
 20
-150.9878553224961
 10
88.16585012986826
 20
-150.9878553224961
 10
88.2442260521577
 20
-150.9878553224961
 10
88.2442260521577
 20
-150.9878553224961
 10
88.2442260521577
 20
-150.9540933867407
 10
88.23991968280113
 20
-150.7997531090014
 10
88.23991968280113
 20
-150.7677137209886
 10
88.23991968280113
 20
-150.7677137209886
 10
88.4366346350089
 20
-150.7849391984149
 10
88.4366346350089
 20
-150.7849391984149
 10
88.45351560288663
 20
-150.787006255706
 10
88.4747029401209
 20
-150.7890733129972
 10
88.4747029401209
 20
-150.8100883954572
 10
88.4747029401209
 20
-150.8335150447569
 10
88.45351560288663
 20
-150.8417832739215
 10
88.42612709377889
 20
-150.8545301272169
 10
88.42612709377889
 20
-150.8758897192255
 10
88.42388778171347
 20
-150.9709743546184
 10
88.42388778171347
 20
-150.9878553224961
 10
88.42388778171347
 20
-150.9878553224961
 10
88.48314342405978
 20
-150.9878553224961
 10
88.48314342405978
 20
-150.9878553224961
 10
88.55083955034493
 20
-150.9878553224961
 10
88.69467228685411
 20
-150.9837212079138
 10
88.80060897302555
 20
-150.9771755264918
 10
88.80060897302555
 20
-150.9771755264918
 10
88.80060897302555
 20
-151.1549424535307
 10
88.80060897302555
 20
-151.1549424535307
 10
88.70328502556724
 20
-151.1487412816573
 10
88.54670543576263
 20
-151.1442626575264
 10
88.48314342405978
 20
-151.1442626575264
 10
88.48314342405978
 20
-151.1442626575264
 10
88.41544729777462
 20
-151.1442626575264
 10
88.41544729777462
 20
-151.1442626575264
 10
88.41544729777462
 20
-151.1442626575264
 10
88.41544729777462
 20
-151.290334706101
 10
88.41544729777462
 20
-151.290334706101
 10
88.41544729777462
 20
-151.290334706101
 10
88.48538273612519
 20
-151.290334706101
 10
88.48538273612519
 20
-151.290334706101
 10
88.63558889928208
 20
-151.290334706101
 10
88.70741914014954
 20
-151.2862005915187
 10
88.76874183978698
 20
-151.2841335342276
 10
88.76030135584813
 20
-151.3792181696205
 10
88.75823429855697
 20
-151.4574218371357
 10
88.75616724126583
 20
-151.4956623970219
 10
88.91050751900502
 20
-151.2841335342276
 10
89.01627195040219
 20
-151.0364311688381
 10
89.03332517305417
 20
-150.7742594024106
 10
89.03332517305417
 20
-150.7742594024106
 10
89.24898815043082
 20
-150.8249023060438
 10
89.24898815043082
 20
-150.8249023060438
 10
89.26380206101739
 20
-150.8293809301746
 10
89.27861597160395
 20
-150.8355821020481
 10
89.27861597160395
 20
-150.8524630699258
 10
89.27861597160395
 20
-150.8693440378035
 10
89.27448185702166
 20
-150.8714110950947
 10
89.22366669861422
 20
-150.8927706871032
 10
89.2067857307365
 20
-150.9689072973272
 10
89.18129202414565
 20
-151.0598578181378
 10
89.13271617780363
 20
-151.186637331995
 10
89.13271617780363
 20
-151.186637331995
 10
89.47119680922943
 20
-151.186637331995
 10
89.47119680922943
 20
-151.186637331995
 10
89.50926511434143
 20
-151.186637331995
 10
89.63828394026405
 20
-151.1825032174127
 10
89.68685978660606
 20
-151.1763020455393
 10
89.68685978660606
 20
-151.1763020455393
 10
89.78004961948207
 20
-151.2458929743413
 10
89.78004961948207
 20
-151.2458929743413
 10
89.77160913554322
 20
-151.2672525663499
 10
89.7652357088955
 20
-151.2862005915187
 10
89.75042179830892
 20
-151.3220295845653
 97
        0
 97
        0
 92
        1
 93
        4
 72
     1
 10
88.2442260521577
 20
-151.4470865506799
 11
88.08557940506195
 21
-151.4470865506799
 72
     1
 10
88.08557940506195
 20
-151.4470865506799
 11
88.08557940506195
 21
-151.5759331218283
 72
     1
 10
88.08557940506195
 20
-151.5759331218283
 11
88.2442260521577
 21
-151.5759331218283
 72
     1
 10
88.2442260521577
 20
-151.5759331218283
 11
88.2442260521577
 21
-151.4470865506799
 97
        0
 92
        1
 93
        4
 72
     1
 10
88.2442260521577
 20
-151.7199381131117
 11
88.08557940506195
 21
-151.7199381131117
 72
     1
 10
88.08557940506195
 20
-151.7199381131117
 11
88.08557940506195
 21
-151.84878468426
 72
     1
 10
88.08557940506195
 20
-151.84878468426
 11
88.2442260521577
 21
-151.84878468426
 72
     1
 10
88.2442260521577
 20
-151.84878468426
 11
88.2442260521577
 21
-151.7199381131117
 97
        0
 92
        1
 93
        4
 72
     1
 10
88.57633325693578
 20
-151.4470865506799
 11
88.41544729777462
 21
-151.4470865506799
 72
     1
 10
88.41544729777462
 20
-151.4470865506799
 11
88.41544729777462
 21
-151.5759331218283
 72
     1
 10
88.41544729777462
 20
-151.5759331218283
 11
88.57633325693578
 21
-151.5759331218283
 72
     1
 10
88.57633325693578
 20
-151.5759331218283
 11
88.57633325693578
 21
-151.4470865506799
 97
        0
 92
        1
 93
        4
 72
     1
 10
88.57633325693578
 20
-151.7199381131117
 11
88.41544729777462
 21
-151.7199381131117
 72
     1
 10
88.41544729777462
 20
-151.7199381131117
 11
88.41544729777462
 21
-151.84878468426
 72
     1
 10
88.41544729777462
 20
-151.84878468426
 11
88.57633325693578
 21
-151.84878468426
 72
     1
 10
88.57633325693578
 20
-151.84878468426
 11
88.57633325693578
 21
-151.7199381131117
 97
        0
 92
        1
 93
        1
 72
     4
 94
        3
 73
     0
 74
     1
 95
       41
 96
       37
 40
0.0
 40
0.0
 40
0.0
 40
0.0
 40
1.0
 40
1.0
 40
1.0
 40
2.0
 40
2.0
 40
2.0
 40
3.0
 40
3.0
 40
3.0
 40
4.0
 40
4.0
 40
4.0
 40
5.0
 40
5.0
 40
5.0
 40
6.0
 40
6.0
 40
6.0
 40
7.0
 40
7.0
 40
7.0
 40
8.0
 40
8.0
 40
8.0
 40
9.0
 40
9.0
 40
9.0
 40
10.0
 40
10.0
 40
10.0
 40
11.0
 40
11.0
 40
11.0
 40
12.0
 40
12.0
 40
12.0
 40
12.0
 10
89.66584470414604
 20
-152.6780191675597
 10
89.42468802017855
 20
-152.5426269149893
 10
89.24692109313966
 20
-152.2466932128064
 10
89.2067857307365
 20
-152.1175021321095
 10
89.08620738875275
 20
-152.3820854653767
 10
88.92325437230043
 20
-152.5598523924156
 10
88.74135333067925
 20
-152.6738850529774
 10
88.74135333067925
 20
-152.6738850529774
 10
88.54463837847149
 20
-152.5364257431159
 10
88.54463837847149
 20
-152.5364257431159
 10
88.61440156204779
 20
-152.510932036525
 10
88.76030135584813
 20
-152.4496093368876
 10
88.88311900989729
 20
-152.2952690591484
 10
89.00783146646333
 20
-152.1388617241181
 10
89.09671492998277
 20
-151.9059732693152
 10
89.09671492998277
 20
-151.6458685601788
 10
89.09671492998277
 20
-151.5442382433639
 10
89.08396807668734
 20
-151.4722357477222
 10
89.07346053545733
 20
-151.4257269586714
 10
89.07346053545733
 20
-151.4257269586714
 10
89.27861597160395
 20
-151.4470865506799
 10
89.27861597160395
 20
-151.4470865506799
 10
89.29980330883825
 20
-151.4491536079711
 10
89.32099064607253
 20
-151.4512206652622
 10
89.32099064607253
 20
-151.4722357477222
 10
89.32099064607253
 20
-151.4915282824396
 10
89.31031085006826
 20
-151.4997965116042
 10
89.27654891431281
 20
-151.5208115940642
 10
89.26810843037394
 20
-151.7220051704028
 10
89.32512476065483
 20
-151.9652289116615
 10
89.38644746029227
 20
-152.0858072536452
 10
89.47757023587714
 20
-152.261507123393
 10
89.6720458760195
 20
-152.441341107723
 10
89.80743812858981
 20
-152.4981851832296
 10
89.80743812858981
 20
-152.4981851832296
 10
89.66584470414604
 20
-152.6780191675597
 10
89.66584470414604
 20
-152.6780191675597
 97
        0
 97
        0
 75
     2
 76
     1
 98
        0
  0
SPLINE
  5
F5
330
D2
100
AcDbEntity
  8
_U+30EC_U+30A4_U+30E4_U+30FC 1
370
     0
100
AcDbSpline
210
0.0
220
0.0
230
1.0
 70
    11
 71
     3
 72
    71
 73
    67
 74
     0
 42
0.0000000001
 43
0.0000000001
 12
1.0
 22
0.0
 32
0.0
 13
1.0
 23
0.0
 33
0.0
 40
0.0
 40
0.0
 40
0.0
 40
0.0
 40
1.0
 40
1.0
 40
1.0
 40
2.0
 40
2.0
 40
2.0
 40
3.0
 40
3.0
 40
3.0
 40
4.0
 40
4.0
 40
4.0
 40
5.0
 40
5.0
 40
5.0
 40
6.0
 40
6.0
 40
6.0
 40
7.0
 40
7.0
 40
7.0
 40
8.0
 40
8.0
 40
8.0
 40
9.0
 40
9.0
 40
9.0
 40
10.0
 40
10.0
 40
10.0
 40
11.0
 40
11.0
 40
11.0
 40
12.0
 40
12.0
 40
12.0
 40
13.0
 40
13.0
 40
13.0
 40
14.0
 40
14.0
 40
14.0
 40
15.0
 40
15.0
 40
15.0
 40
16.0
 40
16.0
 40
16.0
 40
17.0
 40
17.0
 40
17.0
 40
18.0
 40
18.0
 40
18.0
 40
19.0
 40
19.0
 40
19.0
 40
20.0
 40
20.0
 40
20.0
 40
21.0
 40
21.0
 40
21.0
 40
22.0
 40
22.0
 40
22.0
 40
22.0
 10
90.8600870541079
 20
-150.9454806480275
 30
0.0
 10
90.84527314352133
 20
-150.9454806480275
 30
0.0
 10
90.8325262902259
 20
-150.9413465334452
 30
0.0
 10
90.80720483840932
 20
-150.9327337947321
 30
0.0
 10
90.66543915919128
 20
-150.979242583783
 30
0.0
 10
90.49197860150895
 20
-150.9964680612092
 30
0.0
 10
90.35227997958208
 20
-151.0006021757915
 30
0.0
 10
90.35227997958208
 20
-151.0006021757915
 30
0.0
 10
90.35021292229092
 20
-151.089485639311
 30
0.0
 10
90.35021292229092
 20
-151.089485639311
 30
0.0
 10
90.35021292229092
 20
-151.089485639311
 30
0.0
 10
90.61048988620155
 20
-151.089485639311
 30
0.0
 10
90.61048988620155
 20
-151.089485639311
 30
0.0
 10
90.66337210190014
 20
-151.089485639311
 30
0.0
 10
90.84527314352133
 20
-151.0808729005979
 30
0.0
 10
90.88971487528104
 20
-151.0746717287244
 30
0.0
 10
90.88971487528104
 20
-151.0746717287244
 30
0.0
 10
90.88971487528104
 20
-151.2355576878856
 30
0.0
 10
90.88971487528104
 20
-151.2355576878856
 30
0.0
 10
90.83476560229131
 20
-151.2290120064636
 30
0.0
 10
90.70988089095101
 20
-151.2269449491724
 30
0.0
 10
90.67181258583899
 20
-151.2290120064636
 30
0.0
 10
90.67181258583899
 20
-151.2290120064636
 30
0.0
 10
90.67181258583899
 20
-151.3389105524431
 30
0.0
 10
90.67181258583899
 20
-151.3389105524431
 30
0.0
 10
90.67181258583899
 20
-151.3857638510424
 30
0.0
 10
90.67387964313015
 20
-151.4491536079711
 30
0.0
 10
90.68025306977786
 20
-151.4870496583088
 30
0.0
 10
90.68025306977786
 20
-151.4870496583088
 30
0.0
 10
90.48767223215239
 20
-151.4870496583088
 30
0.0
 10
90.48767223215239
 20
-151.4870496583088
 30
0.0
 10
90.4940456588001
 20
-151.4470865506799
 30
0.0
 10
90.50041908544782
 20
-151.3644042590339
 30
0.0
 10
90.50041908544782
 20
-151.3495903484473
 30
0.0
 10
90.50041908544782
 20
-151.3495903484473
 30
0.0
 10
90.50041908544782
 20
-151.2290120064636
 30
0.0
 10
90.50041908544782
 20
-151.2290120064636
 30
0.0
 10
90.50041908544782
 20
-151.2290120064636
 30
0.0
 10
90.33539901170435
 20
-151.2290120064636
 30
0.0
 10
90.33539901170435
 20
-151.2290120064636
 30
0.0
 10
90.29319659201003
 20
-151.4491536079711
 30
0.0
 10
90.23807506424605
 20
-151.5294243327774
 30
0.0
 10
90.13231063284887
 20
-151.6289875923011
 30
0.0
 10
90.13231063284887
 20
-151.6289875923011
 30
0.0
 10
89.96522350181425
 20
-151.5146104221908
 30
0.0
 10
89.96522350181425
 20
-151.5146104221908
 30
0.0
 10
90.02861325874285
 20
-151.4660345758488
 30
0.0
 10
90.17881942189975
 20
-151.3537244630296
 30
0.0
 10
90.17881942189975
 20
-151.0047362903738
 30
0.0
 10
90.17881942189975
 20
-150.9223985082764
 30
0.0
 10
90.17037893796088
 20
-150.8758897192255
 30
0.0
 10
90.16193845402202
 20
-150.8269693633349
 30
0.0
 10
90.30801050259662
 20
-150.8417832739215
 30
0.0
 10
90.32282441318318
 20
-150.8417832739215
 30
0.0
 10
90.35865340622979
 20
-150.8417832739215
 30
0.0
 10
90.46665714969237
 20
-150.8417832739215
 30
0.0
 10
90.60842282891039
 20
-150.8249023060438
 30
0.0
 10
90.7691365332973
 20
-150.7635796064063
 30
0.0
 10
90.7691365332973
 20
-150.7635796064063
 30
0.0
 10
90.88334144863333
 20
-150.8948377443944
 30
0.0
 10
90.88334144863333
 20
-150.8948377443944
 30
0.0
 10
90.88971487528104
 20
-150.9010389162678
 30
0.0
 10
90.89384898986334
 20
-150.9096516549809
 30
0.0
 10
90.89384898986334
 20
-150.9179198841455
 30
0.0
 10
90.89384898986334
 20
-150.9413465334452
 30
0.0
 10
90.87490096469448
 20
-150.9454806480275
 30
0.0
 10
90.8600870541079
 20
-150.9454806480275
 30
0.0
  0
SPLINE
  5
F6
330
D2
100
AcDbEntity
  8
_U+30EC_U+30A4_U+30E4_U+30FC 1
370
     0
100
AcDbSpline
210
0.0
220
0.0
230
1.0
 70
    11
 71
     3
 72
    74
 73
    70
 74
     0
 42
0.0000000001
 43
0.0000000001
 12
1.0
 22
0.0
 32
0.0
 13
1.0
 23
0.0
 33
0.0
 40
0.0
 40
0.0
 40
0.0
 40
0.0
 40
1.0
 40
1.0
 40
1.0
 40
2.0
 40
2.0
 40
2.0
 40
3.0
 40
3.0
 40
3.0
 40
4.0
 40
4.0
 40
4.0
 40
5.0
 40
5.0
 40
5.0
 40
6.0
 40
6.0
 40
6.0
 40
7.0
 40
7.0
 40
7.0
 40
8.0
 40
8.0
 40
8.0
 40
9.0
 40
9.0
 40
9.0
 40
10.0
 40
10.0
 40
10.0
 40
11.0
 40
11.0
 40
11.0
 40
12.0
 40
12.0
 40
12.0
 40
13.0
 40
13.0
 40
13.0
 40
14.0
 40
14.0
 40
14.0
 40
15.0
 40
15.0
 40
15.0
 40
16.0
 40
16.0
 40
16.0
 40
17.0
 40
17.0
 40
17.0
 40
18.0
 40
18.0
 40
18.0
 40
19.0
 40
19.0
 40
19.0
 40
20.0
 40
20.0
 40
20.0
 40
21.0
 40
21.0
 40
21.0
 40
22.0
 40
22.0
 40
22.0
 40
23.0
 40
23.0
 40
23.0
 40
23.0
 10
91.69776202134639
 20
-152.7121256128636
 30
0.0
 10
91.48416610126091
 20
-152.7014458168594
 30
0.0
 10
91.28314477969658
 20
-152.6146294106311
 30
0.0
 10
91.1076171647231
 20
-152.4940510686473
 30
0.0
 10
91.1076171647231
 20
-152.4940510686473
 30
0.0
 10
91.2049411121814
 20
-152.407234662419
 30
0.0
 10
91.2049411121814
 20
-152.407234662419
 30
0.0
 10
91.2049411121814
 20
-152.407234662419
 30
0.0
 10
90.65269230589585
 20
-152.407234662419
 30
0.0
 10
90.65269230589585
 20
-152.407234662419
 30
0.0
 10
90.65269230589585
 20
-152.407234662419
 30
0.0
 10
90.73313528547644
 20
-152.4709689288962
 30
0.0
 10
90.73313528547644
 20
-152.4709689288962
 30
0.0
 10
90.73950871212415
 20
-152.4751030434784
 30
0.0
 10
90.75001625335416
 20
-152.4857828394827
 30
0.0
 10
90.75001625335416
 20
-152.5005967500693
 30
0.0
 10
90.75001625335416
 20
-152.5405598576982
 30
0.0
 10
90.67594670042129
 20
-152.5343586858247
 30
0.0
 10
90.66130504460898
 20
-152.5322916285336
 30
0.0
 10
90.4306559018715
 20
-152.6718179956862
 30
0.0
 10
90.28682316536232
 20
-152.7035128741505
 30
0.0
 10
90.1831257912563
 20
-152.7203938420282
 30
0.0
 10
90.1831257912563
 20
-152.7203938420282
 30
0.0
 10
90.0541069653337
 20
-152.5426269149893
 30
0.0
 10
90.0541069653337
 20
-152.5426269149893
 30
0.0
 10
90.3016370759489
 20
-152.510932036525
 30
0.0
 10
90.40309513798951
 20
-152.4644232474742
 30
0.0
 10
90.49197860150895
 20
-152.4117132865499
 30
0.0
 10
90.41790904857608
 20
-152.413780343841
 30
0.0
 10
90.30370413324005
 20
-152.4158474011322
 30
0.0
 10
90.27200925477575
 20
-152.4179144584233
 30
0.0
 10
90.28682316536232
 20
-152.3290309949039
 30
0.0
 10
90.28889022265348
 20
-152.2001844237555
 30
0.0
 10
90.28889022265348
 20
-152.1261148708226
 30
0.0
 10
90.28889022265348
 20
-152.1261148708226
 30
0.0
 10
90.28889022265348
 20
-151.8257025445089
 30
0.0
 10
90.28889022265348
 20
-151.8257025445089
 30
0.0
 10
90.28889022265348
 20
-151.7261392849852
 30
0.0
 10
90.28251679600577
 20
-151.6269205350099
 30
0.0
 10
90.27200925477575
 20
-151.5294243327774
 30
0.0
 10
90.37346731681636
 20
-151.5356255046508
 30
0.0
 10
90.60411645955384
 20
-151.5421711860728
 30
0.0
 10
90.71194794824216
 20
-151.5421711860728
 30
0.0
 10
90.71194794824216
 20
-151.5421711860728
 30
0.0
 10
91.1351779286051
 20
-151.5421711860728
 30
0.0
 10
91.1351779286051
 20
-151.5421711860728
 30
0.0
 10
91.25351695852343
 20
-151.5421711860728
 30
0.0
 10
91.29589163299201
 20
-151.5421711860728
 30
0.0
 10
91.37840166986373
 20
-151.5380370714905
 30
0.0
 10
91.52654077572949
 20
-151.5314913900685
 30
0.0
 10
91.5434217436072
 20
-151.5314913900685
 30
0.0
 10
91.58993053265807
 20
-151.5294243327774
 30
0.0
 10
91.58131779394495
 20
-151.6096950575837
 30
0.0
 10
91.57718367936265
 20
-151.7685139594537
 30
0.0
 10
91.57718367936265
 20
-151.8508517415512
 30
0.0
 10
91.57718367936265
 20
-151.8508517415512
 30
0.0
 10
91.57718367936265
 20
-152.1364501572784
 30
0.0
 10
91.57718367936265
 20
-152.1364501572784
 30
0.0
 10
91.57718367936265
 20
-152.2084526529201
 30
0.0
 10
91.5792507366538
 20
-152.3397107909081
 30
0.0
 10
91.58993053265807
 20
-152.4179144584233
 30
0.0
 10
91.51792803701636
 20
-152.413780343841
 30
0.0
 10
91.39528263774146
 20
-152.4117132865499
 30
0.0
 10
91.31707897022629
 20
-152.4096462292587
 30
0.0
 10
91.42697751620575
 20
-152.4771701007696
 30
0.0
 10
91.5792507366538
 20
-152.5278130044028
 30
0.0
 10
91.79077959944814
 20
-152.5322916285336
 30
0.0
 10
91.79077959944814
 20
-152.5322916285336
 30
0.0
 10
91.69776202134639
 20
-152.7121256128636
 30
0.0
 10
91.69776202134639
 20
-152.7121256128636
 30
0.0
  0
POLYLINE
  5
F7
330
D2
100
AcDbEntity
  8
_U+30EC_U+30A4_U+30E4_U+30FC 1
370
     0
100
AcDb2dPolyline
 66
     1
 10
0.0
 20
0.0
 30
0.0
  0
VERTEX
  5
F8
330
F7
100
AcDbEntity
  8
_U+30EC_U+30A4_U+30E4_U+30FC 1
370
     0
100
AcDbVertex
100
AcDb2dVertex
 10
91.39321558045032
 20
-151.6775634386431
 30
0.0
  0
VERTEX
  5
F9
330
F7
100
AcDbEntity
  8
_U+30EC_U+30A4_U+30E4_U+30FC 1
370
     0
100
AcDbVertex
100
AcDb2dVertex
 10
90.48147106027895
 20
-151.6775634386431
 30
0.0
  0
VERTEX
  5
FA
330
F7
100
AcDbEntity
  8
_U+30EC_U+30A4_U+30E4_U+30FC 1
370
     0
100
AcDbVertex
100
AcDb2dVertex
 10
90.48147106027895
 20
-151.7895290419137
 30
0.0
  0
VERTEX
  5
FB
330
F7
100
AcDbEntity
  8
_U+30EC_U+30A4_U+30E4_U+30FC 1
370
     0
100
AcDbVertex
100
AcDb2dVertex
 10
91.39321558045032
 20
-151.7895290419137
 30
0.0
  0
VERTEX
  5
FC
330
F7
100
AcDbEntity
  8
_U+30EC_U+30A4_U+30E4_U+30FC 1
370
     0
100
AcDbVertex
100
AcDb2dVertex
 10
91.39321558045032
 20
-151.6775634386431
 30
0.0
  0
SEQEND
  5
FD
330
F7
100
AcDbEntity
  8
_U+30EC_U+30A4_U+30E4_U+30FC 1
370
     0
  0
POLYLINE
  5
FE
330
D2
100
AcDbEntity
  8
_U+30EC_U+30A4_U+30E4_U+30FC 1
370
     0
100
AcDb2dPolyline
 66
     1
 10
0.0
 20
0.0
 30
0.0
  0
VERTEX
  5
FF
330
FE
100
AcDbEntity
  8
_U+30EC_U+30A4_U+30E4_U+30FC 1
370
     0
100
AcDbVertex
100
AcDb2dVertex
 10
91.39321558045032
 20
-151.9228542371929
 30
0.0
  0
VERTEX
  5
100
330
FE
100
AcDbEntity
  8
_U+30EC_U+30A4_U+30E4_U+30FC 1
370
     0
100
AcDbVertex
100
AcDb2dVertex
 10
90.48147106027895
 20
-151.9228542371929
 30
0.0
  0
VERTEX
  5
101
330
FE
100
AcDbEntity
  8
_U+30EC_U+30A4_U+30E4_U+30FC 1
370
     0
100
AcDbVertex
100
AcDb2dVertex
 10
90.48147106027895
 20
-152.0330972927209
 30
0.0
  0
VERTEX
  5
102
330
FE
100
AcDbEntity
  8
_U+30EC_U+30A4_U+30E4_U+30FC 1
370
     0
100
AcDbVertex
100
AcDb2dVertex
 10
91.39321558045032
 20
-152.0330972927209
 30
0.0
  0
VERTEX
  5
103
330
FE
100
AcDbEntity
  8
_U+30EC_U+30A4_U+30E4_U+30FC 1
370
     0
100
AcDbVertex
100
AcDb2dVertex
 10
91.39321558045032
 20
-151.9228542371929
 30
0.0
  0
SEQEND
  5
104
330
FE
100
AcDbEntity
  8
_U+30EC_U+30A4_U+30E4_U+30FC 1
370
     0
  0
POLYLINE
  5
105
330
D2
100
AcDbEntity
  8
_U+30EC_U+30A4_U+30E4_U+30FC 1
370
     0
100
AcDb2dPolyline
 66
     1
 10
0.0
 20
0.0
 30
0.0
  0
VERTEX
  5
106
330
105
100
AcDbEntity
  8
_U+30EC_U+30A4_U+30E4_U+30FC 1
370
     0
100
AcDbVertex
100
AcDb2dVertex
 10
91.39321558045032
 20
-152.1684895452912
 30
0.0
  0
VERTEX
  5
107
330
105
100
AcDbEntity
  8
_U+30EC_U+30A4_U+30E4_U+30FC 1
370
     0
100
AcDbVertex
100
AcDb2dVertex
 10
90.48147106027895
 20
-152.1684895452912
 30
0.0
  0
VERTEX
  5
108
330
105
100
AcDbEntity
  8
_U+30EC_U+30A4_U+30E4_U+30FC 1
370
     0
100
AcDbVertex
100
AcDb2dVertex
 10
90.48147106027895
 20
-152.2763210339795
 30
0.0
  0
VERTEX
  5
109
330
105
100
AcDbEntity
  8
_U+30EC_U+30A4_U+30E4_U+30FC 1
370
     0
100
AcDbVertex
100
AcDb2dVertex
 10
91.39321558045032
 20
-152.2763210339795
 30
0.0
  0
VERTEX
  5
10A
330
105
100
AcDbEntity
  8
_U+30EC_U+30A4_U+30E4_U+30FC 1
370
     0
100
AcDbVertex
100
AcDb2dVertex
 10
91.39321558045032
 20
-152.1684895452912
 30
0.0
  0
SEQEND
  5
10B
330
105
100
AcDbEntity
  8
_U+30EC_U+30A4_U+30E4_U+30FC 1
370
     0
  0
SPLINE
  5
10C
330
D2
100
AcDbEntity
  8
_U+30EC_U+30A4_U+30E4_U+30FC 1
370
     0
100
AcDbSpline
210
0.0
220
0.0
230
1.0
 70
    11
 71
     3
 72
    74
 73
    70
 74
     0
 42
0.0000000001
 43
0.0000000001
 12
1.0
 22
0.0
 32
0.0
 13
1.0
 23
0.0
 33
0.0
 40
0.0
 40
0.0
 40
0.0
 40
0.0
 40
1.0
 40
1.0
 40
1.0
 40
2.0
 40
2.0
 40
2.0
 40
3.0
 40
3.0
 40
3.0
 40
4.0
 40
4.0
 40
4.0
 40
5.0
 40
5.0
 40
5.0
 40
6.0
 40
6.0
 40
6.0
 40
7.0
 40
7.0
 40
7.0
 40
8.0
 40
8.0
 40
8.0
 40
9.0
 40
9.0
 40
9.0
 40
10.0
 40
10.0
 40
10.0
 40
11.0
 40
11.0
 40
11.0
 40
12.0
 40
12.0
 40
12.0
 40
13.0
 40
13.0
 40
13.0
 40
14.0
 40
14.0
 40
14.0
 40
15.0
 40
15.0
 40
15.0
 40
16.0
 40
16.0
 40
16.0
 40
17.0
 40
17.0
 40
17.0
 40
18.0
 40
18.0
 40
18.0
 40
19.0
 40
19.0
 40
19.0
 40
20.0
 40
20.0
 40
20.0
 40
21.0
 40
21.0
 40
21.0
 40
22.0
 40
22.0
 40
22.0
 40
23.0
 40
23.0
 40
23.0
 40
23.0
 10
91.71050887464182
 20
-151.2248778918813
 30
0.0
 10
91.71050887464182
 20
-151.2248778918813
 30
0.0
 10
91.54962291548065
 20
-151.2248778918813
 30
0.0
 10
91.54962291548065
 20
-151.2248778918813
 30
0.0
 10
91.54962291548065
 20
-151.2248778918813
 30
0.0
 10
91.54962291548065
 20
-151.3389105524431
 30
0.0
 10
91.54962291548065
 20
-151.3389105524431
 30
0.0
 10
91.54962291548065
 20
-151.3792181696205
 30
0.0
 10
91.55616859690262
 20
-151.4532877225533
 30
0.0
 10
91.56030271148492
 20
-151.4787814291442
 30
0.0
 10
91.56030271148492
 20
-151.4787814291442
 30
0.0
 10
91.34877384869058
 20
-151.4787814291442
 30
0.0
 10
91.34877384869058
 20
-151.4787814291442
 30
0.0
 10
91.3592813899206
 20
-151.4129801053759
 30
0.0
 10
91.36152070198601
 20
-151.3537244630296
 30
0.0
 10
91.36152070198601
 20
-151.3516574057385
 30
0.0
 10
91.36152070198601
 20
-151.3516574057385
 30
0.0
 10
91.36152070198601
 20
-151.2290120064636
 30
0.0
 10
91.36152070198601
 20
-151.2290120064636
 30
0.0
 10
91.36152070198601
 20
-151.2290120064636
 30
0.0
 10
91.18168671765598
 20
-151.2290120064636
 30
0.0
 10
91.18168671765598
 20
-151.2290120064636
 30
0.0
 10
91.16256643771284
 20
-151.2882676488099
 30
0.0
 10
91.11605764866196
 20
-151.4343396973845
 30
0.0
 10
91.00185273332593
 20
-151.516677479482
 30
0.0
 10
91.00185273332593
 20
-151.516677479482
 30
0.0
 10
90.84527314352133
 20
-151.4109130480848
 30
0.0
 10
90.84527314352133
 20
-151.4109130480848
 30
0.0
 10
90.9193426964542
 20
-151.3644042590339
 30
0.0
 10
91.03561466908138
 20
-151.290334706101
 30
0.0
 10
91.03561466908138
 20
-150.9689072973272
 30
0.0
 10
91.03561466908138
 20
-150.9137857695632
 30
0.0
 10
91.03148055449908
 20
-150.8693440378035
 30
0.0
 10
91.02924124243367
 20
-150.8314479874658
 30
0.0
 10
91.10555010743195
 20
-150.8397162166304
 30
0.0
 10
91.17944740559057
 20
-150.8462618980523
 30
0.0
 10
91.24300941729342
 20
-150.8462618980523
 30
0.0
 10
91.42077634433231
 20
-150.8462618980523
 30
0.0
 10
91.61955835383122
 20
-150.787006255706
 30
0.0
 10
91.68088105346867
 20
-150.7573784345329
 30
0.0
 10
91.68088105346867
 20
-150.7573784345329
 30
0.0
 10
91.80766056732587
 20
-150.8927706871032
 30
0.0
 10
91.80766056732587
 20
-150.8927706871032
 30
0.0
 10
91.8121391914567
 20
-150.8969048016855
 30
0.0
 10
91.81420624874784
 20
-150.9055175403986
 30
0.0
 10
91.81420624874784
 20
-150.9117187122721
 30
0.0
 10
91.81420624874784
 20
-150.9327337947321
 30
0.0
 10
91.79939233816127
 20
-150.9392794761541
 30
0.0
 10
91.78251137028354
 20
-150.9392794761541
 30
0.0
 10
91.76115177827499
 20
-150.9392794761541
 30
0.0
 10
91.74633786768842
 20
-150.930666737441
 30
0.0
 10
91.72738984251954
 20
-150.9203314509852
 30
0.0
 10
91.55410153961148
 20
-150.9771755264918
 30
0.0
 10
91.33602699539516
 20
-151.0026692330827
 30
0.0
 10
91.20287405489026
 20
-151.0047362903738
 30
0.0
 10
91.20287405489026
 20
-151.0047362903738
 30
0.0
 10
91.19856768553369
 20
-151.0874185820198
 30
0.0
 10
91.19856768553369
 20
-151.0874185820198
 30
0.0
 10
91.19856768553369
 20
-151.0874185820198
 30
0.0
 10
91.47141924796549
 20
-151.0874185820198
 30
0.0
 10
91.47141924796549
 20
-151.0874185820198
 30
0.0
 10
91.52860783302063
 20
-151.0874185820198
 30
0.0
 10
91.79077959944814
 20
-151.0681260473024
 30
0.0
 10
91.83522133120786
 20
-151.061924875429
 30
0.0
 10
91.83522133120786
 20
-151.061924875429
 30
0.0
 10
91.83522133120786
 20
-151.2310790637547
 30
0.0
 10
91.83522133120786
 20
-151.2310790637547
 30
0.0
 10
91.80145939545241
 20
-151.2269449491724
 30
0.0
 10
91.78871254215699
 20
-151.2248778918813
 30
0.0
 10
91.71050887464182
 20
-151.2248778918813
 30
0.0
  0
HATCH
  5
10D
330
D2
100
AcDbEntity
  8
_U+30EC_U+30A4_U+30E4_U+30FC 1
 62
   179
420
  2234388
100
AcDbHatch
 10
0.0
 20
0.0
 30
0.0
210
0.0
220
0.0
230
1.0
  2
SOLID
 70
     1
 71
     0
 91
        6
 92
        1
 93
        1
 72
     4
 94
        3
 73
     0
 74
     1
 95
       71
 96
       67
 40
0.0
 40
0.0
 40
0.0
 40
0.0
 40
1.0
 40
1.0
 40
1.0
 40
2.0
 40
2.0
 40
2.0
 40
3.0
 40
3.0
 40
3.0
 40
4.0
 40
4.0
 40
4.0
 40
5.0
 40
5.0
 40
5.0
 40
6.0
 40
6.0
 40
6.0
 40
7.0
 40
7.0
 40
7.0
 40
8.0
 40
8.0
 40
8.0
 40
9.0
 40
9.0
 40
9.0
 40
10.0
 40
10.0
 40
10.0
 40
11.0
 40
11.0
 40
11.0
 40
12.0
 40
12.0
 40
12.0
 40
13.0
 40
13.0
 40
13.0
 40
14.0
 40
14.0
 40
14.0
 40
15.0
 40
15.0
 40
15.0
 40
16.0
 40
16.0
 40
16.0
 40
17.0
 40
17.0
 40
17.0
 40
18.0
 40
18.0
 40
18.0
 40
19.0
 40
19.0
 40
19.0
 40
20.0
 40
20.0
 40
20.0
 40
21.0
 40
21.0
 40
21.0
 40
22.0
 40
22.0
 40
22.0
 40
22.0
 10
90.8600870541079
 20
-150.9454806480275
 10
90.84527314352133
 20
-150.9454806480275
 10
90.8325262902259
 20
-150.9413465334452
 10
90.80720483840932
 20
-150.9327337947321
 10
90.66543915919128
 20
-150.979242583783
 10
90.49197860150895
 20
-150.9964680612092
 10
90.35227997958208
 20
-151.0006021757915
 10
90.35227997958208
 20
-151.0006021757915
 10
90.35021292229092
 20
-151.089485639311
 10
90.35021292229092
 20
-151.089485639311
 10
90.35021292229092
 20
-151.089485639311
 10
90.61048988620155
 20
-151.089485639311
 10
90.61048988620155
 20
-151.089485639311
 10
90.66337210190014
 20
-151.089485639311
 10
90.84527314352133
 20
-151.0808729005979
 10
90.88971487528104
 20
-151.0746717287244
 10
90.88971487528104
 20
-151.0746717287244
 10
90.88971487528104
 20
-151.2355576878856
 10
90.88971487528104
 20
-151.2355576878856
 10
90.83476560229131
 20
-151.2290120064636
 10
90.70988089095101
 20
-151.2269449491724
 10
90.67181258583899
 20
-151.2290120064636
 10
90.67181258583899
 20
-151.2290120064636
 10
90.67181258583899
 20
-151.3389105524431
 10
90.67181258583899
 20
-151.3389105524431
 10
90.67181258583899
 20
-151.3857638510424
 10
90.67387964313015
 20
-151.4491536079711
 10
90.68025306977786
 20
-151.4870496583088
 10
90.68025306977786
 20
-151.4870496583088
 10
90.48767223215239
 20
-151.4870496583088
 10
90.48767223215239
 20
-151.4870496583088
 10
90.4940456588001
 20
-151.4470865506799
 10
90.50041908544782
 20
-151.3644042590339
 10
90.50041908544782
 20
-151.3495903484473
 10
90.50041908544782
 20
-151.3495903484473
 10
90.50041908544782
 20
-151.2290120064636
 10
90.50041908544782
 20
-151.2290120064636
 10
90.50041908544782
 20
-151.2290120064636
 10
90.33539901170435
 20
-151.2290120064636
 10
90.33539901170435
 20
-151.2290120064636
 10
90.29319659201003
 20
-151.4491536079711
 10
90.23807506424605
 20
-151.5294243327774
 10
90.13231063284887
 20
-151.6289875923011
 10
90.13231063284887
 20
-151.6289875923011
 10
89.96522350181425
 20
-151.5146104221908
 10
89.96522350181425
 20
-151.5146104221908
 10
90.02861325874285
 20
-151.4660345758488
 10
90.17881942189975
 20
-151.3537244630296
 10
90.17881942189975
 20
-151.0047362903738
 10
90.17881942189975
 20
-150.9223985082764
 10
90.17037893796088
 20
-150.8758897192255
 10
90.16193845402202
 20
-150.8269693633349
 10
90.30801050259662
 20
-150.8417832739215
 10
90.32282441318318
 20
-150.8417832739215
 10
90.35865340622979
 20
-150.8417832739215
 10
90.46665714969237
 20
-150.8417832739215
 10
90.60842282891039
 20
-150.8249023060438
 10
90.7691365332973
 20
-150.7635796064063
 10
90.7691365332973
 20
-150.7635796064063
 10
90.88334144863333
 20
-150.8948377443944
 10
90.88334144863333
 20
-150.8948377443944
 10
90.88971487528104
 20
-150.9010389162678
 10
90.89384898986334
 20
-150.9096516549809
 10
90.89384898986334
 20
-150.9179198841455
 10
90.89384898986334
 20
-150.9413465334452
 10
90.87490096469448
 20
-150.9454806480275
 10
90.8600870541079
 20
-150.9454806480275
 97
        0
 97
        0
 92
        1
 93
        1
 72
     4
 94
        3
 73
     0
 74
     1
 95
       74
 96
       70
 40
0.0
 40
0.0
 40
0.0
 40
0.0
 40
1.0
 40
1.0
 40
1.0
 40
2.0
 40
2.0
 40
2.0
 40
3.0
 40
3.0
 40
3.0
 40
4.0
 40
4.0
 40
4.0
 40
5.0
 40
5.0
 40
5.0
 40
6.0
 40
6.0
 40
6.0
 40
7.0
 40
7.0
 40
7.0
 40
8.0
 40
8.0
 40
8.0
 40
9.0
 40
9.0
 40
9.0
 40
10.0
 40
10.0
 40
10.0
 40
11.0
 40
11.0
 40
11.0
 40
12.0
 40
12.0
 40
12.0
 40
13.0
 40
13.0
 40
13.0
 40
14.0
 40
14.0
 40
14.0
 40
15.0
 40
15.0
 40
15.0
 40
16.0
 40
16.0
 40
16.0
 40
17.0
 40
17.0
 40
17.0
 40
18.0
 40
18.0
 40
18.0
 40
19.0
 40
19.0
 40
19.0
 40
20.0
 40
20.0
 40
20.0
 40
21.0
 40
21.0
 40
21.0
 40
22.0
 40
22.0
 40
22.0
 40
23.0
 40
23.0
 40
23.0
 40
23.0
 10
91.69776202134639
 20
-152.7121256128636
 10
91.48416610126091
 20
-152.7014458168594
 10
91.28314477969658
 20
-152.6146294106311
 10
91.1076171647231
 20
-152.4940510686473
 10
91.1076171647231
 20
-152.4940510686473
 10
91.2049411121814
 20
-152.407234662419
 10
91.2049411121814
 20
-152.407234662419
 10
91.2049411121814
 20
-152.407234662419
 10
90.65269230589585
 20
-152.407234662419
 10
90.65269230589585
 20
-152.407234662419
 10
90.65269230589585
 20
-152.407234662419
 10
90.73313528547644
 20
-152.4709689288962
 10
90.73313528547644
 20
-152.4709689288962
 10
90.73950871212415
 20
-152.4751030434784
 10
90.75001625335416
 20
-152.4857828394827
 10
90.75001625335416
 20
-152.5005967500693
 10
90.75001625335416
 20
-152.5405598576982
 10
90.67594670042129
 20
-152.5343586858247
 10
90.66130504460898
 20
-152.5322916285336
 10
90.4306559018715
 20
-152.6718179956862
 10
90.28682316536232
 20
-152.7035128741505
 10
90.1831257912563
 20
-152.7203938420282
 10
90.1831257912563
 20
-152.7203938420282
 10
90.0541069653337
 20
-152.5426269149893
 10
90.0541069653337
 20
-152.5426269149893
 10
90.3016370759489
 20
-152.510932036525
 10
90.40309513798951
 20
-152.4644232474742
 10
90.49197860150895
 20
-152.4117132865499
 10
90.41790904857608
 20
-152.413780343841
 10
90.30370413324005
 20
-152.4158474011322
 10
90.27200925477575
 20
-152.4179144584233
 10
90.28682316536232
 20
-152.3290309949039
 10
90.28889022265348
 20
-152.2001844237555
 10
90.28889022265348
 20
-152.1261148708226
 10
90.28889022265348
 20
-152.1261148708226
 10
90.28889022265348
 20
-151.8257025445089
 10
90.28889022265348
 20
-151.8257025445089
 10
90.28889022265348
 20
-151.7261392849852
 10
90.28251679600577
 20
-151.6269205350099
 10
90.27200925477575
 20
-151.5294243327774
 10
90.37346731681636
 20
-151.5356255046508
 10
90.60411645955384
 20
-151.5421711860728
 10
90.71194794824216
 20
-151.5421711860728
 10
90.71194794824216
 20
-151.5421711860728
 10
91.1351779286051
 20
-151.5421711860728
 10
91.1351779286051
 20
-151.5421711860728
 10
91.25351695852343
 20
-151.5421711860728
 10
91.29589163299201
 20
-151.5421711860728
 10
91.37840166986373
 20
-151.5380370714905
 10
91.52654077572949
 20
-151.5314913900685
 10
91.5434217436072
 20
-151.5314913900685
 10
91.58993053265807
 20
-151.5294243327774
 10
91.58131779394495
 20
-151.6096950575837
 10
91.57718367936265
 20
-151.7685139594537
 10
91.57718367936265
 20
-151.8508517415512
 10
91.57718367936265
 20
-151.8508517415512
 10
91.57718367936265
 20
-152.1364501572784
 10
91.57718367936265
 20
-152.1364501572784
 10
91.57718367936265
 20
-152.2084526529201
 10
91.5792507366538
 20
-152.3397107909081
 10
91.58993053265807
 20
-152.4179144584233
 10
91.51792803701636
 20
-152.413780343841
 10
91.39528263774146
 20
-152.4117132865499
 10
91.31707897022629
 20
-152.4096462292587
 10
91.42697751620575
 20
-152.4771701007696
 10
91.5792507366538
 20
-152.5278130044028
 10
91.79077959944814
 20
-152.5322916285336
 10
91.79077959944814
 20
-152.5322916285336
 10
91.69776202134639
 20
-152.7121256128636
 10
91.69776202134639
 20
-152.7121256128636
 97
        0
 97
        0
 92
        1
 93
        4
 72
     1
 10
91.39321558045032
 20
-151.6775634386431
 11
90.48147106027895
 21
-151.6775634386431
 72
     1
 10
90.48147106027895
 20
-151.6775634386431
 11
90.48147106027895
 21
-151.7895290419137
 72
     1
 10
90.48147106027895
 20
-151.7895290419137
 11
91.39321558045032
 21
-151.7895290419137
 72
     1
 10
91.39321558045032
 20
-151.7895290419137
 11
91.39321558045032
 21
-151.6775634386431
 97
        0
 92
        1
 93
        4
 72
     1
 10
91.39321558045032
 20
-151.9228542371929
 11
90.48147106027895
 21
-151.9228542371929
 72
     1
 10
90.48147106027895
 20
-151.9228542371929
 11
90.48147106027895
 21
-152.0330972927209
 72
     1
 10
90.48147106027895
 20
-152.0330972927209
 11
91.39321558045032
 21
-152.0330972927209
 72
     1
 10
91.39321558045032
 20
-152.0330972927209
 11
91.39321558045032
 21
-151.9228542371929
 97
        0
 92
        1
 93
        4
 72
     1
 10
91.39321558045032
 20
-152.1684895452912
 11
90.48147106027895
 21
-152.1684895452912
 72
     1
 10
90.48147106027895
 20
-152.1684895452912
 11
90.48147106027895
 21
-152.2763210339795
 72
     1
 10
90.48147106027895
 20
-152.2763210339795
 11
91.39321558045032
 21
-152.2763210339795
 72
     1
 10
91.39321558045032
 20
-152.2763210339795
 11
91.39321558045032
 21
-152.1684895452912
 97
        0
 92
        1
 93
        1
 72
     4
 94
        3
 73
     0
 74
     1
 95
       74
 96
       70
 40
0.0
 40
0.0
 40
0.0
 40
0.0
 40
1.0
 40
1.0
 40
1.0
 40
2.0
 40
2.0
 40
2.0
 40
3.0
 40
3.0
 40
3.0
 40
4.0
 40
4.0
 40
4.0
 40
5.0
 40
5.0
 40
5.0
 40
6.0
 40
6.0
 40
6.0
 40
7.0
 40
7.0
 40
7.0
 40
8.0
 40
8.0
 40
8.0
 40
9.0
 40
9.0
 40
9.0
 40
10.0
 40
10.0
 40
10.0
 40
11.0
 40
11.0
 40
11.0
 40
12.0
 40
12.0
 40
12.0
 40
13.0
 40
13.0
 40
13.0
 40
14.0
 40
14.0
 40
14.0
 40
15.0
 40
15.0
 40
15.0
 40
16.0
 40
16.0
 40
16.0
 40
17.0
 40
17.0
 40
17.0
 40
18.0
 40
18.0
 40
18.0
 40
19.0
 40
19.0
 40
19.0
 40
20.0
 40
20.0
 40
20.0
 40
21.0
 40
21.0
 40
21.0
 40
22.0
 40
22.0
 40
22.0
 40
23.0
 40
23.0
 40
23.0
 40
23.0
 10
91.71050887464182
 20
-151.2248778918813
 10
91.71050887464182
 20
-151.2248778918813
 10
91.54962291548065
 20
-151.2248778918813
 10
91.54962291548065
 20
-151.2248778918813
 10
91.54962291548065
 20
-151.2248778918813
 10
91.54962291548065
 20
-151.3389105524431
 10
91.54962291548065
 20
-151.3389105524431
 10
91.54962291548065
 20
-151.3792181696205
 10
91.55616859690262
 20
-151.4532877225533
 10
91.56030271148492
 20
-151.4787814291442
 10
91.56030271148492
 20
-151.4787814291442
 10
91.34877384869058
 20
-151.4787814291442
 10
91.34877384869058
 20
-151.4787814291442
 10
91.3592813899206
 20
-151.4129801053759
 10
91.36152070198601
 20
-151.3537244630296
 10
91.36152070198601
 20
-151.3516574057385
 10
91.36152070198601
 20
-151.3516574057385
 10
91.36152070198601
 20
-151.2290120064636
 10
91.36152070198601
 20
-151.2290120064636
 10
91.36152070198601
 20
-151.2290120064636
 10
91.18168671765598
 20
-151.2290120064636
 10
91.18168671765598
 20
-151.2290120064636
 10
91.16256643771284
 20
-151.2882676488099
 10
91.11605764866196
 20
-151.4343396973845
 10
91.00185273332593
 20
-151.516677479482
 10
91.00185273332593
 20
-151.516677479482
 10
90.84527314352133
 20
-151.4109130480848
 10
90.84527314352133
 20
-151.4109130480848
 10
90.9193426964542
 20
-151.3644042590339
 10
91.03561466908138
 20
-151.290334706101
 10
91.03561466908138
 20
-150.9689072973272
 10
91.03561466908138
 20
-150.9137857695632
 10
91.03148055449908
 20
-150.8693440378035
 10
91.02924124243367
 20
-150.8314479874658
 10
91.10555010743195
 20
-150.8397162166304
 10
91.17944740559057
 20
-150.8462618980523
 10
91.24300941729342
 20
-150.8462618980523
 10
91.42077634433231
 20
-150.8462618980523
 10
91.61955835383122
 20
-150.787006255706
 10
91.68088105346867
 20
-150.7573784345329
 10
91.68088105346867
 20
-150.7573784345329
 10
91.80766056732587
 20
-150.8927706871032
 10
91.80766056732587
 20
-150.8927706871032
 10
91.8121391914567
 20
-150.8969048016855
 10
91.81420624874784
 20
-150.9055175403986
 10
91.81420624874784
 20
-150.9117187122721
 10
91.81420624874784
 20
-150.9327337947321
 10
91.79939233816127
 20
-150.9392794761541
 10
91.78251137028354
 20
-150.9392794761541
 10
91.76115177827499
 20
-150.9392794761541
 10
91.74633786768842
 20
-150.930666737441
 10
91.72738984251954
 20
-150.9203314509852
 10
91.55410153961148
 20
-150.9771755264918
 10
91.33602699539516
 20
-151.0026692330827
 10
91.20287405489026
 20
-151.0047362903738
 10
91.20287405489026
 20
-151.0047362903738
 10
91.19856768553369
 20
-151.0874185820198
 10
91.19856768553369
 20
-151.0874185820198
 10
91.19856768553369
 20
-151.0874185820198
 10
91.47141924796549
 20
-151.0874185820198
 10
91.47141924796549
 20
-151.0874185820198
 10
91.52860783302063
 20
-151.0874185820198
 10
91.79077959944814
 20
-151.0681260473024
 10
91.83522133120786
 20
-151.061924875429
 10
91.83522133120786
 20
-151.061924875429
 10
91.83522133120786
 20
-151.2310790637547
 10
91.83522133120786
 20
-151.2310790637547
 10
91.80145939545241
 20
-151.2269449491724
 10
91.78871254215699
 20
-151.2248778918813
 10
91.71050887464182
 20
-151.2248778918813
 97
        0
 97
        0
 75
     2
 76
     1
 98
        0
  0
SPLINE
  5
10E
330
D2
100
AcDbEntity
  8
_U+30EC_U+30A4_U+30E4_U+30FC 1
370
     0
100
AcDbSpline
210
0.0
220
0.0
230
1.0
 70
    11
 71
     3
 72
   158
 73
   154
 74
     0
 42
0.0000000001
 43
0.0000000001
 12
1.0
 22
0.0
 32
0.0
 13
1.0
 23
0.0
 33
0.0
 40
0.0
 40
0.0
 40
0.0
 40
0.0
 40
1.0
 40
1.0
 40
1.0
 40
2.0
 40
2.0
 40
2.0
 40
3.0
 40
3.0
 40
3.0
 40
4.0
 40
4.0
 40
4.0
 40
5.0
 40
5.0
 40
5.0
 40
6.0
 40
6.0
 40
6.0
 40
7.0
 40
7.0
 40
7.0
 40
8.0
 40
8.0
 40
8.0
 40
9.0
 40
9.0
 40
9.0
 40
10.0
 40
10.0
 40
10.0
 40
11.0
 40
11.0
 40
11.0
 40
12.0
 40
12.0
 40
12.0
 40
13.0
 40
13.0
 40
13.0
 40
14.0
 40
14.0
 40
14.0
 40
15.0
 40
15.0
 40
15.0
 40
16.0
 40
16.0
 40
16.0
 40
17.0
 40
17.0
 40
17.0
 40
18.0
 40
18.0
 40
18.0
 40
19.0
 40
19.0
 40
19.0
 40
20.0
 40
20.0
 40
20.0
 40
21.0
 40
21.0
 40
21.0
 40
22.0
 40
22.0
 40
22.0
 40
23.0
 40
23.0
 40
23.0
 40
24.0
 40
24.0
 40
24.0
 40
25.0
 40
25.0
 40
25.0
 40
26.0
 40
26.0
 40
26.0
 40
27.0
 40
27.0
 40
27.0
 40
28.0
 40
28.0
 40
28.0
 40
29.0
 40
29.0
 40
29.0
 40
30.0
 40
30.0
 40
30.0
 40
31.0
 40
31.0
 40
31.0
 40
32.0
 40
32.0
 40
32.0
 40
33.0
 40
33.0
 40
33.0
 40
34.0
 40
34.0
 40
34.0
 40
35.0
 40
35.0
 40
35.0
 40
36.0
 40
36.0
 40
36.0
 40
37.0
 40
37.0
 40
37.0
 40
38.0
 40
38.0
 40
38.0
 40
39.0
 40
39.0
 40
39.0
 40
40.0
 40
40.0
 40
40.0
 40
41.0
 40
41.0
 40
41.0
 40
42.0
 40
42.0
 40
42.0
 40
43.0
 40
43.0
 40
43.0
 40
44.0
 40
44.0
 40
44.0
 40
45.0
 40
45.0
 40
45.0
 40
46.0
 40
46.0
 40
46.0
 40
47.0
 40
47.0
 40
47.0
 40
48.0
 40
48.0
 40
48.0
 40
49.0
 40
49.0
 40
49.0
 40
50.0
 40
50.0
 40
50.0
 40
51.0
 40
51.0
 40
51.0
 40
51.0
 10
93.57740611809871
 20
-151.1635551922438
 30
0.0
 10
93.57740611809871
 20
-151.1635551922438
 30
0.0
 10
93.05065101840401
 20
-151.1635551922438
 30
0.0
 10
93.05065101840401
 20
-151.1635551922438
 30
0.0
 10
93.03170299323513
 20
-151.1952500707081
 30
0.0
 10
93.03170299323513
 20
-151.1952500707081
 30
0.0
 10
92.96176755488456
 20
-151.2989474448142
 30
0.0
 10
93.0189561399397
 20
-151.3010145021053
 30
0.0
 10
93.15434839251003
 20
-151.3030815593964
 30
0.0
 10
93.21153697756517
 20
-151.3030815593964
 30
0.0
 10
93.21153697756517
 20
-151.3030815593964
 30
0.0
 10
93.53951006776096
 20
-151.3030815593964
 30
0.0
 10
93.53951006776096
 20
-151.3030815593964
 30
0.0
 10
93.67076820574898
 20
-151.3030815593964
 30
0.0
 10
93.7152099375087
 20
-151.2989474448142
 30
0.0
 10
93.8102945729016
 20
-151.2944688206833
 30
0.0
 10
93.8061604583193
 20
-151.3709499404559
 30
0.0
 10
93.80374889147963
 20
-151.4174587295068
 30
0.0
 10
93.80374889147963
 20
-151.4808484864353
 30
0.0
 10
93.80374889147963
 20
-151.4808484864353
 30
0.0
 10
93.80374889147963
 20
-151.6183077962968
 30
0.0
 10
93.80374889147963
 20
-151.6183077962968
 30
0.0
 10
93.80374889147963
 20
-151.7388861382806
 30
0.0
 10
93.8061604583193
 20
-151.751632991576
 30
0.0
 10
93.81236163019275
 20
-151.8236354872177
 30
0.0
 10
93.69591740279131
 20
-151.8170898057957
 30
0.0
 10
93.66215546703586
 20
-151.8170898057957
 30
0.0
 10
93.54157712505211
 20
-151.8170898057957
 30
0.0
 10
93.54157712505211
 20
-151.8170898057957
 30
0.0
 10
93.2242838308606
 20
-151.8170898057957
 30
0.0
 10
93.2242838308606
 20
-151.8170898057957
 30
0.0
 10
93.13540036734115
 20
-151.8170898057957
 30
0.0
 10
93.04238278923941
 20
-151.821223920378
 30
0.0
 10
92.90699053666908
 20
-151.8277696018
 30
0.0
 10
92.91112465125138
 20
-151.7705810167449
 30
0.0
 10
92.91319170854254
 20
-151.7133924316897
 30
0.0
 10
92.91319170854254
 20
-151.6565483561831
 30
0.0
 10
92.91319170854254
 20
-151.6565483561831
 30
0.0
 10
92.91319170854254
 20
-151.4956623970219
 30
0.0
 10
92.91319170854254
 20
-151.4956623970219
 30
0.0
 10
92.91319170854254
 20
-151.4532877225533
 30
0.0
 10
92.91319170854254
 20
-151.4446749838402
 30
0.0
 10
92.91112465125138
 20
-151.3750840550382
 30
0.0
 10
92.90285642208678
 20
-151.3898979656248
 30
0.0
 10
92.89837779795596
 20
-151.3919650229159
 30
0.0
 10
92.88356388736939
 20
-151.4129801053759
 30
0.0
 10
92.88356388736939
 20
-151.4129801053759
 30
0.0
 10
92.75471731622105
 20
-151.3347764378608
 30
0.0
 10
92.75471731622105
 20
-151.3347764378608
 30
0.0
 10
92.75471731622105
 20
-151.3347764378608
 30
0.0
 10
92.75471731622105
 20
-151.4446749838402
 30
0.0
 10
92.75471731622105
 20
-151.4446749838402
 30
0.0
 10
92.70372990303935
 20
-151.4384738119668
 30
0.0
 10
92.62966035010648
 20
-151.4384738119668
 30
0.0
 10
92.59589841435103
 20
-151.4384738119668
 30
0.0
 10
92.59589841435103
 20
-151.4384738119668
 30
0.0
 10
92.52837454284013
 20
-151.4384738119668
 30
0.0
 10
92.52837454284013
 20
-151.4384738119668
 30
0.0
 10
92.52837454284013
 20
-151.4384738119668
 30
0.0
 10
92.52837454284013
 20
-152.00760358613
 30
0.0
 10
92.52837454284013
 20
-152.00760358613
 30
0.0
 10
92.56006942130443
 20
-152.0010579047081
 30
0.0
 10
92.67203502457505
 20
-151.9779757649569
 30
0.0
 10
92.76953122680762
 20
-151.9442138292015
 30
0.0
 10
92.76953122680762
 20
-151.9442138292015
 30
0.0
 10
92.75023869209022
 20
-152.1175021321095
 30
0.0
 10
92.75023869209022
 20
-152.1175021321095
 30
0.0
 10
92.70820852717017
 20
-152.1343830999872
 30
0.0
 10
92.67858070599702
 20
-152.1450628959915
 30
0.0
 10
92.52182886141816
 20
-152.1915716850424
 30
0.0
 10
92.4288112833164
 20
-152.2191324489244
 30
0.0
 10
92.28067217745067
 20
-152.2635741806841
 30
0.0
 10
92.18765459934892
 20
-152.2911349445661
 30
0.0
 10
92.18352048476662
 20
-152.3162841416084
 30
0.0
 10
92.1790418606358
 20
-152.337643733617
 30
0.0
 10
92.16009383546692
 20
-152.337643733617
 30
0.0
 10
92.14114581029806
 20
-152.337643733617
 30
0.0
 10
92.1349446384246
 20
-152.3228298230304
 30
0.0
 10
92.13046601429377
 20
-152.310082969735
 30
0.0
 10
92.13046601429377
 20
-152.310082969735
 30
0.0
 10
92.06294214278287
 20
-152.0837401963541
 30
0.0
 10
92.06294214278287
 20
-152.0837401963541
 30
0.0
 10
92.22796221652635
 20
-152.0623806043455
 30
0.0
 10
92.25965709499064
 20
-152.0582464897632
 30
0.0
 10
92.34406193437927
 20
-152.0434325791767
 30
0.0
 10
92.34406193437927
 20
-152.0434325791767
 30
0.0
 10
92.34406193437927
 20
-151.4384738119668
 30
0.0
 10
92.34406193437927
 20
-151.4384738119668
 30
0.0
 10
92.34406193437927
 20
-151.4384738119668
 30
0.0
 10
92.2934190307461
 20
-151.4384738119668
 30
0.0
 10
92.2934190307461
 20
-151.4384738119668
 30
0.0
 10
92.21728242052207
 20
-151.4384738119668
 30
0.0
 10
92.12219778512917
 20
-151.4446749838402
 30
0.0
 10
92.09877113582948
 20
-151.4470865506799
 30
0.0
 10
92.09877113582948
 20
-151.4470865506799
 30
0.0
 10
92.09877113582948
 20
-151.2648409995102
 30
0.0
 10
92.09877113582948
 20
-151.2648409995102
 30
0.0
 10
92.15595972088462
 20
-151.2734537382233
 30
0.0
 10
92.2617241522818
 20
-151.2755207955145
 30
0.0
 10
92.27447100557723
 20
-151.2755207955145
 30
0.0
 10
92.27447100557723
 20
-151.2755207955145
 30
0.0
 10
92.34406193437927
 20
-151.2755207955145
 30
0.0
 10
92.34406193437927
 20
-151.2755207955145
 30
0.0
 10
92.34406193437927
 20
-151.2755207955145
 30
0.0
 10
92.34406193437927
 20
-150.8989718589767
 30
0.0
 10
92.34406193437927
 20
-150.8989718589767
 30
0.0
 10
92.34406193437927
 20
-150.8524630699258
 30
0.0
 10
92.34199487708811
 20
-150.8187011341703
 30
0.0
 10
92.33992781979697
 20
-150.7825276315752
 30
0.0
 10
92.33992781979697
 20
-150.7825276315752
 30
0.0
 10
92.54525551071785
 20
-150.7997531090014
 30
0.0
 10
92.54525551071785
 20
-150.7997531090014
 30
0.0
 10
92.55800236401328
 20
-150.7997531090014
 30
0.0
 10
92.58108450376446
 20
-150.8038872235838
 30
0.0
 10
92.58108450376446
 20
-150.8228352487526
 30
0.0
 10
92.58108450376446
 20
-150.8441948407612
 30
0.0
 10
92.55800236401328
 20
-150.8565971845081
 30
0.0
 10
92.53664277200473
 20
-150.8672769805123
 30
0.0
 10
92.52837454284013
 20
-151.0174831436692
 30
0.0
 10
92.52837454284013
 20
-151.0915526966021
 30
0.0
 10
92.52837454284013
 20
-151.2755207955145
 30
0.0
 10
92.52837454284013
 20
-151.2755207955145
 30
0.0
 10
92.59589841435103
 20
-151.2755207955145
 30
0.0
 10
92.59589841435103
 20
-151.2755207955145
 30
0.0
 10
92.6424072034019
 20
-151.2755207955145
 30
0.0
 10
92.7057969603305
 20
-151.2713866809322
 30
0.0
 10
92.75023869209022
 20
-151.2607068849279
 30
0.0
 10
92.87322860091363
 20
-151.1211805177753
 30
0.0
 10
92.95556638301112
 20
-150.9158528268544
 30
0.0
 10
92.98519420418427
 20
-150.7721923451195
 30
0.0
 10
92.98519420418427
 20
-150.7721923451195
 30
0.0
 10
93.2008571815609
 20
-150.8249023060438
 30
0.0
 10
93.2008571815609
 20
-150.8249023060438
 30
0.0
 10
93.21153697756517
 20
-150.8269693633349
 30
0.0
 10
93.2284179454429
 20
-150.8335150447569
 30
0.0
 10
93.2284179454429
 20
-150.8483289553435
 30
0.0
 10
93.2284179454429
 20
-150.8693440378035
 30
0.0
 10
93.20740286298287
 20
-150.8734781523858
 30
0.0
 10
93.17364092722742
 20
-150.8820908910989
 30
0.0
 10
93.15021427792773
 20
-150.9434135907364
 30
0.0
 10
93.14401310605427
 20
-150.9623616159053
 30
0.0
 10
93.12678762862802
 20
-151.0026692330827
 30
0.0
 10
93.12678762862802
 20
-151.0026692330827
 30
0.0
 10
93.57120494622527
 20
-151.0026692330827
 30
0.0
 10
93.57120494622527
 20
-151.0026692330827
 30
0.0
 10
93.8144286874839
 20
-151.0026692330827
 30
0.0
 10
93.83992239407475
 20
-150.9964680612092
 30
0.0
 10
93.97324758935392
 20
-150.9857882652049
 30
0.0
 10
93.97324758935392
 20
-150.9857882652049
 30
0.0
 10
93.97324758935392
 20
-151.1738904786996
 30
0.0
 10
93.97324758935392
 20
-151.1738904786996
 30
0.0
 10
93.8654161006656
 20
-151.165622249535
 30
0.0
 10
93.58395179952068
 20
-151.1635551922438
 30
0.0
 10
93.57740611809871
 20
-151.1635551922438
 30
0.0
  0
SPLINE
  5
10F
330
D2
100
AcDbEntity
  8
_U+30EC_U+30A4_U+30E4_U+30FC 1
370
     0
100
AcDbSpline
210
0.0
220
0.0
230
1.0
 70
    11
 71
     3
 72
    47
 73
    43
 74
     0
 42
0.0000000001
 43
0.0000000001
 12
1.0
 22
0.0
 32
0.0
 13
1.0
 23
0.0
 33
0.0
 40
0.0
 40
0.0
 40
0.0
 40
0.0
 40
1.0
 40
1.0
 40
1.0
 40
2.0
 40
2.0
 40
2.0
 40
3.0
 40
3.0
 40
3.0
 40
4.0
 40
4.0
 40
4.0
 40
5.0
 40
5.0
 40
5.0
 40
6.0
 40
6.0
 40
6.0
 40
7.0
 40
7.0
 40
7.0
 40
8.0
 40
8.0
 40
8.0
 40
9.0
 40
9.0
 40
9.0
 40
10.0
 40
10.0
 40
10.0
 40
11.0
 40
11.0
 40
11.0
 40
12.0
 40
12.0
 40
12.0
 40
13.0
 40
13.0
 40
13.0
 40
14.0
 40
14.0
 40
14.0
 40
14.0
 10
93.63252764586271
 20
-152.6146294106311
 30
0.0
 10
93.63252764586271
 20
-152.6146294106311
 30
0.0
 10
93.06546492899058
 20
-152.6146294106311
 30
0.0
 10
93.06546492899058
 20
-152.6146294106311
 30
0.0
 10
93.0189561399397
 20
-152.6146294106311
 30
0.0
 10
92.76746416951647
 20
-152.6166964679222
 30
0.0
 10
92.61932506365073
 20
-152.6315103785088
 30
0.0
 10
92.61932506365073
 20
-152.6315103785088
 30
0.0
 10
92.61932506365073
 20
-152.4496093368876
 30
0.0
 10
92.61932506365073
 20
-152.4496093368876
 30
0.0
 10
92.6975287311659
 20
-152.4540879610184
 30
0.0
 10
92.73542478150365
 20
-152.4561550183096
 30
0.0
 10
92.82430824502309
 20
-152.4582220756007
 30
0.0
 10
92.82430824502309
 20
-152.4582220756007
 30
0.0
 10
92.82430824502309
 20
-152.2360134168021
 30
0.0
 10
92.82430824502309
 20
-152.2360134168021
 30
0.0
 10
92.82430824502309
 20
-152.1388617241181
 30
0.0
 10
92.82017413044079
 20
-152.0392984645943
 30
0.0
 10
92.81397295856735
 20
-151.9397352050706
 30
0.0
 10
92.90044485524712
 20
-151.9462808864926
 30
0.0
 10
93.0148220253574
 20
-151.9524820583661
 30
0.0
 10
93.21808265898716
 20
-151.9524820583661
 30
0.0
 10
93.21808265898716
 20
-151.9524820583661
 30
0.0
 10
93.53744301046981
 20
-151.9524820583661
 30
0.0
 10
93.53744301046981
 20
-151.9524820583661
 30
0.0
 10
93.53951006776096
 20
-151.9524820583661
 30
0.0
 10
93.75965166926842
 20
-151.9504150010749
 30
0.0
 10
93.89056529770792
 20
-151.9397352050706
 30
0.0
 10
93.88229706854332
 20
-152.0668592284763
 30
0.0
 10
93.88023001125217
 20
-152.1598768065781
 30
0.0
 10
93.88023001125217
 20
-152.2084526529201
 30
0.0
 10
93.88023001125217
 20
-152.2084526529201
 30
0.0
 10
93.88023001125217
 20
-152.4434081650141
 30
0.0
 10
93.88023001125217
 20
-152.4434081650141
 30
0.0
 10
93.95188799734537
 20
-152.441341107723
 30
0.0
 10
93.96670190793193
 20
-152.4392740504319
 30
0.0
 10
94.01114363969167
 20
-152.4327283690099
 30
0.0
 10
94.01114363969167
 20
-152.4327283690099
 30
0.0
 10
94.01114363969167
 20
-152.6232421493442
 30
0.0
 10
94.01114363969167
 20
-152.6232421493442
 30
0.0
 10
93.88436412583447
 20
-152.6166964679222
 30
0.0
 10
93.75965166926842
 20
-152.6146294106311
 30
0.0
 10
93.63252764586271
 20
-152.6146294106311
 30
0.0
  0
POLYLINE
  5
110
330
D2
100
AcDbEntity
  8
_U+30EC_U+30A4_U+30E4_U+30FC 1
370
     0
100
AcDb2dPolyline
 66
     1
 10
0.0
 20
0.0
 30
0.0
  0
VERTEX
  5
111
330
110
100
AcDbEntity
  8
_U+30EC_U+30A4_U+30E4_U+30FC 1
370
     0
100
AcDbVertex
100
AcDb2dVertex
 10
93.12678762862802
 20
-152.1068223361052
 30
0.0
  0
VERTEX
  5
112
330
110
100
AcDbEntity
  8
_U+30EC_U+30A4_U+30E4_U+30FC 1
370
     0
100
AcDbVertex
100
AcDb2dVertex
 10
93.00414222935314
 20
-152.1068223361052
 30
0.0
  0
VERTEX
  5
113
330
110
100
AcDbEntity
  8
_U+30EC_U+30A4_U+30E4_U+30FC 1
370
     0
100
AcDbVertex
100
AcDb2dVertex
 10
93.00414222935314
 20
-152.4602891328919
 30
0.0
  0
VERTEX
  5
114
330
110
100
AcDbEntity
  8
_U+30EC_U+30A4_U+30E4_U+30FC 1
370
     0
100
AcDbVertex
100
AcDb2dVertex
 10
93.12678762862802
 20
-152.4602891328919
 30
0.0
  0
VERTEX
  5
115
330
110
100
AcDbEntity
  8
_U+30EC_U+30A4_U+30E4_U+30FC 1
370
     0
100
AcDbVertex
100
AcDb2dVertex
 10
93.12678762862802
 20
-152.1068223361052
 30
0.0
  0
SEQEND
  5
116
330
110
100
AcDbEntity
  8
_U+30EC_U+30A4_U+30E4_U+30FC 1
370
     0
  0
POLYLINE
  5
117
330
D2
100
AcDbEntity
  8
_U+30EC_U+30A4_U+30E4_U+30FC 1
370
     0
100
AcDb2dPolyline
 66
     1
 10
0.0
 20
0.0
 30
0.0
  0
VERTEX
  5
118
330
117
100
AcDbEntity
  8
_U+30EC_U+30A4_U+30E4_U+30FC 1
370
     0
100
AcDbVertex
100
AcDb2dVertex
 10
93.62839353128041
 20
-151.4574218371357
 30
0.0
  0
VERTEX
  5
119
330
117
100
AcDbEntity
  8
_U+30EC_U+30A4_U+30E4_U+30FC 1
370
     0
100
AcDbVertex
100
AcDb2dVertex
 10
93.08889157829029
 20
-151.4574218371357
 30
0.0
  0
VERTEX
  5
11A
330
117
100
AcDbEntity
  8
_U+30EC_U+30A4_U+30E4_U+30FC 1
370
     0
100
AcDbVertex
100
AcDb2dVertex
 10
93.08889157829029
 20
-151.6668836426389
 30
0.0
  0
VERTEX
  5
11B
330
117
100
AcDbEntity
  8
_U+30EC_U+30A4_U+30E4_U+30FC 1
370
     0
100
AcDbVertex
100
AcDb2dVertex
 10
93.62839353128041
 20
-151.6668836426389
 30
0.0
  0
VERTEX
  5
11C
330
117
100
AcDbEntity
  8
_U+30EC_U+30A4_U+30E4_U+30FC 1
370
     0
100
AcDbVertex
100
AcDb2dVertex
 10
93.62839353128041
 20
-151.4574218371357
 30
0.0
  0
SEQEND
  5
11D
330
117
100
AcDbEntity
  8
_U+30EC_U+30A4_U+30E4_U+30FC 1
370
     0
  0
POLYLINE
  5
11E
330
D2
100
AcDbEntity
  8
_U+30EC_U+30A4_U+30E4_U+30FC 1
370
     0
100
AcDb2dPolyline
 66
     1
 10
0.0
 20
0.0
 30
0.0
  0
VERTEX
  5
11F
330
11E
100
AcDbEntity
  8
_U+30EC_U+30A4_U+30E4_U+30FC 1
370
     0
100
AcDbVertex
100
AcDb2dVertex
 10
93.41238604435524
 20
-152.1092339029449
 30
0.0
  0
VERTEX
  5
120
330
11E
100
AcDbEntity
  8
_U+30EC_U+30A4_U+30E4_U+30FC 1
370
     0
100
AcDbVertex
100
AcDb2dVertex
 10
93.28560653049804
 20
-152.1092339029449
 30
0.0
  0
VERTEX
  5
121
330
11E
100
AcDbEntity
  8
_U+30EC_U+30A4_U+30E4_U+30FC 1
370
     0
100
AcDbVertex
100
AcDb2dVertex
 10
93.28560653049804
 20
-152.4540879610184
 30
0.0
  0
VERTEX
  5
122
330
11E
100
AcDbEntity
  8
_U+30EC_U+30A4_U+30E4_U+30FC 1
370
     0
100
AcDbVertex
100
AcDb2dVertex
 10
93.41238604435524
 20
-152.4540879610184
 30
0.0
  0
VERTEX
  5
123
330
11E
100
AcDbEntity
  8
_U+30EC_U+30A4_U+30E4_U+30FC 1
370
     0
100
AcDbVertex
100
AcDb2dVertex
 10
93.41238604435524
 20
-152.1092339029449
 30
0.0
  0
SEQEND
  5
124
330
11E
100
AcDbEntity
  8
_U+30EC_U+30A4_U+30E4_U+30FC 1
370
     0
  0
POLYLINE
  5
125
330
D2
100
AcDbEntity
  8
_U+30EC_U+30A4_U+30E4_U+30FC 1
370
     0
100
AcDb2dPolyline
 66
     1
 10
0.0
 20
0.0
 30
0.0
  0
VERTEX
  5
126
330
125
100
AcDbEntity
  8
_U+30EC_U+30A4_U+30E4_U+30FC 1
370
     0
100
AcDbVertex
100
AcDb2dVertex
 10
93.70039602692212
 20
-152.1068223361052
 30
0.0
  0
VERTEX
  5
127
330
125
100
AcDbEntity
  8
_U+30EC_U+30A4_U+30E4_U+30FC 1
370
     0
100
AcDbVertex
100
AcDb2dVertex
 10
93.57327200351641
 20
-152.1068223361052
 30
0.0
  0
VERTEX
  5
128
330
125
100
AcDbEntity
  8
_U+30EC_U+30A4_U+30E4_U+30FC 1
370
     0
100
AcDbVertex
100
AcDb2dVertex
 10
93.57327200351641
 20
-152.4475422795965
 30
0.0
  0
VERTEX
  5
129
330
125
100
AcDbEntity
  8
_U+30EC_U+30A4_U+30E4_U+30FC 1
370
     0
100
AcDbVertex
100
AcDb2dVertex
 10
93.70039602692212
 20
-152.4475422795965
 30
0.0
  0
VERTEX
  5
12A
330
125
100
AcDbEntity
  8
_U+30EC_U+30A4_U+30E4_U+30FC 1
370
     0
100
AcDbVertex
100
AcDb2dVertex
 10
93.70039602692212
 20
-152.1068223361052
 30
0.0
  0
SEQEND
  5
12B
330
125
100
AcDbEntity
  8
_U+30EC_U+30A4_U+30E4_U+30FC 1
370
     0
  0
HATCH
  5
12C
330
D2
100
AcDbEntity
  8
_U+30EC_U+30A4_U+30E4_U+30FC 1
 62
   179
420
  2234388
100
AcDbHatch
 10
0.0
 20
0.0
 30
0.0
210
0.0
220
0.0
230
1.0
  2
SOLID
 70
     1
 71
     0
 91
        6
 92
        1
 93
        1
 72
     4
 94
        3
 73
     0
 74
     1
 95
      158
 96
      154
 40
0.0
 40
0.0
 40
0.0
 40
0.0
 40
1.0
 40
1.0
 40
1.0
 40
2.0
 40
2.0
 40
2.0
 40
3.0
 40
3.0
 40
3.0
 40
4.0
 40
4.0
 40
4.0
 40
5.0
 40
5.0
 40
5.0
 40
6.0
 40
6.0
 40
6.0
 40
7.0
 40
7.0
 40
7.0
 40
8.0
 40
8.0
 40
8.0
 40
9.0
 40
9.0
 40
9.0
 40
10.0
 40
10.0
 40
10.0
 40
11.0
 40
11.0
 40
11.0
 40
12.0
 40
12.0
 40
12.0
 40
13.0
 40
13.0
 40
13.0
 40
14.0
 40
14.0
 40
14.0
 40
15.0
 40
15.0
 40
15.0
 40
16.0
 40
16.0
 40
16.0
 40
17.0
 40
17.0
 40
17.0
 40
18.0
 40
18.0
 40
18.0
 40
19.0
 40
19.0
 40
19.0
 40
20.0
 40
20.0
 40
20.0
 40
21.0
 40
21.0
 40
21.0
 40
22.0
 40
22.0
 40
22.0
 40
23.0
 40
23.0
 40
23.0
 40
24.0
 40
24.0
 40
24.0
 40
25.0
 40
25.0
 40
25.0
 40
26.0
 40
26.0
 40
26.0
 40
27.0
 40
27.0
 40
27.0
 40
28.0
 40
28.0
 40
28.0
 40
29.0
 40
29.0
 40
29.0
 40
30.0
 40
30.0
 40
30.0
 40
31.0
 40
31.0
 40
31.0
 40
32.0
 40
32.0
 40
32.0
 40
33.0
 40
33.0
 40
33.0
 40
34.0
 40
34.0
 40
34.0
 40
35.0
 40
35.0
 40
35.0
 40
36.0
 40
36.0
 40
36.0
 40
37.0
 40
37.0
 40
37.0
 40
38.0
 40
38.0
 40
38.0
 40
39.0
 40
39.0
 40
39.0
 40
40.0
 40
40.0
 40
40.0
 40
41.0
 40
41.0
 40
41.0
 40
42.0
 40
42.0
 40
42.0
 40
43.0
 40
43.0
 40
43.0
 40
44.0
 40
44.0
 40
44.0
 40
45.0
 40
45.0
 40
45.0
 40
46.0
 40
46.0
 40
46.0
 40
47.0
 40
47.0
 40
47.0
 40
48.0
 40
48.0
 40
48.0
 40
49.0
 40
49.0
 40
49.0
 40
50.0
 40
50.0
 40
50.0
 40
51.0
 40
51.0
 40
51.0
 40
51.0
 10
93.57740611809871
 20
-151.1635551922438
 10
93.57740611809871
 20
-151.1635551922438
 10
93.05065101840401
 20
-151.1635551922438
 10
93.05065101840401
 20
-151.1635551922438
 10
93.03170299323513
 20
-151.1952500707081
 10
93.03170299323513
 20
-151.1952500707081
 10
92.96176755488456
 20
-151.2989474448142
 10
93.0189561399397
 20
-151.3010145021053
 10
93.15434839251003
 20
-151.3030815593964
 10
93.21153697756517
 20
-151.3030815593964
 10
93.21153697756517
 20
-151.3030815593964
 10
93.53951006776096
 20
-151.3030815593964
 10
93.53951006776096
 20
-151.3030815593964
 10
93.67076820574898
 20
-151.3030815593964
 10
93.7152099375087
 20
-151.2989474448142
 10
93.8102945729016
 20
-151.2944688206833
 10
93.8061604583193
 20
-151.3709499404559
 10
93.80374889147963
 20
-151.4174587295068
 10
93.80374889147963
 20
-151.4808484864353
 10
93.80374889147963
 20
-151.4808484864353
 10
93.80374889147963
 20
-151.6183077962968
 10
93.80374889147963
 20
-151.6183077962968
 10
93.80374889147963
 20
-151.7388861382806
 10
93.8061604583193
 20
-151.751632991576
 10
93.81236163019275
 20
-151.8236354872177
 10
93.69591740279131
 20
-151.8170898057957
 10
93.66215546703586
 20
-151.8170898057957
 10
93.54157712505211
 20
-151.8170898057957
 10
93.54157712505211
 20
-151.8170898057957
 10
93.2242838308606
 20
-151.8170898057957
 10
93.2242838308606
 20
-151.8170898057957
 10
93.13540036734115
 20
-151.8170898057957
 10
93.04238278923941
 20
-151.821223920378
 10
92.90699053666908
 20
-151.8277696018
 10
92.91112465125138
 20
-151.7705810167449
 10
92.91319170854254
 20
-151.7133924316897
 10
92.91319170854254
 20
-151.6565483561831
 10
92.91319170854254
 20
-151.6565483561831
 10
92.91319170854254
 20
-151.4956623970219
 10
92.91319170854254
 20
-151.4956623970219
 10
92.91319170854254
 20
-151.4532877225533
 10
92.91319170854254
 20
-151.4446749838402
 10
92.91112465125138
 20
-151.3750840550382
 10
92.90285642208678
 20
-151.3898979656248
 10
92.89837779795596
 20
-151.3919650229159
 10
92.88356388736939
 20
-151.4129801053759
 10
92.88356388736939
 20
-151.4129801053759
 10
92.75471731622105
 20
-151.3347764378608
 10
92.75471731622105
 20
-151.3347764378608
 10
92.75471731622105
 20
-151.3347764378608
 10
92.75471731622105
 20
-151.4446749838402
 10
92.75471731622105
 20
-151.4446749838402
 10
92.70372990303935
 20
-151.4384738119668
 10
92.62966035010648
 20
-151.4384738119668
 10
92.59589841435103
 20
-151.4384738119668
 10
92.59589841435103
 20
-151.4384738119668
 10
92.52837454284013
 20
-151.4384738119668
 10
92.52837454284013
 20
-151.4384738119668
 10
92.52837454284013
 20
-151.4384738119668
 10
92.52837454284013
 20
-152.00760358613
 10
92.52837454284013
 20
-152.00760358613
 10
92.56006942130443
 20
-152.0010579047081
 10
92.67203502457505
 20
-151.9779757649569
 10
92.76953122680762
 20
-151.9442138292015
 10
92.76953122680762
 20
-151.9442138292015
 10
92.75023869209022
 20
-152.1175021321095
 10
92.75023869209022
 20
-152.1175021321095
 10
92.70820852717017
 20
-152.1343830999872
 10
92.67858070599702
 20
-152.1450628959915
 10
92.52182886141816
 20
-152.1915716850424
 10
92.4288112833164
 20
-152.2191324489244
 10
92.28067217745067
 20
-152.2635741806841
 10
92.18765459934892
 20
-152.2911349445661
 10
92.18352048476662
 20
-152.3162841416084
 10
92.1790418606358
 20
-152.337643733617
 10
92.16009383546692
 20
-152.337643733617
 10
92.14114581029806
 20
-152.337643733617
 10
92.1349446384246
 20
-152.3228298230304
 10
92.13046601429377
 20
-152.310082969735
 10
92.13046601429377
 20
-152.310082969735
 10
92.06294214278287
 20
-152.0837401963541
 10
92.06294214278287
 20
-152.0837401963541
 10
92.22796221652635
 20
-152.0623806043455
 10
92.25965709499064
 20
-152.0582464897632
 10
92.34406193437927
 20
-152.0434325791767
 10
92.34406193437927
 20
-152.0434325791767
 10
92.34406193437927
 20
-151.4384738119668
 10
92.34406193437927
 20
-151.4384738119668
 10
92.34406193437927
 20
-151.4384738119668
 10
92.2934190307461
 20
-151.4384738119668
 10
92.2934190307461
 20
-151.4384738119668
 10
92.21728242052207
 20
-151.4384738119668
 10
92.12219778512917
 20
-151.4446749838402
 10
92.09877113582948
 20
-151.4470865506799
 10
92.09877113582948
 20
-151.4470865506799
 10
92.09877113582948
 20
-151.2648409995102
 10
92.09877113582948
 20
-151.2648409995102
 10
92.15595972088462
 20
-151.2734537382233
 10
92.2617241522818
 20
-151.2755207955145
 10
92.27447100557723
 20
-151.2755207955145
 10
92.27447100557723
 20
-151.2755207955145
 10
92.34406193437927
 20
-151.2755207955145
 10
92.34406193437927
 20
-151.2755207955145
 10
92.34406193437927
 20
-151.2755207955145
 10
92.34406193437927
 20
-150.8989718589767
 10
92.34406193437927
 20
-150.8989718589767
 10
92.34406193437927
 20
-150.8524630699258
 10
92.34199487708811
 20
-150.8187011341703
 10
92.33992781979697
 20
-150.7825276315752
 10
92.33992781979697
 20
-150.7825276315752
 10
92.54525551071785
 20
-150.7997531090014
 10
92.54525551071785
 20
-150.7997531090014
 10
92.55800236401328
 20
-150.7997531090014
 10
92.58108450376446
 20
-150.8038872235838
 10
92.58108450376446
 20
-150.8228352487526
 10
92.58108450376446
 20
-150.8441948407612
 10
92.55800236401328
 20
-150.8565971845081
 10
92.53664277200473
 20
-150.8672769805123
 10
92.52837454284013
 20
-151.0174831436692
 10
92.52837454284013
 20
-151.0915526966021
 10
92.52837454284013
 20
-151.2755207955145
 10
92.52837454284013
 20
-151.2755207955145
 10
92.59589841435103
 20
-151.2755207955145
 10
92.59589841435103
 20
-151.2755207955145
 10
92.6424072034019
 20
-151.2755207955145
 10
92.7057969603305
 20
-151.2713866809322
 10
92.75023869209022
 20
-151.2607068849279
 10
92.87322860091363
 20
-151.1211805177753
 10
92.95556638301112
 20
-150.9158528268544
 10
92.98519420418427
 20
-150.7721923451195
 10
92.98519420418427
 20
-150.7721923451195
 10
93.2008571815609
 20
-150.8249023060438
 10
93.2008571815609
 20
-150.8249023060438
 10
93.21153697756517
 20
-150.8269693633349
 10
93.2284179454429
 20
-150.8335150447569
 10
93.2284179454429
 20
-150.8483289553435
 10
93.2284179454429
 20
-150.8693440378035
 10
93.20740286298287
 20
-150.8734781523858
 10
93.17364092722742
 20
-150.8820908910989
 10
93.15021427792773
 20
-150.9434135907364
 10
93.14401310605427
 20
-150.9623616159053
 10
93.12678762862802
 20
-151.0026692330827
 10
93.12678762862802
 20
-151.0026692330827
 10
93.57120494622527
 20
-151.0026692330827
 10
93.57120494622527
 20
-151.0026692330827
 10
93.8144286874839
 20
-151.0026692330827
 10
93.83992239407475
 20
-150.9964680612092
 10
93.97324758935392
 20
-150.9857882652049
 10
93.97324758935392
 20
-150.9857882652049
 10
93.97324758935392
 20
-151.1738904786996
 10
93.97324758935392
 20
-151.1738904786996
 10
93.8654161006656
 20
-151.165622249535
 10
93.58395179952068
 20
-151.1635551922438
 10
93.57740611809871
 20
-151.1635551922438
 97
        0
 97
        0
 92
        1
 93
        1
 72
     4
 94
        3
 73
     0
 74
     1
 95
       47
 96
       43
 40
0.0
 40
0.0
 40
0.0
 40
0.0
 40
1.0
 40
1.0
 40
1.0
 40
2.0
 40
2.0
 40
2.0
 40
3.0
 40
3.0
 40
3.0
 40
4.0
 40
4.0
 40
4.0
 40
5.0
 40
5.0
 40
5.0
 40
6.0
 40
6.0
 40
6.0
 40
7.0
 40
7.0
 40
7.0
 40
8.0
 40
8.0
 40
8.0
 40
9.0
 40
9.0
 40
9.0
 40
10.0
 40
10.0
 40
10.0
 40
11.0
 40
11.0
 40
11.0
 40
12.0
 40
12.0
 40
12.0
 40
13.0
 40
13.0
 40
13.0
 40
14.0
 40
14.0
 40
14.0
 40
14.0
 10
93.63252764586271
 20
-152.6146294106311
 10
93.63252764586271
 20
-152.6146294106311
 10
93.06546492899058
 20
-152.6146294106311
 10
93.06546492899058
 20
-152.6146294106311
 10
93.0189561399397
 20
-152.6146294106311
 10
92.76746416951647
 20
-152.6166964679222
 10
92.61932506365073
 20
-152.6315103785088
 10
92.61932506365073
 20
-152.6315103785088
 10
92.61932506365073
 20
-152.4496093368876
 10
92.61932506365073
 20
-152.4496093368876
 10
92.6975287311659
 20
-152.4540879610184
 10
92.73542478150365
 20
-152.4561550183096
 10
92.82430824502309
 20
-152.4582220756007
 10
92.82430824502309
 20
-152.4582220756007
 10
92.82430824502309
 20
-152.2360134168021
 10
92.82430824502309
 20
-152.2360134168021
 10
92.82430824502309
 20
-152.1388617241181
 10
92.82017413044079
 20
-152.0392984645943
 10
92.81397295856735
 20
-151.9397352050706
 10
92.90044485524712
 20
-151.9462808864926
 10
93.0148220253574
 20
-151.9524820583661
 10
93.21808265898716
 20
-151.9524820583661
 10
93.21808265898716
 20
-151.9524820583661
 10
93.53744301046981
 20
-151.9524820583661
 10
93.53744301046981
 20
-151.9524820583661
 10
93.53951006776096
 20
-151.9524820583661
 10
93.75965166926842
 20
-151.9504150010749
 10
93.89056529770792
 20
-151.9397352050706
 10
93.88229706854332
 20
-152.0668592284763
 10
93.88023001125217
 20
-152.1598768065781
 10
93.88023001125217
 20
-152.2084526529201
 10
93.88023001125217
 20
-152.2084526529201
 10
93.88023001125217
 20
-152.4434081650141
 10
93.88023001125217
 20
-152.4434081650141
 10
93.95188799734537
 20
-152.441341107723
 10
93.96670190793193
 20
-152.4392740504319
 10
94.01114363969167
 20
-152.4327283690099
 10
94.01114363969167
 20
-152.4327283690099
 10
94.01114363969167
 20
-152.6232421493442
 10
94.01114363969167
 20
-152.6232421493442
 10
93.88436412583447
 20
-152.6166964679222
 10
93.75965166926842
 20
-152.6146294106311
 10
93.63252764586271
 20
-152.6146294106311
 97
        0
 97
        0
 92
        1
 93
        4
 72
     1
 10
93.12678762862802
 20
-152.1068223361052
 11
93.00414222935314
 21
-152.1068223361052
 72
     1
 10
93.00414222935314
 20
-152.1068223361052
 11
93.00414222935314
 21
-152.4602891328919
 72
     1
 10
93.00414222935314
 20
-152.4602891328919
 11
93.12678762862802
 21
-152.4602891328919
 72
     1
 10
93.12678762862802
 20
-152.4602891328919
 11
93.12678762862802
 21
-152.1068223361052
 97
        0
 92
        1
 93
        4
 72
     1
 10
93.62839353128041
 20
-151.4574218371357
 11
93.08889157829029
 21
-151.4574218371357
 72
     1
 10
93.08889157829029
 20
-151.4574218371357
 11
93.08889157829029
 21
-151.6668836426389
 72
     1
 10
93.08889157829029
 20
-151.6668836426389
 11
93.62839353128041
 21
-151.6668836426389
 72
     1
 10
93.62839353128041
 20
-151.6668836426389
 11
93.62839353128041
 21
-151.4574218371357
 97
        0
 92
        1
 93
        4
 72
     1
 10
93.41238604435524
 20
-152.1092339029449
 11
93.28560653049804
 21
-152.1092339029449
 72
     1
 10
93.28560653049804
 20
-152.1092339029449
 11
93.28560653049804
 21
-152.4540879610184
 72
     1
 10
93.28560653049804
 20
-152.4540879610184
 11
93.41238604435524
 21
-152.4540879610184
 72
     1
 10
93.41238604435524
 20
-152.4540879610184
 11
93.41238604435524
 21
-152.1092339029449
 97
        0
 92
        1
 93
        4
 72
     1
 10
93.70039602692212
 20
-152.1068223361052
 11
93.57327200351641
 21
-152.1068223361052
 72
     1
 10
93.57327200351641
 20
-152.1068223361052
 11
93.57327200351641
 21
-152.4475422795965
 72
     1
 10
93.57327200351641
 20
-152.4475422795965
 11
93.70039602692212
 21
-152.4475422795965
 72
     1
 10
93.70039602692212
 20
-152.4475422795965
 11
93.70039602692212
 21
-152.1068223361052
 97
        0
 75
     2
 76
     1
 98
        0
  0
SPLINE
  5
12D
330
D2
100
AcDbEntity
  8
_U+30EC_U+30A4_U+30E4_U+30FC 1
370
     0
100
AcDbSpline
210
0.0
220
0.0
230
1.0
 70
    11
 71
     3
 72
    74
 73
    70
 74
     0
 42
0.0000000001
 43
0.0000000001
 12
1.0
 22
0.0
 32
0.0
 13
1.0
 23
0.0
 33
0.0
 40
0.0
 40
0.0
 40
0.0
 40
0.0
 40
1.0
 40
1.0
 40
1.0
 40
2.0
 40
2.0
 40
2.0
 40
3.0
 40
3.0
 40
3.0
 40
4.0
 40
4.0
 40
4.0
 40
5.0
 40
5.0
 40
5.0
 40
6.0
 40
6.0
 40
6.0
 40
7.0
 40
7.0
 40
7.0
 40
8.0
 40
8.0
 40
8.0
 40
9.0
 40
9.0
 40
9.0
 40
10.0
 40
10.0
 40
10.0
 40
11.0
 40
11.0
 40
11.0
 40
12.0
 40
12.0
 40
12.0
 40
13.0
 40
13.0
 40
13.0
 40
14.0
 40
14.0
 40
14.0
 40
15.0
 40
15.0
 40
15.0
 40
16.0
 40
16.0
 40
16.0
 40
17.0
 40
17.0
 40
17.0
 40
18.0
 40
18.0
 40
18.0
 40
19.0
 40
19.0
 40
19.0
 40
20.0
 40
20.0
 40
20.0
 40
21.0
 40
21.0
 40
21.0
 40
22.0
 40
22.0
 40
22.0
 40
23.0
 40
23.0
 40
23.0
 40
23.0
 10
94.94958764987372
 20
-152.5426269149893
 30
0.0
 10
94.34428437311533
 20
-152.5426269149893
 30
0.0
 10
94.27469344431327
 20
-152.434795426301
 30
0.0
 10
94.27469344431327
 20
-152.1133680175272
 30
0.0
 10
94.27469344431327
 20
-152.1133680175272
 30
0.0
 10
94.27469344431327
 20
-151.4767143718531
 30
0.0
 10
94.27469344431327
 20
-151.4767143718531
 30
0.0
 10
94.27469344431327
 20
-151.3285752659873
 30
0.0
 10
94.27469344431327
 20
-151.1442626575264
 30
0.0
 10
94.27262638702213
 20
-151.0302299969647
 30
0.0
 10
94.27055932973097
 20
-150.9647731827449
 30
0.0
 10
94.2681477628913
 20
-150.9372124188629
 30
0.0
 10
94.264013648309
 20
-150.8948377443944
 30
0.0
 10
94.264013648309
 20
-150.8948377443944
 30
0.0
 10
94.51585012828076
 20
-150.9413465334452
 30
0.0
 10
94.51585012828076
 20
-150.9413465334452
 30
0.0
 10
94.54754500674507
 20
-150.9475477053187
 30
0.0
 10
94.56649303191394
 20
-150.9499592721583
 30
0.0
 10
94.56649303191394
 20
-150.979242583783
 30
0.0
 10
94.56649303191394
 20
-150.9919894370784
 30
0.0
 10
94.5602918600405
 20
-151.0047362903738
 30
0.0
 10
94.55374617861851
 20
-151.013349029087
 30
0.0
 10
94.53066403886734
 20
-151.0409097929689
 30
0.0
 10
94.52652992428504
 20
-151.0450439075512
 30
0.0
 10
94.51171601369846
 20
-151.0705376141421
 30
0.0
 10
94.50517033227649
 20
-151.1508083389484
 30
0.0
 10
94.48828936439877
 20
-151.4195257867979
 30
0.0
 10
94.48622230710761
 20
-151.4870496583088
 30
0.0
 10
94.48622230710761
 20
-151.4870496583088
 30
0.0
 10
94.48415524981647
 20
-151.5717990072459
 30
0.0
 10
94.48415524981647
 20
-151.5717990072459
 30
0.0
 10
94.60886770638251
 20
-151.5697319499548
 30
0.0
 10
95.14836965937263
 20
-151.4343396973845
 30
0.0
 10
95.45291610026872
 20
-151.2607068849279
 30
0.0
 10
95.45291610026872
 20
-151.2607068849279
 30
0.0
 10
95.57556149954361
 20
-151.4743028050134
 30
0.0
 10
95.57556149954361
 20
-151.4743028050134
 30
0.0
 10
95.58004012367444
 20
-151.4808484864353
 30
0.0
 10
95.58830835283904
 20
-151.4977294543131
 30
0.0
 10
95.58830835283904
 20
-151.5084092503174
 30
0.0
 10
95.58830835283904
 20
-151.5187445367731
 30
0.0
 10
95.58004012367444
 20
-151.5294243327774
 30
0.0
 10
95.55454641708359
 20
-151.5294243327774
 30
0.0
 10
95.54179956378816
 20
-151.5294243327774
 30
0.0
 10
95.53111976778389
 20
-151.5294243327774
 30
0.0
 10
95.50390351345041
 20
-151.5084092503174
 30
0.0
 10
95.11874183819948
 20
-151.6372558214657
 30
0.0
 10
94.9960964389246
 20
-151.6710177572211
 30
0.0
 10
94.84795733305884
 20
-151.7006455783943
 30
0.0
 10
94.72531193378396
 20
-151.7261392849852
 30
0.0
 10
94.55822480274934
 20
-151.7557671061583
 30
0.0
 10
94.48415524981647
 20
-151.7578341634494
 30
0.0
 10
94.48415524981647
 20
-151.7578341634494
 30
0.0
 10
94.48415524981647
 20
-152.102688221523
 30
0.0
 10
94.48415524981647
 20
-152.102688221523
 30
0.0
 10
94.48415524981647
 20
-152.1302489854049
 30
0.0
 10
94.48415524981647
 20
-152.2466932128064
 30
0.0
 10
94.53686521074079
 20
-152.2866563204353
 30
0.0
 10
94.62574867426024
 20
-152.3545247014947
 30
0.0
 10
94.82900930788998
 20
-152.365204497499
 30
0.0
 10
94.94304196845174
 20
-152.365204497499
 30
0.0
 10
95.11460772361718
 20
-152.365204497499
 30
0.0
 10
95.45291610026872
 20
-152.3228298230304
 30
0.0
 10
95.60725637800792
 20
-152.261507123393
 30
0.0
 10
95.60725637800792
 20
-152.261507123393
 30
0.0
 10
95.60966794484759
 20
-152.4940510686473
 30
0.0
 10
95.60966794484759
 20
-152.4940510686473
 30
0.0
 10
95.38952634334012
 20
-152.5257459471116
 30
0.0
 10
95.16938474183266
 20
-152.5426269149893
 30
0.0
 10
94.94958764987372
 20
-152.5426269149893
 30
0.0
  0
SPLINE
  5
12E
330
D2
100
AcDbEntity
  8
_U+30EC_U+30A4_U+30E4_U+30FC 1
370
     0
100
AcDbSpline
210
0.0
220
0.0
230
1.0
 70
    11
 71
     3
 72
    17
 73
    13
 74
     0
 42
0.0000000001
 43
0.0000000001
 12
1.0
 22
0.0
 32
0.0
 13
1.0
 23
0.0
 33
0.0
 40
0.0
 40
0.0
 40
0.0
 40
0.0
 40
1.0
 40
1.0
 40
1.0
 40
2.0
 40
2.0
 40
2.0
 40
3.0
 40
3.0
 40
3.0
 40
4.0
 40
4.0
 40
4.0
 40
4.0
 10
95.54593367837046
 20
-151.1911159561258
 30
0.0
 10
95.49322371744614
 20
-151.1211805177753
 30
0.0
 10
95.3726453754624
 20
-151.0322970542558
 30
0.0
 10
95.29203014110755
 20
-150.9964680612092
 30
0.0
 10
95.29203014110755
 20
-150.9964680612092
 30
0.0
 10
95.38539222875782
 20
-150.8779567765166
 30
0.0
 10
95.38539222875782
 20
-150.8779567765166
 30
0.0
 10
95.47634274956842
 20
-150.9117187122721
 30
0.0
 10
95.58004012367444
 20
-150.9940564943695
 30
0.0
 10
95.64549693789418
 20
-151.0681260473024
 30
0.0
 10
95.64549693789418
 20
-151.0681260473024
 30
0.0
 10
95.54593367837046
 20
-151.1911159561258
 30
0.0
 10
95.54593367837046
 20
-151.1911159561258
 30
0.0
  0
SPLINE
  5
12F
330
D2
100
AcDbEntity
  8
_U+30EC_U+30A4_U+30E4_U+30FC 1
370
     0
100
AcDbSpline
210
0.0
220
0.0
230
1.0
 70
    11
 71
     3
 72
    17
 73
    13
 74
     0
 42
0.0000000001
 43
0.0000000001
 12
1.0
 22
0.0
 32
0.0
 13
1.0
 23
0.0
 33
0.0
 40
0.0
 40
0.0
 40
0.0
 40
0.0
 40
1.0
 40
1.0
 40
1.0
 40
2.0
 40
2.0
 40
2.0
 40
3.0
 40
3.0
 40
3.0
 40
4.0
 40
4.0
 40
4.0
 40
4.0
 10
95.8167181835111
 20
-151.0154160863781
 30
0.0
 10
95.71095375211394
 20
-150.9203314509852
 30
0.0
 10
95.70681963753164
 20
-150.9203314509852
 30
0.0
 10
95.55661347437474
 20
-150.8249023060438
 30
0.0
 10
95.55661347437474
 20
-150.8249023060438
 30
0.0
 10
95.6582437911896
 20
-150.7063910213512
 30
0.0
 10
95.6582437911896
 20
-150.7063910213512
 30
0.0
 10
95.7574625411648
 20
-150.7508327531109
 30
0.0
 10
95.82326386493308
 20
-150.7997531090014
 30
0.0
 10
95.91421438574368
 20
-150.8989718589767
 30
0.0
 10
95.91421438574368
 20
-150.8989718589767
 30
0.0
 10
95.8167181835111
 20
-151.0154160863781
 30
0.0
 10
95.8167181835111
 20
-151.0154160863781
 30
0.0
  0
HATCH
  5
130
330
D2
100
AcDbEntity
  8
_U+30EC_U+30A4_U+30E4_U+30FC 1
 62
   179
420
  2234388
100
AcDbHatch
 10
0.0
 20
0.0
 30
0.0
210
0.0
220
0.0
230
1.0
  2
SOLID
 70
     1
 71
     0
 91
        3
 92
        1
 93
        1
 72
     4
 94
        3
 73
     0
 74
     1
 95
       74
 96
       70
 40
0.0
 40
0.0
 40
0.0
 40
0.0
 40
1.0
 40
1.0
 40
1.0
 40
2.0
 40
2.0
 40
2.0
 40
3.0
 40
3.0
 40
3.0
 40
4.0
 40
4.0
 40
4.0
 40
5.0
 40
5.0
 40
5.0
 40
6.0
 40
6.0
 40
6.0
 40
7.0
 40
7.0
 40
7.0
 40
8.0
 40
8.0
 40
8.0
 40
9.0
 40
9.0
 40
9.0
 40
10.0
 40
10.0
 40
10.0
 40
11.0
 40
11.0
 40
11.0
 40
12.0
 40
12.0
 40
12.0
 40
13.0
 40
13.0
 40
13.0
 40
14.0
 40
14.0
 40
14.0
 40
15.0
 40
15.0
 40
15.0
 40
16.0
 40
16.0
 40
16.0
 40
17.0
 40
17.0
 40
17.0
 40
18.0
 40
18.0
 40
18.0
 40
19.0
 40
19.0
 40
19.0
 40
20.0
 40
20.0
 40
20.0
 40
21.0
 40
21.0
 40
21.0
 40
22.0
 40
22.0
 40
22.0
 40
23.0
 40
23.0
 40
23.0
 40
23.0
 10
94.94958764987372
 20
-152.5426269149893
 10
94.34428437311533
 20
-152.5426269149893
 10
94.27469344431327
 20
-152.434795426301
 10
94.27469344431327
 20
-152.1133680175272
 10
94.27469344431327
 20
-152.1133680175272
 10
94.27469344431327
 20
-151.4767143718531
 10
94.27469344431327
 20
-151.4767143718531
 10
94.27469344431327
 20
-151.3285752659873
 10
94.27469344431327
 20
-151.1442626575264
 10
94.27262638702213
 20
-151.0302299969647
 10
94.27055932973097
 20
-150.9647731827449
 10
94.2681477628913
 20
-150.9372124188629
 10
94.264013648309
 20
-150.8948377443944
 10
94.264013648309
 20
-150.8948377443944
 10
94.51585012828076
 20
-150.9413465334452
 10
94.51585012828076
 20
-150.9413465334452
 10
94.54754500674507
 20
-150.9475477053187
 10
94.56649303191394
 20
-150.9499592721583
 10
94.56649303191394
 20
-150.979242583783
 10
94.56649303191394
 20
-150.9919894370784
 10
94.5602918600405
 20
-151.0047362903738
 10
94.55374617861851
 20
-151.013349029087
 10
94.53066403886734
 20
-151.0409097929689
 10
94.52652992428504
 20
-151.0450439075512
 10
94.51171601369846
 20
-151.0705376141421
 10
94.50517033227649
 20
-151.1508083389484
 10
94.48828936439877
 20
-151.4195257867979
 10
94.48622230710761
 20
-151.4870496583088
 10
94.48622230710761
 20
-151.4870496583088
 10
94.48415524981647
 20
-151.5717990072459
 10
94.48415524981647
 20
-151.5717990072459
 10
94.60886770638251
 20
-151.5697319499548
 10
95.14836965937263
 20
-151.4343396973845
 10
95.45291610026872
 20
-151.2607068849279
 10
95.45291610026872
 20
-151.2607068849279
 10
95.57556149954361
 20
-151.4743028050134
 10
95.57556149954361
 20
-151.4743028050134
 10
95.58004012367444
 20
-151.4808484864353
 10
95.58830835283904
 20
-151.4977294543131
 10
95.58830835283904
 20
-151.5084092503174
 10
95.58830835283904
 20
-151.5187445367731
 10
95.58004012367444
 20
-151.5294243327774
 10
95.55454641708359
 20
-151.5294243327774
 10
95.54179956378816
 20
-151.5294243327774
 10
95.53111976778389
 20
-151.5294243327774
 10
95.50390351345041
 20
-151.5084092503174
 10
95.11874183819948
 20
-151.6372558214657
 10
94.9960964389246
 20
-151.6710177572211
 10
94.84795733305884
 20
-151.7006455783943
 10
94.72531193378396
 20
-151.7261392849852
 10
94.55822480274934
 20
-151.7557671061583
 10
94.48415524981647
 20
-151.7578341634494
 10
94.48415524981647
 20
-151.7578341634494
 10
94.48415524981647
 20
-152.102688221523
 10
94.48415524981647
 20
-152.102688221523
 10
94.48415524981647
 20
-152.1302489854049
 10
94.48415524981647
 20
-152.2466932128064
 10
94.53686521074079
 20
-152.2866563204353
 10
94.62574867426024
 20
-152.3545247014947
 10
94.82900930788998
 20
-152.365204497499
 10
94.94304196845174
 20
-152.365204497499
 10
95.11460772361718
 20
-152.365204497499
 10
95.45291610026872
 20
-152.3228298230304
 10
95.60725637800792
 20
-152.261507123393
 10
95.60725637800792
 20
-152.261507123393
 10
95.60966794484759
 20
-152.4940510686473
 10
95.60966794484759
 20
-152.4940510686473
 10
95.38952634334012
 20
-152.5257459471116
 10
95.16938474183266
 20
-152.5426269149893
 10
94.94958764987372
 20
-152.5426269149893
 97
        0
 97
        0
 92
        1
 93
        1
 72
     4
 94
        3
 73
     0
 74
     1
 95
       17
 96
       13
 40
0.0
 40
0.0
 40
0.0
 40
0.0
 40
1.0
 40
1.0
 40
1.0
 40
2.0
 40
2.0
 40
2.0
 40
3.0
 40
3.0
 40
3.0
 40
4.0
 40
4.0
 40
4.0
 40
4.0
 10
95.54593367837046
 20
-151.1911159561258
 10
95.49322371744614
 20
-151.1211805177753
 10
95.3726453754624
 20
-151.0322970542558
 10
95.29203014110755
 20
-150.9964680612092
 10
95.29203014110755
 20
-150.9964680612092
 10
95.38539222875782
 20
-150.8779567765166
 10
95.38539222875782
 20
-150.8779567765166
 10
95.47634274956842
 20
-150.9117187122721
 10
95.58004012367444
 20
-150.9940564943695
 10
95.64549693789418
 20
-151.0681260473024
 10
95.64549693789418
 20
-151.0681260473024
 10
95.54593367837046
 20
-151.1911159561258
 10
95.54593367837046
 20
-151.1911159561258
 97
        0
 97
        0
 92
        1
 93
        1
 72
     4
 94
        3
 73
     0
 74
     1
 95
       17
 96
       13
 40
0.0
 40
0.0
 40
0.0
 40
0.0
 40
1.0
 40
1.0
 40
1.0
 40
2.0
 40
2.0
 40
2.0
 40
3.0
 40
3.0
 40
3.0
 40
4.0
 40
4.0
 40
4.0
 40
4.0
 10
95.8167181835111
 20
-151.0154160863781
 10
95.71095375211394
 20
-150.9203314509852
 10
95.70681963753164
 20
-150.9203314509852
 10
95.55661347437474
 20
-150.8249023060438
 10
95.55661347437474
 20
-150.8249023060438
 10
95.6582437911896
 20
-150.7063910213512
 10
95.6582437911896
 20
-150.7063910213512
 10
95.7574625411648
 20
-150.7508327531109
 10
95.82326386493308
 20
-150.7997531090014
 10
95.91421438574368
 20
-150.8989718589767
 10
95.91421438574368
 20
-150.8989718589767
 10
95.8167181835111
 20
-151.0154160863781
 10
95.8167181835111
 20
-151.0154160863781
 97
        0
 97
        0
 75
     2
 76
     1
 98
        0
  0
ENDBLK
  5
D5
330
D2
100
AcDbEntity
  8
0
100
AcDbBlockEnd
  0
BLOCK
  5
133
330
131
100
AcDbEntity
  8
0
100
AcDbBlockBegin
  2
block 6
 70
     0
 10
0.0
 20
0.0
 30
0.0
  3
block 6
  1

  0
SPLINE
  5
135
330
131
100
AcDbEntity
  8
_U+30EC_U+30A4_U+30E4_U+30FC 1
370
     0
100
AcDbSpline
210
0.0
220
0.0
230
1.0
 70
    11
 71
     3
 72
    77
 73
    73
 74
     0
 42
0.0000000001
 43
0.0000000001
 12
1.0
 22
0.0
 32
0.0
 13
1.0
 23
0.0
 33
0.0
 40
0.0
 40
0.0
 40
0.0
 40
0.0
 40
1.0
 40
1.0
 40
1.0
 40
2.0
 40
2.0
 40
2.0
 40
3.0
 40
3.0
 40
3.0
 40
4.0
 40
4.0
 40
4.0
 40
5.0
 40
5.0
 40
5.0
 40
6.0
 40
6.0
 40
6.0
 40
7.0
 40
7.0
 40
7.0
 40
8.0
 40
8.0
 40
8.0
 40
9.0
 40
9.0
 40
9.0
 40
10.0
 40
10.0
 40
10.0
 40
11.0
 40
11.0
 40
11.0
 40
12.0
 40
12.0
 40
12.0
 40
13.0
 40
13.0
 40
13.0
 40
14.0
 40
14.0
 40
14.0
 40
15.0
 40
15.0
 40
15.0
 40
16.0
 40
16.0
 40
16.0
 40
17.0
 40
17.0
 40
17.0
 40
18.0
 40
18.0
 40
18.0
 40
19.0
 40
19.0
 40
19.0
 40
20.0
 40
20.0
 40
20.0
 40
21.0
 40
21.0
 40
21.0
 40
22.0
 40
22.0
 40
22.0
 40
23.0
 40
23.0
 40
23.0
 40
24.0
 40
24.0
 40
24.0
 40
24.0
 10
88.29710826785629
 20
-133.6231960386428
 30
0.0
 10
88.27798798791315
 20
-133.7651339726351
 30
0.0
 10
88.21873234556685
 20
-133.9828640073029
 30
0.0
 10
88.19134383645911
 20
-134.0590006175269
 30
0.0
 10
88.19134383645911
 20
-134.0590006175269
 30
0.0
 10
88.2822943572697
 20
-134.0590006175269
 30
0.0
 10
88.2822943572697
 20
-134.0590006175269
 30
0.0
 10
88.32880314632058
 20
-134.0590006175269
 30
0.0
 10
88.4683295134732
 20
-134.0548665029446
 30
0.0
 10
88.51277124523293
 20
-134.0507323883623
 30
0.0
 10
88.51070418794177
 20
-134.0972411774132
 30
0.0
 10
88.50639781858521
 20
-134.3087700402075
 30
0.0
 10
88.50639781858521
 20
-134.342531975963
 30
0.0
 10
88.50639781858521
 20
-134.342531975963
 30
0.0
 10
88.50639781858521
 20
-134.6450113595679
 30
0.0
 10
88.50639781858521
 20
-134.6450113595679
 30
0.0
 10
88.50639781858521
 20
-134.7318277657962
 30
0.0
 10
88.50863713065063
 20
-134.7762694975559
 30
0.0
 10
88.51707761458948
 20
-134.9519693673037
 30
0.0
 10
88.39012584595802
 20
-134.9454236858817
 30
0.0
 10
88.3456841141983
 20
-134.9433566285905
 30
0.0
 10
88.26110702003542
 20
-134.9433566285905
 30
0.0
 10
88.26110702003542
 20
-134.9433566285905
 30
0.0
 10
88.14896916199054
 20
-134.9433566285905
 30
0.0
 10
88.14896916199054
 20
-134.9433566285905
 30
0.0
 10
88.14896916199054
 20
-135.004679328228
 30
0.0
 10
88.15103621928169
 20
-135.080815938452
 30
0.0
 10
88.15310327657284
 20
-135.1125108169163
 30
0.0
 10
88.15310327657284
 20
-135.1125108169163
 30
0.0
 10
87.9691351776605
 20
-135.1125108169163
 30
0.0
 10
87.9691351776605
 20
-135.1125108169163
 30
0.0
 10
87.9691351776605
 20
-135.0787488811609
 30
0.0
 10
87.9691351776605
 20
-135.05325517457
 30
0.0
 10
87.97964271889052
 20
-134.8355251399022
 30
0.0
 10
87.98601614553822
 20
-134.7149467979185
 30
0.0
 10
87.98601614553822
 20
-134.6980658300408
 30
0.0
 10
87.98601614553822
 20
-134.6112494238125
 30
0.0
 10
87.98601614553822
 20
-134.6112494238125
 30
0.0
 10
87.98601614553822
 20
-134.4696559993687
 30
0.0
 10
87.98601614553822
 20
-134.4696559993687
 30
0.0
 10
87.97550860430822
 20
-134.4844699099553
 30
0.0
 10
87.9691351776605
 20
-134.4927381391199
 30
0.0
 10
87.94794784042621
 20
-134.5182318457107
 30
0.0
 10
87.94794784042621
 20
-134.5182318457107
 30
0.0
 10
87.77242022545273
 20
-134.3721597971361
 30
0.0
 10
87.77242022545273
 20
-134.3721597971361
 30
0.0
 10
87.81686195721245
 20
-134.3297851226676
 30
0.0
 10
87.91418590467076
 20
-134.2347004872747
 30
0.0
 10
87.99876299883364
 20
-134.0166259430584
 30
0.0
 10
88.03252493458909
 20
-133.9256754222478
 30
0.0
 10
88.08127303570538
 20
-133.7651339726351
 30
0.0
 10
88.10022106087425
 20
-133.6231960386428
 30
0.0
 10
88.0008300561248
 20
-133.6231960386428
 30
0.0
 10
87.92055933131847
 20
-133.6231960386428
 30
0.0
 10
87.8506238929679
 20
-133.6359428919382
 30
0.0
 10
87.8506238929679
 20
-133.6359428919382
 30
0.0
 10
87.8506238929679
 20
-133.4457736211525
 30
0.0
 10
87.8506238929679
 20
-133.4457736211525
 30
0.0
 10
87.94381372584391
 20
-133.4626545890302
 30
0.0
 10
88.07489960905767
 20
-133.4626545890302
 30
0.0
 10
88.08334009299654
 20
-133.4626545890302
 30
0.0
 10
88.08334009299654
 20
-133.4626545890302
 30
0.0
 10
88.31812335031631
 20
-133.4626545890302
 30
0.0
 10
88.31812335031631
 20
-133.4626545890302
 30
0.0
 10
88.3393106875506
 20
-133.4626545890302
 30
0.0
 10
88.45988902953434
 20
-133.4602430221905
 30
0.0
 10
88.55083955034493
 20
-133.4457736211525
 30
0.0
 10
88.55083955034493
 20
-133.4457736211525
 30
0.0
 10
88.55083955034493
 20
-133.6359428919382
 30
0.0
 10
88.55083955034493
 20
-133.6359428919382
 30
0.0
 10
88.47900930947748
 20
-133.6231960386428
 30
0.0
 10
88.39649927260574
 20
-133.6231960386428
 30
0.0
 10
88.29710826785629
 20
-133.6231960386428
 30
0.0
  0
POLYLINE
  5
136
330
131
100
AcDbEntity
  8
_U+30EC_U+30A4_U+30E4_U+30FC 1
370
     0
100
AcDb2dPolyline
 66
     1
 10
0.0
 20
0.0
 30
0.0
  0
VERTEX
  5
137
330
136
100
AcDbEntity
  8
_U+30EC_U+30A4_U+30E4_U+30FC 1
370
     0
100
AcDbVertex
100
AcDb2dVertex
 10
88.3393106875506
 20
-134.217819519397
 30
0.0
  0
VERTEX
  5
138
330
136
100
AcDbEntity
  8
_U+30EC_U+30A4_U+30E4_U+30FC 1
370
     0
100
AcDbVertex
100
AcDb2dVertex
 10
88.14896916199054
 20
-134.217819519397
 30
0.0
  0
VERTEX
  5
139
330
136
100
AcDbEntity
  8
_U+30EC_U+30A4_U+30E4_U+30FC 1
370
     0
100
AcDbVertex
100
AcDb2dVertex
 10
88.14896916199054
 20
-134.7952175227248
 30
0.0
  0
VERTEX
  5
13A
330
136
100
AcDbEntity
  8
_U+30EC_U+30A4_U+30E4_U+30FC 1
370
     0
100
AcDbVertex
100
AcDb2dVertex
 10
88.3393106875506
 20
-134.7952175227248
 30
0.0
  0
VERTEX
  5
13B
330
136
100
AcDbEntity
  8
_U+30EC_U+30A4_U+30E4_U+30FC 1
370
     0
100
AcDbVertex
100
AcDb2dVertex
 10
88.3393106875506
 20
-134.217819519397
 30
0.0
  0
SEQEND
  5
13C
330
136
100
AcDbEntity
  8
_U+30EC_U+30A4_U+30E4_U+30FC 1
370
     0
  0
SPLINE
  5
13D
330
131
100
AcDbEntity
  8
_U+30EC_U+30A4_U+30E4_U+30FC 1
370
     0
100
AcDbSpline
210
0.0
220
0.0
230
1.0
 70
    11
 71
     3
 72
   119
 73
   115
 74
     0
 42
0.0000000001
 43
0.0000000001
 12
1.0
 22
0.0
 32
0.0
 13
1.0
 23
0.0
 33
0.0
 40
0.0
 40
0.0
 40
0.0
 40
0.0
 40
1.0
 40
1.0
 40
1.0
 40
2.0
 40
2.0
 40
2.0
 40
3.0
 40
3.0
 40
3.0
 40
4.0
 40
4.0
 40
4.0
 40
5.0
 40
5.0
 40
5.0
 40
6.0
 40
6.0
 40
6.0
 40
7.0
 40
7.0
 40
7.0
 40
8.0
 40
8.0
 40
8.0
 40
9.0
 40
9.0
 40
9.0
 40
10.0
 40
10.0
 40
10.0
 40
11.0
 40
11.0
 40
11.0
 40
12.0
 40
12.0
 40
12.0
 40
13.0
 40
13.0
 40
13.0
 40
14.0
 40
14.0
 40
14.0
 40
15.0
 40
15.0
 40
15.0
 40
16.0
 40
16.0
 40
16.0
 40
17.0
 40
17.0
 40
17.0
 40
18.0
 40
18.0
 40
18.0
 40
19.0
 40
19.0
 40
19.0
 40
20.0
 40
20.0
 40
20.0
 40
21.0
 40
21.0
 40
21.0
 40
22.0
 40
22.0
 40
22.0
 40
23.0
 40
23.0
 40
23.0
 40
24.0
 40
24.0
 40
24.0
 40
25.0
 40
25.0
 40
25.0
 40
26.0
 40
26.0
 40
26.0
 40
27.0
 40
27.0
 40
27.0
 40
28.0
 40
28.0
 40
28.0
 40
29.0
 40
29.0
 40
29.0
 40
30.0
 40
30.0
 40
30.0
 40
31.0
 40
31.0
 40
31.0
 40
32.0
 40
32.0
 40
32.0
 40
33.0
 40
33.0
 40
33.0
 40
34.0
 40
34.0
 40
34.0
 40
35.0
 40
35.0
 40
35.0
 40
36.0
 40
36.0
 40
36.0
 40
37.0
 40
37.0
 40
37.0
 40
38.0
 40
38.0
 40
38.0
 40
38.0
 10
89.67635224537605
 20
-135.3157714505461
 30
0.0
 10
89.44794241470399
 20
-135.2840765720818
 30
0.0
 10
89.22366669861422
 20
-135.2100070191489
 30
0.0
 10
89.03745928763647
 20
-135.0704806519963
 30
0.0
 10
88.8683050993107
 20
-135.2458360121955
 30
0.0
 10
88.61440156204779
 20
-135.2968234253772
 30
0.0
 10
88.37961830472801
 20
-135.3092257691241
 30
0.0
 10
88.37961830472801
 20
-135.3092257691241
 30
0.0
 10
88.26524113461772
 20
-135.1125108169163
 30
0.0
 10
88.26524113461772
 20
-135.1125108169163
 30
0.0
 10
88.51070418794177
 20
-135.1145778742075
 30
0.0
 10
88.71379256679725
 20
-135.0935627917474
 30
0.0
 10
88.8936265511273
 20
-134.9326768325863
 30
0.0
 10
88.81111651425556
 20
-134.8355251399022
 30
0.0
 10
88.7709811518524
 20
-134.7466416763828
 30
0.0
 10
88.7434203879704
 20
-134.6873860340365
 30
0.0
 10
88.7434203879704
 20
-134.6873860340365
 30
0.0
 10
88.90844046171387
 20
-134.5709418066351
 30
0.0
 10
88.90844046171387
 20
-134.5709418066351
 30
0.0
 10
88.92325437230043
 20
-134.6153835383948
 30
0.0
 10
88.94444170953473
 20
-134.6767062380322
 30
0.0
 10
89.0185112624676
 20
-134.7742024402648
 30
0.0
 10
89.03539223034532
 20
-134.7380289376697
 30
0.0
 10
89.0565795675796
 20
-134.6959987727496
 30
0.0
 10
89.06708710880962
 20
-134.5561278960485
 30
0.0
 10
89.06708710880962
 20
-134.5561278960485
 30
0.0
 10
88.8936265511273
 20
-134.5561278960485
 30
0.0
 10
88.8936265511273
 20
-134.5561278960485
 30
0.0
 10
88.82799748213328
 20
-134.5561278960485
 30
0.0
 10
88.80267603031669
 20
-134.5561278960485
 30
0.0
 10
88.63334958721667
 20
-134.5647406347616
 30
0.0
 10
88.63765595657323
 20
-134.5202989030019
 30
0.0
 10
88.64402938322094
 20
-134.3277180653764
 30
0.0
 10
88.64402938322094
 20
-134.287410448199
 30
0.0
 10
88.64402938322094
 20
-134.287410448199
 30
0.0
 10
88.64402938322094
 20
-134.0486653310712
 30
0.0
 10
88.64402938322094
 20
-134.0486653310712
 30
0.0
 10
88.64402938322094
 20
-134.019037509898
 30
0.0
 10
88.64402938322094
 20
-133.8836452573277
 30
0.0
 10
88.63128252992551
 20
-133.756521233922
 30
0.0
 10
88.73497990403153
 20
-133.7606553485043
 30
0.0
 10
88.74979381461812
 20
-133.7606553485043
 30
0.0
 10
88.91894800294388
 20
-133.7606553485043
 30
0.0
 10
88.91894800294388
 20
-133.7606553485043
 30
0.0
 10
89.07346053545733
 20
-133.7606553485043
 30
0.0
 10
89.07346053545733
 20
-133.7606553485043
 30
0.0
 10
89.07346053545733
 20
-133.7606553485043
 30
0.0
 10
89.07346053545733
 20
-133.6149278094782
 30
0.0
 10
89.07346053545733
 20
-133.6149278094782
 30
0.0
 10
89.07346053545733
 20
-133.6149278094782
 30
0.0
 10
88.99301755587675
 20
-133.6149278094782
 30
0.0
 10
88.99301755587675
 20
-133.6149278094782
 30
0.0
 10
88.92325437230043
 20
-133.6149278094782
 30
0.0
 10
88.73497990403153
 20
-133.6190619240605
 30
0.0
 10
88.59958765146122
 20
-133.6276746627736
 30
0.0
 10
88.59958765146122
 20
-133.6276746627736
 30
0.0
 10
88.59958765146122
 20
-133.4412949970216
 30
0.0
 10
88.59958765146122
 20
-133.4412949970216
 30
0.0
 10
88.72860647738382
 20
-133.4499077357347
 30
0.0
 10
88.90844046171387
 20
-133.4540418503171
 30
0.0
 10
88.99301755587675
 20
-133.4540418503171
 30
0.0
 10
88.99301755587675
 20
-133.4540418503171
 30
0.0
 10
89.37800697635342
 20
-133.4540418503171
 30
0.0
 10
89.37800697635342
 20
-133.4540418503171
 30
0.0
 10
89.46275632529057
 20
-133.4540418503171
 30
0.0
 10
89.64241805484635
 20
-133.4499077357347
 30
0.0
 10
89.77367619283436
 20
-133.4412949970216
 30
0.0
 10
89.77367619283436
 20
-133.4412949970216
 30
0.0
 10
89.77367619283436
 20
-133.6276746627736
 30
0.0
 10
89.77367619283436
 20
-133.6276746627736
 30
0.0
 10
89.65309785085061
 20
-133.6211289813517
 30
0.0
 10
89.45638289864286
 20
-133.6149278094782
 30
0.0
 10
89.37800697635342
 20
-133.6149278094782
 30
0.0
 10
89.37800697635342
 20
-133.6149278094782
 30
0.0
 10
89.25966794643509
 20
-133.6149278094782
 30
0.0
 10
89.25966794643509
 20
-133.6149278094782
 30
0.0
 10
89.25966794643509
 20
-133.6149278094782
 30
0.0
 10
89.25966794643509
 20
-133.7606553485043
 30
0.0
 10
89.25966794643509
 20
-133.7606553485043
 30
0.0
 10
89.25966794643509
 20
-133.7606553485043
 30
0.0
 10
89.45000947199514
 20
-133.7606553485043
 30
0.0
 10
89.45000947199514
 20
-133.7606553485043
 30
0.0
 10
89.45207652928629
 20
-133.7606553485043
 30
0.0
 10
89.70167369719265
 20
-133.756521233922
 30
0.0
 10
89.72492809171808
 20
-133.756521233922
 30
0.0
 10
89.72286103442693
 20
-133.7861490550951
 30
0.0
 10
89.72079397713578
 20
-133.7968288510994
 30
0.0
 10
89.71648760777921
 20
-133.8898464292012
 30
0.0
 10
89.71442055048807
 20
-133.9745957781383
 30
0.0
 10
89.71442055048807
 20
-133.9828640073029
 30
0.0
 10
89.71442055048807
 20
-134.0273057390626
 30
0.0
 10
89.71442055048807
 20
-134.0273057390626
 30
0.0
 10
89.71442055048807
 20
-134.3001573014944
 30
0.0
 10
89.71442055048807
 20
-134.3001573014944
 30
0.0
 10
89.71442055048807
 20
-134.3721597971361
 30
0.0
 10
89.71872691984463
 20
-134.4420952354867
 30
0.0
 10
89.7271674037835
 20
-134.5647406347616
 30
0.0
 10
89.63828394026405
 20
-134.5581949533396
 30
0.0
 10
89.55370684610116
 20
-134.5561278960485
 30
0.0
 10
89.43950193076513
 20
-134.5561278960485
 30
0.0
 10
89.43950193076513
 20
-134.5561278960485
 30
0.0
 10
89.25329451978737
 20
-134.5561278960485
 30
0.0
 10
89.25329451978737
 20
-134.5561278960485
 30
0.0
 10
89.23417423984424
 20
-134.7742024402648
 30
0.0
 10
89.18766545079336
 20
-134.8630859037842
 30
0.0
 10
89.15597057232907
 20
-134.9157958647086
 30
0.0
 10
89.20247936137994
 20
-134.956103481886
 30
0.0
 10
89.25536157707853
 20
-134.9939995322237
 30
0.0
 10
89.3611260084757
 20
-135.03224009211
 30
0.0
 10
89.49651826104602
 20
-135.080815938452
 30
0.0
 10
89.64035099755519
 20
-135.1063096450429
 30
0.0
 10
89.78418373406437
 20
-135.1125108169163
 30
0.0
 10
89.78418373406437
 20
-135.1125108169163
 30
0.0
 10
89.67635224537605
 20
-135.3157714505461
 30
0.0
 10
89.67635224537605
 20
-135.3157714505461
 30
0.0
  0
POLYLINE
  5
13E
330
131
100
AcDbEntity
  8
_U+30EC_U+30A4_U+30E4_U+30FC 1
370
     0
100
AcDb2dPolyline
 66
     1
 10
0.0
 20
0.0
 30
0.0
  0
VERTEX
  5
13F
330
13E
100
AcDbEntity
  8
_U+30EC_U+30A4_U+30E4_U+30FC 1
370
     0
100
AcDbVertex
100
AcDb2dVertex
 10
89.07346053545733
 20
-133.9174071930832
 30
0.0
  0
VERTEX
  5
140
330
13E
100
AcDbEntity
  8
_U+30EC_U+30A4_U+30E4_U+30FC 1
370
     0
100
AcDbVertex
100
AcDb2dVertex
 10
88.82386336755098
 20
-133.9174071930832
 30
0.0
  0
VERTEX
  5
141
330
13E
100
AcDbEntity
  8
_U+30EC_U+30A4_U+30E4_U+30FC 1
370
     0
100
AcDbVertex
100
AcDb2dVertex
 10
88.82386336755098
 20
-134.0717474708223
 30
0.0
  0
VERTEX
  5
142
330
13E
100
AcDbEntity
  8
_U+30EC_U+30A4_U+30E4_U+30FC 1
370
     0
100
AcDbVertex
100
AcDb2dVertex
 10
89.07346053545733
 20
-134.0717474708223
 30
0.0
  0
VERTEX
  5
143
330
13E
100
AcDbEntity
  8
_U+30EC_U+30A4_U+30E4_U+30FC 1
370
     0
100
AcDbVertex
100
AcDb2dVertex
 10
89.07346053545733
 20
-133.9174071930832
 30
0.0
  0
SEQEND
  5
144
330
13E
100
AcDbEntity
  8
_U+30EC_U+30A4_U+30E4_U+30FC 1
370
     0
  0
POLYLINE
  5
145
330
131
100
AcDbEntity
  8
_U+30EC_U+30A4_U+30E4_U+30FC 1
370
     0
100
AcDb2dPolyline
 66
     1
 10
0.0
 20
0.0
 30
0.0
  0
VERTEX
  5
146
330
145
100
AcDbEntity
  8
_U+30EC_U+30A4_U+30E4_U+30FC 1
370
     0
100
AcDbVertex
100
AcDb2dVertex
 10
89.07346053545733
 20
-134.2305663726924
 30
0.0
  0
VERTEX
  5
147
330
145
100
AcDbEntity
  8
_U+30EC_U+30A4_U+30E4_U+30FC 1
370
     0
100
AcDbVertex
100
AcDb2dVertex
 10
88.82386336755098
 20
-134.2305663726924
 30
0.0
  0
VERTEX
  5
148
330
145
100
AcDbEntity
  8
_U+30EC_U+30A4_U+30E4_U+30FC 1
370
     0
100
AcDbVertex
100
AcDb2dVertex
 10
88.82386336755098
 20
-134.3955864464358
 30
0.0
  0
VERTEX
  5
149
330
145
100
AcDbEntity
  8
_U+30EC_U+30A4_U+30E4_U+30FC 1
370
     0
100
AcDbVertex
100
AcDb2dVertex
 10
89.07346053545733
 20
-134.3955864464358
 30
0.0
  0
VERTEX
  5
14A
330
145
100
AcDbEntity
  8
_U+30EC_U+30A4_U+30E4_U+30FC 1
370
     0
100
AcDbVertex
100
AcDb2dVertex
 10
89.07346053545733
 20
-134.2305663726924
 30
0.0
  0
SEQEND
  5
14B
330
145
100
AcDbEntity
  8
_U+30EC_U+30A4_U+30E4_U+30FC 1
370
     0
  0
POLYLINE
  5
14C
330
131
100
AcDbEntity
  8
_U+30EC_U+30A4_U+30E4_U+30FC 1
370
     0
100
AcDb2dPolyline
 66
     1
 10
0.0
 20
0.0
 30
0.0
  0
VERTEX
  5
14D
330
14C
100
AcDbEntity
  8
_U+30EC_U+30A4_U+30E4_U+30FC 1
370
     0
100
AcDbVertex
100
AcDb2dVertex
 10
89.52407902492801
 20
-133.9174071930832
 30
0.0
  0
VERTEX
  5
14E
330
14C
100
AcDbEntity
  8
_U+30EC_U+30A4_U+30E4_U+30FC 1
370
     0
100
AcDbVertex
100
AcDb2dVertex
 10
89.25966794643509
 20
-133.9174071930832
 30
0.0
  0
VERTEX
  5
14F
330
14C
100
AcDbEntity
  8
_U+30EC_U+30A4_U+30E4_U+30FC 1
370
     0
100
AcDbVertex
100
AcDb2dVertex
 10
89.25966794643509
 20
-134.0717474708223
 30
0.0
  0
VERTEX
  5
150
330
14C
100
AcDbEntity
  8
_U+30EC_U+30A4_U+30E4_U+30FC 1
370
     0
100
AcDbVertex
100
AcDb2dVertex
 10
89.52407902492801
 20
-134.0717474708223
 30
0.0
  0
VERTEX
  5
151
330
14C
100
AcDbEntity
  8
_U+30EC_U+30A4_U+30E4_U+30FC 1
370
     0
100
AcDbVertex
100
AcDb2dVertex
 10
89.52407902492801
 20
-133.9174071930832
 30
0.0
  0
SEQEND
  5
152
330
14C
100
AcDbEntity
  8
_U+30EC_U+30A4_U+30E4_U+30FC 1
370
     0
  0
POLYLINE
  5
153
330
131
100
AcDbEntity
  8
_U+30EC_U+30A4_U+30E4_U+30FC 1
370
     0
100
AcDb2dPolyline
 66
     1
 10
0.0
 20
0.0
 30
0.0
  0
VERTEX
  5
154
330
153
100
AcDbEntity
  8
_U+30EC_U+30A4_U+30E4_U+30FC 1
370
     0
100
AcDbVertex
100
AcDb2dVertex
 10
89.52407902492801
 20
-134.2305663726924
 30
0.0
  0
VERTEX
  5
155
330
153
100
AcDbEntity
  8
_U+30EC_U+30A4_U+30E4_U+30FC 1
370
     0
100
AcDbVertex
100
AcDb2dVertex
 10
89.25966794643509
 20
-134.2305663726924
 30
0.0
  0
VERTEX
  5
156
330
153
100
AcDbEntity
  8
_U+30EC_U+30A4_U+30E4_U+30FC 1
370
     0
100
AcDbVertex
100
AcDb2dVertex
 10
89.25966794643509
 20
-134.3955864464358
 30
0.0
  0
VERTEX
  5
157
330
153
100
AcDbEntity
  8
_U+30EC_U+30A4_U+30E4_U+30FC 1
370
     0
100
AcDbVertex
100
AcDb2dVertex
 10
89.52407902492801
 20
-134.3955864464358
 30
0.0
  0
VERTEX
  5
158
330
153
100
AcDbEntity
  8
_U+30EC_U+30A4_U+30E4_U+30FC 1
370
     0
100
AcDbVertex
100
AcDb2dVertex
 10
89.52407902492801
 20
-134.2305663726924
 30
0.0
  0
SEQEND
  5
159
330
153
100
AcDbEntity
  8
_U+30EC_U+30A4_U+30E4_U+30FC 1
370
     0
  0
HATCH
  5
15A
330
131
100
AcDbEntity
  8
_U+30EC_U+30A4_U+30E4_U+30FC 1
 62
   179
420
  2234388
100
AcDbHatch
 10
0.0
 20
0.0
 30
0.0
210
0.0
220
0.0
230
1.0
  2
SOLID
 70
     1
 71
     0
 91
        7
 92
        1
 93
        1
 72
     4
 94
        3
 73
     0
 74
     1
 95
       77
 96
       73
 40
0.0
 40
0.0
 40
0.0
 40
0.0
 40
1.0
 40
1.0
 40
1.0
 40
2.0
 40
2.0
 40
2.0
 40
3.0
 40
3.0
 40
3.0
 40
4.0
 40
4.0
 40
4.0
 40
5.0
 40
5.0
 40
5.0
 40
6.0
 40
6.0
 40
6.0
 40
7.0
 40
7.0
 40
7.0
 40
8.0
 40
8.0
 40
8.0
 40
9.0
 40
9.0
 40
9.0
 40
10.0
 40
10.0
 40
10.0
 40
11.0
 40
11.0
 40
11.0
 40
12.0
 40
12.0
 40
12.0
 40
13.0
 40
13.0
 40
13.0
 40
14.0
 40
14.0
 40
14.0
 40
15.0
 40
15.0
 40
15.0
 40
16.0
 40
16.0
 40
16.0
 40
17.0
 40
17.0
 40
17.0
 40
18.0
 40
18.0
 40
18.0
 40
19.0
 40
19.0
 40
19.0
 40
20.0
 40
20.0
 40
20.0
 40
21.0
 40
21.0
 40
21.0
 40
22.0
 40
22.0
 40
22.0
 40
23.0
 40
23.0
 40
23.0
 40
24.0
 40
24.0
 40
24.0
 40
24.0
 10
88.29710826785629
 20
-133.6231960386428
 10
88.27798798791315
 20
-133.7651339726351
 10
88.21873234556685
 20
-133.9828640073029
 10
88.19134383645911
 20
-134.0590006175269
 10
88.19134383645911
 20
-134.0590006175269
 10
88.2822943572697
 20
-134.0590006175269
 10
88.2822943572697
 20
-134.0590006175269
 10
88.32880314632058
 20
-134.0590006175269
 10
88.4683295134732
 20
-134.0548665029446
 10
88.51277124523293
 20
-134.0507323883623
 10
88.51070418794177
 20
-134.0972411774132
 10
88.50639781858521
 20
-134.3087700402075
 10
88.50639781858521
 20
-134.342531975963
 10
88.50639781858521
 20
-134.342531975963
 10
88.50639781858521
 20
-134.6450113595679
 10
88.50639781858521
 20
-134.6450113595679
 10
88.50639781858521
 20
-134.7318277657962
 10
88.50863713065063
 20
-134.7762694975559
 10
88.51707761458948
 20
-134.9519693673037
 10
88.39012584595802
 20
-134.9454236858817
 10
88.3456841141983
 20
-134.9433566285905
 10
88.26110702003542
 20
-134.9433566285905
 10
88.26110702003542
 20
-134.9433566285905
 10
88.14896916199054
 20
-134.9433566285905
 10
88.14896916199054
 20
-134.9433566285905
 10
88.14896916199054
 20
-135.004679328228
 10
88.15103621928169
 20
-135.080815938452
 10
88.15310327657284
 20
-135.1125108169163
 10
88.15310327657284
 20
-135.1125108169163
 10
87.9691351776605
 20
-135.1125108169163
 10
87.9691351776605
 20
-135.1125108169163
 10
87.9691351776605
 20
-135.0787488811609
 10
87.9691351776605
 20
-135.05325517457
 10
87.97964271889052
 20
-134.8355251399022
 10
87.98601614553822
 20
-134.7149467979185
 10
87.98601614553822
 20
-134.6980658300408
 10
87.98601614553822
 20
-134.6112494238125
 10
87.98601614553822
 20
-134.6112494238125
 10
87.98601614553822
 20
-134.4696559993687
 10
87.98601614553822
 20
-134.4696559993687
 10
87.97550860430822
 20
-134.4844699099553
 10
87.9691351776605
 20
-134.4927381391199
 10
87.94794784042621
 20
-134.5182318457107
 10
87.94794784042621
 20
-134.5182318457107
 10
87.77242022545273
 20
-134.3721597971361
 10
87.77242022545273
 20
-134.3721597971361
 10
87.81686195721245
 20
-134.3297851226676
 10
87.91418590467076
 20
-134.2347004872747
 10
87.99876299883364
 20
-134.0166259430584
 10
88.03252493458909
 20
-133.9256754222478
 10
88.08127303570538
 20
-133.7651339726351
 10
88.10022106087425
 20
-133.6231960386428
 10
88.0008300561248
 20
-133.6231960386428
 10
87.92055933131847
 20
-133.6231960386428
 10
87.8506238929679
 20
-133.6359428919382
 10
87.8506238929679
 20
-133.6359428919382
 10
87.8506238929679
 20
-133.4457736211525
 10
87.8506238929679
 20
-133.4457736211525
 10
87.94381372584391
 20
-133.4626545890302
 10
88.07489960905767
 20
-133.4626545890302
 10
88.08334009299654
 20
-133.4626545890302
 10
88.08334009299654
 20
-133.4626545890302
 10
88.31812335031631
 20
-133.4626545890302
 10
88.31812335031631
 20
-133.4626545890302
 10
88.3393106875506
 20
-133.4626545890302
 10
88.45988902953434
 20
-133.4602430221905
 10
88.55083955034493
 20
-133.4457736211525
 10
88.55083955034493
 20
-133.4457736211525
 10
88.55083955034493
 20
-133.6359428919382
 10
88.55083955034493
 20
-133.6359428919382
 10
88.47900930947748
 20
-133.6231960386428
 10
88.39649927260574
 20
-133.6231960386428
 10
88.29710826785629
 20
-133.6231960386428
 97
        0
 97
        0
 92
        1
 93
        4
 72
     1
 10
88.3393106875506
 20
-134.217819519397
 11
88.14896916199054
 21
-134.217819519397
 72
     1
 10
88.14896916199054
 20
-134.217819519397
 11
88.14896916199054
 21
-134.7952175227248
 72
     1
 10
88.14896916199054
 20
-134.7952175227248
 11
88.3393106875506
 21
-134.7952175227248
 72
     1
 10
88.3393106875506
 20
-134.7952175227248
 11
88.3393106875506
 21
-134.217819519397
 97
        0
 92
        1
 93
        1
 72
     4
 94
        3
 73
     0
 74
     1
 95
      119
 96
      115
 40
0.0
 40
0.0
 40
0.0
 40
0.0
 40
1.0
 40
1.0
 40
1.0
 40
2.0
 40
2.0
 40
2.0
 40
3.0
 40
3.0
 40
3.0
 40
4.0
 40
4.0
 40
4.0
 40
5.0
 40
5.0
 40
5.0
 40
6.0
 40
6.0
 40
6.0
 40
7.0
 40
7.0
 40
7.0
 40
8.0
 40
8.0
 40
8.0
 40
9.0
 40
9.0
 40
9.0
 40
10.0
 40
10.0
 40
10.0
 40
11.0
 40
11.0
 40
11.0
 40
12.0
 40
12.0
 40
12.0
 40
13.0
 40
13.0
 40
13.0
 40
14.0
 40
14.0
 40
14.0
 40
15.0
 40
15.0
 40
15.0
 40
16.0
 40
16.0
 40
16.0
 40
17.0
 40
17.0
 40
17.0
 40
18.0
 40
18.0
 40
18.0
 40
19.0
 40
19.0
 40
19.0
 40
20.0
 40
20.0
 40
20.0
 40
21.0
 40
21.0
 40
21.0
 40
22.0
 40
22.0
 40
22.0
 40
23.0
 40
23.0
 40
23.0
 40
24.0
 40
24.0
 40
24.0
 40
25.0
 40
25.0
 40
25.0
 40
26.0
 40
26.0
 40
26.0
 40
27.0
 40
27.0
 40
27.0
 40
28.0
 40
28.0
 40
28.0
 40
29.0
 40
29.0
 40
29.0
 40
30.0
 40
30.0
 40
30.0
 40
31.0
 40
31.0
 40
31.0
 40
32.0
 40
32.0
 40
32.0
 40
33.0
 40
33.0
 40
33.0
 40
34.0
 40
34.0
 40
34.0
 40
35.0
 40
35.0
 40
35.0
 40
36.0
 40
36.0
 40
36.0
 40
37.0
 40
37.0
 40
37.0
 40
38.0
 40
38.0
 40
38.0
 40
38.0
 10
89.67635224537605
 20
-135.3157714505461
 10
89.44794241470399
 20
-135.2840765720818
 10
89.22366669861422
 20
-135.2100070191489
 10
89.03745928763647
 20
-135.0704806519963
 10
88.8683050993107
 20
-135.2458360121955
 10
88.61440156204779
 20
-135.2968234253772
 10
88.37961830472801
 20
-135.3092257691241
 10
88.37961830472801
 20
-135.3092257691241
 10
88.26524113461772
 20
-135.1125108169163
 10
88.26524113461772
 20
-135.1125108169163
 10
88.51070418794177
 20
-135.1145778742075
 10
88.71379256679725
 20
-135.0935627917474
 10
88.8936265511273
 20
-134.9326768325863
 10
88.81111651425556
 20
-134.8355251399022
 10
88.7709811518524
 20
-134.7466416763828
 10
88.7434203879704
 20
-134.6873860340365
 10
88.7434203879704
 20
-134.6873860340365
 10
88.90844046171387
 20
-134.5709418066351
 10
88.90844046171387
 20
-134.5709418066351
 10
88.92325437230043
 20
-134.6153835383948
 10
88.94444170953473
 20
-134.6767062380322
 10
89.0185112624676
 20
-134.7742024402648
 10
89.03539223034532
 20
-134.7380289376697
 10
89.0565795675796
 20
-134.6959987727496
 10
89.06708710880962
 20
-134.5561278960485
 10
89.06708710880962
 20
-134.5561278960485
 10
88.8936265511273
 20
-134.5561278960485
 10
88.8936265511273
 20
-134.5561278960485
 10
88.82799748213328
 20
-134.5561278960485
 10
88.80267603031669
 20
-134.5561278960485
 10
88.63334958721667
 20
-134.5647406347616
 10
88.63765595657323
 20
-134.5202989030019
 10
88.64402938322094
 20
-134.3277180653764
 10
88.64402938322094
 20
-134.287410448199
 10
88.64402938322094
 20
-134.287410448199
 10
88.64402938322094
 20
-134.0486653310712
 10
88.64402938322094
 20
-134.0486653310712
 10
88.64402938322094
 20
-134.019037509898
 10
88.64402938322094
 20
-133.8836452573277
 10
88.63128252992551
 20
-133.756521233922
 10
88.73497990403153
 20
-133.7606553485043
 10
88.74979381461812
 20
-133.7606553485043
 10
88.91894800294388
 20
-133.7606553485043
 10
88.91894800294388
 20
-133.7606553485043
 10
89.07346053545733
 20
-133.7606553485043
 10
89.07346053545733
 20
-133.7606553485043
 10
89.07346053545733
 20
-133.7606553485043
 10
89.07346053545733
 20
-133.6149278094782
 10
89.07346053545733
 20
-133.6149278094782
 10
89.07346053545733
 20
-133.6149278094782
 10
88.99301755587675
 20
-133.6149278094782
 10
88.99301755587675
 20
-133.6149278094782
 10
88.92325437230043
 20
-133.6149278094782
 10
88.73497990403153
 20
-133.6190619240605
 10
88.59958765146122
 20
-133.6276746627736
 10
88.59958765146122
 20
-133.6276746627736
 10
88.59958765146122
 20
-133.4412949970216
 10
88.59958765146122
 20
-133.4412949970216
 10
88.72860647738382
 20
-133.4499077357347
 10
88.90844046171387
 20
-133.4540418503171
 10
88.99301755587675
 20
-133.4540418503171
 10
88.99301755587675
 20
-133.4540418503171
 10
89.37800697635342
 20
-133.4540418503171
 10
89.37800697635342
 20
-133.4540418503171
 10
89.46275632529057
 20
-133.4540418503171
 10
89.64241805484635
 20
-133.4499077357347
 10
89.77367619283436
 20
-133.4412949970216
 10
89.77367619283436
 20
-133.4412949970216
 10
89.77367619283436
 20
-133.6276746627736
 10
89.77367619283436
 20
-133.6276746627736
 10
89.65309785085061
 20
-133.6211289813517
 10
89.45638289864286
 20
-133.6149278094782
 10
89.37800697635342
 20
-133.6149278094782
 10
89.37800697635342
 20
-133.6149278094782
 10
89.25966794643509
 20
-133.6149278094782
 10
89.25966794643509
 20
-133.6149278094782
 10
89.25966794643509
 20
-133.6149278094782
 10
89.25966794643509
 20
-133.7606553485043
 10
89.25966794643509
 20
-133.7606553485043
 10
89.25966794643509
 20
-133.7606553485043
 10
89.45000947199514
 20
-133.7606553485043
 10
89.45000947199514
 20
-133.7606553485043
 10
89.45207652928629
 20
-133.7606553485043
 10
89.70167369719265
 20
-133.756521233922
 10
89.72492809171808
 20
-133.756521233922
 10
89.72286103442693
 20
-133.7861490550951
 10
89.72079397713578
 20
-133.7968288510994
 10
89.71648760777921
 20
-133.8898464292012
 10
89.71442055048807
 20
-133.9745957781383
 10
89.71442055048807
 20
-133.9828640073029
 10
89.71442055048807
 20
-134.0273057390626
 10
89.71442055048807
 20
-134.0273057390626
 10
89.71442055048807
 20
-134.3001573014944
 10
89.71442055048807
 20
-134.3001573014944
 10
89.71442055048807
 20
-134.3721597971361
 10
89.71872691984463
 20
-134.4420952354867
 10
89.7271674037835
 20
-134.5647406347616
 10
89.63828394026405
 20
-134.5581949533396
 10
89.55370684610116
 20
-134.5561278960485
 10
89.43950193076513
 20
-134.5561278960485
 10
89.43950193076513
 20
-134.5561278960485
 10
89.25329451978737
 20
-134.5561278960485
 10
89.25329451978737
 20
-134.5561278960485
 10
89.23417423984424
 20
-134.7742024402648
 10
89.18766545079336
 20
-134.8630859037842
 10
89.15597057232907
 20
-134.9157958647086
 10
89.20247936137994
 20
-134.956103481886
 10
89.25536157707853
 20
-134.9939995322237
 10
89.3611260084757
 20
-135.03224009211
 10
89.49651826104602
 20
-135.080815938452
 10
89.64035099755519
 20
-135.1063096450429
 10
89.78418373406437
 20
-135.1125108169163
 10
89.78418373406437
 20
-135.1125108169163
 10
89.67635224537605
 20
-135.3157714505461
 10
89.67635224537605
 20
-135.3157714505461
 97
        0
 97
        0
 92
        1
 93
        4
 72
     1
 10
89.07346053545733
 20
-133.9174071930832
 11
88.82386336755098
 21
-133.9174071930832
 72
     1
 10
88.82386336755098
 20
-133.9174071930832
 11
88.82386336755098
 21
-134.0717474708223
 72
     1
 10
88.82386336755098
 20
-134.0717474708223
 11
89.07346053545733
 21
-134.0717474708223
 72
     1
 10
89.07346053545733
 20
-134.0717474708223
 11
89.07346053545733
 21
-133.9174071930832
 97
        0
 92
        1
 93
        4
 72
     1
 10
89.07346053545733
 20
-134.2305663726924
 11
88.82386336755098
 21
-134.2305663726924
 72
     1
 10
88.82386336755098
 20
-134.2305663726924
 11
88.82386336755098
 21
-134.3955864464358
 72
     1
 10
88.82386336755098
 20
-134.3955864464358
 11
89.07346053545733
 21
-134.3955864464358
 72
     1
 10
89.07346053545733
 20
-134.3955864464358
 11
89.07346053545733
 21
-134.2305663726924
 97
        0
 92
        1
 93
        4
 72
     1
 10
89.52407902492801
 20
-133.9174071930832
 11
89.25966794643509
 21
-133.9174071930832
 72
     1
 10
89.25966794643509
 20
-133.9174071930832
 11
89.25966794643509
 21
-134.0717474708223
 72
     1
 10
89.25966794643509
 20
-134.0717474708223
 11
89.52407902492801
 21
-134.0717474708223
 72
     1
 10
89.52407902492801
 20
-134.0717474708223
 11
89.52407902492801
 21
-133.9174071930832
 97
        0
 92
        1
 93
        4
 72
     1
 10
89.52407902492801
 20
-134.2305663726924
 11
89.25966794643509
 21
-134.2305663726924
 72
     1
 10
89.25966794643509
 20
-134.2305663726924
 11
89.25966794643509
 21
-134.3955864464358
 72
     1
 10
89.25966794643509
 20
-134.3955864464358
 11
89.52407902492801
 21
-134.3955864464358
 72
     1
 10
89.52407902492801
 20
-134.3955864464358
 11
89.52407902492801
 21
-134.2305663726924
 97
        0
 75
     2
 76
     1
 98
        0
  0
SPLINE
  5
15B
330
131
100
AcDbEntity
  8
_U+30EC_U+30A4_U+30E4_U+30FC 1
370
     0
100
AcDbSpline
210
0.0
220
0.0
230
1.0
 70
    11
 71
     3
 72
    71
 73
    67
 74
     0
 42
0.0000000001
 43
0.0000000001
 12
1.0
 22
0.0
 32
0.0
 13
1.0
 23
0.0
 33
0.0
 40
0.0
 40
0.0
 40
0.0
 40
0.0
 40
1.0
 40
1.0
 40
1.0
 40
2.0
 40
2.0
 40
2.0
 40
3.0
 40
3.0
 40
3.0
 40
4.0
 40
4.0
 40
4.0
 40
5.0
 40
5.0
 40
5.0
 40
6.0
 40
6.0
 40
6.0
 40
7.0
 40
7.0
 40
7.0
 40
8.0
 40
8.0
 40
8.0
 40
9.0
 40
9.0
 40
9.0
 40
10.0
 40
10.0
 40
10.0
 40
11.0
 40
11.0
 40
11.0
 40
12.0
 40
12.0
 40
12.0
 40
13.0
 40
13.0
 40
13.0
 40
14.0
 40
14.0
 40
14.0
 40
15.0
 40
15.0
 40
15.0
 40
16.0
 40
16.0
 40
16.0
 40
17.0
 40
17.0
 40
17.0
 40
18.0
 40
18.0
 40
18.0
 40
19.0
 40
19.0
 40
19.0
 40
20.0
 40
20.0
 40
20.0
 40
21.0
 40
21.0
 40
21.0
 40
22.0
 40
22.0
 40
22.0
 40
22.0
 10
90.8600870541079
 20
-133.5618733390054
 30
0.0
 10
90.84527314352133
 20
-133.5618733390054
 30
0.0
 10
90.8325262902259
 20
-133.5577392244231
 30
0.0
 10
90.80720483840932
 20
-133.5491264857099
 30
0.0
 10
90.66543915919128
 20
-133.5959797843093
 30
0.0
 10
90.49197860150895
 20
-133.6128607521871
 30
0.0
 10
90.35227997958208
 20
-133.6169948667694
 30
0.0
 10
90.35227997958208
 20
-133.6169948667694
 30
0.0
 10
90.35021292229092
 20
-133.7058783302888
 30
0.0
 10
90.35021292229092
 20
-133.7058783302888
 30
0.0
 10
90.35021292229092
 20
-133.7058783302888
 30
0.0
 10
90.61048988620155
 20
-133.7058783302888
 30
0.0
 10
90.61048988620155
 20
-133.7058783302888
 30
0.0
 10
90.66337210190014
 20
-133.7058783302888
 30
0.0
 10
90.84527314352133
 20
-133.6972655915757
 30
0.0
 10
90.88971487528104
 20
-133.6910644197022
 30
0.0
 10
90.88971487528104
 20
-133.6910644197022
 30
0.0
 10
90.88971487528104
 20
-133.8519503788634
 30
0.0
 10
90.88971487528104
 20
-133.8519503788634
 30
0.0
 10
90.83476560229131
 20
-133.8454046974414
 30
0.0
 10
90.70988089095101
 20
-133.8433376401503
 30
0.0
 10
90.67181258583899
 20
-133.8454046974414
 30
0.0
 10
90.67181258583899
 20
-133.8454046974414
 30
0.0
 10
90.67181258583899
 20
-133.9553032434209
 30
0.0
 10
90.67181258583899
 20
-133.9553032434209
 30
0.0
 10
90.67181258583899
 20
-134.0018120324718
 30
0.0
 10
90.67387964313015
 20
-134.0655462989489
 30
0.0
 10
90.68025306977786
 20
-134.1034423492866
 30
0.0
 10
90.68025306977786
 20
-134.1034423492866
 30
0.0
 10
90.48767223215239
 20
-134.1034423492866
 30
0.0
 10
90.48767223215239
 20
-134.1034423492866
 30
0.0
 10
90.4940456588001
 20
-134.0634792416577
 30
0.0
 10
90.50041908544782
 20
-133.9807969500118
 30
0.0
 10
90.50041908544782
 20
-133.9659830394252
 30
0.0
 10
90.50041908544782
 20
-133.9659830394252
 30
0.0
 10
90.50041908544782
 20
-133.8454046974414
 30
0.0
 10
90.50041908544782
 20
-133.8454046974414
 30
0.0
 10
90.50041908544782
 20
-133.8454046974414
 30
0.0
 10
90.33539901170435
 20
-133.8454046974414
 30
0.0
 10
90.33539901170435
 20
-133.8454046974414
 30
0.0
 10
90.29319659201003
 20
-134.0655462989489
 30
0.0
 10
90.23807506424605
 20
-134.1458170237552
 30
0.0
 10
90.13231063284887
 20
-134.2453802832789
 30
0.0
 10
90.13231063284887
 20
-134.2453802832789
 30
0.0
 10
89.96522350181425
 20
-134.1310031131686
 30
0.0
 10
89.96522350181425
 20
-134.1310031131686
 30
0.0
 10
90.02861325874285
 20
-134.0824272668266
 30
0.0
 10
90.17881942189975
 20
-133.9701171540075
 30
0.0
 10
90.17881942189975
 20
-133.6211289813517
 30
0.0
 10
90.17881942189975
 20
-133.5387911992542
 30
0.0
 10
90.17037893796088
 20
-133.4922824102033
 30
0.0
 10
90.16193845402202
 20
-133.4433620543128
 30
0.0
 10
90.30801050259662
 20
-133.4581759648993
 30
0.0
 10
90.32282441318318
 20
-133.4581759648993
 30
0.0
 10
90.35865340622979
 20
-133.4581759648993
 30
0.0
 10
90.46665714969237
 20
-133.4581759648993
 30
0.0
 10
90.60842282891039
 20
-133.4412949970216
 30
0.0
 10
90.7691365332973
 20
-133.3799722973842
 30
0.0
 10
90.7691365332973
 20
-133.3799722973842
 30
0.0
 10
90.88334144863333
 20
-133.5112304353722
 30
0.0
 10
90.88334144863333
 20
-133.5112304353722
 30
0.0
 10
90.88971487528104
 20
-133.5174316072456
 30
0.0
 10
90.89384898986334
 20
-133.5260443459588
 30
0.0
 10
90.89384898986334
 20
-133.5343125751234
 30
0.0
 10
90.89384898986334
 20
-133.5577392244231
 30
0.0
 10
90.87490096469448
 20
-133.5618733390054
 30
0.0
 10
90.8600870541079
 20
-133.5618733390054
 30
0.0
  0
SPLINE
  5
15C
330
131
100
AcDbEntity
  8
_U+30EC_U+30A4_U+30E4_U+30FC 1
370
     0
100
AcDbSpline
210
0.0
220
0.0
230
1.0
 70
    11
 71
     3
 72
    74
 73
    70
 74
     0
 42
0.0000000001
 43
0.0000000001
 12
1.0
 22
0.0
 32
0.0
 13
1.0
 23
0.0
 33
0.0
 40
0.0
 40
0.0
 40
0.0
 40
0.0
 40
1.0
 40
1.0
 40
1.0
 40
2.0
 40
2.0
 40
2.0
 40
3.0
 40
3.0
 40
3.0
 40
4.0
 40
4.0
 40
4.0
 40
5.0
 40
5.0
 40
5.0
 40
6.0
 40
6.0
 40
6.0
 40
7.0
 40
7.0
 40
7.0
 40
8.0
 40
8.0
 40
8.0
 40
9.0
 40
9.0
 40
9.0
 40
10.0
 40
10.0
 40
10.0
 40
11.0
 40
11.0
 40
11.0
 40
12.0
 40
12.0
 40
12.0
 40
13.0
 40
13.0
 40
13.0
 40
14.0
 40
14.0
 40
14.0
 40
15.0
 40
15.0
 40
15.0
 40
16.0
 40
16.0
 40
16.0
 40
17.0
 40
17.0
 40
17.0
 40
18.0
 40
18.0
 40
18.0
 40
19.0
 40
19.0
 40
19.0
 40
20.0
 40
20.0
 40
20.0
 40
21.0
 40
21.0
 40
21.0
 40
22.0
 40
22.0
 40
22.0
 40
23.0
 40
23.0
 40
23.0
 40
23.0
 10
91.69776202134639
 20
-135.3285183038415
 30
0.0
 10
91.48416610126091
 20
-135.3178385078372
 30
0.0
 10
91.28314477969658
 20
-135.2310221016089
 30
0.0
 10
91.1076171647231
 20
-135.1104437596252
 30
0.0
 10
91.1076171647231
 20
-135.1104437596252
 30
0.0
 10
91.2049411121814
 20
-135.0236273533969
 30
0.0
 10
91.2049411121814
 20
-135.0236273533969
 30
0.0
 10
91.2049411121814
 20
-135.0236273533969
 30
0.0
 10
90.65269230589585
 20
-135.0236273533969
 30
0.0
 10
90.65269230589585
 20
-135.0236273533969
 30
0.0
 10
90.65269230589585
 20
-135.0236273533969
 30
0.0
 10
90.73313528547644
 20
-135.087361619874
 30
0.0
 10
90.73313528547644
 20
-135.087361619874
 30
0.0
 10
90.73950871212415
 20
-135.0914957344563
 30
0.0
 10
90.75001625335416
 20
-135.1021755304606
 30
0.0
 10
90.75001625335416
 20
-135.1169894410471
 30
0.0
 10
90.75001625335416
 20
-135.1569525486761
 30
0.0
 10
90.67594670042129
 20
-135.1507513768026
 30
0.0
 10
90.66130504460898
 20
-135.1486843195115
 30
0.0
 10
90.4306559018715
 20
-135.2882106866641
 30
0.0
 10
90.28682316536232
 20
-135.3199055651284
 30
0.0
 10
90.1831257912563
 20
-135.3367865330061
 30
0.0
 10
90.1831257912563
 20
-135.3367865330061
 30
0.0
 10
90.0541069653337
 20
-135.1590196059672
 30
0.0
 10
90.0541069653337
 20
-135.1590196059672
 30
0.0
 10
90.3016370759489
 20
-135.1273247275029
 30
0.0
 10
90.40309513798951
 20
-135.080815938452
 30
0.0
 10
90.49197860150895
 20
-135.0281059775277
 30
0.0
 10
90.41790904857608
 20
-135.0301730348189
 30
0.0
 10
90.30370413324005
 20
-135.03224009211
 30
0.0
 10
90.27200925477575
 20
-135.0343071494011
 30
0.0
 10
90.28682316536232
 20
-134.9454236858817
 30
0.0
 10
90.28889022265348
 20
-134.8165771147333
 30
0.0
 10
90.28889022265348
 20
-134.7425075618005
 30
0.0
 10
90.28889022265348
 20
-134.7425075618005
 30
0.0
 10
90.28889022265348
 20
-134.4420952354867
 30
0.0
 10
90.28889022265348
 20
-134.4420952354867
 30
0.0
 10
90.28889022265348
 20
-134.342531975963
 30
0.0
 10
90.28251679600577
 20
-134.2433132259878
 30
0.0
 10
90.27200925477575
 20
-134.1458170237552
 30
0.0
 10
90.37346731681636
 20
-134.1520181956287
 30
0.0
 10
90.60411645955384
 20
-134.1585638770507
 30
0.0
 10
90.71194794824216
 20
-134.1585638770507
 30
0.0
 10
90.71194794824216
 20
-134.1585638770507
 30
0.0
 10
91.1351779286051
 20
-134.1585638770507
 30
0.0
 10
91.1351779286051
 20
-134.1585638770507
 30
0.0
 10
91.25351695852343
 20
-134.1585638770507
 30
0.0
 10
91.29589163299201
 20
-134.1585638770507
 30
0.0
 10
91.37840166986373
 20
-134.1544297624683
 30
0.0
 10
91.52654077572949
 20
-134.1478840810464
 30
0.0
 10
91.5434217436072
 20
-134.1478840810464
 30
0.0
 10
91.58993053265807
 20
-134.1458170237552
 30
0.0
 10
91.58131779394495
 20
-134.2260877485616
 30
0.0
 10
91.57718367936265
 20
-134.3849066504316
 30
0.0
 10
91.57718367936265
 20
-134.467244432529
 30
0.0
 10
91.57718367936265
 20
-134.467244432529
 30
0.0
 10
91.57718367936265
 20
-134.7528428482563
 30
0.0
 10
91.57718367936265
 20
-134.7528428482563
 30
0.0
 10
91.57718367936265
 20
-134.8248453438979
 30
0.0
 10
91.5792507366538
 20
-134.956103481886
 30
0.0
 10
91.58993053265807
 20
-135.0343071494011
 30
0.0
 10
91.51792803701636
 20
-135.0301730348189
 30
0.0
 10
91.39528263774146
 20
-135.0281059775277
 30
0.0
 10
91.31707897022629
 20
-135.0260389202365
 30
0.0
 10
91.42697751620575
 20
-135.0935627917474
 30
0.0
 10
91.5792507366538
 20
-135.1442056953806
 30
0.0
 10
91.79077959944814
 20
-135.1486843195115
 30
0.0
 10
91.79077959944814
 20
-135.1486843195115
 30
0.0
 10
91.69776202134639
 20
-135.3285183038415
 30
0.0
 10
91.69776202134639
 20
-135.3285183038415
 30
0.0
  0
POLYLINE
  5
15D
330
131
100
AcDbEntity
  8
_U+30EC_U+30A4_U+30E4_U+30FC 1
370
     0
100
AcDb2dPolyline
 66
     1
 10
0.0
 20
0.0
 30
0.0
  0
VERTEX
  5
15E
330
15D
100
AcDbEntity
  8
_U+30EC_U+30A4_U+30E4_U+30FC 1
370
     0
100
AcDbVertex
100
AcDb2dVertex
 10
91.39321558045032
 20
-134.293956129621
 30
0.0
  0
VERTEX
  5
15F
330
15D
100
AcDbEntity
  8
_U+30EC_U+30A4_U+30E4_U+30FC 1
370
     0
100
AcDbVertex
100
AcDb2dVertex
 10
90.48147106027895
 20
-134.293956129621
 30
0.0
  0
VERTEX
  5
160
330
15D
100
AcDbEntity
  8
_U+30EC_U+30A4_U+30E4_U+30FC 1
370
     0
100
AcDbVertex
100
AcDb2dVertex
 10
90.48147106027895
 20
-134.4059217328916
 30
0.0
  0
VERTEX
  5
161
330
15D
100
AcDbEntity
  8
_U+30EC_U+30A4_U+30E4_U+30FC 1
370
     0
100
AcDbVertex
100
AcDb2dVertex
 10
91.39321558045032
 20
-134.4059217328916
 30
0.0
  0
VERTEX
  5
162
330
15D
100
AcDbEntity
  8
_U+30EC_U+30A4_U+30E4_U+30FC 1
370
     0
100
AcDbVertex
100
AcDb2dVertex
 10
91.39321558045032
 20
-134.293956129621
 30
0.0
  0
SEQEND
  5
163
330
15D
100
AcDbEntity
  8
_U+30EC_U+30A4_U+30E4_U+30FC 1
370
     0
  0
POLYLINE
  5
164
330
131
100
AcDbEntity
  8
_U+30EC_U+30A4_U+30E4_U+30FC 1
370
     0
100
AcDb2dPolyline
 66
     1
 10
0.0
 20
0.0
 30
0.0
  0
VERTEX
  5
165
330
164
100
AcDbEntity
  8
_U+30EC_U+30A4_U+30E4_U+30FC 1
370
     0
100
AcDbVertex
100
AcDb2dVertex
 10
91.39321558045032
 20
-134.5392469281707
 30
0.0
  0
VERTEX
  5
166
330
164
100
AcDbEntity
  8
_U+30EC_U+30A4_U+30E4_U+30FC 1
370
     0
100
AcDbVertex
100
AcDb2dVertex
 10
90.48147106027895
 20
-134.5392469281707
 30
0.0
  0
VERTEX
  5
167
330
164
100
AcDbEntity
  8
_U+30EC_U+30A4_U+30E4_U+30FC 1
370
     0
100
AcDbVertex
100
AcDb2dVertex
 10
90.48147106027895
 20
-134.6494899836987
 30
0.0
  0
VERTEX
  5
168
330
164
100
AcDbEntity
  8
_U+30EC_U+30A4_U+30E4_U+30FC 1
370
     0
100
AcDbVertex
100
AcDb2dVertex
 10
91.39321558045032
 20
-134.6494899836987
 30
0.0
  0
VERTEX
  5
169
330
164
100
AcDbEntity
  8
_U+30EC_U+30A4_U+30E4_U+30FC 1
370
     0
100
AcDbVertex
100
AcDb2dVertex
 10
91.39321558045032
 20
-134.5392469281707
 30
0.0
  0
SEQEND
  5
16A
330
164
100
AcDbEntity
  8
_U+30EC_U+30A4_U+30E4_U+30FC 1
370
     0
  0
POLYLINE
  5
16B
330
131
100
AcDbEntity
  8
_U+30EC_U+30A4_U+30E4_U+30FC 1
370
     0
100
AcDb2dPolyline
 66
     1
 10
0.0
 20
0.0
 30
0.0
  0
VERTEX
  5
16C
330
16B
100
AcDbEntity
  8
_U+30EC_U+30A4_U+30E4_U+30FC 1
370
     0
100
AcDbVertex
100
AcDb2dVertex
 10
91.39321558045032
 20
-134.7848822362691
 30
0.0
  0
VERTEX
  5
16D
330
16B
100
AcDbEntity
  8
_U+30EC_U+30A4_U+30E4_U+30FC 1
370
     0
100
AcDbVertex
100
AcDb2dVertex
 10
90.48147106027895
 20
-134.7848822362691
 30
0.0
  0
VERTEX
  5
16E
330
16B
100
AcDbEntity
  8
_U+30EC_U+30A4_U+30E4_U+30FC 1
370
     0
100
AcDbVertex
100
AcDb2dVertex
 10
90.48147106027895
 20
-134.8927137249574
 30
0.0
  0
VERTEX
  5
16F
330
16B
100
AcDbEntity
  8
_U+30EC_U+30A4_U+30E4_U+30FC 1
370
     0
100
AcDbVertex
100
AcDb2dVertex
 10
91.39321558045032
 20
-134.8927137249574
 30
0.0
  0
VERTEX
  5
170
330
16B
100
AcDbEntity
  8
_U+30EC_U+30A4_U+30E4_U+30FC 1
370
     0
100
AcDbVertex
100
AcDb2dVertex
 10
91.39321558045032
 20
-134.7848822362691
 30
0.0
  0
SEQEND
  5
171
330
16B
100
AcDbEntity
  8
_U+30EC_U+30A4_U+30E4_U+30FC 1
370
     0
  0
SPLINE
  5
172
330
131
100
AcDbEntity
  8
_U+30EC_U+30A4_U+30E4_U+30FC 1
370
     0
100
AcDbSpline
210
0.0
220
0.0
230
1.0
 70
    11
 71
     3
 72
    74
 73
    70
 74
     0
 42
0.0000000001
 43
0.0000000001
 12
1.0
 22
0.0
 32
0.0
 13
1.0
 23
0.0
 33
0.0
 40
0.0
 40
0.0
 40
0.0
 40
0.0
 40
1.0
 40
1.0
 40
1.0
 40
2.0
 40
2.0
 40
2.0
 40
3.0
 40
3.0
 40
3.0
 40
4.0
 40
4.0
 40
4.0
 40
5.0
 40
5.0
 40
5.0
 40
6.0
 40
6.0
 40
6.0
 40
7.0
 40
7.0
 40
7.0
 40
8.0
 40
8.0
 40
8.0
 40
9.0
 40
9.0
 40
9.0
 40
10.0
 40
10.0
 40
10.0
 40
11.0
 40
11.0
 40
11.0
 40
12.0
 40
12.0
 40
12.0
 40
13.0
 40
13.0
 40
13.0
 40
14.0
 40
14.0
 40
14.0
 40
15.0
 40
15.0
 40
15.0
 40
16.0
 40
16.0
 40
16.0
 40
17.0
 40
17.0
 40
17.0
 40
18.0
 40
18.0
 40
18.0
 40
19.0
 40
19.0
 40
19.0
 40
20.0
 40
20.0
 40
20.0
 40
21.0
 40
21.0
 40
21.0
 40
22.0
 40
22.0
 40
22.0
 40
23.0
 40
23.0
 40
23.0
 40
23.0
 10
91.71050887464182
 20
-133.8412705828591
 30
0.0
 10
91.71050887464182
 20
-133.8412705828591
 30
0.0
 10
91.54962291548065
 20
-133.8412705828591
 30
0.0
 10
91.54962291548065
 20
-133.8412705828591
 30
0.0
 10
91.54962291548065
 20
-133.8412705828591
 30
0.0
 10
91.54962291548065
 20
-133.9553032434209
 30
0.0
 10
91.54962291548065
 20
-133.9553032434209
 30
0.0
 10
91.54962291548065
 20
-133.9956108605983
 30
0.0
 10
91.55616859690262
 20
-134.0696804135312
 30
0.0
 10
91.56030271148492
 20
-134.095174120122
 30
0.0
 10
91.56030271148492
 20
-134.095174120122
 30
0.0
 10
91.34877384869058
 20
-134.095174120122
 30
0.0
 10
91.34877384869058
 20
-134.095174120122
 30
0.0
 10
91.3592813899206
 20
-134.0293727963538
 30
0.0
 10
91.36152070198601
 20
-133.9701171540075
 30
0.0
 10
91.36152070198601
 20
-133.9680500967163
 30
0.0
 10
91.36152070198601
 20
-133.9680500967163
 30
0.0
 10
91.36152070198601
 20
-133.8454046974414
 30
0.0
 10
91.36152070198601
 20
-133.8454046974414
 30
0.0
 10
91.36152070198601
 20
-133.8454046974414
 30
0.0
 10
91.18168671765598
 20
-133.8454046974414
 30
0.0
 10
91.18168671765598
 20
-133.8454046974414
 30
0.0
 10
91.16256643771284
 20
-133.9046603397877
 30
0.0
 10
91.11605764866196
 20
-134.0507323883623
 30
0.0
 10
91.00185273332593
 20
-134.1330701704598
 30
0.0
 10
91.00185273332593
 20
-134.1330701704598
 30
0.0
 10
90.84527314352133
 20
-134.0273057390626
 30
0.0
 10
90.84527314352133
 20
-134.0273057390626
 30
0.0
 10
90.9193426964542
 20
-133.9807969500118
 30
0.0
 10
91.03561466908138
 20
-133.9067273970789
 30
0.0
 10
91.03561466908138
 20
-133.5852999883051
 30
0.0
 10
91.03561466908138
 20
-133.5301784605411
 30
0.0
 10
91.03148055449908
 20
-133.4857367287813
 30
0.0
 10
91.02924124243367
 20
-133.4478406784436
 30
0.0
 10
91.10555010743195
 20
-133.4561089076082
 30
0.0
 10
91.17944740559057
 20
-133.4626545890302
 30
0.0
 10
91.24300941729342
 20
-133.4626545890302
 30
0.0
 10
91.42077634433231
 20
-133.4626545890302
 30
0.0
 10
91.61955835383122
 20
-133.4033989466839
 30
0.0
 10
91.68088105346867
 20
-133.3737711255107
 30
0.0
 10
91.68088105346867
 20
-133.3737711255107
 30
0.0
 10
91.80766056732587
 20
-133.509163378081
 30
0.0
 10
91.80766056732587
 20
-133.509163378081
 30
0.0
 10
91.8121391914567
 20
-133.5132974926634
 30
0.0
 10
91.81420624874784
 20
-133.5219102313765
 30
0.0
 10
91.81420624874784
 20
-133.5281114032499
 30
0.0
 10
91.81420624874784
 20
-133.5491264857099
 30
0.0
 10
91.79939233816127
 20
-133.5556721671319
 30
0.0
 10
91.78251137028354
 20
-133.5556721671319
 30
0.0
 10
91.76115177827499
 20
-133.5556721671319
 30
0.0
 10
91.74633786768842
 20
-133.5470594284188
 30
0.0
 10
91.72738984251954
 20
-133.536724141963
 30
0.0
 10
91.55410153961148
 20
-133.5935682174697
 30
0.0
 10
91.33602699539516
 20
-133.6190619240605
 30
0.0
 10
91.20287405489026
 20
-133.6211289813517
 30
0.0
 10
91.20287405489026
 20
-133.6211289813517
 30
0.0
 10
91.19856768553369
 20
-133.7038112729977
 30
0.0
 10
91.19856768553369
 20
-133.7038112729977
 30
0.0
 10
91.19856768553369
 20
-133.7038112729977
 30
0.0
 10
91.47141924796549
 20
-133.7038112729977
 30
0.0
 10
91.47141924796549
 20
-133.7038112729977
 30
0.0
 10
91.52860783302063
 20
-133.7038112729977
 30
0.0
 10
91.79077959944814
 20
-133.6845187382803
 30
0.0
 10
91.83522133120786
 20
-133.6783175664068
 30
0.0
 10
91.83522133120786
 20
-133.6783175664068
 30
0.0
 10
91.83522133120786
 20
-133.8474717547326
 30
0.0
 10
91.83522133120786
 20
-133.8474717547326
 30
0.0
 10
91.80145939545241
 20
-133.8433376401503
 30
0.0
 10
91.78871254215699
 20
-133.8412705828591
 30
0.0
 10
91.71050887464182
 20
-133.8412705828591
 30
0.0
  0
HATCH
  5
173
330
131
100
AcDbEntity
  8
_U+30EC_U+30A4_U+30E4_U+30FC 1
 62
   179
420
  2234388
100
AcDbHatch
 10
0.0
 20
0.0
 30
0.0
210
0.0
220
0.0
230
1.0
  2
SOLID
 70
     1
 71
     0
 91
        6
 92
        1
 93
        1
 72
     4
 94
        3
 73
     0
 74
     1
 95
       71
 96
       67
 40
0.0
 40
0.0
 40
0.0
 40
0.0
 40
1.0
 40
1.0
 40
1.0
 40
2.0
 40
2.0
 40
2.0
 40
3.0
 40
3.0
 40
3.0
 40
4.0
 40
4.0
 40
4.0
 40
5.0
 40
5.0
 40
5.0
 40
6.0
 40
6.0
 40
6.0
 40
7.0
 40
7.0
 40
7.0
 40
8.0
 40
8.0
 40
8.0
 40
9.0
 40
9.0
 40
9.0
 40
10.0
 40
10.0
 40
10.0
 40
11.0
 40
11.0
 40
11.0
 40
12.0
 40
12.0
 40
12.0
 40
13.0
 40
13.0
 40
13.0
 40
14.0
 40
14.0
 40
14.0
 40
15.0
 40
15.0
 40
15.0
 40
16.0
 40
16.0
 40
16.0
 40
17.0
 40
17.0
 40
17.0
 40
18.0
 40
18.0
 40
18.0
 40
19.0
 40
19.0
 40
19.0
 40
20.0
 40
20.0
 40
20.0
 40
21.0
 40
21.0
 40
21.0
 40
22.0
 40
22.0
 40
22.0
 40
22.0
 10
90.8600870541079
 20
-133.5618733390054
 10
90.84527314352133
 20
-133.5618733390054
 10
90.8325262902259
 20
-133.5577392244231
 10
90.80720483840932
 20
-133.5491264857099
 10
90.66543915919128
 20
-133.5959797843093
 10
90.49197860150895
 20
-133.6128607521871
 10
90.35227997958208
 20
-133.6169948667694
 10
90.35227997958208
 20
-133.6169948667694
 10
90.35021292229092
 20
-133.7058783302888
 10
90.35021292229092
 20
-133.7058783302888
 10
90.35021292229092
 20
-133.7058783302888
 10
90.61048988620155
 20
-133.7058783302888
 10
90.61048988620155
 20
-133.7058783302888
 10
90.66337210190014
 20
-133.7058783302888
 10
90.84527314352133
 20
-133.6972655915757
 10
90.88971487528104
 20
-133.6910644197022
 10
90.88971487528104
 20
-133.6910644197022
 10
90.88971487528104
 20
-133.8519503788634
 10
90.88971487528104
 20
-133.8519503788634
 10
90.83476560229131
 20
-133.8454046974414
 10
90.70988089095101
 20
-133.8433376401503
 10
90.67181258583899
 20
-133.8454046974414
 10
90.67181258583899
 20
-133.8454046974414
 10
90.67181258583899
 20
-133.9553032434209
 10
90.67181258583899
 20
-133.9553032434209
 10
90.67181258583899
 20
-134.0018120324718
 10
90.67387964313015
 20
-134.0655462989489
 10
90.68025306977786
 20
-134.1034423492866
 10
90.68025306977786
 20
-134.1034423492866
 10
90.48767223215239
 20
-134.1034423492866
 10
90.48767223215239
 20
-134.1034423492866
 10
90.4940456588001
 20
-134.0634792416577
 10
90.50041908544782
 20
-133.9807969500118
 10
90.50041908544782
 20
-133.9659830394252
 10
90.50041908544782
 20
-133.9659830394252
 10
90.50041908544782
 20
-133.8454046974414
 10
90.50041908544782
 20
-133.8454046974414
 10
90.50041908544782
 20
-133.8454046974414
 10
90.33539901170435
 20
-133.8454046974414
 10
90.33539901170435
 20
-133.8454046974414
 10
90.29319659201003
 20
-134.0655462989489
 10
90.23807506424605
 20
-134.1458170237552
 10
90.13231063284887
 20
-134.2453802832789
 10
90.13231063284887
 20
-134.2453802832789
 10
89.96522350181425
 20
-134.1310031131686
 10
89.96522350181425
 20
-134.1310031131686
 10
90.02861325874285
 20
-134.0824272668266
 10
90.17881942189975
 20
-133.9701171540075
 10
90.17881942189975
 20
-133.6211289813517
 10
90.17881942189975
 20
-133.5387911992542
 10
90.17037893796088
 20
-133.4922824102033
 10
90.16193845402202
 20
-133.4433620543128
 10
90.30801050259662
 20
-133.4581759648993
 10
90.32282441318318
 20
-133.4581759648993
 10
90.35865340622979
 20
-133.4581759648993
 10
90.46665714969237
 20
-133.4581759648993
 10
90.60842282891039
 20
-133.4412949970216
 10
90.7691365332973
 20
-133.3799722973842
 10
90.7691365332973
 20
-133.3799722973842
 10
90.88334144863333
 20
-133.5112304353722
 10
90.88334144863333
 20
-133.5112304353722
 10
90.88971487528104
 20
-133.5174316072456
 10
90.89384898986334
 20
-133.5260443459588
 10
90.89384898986334
 20
-133.5343125751234
 10
90.89384898986334
 20
-133.5577392244231
 10
90.87490096469448
 20
-133.5618733390054
 10
90.8600870541079
 20
-133.5618733390054
 97
        0
 97
        0
 92
        1
 93
        1
 72
     4
 94
        3
 73
     0
 74
     1
 95
       74
 96
       70
 40
0.0
 40
0.0
 40
0.0
 40
0.0
 40
1.0
 40
1.0
 40
1.0
 40
2.0
 40
2.0
 40
2.0
 40
3.0
 40
3.0
 40
3.0
 40
4.0
 40
4.0
 40
4.0
 40
5.0
 40
5.0
 40
5.0
 40
6.0
 40
6.0
 40
6.0
 40
7.0
 40
7.0
 40
7.0
 40
8.0
 40
8.0
 40
8.0
 40
9.0
 40
9.0
 40
9.0
 40
10.0
 40
10.0
 40
10.0
 40
11.0
 40
11.0
 40
11.0
 40
12.0
 40
12.0
 40
12.0
 40
13.0
 40
13.0
 40
13.0
 40
14.0
 40
14.0
 40
14.0
 40
15.0
 40
15.0
 40
15.0
 40
16.0
 40
16.0
 40
16.0
 40
17.0
 40
17.0
 40
17.0
 40
18.0
 40
18.0
 40
18.0
 40
19.0
 40
19.0
 40
19.0
 40
20.0
 40
20.0
 40
20.0
 40
21.0
 40
21.0
 40
21.0
 40
22.0
 40
22.0
 40
22.0
 40
23.0
 40
23.0
 40
23.0
 40
23.0
 10
91.69776202134639
 20
-135.3285183038415
 10
91.48416610126091
 20
-135.3178385078372
 10
91.28314477969658
 20
-135.2310221016089
 10
91.1076171647231
 20
-135.1104437596252
 10
91.1076171647231
 20
-135.1104437596252
 10
91.2049411121814
 20
-135.0236273533969
 10
91.2049411121814
 20
-135.0236273533969
 10
91.2049411121814
 20
-135.0236273533969
 10
90.65269230589585
 20
-135.0236273533969
 10
90.65269230589585
 20
-135.0236273533969
 10
90.65269230589585
 20
-135.0236273533969
 10
90.73313528547644
 20
-135.087361619874
 10
90.73313528547644
 20
-135.087361619874
 10
90.73950871212415
 20
-135.0914957344563
 10
90.75001625335416
 20
-135.1021755304606
 10
90.75001625335416
 20
-135.1169894410471
 10
90.75001625335416
 20
-135.1569525486761
 10
90.67594670042129
 20
-135.1507513768026
 10
90.66130504460898
 20
-135.1486843195115
 10
90.4306559018715
 20
-135.2882106866641
 10
90.28682316536232
 20
-135.3199055651284
 10
90.1831257912563
 20
-135.3367865330061
 10
90.1831257912563
 20
-135.3367865330061
 10
90.0541069653337
 20
-135.1590196059672
 10
90.0541069653337
 20
-135.1590196059672
 10
90.3016370759489
 20
-135.1273247275029
 10
90.40309513798951
 20
-135.080815938452
 10
90.49197860150895
 20
-135.0281059775277
 10
90.41790904857608
 20
-135.0301730348189
 10
90.30370413324005
 20
-135.03224009211
 10
90.27200925477575
 20
-135.0343071494011
 10
90.28682316536232
 20
-134.9454236858817
 10
90.28889022265348
 20
-134.8165771147333
 10
90.28889022265348
 20
-134.7425075618005
 10
90.28889022265348
 20
-134.7425075618005
 10
90.28889022265348
 20
-134.4420952354867
 10
90.28889022265348
 20
-134.4420952354867
 10
90.28889022265348
 20
-134.342531975963
 10
90.28251679600577
 20
-134.2433132259878
 10
90.27200925477575
 20
-134.1458170237552
 10
90.37346731681636
 20
-134.1520181956287
 10
90.60411645955384
 20
-134.1585638770507
 10
90.71194794824216
 20
-134.1585638770507
 10
90.71194794824216
 20
-134.1585638770507
 10
91.1351779286051
 20
-134.1585638770507
 10
91.1351779286051
 20
-134.1585638770507
 10
91.25351695852343
 20
-134.1585638770507
 10
91.29589163299201
 20
-134.1585638770507
 10
91.37840166986373
 20
-134.1544297624683
 10
91.52654077572949
 20
-134.1478840810464
 10
91.5434217436072
 20
-134.1478840810464
 10
91.58993053265807
 20
-134.1458170237552
 10
91.58131779394495
 20
-134.2260877485616
 10
91.57718367936265
 20
-134.3849066504316
 10
91.57718367936265
 20
-134.467244432529
 10
91.57718367936265
 20
-134.467244432529
 10
91.57718367936265
 20
-134.7528428482563
 10
91.57718367936265
 20
-134.7528428482563
 10
91.57718367936265
 20
-134.8248453438979
 10
91.5792507366538
 20
-134.956103481886
 10
91.58993053265807
 20
-135.0343071494011
 10
91.51792803701636
 20
-135.0301730348189
 10
91.39528263774146
 20
-135.0281059775277
 10
91.31707897022629
 20
-135.0260389202365
 10
91.42697751620575
 20
-135.0935627917474
 10
91.5792507366538
 20
-135.1442056953806
 10
91.79077959944814
 20
-135.1486843195115
 10
91.79077959944814
 20
-135.1486843195115
 10
91.69776202134639
 20
-135.3285183038415
 10
91.69776202134639
 20
-135.3285183038415
 97
        0
 97
        0
 92
        1
 93
        4
 72
     1
 10
91.39321558045032
 20
-134.293956129621
 11
90.48147106027895
 21
-134.293956129621
 72
     1
 10
90.48147106027895
 20
-134.293956129621
 11
90.48147106027895
 21
-134.4059217328916
 72
     1
 10
90.48147106027895
 20
-134.4059217328916
 11
91.39321558045032
 21
-134.4059217328916
 72
     1
 10
91.39321558045032
 20
-134.4059217328916
 11
91.39321558045032
 21
-134.293956129621
 97
        0
 92
        1
 93
        4
 72
     1
 10
91.39321558045032
 20
-134.5392469281707
 11
90.48147106027895
 21
-134.5392469281707
 72
     1
 10
90.48147106027895
 20
-134.5392469281707
 11
90.48147106027895
 21
-134.6494899836987
 72
     1
 10
90.48147106027895
 20
-134.6494899836987
 11
91.39321558045032
 21
-134.6494899836987
 72
     1
 10
91.39321558045032
 20
-134.6494899836987
 11
91.39321558045032
 21
-134.5392469281707
 97
        0
 92
        1
 93
        4
 72
     1
 10
91.39321558045032
 20
-134.7848822362691
 11
90.48147106027895
 21
-134.7848822362691
 72
     1
 10
90.48147106027895
 20
-134.7848822362691
 11
90.48147106027895
 21
-134.8927137249574
 72
     1
 10
90.48147106027895
 20
-134.8927137249574
 11
91.39321558045032
 21
-134.8927137249574
 72
     1
 10
91.39321558045032
 20
-134.8927137249574
 11
91.39321558045032
 21
-134.7848822362691
 97
        0
 92
        1
 93
        1
 72
     4
 94
        3
 73
     0
 74
     1
 95
       74
 96
       70
 40
0.0
 40
0.0
 40
0.0
 40
0.0
 40
1.0
 40
1.0
 40
1.0
 40
2.0
 40
2.0
 40
2.0
 40
3.0
 40
3.0
 40
3.0
 40
4.0
 40
4.0
 40
4.0
 40
5.0
 40
5.0
 40
5.0
 40
6.0
 40
6.0
 40
6.0
 40
7.0
 40
7.0
 40
7.0
 40
8.0
 40
8.0
 40
8.0
 40
9.0
 40
9.0
 40
9.0
 40
10.0
 40
10.0
 40
10.0
 40
11.0
 40
11.0
 40
11.0
 40
12.0
 40
12.0
 40
12.0
 40
13.0
 40
13.0
 40
13.0
 40
14.0
 40
14.0
 40
14.0
 40
15.0
 40
15.0
 40
15.0
 40
16.0
 40
16.0
 40
16.0
 40
17.0
 40
17.0
 40
17.0
 40
18.0
 40
18.0
 40
18.0
 40
19.0
 40
19.0
 40
19.0
 40
20.0
 40
20.0
 40
20.0
 40
21.0
 40
21.0
 40
21.0
 40
22.0
 40
22.0
 40
22.0
 40
23.0
 40
23.0
 40
23.0
 40
23.0
 10
91.71050887464182
 20
-133.8412705828591
 10
91.71050887464182
 20
-133.8412705828591
 10
91.54962291548065
 20
-133.8412705828591
 10
91.54962291548065
 20
-133.8412705828591
 10
91.54962291548065
 20
-133.8412705828591
 10
91.54962291548065
 20
-133.9553032434209
 10
91.54962291548065
 20
-133.9553032434209
 10
91.54962291548065
 20
-133.9956108605983
 10
91.55616859690262
 20
-134.0696804135312
 10
91.56030271148492
 20
-134.095174120122
 10
91.56030271148492
 20
-134.095174120122
 10
91.34877384869058
 20
-134.095174120122
 10
91.34877384869058
 20
-134.095174120122
 10
91.3592813899206
 20
-134.0293727963538
 10
91.36152070198601
 20
-133.9701171540075
 10
91.36152070198601
 20
-133.9680500967163
 10
91.36152070198601
 20
-133.9680500967163
 10
91.36152070198601
 20
-133.8454046974414
 10
91.36152070198601
 20
-133.8454046974414
 10
91.36152070198601
 20
-133.8454046974414
 10
91.18168671765598
 20
-133.8454046974414
 10
91.18168671765598
 20
-133.8454046974414
 10
91.16256643771284
 20
-133.9046603397877
 10
91.11605764866196
 20
-134.0507323883623
 10
91.00185273332593
 20
-134.1330701704598
 10
91.00185273332593
 20
-134.1330701704598
 10
90.84527314352133
 20
-134.0273057390626
 10
90.84527314352133
 20
-134.0273057390626
 10
90.9193426964542
 20
-133.9807969500118
 10
91.03561466908138
 20
-133.9067273970789
 10
91.03561466908138
 20
-133.5852999883051
 10
91.03561466908138
 20
-133.5301784605411
 10
91.03148055449908
 20
-133.4857367287813
 10
91.02924124243367
 20
-133.4478406784436
 10
91.10555010743195
 20
-133.4561089076082
 10
91.17944740559057
 20
-133.4626545890302
 10
91.24300941729342
 20
-133.4626545890302
 10
91.42077634433231
 20
-133.4626545890302
 10
91.61955835383122
 20
-133.4033989466839
 10
91.68088105346867
 20
-133.3737711255107
 10
91.68088105346867
 20
-133.3737711255107
 10
91.80766056732587
 20
-133.509163378081
 10
91.80766056732587
 20
-133.509163378081
 10
91.8121391914567
 20
-133.5132974926634
 10
91.81420624874784
 20
-133.5219102313765
 10
91.81420624874784
 20
-133.5281114032499
 10
91.81420624874784
 20
-133.5491264857099
 10
91.79939233816127
 20
-133.5556721671319
 10
91.78251137028354
 20
-133.5556721671319
 10
91.76115177827499
 20
-133.5556721671319
 10
91.74633786768842
 20
-133.5470594284188
 10
91.72738984251954
 20
-133.536724141963
 10
91.55410153961148
 20
-133.5935682174697
 10
91.33602699539516
 20
-133.6190619240605
 10
91.20287405489026
 20
-133.6211289813517
 10
91.20287405489026
 20
-133.6211289813517
 10
91.19856768553369
 20
-133.7038112729977
 10
91.19856768553369
 20
-133.7038112729977
 10
91.19856768553369
 20
-133.7038112729977
 10
91.47141924796549
 20
-133.7038112729977
 10
91.47141924796549
 20
-133.7038112729977
 10
91.52860783302063
 20
-133.7038112729977
 10
91.79077959944814
 20
-133.6845187382803
 10
91.83522133120786
 20
-133.6783175664068
 10
91.83522133120786
 20
-133.6783175664068
 10
91.83522133120786
 20
-133.8474717547326
 10
91.83522133120786
 20
-133.8474717547326
 10
91.80145939545241
 20
-133.8433376401503
 10
91.78871254215699
 20
-133.8412705828591
 10
91.71050887464182
 20
-133.8412705828591
 97
        0
 97
        0
 75
     2
 76
     1
 98
        0
  0
SPLINE
  5
174
330
131
100
AcDbEntity
  8
_U+30EC_U+30A4_U+30E4_U+30FC 1
370
     0
100
AcDbSpline
210
0.0
220
0.0
230
1.0
 70
    11
 71
     3
 72
   158
 73
   154
 74
     0
 42
0.0000000001
 43
0.0000000001
 12
1.0
 22
0.0
 32
0.0
 13
1.0
 23
0.0
 33
0.0
 40
0.0
 40
0.0
 40
0.0
 40
0.0
 40
1.0
 40
1.0
 40
1.0
 40
2.0
 40
2.0
 40
2.0
 40
3.0
 40
3.0
 40
3.0
 40
4.0
 40
4.0
 40
4.0
 40
5.0
 40
5.0
 40
5.0
 40
6.0
 40
6.0
 40
6.0
 40
7.0
 40
7.0
 40
7.0
 40
8.0
 40
8.0
 40
8.0
 40
9.0
 40
9.0
 40
9.0
 40
10.0
 40
10.0
 40
10.0
 40
11.0
 40
11.0
 40
11.0
 40
12.0
 40
12.0
 40
12.0
 40
13.0
 40
13.0
 40
13.0
 40
14.0
 40
14.0
 40
14.0
 40
15.0
 40
15.0
 40
15.0
 40
16.0
 40
16.0
 40
16.0
 40
17.0
 40
17.0
 40
17.0
 40
18.0
 40
18.0
 40
18.0
 40
19.0
 40
19.0
 40
19.0
 40
20.0
 40
20.0
 40
20.0
 40
21.0
 40
21.0
 40
21.0
 40
22.0
 40
22.0
 40
22.0
 40
23.0
 40
23.0
 40
23.0
 40
24.0
 40
24.0
 40
24.0
 40
25.0
 40
25.0
 40
25.0
 40
26.0
 40
26.0
 40
26.0
 40
27.0
 40
27.0
 40
27.0
 40
28.0
 40
28.0
 40
28.0
 40
29.0
 40
29.0
 40
29.0
 40
30.0
 40
30.0
 40
30.0
 40
31.0
 40
31.0
 40
31.0
 40
32.0
 40
32.0
 40
32.0
 40
33.0
 40
33.0
 40
33.0
 40
34.0
 40
34.0
 40
34.0
 40
35.0
 40
35.0
 40
35.0
 40
36.0
 40
36.0
 40
36.0
 40
37.0
 40
37.0
 40
37.0
 40
38.0
 40
38.0
 40
38.0
 40
39.0
 40
39.0
 40
39.0
 40
40.0
 40
40.0
 40
40.0
 40
41.0
 40
41.0
 40
41.0
 40
42.0
 40
42.0
 40
42.0
 40
43.0
 40
43.0
 40
43.0
 40
44.0
 40
44.0
 40
44.0
 40
45.0
 40
45.0
 40
45.0
 40
46.0
 40
46.0
 40
46.0
 40
47.0
 40
47.0
 40
47.0
 40
48.0
 40
48.0
 40
48.0
 40
49.0
 40
49.0
 40
49.0
 40
50.0
 40
50.0
 40
50.0
 40
51.0
 40
51.0
 40
51.0
 40
51.0
 10
93.57740611809871
 20
-133.7799478832217
 30
0.0
 10
93.57740611809871
 20
-133.7799478832217
 30
0.0
 10
93.05065101840401
 20
-133.7799478832217
 30
0.0
 10
93.05065101840401
 20
-133.7799478832217
 30
0.0
 10
93.03170299323513
 20
-133.811642761686
 30
0.0
 10
93.03170299323513
 20
-133.811642761686
 30
0.0
 10
92.96176755488456
 20
-133.915340135792
 30
0.0
 10
93.0189561399397
 20
-133.9174071930832
 30
0.0
 10
93.15434839251003
 20
-133.9194742503743
 30
0.0
 10
93.21153697756517
 20
-133.9194742503743
 30
0.0
 10
93.21153697756517
 20
-133.9194742503743
 30
0.0
 10
93.53951006776096
 20
-133.9194742503743
 30
0.0
 10
93.53951006776096
 20
-133.9194742503743
 30
0.0
 10
93.67076820574898
 20
-133.9194742503743
 30
0.0
 10
93.7152099375087
 20
-133.915340135792
 30
0.0
 10
93.8102945729016
 20
-133.9108615116612
 30
0.0
 10
93.8061604583193
 20
-133.9873426314337
 30
0.0
 10
93.80374889147963
 20
-134.0338514204846
 30
0.0
 10
93.80374889147963
 20
-134.0972411774132
 30
0.0
 10
93.80374889147963
 20
-134.0972411774132
 30
0.0
 10
93.80374889147963
 20
-134.2347004872747
 30
0.0
 10
93.80374889147963
 20
-134.2347004872747
 30
0.0
 10
93.80374889147963
 20
-134.3552788292584
 30
0.0
 10
93.8061604583193
 20
-134.3680256825538
 30
0.0
 10
93.81236163019275
 20
-134.4400281781955
 30
0.0
 10
93.69591740279131
 20
-134.4334824967736
 30
0.0
 10
93.66215546703586
 20
-134.4334824967736
 30
0.0
 10
93.54157712505211
 20
-134.4334824967736
 30
0.0
 10
93.54157712505211
 20
-134.4334824967736
 30
0.0
 10
93.2242838308606
 20
-134.4334824967736
 30
0.0
 10
93.2242838308606
 20
-134.4334824967736
 30
0.0
 10
93.13540036734115
 20
-134.4334824967736
 30
0.0
 10
93.04238278923941
 20
-134.4376166113559
 30
0.0
 10
92.90699053666908
 20
-134.4441622927779
 30
0.0
 10
92.91112465125138
 20
-134.3869737077227
 30
0.0
 10
92.91319170854254
 20
-134.3297851226676
 30
0.0
 10
92.91319170854254
 20
-134.2725965376124
 30
0.0
 10
92.91319170854254
 20
-134.2725965376124
 30
0.0
 10
92.91319170854254
 20
-134.1120550879998
 30
0.0
 10
92.91319170854254
 20
-134.1120550879998
 30
0.0
 10
92.91319170854254
 20
-134.0696804135312
 30
0.0
 10
92.91319170854254
 20
-134.0610676748181
 30
0.0
 10
92.91112465125138
 20
-133.991476746016
 30
0.0
 10
92.90285642208678
 20
-134.0062906566026
 30
0.0
 10
92.89837779795596
 20
-134.0083577138938
 30
0.0
 10
92.88356388736939
 20
-134.0293727963538
 30
0.0
 10
92.88356388736939
 20
-134.0293727963538
 30
0.0
 10
92.75471731622105
 20
-133.9511691288386
 30
0.0
 10
92.75471731622105
 20
-133.9511691288386
 30
0.0
 10
92.75471731622105
 20
-133.9511691288386
 30
0.0
 10
92.75471731622105
 20
-134.0610676748181
 30
0.0
 10
92.75471731622105
 20
-134.0610676748181
 30
0.0
 10
92.70372990303935
 20
-134.0548665029446
 30
0.0
 10
92.62966035010648
 20
-134.0548665029446
 30
0.0
 10
92.59589841435103
 20
-134.0548665029446
 30
0.0
 10
92.59589841435103
 20
-134.0548665029446
 30
0.0
 10
92.52837454284013
 20
-134.0548665029446
 30
0.0
 10
92.52837454284013
 20
-134.0548665029446
 30
0.0
 10
92.52837454284013
 20
-134.0548665029446
 30
0.0
 10
92.52837454284013
 20
-134.6239962771079
 30
0.0
 10
92.52837454284013
 20
-134.6239962771079
 30
0.0
 10
92.56006942130443
 20
-134.6174505956859
 30
0.0
 10
92.67203502457505
 20
-134.5943684559348
 30
0.0
 10
92.76953122680762
 20
-134.5606065201793
 30
0.0
 10
92.76953122680762
 20
-134.5606065201793
 30
0.0
 10
92.75023869209022
 20
-134.7338948230874
 30
0.0
 10
92.75023869209022
 20
-134.7338948230874
 30
0.0
 10
92.70820852717017
 20
-134.7507757909651
 30
0.0
 10
92.67858070599702
 20
-134.7614555869694
 30
0.0
 10
92.52182886141816
 20
-134.8079643760202
 30
0.0
 10
92.4288112833164
 20
-134.8355251399022
 30
0.0
 10
92.28067217745067
 20
-134.879966871662
 30
0.0
 10
92.18765459934892
 20
-134.907527635544
 30
0.0
 10
92.18352048476662
 20
-134.9326768325863
 30
0.0
 10
92.1790418606358
 20
-134.9540364245948
 30
0.0
 10
92.16009383546692
 20
-134.9540364245948
 30
0.0
 10
92.14114581029806
 20
-134.9540364245948
 30
0.0
 10
92.1349446384246
 20
-134.9392225140083
 30
0.0
 10
92.13046601429377
 20
-134.9264756607128
 30
0.0
 10
92.13046601429377
 20
-134.9264756607128
 30
0.0
 10
92.06294214278287
 20
-134.7001328873319
 30
0.0
 10
92.06294214278287
 20
-134.7001328873319
 30
0.0
 10
92.22796221652635
 20
-134.6791178048719
 30
0.0
 10
92.25965709499064
 20
-134.6746391807411
 30
0.0
 10
92.34406193437927
 20
-134.6598252701545
 30
0.0
 10
92.34406193437927
 20
-134.6598252701545
 30
0.0
 10
92.34406193437927
 20
-134.0548665029446
 30
0.0
 10
92.34406193437927
 20
-134.0548665029446
 30
0.0
 10
92.34406193437927
 20
-134.0548665029446
 30
0.0
 10
92.2934190307461
 20
-134.0548665029446
 30
0.0
 10
92.2934190307461
 20
-134.0548665029446
 30
0.0
 10
92.21728242052207
 20
-134.0548665029446
 30
0.0
 10
92.12219778512917
 20
-134.0610676748181
 30
0.0
 10
92.09877113582948
 20
-134.0634792416577
 30
0.0
 10
92.09877113582948
 20
-134.0634792416577
 30
0.0
 10
92.09877113582948
 20
-133.881233690488
 30
0.0
 10
92.09877113582948
 20
-133.881233690488
 30
0.0
 10
92.15595972088462
 20
-133.8898464292012
 30
0.0
 10
92.2617241522818
 20
-133.8919134864923
 30
0.0
 10
92.27447100557723
 20
-133.8919134864923
 30
0.0
 10
92.27447100557723
 20
-133.8919134864923
 30
0.0
 10
92.34406193437927
 20
-133.8919134864923
 30
0.0
 10
92.34406193437927
 20
-133.8919134864923
 30
0.0
 10
92.34406193437927
 20
-133.8919134864923
 30
0.0
 10
92.34406193437927
 20
-133.5153645499545
 30
0.0
 10
92.34406193437927
 20
-133.5153645499545
 30
0.0
 10
92.34406193437927
 20
-133.4688557609036
 30
0.0
 10
92.34199487708811
 20
-133.4350938251482
 30
0.0
 10
92.33992781979697
 20
-133.3989203225531
 30
0.0
 10
92.33992781979697
 20
-133.3989203225531
 30
0.0
 10
92.54525551071785
 20
-133.4161457999793
 30
0.0
 10
92.54525551071785
 20
-133.4161457999793
 30
0.0
 10
92.55800236401328
 20
-133.4161457999793
 30
0.0
 10
92.58108450376446
 20
-133.4202799145616
 30
0.0
 10
92.58108450376446
 20
-133.4392279397305
 30
0.0
 10
92.58108450376446
 20
-133.4602430221905
 30
0.0
 10
92.55800236401328
 20
-133.4729898754859
 30
0.0
 10
92.53664277200473
 20
-133.4836696714902
 30
0.0
 10
92.52837454284013
 20
-133.6338758346471
 30
0.0
 10
92.52837454284013
 20
-133.70794538758
 30
0.0
 10
92.52837454284013
 20
-133.8919134864923
 30
0.0
 10
92.52837454284013
 20
-133.8919134864923
 30
0.0
 10
92.59589841435103
 20
-133.8919134864923
 30
0.0
 10
92.59589841435103
 20
-133.8919134864923
 30
0.0
 10
92.6424072034019
 20
-133.8919134864923
 30
0.0
 10
92.7057969603305
 20
-133.88777937191
 30
0.0
 10
92.75023869209022
 20
-133.8770995759057
 30
0.0
 10
92.87322860091363
 20
-133.7375732087531
 30
0.0
 10
92.95556638301112
 20
-133.5322455178322
 30
0.0
 10
92.98519420418427
 20
-133.3885850360973
 30
0.0
 10
92.98519420418427
 20
-133.3885850360973
 30
0.0
 10
93.2008571815609
 20
-133.4412949970216
 30
0.0
 10
93.2008571815609
 20
-133.4412949970216
 30
0.0
 10
93.21153697756517
 20
-133.4433620543128
 30
0.0
 10
93.2284179454429
 20
-133.4499077357347
 30
0.0
 10
93.2284179454429
 20
-133.4647216463213
 30
0.0
 10
93.2284179454429
 20
-133.4857367287813
 30
0.0
 10
93.20740286298287
 20
-133.4898708433637
 30
0.0
 10
93.17364092722742
 20
-133.4984835820768
 30
0.0
 10
93.15021427792773
 20
-133.5598062817142
 30
0.0
 10
93.14401310605427
 20
-133.5787543068831
 30
0.0
 10
93.12678762862802
 20
-133.6190619240605
 30
0.0
 10
93.12678762862802
 20
-133.6190619240605
 30
0.0
 10
93.57120494622527
 20
-133.6190619240605
 30
0.0
 10
93.57120494622527
 20
-133.6190619240605
 30
0.0
 10
93.8144286874839
 20
-133.6190619240605
 30
0.0
 10
93.83992239407475
 20
-133.6128607521871
 30
0.0
 10
93.97324758935392
 20
-133.6021809561828
 30
0.0
 10
93.97324758935392
 20
-133.6021809561828
 30
0.0
 10
93.97324758935392
 20
-133.7902831696774
 30
0.0
 10
93.97324758935392
 20
-133.7902831696774
 30
0.0
 10
93.8654161006656
 20
-133.7820149405128
 30
0.0
 10
93.58395179952068
 20
-133.7799478832217
 30
0.0
 10
93.57740611809871
 20
-133.7799478832217
 30
0.0
  0
SPLINE
  5
175
330
131
100
AcDbEntity
  8
_U+30EC_U+30A4_U+30E4_U+30FC 1
370
     0
100
AcDbSpline
210
0.0
220
0.0
230
1.0
 70
    11
 71
     3
 72
    47
 73
    43
 74
     0
 42
0.0000000001
 43
0.0000000001
 12
1.0
 22
0.0
 32
0.0
 13
1.0
 23
0.0
 33
0.0
 40
0.0
 40
0.0
 40
0.0
 40
0.0
 40
1.0
 40
1.0
 40
1.0
 40
2.0
 40
2.0
 40
2.0
 40
3.0
 40
3.0
 40
3.0
 40
4.0
 40
4.0
 40
4.0
 40
5.0
 40
5.0
 40
5.0
 40
6.0
 40
6.0
 40
6.0
 40
7.0
 40
7.0
 40
7.0
 40
8.0
 40
8.0
 40
8.0
 40
9.0
 40
9.0
 40
9.0
 40
10.0
 40
10.0
 40
10.0
 40
11.0
 40
11.0
 40
11.0
 40
12.0
 40
12.0
 40
12.0
 40
13.0
 40
13.0
 40
13.0
 40
14.0
 40
14.0
 40
14.0
 40
14.0
 10
93.63252764586271
 20
-135.2310221016089
 30
0.0
 10
93.63252764586271
 20
-135.2310221016089
 30
0.0
 10
93.06546492899058
 20
-135.2310221016089
 30
0.0
 10
93.06546492899058
 20
-135.2310221016089
 30
0.0
 10
93.0189561399397
 20
-135.2310221016089
 30
0.0
 10
92.76746416951647
 20
-135.2330891589001
 30
0.0
 10
92.61932506365073
 20
-135.2479030694867
 30
0.0
 10
92.61932506365073
 20
-135.2479030694867
 30
0.0
 10
92.61932506365073
 20
-135.0660020278654
 30
0.0
 10
92.61932506365073
 20
-135.0660020278654
 30
0.0
 10
92.6975287311659
 20
-135.0704806519963
 30
0.0
 10
92.73542478150365
 20
-135.0725477092874
 30
0.0
 10
92.82430824502309
 20
-135.0746147665786
 30
0.0
 10
92.82430824502309
 20
-135.0746147665786
 30
0.0
 10
92.82430824502309
 20
-134.85240610778
 30
0.0
 10
92.82430824502309
 20
-134.85240610778
 30
0.0
 10
92.82430824502309
 20
-134.7552544150959
 30
0.0
 10
92.82017413044079
 20
-134.6556911555722
 30
0.0
 10
92.81397295856735
 20
-134.5561278960485
 30
0.0
 10
92.90044485524712
 20
-134.5626735774705
 30
0.0
 10
93.0148220253574
 20
-134.5688747493439
 30
0.0
 10
93.21808265898716
 20
-134.5688747493439
 30
0.0
 10
93.21808265898716
 20
-134.5688747493439
 30
0.0
 10
93.53744301046981
 20
-134.5688747493439
 30
0.0
 10
93.53744301046981
 20
-134.5688747493439
 30
0.0
 10
93.53951006776096
 20
-134.5688747493439
 30
0.0
 10
93.75965166926842
 20
-134.5668076920527
 30
0.0
 10
93.89056529770792
 20
-134.5561278960485
 30
0.0
 10
93.88229706854332
 20
-134.6832519194542
 30
0.0
 10
93.88023001125217
 20
-134.7762694975559
 30
0.0
 10
93.88023001125217
 20
-134.8248453438979
 30
0.0
 10
93.88023001125217
 20
-134.8248453438979
 30
0.0
 10
93.88023001125217
 20
-135.059800855992
 30
0.0
 10
93.88023001125217
 20
-135.059800855992
 30
0.0
 10
93.95188799734537
 20
-135.0577337987008
 30
0.0
 10
93.96670190793193
 20
-135.0556667414097
 30
0.0
 10
94.01114363969167
 20
-135.0491210599877
 30
0.0
 10
94.01114363969167
 20
-135.0491210599877
 30
0.0
 10
94.01114363969167
 20
-135.2396348403221
 30
0.0
 10
94.01114363969167
 20
-135.2396348403221
 30
0.0
 10
93.88436412583447
 20
-135.2330891589001
 30
0.0
 10
93.75965166926842
 20
-135.2310221016089
 30
0.0
 10
93.63252764586271
 20
-135.2310221016089
 30
0.0
  0
POLYLINE
  5
176
330
131
100
AcDbEntity
  8
_U+30EC_U+30A4_U+30E4_U+30FC 1
370
     0
100
AcDb2dPolyline
 66
     1
 10
0.0
 20
0.0
 30
0.0
  0
VERTEX
  5
177
330
176
100
AcDbEntity
  8
_U+30EC_U+30A4_U+30E4_U+30FC 1
370
     0
100
AcDbVertex
100
AcDb2dVertex
 10
93.12678762862802
 20
-134.7232150270831
 30
0.0
  0
VERTEX
  5
178
330
176
100
AcDbEntity
  8
_U+30EC_U+30A4_U+30E4_U+30FC 1
370
     0
100
AcDbVertex
100
AcDb2dVertex
 10
93.00414222935314
 20
-134.7232150270831
 30
0.0
  0
VERTEX
  5
179
330
176
100
AcDbEntity
  8
_U+30EC_U+30A4_U+30E4_U+30FC 1
370
     0
100
AcDbVertex
100
AcDb2dVertex
 10
93.00414222935314
 20
-135.0766818238697
 30
0.0
  0
VERTEX
  5
17A
330
176
100
AcDbEntity
  8
_U+30EC_U+30A4_U+30E4_U+30FC 1
370
     0
100
AcDbVertex
100
AcDb2dVertex
 10
93.12678762862802
 20
-135.0766818238697
 30
0.0
  0
VERTEX
  5
17B
330
176
100
AcDbEntity
  8
_U+30EC_U+30A4_U+30E4_U+30FC 1
370
     0
100
AcDbVertex
100
AcDb2dVertex
 10
93.12678762862802
 20
-134.7232150270831
 30
0.0
  0
SEQEND
  5
17C
330
176
100
AcDbEntity
  8
_U+30EC_U+30A4_U+30E4_U+30FC 1
370
     0
  0
POLYLINE
  5
17D
330
131
100
AcDbEntity
  8
_U+30EC_U+30A4_U+30E4_U+30FC 1
370
     0
100
AcDb2dPolyline
 66
     1
 10
0.0
 20
0.0
 30
0.0
  0
VERTEX
  5
17E
330
17D
100
AcDbEntity
  8
_U+30EC_U+30A4_U+30E4_U+30FC 1
370
     0
100
AcDbVertex
100
AcDb2dVertex
 10
93.62839353128041
 20
-134.0738145281135
 30
0.0
  0
VERTEX
  5
17F
330
17D
100
AcDbEntity
  8
_U+30EC_U+30A4_U+30E4_U+30FC 1
370
     0
100
AcDbVertex
100
AcDb2dVertex
 10
93.08889157829029
 20
-134.0738145281135
 30
0.0
  0
VERTEX
  5
180
330
17D
100
AcDbEntity
  8
_U+30EC_U+30A4_U+30E4_U+30FC 1
370
     0
100
AcDbVertex
100
AcDb2dVertex
 10
93.08889157829029
 20
-134.2832763336167
 30
0.0
  0
VERTEX
  5
181
330
17D
100
AcDbEntity
  8
_U+30EC_U+30A4_U+30E4_U+30FC 1
370
     0
100
AcDbVertex
100
AcDb2dVertex
 10
93.62839353128041
 20
-134.2832763336167
 30
0.0
  0
VERTEX
  5
182
330
17D
100
AcDbEntity
  8
_U+30EC_U+30A4_U+30E4_U+30FC 1
370
     0
100
AcDbVertex
100
AcDb2dVertex
 10
93.62839353128041
 20
-134.0738145281135
 30
0.0
  0
SEQEND
  5
183
330
17D
100
AcDbEntity
  8
_U+30EC_U+30A4_U+30E4_U+30FC 1
370
     0
  0
POLYLINE
  5
184
330
131
100
AcDbEntity
  8
_U+30EC_U+30A4_U+30E4_U+30FC 1
370
     0
100
AcDb2dPolyline
 66
     1
 10
0.0
 20
0.0
 30
0.0
  0
VERTEX
  5
185
330
184
100
AcDbEntity
  8
_U+30EC_U+30A4_U+30E4_U+30FC 1
370
     0
100
AcDbVertex
100
AcDb2dVertex
 10
93.41238604435524
 20
-134.7256265939228
 30
0.0
  0
VERTEX
  5
186
330
184
100
AcDbEntity
  8
_U+30EC_U+30A4_U+30E4_U+30FC 1
370
     0
100
AcDbVertex
100
AcDb2dVertex
 10
93.28560653049804
 20
-134.7256265939228
 30
0.0
  0
VERTEX
  5
187
330
184
100
AcDbEntity
  8
_U+30EC_U+30A4_U+30E4_U+30FC 1
370
     0
100
AcDbVertex
100
AcDb2dVertex
 10
93.28560653049804
 20
-135.0704806519963
 30
0.0
  0
VERTEX
  5
188
330
184
100
AcDbEntity
  8
_U+30EC_U+30A4_U+30E4_U+30FC 1
370
     0
100
AcDbVertex
100
AcDb2dVertex
 10
93.41238604435524
 20
-135.0704806519963
 30
0.0
  0
VERTEX
  5
189
330
184
100
AcDbEntity
  8
_U+30EC_U+30A4_U+30E4_U+30FC 1
370
     0
100
AcDbVertex
100
AcDb2dVertex
 10
93.41238604435524
 20
-134.7256265939228
 30
0.0
  0
SEQEND
  5
18A
330
184
100
AcDbEntity
  8
_U+30EC_U+30A4_U+30E4_U+30FC 1
370
     0
  0
POLYLINE
  5
18B
330
131
100
AcDbEntity
  8
_U+30EC_U+30A4_U+30E4_U+30FC 1
370
     0
100
AcDb2dPolyline
 66
     1
 10
0.0
 20
0.0
 30
0.0
  0
VERTEX
  5
18C
330
18B
100
AcDbEntity
  8
_U+30EC_U+30A4_U+30E4_U+30FC 1
370
     0
100
AcDbVertex
100
AcDb2dVertex
 10
93.70039602692212
 20
-134.7232150270831
 30
0.0
  0
VERTEX
  5
18D
330
18B
100
AcDbEntity
  8
_U+30EC_U+30A4_U+30E4_U+30FC 1
370
     0
100
AcDbVertex
100
AcDb2dVertex
 10
93.57327200351641
 20
-134.7232150270831
 30
0.0
  0
VERTEX
  5
18E
330
18B
100
AcDbEntity
  8
_U+30EC_U+30A4_U+30E4_U+30FC 1
370
     0
100
AcDbVertex
100
AcDb2dVertex
 10
93.57327200351641
 20
-135.0639349705743
 30
0.0
  0
VERTEX
  5
18F
330
18B
100
AcDbEntity
  8
_U+30EC_U+30A4_U+30E4_U+30FC 1
370
     0
100
AcDbVertex
100
AcDb2dVertex
 10
93.70039602692212
 20
-135.0639349705743
 30
0.0
  0
VERTEX
  5
190
330
18B
100
AcDbEntity
  8
_U+30EC_U+30A4_U+30E4_U+30FC 1
370
     0
100
AcDbVertex
100
AcDb2dVertex
 10
93.70039602692212
 20
-134.7232150270831
 30
0.0
  0
SEQEND
  5
191
330
18B
100
AcDbEntity
  8
_U+30EC_U+30A4_U+30E4_U+30FC 1
370
     0
  0
HATCH
  5
192
330
131
100
AcDbEntity
  8
_U+30EC_U+30A4_U+30E4_U+30FC 1
 62
   179
420
  2234388
100
AcDbHatch
 10
0.0
 20
0.0
 30
0.0
210
0.0
220
0.0
230
1.0
  2
SOLID
 70
     1
 71
     0
 91
        6
 92
        1
 93
        1
 72
     4
 94
        3
 73
     0
 74
     1
 95
      158
 96
      154
 40
0.0
 40
0.0
 40
0.0
 40
0.0
 40
1.0
 40
1.0
 40
1.0
 40
2.0
 40
2.0
 40
2.0
 40
3.0
 40
3.0
 40
3.0
 40
4.0
 40
4.0
 40
4.0
 40
5.0
 40
5.0
 40
5.0
 40
6.0
 40
6.0
 40
6.0
 40
7.0
 40
7.0
 40
7.0
 40
8.0
 40
8.0
 40
8.0
 40
9.0
 40
9.0
 40
9.0
 40
10.0
 40
10.0
 40
10.0
 40
11.0
 40
11.0
 40
11.0
 40
12.0
 40
12.0
 40
12.0
 40
13.0
 40
13.0
 40
13.0
 40
14.0
 40
14.0
 40
14.0
 40
15.0
 40
15.0
 40
15.0
 40
16.0
 40
16.0
 40
16.0
 40
17.0
 40
17.0
 40
17.0
 40
18.0
 40
18.0
 40
18.0
 40
19.0
 40
19.0
 40
19.0
 40
20.0
 40
20.0
 40
20.0
 40
21.0
 40
21.0
 40
21.0
 40
22.0
 40
22.0
 40
22.0
 40
23.0
 40
23.0
 40
23.0
 40
24.0
 40
24.0
 40
24.0
 40
25.0
 40
25.0
 40
25.0
 40
26.0
 40
26.0
 40
26.0
 40
27.0
 40
27.0
 40
27.0
 40
28.0
 40
28.0
 40
28.0
 40
29.0
 40
29.0
 40
29.0
 40
30.0
 40
30.0
 40
30.0
 40
31.0
 40
31.0
 40
31.0
 40
32.0
 40
32.0
 40
32.0
 40
33.0
 40
33.0
 40
33.0
 40
34.0
 40
34.0
 40
34.0
 40
35.0
 40
35.0
 40
35.0
 40
36.0
 40
36.0
 40
36.0
 40
37.0
 40
37.0
 40
37.0
 40
38.0
 40
38.0
 40
38.0
 40
39.0
 40
39.0
 40
39.0
 40
40.0
 40
40.0
 40
40.0
 40
41.0
 40
41.0
 40
41.0
 40
42.0
 40
42.0
 40
42.0
 40
43.0
 40
43.0
 40
43.0
 40
44.0
 40
44.0
 40
44.0
 40
45.0
 40
45.0
 40
45.0
 40
46.0
 40
46.0
 40
46.0
 40
47.0
 40
47.0
 40
47.0
 40
48.0
 40
48.0
 40
48.0
 40
49.0
 40
49.0
 40
49.0
 40
50.0
 40
50.0
 40
50.0
 40
51.0
 40
51.0
 40
51.0
 40
51.0
 10
93.57740611809871
 20
-133.7799478832217
 10
93.57740611809871
 20
-133.7799478832217
 10
93.05065101840401
 20
-133.7799478832217
 10
93.05065101840401
 20
-133.7799478832217
 10
93.03170299323513
 20
-133.811642761686
 10
93.03170299323513
 20
-133.811642761686
 10
92.96176755488456
 20
-133.915340135792
 10
93.0189561399397
 20
-133.9174071930832
 10
93.15434839251003
 20
-133.9194742503743
 10
93.21153697756517
 20
-133.9194742503743
 10
93.21153697756517
 20
-133.9194742503743
 10
93.53951006776096
 20
-133.9194742503743
 10
93.53951006776096
 20
-133.9194742503743
 10
93.67076820574898
 20
-133.9194742503743
 10
93.7152099375087
 20
-133.915340135792
 10
93.8102945729016
 20
-133.9108615116612
 10
93.8061604583193
 20
-133.9873426314337
 10
93.80374889147963
 20
-134.0338514204846
 10
93.80374889147963
 20
-134.0972411774132
 10
93.80374889147963
 20
-134.0972411774132
 10
93.80374889147963
 20
-134.2347004872747
 10
93.80374889147963
 20
-134.2347004872747
 10
93.80374889147963
 20
-134.3552788292584
 10
93.8061604583193
 20
-134.3680256825538
 10
93.81236163019275
 20
-134.4400281781955
 10
93.69591740279131
 20
-134.4334824967736
 10
93.66215546703586
 20
-134.4334824967736
 10
93.54157712505211
 20
-134.4334824967736
 10
93.54157712505211
 20
-134.4334824967736
 10
93.2242838308606
 20
-134.4334824967736
 10
93.2242838308606
 20
-134.4334824967736
 10
93.13540036734115
 20
-134.4334824967736
 10
93.04238278923941
 20
-134.4376166113559
 10
92.90699053666908
 20
-134.4441622927779
 10
92.91112465125138
 20
-134.3869737077227
 10
92.91319170854254
 20
-134.3297851226676
 10
92.91319170854254
 20
-134.2725965376124
 10
92.91319170854254
 20
-134.2725965376124
 10
92.91319170854254
 20
-134.1120550879998
 10
92.91319170854254
 20
-134.1120550879998
 10
92.91319170854254
 20
-134.0696804135312
 10
92.91319170854254
 20
-134.0610676748181
 10
92.91112465125138
 20
-133.991476746016
 10
92.90285642208678
 20
-134.0062906566026
 10
92.89837779795596
 20
-134.0083577138938
 10
92.88356388736939
 20
-134.0293727963538
 10
92.88356388736939
 20
-134.0293727963538
 10
92.75471731622105
 20
-133.9511691288386
 10
92.75471731622105
 20
-133.9511691288386
 10
92.75471731622105
 20
-133.9511691288386
 10
92.75471731622105
 20
-134.0610676748181
 10
92.75471731622105
 20
-134.0610676748181
 10
92.70372990303935
 20
-134.0548665029446
 10
92.62966035010648
 20
-134.0548665029446
 10
92.59589841435103
 20
-134.0548665029446
 10
92.59589841435103
 20
-134.0548665029446
 10
92.52837454284013
 20
-134.0548665029446
 10
92.52837454284013
 20
-134.0548665029446
 10
92.52837454284013
 20
-134.0548665029446
 10
92.52837454284013
 20
-134.6239962771079
 10
92.52837454284013
 20
-134.6239962771079
 10
92.56006942130443
 20
-134.6174505956859
 10
92.67203502457505
 20
-134.5943684559348
 10
92.76953122680762
 20
-134.5606065201793
 10
92.76953122680762
 20
-134.5606065201793
 10
92.75023869209022
 20
-134.7338948230874
 10
92.75023869209022
 20
-134.7338948230874
 10
92.70820852717017
 20
-134.7507757909651
 10
92.67858070599702
 20
-134.7614555869694
 10
92.52182886141816
 20
-134.8079643760202
 10
92.4288112833164
 20
-134.8355251399022
 10
92.28067217745067
 20
-134.879966871662
 10
92.18765459934892
 20
-134.907527635544
 10
92.18352048476662
 20
-134.9326768325863
 10
92.1790418606358
 20
-134.9540364245948
 10
92.16009383546692
 20
-134.9540364245948
 10
92.14114581029806
 20
-134.9540364245948
 10
92.1349446384246
 20
-134.9392225140083
 10
92.13046601429377
 20
-134.9264756607128
 10
92.13046601429377
 20
-134.9264756607128
 10
92.06294214278287
 20
-134.7001328873319
 10
92.06294214278287
 20
-134.7001328873319
 10
92.22796221652635
 20
-134.6791178048719
 10
92.25965709499064
 20
-134.6746391807411
 10
92.34406193437927
 20
-134.6598252701545
 10
92.34406193437927
 20
-134.6598252701545
 10
92.34406193437927
 20
-134.0548665029446
 10
92.34406193437927
 20
-134.0548665029446
 10
92.34406193437927
 20
-134.0548665029446
 10
92.2934190307461
 20
-134.0548665029446
 10
92.2934190307461
 20
-134.0548665029446
 10
92.21728242052207
 20
-134.0548665029446
 10
92.12219778512917
 20
-134.0610676748181
 10
92.09877113582948
 20
-134.0634792416577
 10
92.09877113582948
 20
-134.0634792416577
 10
92.09877113582948
 20
-133.881233690488
 10
92.09877113582948
 20
-133.881233690488
 10
92.15595972088462
 20
-133.8898464292012
 10
92.2617241522818
 20
-133.8919134864923
 10
92.27447100557723
 20
-133.8919134864923
 10
92.27447100557723
 20
-133.8919134864923
 10
92.34406193437927
 20
-133.8919134864923
 10
92.34406193437927
 20
-133.8919134864923
 10
92.34406193437927
 20
-133.8919134864923
 10
92.34406193437927
 20
-133.5153645499545
 10
92.34406193437927
 20
-133.5153645499545
 10
92.34406193437927
 20
-133.4688557609036
 10
92.34199487708811
 20
-133.4350938251482
 10
92.33992781979697
 20
-133.3989203225531
 10
92.33992781979697
 20
-133.3989203225531
 10
92.54525551071785
 20
-133.4161457999793
 10
92.54525551071785
 20
-133.4161457999793
 10
92.55800236401328
 20
-133.4161457999793
 10
92.58108450376446
 20
-133.4202799145616
 10
92.58108450376446
 20
-133.4392279397305
 10
92.58108450376446
 20
-133.4602430221905
 10
92.55800236401328
 20
-133.4729898754859
 10
92.53664277200473
 20
-133.4836696714902
 10
92.52837454284013
 20
-133.6338758346471
 10
92.52837454284013
 20
-133.70794538758
 10
92.52837454284013
 20
-133.8919134864923
 10
92.52837454284013
 20
-133.8919134864923
 10
92.59589841435103
 20
-133.8919134864923
 10
92.59589841435103
 20
-133.8919134864923
 10
92.6424072034019
 20
-133.8919134864923
 10
92.7057969603305
 20
-133.88777937191
 10
92.75023869209022
 20
-133.8770995759057
 10
92.87322860091363
 20
-133.7375732087531
 10
92.95556638301112
 20
-133.5322455178322
 10
92.98519420418427
 20
-133.3885850360973
 10
92.98519420418427
 20
-133.3885850360973
 10
93.2008571815609
 20
-133.4412949970216
 10
93.2008571815609
 20
-133.4412949970216
 10
93.21153697756517
 20
-133.4433620543128
 10
93.2284179454429
 20
-133.4499077357347
 10
93.2284179454429
 20
-133.4647216463213
 10
93.2284179454429
 20
-133.4857367287813
 10
93.20740286298287
 20
-133.4898708433637
 10
93.17364092722742
 20
-133.4984835820768
 10
93.15021427792773
 20
-133.5598062817142
 10
93.14401310605427
 20
-133.5787543068831
 10
93.12678762862802
 20
-133.6190619240605
 10
93.12678762862802
 20
-133.6190619240605
 10
93.57120494622527
 20
-133.6190619240605
 10
93.57120494622527
 20
-133.6190619240605
 10
93.8144286874839
 20
-133.6190619240605
 10
93.83992239407475
 20
-133.6128607521871
 10
93.97324758935392
 20
-133.6021809561828
 10
93.97324758935392
 20
-133.6021809561828
 10
93.97324758935392
 20
-133.7902831696774
 10
93.97324758935392
 20
-133.7902831696774
 10
93.8654161006656
 20
-133.7820149405128
 10
93.58395179952068
 20
-133.7799478832217
 10
93.57740611809871
 20
-133.7799478832217
 97
        0
 97
        0
 92
        1
 93
        1
 72
     4
 94
        3
 73
     0
 74
     1
 95
       47
 96
       43
 40
0.0
 40
0.0
 40
0.0
 40
0.0
 40
1.0
 40
1.0
 40
1.0
 40
2.0
 40
2.0
 40
2.0
 40
3.0
 40
3.0
 40
3.0
 40
4.0
 40
4.0
 40
4.0
 40
5.0
 40
5.0
 40
5.0
 40
6.0
 40
6.0
 40
6.0
 40
7.0
 40
7.0
 40
7.0
 40
8.0
 40
8.0
 40
8.0
 40
9.0
 40
9.0
 40
9.0
 40
10.0
 40
10.0
 40
10.0
 40
11.0
 40
11.0
 40
11.0
 40
12.0
 40
12.0
 40
12.0
 40
13.0
 40
13.0
 40
13.0
 40
14.0
 40
14.0
 40
14.0
 40
14.0
 10
93.63252764586271
 20
-135.2310221016089
 10
93.63252764586271
 20
-135.2310221016089
 10
93.06546492899058
 20
-135.2310221016089
 10
93.06546492899058
 20
-135.2310221016089
 10
93.0189561399397
 20
-135.2310221016089
 10
92.76746416951647
 20
-135.2330891589001
 10
92.61932506365073
 20
-135.2479030694867
 10
92.61932506365073
 20
-135.2479030694867
 10
92.61932506365073
 20
-135.0660020278654
 10
92.61932506365073
 20
-135.0660020278654
 10
92.6975287311659
 20
-135.0704806519963
 10
92.73542478150365
 20
-135.0725477092874
 10
92.82430824502309
 20
-135.0746147665786
 10
92.82430824502309
 20
-135.0746147665786
 10
92.82430824502309
 20
-134.85240610778
 10
92.82430824502309
 20
-134.85240610778
 10
92.82430824502309
 20
-134.7552544150959
 10
92.82017413044079
 20
-134.6556911555722
 10
92.81397295856735
 20
-134.5561278960485
 10
92.90044485524712
 20
-134.5626735774705
 10
93.0148220253574
 20
-134.5688747493439
 10
93.21808265898716
 20
-134.5688747493439
 10
93.21808265898716
 20
-134.5688747493439
 10
93.53744301046981
 20
-134.5688747493439
 10
93.53744301046981
 20
-134.5688747493439
 10
93.53951006776096
 20
-134.5688747493439
 10
93.75965166926842
 20
-134.5668076920527
 10
93.89056529770792
 20
-134.5561278960485
 10
93.88229706854332
 20
-134.6832519194542
 10
93.88023001125217
 20
-134.7762694975559
 10
93.88023001125217
 20
-134.8248453438979
 10
93.88023001125217
 20
-134.8248453438979
 10
93.88023001125217
 20
-135.059800855992
 10
93.88023001125217
 20
-135.059800855992
 10
93.95188799734537
 20
-135.0577337987008
 10
93.96670190793193
 20
-135.0556667414097
 10
94.01114363969167
 20
-135.0491210599877
 10
94.01114363969167
 20
-135.0491210599877
 10
94.01114363969167
 20
-135.2396348403221
 10
94.01114363969167
 20
-135.2396348403221
 10
93.88436412583447
 20
-135.2330891589001
 10
93.75965166926842
 20
-135.2310221016089
 10
93.63252764586271
 20
-135.2310221016089
 97
        0
 97
        0
 92
        1
 93
        4
 72
     1
 10
93.12678762862802
 20
-134.7232150270831
 11
93.00414222935314
 21
-134.7232150270831
 72
     1
 10
93.00414222935314
 20
-134.7232150270831
 11
93.00414222935314
 21
-135.0766818238697
 72
     1
 10
93.00414222935314
 20
-135.0766818238697
 11
93.12678762862802
 21
-135.0766818238697
 72
     1
 10
93.12678762862802
 20
-135.0766818238697
 11
93.12678762862802
 21
-134.7232150270831
 97
        0
 92
        1
 93
        4
 72
     1
 10
93.62839353128041
 20
-134.0738145281135
 11
93.08889157829029
 21
-134.0738145281135
 72
     1
 10
93.08889157829029
 20
-134.0738145281135
 11
93.08889157829029
 21
-134.2832763336167
 72
     1
 10
93.08889157829029
 20
-134.2832763336167
 11
93.62839353128041
 21
-134.2832763336167
 72
     1
 10
93.62839353128041
 20
-134.2832763336167
 11
93.62839353128041
 21
-134.0738145281135
 97
        0
 92
        1
 93
        4
 72
     1
 10
93.41238604435524
 20
-134.7256265939228
 11
93.28560653049804
 21
-134.7256265939228
 72
     1
 10
93.28560653049804
 20
-134.7256265939228
 11
93.28560653049804
 21
-135.0704806519963
 72
     1
 10
93.28560653049804
 20
-135.0704806519963
 11
93.41238604435524
 21
-135.0704806519963
 72
     1
 10
93.41238604435524
 20
-135.0704806519963
 11
93.41238604435524
 21
-134.7256265939228
 97
        0
 92
        1
 93
        4
 72
     1
 10
93.70039602692212
 20
-134.7232150270831
 11
93.57327200351641
 21
-134.7232150270831
 72
     1
 10
93.57327200351641
 20
-134.7232150270831
 11
93.57327200351641
 21
-135.0639349705743
 72
     1
 10
93.57327200351641
 20
-135.0639349705743
 11
93.70039602692212
 21
-135.0639349705743
 72
     1
 10
93.70039602692212
 20
-135.0639349705743
 11
93.70039602692212
 21
-134.7232150270831
 97
        0
 75
     2
 76
     1
 98
        0
  0
SPLINE
  5
193
330
131
100
AcDbEntity
  8
_U+30EC_U+30A4_U+30E4_U+30FC 1
370
     0
100
AcDbSpline
210
0.0
220
0.0
230
1.0
 70
    11
 71
     3
 72
    74
 73
    70
 74
     0
 42
0.0000000001
 43
0.0000000001
 12
1.0
 22
0.0
 32
0.0
 13
1.0
 23
0.0
 33
0.0
 40
0.0
 40
0.0
 40
0.0
 40
0.0
 40
1.0
 40
1.0
 40
1.0
 40
2.0
 40
2.0
 40
2.0
 40
3.0
 40
3.0
 40
3.0
 40
4.0
 40
4.0
 40
4.0
 40
5.0
 40
5.0
 40
5.0
 40
6.0
 40
6.0
 40
6.0
 40
7.0
 40
7.0
 40
7.0
 40
8.0
 40
8.0
 40
8.0
 40
9.0
 40
9.0
 40
9.0
 40
10.0
 40
10.0
 40
10.0
 40
11.0
 40
11.0
 40
11.0
 40
12.0
 40
12.0
 40
12.0
 40
13.0
 40
13.0
 40
13.0
 40
14.0
 40
14.0
 40
14.0
 40
15.0
 40
15.0
 40
15.0
 40
16.0
 40
16.0
 40
16.0
 40
17.0
 40
17.0
 40
17.0
 40
18.0
 40
18.0
 40
18.0
 40
19.0
 40
19.0
 40
19.0
 40
20.0
 40
20.0
 40
20.0
 40
21.0
 40
21.0
 40
21.0
 40
22.0
 40
22.0
 40
22.0
 40
23.0
 40
23.0
 40
23.0
 40
23.0
 10
94.94958764987372
 20
-135.1590196059672
 30
0.0
 10
94.34428437311533
 20
-135.1590196059672
 30
0.0
 10
94.27469344431327
 20
-135.0511881172789
 30
0.0
 10
94.27469344431327
 20
-134.7297607085051
 30
0.0
 10
94.27469344431327
 20
-134.7297607085051
 30
0.0
 10
94.27469344431327
 20
-134.0931070628309
 30
0.0
 10
94.27469344431327
 20
-134.0931070628309
 30
0.0
 10
94.27469344431327
 20
-133.9449679569651
 30
0.0
 10
94.27469344431327
 20
-133.7606553485043
 30
0.0
 10
94.27262638702213
 20
-133.6466226879425
 30
0.0
 10
94.27055932973097
 20
-133.5811658737228
 30
0.0
 10
94.2681477628913
 20
-133.5536051098408
 30
0.0
 10
94.264013648309
 20
-133.5112304353722
 30
0.0
 10
94.264013648309
 20
-133.5112304353722
 30
0.0
 10
94.51585012828076
 20
-133.5577392244231
 30
0.0
 10
94.51585012828076
 20
-133.5577392244231
 30
0.0
 10
94.54754500674507
 20
-133.5639403962965
 30
0.0
 10
94.56649303191394
 20
-133.5663519631362
 30
0.0
 10
94.56649303191394
 20
-133.5959797843093
 30
0.0
 10
94.56649303191394
 20
-133.6083821280562
 30
0.0
 10
94.5602918600405
 20
-133.6211289813517
 30
0.0
 10
94.55374617861851
 20
-133.6297417200648
 30
0.0
 10
94.53066403886734
 20
-133.6573024839468
 30
0.0
 10
94.52652992428504
 20
-133.6614365985291
 30
0.0
 10
94.51171601369846
 20
-133.6869303051199
 30
0.0
 10
94.50517033227649
 20
-133.7672010299263
 30
0.0
 10
94.48828936439877
 20
-134.0359184777757
 30
0.0
 10
94.48622230710761
 20
-134.1034423492866
 30
0.0
 10
94.48622230710761
 20
-134.1034423492866
 30
0.0
 10
94.48415524981647
 20
-134.1881916982238
 30
0.0
 10
94.48415524981647
 20
-134.1881916982238
 30
0.0
 10
94.60886770638251
 20
-134.1861246409326
 30
0.0
 10
95.14836965937263
 20
-134.0507323883623
 30
0.0
 10
95.45291610026872
 20
-133.8770995759057
 30
0.0
 10
95.45291610026872
 20
-133.8770995759057
 30
0.0
 10
95.57556149954361
 20
-134.0906954959912
 30
0.0
 10
95.57556149954361
 20
-134.0906954959912
 30
0.0
 10
95.58004012367444
 20
-134.0972411774132
 30
0.0
 10
95.58830835283904
 20
-134.1141221452909
 30
0.0
 10
95.58830835283904
 20
-134.1248019412952
 30
0.0
 10
95.58830835283904
 20
-134.1351372277509
 30
0.0
 10
95.58004012367444
 20
-134.1458170237552
 30
0.0
 10
95.55454641708359
 20
-134.1458170237552
 30
0.0
 10
95.54179956378816
 20
-134.1458170237552
 30
0.0
 10
95.53111976778389
 20
-134.1458170237552
 30
0.0
 10
95.50390351345041
 20
-134.1248019412952
 30
0.0
 10
95.11874183819948
 20
-134.2536485124435
 30
0.0
 10
94.9960964389246
 20
-134.287410448199
 30
0.0
 10
94.84795733305884
 20
-134.3170382693721
 30
0.0
 10
94.72531193378396
 20
-134.342531975963
 30
0.0
 10
94.55822480274934
 20
-134.3721597971361
 30
0.0
 10
94.48415524981647
 20
-134.3742268544273
 30
0.0
 10
94.48415524981647
 20
-134.3742268544273
 30
0.0
 10
94.48415524981647
 20
-134.7190809125008
 30
0.0
 10
94.48415524981647
 20
-134.7190809125008
 30
0.0
 10
94.48415524981647
 20
-134.7466416763828
 30
0.0
 10
94.48415524981647
 20
-134.8630859037842
 30
0.0
 10
94.53686521074079
 20
-134.9030490114131
 30
0.0
 10
94.62574867426024
 20
-134.9709173924726
 30
0.0
 10
94.82900930788998
 20
-134.9815971884768
 30
0.0
 10
94.94304196845174
 20
-134.9815971884768
 30
0.0
 10
95.11460772361718
 20
-134.9815971884768
 30
0.0
 10
95.45291610026872
 20
-134.9392225140083
 30
0.0
 10
95.60725637800792
 20
-134.8778998143708
 30
0.0
 10
95.60725637800792
 20
-134.8778998143708
 30
0.0
 10
95.60966794484759
 20
-135.1104437596252
 30
0.0
 10
95.60966794484759
 20
-135.1104437596252
 30
0.0
 10
95.38952634334012
 20
-135.1421386380895
 30
0.0
 10
95.16938474183266
 20
-135.1590196059672
 30
0.0
 10
94.94958764987372
 20
-135.1590196059672
 30
0.0
  0
SPLINE
  5
194
330
131
100
AcDbEntity
  8
_U+30EC_U+30A4_U+30E4_U+30FC 1
370
     0
100
AcDbSpline
210
0.0
220
0.0
230
1.0
 70
    11
 71
     3
 72
    17
 73
    13
 74
     0
 42
0.0000000001
 43
0.0000000001
 12
1.0
 22
0.0
 32
0.0
 13
1.0
 23
0.0
 33
0.0
 40
0.0
 40
0.0
 40
0.0
 40
0.0
 40
1.0
 40
1.0
 40
1.0
 40
2.0
 40
2.0
 40
2.0
 40
3.0
 40
3.0
 40
3.0
 40
4.0
 40
4.0
 40
4.0
 40
4.0
 10
95.54593367837046
 20
-133.8075086471037
 30
0.0
 10
95.49322371744614
 20
-133.7375732087531
 30
0.0
 10
95.3726453754624
 20
-133.6486897452337
 30
0.0
 10
95.29203014110755
 20
-133.6128607521871
 30
0.0
 10
95.29203014110755
 20
-133.6128607521871
 30
0.0
 10
95.38539222875782
 20
-133.4943494674945
 30
0.0
 10
95.38539222875782
 20
-133.4943494674945
 30
0.0
 10
95.47634274956842
 20
-133.5281114032499
 30
0.0
 10
95.58004012367444
 20
-133.6104491853474
 30
0.0
 10
95.64549693789418
 20
-133.6845187382803
 30
0.0
 10
95.64549693789418
 20
-133.6845187382803
 30
0.0
 10
95.54593367837046
 20
-133.8075086471037
 30
0.0
 10
95.54593367837046
 20
-133.8075086471037
 30
0.0
  0
SPLINE
  5
195
330
131
100
AcDbEntity
  8
_U+30EC_U+30A4_U+30E4_U+30FC 1
370
     0
100
AcDbSpline
210
0.0
220
0.0
230
1.0
 70
    11
 71
     3
 72
    17
 73
    13
 74
     0
 42
0.0000000001
 43
0.0000000001
 12
1.0
 22
0.0
 32
0.0
 13
1.0
 23
0.0
 33
0.0
 40
0.0
 40
0.0
 40
0.0
 40
0.0
 40
1.0
 40
1.0
 40
1.0
 40
2.0
 40
2.0
 40
2.0
 40
3.0
 40
3.0
 40
3.0
 40
4.0
 40
4.0
 40
4.0
 40
4.0
 10
95.8167181835111
 20
-133.631808777356
 30
0.0
 10
95.71095375211394
 20
-133.536724141963
 30
0.0
 10
95.70681963753164
 20
-133.536724141963
 30
0.0
 10
95.55661347437474
 20
-133.4412949970216
 30
0.0
 10
95.55661347437474
 20
-133.4412949970216
 30
0.0
 10
95.6582437911896
 20
-133.322783712329
 30
0.0
 10
95.6582437911896
 20
-133.322783712329
 30
0.0
 10
95.7574625411648
 20
-133.3672254440887
 30
0.0
 10
95.82326386493308
 20
-133.4161457999793
 30
0.0
 10
95.91421438574368
 20
-133.5153645499545
 30
0.0
 10
95.91421438574368
 20
-133.5153645499545
 30
0.0
 10
95.8167181835111
 20
-133.631808777356
 30
0.0
 10
95.8167181835111
 20
-133.631808777356
 30
0.0
  0
HATCH
  5
196
330
131
100
AcDbEntity
  8
_U+30EC_U+30A4_U+30E4_U+30FC 1
 62
   179
420
  2234388
100
AcDbHatch
 10
0.0
 20
0.0
 30
0.0
210
0.0
220
0.0
230
1.0
  2
SOLID
 70
     1
 71
     0
 91
        3
 92
        1
 93
        1
 72
     4
 94
        3
 73
     0
 74
     1
 95
       74
 96
       70
 40
0.0
 40
0.0
 40
0.0
 40
0.0
 40
1.0
 40
1.0
 40
1.0
 40
2.0
 40
2.0
 40
2.0
 40
3.0
 40
3.0
 40
3.0
 40
4.0
 40
4.0
 40
4.0
 40
5.0
 40
5.0
 40
5.0
 40
6.0
 40
6.0
 40
6.0
 40
7.0
 40
7.0
 40
7.0
 40
8.0
 40
8.0
 40
8.0
 40
9.0
 40
9.0
 40
9.0
 40
10.0
 40
10.0
 40
10.0
 40
11.0
 40
11.0
 40
11.0
 40
12.0
 40
12.0
 40
12.0
 40
13.0
 40
13.0
 40
13.0
 40
14.0
 40
14.0
 40
14.0
 40
15.0
 40
15.0
 40
15.0
 40
16.0
 40
16.0
 40
16.0
 40
17.0
 40
17.0
 40
17.0
 40
18.0
 40
18.0
 40
18.0
 40
19.0
 40
19.0
 40
19.0
 40
20.0
 40
20.0
 40
20.0
 40
21.0
 40
21.0
 40
21.0
 40
22.0
 40
22.0
 40
22.0
 40
23.0
 40
23.0
 40
23.0
 40
23.0
 10
94.94958764987372
 20
-135.1590196059672
 10
94.34428437311533
 20
-135.1590196059672
 10
94.27469344431327
 20
-135.0511881172789
 10
94.27469344431327
 20
-134.7297607085051
 10
94.27469344431327
 20
-134.7297607085051
 10
94.27469344431327
 20
-134.0931070628309
 10
94.27469344431327
 20
-134.0931070628309
 10
94.27469344431327
 20
-133.9449679569651
 10
94.27469344431327
 20
-133.7606553485043
 10
94.27262638702213
 20
-133.6466226879425
 10
94.27055932973097
 20
-133.5811658737228
 10
94.2681477628913
 20
-133.5536051098408
 10
94.264013648309
 20
-133.5112304353722
 10
94.264013648309
 20
-133.5112304353722
 10
94.51585012828076
 20
-133.5577392244231
 10
94.51585012828076
 20
-133.5577392244231
 10
94.54754500674507
 20
-133.5639403962965
 10
94.56649303191394
 20
-133.5663519631362
 10
94.56649303191394
 20
-133.5959797843093
 10
94.56649303191394
 20
-133.6083821280562
 10
94.5602918600405
 20
-133.6211289813517
 10
94.55374617861851
 20
-133.6297417200648
 10
94.53066403886734
 20
-133.6573024839468
 10
94.52652992428504
 20
-133.6614365985291
 10
94.51171601369846
 20
-133.6869303051199
 10
94.50517033227649
 20
-133.7672010299263
 10
94.48828936439877
 20
-134.0359184777757
 10
94.48622230710761
 20
-134.1034423492866
 10
94.48622230710761
 20
-134.1034423492866
 10
94.48415524981647
 20
-134.1881916982238
 10
94.48415524981647
 20
-134.1881916982238
 10
94.60886770638251
 20
-134.1861246409326
 10
95.14836965937263
 20
-134.0507323883623
 10
95.45291610026872
 20
-133.8770995759057
 10
95.45291610026872
 20
-133.8770995759057
 10
95.57556149954361
 20
-134.0906954959912
 10
95.57556149954361
 20
-134.0906954959912
 10
95.58004012367444
 20
-134.0972411774132
 10
95.58830835283904
 20
-134.1141221452909
 10
95.58830835283904
 20
-134.1248019412952
 10
95.58830835283904
 20
-134.1351372277509
 10
95.58004012367444
 20
-134.1458170237552
 10
95.55454641708359
 20
-134.1458170237552
 10
95.54179956378816
 20
-134.1458170237552
 10
95.53111976778389
 20
-134.1458170237552
 10
95.50390351345041
 20
-134.1248019412952
 10
95.11874183819948
 20
-134.2536485124435
 10
94.9960964389246
 20
-134.287410448199
 10
94.84795733305884
 20
-134.3170382693721
 10
94.72531193378396
 20
-134.342531975963
 10
94.55822480274934
 20
-134.3721597971361
 10
94.48415524981647
 20
-134.3742268544273
 10
94.48415524981647
 20
-134.3742268544273
 10
94.48415524981647
 20
-134.7190809125008
 10
94.48415524981647
 20
-134.7190809125008
 10
94.48415524981647
 20
-134.7466416763828
 10
94.48415524981647
 20
-134.8630859037842
 10
94.53686521074079
 20
-134.9030490114131
 10
94.62574867426024
 20
-134.9709173924726
 10
94.82900930788998
 20
-134.9815971884768
 10
94.94304196845174
 20
-134.9815971884768
 10
95.11460772361718
 20
-134.9815971884768
 10
95.45291610026872
 20
-134.9392225140083
 10
95.60725637800792
 20
-134.8778998143708
 10
95.60725637800792
 20
-134.8778998143708
 10
95.60966794484759
 20
-135.1104437596252
 10
95.60966794484759
 20
-135.1104437596252
 10
95.38952634334012
 20
-135.1421386380895
 10
95.16938474183266
 20
-135.1590196059672
 10
94.94958764987372
 20
-135.1590196059672
 97
        0
 97
        0
 92
        1
 93
        1
 72
     4
 94
        3
 73
     0
 74
     1
 95
       17
 96
       13
 40
0.0
 40
0.0
 40
0.0
 40
0.0
 40
1.0
 40
1.0
 40
1.0
 40
2.0
 40
2.0
 40
2.0
 40
3.0
 40
3.0
 40
3.0
 40
4.0
 40
4.0
 40
4.0
 40
4.0
 10
95.54593367837046
 20
-133.8075086471037
 10
95.49322371744614
 20
-133.7375732087531
 10
95.3726453754624
 20
-133.6486897452337
 10
95.29203014110755
 20
-133.6128607521871
 10
95.29203014110755
 20
-133.6128607521871
 10
95.38539222875782
 20
-133.4943494674945
 10
95.38539222875782
 20
-133.4943494674945
 10
95.47634274956842
 20
-133.5281114032499
 10
95.58004012367444
 20
-133.6104491853474
 10
95.64549693789418
 20
-133.6845187382803
 10
95.64549693789418
 20
-133.6845187382803
 10
95.54593367837046
 20
-133.8075086471037
 10
95.54593367837046
 20
-133.8075086471037
 97
        0
 97
        0
 92
        1
 93
        1
 72
     4
 94
        3
 73
     0
 74
     1
 95
       17
 96
       13
 40
0.0
 40
0.0
 40
0.0
 40
0.0
 40
1.0
 40
1.0
 40
1.0
 40
2.0
 40
2.0
 40
2.0
 40
3.0
 40
3.0
 40
3.0
 40
4.0
 40
4.0
 40
4.0
 40
4.0
 10
95.8167181835111
 20
-133.631808777356
 10
95.71095375211394
 20
-133.536724141963
 10
95.70681963753164
 20
-133.536724141963
 10
95.55661347437474
 20
-133.4412949970216
 10
95.55661347437474
 20
-133.4412949970216
 10
95.6582437911896
 20
-133.322783712329
 10
95.6582437911896
 20
-133.322783712329
 10
95.7574625411648
 20
-133.3672254440887
 10
95.82326386493308
 20
-133.4161457999793
 10
95.91421438574368
 20
-133.5153645499545
 10
95.91421438574368
 20
-133.5153645499545
 10
95.8167181835111
 20
-133.631808777356
 10
95.8167181835111
 20
-133.631808777356
 97
        0
 97
        0
 75
     2
 76
     1
 98
        0
  0
ENDBLK
  5
134
330
131
100
AcDbEntity
  8
0
100
AcDbBlockEnd
  0
ENDSEC
  0
SECTION
  2
ENTITIES
  0
SPLINE
  5
41
330
1F
100
AcDbEntity
  8
_U+30EC_U+30A4_U+30E4_U+30FC 1
370
     0
100
AcDbSpline
210
0.0
220
0.0
230
1.0
 70
    11
 71
     3
 72
    38
 73
    34
 74
     0
 42
0.0000000001
 43
0.0000000001
 12
1.0
 22
0.0
 32
0.0
 13
1.0
 23
0.0
 33
0.0
 40
0.0
 40
0.0
 40
0.0
 40
0.0
 40
1.0
 40
1.0
 40
1.0
 40
2.0
 40
2.0
 40
2.0
 40
3.0
 40
3.0
 40
3.0
 40
4.0
 40
4.0
 40
4.0
 40
5.0
 40
5.0
 40
5.0
 40
6.0
 40
6.0
 40
6.0
 40
7.0
 40
7.0
 40
7.0
 40
8.0
 40
8.0
 40
8.0
 40
9.0
 40
9.0
 40
9.0
 40
10.0
 40
10.0
 40
10.0
 40
11.0
 40
11.0
 40
11.0
 40
11.0
 10
107.9158836357253
 20
-139.188048854092
 30
0.0
 10
107.9158836357253
 20
-139.188048854092
 30
0.0
 10
75.46032890817996
 20
-139.188048854092
 30
0.0
 10
75.46032890817996
 20
-139.188048854092
 30
0.0
 10
75.46032890817996
 20
-139.188048854092
 30
0.0
 10
75.46032890817996
 20
-106.4813508067131
 30
0.0
 10
75.46032890817996
 20
-106.4813508067131
 30
0.0
 10
75.46032890817996
 20
-105.1291535848287
 30
0.0
 10
74.36410726948023
 20
-104.0329319184362
 30
0.0
 10
73.01191008175543
 20
-104.0329319184362
 30
0.0
 10
71.66006567179942
 20
-104.0329319184362
 30
0.0
 10
70.56380875532281
 20
-105.1291535848287
 30
0.0
 10
70.56380875532281
 20
-106.4813508067131
 30
0.0
 10
70.56380875532281
 20
-106.4813508067131
 30
0.0
 10
70.56380875532281
 20
-141.3850077424318
 30
0.0
 10
70.56380875532281
 20
-141.3850077424318
 30
0.0
 10
70.56380875532281
 20
-141.4273763535323
 30
0.0
 10
70.56797153299439
 20
-141.4687219090771
 30
0.0
 10
70.570019426802
 20
-141.5107377423999
 30
0.0
 10
70.56797153299439
 20
-141.5527888535008
 30
0.0
 10
70.56380875532281
 20
-141.5940991312681
 30
0.0
 10
70.56380875532281
 20
-141.6368205201464
 30
0.0
 10
70.56380875532281
 20
-142.9887002420305
 30
0.0
 10
71.66006567179942
 20
-144.0849219084234
 30
0.0
 10
73.01226285952421
 20
-144.0849219084234
 30
0.0
 10
73.01226285952421
 20
-144.0849219084234
 30
0.0
 10
107.9158836357253
 20
-144.0849219084234
 30
0.0
 10
107.9158836357253
 20
-144.0849219084234
 30
0.0
 10
109.2677633234582
 20
-144.0849219084234
 30
0.0
 10
110.3639849621579
 20
-142.9887002420305
 30
0.0
 10
110.3639849621579
 20
-141.6368205201464
 30
0.0
 10
110.3639849621579
 20
-140.2843057982625
 30
0.0
 10
109.2677633234582
 20
-139.188048854092
 30
0.0
 10
107.9158836357253
 20
-139.188048854092
 30
0.0
  0
HATCH
  5
42
330
1F
100
AcDbEntity
  8
_U+30EC_U+30A4_U+30E4_U+30FC 1
 62
     2
420
 16773120
100
AcDbHatch
 10
0.0
 20
0.0
 30
0.0
210
0.0
220
0.0
230
1.0
  2
SOLID
 70
     1
 71
     0
 91
        1
 92
        1
 93
        1
 72
     4
 94
        3
 73
     0
 74
     1
 95
       38
 96
       34
 40
0.0
 40
0.0
 40
0.0
 40
0.0
 40
1.0
 40
1.0
 40
1.0
 40
2.0
 40
2.0
 40
2.0
 40
3.0
 40
3.0
 40
3.0
 40
4.0
 40
4.0
 40
4.0
 40
5.0
 40
5.0
 40
5.0
 40
6.0
 40
6.0
 40
6.0
 40
7.0
 40
7.0
 40
7.0
 40
8.0
 40
8.0
 40
8.0
 40
9.0
 40
9.0
 40
9.0
 40
10.0
 40
10.0
 40
10.0
 40
11.0
 40
11.0
 40
11.0
 40
11.0
 10
107.9158836357253
 20
-139.188048854092
 10
107.9158836357253
 20
-139.188048854092
 10
75.46032890817996
 20
-139.188048854092
 10
75.46032890817996
 20
-139.188048854092
 10
75.46032890817996
 20
-139.188048854092
 10
75.46032890817996
 20
-106.4813508067131
 10
75.46032890817996
 20
-106.4813508067131
 10
75.46032890817996
 20
-105.1291535848287
 10
74.36410726948023
 20
-104.0329319184362
 10
73.01191008175543
 20
-104.0329319184362
 10
71.66006567179942
 20
-104.0329319184362
 10
70.56380875532281
 20
-105.1291535848287
 10
70.56380875532281
 20
-106.4813508067131
 10
70.56380875532281
 20
-106.4813508067131
 10
70.56380875532281
 20
-141.3850077424318
 10
70.56380875532281
 20
-141.3850077424318
 10
70.56380875532281
 20
-141.4273763535323
 10
70.56797153299439
 20
-141.4687219090771
 10
70.570019426802
 20
-141.5107377423999
 10
70.56797153299439
 20
-141.5527888535008
 10
70.56380875532281
 20
-141.5940991312681
 10
70.56380875532281
 20
-141.6368205201464
 10
70.56380875532281
 20
-142.9887002420305
 10
71.66006567179942
 20
-144.0849219084234
 10
73.01226285952421
 20
-144.0849219084234
 10
73.01226285952421
 20
-144.0849219084234
 10
107.9158836357253
 20
-144.0849219084234
 10
107.9158836357253
 20
-144.0849219084234
 10
109.2677633234582
 20
-144.0849219084234
 10
110.3639849621579
 20
-142.9887002420305
 10
110.3639849621579
 20
-141.6368205201464
 10
110.3639849621579
 20
-140.2843057982625
 10
109.2677633234582
 20
-139.188048854092
 10
107.9158836357253
 20
-139.188048854092
 97
        0
 97
        0
 75
     2
 76
     1
 98
        0
  0
SPLINE
  5
43
330
1F
100
AcDbEntity
  8
_U+30EC_U+30A4_U+30E4_U+30FC 1
 62
   179
420
  2234388
370
    25
100
AcDbSpline
210
0.0
220
0.0
230
1.0
 70
    11
 71
     3
 72
    32
 73
    28
 74
     0
 42
0.0000000001
 43
0.0000000001
 12
1.0
 22
0.0
 32
0.0
 13
1.0
 23
0.0
 33
0.0
 40
0.0
 40
0.0
 40
0.0
 40
0.0
 40
1.0
 40
1.0
 40
1.0
 40
2.0
 40
2.0
 40
2.0
 40
3.0
 40
3.0
 40
3.0
 40
4.0
 40
4.0
 40
4.0
 40
5.0
 40
5.0
 40
5.0
 40
6.0
 40
6.0
 40
6.0
 40
7.0
 40
7.0
 40
7.0
 40
8.0
 40
8.0
 40
8.0
 40
9.0
 40
9.0
 40
9.0
 40
9.0
 10
107.1631264327075
 20
-139.1515363541008
 30
0.0
 10
107.1631264327075
 20
-139.1515363541008
 30
0.0
 10
75.3345989113876
 20
-139.1515363541008
 30
0.0
 10
75.3345989113876
 20
-139.1515363541008
 30
0.0
 10
75.3345989113876
 20
-139.1515363541008
 30
0.0
 10
75.3345989113876
 20
-107.0718302510098
 30
0.0
 10
75.3345989113876
 20
-107.0718302510098
 30
0.0
 10
75.3345989113876
 20
-106.3094421956447
 30
0.0
 10
74.71617948272035
 20
-105.6910580291328
 30
0.0
 10
73.95343866884615
 20
-105.6910580291328
 30
0.0
 10
73.19105063274074
 20
-105.6910580291328
 30
0.0
 10
72.57266648185036
 20
-106.3094421956447
 30
0.0
 10
72.57266648185036
 20
-107.0718302510098
 30
0.0
 10
72.57266648185036
 20
-107.0718302510098
 30
0.0
 10
72.57266648185036
 20
-140.0931002427542
 30
0.0
 10
72.57266648185036
 20
-140.0931002427542
 30
0.0
 10
72.57266648185036
 20
-140.8823699647794
 30
0.0
 10
73.49077062509424
 20
-141.9138216311884
 30
0.0
 10
74.14189442590903
 20
-141.9138216311884
 30
0.0
 10
74.14189442590903
 20
-141.9138216311884
 30
0.0
 10
107.1631264327075
 20
-141.9138216311884
 30
0.0
 10
107.1631264327075
 20
-141.9138216311884
 30
0.0
 10
107.9258672465817
 20
-141.9138216311884
 30
0.0
 10
108.544286675249
 20
-141.2950846868987
 30
0.0
 10
108.544286675249
 20
-140.5326966315334
 30
0.0
 10
108.544286675249
 20
-139.7699205206133
 30
0.0
 10
107.9258672465817
 20
-139.1515363541008
 30
0.0
 10
107.1631264327075
 20
-139.1515363541008
 30
0.0
  0
HATCH
  5
44
330
1F
100
AcDbEntity
  8
_U+30EC_U+30A4_U+30E4_U+30FC 1
 62
    31
420
 15976259
100
AcDbHatch
 10
0.0
 20
0.0
 30
0.0
210
0.0
220
0.0
230
1.0
  2
SOLID
 70
     1
 71
     0
 91
        1
 92
        1
 93
        1
 72
     4
 94
        3
 73
     0
 74
     1
 95
       32
 96
       28
 40
0.0
 40
0.0
 40
0.0
 40
0.0
 40
1.0
 40
1.0
 40
1.0
 40
2.0
 40
2.0
 40
2.0
 40
3.0
 40
3.0
 40
3.0
 40
4.0
 40
4.0
 40
4.0
 40
5.0
 40
5.0
 40
5.0
 40
6.0
 40
6.0
 40
6.0
 40
7.0
 40
7.0
 40
7.0
 40
8.0
 40
8.0
 40
8.0
 40
9.0
 40
9.0
 40
9.0
 40
9.0
 10
107.1631264327075
 20
-139.1515363541008
 10
107.1631264327075
 20
-139.1515363541008
 10
75.3345989113876
 20
-139.1515363541008
 10
75.3345989113876
 20
-139.1515363541008
 10
75.3345989113876
 20
-139.1515363541008
 10
75.3345989113876
 20
-107.0718302510098
 10
75.3345989113876
 20
-107.0718302510098
 10
75.3345989113876
 20
-106.3094421956447
 10
74.71617948272035
 20
-105.6910580291328
 10
73.95343866884615
 20
-105.6910580291328
 10
73.19105063274074
 20
-105.6910580291328
 10
72.57266648185036
 20
-106.3094421956447
 10
72.57266648185036
 20
-107.0718302510098
 10
72.57266648185036
 20
-107.0718302510098
 10
72.57266648185036
 20
-140.0931002427542
 10
72.57266648185036
 20
-140.0931002427542
 10
72.57266648185036
 20
-140.8823699647794
 10
73.49077062509424
 20
-141.9138216311884
 10
74.14189442590903
 20
-141.9138216311884
 10
74.14189442590903
 20
-141.9138216311884
 10
107.1631264327075
 20
-141.9138216311884
 10
107.1631264327075
 20
-141.9138216311884
 10
107.9258672465817
 20
-141.9138216311884
 10
108.544286675249
 20
-141.2950846868987
 10
108.544286675249
 20
-140.5326966315334
 10
108.544286675249
 20
-139.7699205206133
 10
107.9258672465817
 20
-139.1515363541008
 10
107.1631264327075
 20
-139.1515363541008
 97
        0
 97
        0
 75
     2
 76
     1
 98
        0
  0
SPLINE
  5
45
330
1F
100
AcDbEntity
  8
_U+30EC_U+30A4_U+30E4_U+30FC 1
 62
   179
420
  2234388
370
    25
100
AcDbSpline
210
0.0
220
0.0
230
1.0
 70
    11
 71
     3
 72
    38
 73
    34
 74
     0
 42
0.0000000001
 43
0.0000000001
 12
1.0
 22
0.0
 32
0.0
 13
1.0
 23
0.0
 33
0.0
 40
0.0
 40
0.0
 40
0.0
 40
0.0
 40
1.0
 40
1.0
 40
1.0
 40
2.0
 40
2.0
 40
2.0
 40
3.0
 40
3.0
 40
3.0
 40
4.0
 40
4.0
 40
4.0
 40
5.0
 40
5.0
 40
5.0
 40
6.0
 40
6.0
 40
6.0
 40
7.0
 40
7.0
 40
7.0
 40
8.0
 40
8.0
 40
8.0
 40
9.0
 40
9.0
 40
9.0
 40
10.0
 40
10.0
 40
10.0
 40
11.0
 40
11.0
 40
11.0
 40
11.0
 10
107.9158836357253
 20
-139.188048854092
 30
0.0
 10
107.9158836357253
 20
-139.188048854092
 30
0.0
 10
75.46032890817996
 20
-139.188048854092
 30
0.0
 10
75.46032890817996
 20
-139.188048854092
 30
0.0
 10
75.46032890817996
 20
-139.188048854092
 30
0.0
 10
75.46032890817996
 20
-106.4813508067131
 30
0.0
 10
75.46032890817996
 20
-106.4813508067131
 30
0.0
 10
75.46032890817996
 20
-105.1291535848287
 30
0.0
 10
74.36410726948023
 20
-104.0329319184362
 30
0.0
 10
73.01191008175543
 20
-104.0329319184362
 30
0.0
 10
71.66006567179942
 20
-104.0329319184362
 30
0.0
 10
70.56380875532281
 20
-105.1291535848287
 30
0.0
 10
70.56380875532281
 20
-106.4813508067131
 30
0.0
 10
70.56380875532281
 20
-106.4813508067131
 30
0.0
 10
70.56380875532281
 20
-141.3850077424318
 30
0.0
 10
70.56380875532281
 20
-141.3850077424318
 30
0.0
 10
70.56380875532281
 20
-141.4273763535323
 30
0.0
 10
70.56797153299439
 20
-141.4687219090771
 30
0.0
 10
70.570019426802
 20
-141.5107377423999
 30
0.0
 10
70.56797153299439
 20
-141.5527888535008
 30
0.0
 10
70.56380875532281
 20
-141.5940991312681
 30
0.0
 10
70.56380875532281
 20
-141.6368205201464
 30
0.0
 10
70.56380875532281
 20
-142.9887002420305
 30
0.0
 10
71.66006567179942
 20
-144.0849219084234
 30
0.0
 10
73.01226285952421
 20
-144.0849219084234
 30
0.0
 10
73.01226285952421
 20
-144.0849219084234
 30
0.0
 10
107.9158836357253
 20
-144.0849219084234
 30
0.0
 10
107.9158836357253
 20
-144.0849219084234
 30
0.0
 10
109.2677633234582
 20
-144.0849219084234
 30
0.0
 10
110.3639849621579
 20
-142.9887002420305
 30
0.0
 10
110.3639849621579
 20
-141.6368205201464
 30
0.0
 10
110.3639849621579
 20
-140.2843057982625
 30
0.0
 10
109.2677633234582
 20
-139.188048854092
 30
0.0
 10
107.9158836357253
 20
-139.188048854092
 30
0.0
  0
POLYLINE
  5
46
330
1F
100
AcDbEntity
  8
_U+30EC_U+30A4_U+30E4_U+30FC 1
 62
   179
420
  2234388
370
     9
100
AcDb2dPolyline
 66
     1
 10
0.0
 20
0.0
 30
0.0
  0
VERTEX
  5
47
330
46
100
AcDbEntity
  8
_U+30EC_U+30A4_U+30E4_U+30FC 1
 62
   179
420
  2234388
370
     9
100
AcDbVertex
100
AcDb2dVertex
 10
65.31623944475501
 20
-104.1586619184049
 30
0.0
  0
VERTEX
  5
48
330
46
100
AcDbEntity
  8
_U+30EC_U+30A4_U+30E4_U+30FC 1
 62
   179
420
  2234388
370
     9
100
AcDbVertex
100
AcDb2dVertex
 10
72.09620482733925
 20
-104.1586619184049
 30
0.0
  0
SEQEND
  5
49
330
46
100
AcDbEntity
  8
_U+30EC_U+30A4_U+30E4_U+30FC 1
 62
   179
420
  2234388
370
     9
  0
POLYLINE
  5
4A
330
1F
100
AcDbEntity
  8
_U+30EC_U+30A4_U+30E4_U+30FC 1
 62
   179
420
  2234388
370
     9
100
AcDb2dPolyline
 66
     1
 10
0.0
 20
0.0
 30
0.0
  0
VERTEX
  5
4B
330
4A
100
AcDbEntity
  8
_U+30EC_U+30A4_U+30E4_U+30FC 1
 62
   179
420
  2234388
370
     9
100
AcDbVertex
100
AcDb2dVertex
 10
65.31623944475501
 20
-144.0855921862008
 30
0.0
  0
VERTEX
  5
4C
330
4A
100
AcDbEntity
  8
_U+30EC_U+30A4_U+30E4_U+30FC 1
 62
   179
420
  2234388
370
     9
100
AcDbVertex
100
AcDb2dVertex
 10
72.73113609292847
 20
-144.0855921862008
 30
0.0
  0
SEQEND
  5
4D
330
4A
100
AcDbEntity
  8
_U+30EC_U+30A4_U+30E4_U+30FC 1
 62
   179
420
  2234388
370
     9
  0
POLYLINE
  5
4E
330
1F
100
AcDbEntity
  8
_U+30EC_U+30A4_U+30E4_U+30FC 1
 62
   179
420
  2234388
370
     9
100
AcDb2dPolyline
 66
     1
 10
0.0
 20
0.0
 30
0.0
  0
VERTEX
  5
4F
330
4E
100
AcDbEntity
  8
_U+30EC_U+30A4_U+30E4_U+30FC 1
 62
   179
420
  2234388
370
     9
100
AcDbVertex
100
AcDb2dVertex
 10
108.1305136302497
 20
-144.0855921862008
 30
0.0
  0
VERTEX
  5
50
330
4E
100
AcDbEntity
  8
_U+30EC_U+30A4_U+30E4_U+30FC 1
 62
   179
420
  2234388
370
     9
100
AcDbVertex
100
AcDb2dVertex
 10
116.1658739808061
 20
-144.0855921862008
 30
0.0
  0
SEQEND
  5
51
330
4E
100
AcDbEntity
  8
_U+30EC_U+30A4_U+30E4_U+30FC 1
 62
   179
420
  2234388
370
     9
  0
POLYLINE
  5
52
330
1F
100
AcDbEntity
  8
_U+30EC_U+30A4_U+30E4_U+30FC 1
 62
   179
420
  2234388
370
     9
100
AcDb2dPolyline
 66
     1
 10
0.0
 20
0.0
 30
0.0
  0
VERTEX
  5
53
330
52
100
AcDbEntity
  8
_U+30EC_U+30A4_U+30E4_U+30FC 1
 62
   179
420
  2234388
370
     9
100
AcDbVertex
100
AcDb2dVertex
 10
110.3905166390689
 20
-150.2378602402184
 30
0.0
  0
VERTEX
  5
54
330
52
100
AcDbEntity
  8
_U+30EC_U+30A4_U+30E4_U+30FC 1
 62
   179
420
  2234388
370
     9
100
AcDbVertex
100
AcDb2dVertex
 10
110.3905166390689
 20
-142.2025349644496
 30
0.0
  0
SEQEND
  5
55
330
52
100
AcDbEntity
  8
_U+30EC_U+30A4_U+30E4_U+30FC 1
 62
   179
420
  2234388
370
     9
  0
POLYLINE
  5
56
330
1F
100
AcDbEntity
  8
_U+30EC_U+30A4_U+30E4_U+30FC 1
 62
   179
420
  2234388
370
     9
100
AcDb2dPolyline
 66
     1
 10
0.0
 20
0.0
 30
0.0
  0
VERTEX
  5
57
330
56
100
AcDbEntity
  8
_U+30EC_U+30A4_U+30E4_U+30FC 1
 62
   179
420
  2234388
370
     9
100
AcDbVertex
100
AcDb2dVertex
 10
70.55244931116817
 20
-150.149665795796
 30
0.0
  0
VERTEX
  5
58
330
56
100
AcDbEntity
  8
_U+30EC_U+30A4_U+30E4_U+30FC 1
 62
   179
420
  2234388
370
     9
100
AcDbVertex
100
AcDb2dVertex
 10
70.55244931116817
 20
-141.4993782979584
 30
0.0
  0
SEQEND
  5
59
330
56
100
AcDbEntity
  8
_U+30EC_U+30A4_U+30E4_U+30FC 1
 62
   179
420
  2234388
370
     9
  0
POLYLINE
  5
5A
330
1F
100
AcDbEntity
  8
_U+30EC_U+30A4_U+30E4_U+30FC 1
 62
   179
420
  2234388
370
     9
100
AcDb2dPolyline
 66
     1
 10
0.0
 20
0.0
 30
0.0
  0
VERTEX
  5
5B
330
5A
100
AcDbEntity
  8
_U+30EC_U+30A4_U+30E4_U+30FC 1
 62
   179
420
  2234388
370
     9
100
AcDbVertex
100
AcDb2dVertex
 10
108.1305136302497
 20
-139.1808169096492
 30
0.0
  0
VERTEX
  5
5C
330
5A
100
AcDbEntity
  8
_U+30EC_U+30A4_U+30E4_U+30FC 1
 62
   179
420
  2234388
370
     9
100
AcDbVertex
100
AcDb2dVertex
 10
116.1658739808061
 20
-139.1808169096492
 30
0.0
  0
SEQEND
  5
5D
330
5A
100
AcDbEntity
  8
_U+30EC_U+30A4_U+30E4_U+30FC 1
 62
   179
420
  2234388
370
     9
  0
POLYLINE
  5
5E
330
1F
100
AcDbEntity
  8
_U+30EC_U+30A4_U+30E4_U+30FC 1
 62
   179
420
  2234388
370
     9
100
AcDb2dPolyline
 66
     1
 10
0.0
 20
0.0
 30
0.0
  0
VERTEX
  5
5F
330
5E
100
AcDbEntity
  8
_U+30EC_U+30A4_U+30E4_U+30FC 1
 62
   179
420
  2234388
370
     9
100
AcDbVertex
100
AcDb2dVertex
 10
115.082740397328
 20
-135.5782855216609
 30
0.0
  0
VERTEX
  5
60
330
5E
100
AcDbEntity
  8
_U+30EC_U+30A4_U+30E4_U+30FC 1
 62
   179
420
  2234388
370
     9
100
AcDbVertex
100
AcDb2dVertex
 10
115.082740397328
 20
-147.519672185342
 30
0.0
  0
SEQEND
  5
61
330
5E
100
AcDbEntity
  8
_U+30EC_U+30A4_U+30E4_U+30FC 1
 62
   179
420
  2234388
370
     9
  0
POLYLINE
  5
62
330
1F
100
AcDbEntity
  8
_U+30EC_U+30A4_U+30E4_U+30FC 1
 62
   179
420
  2234388
370
     9
100
AcDb2dPolyline
 66
     1
 10
0.0
 20
0.0
 30
0.0
  0
VERTEX
  5
63
330
62
100
AcDbEntity
  8
_U+30EC_U+30A4_U+30E4_U+30FC 1
 62
   179
420
  2234388
370
     9
100
AcDbVertex
100
AcDb2dVertex
 10
114.6427912418854
 20
-145.718565241348
 30
0.0
  0
VERTEX
  5
64
330
62
100
AcDbEntity
  8
_U+30EC_U+30A4_U+30E4_U+30FC 1
 62
   179
420
  2234388
370
     9
100
AcDbVertex
100
AcDb2dVertex
 10
115.0789333045638
 20
-143.980182186227
 30
0.0
  0
VERTEX
  5
65
330
62
100
AcDbEntity
  8
_U+30EC_U+30A4_U+30E4_U+30FC 1
 62
   179
420
  2234388
370
     9
100
AcDbVertex
100
AcDb2dVertex
 10
115.5154223307338
 20
-145.718565241348
 30
0.0
  0
VERTEX
  5
66
330
62
100
AcDbEntity
  8
_U+30EC_U+30A4_U+30E4_U+30FC 1
 62
   179
420
  2234388
370
     9
100
AcDbVertex
100
AcDb2dVertex
 10
114.6427912418854
 20
-145.718565241348
 30
0.0
  0
SEQEND
  5
68
330
62
100
AcDbEntity
  8
_U+30EC_U+30A4_U+30E4_U+30FC 1
 62
   179
420
  2234388
370
     9
  0
HATCH
  5
67
330
1F
100
AcDbEntity
  8
_U+30EC_U+30A4_U+30E4_U+30FC 1
 62
   179
420
  2234388
100
AcDbHatch
 10
0.0
 20
0.0
 30
0.0
210
0.0
220
0.0
230
1.0
  2
SOLID
 70
     1
 71
     0
 91
        1
 92
        1
 93
        3
 72
     1
 10
114.6427912418854
 20
-145.718565241348
 11
115.0789333045638
 21
-143.980182186227
 72
     1
 10
115.0789333045638
 20
-143.980182186227
 11
115.5154223307338
 21
-145.718565241348
 72
     1
 10
115.5154223307338
 20
-145.718565241348
 11
114.6427912418854
 21
-145.718565241348
 97
        0
 75
     2
 76
     1
 98
        0
  0
POLYLINE
  5
69
330
1F
100
AcDbEntity
  8
_U+30EC_U+30A4_U+30E4_U+30FC 1
 62
   179
420
  2234388
370
     9
100
AcDb2dPolyline
 66
     1
 10
0.0
 20
0.0
 30
0.0
  0
VERTEX
  5
6A
330
69
100
AcDbEntity
  8
_U+30EC_U+30A4_U+30E4_U+30FC 1
 62
   179
420
  2234388
370
     9
100
AcDbVertex
100
AcDb2dVertex
 10
115.5157751085026
 20
-137.359742743438
 30
0.0
  0
VERTEX
  5
6B
330
69
100
AcDbEntity
  8
_U+30EC_U+30A4_U+30E4_U+30FC 1
 62
   179
420
  2234388
370
     9
100
AcDbVertex
100
AcDb2dVertex
 10
115.0796388601187
 20
-139.098125798559
 30
0.0
  0
VERTEX
  5
6C
330
69
100
AcDbEntity
  8
_U+30EC_U+30A4_U+30E4_U+30FC 1
 62
   179
420
  2234388
370
     9
100
AcDbVertex
100
AcDb2dVertex
 10
114.6431440196542
 20
-137.359742743438
 30
0.0
  0
VERTEX
  5
6D
330
69
100
AcDbEntity
  8
_U+30EC_U+30A4_U+30E4_U+30FC 1
 62
   179
420
  2234388
370
     9
100
AcDbVertex
100
AcDb2dVertex
 10
115.5157751085026
 20
-137.359742743438
 30
0.0
  0
SEQEND
  5
6F
330
69
100
AcDbEntity
  8
_U+30EC_U+30A4_U+30E4_U+30FC 1
 62
   179
420
  2234388
370
     9
  0
HATCH
  5
6E
330
1F
100
AcDbEntity
  8
_U+30EC_U+30A4_U+30E4_U+30FC 1
 62
   179
420
  2234388
100
AcDbHatch
 10
0.0
 20
0.0
 30
0.0
210
0.0
220
0.0
230
1.0
  2
SOLID
 70
     1
 71
     0
 91
        1
 92
        1
 93
        3
 72
     1
 10
115.5157751085026
 20
-137.359742743438
 11
115.0796388601187
 21
-139.098125798559
 72
     1
 10
115.0796388601187
 20
-139.098125798559
 11
114.6431440196542
 21
-137.359742743438
 72
     1
 10
114.6431440196542
 20
-137.359742743438
 11
115.5157751085026
 21
-137.359742743438
 97
        0
 75
     2
 76
     1
 98
        0
  0
POLYLINE
  5
70
330
1F
100
AcDbEntity
  8
_U+30EC_U+30A4_U+30E4_U+30FC 1
 62
   179
420
  2234388
370
     9
100
AcDb2dPolyline
 66
     1
 10
0.0
 20
0.0
 30
0.0
  0
VERTEX
  5
71
330
70
100
AcDbEntity
  8
_U+30EC_U+30A4_U+30E4_U+30FC 1
 62
   179
420
  2234388
370
     9
100
AcDbVertex
100
AcDb2dVertex
 10
72.13617454854176
 20
-148.8777255183363
 30
0.0
  0
VERTEX
  5
72
330
70
100
AcDbEntity
  8
_U+30EC_U+30A4_U+30E4_U+30FC 1
 62
   179
420
  2234388
370
     9
100
AcDbVertex
100
AcDb2dVertex
 10
110.2399482986557
 20
-148.8777255183363
 30
0.0
  0
SEQEND
  5
73
330
70
100
AcDbEntity
  8
_U+30EC_U+30A4_U+30E4_U+30FC 1
 62
   179
420
  2234388
370
     9
  0
POLYLINE
  5
74
330
1F
100
AcDbEntity
  8
_U+30EC_U+30A4_U+30E4_U+30FC 1
 62
   179
420
  2234388
370
     9
100
AcDb2dPolyline
 66
     1
 10
0.0
 20
0.0
 30
0.0
  0
VERTEX
  5
75
330
74
100
AcDbEntity
  8
_U+30EC_U+30A4_U+30E4_U+30FC 1
 62
   179
420
  2234388
370
     9
100
AcDbVertex
100
AcDb2dVertex
 10
72.27947287821924
 20
-149.3180274626703
 30
0.0
  0
VERTEX
  5
76
330
74
100
AcDbEntity
  8
_U+30EC_U+30A4_U+30E4_U+30FC 1
 62
   179
420
  2234388
370
     9
100
AcDbVertex
100
AcDb2dVertex
 10
70.54109164903134
 20
-148.881853018335
 30
0.0
  0
VERTEX
  5
77
330
74
100
AcDbEntity
  8
_U+30EC_U+30A4_U+30E4_U+30FC 1
 62
   179
420
  2234388
370
     9
100
AcDbVertex
100
AcDb2dVertex
 10
72.27947287821924
 20
-148.4450435739998
 30
0.0
  0
VERTEX
  5
78
330
74
100
AcDbEntity
  8
_U+30EC_U+30A4_U+30E4_U+30FC 1
 62
   179
420
  2234388
370
     9
100
AcDbVertex
100
AcDb2dVertex
 10
72.27947287821924
 20
-149.3180274626703
 30
0.0
  0
SEQEND
  5
7A
330
74
100
AcDbEntity
  8
_U+30EC_U+30A4_U+30E4_U+30FC 1
 62
   179
420
  2234388
370
     9
  0
HATCH
  5
79
330
1F
100
AcDbEntity
  8
_U+30EC_U+30A4_U+30E4_U+30FC 1
 62
   179
420
  2234388
100
AcDbHatch
 10
0.0
 20
0.0
 30
0.0
210
0.0
220
0.0
230
1.0
  2
SOLID
 70
     1
 71
     0
 91
        1
 92
        1
 93
        3
 72
     1
 10
72.27947287821924
 20
-149.3180274626703
 11
70.54109164903134
 21
-148.881853018335
 72
     1
 10
70.54109164903134
 20
-148.881853018335
 11
72.27947287821924
 21
-148.4450435739998
 72
     1
 10
72.27947287821924
 20
-148.4450435739998
 11
72.27947287821924
 21
-149.3180274626703
 97
        0
 75
     2
 76
     1
 98
        0
  0
POLYLINE
  5
7B
330
1F
100
AcDbEntity
  8
_U+30EC_U+30A4_U+30E4_U+30FC 1
 62
   179
420
  2234388
370
     9
100
AcDb2dPolyline
 66
     1
 10
0.0
 20
0.0
 30
0.0
  0
VERTEX
  5
7C
330
7B
100
AcDbEntity
  8
_U+30EC_U+30A4_U+30E4_U+30FC 1
 62
   179
420
  2234388
370
     9
100
AcDbVertex
100
AcDb2dVertex
 10
108.585279451981
 20
-148.4450435739998
 30
0.0
  0
VERTEX
  5
7D
330
7B
100
AcDbEntity
  8
_U+30EC_U+30A4_U+30E4_U+30FC 1
 62
   179
420
  2234388
370
     9
100
AcDbVertex
100
AcDb2dVertex
 10
110.3236624631867
 20
-148.8811827405576
 30
0.0
  0
VERTEX
  5
7E
330
7B
100
AcDbEntity
  8
_U+30EC_U+30A4_U+30E4_U+30FC 1
 62
   179
420
  2234388
370
     9
100
AcDbVertex
100
AcDb2dVertex
 10
108.585279451981
 20
-149.3173219071148
 30
0.0
  0
VERTEX
  5
7F
330
7B
100
AcDbEntity
  8
_U+30EC_U+30A4_U+30E4_U+30FC 1
 62
   179
420
  2234388
370
     9
100
AcDbVertex
100
AcDb2dVertex
 10
108.585279451981
 20
-148.4450435739998
 30
0.0
  0
SEQEND
  5
81
330
7B
100
AcDbEntity
  8
_U+30EC_U+30A4_U+30E4_U+30FC 1
 62
   179
420
  2234388
370
     9
  0
HATCH
  5
80
330
1F
100
AcDbEntity
  8
_U+30EC_U+30A4_U+30E4_U+30FC 1
 62
   179
420
  2234388
100
AcDbHatch
 10
0.0
 20
0.0
 30
0.0
210
0.0
220
0.0
230
1.0
  2
SOLID
 70
     1
 71
     0
 91
        1
 92
        1
 93
        3
 72
     1
 10
108.585279451981
 20
-148.4450435739998
 11
110.3236624631867
 21
-148.8811827405576
 72
     1
 10
110.3236624631867
 20
-148.8811827405576
 11
108.585279451981
 21
-149.3173219071148
 72
     1
 10
108.585279451981
 20
-149.3173219071148
 11
108.585279451981
 21
-148.4450435739998
 97
        0
 75
     2
 76
     1
 98
        0
  0
POLYLINE
  5
82
330
1F
100
AcDbEntity
  8
_U+30EC_U+30A4_U+30E4_U+30FC 1
 62
   179
420
  2234388
370
     9
100
AcDb2dPolyline
 66
     1
 10
0.0
 20
0.0
 30
0.0
  0
VERTEX
  5
83
330
82
100
AcDbEntity
  8
_U+30EC_U+30A4_U+30E4_U+30FC 1
 62
   179
420
  2234388
370
     9
100
AcDbVertex
100
AcDb2dVertex
 10
68.38032776068265
 20
-142.3658005199641
 30
0.0
  0
VERTEX
  5
84
330
82
100
AcDbEntity
  8
_U+30EC_U+30A4_U+30E4_U+30FC 1
 62
   179
420
  2234388
370
     9
100
AcDbVertex
100
AcDb2dVertex
 10
68.38032776068265
 20
-104.2616730294901
 30
0.0
  0
SEQEND
  5
85
330
82
100
AcDbEntity
  8
_U+30EC_U+30A4_U+30E4_U+30FC 1
 62
   179
420
  2234388
370
     9
  0
POLYLINE
  5
86
330
1F
100
AcDbEntity
  8
_U+30EC_U+30A4_U+30E4_U+30FC 1
 62
   179
420
  2234388
370
     9
100
AcDb2dPolyline
 66
     1
 10
0.0
 20
0.0
 30
0.0
  0
VERTEX
  5
87
330
86
100
AcDbEntity
  8
_U+30EC_U+30A4_U+30E4_U+30FC 1
 62
   179
420
  2234388
370
     9
100
AcDbVertex
100
AcDb2dVertex
 10
68.82027518869295
 20
-142.2225021866668
 30
0.0
  0
VERTEX
  5
88
330
86
100
AcDbEntity
  8
_U+30EC_U+30A4_U+30E4_U+30FC 1
 62
   179
420
  2234388
370
     9
100
AcDbVertex
100
AcDb2dVertex
 10
68.38410075537624
 20
-143.9608852417878
 30
0.0
  0
VERTEX
  5
89
330
86
100
AcDbEntity
  8
_U+30EC_U+30A4_U+30E4_U+30FC 1
 62
   179
420
  2234388
370
     9
100
AcDbVertex
100
AcDb2dVertex
 10
67.94760882206764
 20
-142.2225021866668
 30
0.0
  0
VERTEX
  5
8A
330
86
100
AcDbEntity
  8
_U+30EC_U+30A4_U+30E4_U+30FC 1
 62
   179
420
  2234388
370
     9
100
AcDbVertex
100
AcDb2dVertex
 10
68.82027518869295
 20
-142.2225021866668
 30
0.0
  0
SEQEND
  5
8C
330
86
100
AcDbEntity
  8
_U+30EC_U+30A4_U+30E4_U+30FC 1
 62
   179
420
  2234388
370
     9
  0
HATCH
  5
8B
330
1F
100
AcDbEntity
  8
_U+30EC_U+30A4_U+30E4_U+30FC 1
 62
   179
420
  2234388
100
AcDbHatch
 10
0.0
 20
0.0
 30
0.0
210
0.0
220
0.0
230
1.0
  2
SOLID
 70
     1
 71
     0
 91
        1
 92
        1
 93
        3
 72
     1
 10
68.82027518869295
 20
-142.2225021866668
 11
68.38410075537624
 21
-143.9608852417878
 72
     1
 10
68.38410075537624
 20
-143.9608852417878
 11
67.94760882206764
 21
-142.2225021866668
 72
     1
 10
67.94760882206764
 20
-142.2225021866668
 11
68.82027518869295
 21
-142.2225021866668
 97
        0
 75
     2
 76
     1
 98
        0
  0
POLYLINE
  5
8D
330
1F
100
AcDbEntity
  8
_U+30EC_U+30A4_U+30E4_U+30FC 1
 62
   179
420
  2234388
370
     9
100
AcDb2dPolyline
 66
     1
 10
0.0
 20
0.0
 30
0.0
  0
VERTEX
  5
8E
330
8D
100
AcDbEntity
  8
_U+30EC_U+30A4_U+30E4_U+30FC 1
 62
   179
420
  2234388
370
     9
100
AcDbVertex
100
AcDb2dVertex
 10
67.94725604429885
 20
-105.916377195743
 30
0.0
  0
VERTEX
  5
8F
330
8D
100
AcDbEntity
  8
_U+30EC_U+30A4_U+30E4_U+30FC 1
 62
   179
420
  2234388
370
     9
100
AcDbVertex
100
AcDb2dVertex
 10
68.38343047761556
 20
-104.1779588628444
 30
0.0
  0
VERTEX
  5
90
330
8D
100
AcDbEntity
  8
_U+30EC_U+30A4_U+30E4_U+30FC 1
 62
   179
420
  2234388
370
     9
100
AcDbVertex
100
AcDb2dVertex
 10
68.81992241092418
 20
-105.916377195743
 30
0.0
  0
VERTEX
  5
91
330
8D
100
AcDbEntity
  8
_U+30EC_U+30A4_U+30E4_U+30FC 1
 62
   179
420
  2234388
370
     9
100
AcDbVertex
100
AcDb2dVertex
 10
67.94725604429885
 20
-105.916377195743
 30
0.0
  0
SEQEND
  5
93
330
8D
100
AcDbEntity
  8
_U+30EC_U+30A4_U+30E4_U+30FC 1
 62
   179
420
  2234388
370
     9
  0
HATCH
  5
92
330
1F
100
AcDbEntity
  8
_U+30EC_U+30A4_U+30E4_U+30FC 1
 62
   179
420
  2234388
100
AcDbHatch
 10
0.0
 20
0.0
 30
0.0
210
0.0
220
0.0
230
1.0
  2
SOLID
 70
     1
 71
     0
 91
        1
 92
        1
 93
        3
 72
     1
 10
67.94725604429885
 20
-105.916377195743
 11
68.38343047761556
 21
-104.1779588628444
 72
     1
 10
68.38343047761556
 20
-104.1779588628444
 11
68.81992241092418
 21
-105.916377195743
 72
     1
 10
68.81992241092418
 20
-105.916377195743
 11
67.94725604429885
 21
-105.916377195743
 97
        0
 75
     2
 76
     1
 98
        0
  0
INSERT
  5
95
330
1F
100
AcDbEntity
  8
_U+30EC_U+30A4_U+30E4_U+30FC 1
100
AcDbBlockReference
  2
block 2
 10
0.0
 20
0.0
 30
0.0
  0
INSERT
  5
B1
330
1F
100
AcDbEntity
  8
_U+30EC_U+30A4_U+30E4_U+30FC 1
100
AcDbBlockReference
  2
block 3
 10
0.0
 20
0.0
 30
0.0
  0
INSERT
  5
CD
330
1F
100
AcDbEntity
  8
_U+30EC_U+30A4_U+30E4_U+30FC 1
100
AcDbBlockReference
  2
block 4
 10
0.0
 20
0.0
 30
0.0
  0
INSERT
  5
D3
330
1F
100
AcDbEntity
  8
_U+30EC_U+30A4_U+30E4_U+30FC 1
100
AcDbBlockReference
  2
block 5
 10
0.0
 20
0.0
 30
0.0
  0
INSERT
  5
132
330
1F
100
AcDbEntity
  8
_U+30EC_U+30A4_U+30E4_U+30FC 1
100
AcDbBlockReference
  2
block 6
 10
0.0
 20
0.0
 30
0.0
  0
POLYLINE
  5
197
330
1F
100
AcDbEntity
  8
_U+30EC_U+30A4_U+30E4_U+30FC 1
 62
   179
420
  2234388
370
     9
100
AcDb2dPolyline
 66
     1
 10
0.0
 20
0.0
 30
0.0
  0
VERTEX
  5
198
330
197
100
AcDbEntity
  8
_U+30EC_U+30A4_U+30E4_U+30FC 1
 62
   179
420
  2234388
370
     9
100
AcDbVertex
100
AcDb2dVertex
 10
78.06792106387697
 20
-144.0855921862008
 30
0.0
  0
VERTEX
  5
199
330
197
100
AcDbEntity
  8
_U+30EC_U+30A4_U+30E4_U+30FC 1
 62
   179
420
  2234388
370
     9
100
AcDbVertex
100
AcDb2dVertex
 10
87.06650583430394
 20
-153.0842124617291
 30
0.0
  0
VERTEX
  5
19A
330
197
100
AcDbEntity
  8
_U+30EC_U+30A4_U+30E4_U+30FC 1
 62
   179
420
  2234388
370
     9
100
AcDbVertex
100
AcDb2dVertex
 10
95.91523060855417
 20
-153.0842124617291
 30
0.0
  0
SEQEND
  5
19B
330
197
100
AcDbEntity
  8
_U+30EC_U+30A4_U+30E4_U+30FC 1
 62
   179
420
  2234388
370
     9
  0
POLYLINE
  5
19C
330
1F
100
AcDbEntity
  8
_U+30EC_U+30A4_U+30E4_U+30FC 1
 62
   179
420
  2234388
370
     9
100
AcDb2dPolyline
 66
     1
 10
0.0
 20
0.0
 30
0.0
  0
VERTEX
  5
19D
330
19C
100
AcDbEntity
  8
_U+30EC_U+30A4_U+30E4_U+30FC 1
 62
   179
420
  2234388
370
     9
100
AcDbVertex
100
AcDb2dVertex
 10
83.59489036731667
 20
-139.1515363541008
 30
0.0
  0
VERTEX
  5
19E
330
19C
100
AcDbEntity
  8
_U+30EC_U+30A4_U+30E4_U+30FC 1
 62
   179
420
  2234388
370
     9
100
AcDbVertex
100
AcDb2dVertex
 10
87.06650583430394
 20
-135.6799207994132
 30
0.0
  0
VERTEX
  5
19F
330
19C
100
AcDbEntity
  8
_U+30EC_U+30A4_U+30E4_U+30FC 1
 62
   179
420
  2234388
370
     9
100
AcDbVertex
100
AcDb2dVertex
 10
95.91523060855417
 20
-135.6799207994132
 30
0.0
  0
SEQEND
  5
1A0
330
19C
100
AcDbEntity
  8
_U+30EC_U+30A4_U+30E4_U+30FC 1
 62
   179
420
  2234388
370
     9
  0
ENDSEC
  0
SECTION
  2
OBJECTS
  0
DICTIONARY
  5
C
330
0
100
AcDbDictionary
281
     1
  3
ACAD_GROUP
350
D
  3
ACAD_LAYOUT
350
1A
  3
ACAD_MATERIAL
350
3B
  3
ACAD_MLEADERSTYLE
350
1A2
  3
ACAD_MLINESTYLE
350
17
  3
ACAD_PLOTSETTINGS
350
19
  3
ACAD_PLOTSTYLENAME
350
E
  3
ACAD_TABLESTYLE
350
1A1
  3
ACAD_VISUALSTYLE
350
2A
  0
SUN
  5
3F
330
29
100
AcDbSun
 90
        1
290
     0
 63
     7
421
 16777215
 40
1.0
291
     1
 91
  2455826
 92
 54000000
292
     0
 70
     2
 71
   256
280
     1
  0
DICTIONARY
  5
D
102
{ACAD_REACTORS
330
C
102
}
330
C
100
AcDbDictionary
281
     1
  0
DICTIONARY
  5
1A
102
{ACAD_REACTORS
330
C
102
}
330
C
100
AcDbDictionary
281
     1
  3
Layout1
350
1E
  3
Layout2
350
26
  3
Model
350
22
  0
DICTIONARY
  5
3B
102
{ACAD_REACTORS
330
C
102
}
330
C
100
AcDbDictionary
281
     1
  3
ByBlock
350
3D
  3
ByLayer
350
3C
  3
Global
350
3E
  0
DICTIONARY
  5
1A2
102
{ACAD_REACTORS
330
C
102
}
330
C
100
AcDbDictionary
281
     1
  0
DICTIONARY
  5
17
102
{ACAD_REACTORS
330
C
102
}
330
C
100
AcDbDictionary
281
     1
  3
Standard
350
18
  0
DICTIONARY
  5
19
102
{ACAD_REACTORS
330
C
102
}
330
C
100
AcDbDictionary
281
     1
  0
ACDBDICTIONARYWDFLT
  5
E
102
{ACAD_REACTORS
330
C
102
}
330
C
100
AcDbDictionary
281
     1
  3
Normal
350
F
100
AcDbDictionaryWithDefault
340
F
  0
DICTIONARY
  5
1A1
102
{ACAD_REACTORS
330
C
102
}
330
C
100
AcDbDictionary
281
     1
  0
DICTIONARY
  5
2A
102
{ACAD_REACTORS
330
C
102
}
330
C
100
AcDbDictionary
281
     1
  3
2dWireframe
350
2F
  3
3D Hidden
350
31
  3
3dWireframe
350
30
  3
Basic
350
32
  3
Brighten
350
36
  3
ColorChange
350
3A
  3
Conceptual
350
34
  3
Dim
350
35
  3
Facepattern
350
39
  3
Flat
350
2B
  3
FlatWithEdges
350
2C
  3
Gouraud
350
2D
  3
GouraudWithEdges
350
2E
  3
Linepattern
350
38
  3
Realistic
350
33
  3
Thicken
350
37
  0
LAYOUT
  5
1E
102
{ACAD_REACTORS
330
1A
102
}
330
1A
100
AcDbPlotSettings
  1

  2
none_device
  4

  6

 40
0.0
 41
0.0
 42
0.0
 43
0.0
 44
0.0
 45
0.0
 46
0.0
 47
0.0
 48
0.0
 49
0.0
140
0.0
141
0.0
142
1.0
143
1.0
 70
   688
 72
     0
 73
     0
 74
     5
  7

 75
    16
 76
     0
 77
     2
 78
   300
147
1.0
148
0.0
149
0.0
100
AcDbLayout
  1
Layout1
 70
     1
 71
     1
 10
0.0
 20
0.0
 11
12.0
 21
9.0
 12
0.0
 22
0.0
 32
0.0
 14
1.000000000000000E+20
 24
1.000000000000000E+20
 34
1.000000000000000E+20
 15
-1.000000000000000E+20
 25
-1.000000000000000E+20
 35
-1.000000000000000E+20
146
0.0
 13
0.0
 23
0.0
 33
0.0
 16
1.0
 26
0.0
 36
0.0
 17
0.0
 27
1.0
 37
0.0
 76
     0
330
1B
  0
LAYOUT
  5
26
102
{ACAD_REACTORS
330
1A
102
}
330
1A
100
AcDbPlotSettings
  1

  2
none_device
  4

  6

 40
0.0
 41
0.0
 42
0.0
 43
0.0
 44
0.0
 45
0.0
 46
0.0
 47
0.0
 48
0.0
 49
0.0
140
0.0
141
0.0
142
1.0
143
1.0
 70
   688
 72
     0
 73
     0
 74
     5
  7

 75
    16
 76
     0
 77
     2
 78
   300
147
1.0
148
0.0
149
0.0
100
AcDbLayout
  1
Layout2
 70
     1
 71
     2
 10
0.0
 20
0.0
 11
0.0
 21
0.0
 12
0.0
 22
0.0
 32
0.0
 14
0.0
 24
0.0
 34
0.0
 15
0.0
 25
0.0
 35
0.0
146
0.0
 13
0.0
 23
0.0
 33
0.0
 16
1.0
 26
0.0
 36
0.0
 17
0.0
 27
1.0
 37
0.0
 76
     0
330
23
  0
LAYOUT
  5
22
102
{ACAD_REACTORS
330
1A
102
}
330
1A
100
AcDbPlotSettings
  1

  2
none_device
  4

  6

 40
0.0
 41
0.0
 42
0.0
 43
0.0
 44
0.0
 45
0.0
 46
0.0
 47
0.0
 48
0.0
 49
0.0
140
0.0
141
0.0
142
1.0
143
1.0
 70
  1712
 72
     0
 73
     0
 74
     0
  7

 75
     0
 76
     0
 77
     2
 78
   300
147
1.0
148
0.0
149
0.0
100
AcDbLayout
  1
Model
 70
     1
 71
     0
 10
0.0
 20
0.0
 11
12.0
 21
9.0
 12
0.0
 22
0.0
 32
0.0
 14
1.000000000000000E+20
 24
1.000000000000000E+20
 34
1.000000000000000E+20
 15
-1.000000000000000E+20
 25
-1.000000000000000E+20
 35
-1.000000000000000E+20
146
0.0
 13
0.0
 23
0.0
 33
0.0
 16
1.0
 26
0.0
 36
0.0
 17
0.0
 27
1.0
 37
0.0
 76
     0
330
1F
331
29
  0
MATERIAL
  5
3D
102
{ACAD_REACTORS
330
3B
102
}
330
3B
100
AcDbMaterial
  1
ByBlock
 72
     1
 94
      127
  0
MATERIAL
  5
3C
102
{ACAD_REACTORS
330
3B
102
}
330
3B
100
AcDbMaterial
  1
ByLayer
 72
     1
 94
      127
  0
MATERIAL
  5
3E
102
{ACAD_REACTORS
330
3B
102
}
330
3B
100
AcDbMaterial
  1
Global
 72
     1
 94
      127
  0
MLINESTYLE
  5
18
102
{ACAD_REACTORS
330
17
102
}
330
17
100
AcDbMlineStyle
  2
Standard
 70
     0
  3

 62
   256
 51
90.0
 52
90.0
 71
     2
 49
0.5
 62
   256
  6
BYLAYER
 49
-0.5
 62
   256
  6
BYLAYER
  0
ACDBPLACEHOLDER
  5
F
102
{ACAD_REACTORS
330
E
102
}
330
E
  0
VISUALSTYLE
  5
2F
102
{ACAD_REACTORS
330
2A
102
}
330
2A
100
AcDbVisualStyle
  2
2dWireframe
 70
     4
177
     2
291
     0
 71
     0
176
     1
 72
     2
176
     1
 73
     0
176
     1
 90
        0
176
     1
 40
-0.6
176
     1
 41
-30.0
176
     1
 62
     5
 63
     7
421
 16777215
176
     1
 74
     1
176
     1
 91
        4
176
     1
 64
     7
176
     1
 65
   257
176
     1
 75
     1
176
     1
175
     1
176
     1
 42
1.0
176
     1
 92
        0
176
     1
 66
   257
176
     1
 43
1.0
176
     1
 76
     1
176
     1
 77
     6
176
     1
 78
     2
176
     1
 67
     7
176
     1
 79
     5
176
     1
170
     0
176
     1
171
     0
176
     1
290
     0
176
     1
 93
        1
176
     1
 44
0.0
176
     1
173
     0
176
     1
  0
VISUALSTYLE
  5
31
102
{ACAD_REACTORS
330
2A
102
}
330
2A
100
AcDbVisualStyle
  2
3D Hidden
 70
     6
177
     2
291
     0
 71
     1
176
     1
 72
     2
176
     1
 73
     2
176
     1
 90
        0
176
     1
 40
-0.6
176
     1
 41
-30.0
176
     1
 62
     5
 63
     7
421
 16777215
176
     1
 74
     2
176
     1
 91
        2
176
     1
 64
     7
176
     1
 65
   257
176
     1
 75
     2
176
     1
175
     1
176
     1
 42
40.0
176
     1
 92
        0
176
     1
 66
   257
176
     1
 43
1.0
176
     1
 76
     1
176
     1
 77
     6
176
     1
 78
     2
176
     1
 67
     7
176
     1
 79
     3
176
     1
170
     0
176
     1
171
     0
176
     1
290
     0
176
     1
 93
        1
176
     1
 44
0.0
176
     1
173
     0
176
     1
  0
VISUALSTYLE
  5
30
102
{ACAD_REACTORS
330
2A
102
}
330
2A
100
AcDbVisualStyle
  2
3dWireframe
 70
     5
177
     2
291
     0
 71
     0
176
     1
 72
     2
176
     1
 73
     0
176
     1
 90
        0
176
     1
 40
-0.6
176
     1
 41
-30.0
176
     1
 62
     5
 63
     7
421
 16777215
176
     1
 74
     1
176
     1
 91
        4
176
     1
 64
     7
176
     1
 65
   257
176
     1
 75
     1
176
     1
175
     1
176
     1
 42
1.0
176
     1
 92
        0
176
     1
 66
   257
176
     1
 43
1.0
176
     1
 76
     1
176
     1
 77
     6
176
     1
 78
     2
176
     1
 67
     7
176
     1
 79
     5
176
     1
170
     0
176
     1
171
     0
176
     1
290
     0
176
     1
 93
        1
176
     1
 44
0.0
176
     1
173
     0
176
     1
  0
VISUALSTYLE
  5
32
102
{ACAD_REACTORS
330
2A
102
}
330
2A
100
AcDbVisualStyle
  2
Basic
 70
     7
177
     2
291
     1
 71
     1
176
     1
 72
     0
176
     1
 73
     1
176
     1
 90
        0
176
     1
 40
-0.6
176
     1
 41
-30.0
176
     1
 62
     5
 63
     7
421
 16777215
176
     1
 74
     0
176
     1
 91
        4
176
     1
 64
     7
176
     1
 65
   257
176
     1
 75
     1
176
     1
175
     1
176
     1
 42
1.0
176
     1
 92
        8
176
     1
 66
     7
176
     1
 43
1.0
176
     1
 76
     1
176
     1
 77
     6
176
     1
 78
     2
176
     1
 67
     7
176
     1
 79
     5
176
     1
170
     0
176
     1
171
     0
176
     1
290
     0
176
     1
 93
        1
176
     1
 44
0.0
176
     1
173
     0
176
     1
  0
VISUALSTYLE
  5
36
102
{ACAD_REACTORS
330
2A
102
}
330
2A
100
AcDbVisualStyle
  2
Brighten
 70
    12
177
     2
291
     1
 71
     2
176
     1
 72
     2
176
     1
 73
     0
176
     1
 90
        0
176
     1
 40
-0.6
176
     1
 41
-30.0
176
     1
 62
     5
 63
     7
421
 16777215
176
     1
 74
     1
176
     1
 91
        4
176
     1
 64
     7
176
     1
 65
   257
176
     1
 75
     1
176
     1
175
     1
176
     1
 42
1.0
176
     1
 92
        8
176
     1
 66
     7
176
     1
 43
1.0
176
     1
 76
     1
176
     1
 77
     6
176
     1
 78
     2
176
     1
 67
     7
176
     1
 79
     5
176
     1
170
     0
176
     1
171
     0
176
     1
290
     0
176
     1
 93
        1
176
     1
 44
50.0
176
     1
173
     0
176
     1
  0
VISUALSTYLE
  5
3A
102
{ACAD_REACTORS
330
2A
102
}
330
2A
100
AcDbVisualStyle
  2
ColorChange
 70
    16
177
     2
291
     1
 71
     2
176
     1
 72
     2
176
     1
 73
     3
176
     1
 90
        0
176
     1
 40
-0.6
176
     1
 41
-30.0
176
     1
 62
     5
 63
     8
421
  8421504
176
     1
 74
     1
176
     1
 91
        4
176
     1
 64
     7
176
     1
 65
   257
176
     1
 75
     1
176
     1
175
     1
176
     1
 42
1.0
176
     1
 92
        8
176
     1
 66
     8
424
  8421504
176
     1
 43
1.0
176
     1
 76
     1
176
     1
 77
     6
176
     1
 78
     2
176
     1
 67
     7
176
     1
 79
     5
176
     1
170
     0
176
     1
171
     0
176
     1
290
     0
176
     1
 93
        1
176
     1
 44
0.0
176
     1
173
     0
176
     1
  0
VISUALSTYLE
  5
34
102
{ACAD_REACTORS
330
2A
102
}
330
2A
100
AcDbVisualStyle
  2
Conceptual
 70
     9
177
     2
291
     0
 71
     3
176
     1
 72
     2
176
     1
 73
     0
176
     1
 90
        0
176
     1
 40
-0.6
176
     1
 41
-30.0
176
     1
 62
     5
 63
     7
421
 16777215
176
     1
 74
     2
176
     1
 91
        2
176
     1
 64
     7
176
     1
 65
   257
176
     1
 75
     1
176
     1
175
     1
176
     1
 42
40.0
176
     1
 92
        8
176
     1
 66
     7
176
     1
 43
1.0
176
     1
 76
     1
176
     1
 77
     6
176
     1
 78
     2
176
     1
 67
     7
176
     1
 79
     3
176
     1
170
     0
176
     1
171
     0
176
     1
290
     0
176
     1
 93
        1
176
     1
 44
0.0
176
     1
173
     0
176
     1
  0
VISUALSTYLE
  5
35
102
{ACAD_REACTORS
330
2A
102
}
330
2A
100
AcDbVisualStyle
  2
Dim
 70
    11
177
     2
291
     1
 71
     2
176
     1
 72
     2
176
     1
 73
     0
176
     1
 90
        0
176
     1
 40
-0.6
176
     1
 41
-30.0
176
     1
 62
     5
 63
     7
421
 16777215
176
     1
 74
     1
176
     1
 91
        4
176
     1
 64
     7
176
     1
 65
   257
176
     1
 75
     1
176
     1
175
     1
176
     1
 42
1.0
176
     1
 92
        8
176
     1
 66
     7
176
     1
 43
1.0
176
     1
 76
     1
176
     1
 77
     6
176
     1
 78
     2
176
     1
 67
     7
176
     1
 79
     5
176
     1
170
     0
176
     1
171
     0
176
     1
290
     0
176
     1
 93
        1
176
     1
 44
-50.0
176
     1
173
     0
176
     1
  0
VISUALSTYLE
  5
39
102
{ACAD_REACTORS
330
2A
102
}
330
2A
100
AcDbVisualStyle
  2
Facepattern
 70
    15
177
     2
291
     1
 71
     2
176
     1
 72
     2
176
     1
 73
     0
176
     1
 90
        0
176
     1
 40
-0.6
176
     1
 41
-30.0
176
     1
 62
     5
 63
     7
421
 16777215
176
     1
 74
     1
176
     1
 91
        4
176
     1
 64
     7
176
     1
 65
   257
176
     1
 75
     1
176
     1
175
     1
176
     1
 42
1.0
176
     1
 92
        8
176
     1
 66
     7
176
     1
 43
1.0
176
     1
 76
     1
176
     1
 77
     6
176
     1
 78
     2
176
     1
 67
     7
176
     1
 79
     5
176
     1
170
     0
176
     1
171
     0
176
     1
290
     0
176
     1
 93
        1
176
     1
 44
0.0
176
     1
173
     0
176
     1
  0
VISUALSTYLE
  5
2B
102
{ACAD_REACTORS
330
2A
102
}
330
2A
100
AcDbVisualStyle
  2
Flat
 70
     0
177
     2
291
     1
 71
     2
176
     1
 72
     1
176
     1
 73
     1
176
     1
 90
        2
176
     1
 40
-0.6
176
     1
 41
30.0
176
     1
 62
     5
 63
     7
421
 16777215
176
     1
 74
     0
176
     1
 91
        4
176
     1
 64
     7
176
     1
 65
   257
176
     1
 75
     1
176
     1
175
     1
176
     1
 42
1.0
176
     1
 92
        8
176
     1
 66
     7
176
     1
 43
1.0
176
     1
 76
     1
176
     1
 77
     6
176
     1
 78
     2
176
     1
 67
     7
176
     1
 79
     5
176
     1
170
     0
176
     1
171
     0
176
     1
290
     0
176
     1
 93
       13
176
     1
 44
0.0
176
     1
173
     0
176
     1
  0
VISUALSTYLE
  5
2C
102
{ACAD_REACTORS
330
2A
102
}
330
2A
100
AcDbVisualStyle
  2
FlatWithEdges
 70
     1
177
     2
291
     1
 71
     2
176
     1
 72
     1
176
     1
 73
     1
176
     1
 90
        2
176
     1
 40
-0.6
176
     1
 41
30.0
176
     1
 62
     5
 63
     7
421
 16777215
176
     1
 74
     1
176
     1
 91
        4
176
     1
 64
     7
176
     1
 65
   257
176
     1
 75
     1
176
     1
175
     1
176
     1
 42
1.0
176
     1
 92
        0
176
     1
 66
   257
176
     1
 43
1.0
176
     1
 76
     1
176
     1
 77
     6
176
     1
 78
     2
176
     1
 67
     7
176
     1
 79
     5
176
     1
170
     0
176
     1
171
     0
176
     1
290
     0
176
     1
 93
       13
176
     1
 44
0.0
176
     1
173
     0
176
     1
  0
VISUALSTYLE
  5
2D
102
{ACAD_REACTORS
330
2A
102
}
330
2A
100
AcDbVisualStyle
  2
Gouraud
 70
     2
177
     2
291
     1
 71
     2
176
     1
 72
     2
176
     1
 73
     1
176
     1
 90
        2
176
     1
 40
-0.6
176
     1
 41
30.0
176
     1
 62
     5
 63
     7
421
 16777215
176
     1
 74
     0
176
     1
 91
        4
176
     1
 64
     7
176
     1
 65
   257
176
     1
 75
     1
176
     1
175
     1
176
     1
 42
1.0
176
     1
 92
        0
176
     1
 66
     7
176
     1
 43
1.0
176
     1
 76
     1
176
     1
 77
     6
176
     1
 78
     2
176
     1
 67
     7
176
     1
 79
     5
176
     1
170
     0
176
     1
171
     0
176
     1
290
     0
176
     1
 93
       13
176
     1
 44
0.0
176
     1
173
     0
176
     1
  0
VISUALSTYLE
  5
2E
102
{ACAD_REACTORS
330
2A
102
}
330
2A
100
AcDbVisualStyle
  2
GouraudWithEdges
 70
     3
177
     2
291
     1
 71
     2
176
     1
 72
     2
176
     1
 73
     1
176
     1
 90
        2
176
     1
 40
-0.6
176
     1
 41
30.0
176
     1
 62
     5
 63
     7
421
 16777215
176
     1
 74
     1
176
     1
 91
        4
176
     1
 64
     7
176
     1
 65
   257
176
     1
 75
     1
176
     1
175
     1
176
     1
 42
1.0
176
     1
 92
        0
176
     1
 66
   257
176
     1
 43
1.0
176
     1
 76
     1
176
     1
 77
     6
176
     1
 78
     2
176
     1
 67
     7
176
     1
 79
     5
176
     1
170
     0
176
     1
171
     0
176
     1
290
     0
176
     1
 93
       13
176
     1
 44
0.0
176
     1
173
     0
176
     1
  0
VISUALSTYLE
  5
38
102
{ACAD_REACTORS
330
2A
102
}
330
2A
100
AcDbVisualStyle
  2
Linepattern
 70
    14
177
     2
291
     1
 71
     2
176
     1
 72
     2
176
     1
 73
     0
176
     1
 90
        0
176
     1
 40
-0.6
176
     1
 41
-30.0
176
     1
 62
     5
 63
     7
421
 16777215
176
     1
 74
     1
176
     1
 91
        4
176
     1
 64
     7
176
     1
 65
   257
176
     1
 75
     7
176
     1
175
     7
176
     1
 42
1.0
176
     1
 92
        8
176
     1
 66
     7
176
     1
 43
1.0
176
     1
 76
     1
176
     1
 77
     6
176
     1
 78
     2
176
     1
 67
     7
176
     1
 79
     5
176
     1
170
     0
176
     1
171
     0
176
     1
290
     0
176
     1
 93
        1
176
     1
 44
0.0
176
     1
173
     0
176
     1
  0
VISUALSTYLE
  5
33
102
{ACAD_REACTORS
330
2A
102
}
330
2A
100
AcDbVisualStyle
  2
Realistic
 70
     8
177
     2
291
     0
 71
     2
176
     1
 72
     2
176
     1
 73
     0
176
     1
 90
        0
176
     1
 40
-0.6
176
     1
 41
-30.0
176
     1
 62
     5
 63
     7
421
 16777215
176
     1
 74
     1
176
     1
 91
        0
176
     1
 64
     7
176
     1
 65
   257
176
     1
 75
     1
176
     1
175
     1
176
     1
 42
1.0
176
     1
 92
        8
176
     1
 66
     8
424
  7895160
176
     1
 43
1.0
176
     1
 76
     1
176
     1
 77
     6
176
     1
 78
     2
176
     1
 67
     7
176
     1
 79
     5
176
     1
170
     0
176
     1
171
     0
176
     1
290
     0
176
     1
 93
       13
176
     1
 44
0.0
176
     1
173
     0
176
     1
  0
VISUALSTYLE
  5
37
102
{ACAD_REACTORS
330
2A
102
}
330
2A
100
AcDbVisualStyle
  2
Thicken
 70
    13
177
     2
291
     1
 71
     2
176
     1
 72
     2
176
     1
 73
     0
176
     1
 90
        0
176
     1
 40
-0.6
176
     1
 41
-30.0
176
     1
 62
     5
 63
     7
421
 16777215
176
     1
 74
     1
176
     1
 91
        4
176
     1
 64
     7
176
     1
 65
   257
176
     1
 75
     1
176
     1
175
     1
176
     1
 42
1.0
176
     1
 92
       12
176
     1
 66
     7
176
     1
 43
1.0
176
     1
 76
     1
176
     1
 77
     6
176
     1
 78
     2
176
     1
 67
     7
176
     1
 79
     5
176
     1
170
     0
176
     1
171
     0
176
     1
290
     0
176
     1
 93
        1
176
     1
 44
0.0
176
     1
173
     0
176
     1
  0
ENDSEC
  0
EOF
