  0
SECTION
  2
HEADER
  9
$ACADVER
  1
AC1024
  9
$ACADMAINTVER
 70
     6
  9
$DWGCODEPAGE
  3
UNDEFINED
  9
$INSBASE
 10
0.0
 20
0.0
 30
0.0
  9
$EXTMIN
 10
1.000000000000000E+20
 20
1.000000000000000E+20
 30
1.000000000000000E+20
  9
$EXTMAX
 10
-1.000000000000000E+20
 20
-1.000000000000000E+20
 30
-1.000000000000000E+20
  9
$LIMMIN
 10
0.0
 20
0.0
  9
$LIMMAX
 10
12.0
 20
9.0
  9
$ORTHOMODE
 70
     0
  9
$REGENMODE
 70
     1
  9
$FILLMODE
 70
     1
  9
$QTEXTMODE
 70
     0
  9
$MIRRTEXT
 70
     1
  9
$LTSCALE
 40
1.0
  9
$ATTMODE
 70
     1
  9
$TEXTSIZE
 40
0.2
  9
$TRACEWID
 40
0.05
  9
$TEXTSTYLE
  7
Standard
  9
$CLAYER
  8
0
  9
$CELTYPE
  6
ByLayer
  9
$CECOLOR
 62
   256
  9
$CELTSCALE
 40
1.0
  9
$DISPSILH
 70
     0
  9
$DIMSCALE
 40
1.0
  9
$DIMASZ
 40
0.18
  9
$DIMEXO
 40
0.0625
  9
$DIMDLI
 40
0.38
  9
$DIMRND
 40
0.0
  9
$DIMDLE
 40
0.0
  9
$DIMEXE
 40
0.18
  9
$DIMTP
 40
0.0
  9
$DIMTM
 40
0.0
  9
$DIMTXT
 40
0.18
  9
$DIMCEN
 40
0.09
  9
$DIMTSZ
 40
0.0
  9
$DIMTOL
 70
     0
  9
$DIMLIM
 70
     0
  9
$DIMTIH
 70
     1
  9
$DIMTOH
 70
     1
  9
$DIMSE1
 70
     0
  9
$DIMSE2
 70
     0
  9
$DIMTAD
 70
     0
  9
$DIMZIN
 70
     0
  9
$DIMBLK
  1

  9
$DIMASO
 70
     1
  9
$DIMSHO
 70
     1
  9
$DIMPOST
  1

  9
$DIMAPOST
  1

  9
$DIMALT
 70
     0
  9
$DIMALTD
 70
     2
  9
$DIMALTF
 40
25.4
  9
$DIMLFAC
 40
1.0
  9
$DIMTOFL
 70
     0
  9
$DIMTVP
 40
0.0
  9
$DIMTIX
 70
     0
  9
$DIMSOXD
 70
     0
  9
$DIMSAH
 70
     0
  9
$DIMBLK1
  1

  9
$DIMBLK2
  1

  9
$DIMSTYLE
  2
Standard
  9
$DIMCLRD
 70
     0
  9
$DIMCLRE
 70
     0
  9
$DIMCLRT
 70
     0
  9
$DIMTFAC
 40
1.0
  9
$DIMGAP
 40
0.09
  9
$DIMJUST
 70
     0
  9
$DIMSD1
 70
     0
  9
$DIMSD2
 70
     0
  9
$DIMTOLJ
 70
     1
  9
$DIMTZIN
 70
     0
  9
$DIMALTZ
 70
     0
  9
$DIMALTTZ
 70
     0
  9
$DIMUPT
 70
     0
  9
$DIMDEC
 70
     4
  9
$DIMTDEC
 70
     4
  9
$DIMALTU
 70
     2
  9
$DIMALTTD
 70
     2
  9
$DIMTXSTY
  7
Standard
  9
$DIMAUNIT
 70
     0
  9
$DIMADEC
 70
     0
  9
$DIMALTRND
 40
0.0
  9
$DIMAZIN
 70
     0
  9
$DIMDSEP
 70
    46
  9
$DIMATFIT
 70
     3
  9
$DIMFRAC
 70
     0
  9
$DIMLDRBLK
  1

  9
$DIMLUNIT
 70
     2
  9
$DIMLWD
 70
    -2
  9
$DIMLWE
 70
    -2
  9
$DIMTMOVE
 70
     0
  9
$DIMFXL
 40
1.0
  9
$DIMFXLON
 70
     0
  9
$DIMJOGANG
 40
0.7853981633974483
  9
$DIMTFILL
 70
     0
  9
$DIMTFILLCLR
 70
     0
  9
$DIMARCSYM
 70
     0
  9
$DIMLTYPE
  6

  9
$DIMLTEX1
  6

  9
$DIMLTEX2
  6

  9
$DIMTXTDIRECTION
 70
     0
  9
$LUNITS
 70
     2
  9
$LUPREC
 70
     4
  9
$SKETCHINC
 40
0.1
  9
$FILLETRAD
 40
0.5
  9
$AUNITS
 70
     0
  9
$AUPREC
 70
     0
  9
$MENU
  1
.
  9
$ELEVATION
 40
0.0
  9
$PELEVATION
 40
0.0
  9
$THICKNESS
 40
0.0
  9
$LIMCHECK
 70
     0
  9
$CHAMFERA
 40
0.5
  9
$CHAMFERB
 40
0.5
  9
$CHAMFERC
 40
1.0
  9
$CHAMFERD
 40
0.0
  9
$SKPOLY
 70
     0
  9
$TDCREATE
 40
2457917.632245359
  9
$TDUCREATE
 40
2457917.25724537
  9
$TDUPDATE
 40
2457917.632245359
  9
$TDUUPDATE
 40
2457917.25724537
  9
$TDINDWG
 40
0.0000000116
  9
$TDUSRTIMER
 40
0.0000000116
  9
$USRTIMER
 70
     1
  9
$ANGBASE
 50
0.0
  9
$ANGDIR
 70
     0
  9
$PDMODE
 70
     0
  9
$PDSIZE
 40
0.0
  9
$PLINEWID
 40
0.0
  9
$SPLFRAME
 70
     0
  9
$SPLINETYPE
 70
     6
  9
$SPLINESEGS
 70
     8
  9
$HANDSEED
  5
DF
  9
$SURFTAB1
 70
     6
  9
$SURFTAB2
 70
     6
  9
$SURFTYPE
 70
     6
  9
$SURFU
 70
     6
  9
$SURFV
 70
     6
  9
$UCSBASE
  2

  9
$UCSNAME
  2

  9
$UCSORG
 10
0.0
 20
0.0
 30
0.0
  9
$UCSXDIR
 10
1.0
 20
0.0
 30
0.0
  9
$UCSYDIR
 10
0.0
 20
1.0
 30
0.0
  9
$UCSORTHOREF
  2

  9
$UCSORTHOVIEW
 70
     0
  9
$UCSORGTOP
 10
0.0
 20
0.0
 30
0.0
  9
$UCSORGBOTTOM
 10
0.0
 20
0.0
 30
0.0
  9
$UCSORGLEFT
 10
0.0
 20
0.0
 30
0.0
  9
$UCSORGRIGHT
 10
0.0
 20
0.0
 30
0.0
  9
$UCSORGFRONT
 10
0.0
 20
0.0
 30
0.0
  9
$UCSORGBACK
 10
0.0
 20
0.0
 30
0.0
  9
$PUCSBASE
  2

  9
$PUCSNAME
  2

  9
$PUCSORG
 10
0.0
 20
0.0
 30
0.0
  9
$PUCSXDIR
 10
1.0
 20
0.0
 30
0.0
  9
$PUCSYDIR
 10
0.0
 20
1.0
 30
0.0
  9
$PUCSORTHOREF
  2

  9
$PUCSORTHOVIEW
 70
     0
  9
$PUCSORGTOP
 10
0.0
 20
0.0
 30
0.0
  9
$PUCSORGBOTTOM
 10
0.0
 20
0.0
 30
0.0
  9
$PUCSORGLEFT
 10
0.0
 20
0.0
 30
0.0
  9
$PUCSORGRIGHT
 10
0.0
 20
0.0
 30
0.0
  9
$PUCSORGFRONT
 10
0.0
 20
0.0
 30
0.0
  9
$PUCSORGBACK
 10
0.0
 20
0.0
 30
0.0
  9
$USERI1
 70
     0
  9
$USERI2
 70
     0
  9
$USERI3
 70
     0
  9
$USERI4
 70
     0
  9
$USERI5
 70
     0
  9
$USERR1
 40
0.0
  9
$USERR2
 40
0.0
  9
$USERR3
 40
0.0
  9
$USERR4
 40
0.0
  9
$USERR5
 40
0.0
  9
$WORLDVIEW
 70
     1
  9
$SHADEDGE
 70
     3
  9
$SHADEDIF
 70
    70
  9
$TILEMODE
 70
     1
  9
$MAXACTVP
 70
    64
  9
$PINSBASE
 10
0.0
 20
0.0
 30
0.0
  9
$PLIMCHECK
 70
     0
  9
$PEXTMIN
 10
1.000000000000000E+20
 20
1.000000000000000E+20
 30
1.000000000000000E+20
  9
$PEXTMAX
 10
-1.000000000000000E+20
 20
-1.000000000000000E+20
 30
-1.000000000000000E+20
  9
$PLIMMIN
 10
0.0
 20
0.0
  9
$PLIMMAX
 10
12.0
 20
9.0
  9
$UNITMODE
 70
     0
  9
$VISRETAIN
 70
     1
  9
$PLINEGEN
 70
     0
  9
$PSLTSCALE
 70
     1
  9
$TREEDEPTH
 70
  3020
  9
$CMLSTYLE
  2
Standard
  9
$CMLJUST
 70
     0
  9
$CMLSCALE
 40
1.0
  9
$PROXYGRAPHICS
 70
     1
  9
$MEASUREMENT
 70
     0
  9
$CELWEIGHT
370
    -1
  9
$ENDCAPS
280
     0
  9
$JOINSTYLE
280
     0
  9
$LWDISPLAY
290
     1
  9
$INSUNITS
 70
     1
  9
$HYPERLINKBASE
  1

  9
$STYLESHEET
  1

  9
$XEDIT
290
     1
  9
$CEPSNTYPE
380
     0
  9
$PSTYLEMODE
290
     1
  9
$FINGERPRINTGUID
  2
{09E8C22F-F757-C3E0-471C-ED4053E481C7}
  9
$VERSIONGUID
  2
{FAEB1C32-E019-11D5-929B-00C0DF256EC4}
  9
$EXTNAMES
290
     1
  9
$PSVPSCALE
 40
0.0
  9
$OLESTARTUP
290
     0
  9
$SORTENTS
280
   127
  9
$INDEXCTL
280
     0
  9
$HIDETEXT
280
     1
  9
$XCLIPFRAME
280
     2
  9
$HALOGAP
280
     0
  9
$OBSCOLOR
 70
   257
  9
$OBSLTYPE
280
     0
  9
$INTERSECTIONDISPLAY
280
     0
  9
$INTERSECTIONCOLOR
 70
   257
  9
$DIMASSOC
280
     2
  9
$PROJECTNAME
  1

  9
$CAMERADISPLAY
290
     0
  9
$LENSLENGTH
 40
50.0
  9
$CAMERAHEIGHT
 40
0.0
  9
$STEPSPERSEC
 40
2.0
  9
$STEPSIZE
 40
6.0
  9
$3DDWFPREC
 40
2.0
  9
$PSOLWIDTH
 40
0.25
  9
$PSOLHEIGHT
 40
4.0
  9
$LOFTANG1
 40
1.570796326794897
  9
$LOFTANG2
 40
1.570796326794897
  9
$LOFTMAG1
 40
0.0
  9
$LOFTMAG2
 40
0.0
  9
$LOFTPARAM
 70
     7
  9
$LOFTNORMALS
280
     1
  9
$LATITUDE
 40
37.795
  9
$LONGITUDE
 40
-122.394
  9
$NORTHDIRECTION
 40
0.0
  9
$TIMEZONE
 70
 -8000
  9
$LIGHTGLYPHDISPLAY
280
     1
  9
$TILEMODELIGHTSYNCH
280
     1
  9
$CMATERIAL
347
3C
  9
$SOLIDHIST
280
     1
  9
$SHOWHIST
280
     1
  9
$DWFFRAME
280
     2
  9
$DGNFRAME
280
     2
  9
$REALWORLDSCALE
290
     1
  9
$INTERFERECOLOR
 62
   256
  9
$CSHADOW
280
     0
  9
$SHADOWPLANELOCATION
 40
0.0
  0
ENDSEC
  0
SECTION
  2
CLASSES
  0
CLASS
  1
ACDBDICTIONARYWDFLT
  2
AcDbDictionaryWithDefault
  3
ObjectDBX Classes
 90
        0
 91
        4
280
     0
281
     0
  0
CLASS
  1
VISUALSTYLE
  2
AcDbVisualStyle
  3
ObjectDBX Classes
 90
     4095
 91
        4
280
     0
281
     0
  0
CLASS
  1
MATERIAL
  2
AcDbMaterial
  3
ObjectDBX Classes
 90
     1153
 91
        4
280
     0
281
     0
  0
CLASS
  1
SUN
  2
AcDbSun
  3
SCENEOE
 90
     1024
 91
        4
280
     0
281
     0
  0
ENDSEC
  0
SECTION
  2
TABLES
  0
TABLE
  2
VPORT
  5
8
330
0
100
AcDbSymbolTable
 70
     1
  0
VPORT
  5
29
330
8
100
AcDbSymbolTableRecord
100
AcDbViewportTableRecord
  2
*Active
 70
     0
 10
0.0
 20
0.0
 11
1.0
 21
1.0
 12
0.0
 22
0.0
 13
0.0
 23
0.0
 14
0.5
 24
0.5
 15
0.5
 25
0.5
 16
0.0
 26
0.0
 36
1.0
 17
91.00082462281999
 27
-128.4993055234307
 37
0.0
 40
256.9986110468615
 41
0.7081814508812795
 42
50.0
 43
0.0
 44
0.0
 50
0.0
 51
0.0
 71
     0
 72
   100
 73
     1
 74
     3
 75
     0
 76
     0
 77
     0
 78
     0
281
     0
 65
     1
110
0.0
120
0.0
130
0.0
111
1.0
121
0.0
131
0.0
112
0.0
122
1.0
132
0.0
 79
     0
146
0.0
 60
     3
 61
     5
292
     1
282
     1
141
0.0
142
0.0
 63
   250
361
3F
  0
ENDTAB
  0
TABLE
  2
LTYPE
  5
5
330
0
100
AcDbSymbolTable
 70
     1
  0
LTYPE
  5
14
330
5
100
AcDbSymbolTableRecord
100
AcDbLinetypeTableRecord
  2
ByBlock
 70
     0
  3

 72
    65
 73
     0
 40
0.0
  0
LTYPE
  5
15
330
5
100
AcDbSymbolTableRecord
100
AcDbLinetypeTableRecord
  2
ByLayer
 70
     0
  3

 72
    65
 73
     0
 40
0.0
  0
LTYPE
  5
16
330
5
100
AcDbSymbolTableRecord
100
AcDbLinetypeTableRecord
  2
Continuous
 70
     0
  3
Solid line
 72
    65
 73
     0
 40
0.0
  0
ENDTAB
  0
TABLE
  2
LAYER
  5
2
330
0
100
AcDbSymbolTable
 70
     2
  0
LAYER
  5
10
330
2
100
AcDbSymbolTableRecord
100
AcDbLayerTableRecord
  2
0
 70
     0
 62
     7
  6
Continuous
370
    -3
390
F
347
3E
  0
LAYER
  5
40
330
2
100
AcDbSymbolTableRecord
100
AcDbLayerTableRecord
  2
_U+30EC_U+30A4_U+30E4_U+30FC 1
 70
     0
 62
     7
  6
Continuous
370
    -3
390
F
347
3E
  0
ENDTAB
  0
TABLE
  2
STYLE
  5
3
330
0
100
AcDbSymbolTable
 70
     1
  0
STYLE
  5
11
330
3
100
AcDbSymbolTableRecord
100
AcDbTextStyleTableRecord
  2
Standard
 70
     0
 40
0.0
 41
1.0
 50
0.0
 71
     0
 42
0.2
  3
txt
  4

  0
ENDTAB
  0
TABLE
  2
VIEW
  5
6
330
0
100
AcDbSymbolTable
 70
     0
  0
ENDTAB
  0
TABLE
  2
UCS
  5
7
330
0
100
AcDbSymbolTable
 70
     0
  0
ENDTAB
  0
TABLE
  2
APPID
  5
9
330
0
100
AcDbSymbolTable
 70
     1
  0
APPID
  5
12
330
9
100
AcDbSymbolTableRecord
100
AcDbRegAppTableRecord
  2
ACAD
 70
     0
  0
ENDTAB
  0
TABLE
  2
DIMSTYLE
  5
A
330
0
100
AcDbSymbolTable
 70
     1
100
AcDbDimStyleTable
  0
DIMSTYLE
105
27
330
A
100
AcDbSymbolTableRecord
100
AcDbDimStyleTableRecord
  2
Standard
 70
     0
178
     0
340
11
  0
ENDTAB
  0
TABLE
  2
BLOCK_RECORD
  5
1
330
0
100
AcDbSymbolTable
 70
     7
  0
BLOCK_RECORD
  5
1F
330
1
100
AcDbSymbolTableRecord
100
AcDbBlockTableRecord
  2
*Model_Space
340
22
 70
     0
280
     1
281
     0
  0
BLOCK_RECORD
  5
1B
330
1
100
AcDbSymbolTableRecord
100
AcDbBlockTableRecord
  2
*Paper_Space
340
1E
 70
     0
280
     1
281
     0
  0
BLOCK_RECORD
  5
23
330
1
100
AcDbSymbolTableRecord
100
AcDbBlockTableRecord
  2
*Paper_Space0
340
26
 70
     0
280
     1
281
     0
  0
BLOCK_RECORD
  5
41
330
1
100
AcDbSymbolTableRecord
100
AcDbBlockTableRecord
  2
block 2
340
0
102
{BLKREFS
331
42
102
}
 70
     0
280
     1
281
     0
  0
BLOCK_RECORD
  5
85
330
1
100
AcDbSymbolTableRecord
100
AcDbBlockTableRecord
  2
block 3
340
0
102
{BLKREFS
331
86
102
}
 70
     0
280
     1
281
     0
  0
BLOCK_RECORD
  5
8E
330
1
100
AcDbSymbolTableRecord
100
AcDbBlockTableRecord
  2
block 4
340
0
102
{BLKREFS
331
8F
102
}
 70
     0
280
     1
281
     0
  0
BLOCK_RECORD
  5
A1
330
1
100
AcDbSymbolTableRecord
100
AcDbBlockTableRecord
  2
block 5
340
0
102
{BLKREFS
331
A2
102
}
 70
     0
280
     1
281
     0
  0
BLOCK_RECORD
  5
AA
330
1
100
AcDbSymbolTableRecord
100
AcDbBlockTableRecord
  2
block 6
340
0
102
{BLKREFS
331
AB
102
}
 70
     0
280
     1
281
     0
  0
BLOCK_RECORD
  5
BD
330
1
100
AcDbSymbolTableRecord
100
AcDbBlockTableRecord
  2
block 7
340
0
102
{BLKREFS
331
BE
102
}
 70
     0
280
     1
281
     0
  0
ENDTAB
  0
ENDSEC
  0
SECTION
  2
BLOCKS
  0
BLOCK
  5
20
330
1F
100
AcDbEntity
  8
0
100
AcDbBlockBegin
  2
*Model_Space
 70
     0
 10
0.0
 20
0.0
 30
0.0
  3
*Model_Space
  1

  0
ENDBLK
  5
21
330
1F
100
AcDbEntity
  8
0
100
AcDbBlockEnd
  0
BLOCK
  5
1C
330
1B
100
AcDbEntity
 67
     1
  8
0
100
AcDbBlockBegin
  2
*Paper_Space
 70
     0
 10
0.0
 20
0.0
 30
0.0
  3
*Paper_Space
  1

  0
ENDBLK
  5
1D
330
1B
100
AcDbEntity
 67
     1
  8
0
100
AcDbBlockEnd
  0
BLOCK
  5
24
330
23
100
AcDbEntity
  8
0
100
AcDbBlockBegin
  2
*Paper_Space0
 70
     0
 10
0.0
 20
0.0
 30
0.0
  3
*Paper_Space0
  1

  0
ENDBLK
  5
25
330
23
100
AcDbEntity
  8
0
100
AcDbBlockEnd
  0
BLOCK
  5
43
330
41
100
AcDbEntity
  8
0
100
AcDbBlockBegin
  2
block 2
 70
     0
 10
0.0
 20
0.0
 30
0.0
  3
block 2
  1

  0
SPLINE
  5
45
330
41
100
AcDbEntity
  8
_U+30EC_U+30A4_U+30E4_U+30FC 1
 62
   179
420
  2234388
370
    25
100
AcDbSpline
210
0.0
220
0.0
230
1.0
 70
    11
 71
     3
 72
   107
 73
   103
 74
     0
 42
0.0000000001
 43
0.0000000001
 12
1.0
 22
0.0
 32
0.0
 13
1.0
 23
0.0
 33
0.0
 40
0.0
 40
0.0
 40
0.0
 40
0.0
 40
1.0
 40
1.0
 40
1.0
 40
2.0
 40
2.0
 40
2.0
 40
3.0
 40
3.0
 40
3.0
 40
4.0
 40
4.0
 40
4.0
 40
5.0
 40
5.0
 40
5.0
 40
6.0
 40
6.0
 40
6.0
 40
7.0
 40
7.0
 40
7.0
 40
8.0
 40
8.0
 40
8.0
 40
9.0
 40
9.0
 40
9.0
 40
10.0
 40
10.0
 40
10.0
 40
11.0
 40
11.0
 40
11.0
 40
12.0
 40
12.0
 40
12.0
 40
13.0
 40
13.0
 40
13.0
 40
14.0
 40
14.0
 40
14.0
 40
15.0
 40
15.0
 40
15.0
 40
16.0
 40
16.0
 40
16.0
 40
17.0
 40
17.0
 40
17.0
 40
18.0
 40
18.0
 40
18.0
 40
19.0
 40
19.0
 40
19.0
 40
20.0
 40
20.0
 40
20.0
 40
21.0
 40
21.0
 40
21.0
 40
22.0
 40
22.0
 40
22.0
 40
23.0
 40
23.0
 40
23.0
 40
24.0
 40
24.0
 40
24.0
 40
25.0
 40
25.0
 40
25.0
 40
26.0
 40
26.0
 40
26.0
 40
27.0
 40
27.0
 40
27.0
 40
28.0
 40
28.0
 40
28.0
 40
29.0
 40
29.0
 40
29.0
 40
30.0
 40
30.0
 40
30.0
 40
31.0
 40
31.0
 40
31.0
 40
32.0
 40
32.0
 40
32.0
 40
33.0
 40
33.0
 40
33.0
 40
34.0
 40
34.0
 40
34.0
 40
34.0
 10
83.36717231757069
 20
-122.3563508027443
 30
0.0
 10
83.76577591851257
 20
-121.8712813584212
 30
0.0
 10
84.39036895813344
 20
-121.586378025159
 30
0.0
 10
85.06283608984526
 20
-121.649419414032
 30
0.0
 10
86.13824169131927
 20
-121.7507019140068
 30
0.0
 10
86.92786417117432
 20
-122.7036252471017
 30
0.0
 10
86.82725195151892
 20
-123.7791741357219
 30
0.0
 10
86.82725195151892
 20
-123.7791741357219
 30
0.0
 10
86.73284862059403
 20
-123.8339605245972
 30
0.0
 10
86.73284862059403
 20
-123.8339605245972
 30
0.0
 10
86.73284862059403
 20
-123.8339605245972
 30
0.0
 10
88.4836494092607
 20
-123.8339605245972
 30
0.0
 10
88.4836494092607
 20
-123.8339605245972
 30
0.0
 10
89.19146272453621
 20
-123.7967424690508
 30
0.0
 10
88.93065412007888
 20
-123.3495613580514
 30
0.0
 10
88.93065412007888
 20
-123.3495613580514
 30
0.0
 10
88.93065412007888
 20
-123.3495613580514
 30
0.0
 10
88.4836494092607
 20
-121.7107321917946
 30
0.0
 10
88.4836494092607
 20
-121.7107321917946
 30
0.0
 10
88.37185413433507
 20
-120.8164052475737
 30
0.0
 10
89.04244939500452
 20
-120.8164052475737
 30
0.0
 10
89.04244939500452
 20
-120.8164052475737
 30
0.0
 10
89.04244939500452
 20
-120.8164052475737
 30
0.0
 10
98.24377554914803
 20
-121.2635863585731
 30
0.0
 10
99.10092219744674
 20
-121.3007691363414
 30
0.0
 10
99.95806383874623
 20
-121.3379871918878
 30
0.0
 10
99.51052996127488
 20
-121.7107321917946
 30
0.0
 10
99.51052996127488
 20
-121.7107321917946
 30
0.0
 10
99.51052996127488
 20
-121.7107321917946
 30
0.0
 10
97.75976445038508
 20
-123.3495613580514
 30
0.0
 10
97.20096446464125
 20
-123.908361357912
 30
0.0
 10
96.64216447889743
 20
-124.4671613577722
 30
0.0
 10
97.4617377913217
 20
-124.4671613577722
 30
0.0
 10
97.4617377913217
 20
-124.4671613577722
 30
0.0
 10
97.4617377913217
 20
-124.4671613577722
 30
0.0
 10
101.0753110324651
 20
-124.4299433022258
 30
0.0
 10
101.0753110324651
 20
-124.4299433022258
 30
0.0
 10
101.0753110324651
 20
-124.4299433022258
 30
0.0
 10
101.0377754778672
 20
-120.3320060810282
 30
0.0
 10
101.0377754778672
 20
-120.3320060810282
 30
0.0
 10
101.0377754778672
 20
-118.7676130258636
 30
0.0
 10
100.2557377200408
 20
-119.0283863591318
 30
0.0
 10
100.2557377200408
 20
-119.0283863591318
 30
0.0
 10
100.2557377200408
 20
-119.0283863591318
 30
0.0
 10
92.84394735357579
 20
-118.7300421925398
 30
0.0
 10
88.74445801371803
 20
-118.7300421925398
 30
0.0
 10
84.38588868046996
 20
-118.7300421925398
 30
0.0
 10
82.33709651051677
 20
-121.0771785808418
 30
0.0
 10
82.33709651051677
 20
-121.0771785808418
 30
0.0
 10
82.33709651051677
 20
-121.0771785808418
 30
0.0
 10
82.31607095549762
 20
-121.1130208030551
 30
0.0
 10
82.31607095549762
 20
-121.1130208030551
 30
0.0
 10
82.31607095549762
 20
-121.1130208030551
 30
0.0
 10
79.96911101537357
 20
-123.1618130247651
 30
0.0
 10
79.96911101537357
 20
-127.5205588570087
 30
0.0
 10
79.96911101537357
 20
-131.6198719115394
 30
0.0
 10
80.26710239666006
 20
-139.0319799652422
 30
0.0
 10
80.26710239666006
 20
-139.0319799652422
 30
0.0
 10
80.26710239666006
 20
-139.0319799652422
 30
0.0
 10
80.00647220222059
 20
-139.8140177428245
 30
0.0
 10
81.57107486339295
 20
-139.8140177428245
 30
0.0
 10
81.57107486339295
 20
-139.8140177428245
 30
0.0
 10
85.6688355921837
 20
-139.8512357983707
 30
0.0
 10
85.6688355921837
 20
-139.8512357983707
 30
0.0
 10
85.6688355921837
 20
-139.8512357983707
 30
0.0
 10
85.70605364678974
 20
-136.2376624659404
 30
0.0
 10
85.70605364678974
 20
-136.2376624659404
 30
0.0
 10
85.70605364678974
 20
-136.2376624659404
 30
0.0
 10
85.70605364678974
 20
-135.4180891328124
 30
0.0
 10
85.14725366104592
 20
-135.9768891326723
 30
0.0
 10
84.58845367530209
 20
-136.5356891325329
 30
0.0
 10
82.94944816156105
 20
-138.2864899654287
 30
0.0
 10
82.94944816156105
 20
-138.2864899654287
 30
0.0
 10
82.94944816156105
 20
-138.2864899654287
 30
0.0
 10
82.57705594883934
 20
-138.7343413542051
 30
0.0
 10
82.53966150534892
 20
-137.8771971877531
 30
0.0
 10
82.50226706185848
 20
-137.0200530213005
 30
0.0
 10
82.05529762881717
 20
-127.8185502458233
 30
0.0
 10
82.05529762881717
 20
-127.8185502458233
 30
0.0
 10
82.05529762881717
 20
-127.8185502458233
 30
0.0
 10
82.05543873992468
 20
-127.1477785793241
 30
0.0
 10
82.94944816156105
 20
-127.259750245963
 30
0.0
 10
82.94944816156105
 20
-127.259750245963
 30
0.0
 10
84.58845367530209
 20
-127.7065785791846
 30
0.0
 10
84.58845367530209
 20
-127.7065785791846
 30
0.0
 10
84.58845367530209
 20
-127.7065785791846
 30
0.0
 10
85.03563477500467
 20
-127.967739968008
 30
0.0
 10
85.07285282961071
 20
-127.259750245963
 30
0.0
 10
85.07285282961071
 20
-127.259750245963
 30
0.0
 10
85.07285282961071
 20
-125.5089494130672
 30
0.0
 10
85.07285282961071
 20
-125.5089494130672
 30
0.0
 10
85.07285282961071
 20
-125.5089494130672
 30
0.0
 10
85.01806644211953
 20
-125.603352746377
 30
0.0
 10
85.01806644211953
 20
-125.603352746377
 30
0.0
 10
83.94251758067018
 20
-125.7039649685742
 30
0.0
 10
82.98941788276356
 20
-124.9143424687716
 30
0.0
 10
82.88831386816676
 20
-123.8387935801514
 30
0.0
 10
82.82527038695132
 20
-123.1666460803193
 30
0.0
 10
83.11017371301615
 20
-122.5417002471423
 30
0.0
 10
83.59506675620106
 20
-122.1434494139086
 30
0.0
 10
83.59506675620106
 20
-122.1434494139086
 30
0.0
 10
83.36717231757069
 20
-122.3563508027443
 30
0.0
 10
83.36717231757069
 20
-122.3563508027443
 30
0.0
  0
HATCH
  5
46
330
41
100
AcDbEntity
  8
_U+30EC_U+30A4_U+30E4_U+30FC 1
 62
     2
420
 16773120
100
AcDbHatch
 10
0.0
 20
0.0
 30
0.0
210
0.0
220
0.0
230
1.0
  2
SOLID
 70
     1
 71
     0
 91
        1
 92
        1
 93
        1
 72
     4
 94
        3
 73
     0
 74
     1
 95
      107
 96
      103
 40
0.0
 40
0.0
 40
0.0
 40
0.0
 40
1.0
 40
1.0
 40
1.0
 40
2.0
 40
2.0
 40
2.0
 40
3.0
 40
3.0
 40
3.0
 40
4.0
 40
4.0
 40
4.0
 40
5.0
 40
5.0
 40
5.0
 40
6.0
 40
6.0
 40
6.0
 40
7.0
 40
7.0
 40
7.0
 40
8.0
 40
8.0
 40
8.0
 40
9.0
 40
9.0
 40
9.0
 40
10.0
 40
10.0
 40
10.0
 40
11.0
 40
11.0
 40
11.0
 40
12.0
 40
12.0
 40
12.0
 40
13.0
 40
13.0
 40
13.0
 40
14.0
 40
14.0
 40
14.0
 40
15.0
 40
15.0
 40
15.0
 40
16.0
 40
16.0
 40
16.0
 40
17.0
 40
17.0
 40
17.0
 40
18.0
 40
18.0
 40
18.0
 40
19.0
 40
19.0
 40
19.0
 40
20.0
 40
20.0
 40
20.0
 40
21.0
 40
21.0
 40
21.0
 40
22.0
 40
22.0
 40
22.0
 40
23.0
 40
23.0
 40
23.0
 40
24.0
 40
24.0
 40
24.0
 40
25.0
 40
25.0
 40
25.0
 40
26.0
 40
26.0
 40
26.0
 40
27.0
 40
27.0
 40
27.0
 40
28.0
 40
28.0
 40
28.0
 40
29.0
 40
29.0
 40
29.0
 40
30.0
 40
30.0
 40
30.0
 40
31.0
 40
31.0
 40
31.0
 40
32.0
 40
32.0
 40
32.0
 40
33.0
 40
33.0
 40
33.0
 40
34.0
 40
34.0
 40
34.0
 40
34.0
 10
83.36717231757069
 20
-122.3563508027443
 10
83.76577591851257
 20
-121.8712813584212
 10
84.39036895813344
 20
-121.586378025159
 10
85.06283608984526
 20
-121.649419414032
 10
86.13824169131927
 20
-121.7507019140068
 10
86.92786417117432
 20
-122.7036252471017
 10
86.82725195151892
 20
-123.7791741357219
 10
86.82725195151892
 20
-123.7791741357219
 10
86.73284862059403
 20
-123.8339605245972
 10
86.73284862059403
 20
-123.8339605245972
 10
86.73284862059403
 20
-123.8339605245972
 10
88.4836494092607
 20
-123.8339605245972
 10
88.4836494092607
 20
-123.8339605245972
 10
89.19146272453621
 20
-123.7967424690508
 10
88.93065412007888
 20
-123.3495613580514
 10
88.93065412007888
 20
-123.3495613580514
 10
88.93065412007888
 20
-123.3495613580514
 10
88.4836494092607
 20
-121.7107321917946
 10
88.4836494092607
 20
-121.7107321917946
 10
88.37185413433507
 20
-120.8164052475737
 10
89.04244939500452
 20
-120.8164052475737
 10
89.04244939500452
 20
-120.8164052475737
 10
89.04244939500452
 20
-120.8164052475737
 10
98.24377554914803
 20
-121.2635863585731
 10
99.10092219744674
 20
-121.3007691363414
 10
99.95806383874623
 20
-121.3379871918878
 10
99.51052996127488
 20
-121.7107321917946
 10
99.51052996127488
 20
-121.7107321917946
 10
99.51052996127488
 20
-121.7107321917946
 10
97.75976445038508
 20
-123.3495613580514
 10
97.20096446464125
 20
-123.908361357912
 10
96.64216447889743
 20
-124.4671613577722
 10
97.4617377913217
 20
-124.4671613577722
 10
97.4617377913217
 20
-124.4671613577722
 10
97.4617377913217
 20
-124.4671613577722
 10
101.0753110324651
 20
-124.4299433022258
 10
101.0753110324651
 20
-124.4299433022258
 10
101.0753110324651
 20
-124.4299433022258
 10
101.0377754778672
 20
-120.3320060810282
 10
101.0377754778672
 20
-120.3320060810282
 10
101.0377754778672
 20
-118.7676130258636
 10
100.2557377200408
 20
-119.0283863591318
 10
100.2557377200408
 20
-119.0283863591318
 10
100.2557377200408
 20
-119.0283863591318
 10
92.84394735357579
 20
-118.7300421925398
 10
88.74445801371803
 20
-118.7300421925398
 10
84.38588868046996
 20
-118.7300421925398
 10
82.33709651051677
 20
-121.0771785808418
 10
82.33709651051677
 20
-121.0771785808418
 10
82.33709651051677
 20
-121.0771785808418
 10
82.31607095549762
 20
-121.1130208030551
 10
82.31607095549762
 20
-121.1130208030551
 10
82.31607095549762
 20
-121.1130208030551
 10
79.96911101537357
 20
-123.1618130247651
 10
79.96911101537357
 20
-127.5205588570087
 10
79.96911101537357
 20
-131.6198719115394
 10
80.26710239666006
 20
-139.0319799652422
 10
80.26710239666006
 20
-139.0319799652422
 10
80.26710239666006
 20
-139.0319799652422
 10
80.00647220222059
 20
-139.8140177428245
 10
81.57107486339295
 20
-139.8140177428245
 10
81.57107486339295
 20
-139.8140177428245
 10
85.6688355921837
 20
-139.8512357983707
 10
85.6688355921837
 20
-139.8512357983707
 10
85.6688355921837
 20
-139.8512357983707
 10
85.70605364678974
 20
-136.2376624659404
 10
85.70605364678974
 20
-136.2376624659404
 10
85.70605364678974
 20
-136.2376624659404
 10
85.70605364678974
 20
-135.4180891328124
 10
85.14725366104592
 20
-135.9768891326723
 10
84.58845367530209
 20
-136.5356891325329
 10
82.94944816156105
 20
-138.2864899654287
 10
82.94944816156105
 20
-138.2864899654287
 10
82.94944816156105
 20
-138.2864899654287
 10
82.57705594883934
 20
-138.7343413542051
 10
82.53966150534892
 20
-137.8771971877531
 10
82.50226706185848
 20
-137.0200530213005
 10
82.05529762881717
 20
-127.8185502458233
 10
82.05529762881717
 20
-127.8185502458233
 10
82.05529762881717
 20
-127.8185502458233
 10
82.05543873992468
 20
-127.1477785793241
 10
82.94944816156105
 20
-127.259750245963
 10
82.94944816156105
 20
-127.259750245963
 10
84.58845367530209
 20
-127.7065785791846
 10
84.58845367530209
 20
-127.7065785791846
 10
84.58845367530209
 20
-127.7065785791846
 10
85.03563477500467
 20
-127.967739968008
 10
85.07285282961071
 20
-127.259750245963
 10
85.07285282961071
 20
-127.259750245963
 10
85.07285282961071
 20
-125.5089494130672
 10
85.07285282961071
 20
-125.5089494130672
 10
85.07285282961071
 20
-125.5089494130672
 10
85.01806644211953
 20
-125.603352746377
 10
85.01806644211953
 20
-125.603352746377
 10
83.94251758067018
 20
-125.7039649685742
 10
82.98941788276356
 20
-124.9143424687716
 10
82.88831386816676
 20
-123.8387935801514
 10
82.82527038695132
 20
-123.1666460803193
 10
83.11017371301615
 20
-122.5417002471423
 10
83.59506675620106
 20
-122.1434494139086
 10
83.59506675620106
 20
-122.1434494139086
 10
83.36717231757069
 20
-122.3563508027443
 10
83.36717231757069
 20
-122.3563508027443
 97
        0
 97
        0
 75
     2
 76
     1
 98
        0
  0
SPLINE
  5
47
330
41
100
AcDbEntity
  8
_U+30EC_U+30A4_U+30E4_U+30FC 1
 62
   179
420
  2234388
370
    25
100
AcDbSpline
210
0.0
220
0.0
230
1.0
 70
    11
 71
     3
 72
    71
 73
    67
 74
     0
 42
0.0000000001
 43
0.0000000001
 12
1.0
 22
0.0
 32
0.0
 13
1.0
 23
0.0
 33
0.0
 40
0.0
 40
0.0
 40
0.0
 40
0.0
 40
1.0
 40
1.0
 40
1.0
 40
2.0
 40
2.0
 40
2.0
 40
3.0
 40
3.0
 40
3.0
 40
4.0
 40
4.0
 40
4.0
 40
5.0
 40
5.0
 40
5.0
 40
6.0
 40
6.0
 40
6.0
 40
7.0
 40
7.0
 40
7.0
 40
8.0
 40
8.0
 40
8.0
 40
9.0
 40
9.0
 40
9.0
 40
10.0
 40
10.0
 40
10.0
 40
11.0
 40
11.0
 40
11.0
 40
12.0
 40
12.0
 40
12.0
 40
13.0
 40
13.0
 40
13.0
 40
14.0
 40
14.0
 40
14.0
 40
15.0
 40
15.0
 40
15.0
 40
16.0
 40
16.0
 40
16.0
 40
17.0
 40
17.0
 40
17.0
 40
18.0
 40
18.0
 40
18.0
 40
19.0
 40
19.0
 40
19.0
 40
20.0
 40
20.0
 40
20.0
 40
21.0
 40
21.0
 40
21.0
 40
22.0
 40
22.0
 40
22.0
 40
22.0
 10
85.59856226064319
 20
-124.4589063577743
 30
0.0
 10
85.59856226064319
 20
-124.4589063577743
 30
0.0
 10
85.59856226064319
 20
-134.5916013552411
 30
0.0
 10
85.59856226064319
 20
-134.5916013552411
 30
0.0
 10
85.59856226064319
 20
-135.4112099661473
 30
0.0
 10
85.3005708793567
 20
-135.8211730216002
 30
0.0
 10
85.3005708793567
 20
-135.8211730216002
 30
0.0
 10
85.3005708793567
 20
-135.8211730216002
 30
0.0
 10
83.32617954083872
 20
-137.8324296877639
 30
0.0
 10
83.32617954083872
 20
-137.8324296877639
 30
0.0
 10
83.32617954083872
 20
-137.8324296877639
 30
0.0
 10
82.99079371606179
 20
-138.1679566321246
 30
0.0
 10
82.8417803865301
 20
-137.8324296877639
 30
0.0
 10
82.6928023347753
 20
-137.4975377434031
 30
0.0
 10
82.99079371606179
 20
-137.273629687904
 30
0.0
 10
82.99079371606179
 20
-137.273629687904
 30
0.0
 10
82.99079371606179
 20
-137.273629687904
 30
0.0
 10
84.89078422314455
 20
-135.3367738550544
 30
0.0
 10
84.89078422314455
 20
-135.3367738550544
 30
0.0
 10
84.89078422314455
 20
-135.3367738550544
 30
0.0
 10
84.89078422314455
 20
-130.3820452451824
 30
0.0
 10
84.89078422314455
 20
-130.3820452451824
 30
0.0
 10
84.89078422314455
 20
-130.3820452451824
 30
0.0
 10
85.0769803295054
 20
-130.3820452451824
 30
0.0
 10
85.0769803295054
 20
-130.3820452451824
 30
0.0
 10
85.0769803295054
 20
-130.3820452451824
 30
0.0
 10
85.0769803295054
 20
-125.3529158019952
 30
0.0
 10
85.0769803295054
 20
-124.6452788577276
 30
0.0
 10
85.0769803295054
 20
-124.1777777467333
 30
0.0
 10
85.16912588271013
 20
-124.069263302316
 30
0.0
 10
85.16912588271013
 20
-124.069263302316
 30
0.0
 10
85.16912588271013
 20
-124.069263302316
 30
0.0
 10
85.24888893623077
 20
-123.881162191252
 30
0.0
 10
85.41476504311002
 20
-123.881162191252
 30
0.0
 10
85.41476504311002
 20
-123.881162191252
 30
0.0
 10
85.37963053421056
 20
-123.8714960801433
 30
0.0
 10
85.81784892171538
 20
-123.8698027468105
 30
0.0
 10
86.52562695921402
 20
-123.8666983023666
 30
0.0
 10
91.55479155313157
 20
-123.8698027468105
 30
0.0
 10
91.55479155313157
 20
-123.8698027468105
 30
0.0
 10
91.55479155313157
 20
-123.8698027468105
 30
0.0
 10
91.55479155313157
 20
-123.6833949690792
 30
0.0
 10
91.55479155313157
 20
-123.6833949690792
 30
0.0
 10
91.55479155313157
 20
-123.6833949690792
 30
0.0
 10
96.50952003783702
 20
-123.6833949690792
 30
0.0
 10
96.50952003783702
 20
-123.6833949690792
 30
0.0
 10
96.50952003783702
 20
-123.6833949690792
 30
0.0
 10
98.44634054398017
 20
-121.783792469554
 30
0.0
 10
98.44634054398017
 20
-121.783792469554
 30
0.0
 10
98.44634054398017
 20
-121.783792469554
 30
0.0
 10
98.66993109383145
 20
-121.4854483029619
 30
0.0
 10
99.00514052972399
 20
-121.6346027473692
 30
0.0
 10
99.34070274338531
 20
-121.783792469554
 30
0.0
 10
99.00514052972399
 20
-122.1190019139147
 30
0.0
 10
99.00514052972399
 20
-122.1190019139147
 30
0.0
 10
99.00514052972399
 20
-122.1190019139147
 30
0.0
 10
96.99391919214564
 20
-124.0933580245322
 30
0.0
 10
96.99391919214564
 20
-124.0933580245322
 30
0.0
 10
96.99391919214564
 20
-124.0933580245322
 30
0.0
 10
96.58395614704911
 20
-124.3913846911243
 30
0.0
 10
95.76434997605911
 20
-124.3913846911243
 30
0.0
 10
95.76434997605911
 20
-124.3913846911243
 30
0.0
 10
85.63165281535453
 20
-124.3913846911243
 30
0.0
 10
85.63165281535453
 20
-124.3913846911243
 30
0.0
 10
85.63165281535453
 20
-124.3913846911243
 30
0.0
 10
85.59856226064319
 20
-124.4589063577743
 30
0.0
 10
85.59856226064319
 20
-124.4589063577743
 30
0.0
  0
HATCH
  5
48
330
41
100
AcDbEntity
  8
_U+30EC_U+30A4_U+30E4_U+30FC 1
 62
   253
420
 11711154
100
AcDbHatch
 10
0.0
 20
0.0
 30
0.0
210
0.0
220
0.0
230
1.0
  2
SOLID
 70
     1
 71
     0
 91
        1
 92
        1
 93
        1
 72
     4
 94
        3
 73
     0
 74
     1
 95
       71
 96
       67
 40
0.0
 40
0.0
 40
0.0
 40
0.0
 40
1.0
 40
1.0
 40
1.0
 40
2.0
 40
2.0
 40
2.0
 40
3.0
 40
3.0
 40
3.0
 40
4.0
 40
4.0
 40
4.0
 40
5.0
 40
5.0
 40
5.0
 40
6.0
 40
6.0
 40
6.0
 40
7.0
 40
7.0
 40
7.0
 40
8.0
 40
8.0
 40
8.0
 40
9.0
 40
9.0
 40
9.0
 40
10.0
 40
10.0
 40
10.0
 40
11.0
 40
11.0
 40
11.0
 40
12.0
 40
12.0
 40
12.0
 40
13.0
 40
13.0
 40
13.0
 40
14.0
 40
14.0
 40
14.0
 40
15.0
 40
15.0
 40
15.0
 40
16.0
 40
16.0
 40
16.0
 40
17.0
 40
17.0
 40
17.0
 40
18.0
 40
18.0
 40
18.0
 40
19.0
 40
19.0
 40
19.0
 40
20.0
 40
20.0
 40
20.0
 40
21.0
 40
21.0
 40
21.0
 40
22.0
 40
22.0
 40
22.0
 40
22.0
 10
85.59856226064319
 20
-124.4589063577743
 10
85.59856226064319
 20
-124.4589063577743
 10
85.59856226064319
 20
-134.5916013552411
 10
85.59856226064319
 20
-134.5916013552411
 10
85.59856226064319
 20
-135.4112099661473
 10
85.3005708793567
 20
-135.8211730216002
 10
85.3005708793567
 20
-135.8211730216002
 10
85.3005708793567
 20
-135.8211730216002
 10
83.32617954083872
 20
-137.8324296877639
 10
83.32617954083872
 20
-137.8324296877639
 10
83.32617954083872
 20
-137.8324296877639
 10
82.99079371606179
 20
-138.1679566321246
 10
82.8417803865301
 20
-137.8324296877639
 10
82.6928023347753
 20
-137.4975377434031
 10
82.99079371606179
 20
-137.273629687904
 10
82.99079371606179
 20
-137.273629687904
 10
82.99079371606179
 20
-137.273629687904
 10
84.89078422314455
 20
-135.3367738550544
 10
84.89078422314455
 20
-135.3367738550544
 10
84.89078422314455
 20
-135.3367738550544
 10
84.89078422314455
 20
-130.3820452451824
 10
84.89078422314455
 20
-130.3820452451824
 10
84.89078422314455
 20
-130.3820452451824
 10
85.0769803295054
 20
-130.3820452451824
 10
85.0769803295054
 20
-130.3820452451824
 10
85.0769803295054
 20
-130.3820452451824
 10
85.0769803295054
 20
-125.3529158019952
 10
85.0769803295054
 20
-124.6452788577276
 10
85.0769803295054
 20
-124.1777777467333
 10
85.16912588271013
 20
-124.069263302316
 10
85.16912588271013
 20
-124.069263302316
 10
85.16912588271013
 20
-124.069263302316
 10
85.24888893623077
 20
-123.881162191252
 10
85.41476504311002
 20
-123.881162191252
 10
85.41476504311002
 20
-123.881162191252
 10
85.37963053421056
 20
-123.8714960801433
 10
85.81784892171538
 20
-123.8698027468105
 10
86.52562695921402
 20
-123.8666983023666
 10
91.55479155313157
 20
-123.8698027468105
 10
91.55479155313157
 20
-123.8698027468105
 10
91.55479155313157
 20
-123.8698027468105
 10
91.55479155313157
 20
-123.6833949690792
 10
91.55479155313157
 20
-123.6833949690792
 10
91.55479155313157
 20
-123.6833949690792
 10
96.50952003783702
 20
-123.6833949690792
 10
96.50952003783702
 20
-123.6833949690792
 10
96.50952003783702
 20
-123.6833949690792
 10
98.44634054398017
 20
-121.783792469554
 10
98.44634054398017
 20
-121.783792469554
 10
98.44634054398017
 20
-121.783792469554
 10
98.66993109383145
 20
-121.4854483029619
 10
99.00514052972399
 20
-121.6346027473692
 10
99.34070274338531
 20
-121.783792469554
 10
99.00514052972399
 20
-122.1190019139147
 10
99.00514052972399
 20
-122.1190019139147
 10
99.00514052972399
 20
-122.1190019139147
 10
96.99391919214564
 20
-124.0933580245322
 10
96.99391919214564
 20
-124.0933580245322
 10
96.99391919214564
 20
-124.0933580245322
 10
96.58395614704911
 20
-124.3913846911243
 10
95.76434997605911
 20
-124.3913846911243
 10
95.76434997605911
 20
-124.3913846911243
 10
85.63165281535453
 20
-124.3913846911243
 10
85.63165281535453
 20
-124.3913846911243
 10
85.63165281535453
 20
-124.3913846911243
 10
85.59856226064319
 20
-124.4589063577743
 10
85.59856226064319
 20
-124.4589063577743
 97
        0
 97
        0
 75
     2
 76
     1
 98
        0
  0
POLYLINE
  5
49
330
41
100
AcDbEntity
  8
_U+30EC_U+30A4_U+30E4_U+30FC 1
 62
   179
420
  2234388
370
     9
100
AcDb2dPolyline
 66
     1
 10
0.0
 20
0.0
 30
0.0
  0
VERTEX
  5
4A
330
49
100
AcDbEntity
  8
_U+30EC_U+30A4_U+30E4_U+30FC 1
 62
   179
420
  2234388
370
     9
100
AcDbVertex
100
AcDb2dVertex
 10
75.01918030832348
 20
-114.7048124713238
 30
0.0
  0
VERTEX
  5
4B
330
49
100
AcDbEntity
  8
_U+30EC_U+30A4_U+30E4_U+30FC 1
 62
   179
420
  2234388
370
     9
100
AcDbVertex
100
AcDb2dVertex
 10
107.3422669836928
 20
-114.7048124713238
 30
0.0
  0
SEQEND
  5
4C
330
49
100
AcDbEntity
  8
_U+30EC_U+30A4_U+30E4_U+30FC 1
 62
   179
420
  2234388
370
     9
  0
POLYLINE
  5
4D
330
41
100
AcDbEntity
  8
_U+30EC_U+30A4_U+30E4_U+30FC 1
 62
   179
420
  2234388
370
     9
100
AcDb2dPolyline
 66
     1
 10
0.0
 20
0.0
 30
0.0
  0
VERTEX
  5
4E
330
4D
100
AcDbEntity
  8
_U+30EC_U+30A4_U+30E4_U+30FC 1
 62
   179
420
  2234388
370
     9
100
AcDbVertex
100
AcDb2dVertex
 10
107.7391419735677
 20
-119.0263402480212
 30
0.0
  0
VERTEX
  5
4F
330
4D
100
AcDbEntity
  8
_U+30EC_U+30A4_U+30E4_U+30FC 1
 62
   179
420
  2234388
370
     9
100
AcDbVertex
100
AcDb2dVertex
 10
100.9040727035004
 20
-119.0263402480212
 30
0.0
  0
SEQEND
  5
50
330
4D
100
AcDbEntity
  8
_U+30EC_U+30A4_U+30E4_U+30FC 1
 62
   179
420
  2234388
370
     9
  0
POLYLINE
  5
51
330
41
100
AcDbEntity
  8
_U+30EC_U+30A4_U+30E4_U+30FC 1
 62
   179
420
  2234388
370
     9
100
AcDb2dPolyline
 66
     1
 10
0.0
 20
0.0
 30
0.0
  0
VERTEX
  5
52
330
51
100
AcDbEntity
  8
_U+30EC_U+30A4_U+30E4_U+30FC 1
 62
   179
420
  2234388
370
     9
100
AcDbVertex
100
AcDb2dVertex
 10
107.7391419735677
 20
-124.3621041355762
 30
0.0
  0
VERTEX
  5
53
330
51
100
AcDbEntity
  8
_U+30EC_U+30A4_U+30E4_U+30FC 1
 62
   179
420
  2234388
370
     9
100
AcDbVertex
100
AcDb2dVertex
 10
100.9040727035004
 20
-124.3621041355762
 30
0.0
  0
SEQEND
  5
54
330
51
100
AcDbEntity
  8
_U+30EC_U+30A4_U+30E4_U+30FC 1
 62
   179
420
  2234388
370
     9
  0
POLYLINE
  5
55
330
41
100
AcDbEntity
  8
_U+30EC_U+30A4_U+30E4_U+30FC 1
 62
   179
420
  2234388
370
     9
100
AcDb2dPolyline
 66
     1
 10
0.0
 20
0.0
 30
0.0
  0
VERTEX
  5
56
330
55
100
AcDbEntity
  8
_U+30EC_U+30A4_U+30E4_U+30FC 1
 62
   179
420
  2234388
370
     9
100
AcDbVertex
100
AcDb2dVertex
 10
105.8429614663878
 20
-114.1315485825782
 30
0.0
  0
VERTEX
  5
57
330
55
100
AcDbEntity
  8
_U+30EC_U+30A4_U+30E4_U+30FC 1
 62
   179
420
  2234388
370
     9
100
AcDbVertex
100
AcDb2dVertex
 10
105.8429614663878
 20
-126.0019563573884
 30
0.0
  0
SEQEND
  5
58
330
55
100
AcDbEntity
  8
_U+30EC_U+30A4_U+30E4_U+30FC 1
 62
   179
420
  2234388
370
     9
  0
POLYLINE
  5
59
330
41
100
AcDbEntity
  8
_U+30EC_U+30A4_U+30E4_U+30FC 1
 62
   179
420
  2234388
370
     9
100
AcDb2dPolyline
 66
     1
 10
0.0
 20
0.0
 30
0.0
  0
VERTEX
  5
5A
330
59
100
AcDbEntity
  8
_U+30EC_U+30A4_U+30E4_U+30FC 1
 62
   179
420
  2234388
370
     9
100
AcDbVertex
100
AcDb2dVertex
 10
101.036364366792
 20
-119.643701358978
 30
0.0
  0
VERTEX
  5
5B
330
59
100
AcDbEntity
  8
_U+30EC_U+30A4_U+30E4_U+30FC 1
 62
   179
420
  2234388
370
     9
100
AcDbVertex
100
AcDb2dVertex
 10
101.036364366792
 20
-112.7204374718199
 30
0.0
  0
SEQEND
  5
5C
330
59
100
AcDbEntity
  8
_U+30EC_U+30A4_U+30E4_U+30FC 1
 62
   179
420
  2234388
370
     9
  0
POLYLINE
  5
5D
330
41
100
AcDbEntity
  8
_U+30EC_U+30A4_U+30E4_U+30FC 1
 62
   179
420
  2234388
370
     9
100
AcDb2dPolyline
 66
     1
 10
0.0
 20
0.0
 30
0.0
  0
VERTEX
  5
5E
330
5D
100
AcDbEntity
  8
_U+30EC_U+30A4_U+30E4_U+30FC 1
 62
   179
420
  2234388
370
     9
100
AcDbVertex
100
AcDb2dVertex
 10
79.91397185011361
 20
-119.5555069145556
 30
0.0
  0
VERTEX
  5
5F
330
5D
100
AcDbEntity
  8
_U+30EC_U+30A4_U+30E4_U+30FC 1
 62
   179
420
  2234388
370
     9
100
AcDbVertex
100
AcDb2dVertex
 10
79.91397185011361
 20
-112.5881458051863
 30
0.0
  0
SEQEND
  5
60
330
5D
100
AcDbEntity
  8
_U+30EC_U+30A4_U+30E4_U+30FC 1
 62
   179
420
  2234388
370
     9
  0
POLYLINE
  5
61
330
41
100
AcDbEntity
  8
_U+30EC_U+30A4_U+30E4_U+30FC 1
 62
   179
420
  2234388
370
     9
100
AcDb2dPolyline
 66
     1
 10
0.0
 20
0.0
 30
0.0
  0
VERTEX
  5
62
330
61
100
AcDbEntity
  8
_U+30EC_U+30A4_U+30E4_U+30FC 1
 62
   179
420
  2234388
370
     9
100
AcDbVertex
100
AcDb2dVertex
 10
80.26674961889128
 20
-144.0294652417701
 30
0.0
  0
VERTEX
  5
63
330
61
100
AcDbEntity
  8
_U+30EC_U+30A4_U+30E4_U+30FC 1
 62
   179
420
  2234388
370
     9
100
AcDbVertex
100
AcDb2dVertex
 10
80.26674961889128
 20
-138.7818957986375
 30
0.0
  0
SEQEND
  5
64
330
61
100
AcDbEntity
  8
_U+30EC_U+30A4_U+30E4_U+30FC 1
 62
   179
420
  2234388
370
     9
  0
POLYLINE
  5
65
330
41
100
AcDbEntity
  8
_U+30EC_U+30A4_U+30E4_U+30FC 1
 62
   179
420
  2234388
370
     9
100
AcDb2dPolyline
 66
     1
 10
0.0
 20
0.0
 30
0.0
  0
VERTEX
  5
66
330
65
100
AcDbEntity
  8
_U+30EC_U+30A4_U+30E4_U+30FC 1
 62
   179
420
  2234388
370
     9
100
AcDbVertex
100
AcDb2dVertex
 10
81.67786069400195
 20
-118.761756914754
 30
0.0
  0
VERTEX
  5
67
330
65
100
AcDbEntity
  8
_U+30EC_U+30A4_U+30E4_U+30FC 1
 62
   179
420
  2234388
370
     9
100
AcDbVertex
100
AcDb2dVertex
 10
74.88688864503186
 20
-118.761756914754
 30
0.0
  0
SEQEND
  5
68
330
65
100
AcDbEntity
  8
_U+30EC_U+30A4_U+30E4_U+30FC 1
 62
   179
420
  2234388
370
     9
  0
POLYLINE
  5
69
330
41
100
AcDbEntity
  8
_U+30EC_U+30A4_U+30E4_U+30FC 1
 62
   179
420
  2234388
370
     9
100
AcDb2dPolyline
 66
     1
 10
0.0
 20
0.0
 30
0.0
  0
VERTEX
  5
6A
330
69
100
AcDbEntity
  8
_U+30EC_U+30A4_U+30E4_U+30FC 1
 62
   179
420
  2234388
370
     9
100
AcDbVertex
100
AcDb2dVertex
 10
76.82716637330903
 20
-113.8669652493111
 30
0.0
  0
VERTEX
  5
6B
330
69
100
AcDbEntity
  8
_U+30EC_U+30A4_U+30E4_U+30FC 1
 62
   179
420
  2234388
370
     9
100
AcDbVertex
100
AcDb2dVertex
 10
76.82716637330903
 20
-144.7791180193605
 30
0.0
  0
SEQEND
  5
6C
330
69
100
AcDbEntity
  8
_U+30EC_U+30A4_U+30E4_U+30FC 1
 62
   179
420
  2234388
370
     9
  0
POLYLINE
  5
6D
330
41
100
AcDbEntity
  8
_U+30EC_U+30A4_U+30E4_U+30FC 1
 62
   179
420
  2234388
370
     9
100
AcDb2dPolyline
 66
     1
 10
0.0
 20
0.0
 30
0.0
  0
VERTEX
  5
6E
330
6D
100
AcDbEntity
  8
_U+30EC_U+30A4_U+30E4_U+30FC 1
 62
   179
420
  2234388
370
     9
100
AcDbVertex
100
AcDb2dVertex
 10
74.88688864503186
 20
-139.8402291317063
 30
0.0
  0
VERTEX
  5
6F
330
6D
100
AcDbEntity
  8
_U+30EC_U+30A4_U+30E4_U+30FC 1
 62
   179
420
  2234388
370
     9
100
AcDbVertex
100
AcDb2dVertex
 10
81.4132773674187
 20
-139.8402291317063
 30
0.0
  0
SEQEND
  5
70
330
6D
100
AcDbEntity
  8
_U+30EC_U+30A4_U+30E4_U+30FC 1
 62
   179
420
  2234388
370
     9
  0
SPLINE
  5
71
330
41
100
AcDbEntity
  8
_U+30EC_U+30A4_U+30E4_U+30FC 1
 62
   179
420
  2234388
370
     9
100
AcDbSpline
210
0.0
220
0.0
230
1.0
 70
    11
 71
     3
 72
    17
 73
    13
 74
     0
 42
0.0000000001
 43
0.0000000001
 12
1.0
 22
0.0
 32
0.0
 13
1.0
 23
0.0
 33
0.0
 40
0.0
 40
0.0
 40
0.0
 40
0.0
 40
1.0
 40
1.0
 40
1.0
 40
2.0
 40
2.0
 40
2.0
 40
3.0
 40
3.0
 40
3.0
 40
4.0
 40
4.0
 40
4.0
 40
4.0
 10
80.00992740322114
 20
-114.7048124713238
 30
0.0
 10
80.00992740322114
 20
-114.7599163601991
 30
0.0
 10
79.96515990436326
 20
-114.8047191379654
 30
0.0
 10
79.9100207391033
 20
-114.8047191379654
 30
0.0
 10
79.85474046273585
 20
-114.8047191379654
 30
0.0
 10
79.80993768610108
 20
-114.7599163601991
 30
0.0
 10
79.80993768610108
 20
-114.7048124713238
 30
0.0
 10
79.80993768610108
 20
-114.6496733046711
 30
0.0
 10
79.85474046273585
 20
-114.6049058046822
 30
0.0
 10
79.9100207391033
 20
-114.6049058046822
 30
0.0
 10
79.96515990436326
 20
-114.6049058046822
 30
0.0
 10
80.00992740322114
 20
-114.6496733046711
 30
0.0
 10
80.00992740322114
 20
-114.7048124713238
 30
0.0
  0
HATCH
  5
72
330
41
100
AcDbEntity
  8
_U+30EC_U+30A4_U+30E4_U+30FC 1
 62
   179
420
  2234388
100
AcDbHatch
 10
0.0
 20
0.0
 30
0.0
210
0.0
220
0.0
230
1.0
  2
SOLID
 70
     1
 71
     0
 91
        1
 92
        1
 93
        1
 72
     4
 94
        3
 73
     0
 74
     1
 95
       17
 96
       13
 40
0.0
 40
0.0
 40
0.0
 40
0.0
 40
1.0
 40
1.0
 40
1.0
 40
2.0
 40
2.0
 40
2.0
 40
3.0
 40
3.0
 40
3.0
 40
4.0
 40
4.0
 40
4.0
 40
4.0
 10
80.00992740322114
 20
-114.7048124713238
 10
80.00992740322114
 20
-114.7599163601991
 10
79.96515990436326
 20
-114.8047191379654
 10
79.9100207391033
 20
-114.8047191379654
 10
79.85474046273585
 20
-114.8047191379654
 10
79.80993768610108
 20
-114.7599163601991
 10
79.80993768610108
 20
-114.7048124713238
 10
79.80993768610108
 20
-114.6496733046711
 10
79.85474046273585
 20
-114.6049058046822
 10
79.9100207391033
 20
-114.6049058046822
 10
79.96515990436326
 20
-114.6049058046822
 10
80.00992740322114
 20
-114.6496733046711
 10
80.00992740322114
 20
-114.7048124713238
 97
        0
 97
        0
 75
     2
 76
     1
 98
        0
  0
SPLINE
  5
73
330
41
100
AcDbEntity
  8
_U+30EC_U+30A4_U+30E4_U+30FC 1
 62
   179
420
  2234388
370
     9
100
AcDbSpline
210
0.0
220
0.0
230
1.0
 70
    11
 71
     3
 72
    17
 73
    13
 74
     0
 42
0.0000000001
 43
0.0000000001
 12
1.0
 22
0.0
 32
0.0
 13
1.0
 23
0.0
 33
0.0
 40
0.0
 40
0.0
 40
0.0
 40
0.0
 40
1.0
 40
1.0
 40
1.0
 40
2.0
 40
2.0
 40
2.0
 40
3.0
 40
3.0
 40
3.0
 40
4.0
 40
4.0
 40
4.0
 40
4.0
 10
101.132496308784
 20
-114.7048124713238
 30
0.0
 10
101.132496308784
 20
-114.7599163601991
 30
0.0
 10
101.0877288099261
 20
-114.8047191379654
 30
0.0
 10
101.0325896446661
 20
-114.8047191379654
 30
0.0
 10
100.9771329794143
 20
-114.8047191379654
 30
0.0
 10
100.9323302027795
 20
-114.7599163601991
 30
0.0
 10
100.9323302027795
 20
-114.7048124713238
 30
0.0
 10
100.9323302027795
 20
-114.6496733046711
 30
0.0
 10
100.9771329794143
 20
-114.6049058046822
 30
0.0
 10
101.0325896446661
 20
-114.6049058046822
 30
0.0
 10
101.0877288099261
 20
-114.6049058046822
 30
0.0
 10
101.132496308784
 20
-114.6496733046711
 30
0.0
 10
101.132496308784
 20
-114.7048124713238
 30
0.0
  0
HATCH
  5
74
330
41
100
AcDbEntity
  8
_U+30EC_U+30A4_U+30E4_U+30FC 1
 62
   179
420
  2234388
100
AcDbHatch
 10
0.0
 20
0.0
 30
0.0
210
0.0
220
0.0
230
1.0
  2
SOLID
 70
     1
 71
     0
 91
        1
 92
        1
 93
        1
 72
     4
 94
        3
 73
     0
 74
     1
 95
       17
 96
       13
 40
0.0
 40
0.0
 40
0.0
 40
0.0
 40
1.0
 40
1.0
 40
1.0
 40
2.0
 40
2.0
 40
2.0
 40
3.0
 40
3.0
 40
3.0
 40
4.0
 40
4.0
 40
4.0
 40
4.0
 10
101.132496308784
 20
-114.7048124713238
 10
101.132496308784
 20
-114.7599163601991
 10
101.0877288099261
 20
-114.8047191379654
 10
101.0325896446661
 20
-114.8047191379654
 10
100.9771329794143
 20
-114.8047191379654
 10
100.9323302027795
 20
-114.7599163601991
 10
100.9323302027795
 20
-114.7048124713238
 10
100.9323302027795
 20
-114.6496733046711
 10
100.9771329794143
 20
-114.6049058046822
 10
101.0325896446661
 20
-114.6049058046822
 10
101.0877288099261
 20
-114.6049058046822
 10
101.132496308784
 20
-114.6496733046711
 10
101.132496308784
 20
-114.7048124713238
 97
        0
 97
        0
 75
     2
 76
     1
 98
        0
  0
SPLINE
  5
75
330
41
100
AcDbEntity
  8
_U+30EC_U+30A4_U+30E4_U+30FC 1
 62
   179
420
  2234388
370
     9
100
AcDbSpline
210
0.0
220
0.0
230
1.0
 70
    11
 71
     3
 72
    17
 73
    13
 74
     0
 42
0.0000000001
 43
0.0000000001
 12
1.0
 22
0.0
 32
0.0
 13
1.0
 23
0.0
 33
0.0
 40
0.0
 40
0.0
 40
0.0
 40
0.0
 40
1.0
 40
1.0
 40
1.0
 40
2.0
 40
2.0
 40
2.0
 40
3.0
 40
3.0
 40
3.0
 40
4.0
 40
4.0
 40
4.0
 40
4.0
 10
76.92897803737826
 20
-118.7917077480798
 30
0.0
 10
76.92897803737826
 20
-118.8471644147328
 30
0.0
 10
76.88421053852038
 20
-118.8919671924992
 30
0.0
 10
76.82907137326043
 20
-118.8919671924992
 30
0.0
 10
76.77379109689296
 20
-118.8919671924992
 30
0.0
 10
76.7289883202582
 20
-118.8471644147328
 30
0.0
 10
76.7289883202582
 20
-118.7917077480798
 30
0.0
 10
76.7289883202582
 20
-118.7366038592049
 30
0.0
 10
76.77379109689296
 20
-118.6918010814382
 30
0.0
 10
76.82907137326043
 20
-118.6918010814382
 30
0.0
 10
76.88421053852038
 20
-118.6918010814382
 30
0.0
 10
76.92897803737826
 20
-118.7366038592049
 30
0.0
 10
76.92897803737826
 20
-118.7917077480798
 30
0.0
  0
HATCH
  5
76
330
41
100
AcDbEntity
  8
_U+30EC_U+30A4_U+30E4_U+30FC 1
 62
   179
420
  2234388
100
AcDbHatch
 10
0.0
 20
0.0
 30
0.0
210
0.0
220
0.0
230
1.0
  2
SOLID
 70
     1
 71
     0
 91
        1
 92
        1
 93
        1
 72
     4
 94
        3
 73
     0
 74
     1
 95
       17
 96
       13
 40
0.0
 40
0.0
 40
0.0
 40
0.0
 40
1.0
 40
1.0
 40
1.0
 40
2.0
 40
2.0
 40
2.0
 40
3.0
 40
3.0
 40
3.0
 40
4.0
 40
4.0
 40
4.0
 40
4.0
 10
76.92897803737826
 20
-118.7917077480798
 10
76.92897803737826
 20
-118.8471644147328
 10
76.88421053852038
 20
-118.8919671924992
 10
76.82907137326043
 20
-118.8919671924992
 10
76.77379109689296
 20
-118.8919671924992
 10
76.7289883202582
 20
-118.8471644147328
 10
76.7289883202582
 20
-118.7917077480798
 10
76.7289883202582
 20
-118.7366038592049
 10
76.77379109689296
 20
-118.6918010814382
 10
76.82907137326043
 20
-118.6918010814382
 10
76.88421053852038
 20
-118.6918010814382
 10
76.92897803737826
 20
-118.7366038592049
 10
76.92897803737826
 20
-118.7917077480798
 97
        0
 97
        0
 75
     2
 76
     1
 98
        0
  0
SPLINE
  5
77
330
41
100
AcDbEntity
  8
_U+30EC_U+30A4_U+30E4_U+30FC 1
 62
   179
420
  2234388
370
     9
100
AcDbSpline
210
0.0
220
0.0
230
1.0
 70
    11
 71
     3
 72
    17
 73
    13
 74
     0
 42
0.0000000001
 43
0.0000000001
 12
1.0
 22
0.0
 32
0.0
 13
1.0
 23
0.0
 33
0.0
 40
0.0
 40
0.0
 40
0.0
 40
0.0
 40
1.0
 40
1.0
 40
1.0
 40
2.0
 40
2.0
 40
2.0
 40
3.0
 40
3.0
 40
3.0
 40
4.0
 40
4.0
 40
4.0
 40
4.0
 10
105.9690795187258
 20
-119.0321963591308
 30
0.0
 10
105.9690795187258
 20
-119.0876530257835
 30
0.0
 10
105.924276742091
 20
-119.1324205257724
 30
0.0
 10
105.8691728546079
 20
-119.1324205257724
 30
0.0
 10
105.814033689348
 20
-119.1324205257724
 30
0.0
 10
105.7692661904901
 20
-119.0876530257835
 30
0.0
 10
105.7692661904901
 20
-119.0321963591308
 30
0.0
 10
105.7692661904901
 20
-118.9770571924781
 30
0.0
 10
105.814033689348
 20
-118.9322896924892
 30
0.0
 10
105.8691728546079
 20
-118.9322896924892
 30
0.0
 10
105.924276742091
 20
-118.9322896924892
 30
0.0
 10
105.9690795187258
 20
-118.9770571924781
 30
0.0
 10
105.9690795187258
 20
-119.0321963591308
 30
0.0
  0
HATCH
  5
78
330
41
100
AcDbEntity
  8
_U+30EC_U+30A4_U+30E4_U+30FC 1
 62
   179
420
  2234388
100
AcDbHatch
 10
0.0
 20
0.0
 30
0.0
210
0.0
220
0.0
230
1.0
  2
SOLID
 70
     1
 71
     0
 91
        1
 92
        1
 93
        1
 72
     4
 94
        3
 73
     0
 74
     1
 95
       17
 96
       13
 40
0.0
 40
0.0
 40
0.0
 40
0.0
 40
1.0
 40
1.0
 40
1.0
 40
2.0
 40
2.0
 40
2.0
 40
3.0
 40
3.0
 40
3.0
 40
4.0
 40
4.0
 40
4.0
 40
4.0
 10
105.9690795187258
 20
-119.0321963591308
 10
105.9690795187258
 20
-119.0876530257835
 10
105.924276742091
 20
-119.1324205257724
 10
105.8691728546079
 20
-119.1324205257724
 10
105.814033689348
 20
-119.1324205257724
 10
105.7692661904901
 20
-119.0876530257835
 10
105.7692661904901
 20
-119.0321963591308
 10
105.7692661904901
 20
-118.9770571924781
 10
105.814033689348
 20
-118.9322896924892
 10
105.8691728546079
 20
-118.9322896924892
 10
105.924276742091
 20
-118.9322896924892
 10
105.9690795187258
 20
-118.9770571924781
 10
105.9690795187258
 20
-119.0321963591308
 97
        0
 97
        0
 75
     2
 76
     1
 98
        0
  0
SPLINE
  5
79
330
41
100
AcDbEntity
  8
_U+30EC_U+30A4_U+30E4_U+30FC 1
 62
   179
420
  2234388
370
     9
100
AcDbSpline
210
0.0
220
0.0
230
1.0
 70
    11
 71
     3
 72
    17
 73
    13
 74
     0
 42
0.0000000001
 43
0.0000000001
 12
1.0
 22
0.0
 32
0.0
 13
1.0
 23
0.0
 33
0.0
 40
0.0
 40
0.0
 40
0.0
 40
0.0
 40
1.0
 40
1.0
 40
1.0
 40
2.0
 40
2.0
 40
2.0
 40
3.0
 40
3.0
 40
3.0
 40
4.0
 40
4.0
 40
4.0
 40
4.0
 10
105.9690795187258
 20
-124.412057468897
 30
0.0
 10
105.9690795187258
 20
-124.4675141355496
 30
0.0
 10
105.924276742091
 20
-124.5122816355385
 30
0.0
 10
105.8691728546079
 20
-124.5122816355385
 30
0.0
 10
105.814033689348
 20
-124.5122816355385
 30
0.0
 10
105.7692661904901
 20
-124.4675141355496
 30
0.0
 10
105.7692661904901
 20
-124.412057468897
 30
0.0
 10
105.7692661904901
 20
-124.3569183022442
 30
0.0
 10
105.814033689348
 20
-124.3121508022553
 30
0.0
 10
105.8691728546079
 20
-124.3121508022553
 30
0.0
 10
105.924276742091
 20
-124.3121508022553
 30
0.0
 10
105.9690795187258
 20
-124.3569183022442
 30
0.0
 10
105.9690795187258
 20
-124.412057468897
 30
0.0
  0
HATCH
  5
7A
330
41
100
AcDbEntity
  8
_U+30EC_U+30A4_U+30E4_U+30FC 1
 62
   179
420
  2234388
100
AcDbHatch
 10
0.0
 20
0.0
 30
0.0
210
0.0
220
0.0
230
1.0
  2
SOLID
 70
     1
 71
     0
 91
        1
 92
        1
 93
        1
 72
     4
 94
        3
 73
     0
 74
     1
 95
       17
 96
       13
 40
0.0
 40
0.0
 40
0.0
 40
0.0
 40
1.0
 40
1.0
 40
1.0
 40
2.0
 40
2.0
 40
2.0
 40
3.0
 40
3.0
 40
3.0
 40
4.0
 40
4.0
 40
4.0
 40
4.0
 10
105.9690795187258
 20
-124.412057468897
 10
105.9690795187258
 20
-124.4675141355496
 10
105.924276742091
 20
-124.5122816355385
 10
105.8691728546079
 20
-124.5122816355385
 10
105.814033689348
 20
-124.5122816355385
 10
105.7692661904901
 20
-124.4675141355496
 10
105.7692661904901
 20
-124.412057468897
 10
105.7692661904901
 20
-124.3569183022442
 10
105.814033689348
 20
-124.3121508022553
 10
105.8691728546079
 20
-124.3121508022553
 10
105.924276742091
 20
-124.3121508022553
 10
105.9690795187258
 20
-124.3569183022442
 10
105.9690795187258
 20
-124.412057468897
 97
        0
 97
        0
 75
     2
 76
     1
 98
        0
  0
SPLINE
  5
7B
330
41
100
AcDbEntity
  8
_U+30EC_U+30A4_U+30E4_U+30FC 1
 62
   179
420
  2234388
370
     9
100
AcDbSpline
210
0.0
220
0.0
230
1.0
 70
    11
 71
     3
 72
    17
 73
    13
 74
     0
 42
0.0000000001
 43
0.0000000001
 12
1.0
 22
0.0
 32
0.0
 13
1.0
 23
0.0
 33
0.0
 40
0.0
 40
0.0
 40
0.0
 40
0.0
 40
1.0
 40
1.0
 40
1.0
 40
2.0
 40
2.0
 40
2.0
 40
3.0
 40
3.0
 40
3.0
 40
4.0
 40
4.0
 40
4.0
 40
4.0
 10
76.92897803737826
 20
-139.8705327428098
 30
0.0
 10
76.92897803737826
 20
-139.9256366316854
 30
0.0
 10
76.88421053852038
 20
-139.9704394094521
 30
0.0
 10
76.82907137326043
 20
-139.9704394094521
 30
0.0
 10
76.77379109689296
 20
-139.9704394094521
 30
0.0
 10
76.7289883202582
 20
-139.9256366316854
 30
0.0
 10
76.7289883202582
 20
-139.8705327428098
 30
0.0
 10
76.7289883202582
 20
-139.8153935761574
 30
0.0
 10
76.77379109689296
 20
-139.7706260761682
 30
0.0
 10
76.82907137326043
 20
-139.7706260761682
 30
0.0
 10
76.88421053852038
 20
-139.7706260761682
 30
0.0
 10
76.92897803737826
 20
-139.8153935761574
 30
0.0
 10
76.92897803737826
 20
-139.8705327428098
 30
0.0
  0
HATCH
  5
7C
330
41
100
AcDbEntity
  8
_U+30EC_U+30A4_U+30E4_U+30FC 1
 62
   179
420
  2234388
100
AcDbHatch
 10
0.0
 20
0.0
 30
0.0
210
0.0
220
0.0
230
1.0
  2
SOLID
 70
     1
 71
     0
 91
        1
 92
        1
 93
        1
 72
     4
 94
        3
 73
     0
 74
     1
 95
       17
 96
       13
 40
0.0
 40
0.0
 40
0.0
 40
0.0
 40
1.0
 40
1.0
 40
1.0
 40
2.0
 40
2.0
 40
2.0
 40
3.0
 40
3.0
 40
3.0
 40
4.0
 40
4.0
 40
4.0
 40
4.0
 10
76.92897803737826
 20
-139.8705327428098
 10
76.92897803737826
 20
-139.9256366316854
 10
76.88421053852038
 20
-139.9704394094521
 10
76.82907137326043
 20
-139.9704394094521
 10
76.77379109689296
 20
-139.9704394094521
 10
76.7289883202582
 20
-139.9256366316854
 10
76.7289883202582
 20
-139.8705327428098
 10
76.7289883202582
 20
-139.8153935761574
 10
76.77379109689296
 20
-139.7706260761682
 10
76.82907137326043
 20
-139.7706260761682
 10
76.88421053852038
 20
-139.7706260761682
 10
76.92897803737826
 20
-139.8153935761574
 10
76.92897803737826
 20
-139.8705327428098
 97
        0
 97
        0
 75
     2
 76
     1
 98
        0
  0
POLYLINE
  5
7D
330
41
100
AcDbEntity
  8
_U+30EC_U+30A4_U+30E4_U+30FC 1
 62
   179
420
  2234388
370
     9
100
AcDb2dPolyline
 66
     1
 10
0.0
 20
0.0
 30
0.0
  0
VERTEX
  5
7E
330
7D
100
AcDbEntity
  8
_U+30EC_U+30A4_U+30E4_U+30FC 1
 62
   179
420
  2234388
370
     9
100
AcDbVertex
100
AcDb2dVertex
 10
85.69070781384791
 20
-144.0294652417701
 30
0.0
  0
VERTEX
  5
7F
330
7D
100
AcDbEntity
  8
_U+30EC_U+30A4_U+30E4_U+30FC 1
 62
   179
420
  2234388
370
     9
100
AcDbVertex
100
AcDb2dVertex
 10
85.69070781384791
 20
-138.7818957986375
 30
0.0
  0
SEQEND
  5
80
330
7D
100
AcDbEntity
  8
_U+30EC_U+30A4_U+30E4_U+30FC 1
 62
   179
420
  2234388
370
     9
  0
POLYLINE
  5
81
330
41
100
AcDbEntity
  8
_U+30EC_U+30A4_U+30E4_U+30FC 1
 62
   179
420
  2234388
370
     9
100
AcDb2dPolyline
 66
     1
 10
0.0
 20
0.0
 30
0.0
  0
VERTEX
  5
82
330
81
100
AcDbEntity
  8
_U+30EC_U+30A4_U+30E4_U+30FC 1
 62
   179
420
  2234388
370
     9
100
AcDbVertex
100
AcDb2dVertex
 10
79.16431909146107
 20
-143.3535077419396
 30
0.0
  0
VERTEX
  5
83
330
81
100
AcDbEntity
  8
_U+30EC_U+30A4_U+30E4_U+30FC 1
 62
   179
420
  2234388
370
     9
100
AcDbVertex
100
AcDb2dVertex
 10
87.00173583595635
 20
-143.3535077419396
 30
0.0
  0
SEQEND
  5
84
330
81
100
AcDbEntity
  8
_U+30EC_U+30A4_U+30E4_U+30FC 1
 62
   179
420
  2234388
370
     9
  0
INSERT
  5
86
330
41
100
AcDbEntity
  8
_U+30EC_U+30A4_U+30E4_U+30FC 1
100
AcDbBlockReference
  2
block 3
 10
0.0
 20
0.0
 30
0.0
  0
INSERT
  5
8F
330
41
100
AcDbEntity
  8
_U+30EC_U+30A4_U+30E4_U+30FC 1
100
AcDbBlockReference
  2
block 4
 10
0.0
 20
0.0
 30
0.0
  0
INSERT
  5
A2
330
41
100
AcDbEntity
  8
_U+30EC_U+30A4_U+30E4_U+30FC 1
100
AcDbBlockReference
  2
block 5
 10
0.0
 20
0.0
 30
0.0
  0
INSERT
  5
AB
330
41
100
AcDbEntity
  8
_U+30EC_U+30A4_U+30E4_U+30FC 1
100
AcDbBlockReference
  2
block 6
 10
0.0
 20
0.0
 30
0.0
  0
INSERT
  5
BE
330
41
100
AcDbEntity
  8
_U+30EC_U+30A4_U+30E4_U+30FC 1
100
AcDbBlockReference
  2
block 7
 10
0.0
 20
0.0
 30
0.0
  0
POLYLINE
  5
D8
330
41
100
AcDbEntity
  8
_U+30EC_U+30A4_U+30E4_U+30FC 1
 62
   179
420
  2234388
370
     9
100
AcDb2dPolyline
 66
     1
 10
0.0
 20
0.0
 30
0.0
  0
VERTEX
  5
D9
330
D8
100
AcDbEntity
  8
_U+30EC_U+30A4_U+30E4_U+30FC 1
 62
   179
420
  2234388
370
     9
100
AcDbVertex
100
AcDb2dVertex
 10
85.63165281535453
 20
-129.5738313564951
 30
0.0
  0
VERTEX
  5
DA
330
D8
100
AcDbEntity
  8
_U+30EC_U+30A4_U+30E4_U+30FC 1
 62
   179
420
  2234388
370
     9
100
AcDbVertex
100
AcDb2dVertex
 10
89.51545382738162
 20
-133.4578441333025
 30
0.0
  0
VERTEX
  5
DB
330
D8
100
AcDbEntity
  8
_U+30EC_U+30A4_U+30E4_U+30FC 1
 62
   179
420
  2234388
370
     9
100
AcDbVertex
100
AcDb2dVertex
 10
102.3620679440816
 20
-133.4578441333025
 30
0.0
  0
SEQEND
  5
DC
330
D8
100
AcDbEntity
  8
_U+30EC_U+30A4_U+30E4_U+30FC 1
 62
   179
420
  2234388
370
     9
  0
ENDBLK
  5
44
330
41
100
AcDbEntity
  8
0
100
AcDbBlockEnd
  0
BLOCK
  5
87
330
85
100
AcDbEntity
  8
0
100
AcDbBlockBegin
  2
block 3
 70
     0
 10
0.0
 20
0.0
 30
0.0
  3
block 3
  1

  0
SPLINE
  5
89
330
85
100
AcDbEntity
  8
_U+30EC_U+30A4_U+30E4_U+30FC 1
370
     0
100
AcDbSpline
210
0.0
220
0.0
230
1.0
 70
    11
 71
     3
 72
    32
 73
    28
 74
     0
 42
0.0000000001
 43
0.0000000001
 12
1.0
 22
0.0
 32
0.0
 13
1.0
 23
0.0
 33
0.0
 40
0.0
 40
0.0
 40
0.0
 40
0.0
 40
1.0
 40
1.0
 40
1.0
 40
2.0
 40
2.0
 40
2.0
 40
3.0
 40
3.0
 40
3.0
 40
4.0
 40
4.0
 40
4.0
 40
5.0
 40
5.0
 40
5.0
 40
6.0
 40
6.0
 40
6.0
 40
7.0
 40
7.0
 40
7.0
 40
8.0
 40
8.0
 40
8.0
 40
9.0
 40
9.0
 40
9.0
 40
9.0
 10
89.89080943933286
 20
-114.2128390556482
 30
0.0
 10
89.37456188086817
 20
-114.2128390556482
 30
0.0
 10
89.3661213969293
 20
-113.6585231920715
 30
0.0
 10
89.3661213969293
 20
-113.444927271986
 30
0.0
 10
89.3661213969293
 20
-113.2142781292485
 30
0.0
 10
89.38524167687244
 20
-112.5669446875701
 30
0.0
 10
89.92887774444486
 20
-112.5669446875701
 30
0.0
 10
90.1023383021272
 20
-112.5669446875701
 30
0.0
 10
90.34780135545125
 20
-112.6367078711464
 30
0.0
 10
90.38586966056326
 20
-112.9688150759245
 30
0.0
 10
90.38586966056326
 20
-112.9688150759245
 30
0.0
 10
90.17210148570351
 20
-112.9688150759245
 30
0.0
 10
90.17210148570351
 20
-112.9688150759245
 30
0.0
 10
90.1615939444735
 20
-112.9117987456436
 30
0.0
 10
90.1298990660092
 20
-112.7636596397778
 30
0.0
 10
89.92681068715372
 20
-112.7636596397778
 30
0.0
 10
89.6348388447788
 20
-112.7636596397778
 30
0.0
 10
89.59453122760137
 20
-113.0916327299736
 30
0.0
 10
89.58195662908021
 20
-113.2967881661203
 30
0.0
 10
89.67497420718196
 20
-113.2185844986051
 30
0.0
 10
89.74267033346712
 20
-113.1593288562588
 30
0.0
 10
89.9245713750883
 20
-113.1593288562588
 30
0.0
 10
90.10440535941835
 20
-113.1593288562588
 30
0.0
 10
90.40688474302328
 20
-113.2671603449471
 30
0.0
 10
90.40688474302328
 20
-113.6733371026581
 30
0.0
 10
90.40688474302328
 20
-113.9926974541407
 30
0.0
 10
90.20810273352437
 20
-114.2128390556482
 30
0.0
 10
89.89080943933286
 20
-114.2128390556482
 30
0.0
  0
SPLINE
  5
8A
330
85
100
AcDbEntity
  8
_U+30EC_U+30A4_U+30E4_U+30FC 1
370
     0
100
AcDbSpline
210
0.0
220
0.0
230
1.0
 70
    11
 71
     3
 72
    17
 73
    13
 74
     0
 42
0.0000000001
 43
0.0000000001
 12
1.0
 22
0.0
 32
0.0
 13
1.0
 23
0.0
 33
0.0
 40
0.0
 40
0.0
 40
0.0
 40
0.0
 40
1.0
 40
1.0
 40
1.0
 40
2.0
 40
2.0
 40
2.0
 40
3.0
 40
3.0
 40
3.0
 40
4.0
 40
4.0
 40
4.0
 40
4.0
 10
89.90769040721058
 20
-113.3539767511754
 30
0.0
 10
89.64534638600881
 20
-113.3539767511754
 30
0.0
 10
89.60727808089679
 20
-113.5655056139697
 30
0.0
 10
89.60727808089679
 20
-113.6817775865969
 30
0.0
 10
89.60727808089679
 20
-113.8573052015704
 30
0.0
 10
89.70253497106395
 20
-114.0202582180227
 30
0.0
 10
89.8865030699763
 20
-114.0202582180227
 30
0.0
 10
90.00708141196004
 20
-114.0202582180227
 30
0.0
 10
90.18278128170778
 20
-113.9610025756764
 30
0.0
 10
90.18278128170778
 20
-113.6754041599492
 30
0.0
 10
90.18278128170778
 20
-113.4511284438594
 30
0.0
 10
90.0430826597809
 20
-113.3539767511754
 30
0.0
 10
89.90769040721058
 20
-113.3539767511754
 30
0.0
  0
HATCH
  5
8B
330
85
100
AcDbEntity
  8
_U+30EC_U+30A4_U+30E4_U+30FC 1
 62
   179
420
  2234388
100
AcDbHatch
 10
0.0
 20
0.0
 30
0.0
210
0.0
220
0.0
230
1.0
  2
SOLID
 70
     1
 71
     0
 91
        2
 92
        1
 93
        1
 72
     4
 94
        3
 73
     0
 74
     1
 95
       32
 96
       28
 40
0.0
 40
0.0
 40
0.0
 40
0.0
 40
1.0
 40
1.0
 40
1.0
 40
2.0
 40
2.0
 40
2.0
 40
3.0
 40
3.0
 40
3.0
 40
4.0
 40
4.0
 40
4.0
 40
5.0
 40
5.0
 40
5.0
 40
6.0
 40
6.0
 40
6.0
 40
7.0
 40
7.0
 40
7.0
 40
8.0
 40
8.0
 40
8.0
 40
9.0
 40
9.0
 40
9.0
 40
9.0
 10
89.89080943933286
 20
-114.2128390556482
 10
89.37456188086817
 20
-114.2128390556482
 10
89.3661213969293
 20
-113.6585231920715
 10
89.3661213969293
 20
-113.444927271986
 10
89.3661213969293
 20
-113.2142781292485
 10
89.38524167687244
 20
-112.5669446875701
 10
89.92887774444486
 20
-112.5669446875701
 10
90.1023383021272
 20
-112.5669446875701
 10
90.34780135545125
 20
-112.6367078711464
 10
90.38586966056326
 20
-112.9688150759245
 10
90.38586966056326
 20
-112.9688150759245
 10
90.17210148570351
 20
-112.9688150759245
 10
90.17210148570351
 20
-112.9688150759245
 10
90.1615939444735
 20
-112.9117987456436
 10
90.1298990660092
 20
-112.7636596397778
 10
89.92681068715372
 20
-112.7636596397778
 10
89.6348388447788
 20
-112.7636596397778
 10
89.59453122760137
 20
-113.0916327299736
 10
89.58195662908021
 20
-113.2967881661203
 10
89.67497420718196
 20
-113.2185844986051
 10
89.74267033346712
 20
-113.1593288562588
 10
89.9245713750883
 20
-113.1593288562588
 10
90.10440535941835
 20
-113.1593288562588
 10
90.40688474302328
 20
-113.2671603449471
 10
90.40688474302328
 20
-113.6733371026581
 10
90.40688474302328
 20
-113.9926974541407
 10
90.20810273352437
 20
-114.2128390556482
 10
89.89080943933286
 20
-114.2128390556482
 97
        0
 97
        0
 92
        1
 93
        1
 72
     4
 94
        3
 73
     0
 74
     1
 95
       17
 96
       13
 40
0.0
 40
0.0
 40
0.0
 40
0.0
 40
1.0
 40
1.0
 40
1.0
 40
2.0
 40
2.0
 40
2.0
 40
3.0
 40
3.0
 40
3.0
 40
4.0
 40
4.0
 40
4.0
 40
4.0
 10
89.90769040721058
 20
-113.3539767511754
 10
89.64534638600881
 20
-113.3539767511754
 10
89.60727808089679
 20
-113.5655056139697
 10
89.60727808089679
 20
-113.6817775865969
 10
89.60727808089679
 20
-113.8573052015704
 10
89.70253497106395
 20
-114.0202582180227
 10
89.8865030699763
 20
-114.0202582180227
 10
90.00708141196004
 20
-114.0202582180227
 10
90.18278128170778
 20
-113.9610025756764
 10
90.18278128170778
 20
-113.6754041599492
 10
90.18278128170778
 20
-113.4511284438594
 10
90.0430826597809
 20
-113.3539767511754
 10
89.90769040721058
 20
-113.3539767511754
 97
        0
 97
        0
 75
     2
 76
     1
 98
        0
  0
SPLINE
  5
8C
330
85
100
AcDbEntity
  8
_U+30EC_U+30A4_U+30E4_U+30FC 1
370
     0
100
AcDbSpline
210
0.0
220
0.0
230
1.0
 70
    11
 71
     3
 72
    53
 73
    49
 74
     0
 42
0.0000000001
 43
0.0000000001
 12
1.0
 22
0.0
 32
0.0
 13
1.0
 23
0.0
 33
0.0
 40
0.0
 40
0.0
 40
0.0
 40
0.0
 40
1.0
 40
1.0
 40
1.0
 40
2.0
 40
2.0
 40
2.0
 40
3.0
 40
3.0
 40
3.0
 40
4.0
 40
4.0
 40
4.0
 40
5.0
 40
5.0
 40
5.0
 40
6.0
 40
6.0
 40
6.0
 40
7.0
 40
7.0
 40
7.0
 40
8.0
 40
8.0
 40
8.0
 40
9.0
 40
9.0
 40
9.0
 40
10.0
 40
10.0
 40
10.0
 40
11.0
 40
11.0
 40
11.0
 40
12.0
 40
12.0
 40
12.0
 40
13.0
 40
13.0
 40
13.0
 40
14.0
 40
14.0
 40
14.0
 40
15.0
 40
15.0
 40
15.0
 40
16.0
 40
16.0
 40
16.0
 40
16.0
 10
91.04439966256876
 20
-114.2128390556482
 30
0.0
 10
90.96602374027933
 20
-114.2128390556482
 30
0.0
 10
90.86456567823872
 20
-114.1959580877705
 30
0.0
 10
90.76293536142386
 20
-114.1323960760676
 30
0.0
 10
90.58947480374152
 20
-114.0223252753139
 30
0.0
 10
90.56828746650724
 20
-113.8912393921001
 30
0.0
 10
90.54933944133836
 20
-113.7834079034118
 30
0.0
 10
90.54933944133836
 20
-113.7834079034118
 30
0.0
 10
90.77137584536271
 20
-113.7834079034118
 30
0.0
 10
90.77137584536271
 20
-113.7834079034118
 30
0.0
 10
90.82649737312671
 20
-113.9821899129107
 30
0.0
 10
90.95344914175817
 20
-114.0118177340839
 30
0.0
 10
91.04646671985992
 20
-114.0118177340839
 30
0.0
 10
91.18599308701253
 20
-114.0118177340839
 30
0.0
 10
91.33843856223484
 20
-113.9124267293344
 30
0.0
 10
91.33843856223484
 20
-113.6797105293058
 30
0.0
 10
91.33843856223484
 20
-113.4237399347517
 30
0.0
 10
91.1586045779048
 20
-113.3539767511754
 30
0.0
 10
91.03802623592105
 20
-113.3539767511754
 30
0.0
 10
91.00633135745676
 20
-113.3539767511754
 30
0.0
 10
90.86456567823872
 20
-113.3539767511754
 30
0.0
 10
90.77568221471928
 20
-113.482995577098
 30
0.0
 10
90.77568221471928
 20
-113.482995577098
 30
0.0
 10
90.60015459974579
 20
-113.4638752971549
 30
0.0
 10
90.60015459974579
 20
-113.4638752971549
 30
0.0
 10
90.60015459974579
 20
-113.4638752971549
 30
0.0
 10
90.72073294172954
 20
-112.6177598459775
 30
0.0
 10
90.72073294172954
 20
-112.6177598459775
 30
0.0
 10
90.72073294172954
 20
-112.6177598459775
 30
0.0
 10
91.49898001184748
 20
-112.6177598459775
 30
0.0
 10
91.49898001184748
 20
-112.6177598459775
 30
0.0
 10
91.49898001184748
 20
-112.6177598459775
 30
0.0
 10
91.49898001184748
 20
-112.8124077408941
 30
0.0
 10
91.49898001184748
 20
-112.8124077408941
 30
0.0
 10
91.49898001184748
 20
-112.8124077408941
 30
0.0
 10
90.8835137034076
 20
-112.8124077408941
 30
0.0
 10
90.8835137034076
 20
-112.8124077408941
 30
0.0
 10
90.8835137034076
 20
-112.8124077408941
 30
0.0
 10
90.81805688918786
 20
-113.2354654664828
 30
0.0
 10
90.81805688918786
 20
-113.2354654664828
 30
0.0
 10
90.8793795888253
 20
-113.2015312759531
 30
0.0
 10
90.96188962569703
 20
-113.1613959135499
 30
0.0
 10
91.08022865561536
 20
-113.1613959135499
 30
0.0
 10
91.33413219287827
 20
-113.1613959135499
 30
0.0
 10
91.57132701703773
 20
-113.3476033245277
 30
0.0
 10
91.57132701703773
 20
-113.6605902493626
 30
0.0
 10
91.57132701703773
 20
-113.9780557983284
 30
0.0
 10
91.3468790461737
 20
-114.2128390556482
 30
0.0
 10
91.04439966256876
 20
-114.2128390556482
 30
0.0
  0
HATCH
  5
8D
330
85
100
AcDbEntity
  8
_U+30EC_U+30A4_U+30E4_U+30FC 1
 62
   179
420
  2234388
100
AcDbHatch
 10
0.0
 20
0.0
 30
0.0
210
0.0
220
0.0
230
1.0
  2
SOLID
 70
     1
 71
     0
 91
        1
 92
        1
 93
        1
 72
     4
 94
        3
 73
     0
 74
     1
 95
       53
 96
       49
 40
0.0
 40
0.0
 40
0.0
 40
0.0
 40
1.0
 40
1.0
 40
1.0
 40
2.0
 40
2.0
 40
2.0
 40
3.0
 40
3.0
 40
3.0
 40
4.0
 40
4.0
 40
4.0
 40
5.0
 40
5.0
 40
5.0
 40
6.0
 40
6.0
 40
6.0
 40
7.0
 40
7.0
 40
7.0
 40
8.0
 40
8.0
 40
8.0
 40
9.0
 40
9.0
 40
9.0
 40
10.0
 40
10.0
 40
10.0
 40
11.0
 40
11.0
 40
11.0
 40
12.0
 40
12.0
 40
12.0
 40
13.0
 40
13.0
 40
13.0
 40
14.0
 40
14.0
 40
14.0
 40
15.0
 40
15.0
 40
15.0
 40
16.0
 40
16.0
 40
16.0
 40
16.0
 10
91.04439966256876
 20
-114.2128390556482
 10
90.96602374027933
 20
-114.2128390556482
 10
90.86456567823872
 20
-114.1959580877705
 10
90.76293536142386
 20
-114.1323960760676
 10
90.58947480374152
 20
-114.0223252753139
 10
90.56828746650724
 20
-113.8912393921001
 10
90.54933944133836
 20
-113.7834079034118
 10
90.54933944133836
 20
-113.7834079034118
 10
90.77137584536271
 20
-113.7834079034118
 10
90.77137584536271
 20
-113.7834079034118
 10
90.82649737312671
 20
-113.9821899129107
 10
90.95344914175817
 20
-114.0118177340839
 10
91.04646671985992
 20
-114.0118177340839
 10
91.18599308701253
 20
-114.0118177340839
 10
91.33843856223484
 20
-113.9124267293344
 10
91.33843856223484
 20
-113.6797105293058
 10
91.33843856223484
 20
-113.4237399347517
 10
91.1586045779048
 20
-113.3539767511754
 10
91.03802623592105
 20
-113.3539767511754
 10
91.00633135745676
 20
-113.3539767511754
 10
90.86456567823872
 20
-113.3539767511754
 10
90.77568221471928
 20
-113.482995577098
 10
90.77568221471928
 20
-113.482995577098
 10
90.60015459974579
 20
-113.4638752971549
 10
90.60015459974579
 20
-113.4638752971549
 10
90.60015459974579
 20
-113.4638752971549
 10
90.72073294172954
 20
-112.6177598459775
 10
90.72073294172954
 20
-112.6177598459775
 10
90.72073294172954
 20
-112.6177598459775
 10
91.49898001184748
 20
-112.6177598459775
 10
91.49898001184748
 20
-112.6177598459775
 10
91.49898001184748
 20
-112.6177598459775
 10
91.49898001184748
 20
-112.8124077408941
 10
91.49898001184748
 20
-112.8124077408941
 10
91.49898001184748
 20
-112.8124077408941
 10
90.8835137034076
 20
-112.8124077408941
 10
90.8835137034076
 20
-112.8124077408941
 10
90.8835137034076
 20
-112.8124077408941
 10
90.81805688918786
 20
-113.2354654664828
 10
90.81805688918786
 20
-113.2354654664828
 10
90.8793795888253
 20
-113.2015312759531
 10
90.96188962569703
 20
-113.1613959135499
 10
91.08022865561536
 20
-113.1613959135499
 10
91.33413219287827
 20
-113.1613959135499
 10
91.57132701703773
 20
-113.3476033245277
 10
91.57132701703773
 20
-113.6605902493626
 10
91.57132701703773
 20
-113.9780557983284
 10
91.3468790461737
 20
-114.2128390556482
 10
91.04439966256876
 20
-114.2128390556482
 97
        0
 97
        0
 75
     2
 76
     1
 98
        0
  0
ENDBLK
  5
88
330
85
100
AcDbEntity
  8
0
100
AcDbBlockEnd
  0
BLOCK
  5
90
330
8E
100
AcDbEntity
  8
0
100
AcDbBlockBegin
  2
block 4
 70
     0
 10
0.0
 20
0.0
 30
0.0
  3
block 4
  1

  0
SPLINE
  5
92
330
8E
100
AcDbEntity
  8
_U+30EC_U+30A4_U+30E4_U+30FC 1
370
     0
100
AcDbSpline
210
0.0
220
0.0
230
1.0
 70
    11
 71
     3
 72
    26
 73
    22
 74
     0
 42
0.0000000001
 43
0.0000000001
 12
1.0
 22
0.0
 32
0.0
 13
1.0
 23
0.0
 33
0.0
 40
0.0
 40
0.0
 40
0.0
 40
0.0
 40
1.0
 40
1.0
 40
1.0
 40
2.0
 40
2.0
 40
2.0
 40
3.0
 40
3.0
 40
3.0
 40
4.0
 40
4.0
 40
4.0
 40
5.0
 40
5.0
 40
5.0
 40
6.0
 40
6.0
 40
6.0
 40
7.0
 40
7.0
 40
7.0
 40
7.0
 10
81.47874753822407
 20
-142.7151475337657
 30
0.0
 10
81.47874753822407
 20
-142.7151475337657
 30
0.0
 10
81.47874753822407
 20
-141.6109944307431
 30
0.0
 10
81.47874753822407
 20
-141.6109944307431
 30
0.0
 10
81.47874753822407
 20
-141.6109944307431
 30
0.0
 10
81.14870739073713
 20
-141.6109944307431
 30
0.0
 10
81.14870739073713
 20
-141.6109944307431
 30
0.0
 10
81.14870739073713
 20
-141.6109944307431
 30
0.0
 10
81.14870739073713
 20
-141.4628553248774
 30
0.0
 10
81.14870739073713
 20
-141.4628553248774
 30
0.0
 10
81.48081459551521
 20
-141.4480414142908
 30
0.0
 10
81.52732338456609
 20
-141.285432907387
 30
0.0
 10
81.55695120573924
 20
-141.1710557372767
 30
0.0
 10
81.55695120573924
 20
-141.1710557372767
 30
0.0
 10
81.70302325431383
 20
-141.1710557372767
 30
0.0
 10
81.70302325431383
 20
-141.1710557372767
 30
0.0
 10
81.70302325431383
 20
-141.1710557372767
 30
0.0
 10
81.70302325431383
 20
-142.7151475337657
 30
0.0
 10
81.70302325431383
 20
-142.7151475337657
 30
0.0
 10
81.70302325431383
 20
-142.7151475337657
 30
0.0
 10
81.47874753822407
 20
-142.7151475337657
 30
0.0
 10
81.47874753822407
 20
-142.7151475337657
 30
0.0
  0
HATCH
  5
93
330
8E
100
AcDbEntity
  8
_U+30EC_U+30A4_U+30E4_U+30FC 1
 62
   179
420
  2234388
100
AcDbHatch
 10
0.0
 20
0.0
 30
0.0
210
0.0
220
0.0
230
1.0
  2
SOLID
 70
     1
 71
     0
 91
        1
 92
        1
 93
        1
 72
     4
 94
        3
 73
     0
 74
     1
 95
       26
 96
       22
 40
0.0
 40
0.0
 40
0.0
 40
0.0
 40
1.0
 40
1.0
 40
1.0
 40
2.0
 40
2.0
 40
2.0
 40
3.0
 40
3.0
 40
3.0
 40
4.0
 40
4.0
 40
4.0
 40
5.0
 40
5.0
 40
5.0
 40
6.0
 40
6.0
 40
6.0
 40
7.0
 40
7.0
 40
7.0
 40
7.0
 10
81.47874753822407
 20
-142.7151475337657
 10
81.47874753822407
 20
-142.7151475337657
 10
81.47874753822407
 20
-141.6109944307431
 10
81.47874753822407
 20
-141.6109944307431
 10
81.47874753822407
 20
-141.6109944307431
 10
81.14870739073713
 20
-141.6109944307431
 10
81.14870739073713
 20
-141.6109944307431
 10
81.14870739073713
 20
-141.6109944307431
 10
81.14870739073713
 20
-141.4628553248774
 10
81.14870739073713
 20
-141.4628553248774
 10
81.48081459551521
 20
-141.4480414142908
 10
81.52732338456609
 20
-141.285432907387
 10
81.55695120573924
 20
-141.1710557372767
 10
81.55695120573924
 20
-141.1710557372767
 10
81.70302325431383
 20
-141.1710557372767
 10
81.70302325431383
 20
-141.1710557372767
 10
81.70302325431383
 20
-141.1710557372767
 10
81.70302325431383
 20
-142.7151475337657
 10
81.70302325431383
 20
-142.7151475337657
 10
81.70302325431383
 20
-142.7151475337657
 10
81.47874753822407
 20
-142.7151475337657
 10
81.47874753822407
 20
-142.7151475337657
 97
        0
 97
        0
 75
     2
 76
     1
 98
        0
  0
SPLINE
  5
94
330
8E
100
AcDbEntity
  8
_U+30EC_U+30A4_U+30E4_U+30FC 1
370
     0
100
AcDbSpline
210
0.0
220
0.0
230
1.0
 70
    11
 71
     3
 72
    32
 73
    28
 74
     0
 42
0.0000000001
 43
0.0000000001
 12
1.0
 22
0.0
 32
0.0
 13
1.0
 23
0.0
 33
0.0
 40
0.0
 40
0.0
 40
0.0
 40
0.0
 40
1.0
 40
1.0
 40
1.0
 40
2.0
 40
2.0
 40
2.0
 40
3.0
 40
3.0
 40
3.0
 40
4.0
 40
4.0
 40
4.0
 40
5.0
 40
5.0
 40
5.0
 40
6.0
 40
6.0
 40
6.0
 40
7.0
 40
7.0
 40
7.0
 40
8.0
 40
8.0
 40
8.0
 40
9.0
 40
9.0
 40
9.0
 40
9.0
 10
82.70847437168399
 20
-142.7661349469474
 30
0.0
 10
82.1922268132193
 20
-142.7661349469474
 30
0.0
 10
82.18378632928045
 20
-142.2118190833707
 30
0.0
 10
82.18378632928045
 20
-141.9982231632852
 30
0.0
 10
82.18378632928045
 20
-141.767746275322
 30
0.0
 10
82.20290660922359
 20
-141.120068324095
 30
0.0
 10
82.74654267679601
 20
-141.120068324095
 30
0.0
 10
82.92000323447833
 20
-141.120068324095
 30
0.0
 10
83.16529403302812
 20
-141.1900037624456
 30
0.0
 10
83.2035345929144
 20
-141.5221109672237
 30
0.0
 10
83.2035345929144
 20
-141.5221109672237
 30
0.0
 10
82.98976641805464
 20
-141.5221109672237
 30
0.0
 10
82.98976641805464
 20
-141.5221109672237
 30
0.0
 10
82.97925887682463
 20
-141.465266891717
 30
0.0
 10
82.94756399836034
 20
-141.3171277858513
 30
0.0
 10
82.74447561950485
 20
-141.3171277858513
 30
0.0
 10
82.45250377712993
 20
-141.3171277858513
 30
0.0
 10
82.41219615995252
 20
-141.6451008760471
 30
0.0
 10
82.39962156143135
 20
-141.8500840574194
 30
0.0
 10
82.4926391395331
 20
-141.7718803899043
 30
0.0
 10
82.56033526581825
 20
-141.712624747558
 30
0.0
 10
82.74223630743944
 20
-141.712624747558
 30
0.0
 10
82.92207029176949
 20
-141.712624747558
 30
0.0
 10
83.22454967537442
 20
-141.8204562362463
 30
0.0
 10
83.22454967537442
 20
-142.2266329939572
 30
0.0
 10
83.22454967537442
 20
-142.5459933454399
 30
0.0
 10
83.0257676658755
 20
-142.7661349469474
 30
0.0
 10
82.70847437168399
 20
-142.7661349469474
 30
0.0
  0
SPLINE
  5
95
330
8E
100
AcDbEntity
  8
_U+30EC_U+30A4_U+30E4_U+30FC 1
370
     0
100
AcDbSpline
210
0.0
220
0.0
230
1.0
 70
    11
 71
     3
 72
    17
 73
    13
 74
     0
 42
0.0000000001
 43
0.0000000001
 12
1.0
 22
0.0
 32
0.0
 13
1.0
 23
0.0
 33
0.0
 40
0.0
 40
0.0
 40
0.0
 40
0.0
 40
1.0
 40
1.0
 40
1.0
 40
2.0
 40
2.0
 40
2.0
 40
3.0
 40
3.0
 40
3.0
 40
4.0
 40
4.0
 40
4.0
 40
4.0
 10
82.72535533956172
 20
-141.9072726424746
 30
0.0
 10
82.46301131835995
 20
-141.9072726424746
 30
0.0
 10
82.42494301324794
 20
-142.1188015052689
 30
0.0
 10
82.42494301324794
 20
-142.2349012231218
 30
0.0
 10
82.42494301324794
 20
-142.4106010928696
 30
0.0
 10
82.52019990341509
 20
-142.5735541093219
 30
0.0
 10
82.70416800232744
 20
-142.5735541093219
 30
0.0
 10
82.82474634431118
 20
-142.5735541093219
 30
0.0
 10
83.00044621405893
 20
-142.5142984669756
 30
0.0
 10
83.00044621405893
 20
-142.2287000512484
 30
0.0
 10
83.00044621405893
 20
-142.0044243351586
 30
0.0
 10
82.86074759213204
 20
-141.9072726424746
 30
0.0
 10
82.72535533956172
 20
-141.9072726424746
 30
0.0
  0
HATCH
  5
96
330
8E
100
AcDbEntity
  8
_U+30EC_U+30A4_U+30E4_U+30FC 1
 62
   179
420
  2234388
100
AcDbHatch
 10
0.0
 20
0.0
 30
0.0
210
0.0
220
0.0
230
1.0
  2
SOLID
 70
     1
 71
     0
 91
        2
 92
        1
 93
        1
 72
     4
 94
        3
 73
     0
 74
     1
 95
       32
 96
       28
 40
0.0
 40
0.0
 40
0.0
 40
0.0
 40
1.0
 40
1.0
 40
1.0
 40
2.0
 40
2.0
 40
2.0
 40
3.0
 40
3.0
 40
3.0
 40
4.0
 40
4.0
 40
4.0
 40
5.0
 40
5.0
 40
5.0
 40
6.0
 40
6.0
 40
6.0
 40
7.0
 40
7.0
 40
7.0
 40
8.0
 40
8.0
 40
8.0
 40
9.0
 40
9.0
 40
9.0
 40
9.0
 10
82.70847437168399
 20
-142.7661349469474
 10
82.1922268132193
 20
-142.7661349469474
 10
82.18378632928045
 20
-142.2118190833707
 10
82.18378632928045
 20
-141.9982231632852
 10
82.18378632928045
 20
-141.767746275322
 10
82.20290660922359
 20
-141.120068324095
 10
82.74654267679601
 20
-141.120068324095
 10
82.92000323447833
 20
-141.120068324095
 10
83.16529403302812
 20
-141.1900037624456
 10
83.2035345929144
 20
-141.5221109672237
 10
83.2035345929144
 20
-141.5221109672237
 10
82.98976641805464
 20
-141.5221109672237
 10
82.98976641805464
 20
-141.5221109672237
 10
82.97925887682463
 20
-141.465266891717
 10
82.94756399836034
 20
-141.3171277858513
 10
82.74447561950485
 20
-141.3171277858513
 10
82.45250377712993
 20
-141.3171277858513
 10
82.41219615995252
 20
-141.6451008760471
 10
82.39962156143135
 20
-141.8500840574194
 10
82.4926391395331
 20
-141.7718803899043
 10
82.56033526581825
 20
-141.712624747558
 10
82.74223630743944
 20
-141.712624747558
 10
82.92207029176949
 20
-141.712624747558
 10
83.22454967537442
 20
-141.8204562362463
 10
83.22454967537442
 20
-142.2266329939572
 10
83.22454967537442
 20
-142.5459933454399
 10
83.0257676658755
 20
-142.7661349469474
 10
82.70847437168399
 20
-142.7661349469474
 97
        0
 97
        0
 92
        1
 93
        1
 72
     4
 94
        3
 73
     0
 74
     1
 95
       17
 96
       13
 40
0.0
 40
0.0
 40
0.0
 40
0.0
 40
1.0
 40
1.0
 40
1.0
 40
2.0
 40
2.0
 40
2.0
 40
3.0
 40
3.0
 40
3.0
 40
4.0
 40
4.0
 40
4.0
 40
4.0
 10
82.72535533956172
 20
-141.9072726424746
 10
82.46301131835995
 20
-141.9072726424746
 10
82.42494301324794
 20
-142.1188015052689
 10
82.42494301324794
 20
-142.2349012231218
 10
82.42494301324794
 20
-142.4106010928696
 10
82.52019990341509
 20
-142.5735541093219
 10
82.70416800232744
 20
-142.5735541093219
 10
82.82474634431118
 20
-142.5735541093219
 10
83.00044621405893
 20
-142.5142984669756
 10
83.00044621405893
 20
-142.2287000512484
 10
83.00044621405893
 20
-142.0044243351586
 10
82.86074759213204
 20
-141.9072726424746
 10
82.72535533956172
 20
-141.9072726424746
 97
        0
 97
        0
 75
     2
 76
     1
 98
        0
  0
POLYLINE
  5
97
330
8E
100
AcDbEntity
  8
_U+30EC_U+30A4_U+30E4_U+30FC 1
370
     0
100
AcDb2dPolyline
 66
     1
 10
0.0
 20
0.0
 30
0.0
  0
VERTEX
  5
98
330
97
100
AcDbEntity
  8
_U+30EC_U+30A4_U+30E4_U+30FC 1
370
     0
100
AcDbVertex
100
AcDb2dVertex
 10
83.44107392662238
 20
-142.7151475337657
 30
0.0
  0
VERTEX
  5
99
330
97
100
AcDbEntity
  8
_U+30EC_U+30A4_U+30E4_U+30FC 1
370
     0
100
AcDbVertex
100
AcDb2dVertex
 10
83.44107392662238
 20
-142.4636555633424
 30
0.0
  0
VERTEX
  5
9A
330
97
100
AcDbEntity
  8
_U+30EC_U+30A4_U+30E4_U+30FC 1
370
     0
100
AcDbVertex
100
AcDb2dVertex
 10
83.69273815181988
 20
-142.4636555633424
 30
0.0
  0
VERTEX
  5
9B
330
97
100
AcDbEntity
  8
_U+30EC_U+30A4_U+30E4_U+30FC 1
370
     0
100
AcDbVertex
100
AcDb2dVertex
 10
83.69273815181988
 20
-142.7151475337657
 30
0.0
  0
VERTEX
  5
9C
330
97
100
AcDbEntity
  8
_U+30EC_U+30A4_U+30E4_U+30FC 1
370
     0
100
AcDbVertex
100
AcDb2dVertex
 10
83.44107392662238
 20
-142.7151475337657
 30
0.0
  0
SEQEND
  5
9D
330
97
100
AcDbEntity
  8
_U+30EC_U+30A4_U+30E4_U+30FC 1
370
     0
  0
HATCH
  5
9E
330
8E
100
AcDbEntity
  8
_U+30EC_U+30A4_U+30E4_U+30FC 1
 62
   179
420
  2234388
100
AcDbHatch
 10
0.0
 20
0.0
 30
0.0
210
0.0
220
0.0
230
1.0
  2
SOLID
 70
     1
 71
     0
 91
        1
 92
        1
 93
        4
 72
     1
 10
83.44107392662238
 20
-142.7151475337657
 11
83.44107392662238
 21
-142.4636555633424
 72
     1
 10
83.44107392662238
 20
-142.4636555633424
 11
83.69273815181988
 21
-142.4636555633424
 72
     1
 10
83.69273815181988
 20
-142.4636555633424
 11
83.69273815181988
 21
-142.7151475337657
 72
     1
 10
83.69273815181988
 20
-142.7151475337657
 11
83.44107392662238
 21
-142.7151475337657
 97
        0
 75
     2
 76
     1
 98
        0
  0
SPLINE
  5
9F
330
8E
100
AcDbEntity
  8
_U+30EC_U+30A4_U+30E4_U+30FC 1
370
     0
100
AcDbSpline
210
0.0
220
0.0
230
1.0
 70
    11
 71
     3
 72
    53
 73
    49
 74
     0
 42
0.0000000001
 43
0.0000000001
 12
1.0
 22
0.0
 32
0.0
 13
1.0
 23
0.0
 33
0.0
 40
0.0
 40
0.0
 40
0.0
 40
0.0
 40
1.0
 40
1.0
 40
1.0
 40
2.0
 40
2.0
 40
2.0
 40
3.0
 40
3.0
 40
3.0
 40
4.0
 40
4.0
 40
4.0
 40
5.0
 40
5.0
 40
5.0
 40
6.0
 40
6.0
 40
6.0
 40
7.0
 40
7.0
 40
7.0
 40
8.0
 40
8.0
 40
8.0
 40
9.0
 40
9.0
 40
9.0
 40
10.0
 40
10.0
 40
10.0
 40
11.0
 40
11.0
 40
11.0
 40
12.0
 40
12.0
 40
12.0
 40
13.0
 40
13.0
 40
13.0
 40
14.0
 40
14.0
 40
14.0
 40
15.0
 40
15.0
 40
15.0
 40
16.0
 40
16.0
 40
16.0
 40
16.0
 10
84.41035154139742
 20
-142.7661349469474
 30
0.0
 10
84.33197561910798
 20
-142.7661349469474
 30
0.0
 10
84.23051755706737
 20
-142.7492539790696
 30
0.0
 10
84.12888724025251
 20
-142.6855197125925
 30
0.0
 10
83.95542668257018
 20
-142.575621166613
 30
0.0
 10
83.93423934533588
 20
-142.444363028625
 30
0.0
 10
83.91529132016701
 20
-142.3368760494852
 30
0.0
 10
83.91529132016701
 20
-142.3368760494852
 30
0.0
 10
84.13732772419137
 20
-142.3368760494852
 30
0.0
 10
84.13732772419137
 20
-142.3368760494852
 30
0.0
 10
84.19244925195537
 20
-142.5353135494356
 30
0.0
 10
84.31940102058682
 20
-142.5649413706088
 30
0.0
 10
84.41241859868856
 20
-142.5649413706088
 30
0.0
 10
84.55194496584119
 20
-142.5649413706088
 30
0.0
 10
84.7043904410635
 20
-142.4657226206336
 30
0.0
 10
84.7043904410635
 20
-142.2328341658307
 30
0.0
 10
84.7043904410635
 20
-141.9772080808251
 30
0.0
 10
84.52455645673345
 20
-141.9072726424746
 30
0.0
 10
84.4039781147497
 20
-141.9072726424746
 30
0.0
 10
84.37228323628541
 20
-141.9072726424746
 30
0.0
 10
84.23051755706737
 20
-141.9072726424746
 30
0.0
 10
84.14163409354794
 20
-142.0364637231714
 30
0.0
 10
84.14163409354794
 20
-142.0364637231714
 30
0.0
 10
83.96610647857445
 20
-142.0171711884541
 30
0.0
 10
83.96610647857445
 20
-142.0171711884541
 30
0.0
 10
83.96610647857445
 20
-142.0171711884541
 30
0.0
 10
84.08668482055819
 20
-141.1710557372767
 30
0.0
 10
84.08668482055819
 20
-141.1710557372767
 30
0.0
 10
84.08668482055819
 20
-141.1710557372767
 30
0.0
 10
84.86510414545039
 20
-141.1710557372767
 30
0.0
 10
84.86510414545039
 20
-141.1710557372767
 30
0.0
 10
84.86510414545039
 20
-141.1710557372767
 30
0.0
 10
84.86510414545039
 20
-141.3657036321933
 30
0.0
 10
84.86510414545039
 20
-141.3657036321933
 30
0.0
 10
84.86510414545039
 20
-141.3657036321933
 30
0.0
 10
84.24946558223625
 20
-141.3657036321933
 30
0.0
 10
84.24946558223625
 20
-141.3657036321933
 30
0.0
 10
84.24946558223625
 20
-141.3657036321933
 30
0.0
 10
84.1840087680165
 20
-141.788761357782
 30
0.0
 10
84.1840087680165
 20
-141.788761357782
 30
0.0
 10
84.24533146765395
 20
-141.754654912478
 30
0.0
 10
84.32784150452568
 20
-141.7146918048491
 30
0.0
 10
84.44618053444401
 20
-141.7146918048491
 30
0.0
 10
84.70008407170693
 20
-141.7146918048491
 30
0.0
 10
84.93710664109211
 20
-141.9007269610526
 30
0.0
 10
84.93710664109211
 20
-142.2138861406618
 30
0.0
 10
84.93710664109211
 20
-142.5311794348533
 30
0.0
 10
84.71283092500235
 20
-142.7661349469474
 30
0.0
 10
84.41035154139742
 20
-142.7661349469474
 30
0.0
  0
HATCH
  5
A0
330
8E
100
AcDbEntity
  8
_U+30EC_U+30A4_U+30E4_U+30FC 1
 62
   179
420
  2234388
100
AcDbHatch
 10
0.0
 20
0.0
 30
0.0
210
0.0
220
0.0
230
1.0
  2
SOLID
 70
     1
 71
     0
 91
        1
 92
        1
 93
        1
 72
     4
 94
        3
 73
     0
 74
     1
 95
       53
 96
       49
 40
0.0
 40
0.0
 40
0.0
 40
0.0
 40
1.0
 40
1.0
 40
1.0
 40
2.0
 40
2.0
 40
2.0
 40
3.0
 40
3.0
 40
3.0
 40
4.0
 40
4.0
 40
4.0
 40
5.0
 40
5.0
 40
5.0
 40
6.0
 40
6.0
 40
6.0
 40
7.0
 40
7.0
 40
7.0
 40
8.0
 40
8.0
 40
8.0
 40
9.0
 40
9.0
 40
9.0
 40
10.0
 40
10.0
 40
10.0
 40
11.0
 40
11.0
 40
11.0
 40
12.0
 40
12.0
 40
12.0
 40
13.0
 40
13.0
 40
13.0
 40
14.0
 40
14.0
 40
14.0
 40
15.0
 40
15.0
 40
15.0
 40
16.0
 40
16.0
 40
16.0
 40
16.0
 10
84.41035154139742
 20
-142.7661349469474
 10
84.33197561910798
 20
-142.7661349469474
 10
84.23051755706737
 20
-142.7492539790696
 10
84.12888724025251
 20
-142.6855197125925
 10
83.95542668257018
 20
-142.575621166613
 10
83.93423934533588
 20
-142.444363028625
 10
83.91529132016701
 20
-142.3368760494852
 10
83.91529132016701
 20
-142.3368760494852
 10
84.13732772419137
 20
-142.3368760494852
 10
84.13732772419137
 20
-142.3368760494852
 10
84.19244925195537
 20
-142.5353135494356
 10
84.31940102058682
 20
-142.5649413706088
 10
84.41241859868856
 20
-142.5649413706088
 10
84.55194496584119
 20
-142.5649413706088
 10
84.7043904410635
 20
-142.4657226206336
 10
84.7043904410635
 20
-142.2328341658307
 10
84.7043904410635
 20
-141.9772080808251
 10
84.52455645673345
 20
-141.9072726424746
 10
84.4039781147497
 20
-141.9072726424746
 10
84.37228323628541
 20
-141.9072726424746
 10
84.23051755706737
 20
-141.9072726424746
 10
84.14163409354794
 20
-142.0364637231714
 10
84.14163409354794
 20
-142.0364637231714
 10
83.96610647857445
 20
-142.0171711884541
 10
83.96610647857445
 20
-142.0171711884541
 10
83.96610647857445
 20
-142.0171711884541
 10
84.08668482055819
 20
-141.1710557372767
 10
84.08668482055819
 20
-141.1710557372767
 10
84.08668482055819
 20
-141.1710557372767
 10
84.86510414545039
 20
-141.1710557372767
 10
84.86510414545039
 20
-141.1710557372767
 10
84.86510414545039
 20
-141.1710557372767
 10
84.86510414545039
 20
-141.3657036321933
 10
84.86510414545039
 20
-141.3657036321933
 10
84.86510414545039
 20
-141.3657036321933
 10
84.24946558223625
 20
-141.3657036321933
 10
84.24946558223625
 20
-141.3657036321933
 10
84.24946558223625
 20
-141.3657036321933
 10
84.1840087680165
 20
-141.788761357782
 10
84.1840087680165
 20
-141.788761357782
 10
84.24533146765395
 20
-141.754654912478
 10
84.32784150452568
 20
-141.7146918048491
 10
84.44618053444401
 20
-141.7146918048491
 10
84.70008407170693
 20
-141.7146918048491
 10
84.93710664109211
 20
-141.9007269610526
 10
84.93710664109211
 20
-142.2138861406618
 10
84.93710664109211
 20
-142.5311794348533
 10
84.71283092500235
 20
-142.7661349469474
 10
84.41035154139742
 20
-142.7661349469474
 97
        0
 97
        0
 75
     2
 76
     1
 98
        0
  0
ENDBLK
  5
91
330
8E
100
AcDbEntity
  8
0
100
AcDbBlockEnd
  0
BLOCK
  5
A3
330
A1
100
AcDbEntity
  8
0
100
AcDbBlockBegin
  2
block 5
 70
     0
 10
0.0
 20
0.0
 30
0.0
  3
block 5
  1

  0
SPLINE
  5
A5
330
A1
100
AcDbEntity
  8
_U+30EC_U+30A4_U+30E4_U+30FC 1
370
     0
100
AcDbSpline
210
0.0
220
0.0
230
1.0
 70
    11
 71
     3
 72
    32
 73
    28
 74
     0
 42
0.0000000001
 43
0.0000000001
 12
1.0
 22
0.0
 32
0.0
 13
1.0
 23
0.0
 33
0.0
 40
0.0
 40
0.0
 40
0.0
 40
0.0
 40
1.0
 40
1.0
 40
1.0
 40
2.0
 40
2.0
 40
2.0
 40
3.0
 40
3.0
 40
3.0
 40
4.0
 40
4.0
 40
4.0
 40
5.0
 40
5.0
 40
5.0
 40
6.0
 40
6.0
 40
6.0
 40
7.0
 40
7.0
 40
7.0
 40
8.0
 40
8.0
 40
8.0
 40
9.0
 40
9.0
 40
9.0
 40
9.0
 10
76.24461396748399
 20
-129.8856119466953
 30
0.0
 10
76.24461396748399
 20
-130.4016872503857
 30
0.0
 10
75.6902981039073
 20
-130.4099554795503
 30
0.0
 10
75.4767021838218
 20
-130.4099554795503
 30
0.0
 10
75.24605304108432
 20
-130.4099554795503
 30
0.0
 10
74.59871959940588
 20
-130.3910074543814
 30
0.0
 10
74.59871959940588
 20
-129.847371386809
 30
0.0
 10
74.59871959940588
 20
-129.6740830839009
 30
0.0
 10
74.66848278298218
 20
-129.4284477758026
 30
0.0
 10
75.00058998776028
 20
-129.3902072159163
 30
0.0
 10
75.00058998776028
 20
-129.3902072159163
 30
0.0
 10
75.00058998776028
 20
-129.6041476455504
 30
0.0
 10
75.00058998776028
 20
-129.6041476455504
 30
0.0
 10
74.94357365747939
 20
-129.6148274415546
 30
0.0
 10
74.79543455161364
 20
-129.6465223200189
 30
0.0
 10
74.79543455161364
 20
-129.8494384441001
 30
0.0
 10
74.79543455161364
 20
-130.1412380317008
 30
0.0
 10
75.12340764180944
 20
-130.1818901584268
 30
0.0
 10
75.32856307795606
 20
-130.1942925021737
 30
0.0
 10
75.25035941044088
 20
-130.1012749240719
 30
0.0
 10
75.19110376809459
 20
-130.033751052561
 30
0.0
 10
75.19110376809459
 20
-129.8518500109398
 30
0.0
 10
75.19110376809459
 20
-129.6720160266098
 30
0.0
 10
75.29893525678291
 20
-129.3695366430048
 30
0.0
 10
75.70511201449386
 20
-129.3695366430048
 30
0.0
 10
76.02447236597652
 20
-129.3695366430048
 30
0.0
 10
76.24461396748399
 20
-129.5679741429552
 30
0.0
 10
76.24461396748399
 20
-129.8856119466953
 30
0.0
  0
SPLINE
  5
A6
330
A1
100
AcDbEntity
  8
_U+30EC_U+30A4_U+30E4_U+30FC 1
370
     0
100
AcDbSpline
210
0.0
220
0.0
230
1.0
 70
    11
 71
     3
 72
    17
 73
    13
 74
     0
 42
0.0000000001
 43
0.0000000001
 12
1.0
 22
0.0
 32
0.0
 13
1.0
 23
0.0
 33
0.0
 40
0.0
 40
0.0
 40
0.0
 40
0.0
 40
1.0
 40
1.0
 40
1.0
 40
2.0
 40
2.0
 40
2.0
 40
3.0
 40
3.0
 40
3.0
 40
4.0
 40
4.0
 40
4.0
 40
4.0
 10
75.3857516630112
 20
-129.868386469269
 30
0.0
 10
75.3857516630112
 20
-130.1309027452451
 30
0.0
 10
75.59728052580554
 20
-130.1687987955828
 30
0.0
 10
75.71355249843273
 20
-130.1687987955828
 30
0.0
 10
75.88908011340621
 20
-130.1687987955828
 30
0.0
 10
76.05203312985853
 20
-130.0737141601899
 30
0.0
 10
76.05203312985853
 20
-129.8897460612776
 30
0.0
 10
76.05203312985853
 20
-129.7691677192938
 30
0.0
 10
75.99277748751223
 20
-129.5934678495461
 30
0.0
 10
75.70717907178502
 20
-129.5934678495461
 30
0.0
 10
75.48290335569526
 20
-129.5934678495461
 30
0.0
 10
75.3857516630112
 20
-129.7333387262472
 30
0.0
 10
75.3857516630112
 20
-129.868386469269
 30
0.0
  0
HATCH
  5
A7
330
A1
100
AcDbEntity
  8
_U+30EC_U+30A4_U+30E4_U+30FC 1
 62
   179
420
  2234388
100
AcDbHatch
 10
0.0
 20
0.0
 30
0.0
210
0.0
220
0.0
230
1.0
  2
SOLID
 70
     1
 71
     0
 91
        2
 92
        1
 93
        1
 72
     4
 94
        3
 73
     0
 74
     1
 95
       32
 96
       28
 40
0.0
 40
0.0
 40
0.0
 40
0.0
 40
1.0
 40
1.0
 40
1.0
 40
2.0
 40
2.0
 40
2.0
 40
3.0
 40
3.0
 40
3.0
 40
4.0
 40
4.0
 40
4.0
 40
5.0
 40
5.0
 40
5.0
 40
6.0
 40
6.0
 40
6.0
 40
7.0
 40
7.0
 40
7.0
 40
8.0
 40
8.0
 40
8.0
 40
9.0
 40
9.0
 40
9.0
 40
9.0
 10
76.24461396748399
 20
-129.8856119466953
 10
76.24461396748399
 20
-130.4016872503857
 10
75.6902981039073
 20
-130.4099554795503
 10
75.4767021838218
 20
-130.4099554795503
 10
75.24605304108432
 20
-130.4099554795503
 10
74.59871959940588
 20
-130.3910074543814
 10
74.59871959940588
 20
-129.847371386809
 10
74.59871959940588
 20
-129.6740830839009
 10
74.66848278298218
 20
-129.4284477758026
 10
75.00058998776028
 20
-129.3902072159163
 10
75.00058998776028
 20
-129.3902072159163
 10
75.00058998776028
 20
-129.6041476455504
 10
75.00058998776028
 20
-129.6041476455504
 10
74.94357365747939
 20
-129.6148274415546
 10
74.79543455161364
 20
-129.6465223200189
 10
74.79543455161364
 20
-129.8494384441001
 10
74.79543455161364
 20
-130.1412380317008
 10
75.12340764180944
 20
-130.1818901584268
 10
75.32856307795606
 20
-130.1942925021737
 10
75.25035941044088
 20
-130.1012749240719
 10
75.19110376809459
 20
-130.033751052561
 10
75.19110376809459
 20
-129.8518500109398
 10
75.19110376809459
 20
-129.6720160266098
 10
75.29893525678291
 20
-129.3695366430048
 10
75.70511201449386
 20
-129.3695366430048
 10
76.02447236597652
 20
-129.3695366430048
 10
76.24461396748399
 20
-129.5679741429552
 10
76.24461396748399
 20
-129.8856119466953
 97
        0
 97
        0
 92
        1
 93
        1
 72
     4
 94
        3
 73
     0
 74
     1
 95
       17
 96
       13
 40
0.0
 40
0.0
 40
0.0
 40
0.0
 40
1.0
 40
1.0
 40
1.0
 40
2.0
 40
2.0
 40
2.0
 40
3.0
 40
3.0
 40
3.0
 40
4.0
 40
4.0
 40
4.0
 40
4.0
 10
75.3857516630112
 20
-129.868386469269
 10
75.3857516630112
 20
-130.1309027452451
 10
75.59728052580554
 20
-130.1687987955828
 10
75.71355249843273
 20
-130.1687987955828
 10
75.88908011340621
 20
-130.1687987955828
 10
76.05203312985853
 20
-130.0737141601899
 10
76.05203312985853
 20
-129.8897460612776
 10
76.05203312985853
 20
-129.7691677192938
 10
75.99277748751223
 20
-129.5934678495461
 10
75.70717907178502
 20
-129.5934678495461
 10
75.48290335569526
 20
-129.5934678495461
 10
75.3857516630112
 20
-129.7333387262472
 10
75.3857516630112
 20
-129.868386469269
 97
        0
 97
        0
 75
     2
 76
     1
 98
        0
  0
SPLINE
  5
A8
330
A1
100
AcDbEntity
  8
_U+30EC_U+30A4_U+30E4_U+30FC 1
370
     0
100
AcDbSpline
210
0.0
220
0.0
230
1.0
 70
    11
 71
     3
 72
    53
 73
    49
 74
     0
 42
0.0000000001
 43
0.0000000001
 12
1.0
 22
0.0
 32
0.0
 13
1.0
 23
0.0
 33
0.0
 40
0.0
 40
0.0
 40
0.0
 40
0.0
 40
1.0
 40
1.0
 40
1.0
 40
2.0
 40
2.0
 40
2.0
 40
3.0
 40
3.0
 40
3.0
 40
4.0
 40
4.0
 40
4.0
 40
5.0
 40
5.0
 40
5.0
 40
6.0
 40
6.0
 40
6.0
 40
7.0
 40
7.0
 40
7.0
 40
8.0
 40
8.0
 40
8.0
 40
9.0
 40
9.0
 40
9.0
 40
10.0
 40
10.0
 40
10.0
 40
11.0
 40
11.0
 40
11.0
 40
12.0
 40
12.0
 40
12.0
 40
13.0
 40
13.0
 40
13.0
 40
14.0
 40
14.0
 40
14.0
 40
15.0
 40
15.0
 40
15.0
 40
16.0
 40
16.0
 40
16.0
 40
16.0
 10
76.24461396748399
 20
-128.7318494686851
 30
0.0
 10
76.24461396748399
 20
-128.8100531362003
 30
0.0
 10
76.22773299960626
 20
-128.9116834530151
 30
0.0
 10
76.1641709879034
 20
-129.01331376983
 30
0.0
 10
76.05410018714967
 20
-129.1869465822866
 30
0.0
 10
75.92301430393591
 20
-129.2079616647466
 30
0.0
 10
75.8151828152476
 20
-129.2269096899155
 30
0.0
 10
75.8151828152476
 20
-129.2269096899155
 30
0.0
 10
75.8151828152476
 20
-129.0050455406654
 30
0.0
 10
75.8151828152476
 20
-129.0050455406654
 30
0.0
 10
76.01396482474651
 20
-128.9499240129014
 30
0.0
 10
76.04359264591966
 20
-128.8227999894957
 30
0.0
 10
76.04359264591966
 20
-128.729782411394
 30
0.0
 10
76.04359264591966
 20
-128.5902560442413
 30
0.0
 10
75.94420164117021
 20
-128.437810569019
 30
0.0
 10
75.71148544114158
 20
-128.437810569019
 30
0.0
 10
75.45551484658752
 20
-128.437810569019
 30
0.0
 10
75.3857516630112
 20
-128.6176445533491
 30
0.0
 10
75.3857516630112
 20
-128.7382228953328
 30
0.0
 10
75.3857516630112
 20
-128.7700900285714
 30
0.0
 10
75.3857516630112
 20
-128.9116834530151
 30
0.0
 10
75.5147704889338
 20
-129.0005669165346
 30
0.0
 10
75.5147704889338
 20
-129.0005669165346
 30
0.0
 10
75.49565020899067
 20
-129.1759222767338
 30
0.0
 10
75.49565020899067
 20
-129.1759222767338
 30
0.0
 10
75.49565020899067
 20
-129.1759222767338
 30
0.0
 10
74.64953475781331
 20
-129.0553439347501
 30
0.0
 10
74.64953475781331
 20
-129.0553439347501
 30
0.0
 10
74.64953475781331
 20
-129.0553439347501
 30
0.0
 10
74.64953475781331
 20
-128.2770968646321
 30
0.0
 10
74.64953475781331
 20
-128.2770968646321
 30
0.0
 10
74.64953475781331
 20
-128.2770968646321
 30
0.0
 10
74.84418265272993
 20
-128.2770968646321
 30
0.0
 10
74.84418265272993
 20
-128.2770968646321
 30
0.0
 10
74.84418265272993
 20
-128.2770968646321
 30
0.0
 10
74.84418265272993
 20
-128.8927354278463
 30
0.0
 10
74.84418265272993
 20
-128.8927354278463
 30
0.0
 10
74.84418265272993
 20
-128.8927354278463
 30
0.0
 10
75.2672403783186
 20
-128.958192242066
 30
0.0
 10
75.2672403783186
 20
-128.958192242066
 30
0.0
 10
75.2333061877889
 20
-128.8968695424286
 30
0.0
 10
75.19317082538574
 20
-128.8141872507826
 30
0.0
 10
75.19317082538574
 20
-128.6960204756385
 30
0.0
 10
75.19317082538574
 20
-128.4421169383756
 30
0.0
 10
75.3793782363635
 20
-128.2050943689904
 30
0.0
 10
75.69236516119844
 20
-128.2050943689904
 30
0.0
 10
76.00983071016421
 20
-128.2050943689904
 30
0.0
 10
76.24461396748399
 20
-128.4293700850802
 30
0.0
 10
76.24461396748399
 20
-128.7318494686851
 30
0.0
  0
HATCH
  5
A9
330
A1
100
AcDbEntity
  8
_U+30EC_U+30A4_U+30E4_U+30FC 1
 62
   179
420
  2234388
100
AcDbHatch
 10
0.0
 20
0.0
 30
0.0
210
0.0
220
0.0
230
1.0
  2
SOLID
 70
     1
 71
     0
 91
        1
 92
        1
 93
        1
 72
     4
 94
        3
 73
     0
 74
     1
 95
       53
 96
       49
 40
0.0
 40
0.0
 40
0.0
 40
0.0
 40
1.0
 40
1.0
 40
1.0
 40
2.0
 40
2.0
 40
2.0
 40
3.0
 40
3.0
 40
3.0
 40
4.0
 40
4.0
 40
4.0
 40
5.0
 40
5.0
 40
5.0
 40
6.0
 40
6.0
 40
6.0
 40
7.0
 40
7.0
 40
7.0
 40
8.0
 40
8.0
 40
8.0
 40
9.0
 40
9.0
 40
9.0
 40
10.0
 40
10.0
 40
10.0
 40
11.0
 40
11.0
 40
11.0
 40
12.0
 40
12.0
 40
12.0
 40
13.0
 40
13.0
 40
13.0
 40
14.0
 40
14.0
 40
14.0
 40
15.0
 40
15.0
 40
15.0
 40
16.0
 40
16.0
 40
16.0
 40
16.0
 10
76.24461396748399
 20
-128.7318494686851
 10
76.24461396748399
 20
-128.8100531362003
 10
76.22773299960626
 20
-128.9116834530151
 10
76.1641709879034
 20
-129.01331376983
 10
76.05410018714967
 20
-129.1869465822866
 10
75.92301430393591
 20
-129.2079616647466
 10
75.8151828152476
 20
-129.2269096899155
 10
75.8151828152476
 20
-129.2269096899155
 10
75.8151828152476
 20
-129.0050455406654
 10
75.8151828152476
 20
-129.0050455406654
 10
76.01396482474651
 20
-128.9499240129014
 10
76.04359264591966
 20
-128.8227999894957
 10
76.04359264591966
 20
-128.729782411394
 10
76.04359264591966
 20
-128.5902560442413
 10
75.94420164117021
 20
-128.437810569019
 10
75.71148544114158
 20
-128.437810569019
 10
75.45551484658752
 20
-128.437810569019
 10
75.3857516630112
 20
-128.6176445533491
 10
75.3857516630112
 20
-128.7382228953328
 10
75.3857516630112
 20
-128.7700900285714
 10
75.3857516630112
 20
-128.9116834530151
 10
75.5147704889338
 20
-129.0005669165346
 10
75.5147704889338
 20
-129.0005669165346
 10
75.49565020899067
 20
-129.1759222767338
 10
75.49565020899067
 20
-129.1759222767338
 10
75.49565020899067
 20
-129.1759222767338
 10
74.64953475781331
 20
-129.0553439347501
 10
74.64953475781331
 20
-129.0553439347501
 10
74.64953475781331
 20
-129.0553439347501
 10
74.64953475781331
 20
-128.2770968646321
 10
74.64953475781331
 20
-128.2770968646321
 10
74.64953475781331
 20
-128.2770968646321
 10
74.84418265272993
 20
-128.2770968646321
 10
74.84418265272993
 20
-128.2770968646321
 10
74.84418265272993
 20
-128.2770968646321
 10
74.84418265272993
 20
-128.8927354278463
 10
74.84418265272993
 20
-128.8927354278463
 10
74.84418265272993
 20
-128.8927354278463
 10
75.2672403783186
 20
-128.958192242066
 10
75.2672403783186
 20
-128.958192242066
 10
75.2333061877889
 20
-128.8968695424286
 10
75.19317082538574
 20
-128.8141872507826
 10
75.19317082538574
 20
-128.6960204756385
 10
75.19317082538574
 20
-128.4421169383756
 10
75.3793782363635
 20
-128.2050943689904
 10
75.69236516119844
 20
-128.2050943689904
 10
76.00983071016421
 20
-128.2050943689904
 10
76.24461396748399
 20
-128.4293700850802
 10
76.24461396748399
 20
-128.7318494686851
 97
        0
 97
        0
 75
     2
 76
     1
 98
        0
  0
ENDBLK
  5
A4
330
A1
100
AcDbEntity
  8
0
100
AcDbBlockEnd
  0
BLOCK
  5
AC
330
AA
100
AcDbEntity
  8
0
100
AcDbBlockBegin
  2
block 6
 70
     0
 10
0.0
 20
0.0
 30
0.0
  3
block 6
  1

  0
SPLINE
  5
AE
330
AA
100
AcDbEntity
  8
_U+30EC_U+30A4_U+30E4_U+30FC 1
370
     0
100
AcDbSpline
210
0.0
220
0.0
230
1.0
 70
    11
 71
     3
 72
    26
 73
    22
 74
     0
 42
0.0000000001
 43
0.0000000001
 12
1.0
 22
0.0
 32
0.0
 13
1.0
 23
0.0
 33
0.0
 40
0.0
 40
0.0
 40
0.0
 40
0.0
 40
1.0
 40
1.0
 40
1.0
 40
2.0
 40
2.0
 40
2.0
 40
3.0
 40
3.0
 40
3.0
 40
4.0
 40
4.0
 40
4.0
 40
5.0
 40
5.0
 40
5.0
 40
6.0
 40
6.0
 40
6.0
 40
7.0
 40
7.0
 40
7.0
 40
7.0
 10
105.322770155961
 20
-123.1940307309202
 30
0.0
 10
105.322770155961
 20
-123.1940307309202
 30
0.0
 10
104.2182725433899
 20
-123.1940307309202
 30
0.0
 10
104.2182725433899
 20
-123.1940307309202
 30
0.0
 10
104.2182725433899
 20
-123.1940307309202
 30
0.0
 10
104.2182725433899
 20
-123.5240708784072
 30
0.0
 10
104.2182725433899
 20
-123.5240708784072
 30
0.0
 10
104.2182725433899
 20
-123.5240708784072
 30
0.0
 10
104.0701334375241
 20
-123.5240708784072
 30
0.0
 10
104.0701334375241
 20
-123.5240708784072
 30
0.0
 10
104.0556640364861
 20
-123.1919636736291
 30
0.0
 10
103.8923665104852
 20
-123.1454548845782
 30
0.0
 10
103.7783338499235
 20
-123.1158270634051
 30
0.0
 10
103.7783338499235
 20
-123.1158270634051
 30
0.0
 10
103.7783338499235
 20
-122.9697550148305
 30
0.0
 10
103.7783338499235
 20
-122.9697550148305
 30
0.0
 10
103.7783338499235
 20
-122.9697550148305
 30
0.0
 10
105.322770155961
 20
-122.9697550148305
 30
0.0
 10
105.322770155961
 20
-122.9697550148305
 30
0.0
 10
105.322770155961
 20
-122.9697550148305
 30
0.0
 10
105.322770155961
 20
-123.1940307309202
 30
0.0
 10
105.322770155961
 20
-123.1940307309202
 30
0.0
  0
HATCH
  5
AF
330
AA
100
AcDbEntity
  8
_U+30EC_U+30A4_U+30E4_U+30FC 1
 62
   179
420
  2234388
100
AcDbHatch
 10
0.0
 20
0.0
 30
0.0
210
0.0
220
0.0
230
1.0
  2
SOLID
 70
     1
 71
     0
 91
        1
 92
        1
 93
        1
 72
     4
 94
        3
 73
     0
 74
     1
 95
       26
 96
       22
 40
0.0
 40
0.0
 40
0.0
 40
0.0
 40
1.0
 40
1.0
 40
1.0
 40
2.0
 40
2.0
 40
2.0
 40
3.0
 40
3.0
 40
3.0
 40
4.0
 40
4.0
 40
4.0
 40
5.0
 40
5.0
 40
5.0
 40
6.0
 40
6.0
 40
6.0
 40
7.0
 40
7.0
 40
7.0
 40
7.0
 10
105.322770155961
 20
-123.1940307309202
 10
105.322770155961
 20
-123.1940307309202
 10
104.2182725433899
 20
-123.1940307309202
 10
104.2182725433899
 20
-123.1940307309202
 10
104.2182725433899
 20
-123.1940307309202
 10
104.2182725433899
 20
-123.5240708784072
 10
104.2182725433899
 20
-123.5240708784072
 10
104.2182725433899
 20
-123.5240708784072
 10
104.0701334375241
 20
-123.5240708784072
 10
104.0701334375241
 20
-123.5240708784072
 10
104.0556640364861
 20
-123.1919636736291
 10
103.8923665104852
 20
-123.1454548845782
 10
103.7783338499235
 20
-123.1158270634051
 10
103.7783338499235
 20
-123.1158270634051
 10
103.7783338499235
 20
-122.9697550148305
 10
103.7783338499235
 20
-122.9697550148305
 10
103.7783338499235
 20
-122.9697550148305
 10
105.322770155961
 20
-122.9697550148305
 10
105.322770155961
 20
-122.9697550148305
 10
105.322770155961
 20
-122.9697550148305
 10
105.322770155961
 20
-123.1940307309202
 10
105.322770155961
 20
-123.1940307309202
 97
        0
 97
        0
 75
     2
 76
     1
 98
        0
  0
SPLINE
  5
B0
330
AA
100
AcDbEntity
  8
_U+30EC_U+30A4_U+30E4_U+30FC 1
370
     0
100
AcDbSpline
210
0.0
220
0.0
230
1.0
 70
    11
 71
     3
 72
    32
 73
    28
 74
     0
 42
0.0000000001
 43
0.0000000001
 12
1.0
 22
0.0
 32
0.0
 13
1.0
 23
0.0
 33
0.0
 40
0.0
 40
0.0
 40
0.0
 40
0.0
 40
1.0
 40
1.0
 40
1.0
 40
2.0
 40
2.0
 40
2.0
 40
3.0
 40
3.0
 40
3.0
 40
4.0
 40
4.0
 40
4.0
 40
5.0
 40
5.0
 40
5.0
 40
6.0
 40
6.0
 40
6.0
 40
7.0
 40
7.0
 40
7.0
 40
8.0
 40
8.0
 40
8.0
 40
9.0
 40
9.0
 40
9.0
 40
9.0
 10
105.3734130595942
 20
-121.9643038974603
 30
0.0
 10
105.3734130595942
 20
-122.480551455925
 30
0.0
 10
104.8190971960175
 20
-122.4889919398639
 30
0.0
 10
104.605501275932
 20
-122.4889919398639
 30
0.0
 10
104.3746798784202
 20
-122.4889919398639
 30
0.0
 10
103.7276909462903
 20
-122.4698716599207
 30
0.0
 10
103.7276909462903
 20
-121.9262355923483
 30
0.0
 10
103.7276909462903
 20
-121.752775034666
 30
0.0
 10
103.7972818750924
 20
-121.5074842361162
 30
0.0
 10
104.1293890798704
 20
-121.4692436762299
 30
0.0
 10
104.1293890798704
 20
-121.4692436762299
 30
0.0
 10
104.1293890798704
 20
-121.6830118510897
 30
0.0
 10
104.1293890798704
 20
-121.6830118510897
 30
0.0
 10
104.0722004948153
 20
-121.6935193923197
 30
0.0
 10
103.9240613889495
 20
-121.725214270784
 30
0.0
 10
103.9240613889495
 20
-121.9283026496395
 30
0.0
 10
103.9240613889495
 20
-122.2202744920144
 30
0.0
 10
104.2520344791453
 20
-122.2605821091918
 30
0.0
 10
104.4573621700662
 20
-122.273156707713
 30
0.0
 10
104.379158502551
 20
-122.1801391296112
 30
0.0
 10
104.3199028602047
 20
-122.1124430033261
 30
0.0
 10
104.3199028602047
 20
-121.9305419617049
 30
0.0
 10
104.3199028602047
 20
-121.7507079773748
 30
0.0
 10
104.4277343488931
 20
-121.4482285937699
 30
0.0
 10
104.833911106604
 20
-121.4482285937699
 30
0.0
 10
105.1532714580867
 20
-121.4482285937699
 30
0.0
 10
105.3734130595942
 20
-121.6470106032688
 30
0.0
 10
105.3734130595942
 20
-121.9643038974603
 30
0.0
  0
SPLINE
  5
B1
330
AA
100
AcDbEntity
  8
_U+30EC_U+30A4_U+30E4_U+30FC 1
370
     0
100
AcDbSpline
210
0.0
220
0.0
230
1.0
 70
    11
 71
     3
 72
    17
 73
    13
 74
     0
 42
0.0000000001
 43
0.0000000001
 12
1.0
 22
0.0
 32
0.0
 13
1.0
 23
0.0
 33
0.0
 40
0.0
 40
0.0
 40
0.0
 40
0.0
 40
1.0
 40
1.0
 40
1.0
 40
2.0
 40
2.0
 40
2.0
 40
3.0
 40
3.0
 40
3.0
 40
4.0
 40
4.0
 40
4.0
 40
4.0
 10
104.5145507551214
 20
-121.9474229295826
 30
0.0
 10
104.5145507551214
 20
-122.2097669507844
 30
0.0
 10
104.7260796179157
 20
-122.2478352558964
 30
0.0
 10
104.8425238453171
 20
-122.2478352558964
 30
0.0
 10
105.0178792055164
 20
-122.2478352558964
 30
0.0
 10
105.1808322219687
 20
-122.1525783657292
 30
0.0
 10
105.1808322219687
 20
-121.9686102668169
 30
0.0
 10
105.1808322219687
 20
-121.8480319248331
 30
0.0
 10
105.1215765796224
 20
-121.6723320550854
 30
0.0
 10
104.8359781638952
 20
-121.6723320550854
 30
0.0
 10
104.6117024478054
 20
-121.6723320550854
 30
0.0
 10
104.5145507551214
 20
-121.8120306770123
 30
0.0
 10
104.5145507551214
 20
-121.9474229295826
 30
0.0
  0
HATCH
  5
B2
330
AA
100
AcDbEntity
  8
_U+30EC_U+30A4_U+30E4_U+30FC 1
 62
   179
420
  2234388
100
AcDbHatch
 10
0.0
 20
0.0
 30
0.0
210
0.0
220
0.0
230
1.0
  2
SOLID
 70
     1
 71
     0
 91
        2
 92
        1
 93
        1
 72
     4
 94
        3
 73
     0
 74
     1
 95
       32
 96
       28
 40
0.0
 40
0.0
 40
0.0
 40
0.0
 40
1.0
 40
1.0
 40
1.0
 40
2.0
 40
2.0
 40
2.0
 40
3.0
 40
3.0
 40
3.0
 40
4.0
 40
4.0
 40
4.0
 40
5.0
 40
5.0
 40
5.0
 40
6.0
 40
6.0
 40
6.0
 40
7.0
 40
7.0
 40
7.0
 40
8.0
 40
8.0
 40
8.0
 40
9.0
 40
9.0
 40
9.0
 40
9.0
 10
105.3734130595942
 20
-121.9643038974603
 10
105.3734130595942
 20
-122.480551455925
 10
104.8190971960175
 20
-122.4889919398639
 10
104.605501275932
 20
-122.4889919398639
 10
104.3746798784202
 20
-122.4889919398639
 10
103.7276909462903
 20
-122.4698716599207
 10
103.7276909462903
 20
-121.9262355923483
 10
103.7276909462903
 20
-121.752775034666
 10
103.7972818750924
 20
-121.5074842361162
 10
104.1293890798704
 20
-121.4692436762299
 10
104.1293890798704
 20
-121.4692436762299
 10
104.1293890798704
 20
-121.6830118510897
 10
104.1293890798704
 20
-121.6830118510897
 10
104.0722004948153
 20
-121.6935193923197
 10
103.9240613889495
 20
-121.725214270784
 10
103.9240613889495
 20
-121.9283026496395
 10
103.9240613889495
 20
-122.2202744920144
 10
104.2520344791453
 20
-122.2605821091918
 10
104.4573621700662
 20
-122.273156707713
 10
104.379158502551
 20
-122.1801391296112
 10
104.3199028602047
 20
-122.1124430033261
 10
104.3199028602047
 20
-121.9305419617049
 10
104.3199028602047
 20
-121.7507079773748
 10
104.4277343488931
 20
-121.4482285937699
 10
104.833911106604
 20
-121.4482285937699
 10
105.1532714580867
 20
-121.4482285937699
 10
105.3734130595942
 20
-121.6470106032688
 10
105.3734130595942
 20
-121.9643038974603
 97
        0
 97
        0
 92
        1
 93
        1
 72
     4
 94
        3
 73
     0
 74
     1
 95
       17
 96
       13
 40
0.0
 40
0.0
 40
0.0
 40
0.0
 40
1.0
 40
1.0
 40
1.0
 40
2.0
 40
2.0
 40
2.0
 40
3.0
 40
3.0
 40
3.0
 40
4.0
 40
4.0
 40
4.0
 40
4.0
 10
104.5145507551214
 20
-121.9474229295826
 10
104.5145507551214
 20
-122.2097669507844
 10
104.7260796179157
 20
-122.2478352558964
 10
104.8425238453171
 20
-122.2478352558964
 10
105.0178792055164
 20
-122.2478352558964
 10
105.1808322219687
 20
-122.1525783657292
 10
105.1808322219687
 20
-121.9686102668169
 10
105.1808322219687
 20
-121.8480319248331
 10
105.1215765796224
 20
-121.6723320550854
 10
104.8359781638952
 20
-121.6723320550854
 10
104.6117024478054
 20
-121.6723320550854
 10
104.5145507551214
 20
-121.8120306770123
 10
104.5145507551214
 20
-121.9474229295826
 97
        0
 97
        0
 75
     2
 76
     1
 98
        0
  0
POLYLINE
  5
B3
330
AA
100
AcDbEntity
  8
_U+30EC_U+30A4_U+30E4_U+30FC 1
370
     0
100
AcDb2dPolyline
 66
     1
 10
0.0
 20
0.0
 30
0.0
  0
VERTEX
  5
B4
330
B3
100
AcDbEntity
  8
_U+30EC_U+30A4_U+30E4_U+30FC 1
370
     0
100
AcDbVertex
100
AcDb2dVertex
 10
105.322770155961
 20
-121.2317043425219
 30
0.0
  0
VERTEX
  5
B5
330
B3
100
AcDbEntity
  8
_U+30EC_U+30A4_U+30E4_U+30FC 1
370
     0
100
AcDbVertex
100
AcDb2dVertex
 10
105.0709336759892
 20
-121.2317043425219
 30
0.0
  0
VERTEX
  5
B6
330
B3
100
AcDbEntity
  8
_U+30EC_U+30A4_U+30E4_U+30FC 1
370
     0
100
AcDbVertex
100
AcDb2dVertex
 10
105.0709336759892
 20
-120.9800401173244
 30
0.0
  0
VERTEX
  5
B7
330
B3
100
AcDbEntity
  8
_U+30EC_U+30A4_U+30E4_U+30FC 1
370
     0
100
AcDbVertex
100
AcDb2dVertex
 10
105.322770155961
 20
-120.9800401173244
 30
0.0
  0
VERTEX
  5
B8
330
B3
100
AcDbEntity
  8
_U+30EC_U+30A4_U+30E4_U+30FC 1
370
     0
100
AcDbVertex
100
AcDb2dVertex
 10
105.322770155961
 20
-121.2317043425219
 30
0.0
  0
SEQEND
  5
B9
330
B3
100
AcDbEntity
  8
_U+30EC_U+30A4_U+30E4_U+30FC 1
370
     0
  0
HATCH
  5
BA
330
AA
100
AcDbEntity
  8
_U+30EC_U+30A4_U+30E4_U+30FC 1
 62
   179
420
  2234388
100
AcDbHatch
 10
0.0
 20
0.0
 30
0.0
210
0.0
220
0.0
230
1.0
  2
SOLID
 70
     1
 71
     0
 91
        1
 92
        1
 93
        4
 72
     1
 10
105.322770155961
 20
-121.2317043425219
 11
105.0709336759892
 21
-121.2317043425219
 72
     1
 10
105.0709336759892
 20
-121.2317043425219
 11
105.0709336759892
 21
-120.9800401173244
 72
     1
 10
105.0709336759892
 20
-120.9800401173244
 11
105.322770155961
 21
-120.9800401173244
 72
     1
 10
105.322770155961
 20
-120.9800401173244
 11
105.322770155961
 21
-121.2317043425219
 97
        0
 75
     2
 76
     1
 98
        0
  0
SPLINE
  5
BB
330
AA
100
AcDbEntity
  8
_U+30EC_U+30A4_U+30E4_U+30FC 1
370
     0
100
AcDbSpline
210
0.0
220
0.0
230
1.0
 70
    11
 71
     3
 72
    53
 73
    49
 74
     0
 42
0.0000000001
 43
0.0000000001
 12
1.0
 22
0.0
 32
0.0
 13
1.0
 23
0.0
 33
0.0
 40
0.0
 40
0.0
 40
0.0
 40
0.0
 40
1.0
 40
1.0
 40
1.0
 40
2.0
 40
2.0
 40
2.0
 40
3.0
 40
3.0
 40
3.0
 40
4.0
 40
4.0
 40
4.0
 40
5.0
 40
5.0
 40
5.0
 40
6.0
 40
6.0
 40
6.0
 40
7.0
 40
7.0
 40
7.0
 40
8.0
 40
8.0
 40
8.0
 40
9.0
 40
9.0
 40
9.0
 40
10.0
 40
10.0
 40
10.0
 40
11.0
 40
11.0
 40
11.0
 40
12.0
 40
12.0
 40
12.0
 40
13.0
 40
13.0
 40
13.0
 40
14.0
 40
14.0
 40
14.0
 40
15.0
 40
15.0
 40
15.0
 40
16.0
 40
16.0
 40
16.0
 40
16.0
 10
105.3734130595942
 20
-120.2624267277469
 30
0.0
 10
105.3734130595942
 20
-120.3408026500363
 30
0.0
 10
105.3565320917164
 20
-120.4422607120769
 30
0.0
 10
105.2931423347878
 20
-120.5438910288918
 30
0.0
 10
105.1828992792598
 20
-120.7173515865741
 30
0.0
 10
105.0519856508203
 20
-120.7385389238084
 30
0.0
 10
104.9438096525835
 20
-120.7574869489773
 30
0.0
 10
104.9438096525835
 20
-120.7574869489773
 30
0.0
 10
104.9438096525835
 20
-120.535450544953
 30
0.0
 10
104.9438096525835
 20
-120.535450544953
 30
0.0
 10
105.1429361716309
 20
-120.480329017189
 30
0.0
 10
105.1725639928041
 20
-120.3533772485575
 30
0.0
 10
105.1725639928041
 20
-120.2603596704557
 30
0.0
 10
105.1725639928041
 20
-120.1208333033031
 30
0.0
 10
105.0730007332804
 20
-119.9683878280808
 30
0.0
 10
104.840456788026
 20
-119.9683878280808
 30
0.0
 10
104.5841416839234
 20
-119.9683878280808
 30
0.0
 10
104.5145507551214
 20
-120.1482218124109
 30
0.0
 10
104.5145507551214
 20
-120.2688001543946
 30
0.0
 10
104.5145507551214
 20
-120.3004950328589
 30
0.0
 10
104.5145507551214
 20
-120.4422607120769
 30
0.0
 10
104.6433973262697
 20
-120.5311441755964
 30
0.0
 10
104.6433973262697
 20
-120.5311441755964
 30
0.0
 10
104.6244493011008
 20
-120.7066717905699
 30
0.0
 10
104.6244493011008
 20
-120.7066717905699
 30
0.0
 10
104.6244493011008
 20
-120.7066717905699
 30
0.0
 10
103.7783338499235
 20
-120.5860934485861
 30
0.0
 10
103.7783338499235
 20
-120.5860934485861
 30
0.0
 10
103.7783338499235
 20
-120.5860934485861
 30
0.0
 10
103.7783338499235
 20
-119.8076741236939
 30
0.0
 10
103.7783338499235
 20
-119.8076741236939
 30
0.0
 10
103.7783338499235
 20
-119.8076741236939
 30
0.0
 10
103.9729817448401
 20
-119.8076741236939
 30
0.0
 10
103.9729817448401
 20
-119.8076741236939
 30
0.0
 10
103.9729817448401
 20
-119.8076741236939
 30
0.0
 10
103.9729817448401
 20
-120.4233126869081
 30
0.0
 10
103.9729817448401
 20
-120.4233126869081
 30
0.0
 10
103.9729817448401
 20
-120.4233126869081
 30
0.0
 10
104.3960394704288
 20
-120.4887695011278
 30
0.0
 10
104.3960394704288
 20
-120.4887695011278
 30
0.0
 10
104.3622775346733
 20
-120.4274468014904
 30
0.0
 10
104.3219699174959
 20
-120.3449367646186
 30
0.0
 10
104.3219699174959
 20
-120.2265977347003
 30
0.0
 10
104.3219699174959
 20
-119.9726941974374
 30
0.0
 10
104.5083495832479
 20
-119.7356716280522
 30
0.0
 10
104.8211642533086
 20
-119.7356716280522
 30
0.0
 10
105.1388020570486
 20
-119.7356716280522
 30
0.0
 10
105.3734130595942
 20
-119.959947344142
 30
0.0
 10
105.3734130595942
 20
-120.2624267277469
 30
0.0
  0
HATCH
  5
BC
330
AA
100
AcDbEntity
  8
_U+30EC_U+30A4_U+30E4_U+30FC 1
 62
   179
420
  2234388
100
AcDbHatch
 10
0.0
 20
0.0
 30
0.0
210
0.0
220
0.0
230
1.0
  2
SOLID
 70
     1
 71
     0
 91
        1
 92
        1
 93
        1
 72
     4
 94
        3
 73
     0
 74
     1
 95
       53
 96
       49
 40
0.0
 40
0.0
 40
0.0
 40
0.0
 40
1.0
 40
1.0
 40
1.0
 40
2.0
 40
2.0
 40
2.0
 40
3.0
 40
3.0
 40
3.0
 40
4.0
 40
4.0
 40
4.0
 40
5.0
 40
5.0
 40
5.0
 40
6.0
 40
6.0
 40
6.0
 40
7.0
 40
7.0
 40
7.0
 40
8.0
 40
8.0
 40
8.0
 40
9.0
 40
9.0
 40
9.0
 40
10.0
 40
10.0
 40
10.0
 40
11.0
 40
11.0
 40
11.0
 40
12.0
 40
12.0
 40
12.0
 40
13.0
 40
13.0
 40
13.0
 40
14.0
 40
14.0
 40
14.0
 40
15.0
 40
15.0
 40
15.0
 40
16.0
 40
16.0
 40
16.0
 40
16.0
 10
105.3734130595942
 20
-120.2624267277469
 10
105.3734130595942
 20
-120.3408026500363
 10
105.3565320917164
 20
-120.4422607120769
 10
105.2931423347878
 20
-120.5438910288918
 10
105.1828992792598
 20
-120.7173515865741
 10
105.0519856508203
 20
-120.7385389238084
 10
104.9438096525835
 20
-120.7574869489773
 10
104.9438096525835
 20
-120.7574869489773
 10
104.9438096525835
 20
-120.535450544953
 10
104.9438096525835
 20
-120.535450544953
 10
105.1429361716309
 20
-120.480329017189
 10
105.1725639928041
 20
-120.3533772485575
 10
105.1725639928041
 20
-120.2603596704557
 10
105.1725639928041
 20
-120.1208333033031
 10
105.0730007332804
 20
-119.9683878280808
 10
104.840456788026
 20
-119.9683878280808
 10
104.5841416839234
 20
-119.9683878280808
 10
104.5145507551214
 20
-120.1482218124109
 10
104.5145507551214
 20
-120.2688001543946
 10
104.5145507551214
 20
-120.3004950328589
 10
104.5145507551214
 20
-120.4422607120769
 10
104.6433973262697
 20
-120.5311441755964
 10
104.6433973262697
 20
-120.5311441755964
 10
104.6244493011008
 20
-120.7066717905699
 10
104.6244493011008
 20
-120.7066717905699
 10
104.6244493011008
 20
-120.7066717905699
 10
103.7783338499235
 20
-120.5860934485861
 10
103.7783338499235
 20
-120.5860934485861
 10
103.7783338499235
 20
-120.5860934485861
 10
103.7783338499235
 20
-119.8076741236939
 10
103.7783338499235
 20
-119.8076741236939
 10
103.7783338499235
 20
-119.8076741236939
 10
103.9729817448401
 20
-119.8076741236939
 10
103.9729817448401
 20
-119.8076741236939
 10
103.9729817448401
 20
-119.8076741236939
 10
103.9729817448401
 20
-120.4233126869081
 10
103.9729817448401
 20
-120.4233126869081
 10
103.9729817448401
 20
-120.4233126869081
 10
104.3960394704288
 20
-120.4887695011278
 10
104.3960394704288
 20
-120.4887695011278
 10
104.3622775346733
 20
-120.4274468014904
 10
104.3219699174959
 20
-120.3449367646186
 10
104.3219699174959
 20
-120.2265977347003
 10
104.3219699174959
 20
-119.9726941974374
 10
104.5083495832479
 20
-119.7356716280522
 10
104.8211642533086
 20
-119.7356716280522
 10
105.1388020570486
 20
-119.7356716280522
 10
105.3734130595942
 20
-119.959947344142
 10
105.3734130595942
 20
-120.2624267277469
 97
        0
 97
        0
 75
     2
 76
     1
 98
        0
  0
ENDBLK
  5
AD
330
AA
100
AcDbEntity
  8
0
100
AcDbBlockEnd
  0
BLOCK
  5
BF
330
BD
100
AcDbEntity
  8
0
100
AcDbBlockBegin
  2
block 7
 70
     0
 10
0.0
 20
0.0
 30
0.0
  3
block 7
  1

  0
SPLINE
  5
C1
330
BD
100
AcDbEntity
  8
_U+30EC_U+30A4_U+30E4_U+30FC 1
370
     0
100
AcDbSpline
210
0.0
220
0.0
230
1.0
 70
    11
 71
     3
 72
    26
 73
    22
 74
     0
 42
0.0000000001
 43
0.0000000001
 12
1.0
 22
0.0
 32
0.0
 13
1.0
 23
0.0
 33
0.0
 40
0.0
 40
0.0
 40
0.0
 40
0.0
 40
1.0
 40
1.0
 40
1.0
 40
2.0
 40
2.0
 40
2.0
 40
3.0
 40
3.0
 40
3.0
 40
4.0
 40
4.0
 40
4.0
 40
5.0
 40
5.0
 40
5.0
 40
6.0
 40
6.0
 40
6.0
 40
7.0
 40
7.0
 40
7.0
 40
7.0
 10
91.106239126529
 20
-132.3684922629148
 30
0.0
 10
91.02803545901382
 20
-132.6899196716886
 30
0.0
 10
91.0089151790707
 20
-132.7619221673304
 30
0.0
 10
90.88196341043924
 20
-132.9310763556561
 30
0.0
 10
90.88196341043924
 20
-132.9310763556561
 30
0.0
 10
90.65992700641489
 20
-132.8742322801495
 30
0.0
 10
90.65992700641489
 20
-132.8742322801495
 30
0.0
 10
90.75931801116434
 20
-132.7343614034484
 30
0.0
 10
90.81426728415407
 20
-132.6117160041735
 30
0.0
 10
90.82908119474065
 20
-132.5738199538357
 30
0.0
 10
90.86508244256152
 20
-132.4849364903163
 30
0.0
 10
90.90745711703009
 20
-132.315437792442
 30
0.0
 10
90.91159123161239
 20
-132.2437798063488
 30
0.0
 10
90.91159123161239
 20
-132.2437798063488
 30
0.0
 10
91.12742646376329
 20
-132.3071695632774
 30
0.0
 10
91.12742646376329
 20
-132.3071695632774
 30
0.0
 10
91.15705428493644
 20
-132.315437792442
 30
0.0
 10
91.16549476887529
 20
-132.3178493592817
 30
0.0
 10
91.16549476887529
 20
-132.3347303271594
 30
0.0
 10
91.16549476887529
 20
-132.3578124669106
 30
0.0
 10
91.12949352105444
 20
-132.3643581483325
 30
0.0
 10
91.106239126529
 20
-132.3684922629148
 30
0.0
  0
SPLINE
  5
C2
330
BD
100
AcDbEntity
  8
_U+30EC_U+30A4_U+30E4_U+30FC 1
370
     0
100
AcDbSpline
210
0.0
220
0.0
230
1.0
 70
    11
 71
     3
 72
    89
 73
    85
 74
     0
 42
0.0000000001
 43
0.0000000001
 12
1.0
 22
0.0
 32
0.0
 13
1.0
 23
0.0
 33
0.0
 40
0.0
 40
0.0
 40
0.0
 40
0.0
 40
1.0
 40
1.0
 40
1.0
 40
2.0
 40
2.0
 40
2.0
 40
3.0
 40
3.0
 40
3.0
 40
4.0
 40
4.0
 40
4.0
 40
5.0
 40
5.0
 40
5.0
 40
6.0
 40
6.0
 40
6.0
 40
7.0
 40
7.0
 40
7.0
 40
8.0
 40
8.0
 40
8.0
 40
9.0
 40
9.0
 40
9.0
 40
10.0
 40
10.0
 40
10.0
 40
11.0
 40
11.0
 40
11.0
 40
12.0
 40
12.0
 40
12.0
 40
13.0
 40
13.0
 40
13.0
 40
14.0
 40
14.0
 40
14.0
 40
15.0
 40
15.0
 40
15.0
 40
16.0
 40
16.0
 40
16.0
 40
17.0
 40
17.0
 40
17.0
 40
18.0
 40
18.0
 40
18.0
 40
19.0
 40
19.0
 40
19.0
 40
20.0
 40
20.0
 40
20.0
 40
21.0
 40
21.0
 40
21.0
 40
22.0
 40
22.0
 40
22.0
 40
23.0
 40
23.0
 40
23.0
 40
24.0
 40
24.0
 40
24.0
 40
25.0
 40
25.0
 40
25.0
 40
26.0
 40
26.0
 40
26.0
 40
27.0
 40
27.0
 40
27.0
 40
28.0
 40
28.0
 40
28.0
 40
28.0
 10
92.06018606639468
 20
-131.6133273325481
 30
0.0
 10
92.06018606639468
 20
-131.6853298281898
 30
0.0
 10
92.06673174781666
 20
-131.7528536997007
 30
0.0
 10
92.07086586239896
 20
-131.8059081701735
 30
0.0
 10
92.07086586239896
 20
-131.8059081701735
 30
0.0
 10
91.85520288502231
 20
-131.8059081701735
 30
0.0
 10
91.85520288502231
 20
-131.8059081701735
 30
0.0
 10
91.86140405689576
 20
-131.7549207569918
 30
0.0
 10
91.86794973831773
 20
-131.6873968854809
 30
0.0
 10
91.86794973831773
 20
-131.6133273325481
 30
0.0
 10
91.86794973831773
 20
-131.6133273325481
 30
0.0
 10
91.40871851013394
 20
-131.6133273325481
 30
0.0
 10
91.40871851013394
 20
-131.6133273325481
 30
0.0
 10
91.40871851013394
 20
-131.6853298281898
 30
0.0
 10
91.41285262471624
 20
-131.7297715599495
 30
0.0
 10
91.42146536342936
 20
-131.8059081701735
 30
0.0
 10
91.42146536342936
 20
-131.8059081701735
 30
0.0
 10
91.19512259004844
 20
-131.8059081701735
 30
0.0
 10
91.19512259004844
 20
-131.8059081701735
 30
0.0
 10
91.20563013127845
 20
-131.7297715599495
 30
0.0
 10
91.21407061521732
 20
-131.6619031788901
 30
0.0
 10
91.21407061521732
 20
-131.6133273325481
 30
0.0
 10
91.04061005753499
 20
-131.6133273325481
 30
0.0
 10
90.86508244256152
 20
-131.6195285044215
 30
0.0
 10
90.69162188487918
 20
-131.6302083004258
 30
0.0
 10
90.69162188487918
 20
-131.6302083004258
 30
0.0
 10
90.69162188487918
 20
-131.4228135522137
 30
0.0
 10
90.69162188487918
 20
-131.4228135522137
 30
0.0
 10
90.86508244256152
 20
-131.433493348218
 30
0.0
 10
91.04061005753499
 20
-131.4396945200915
 30
0.0
 10
91.21407061521732
 20
-131.4396945200915
 30
0.0
 10
91.21407061521732
 20
-131.4396945200915
 30
0.0
 10
91.21407061521732
 20
-131.3701035912894
 30
0.0
 10
91.21407061521732
 20
-131.3701035912894
 30
0.0
 10
91.21407061521732
 20
-131.3339300886943
 30
0.0
 10
91.20786944334387
 20
-131.1754556963728
 30
0.0
 10
91.20563013127845
 20
-131.1392821937777
 30
0.0
 10
91.20563013127845
 20
-131.1392821937777
 30
0.0
 10
91.4235324207205
 20
-131.1606417857862
 30
0.0
 10
91.4235324207205
 20
-131.1606417857862
 30
0.0
 10
91.44695907002021
 20
-131.1627088430774
 30
0.0
 10
91.46384003789794
 20
-131.1668429576597
 30
0.0
 10
91.46384003789794
 20
-131.1857909828286
 30
0.0
 10
91.46384003789794
 20
-131.2050835175459
 30
0.0
 10
91.44695907002021
 20
-131.2133517467105
 30
0.0
 10
91.41285262471624
 20
-131.2322997718794
 30
0.0
 10
91.41078556742508
 20
-131.2557264211791
 30
0.0
 10
91.40871851013394
 20
-131.3635579098674
 30
0.0
 10
91.40871851013394
 20
-131.3721706485806
 30
0.0
 10
91.40871851013394
 20
-131.3721706485806
 30
0.0
 10
91.40871851013394
 20
-131.4396945200915
 30
0.0
 10
91.40871851013394
 20
-131.4396945200915
 30
0.0
 10
91.40871851013394
 20
-131.4396945200915
 30
0.0
 10
91.86794973831773
 20
-131.4396945200915
 30
0.0
 10
91.86794973831773
 20
-131.4396945200915
 30
0.0
 10
91.86794973831773
 20
-131.4396945200915
 30
0.0
 10
91.86794973831773
 20
-131.350811056572
 30
0.0
 10
91.86794973831773
 20
-131.350811056572
 30
0.0
 10
91.86794973831773
 20
-131.308780891652
 30
0.0
 10
91.86347111418691
 20
-131.1837239255374
 30
0.0
 10
91.86140405689576
 20
-131.1413492510688
 30
0.0
 10
91.86140405689576
 20
-131.1413492510688
 30
0.0
 10
92.07086586239896
 20
-131.1606417857862
 30
0.0
 10
92.07086586239896
 20
-131.1606417857862
 30
0.0
 10
92.08567977298553
 20
-131.1627088430774
 30
0.0
 10
92.11117347957638
 20
-131.1647759003685
 30
0.0
 10
92.11117347957638
 20
-131.1837239255374
 30
0.0
 10
92.11117347957638
 20
-131.2006048934151
 30
0.0
 10
92.0963595689898
 20
-131.2071505748371
 30
0.0
 10
92.06259763323436
 20
-131.2219644854237
 30
0.0
 10
92.06018606639468
 20
-131.2684732744746
 30
0.0
 10
92.06018606639468
 20
-131.3191161781077
 30
0.0
 10
92.06018606639468
 20
-131.3635579098674
 30
0.0
 10
92.06018606639468
 20
-131.3635579098674
 30
0.0
 10
92.06018606639468
 20
-131.4396945200915
 30
0.0
 10
92.06018606639468
 20
-131.4396945200915
 30
0.0
 10
92.41985403505477
 20
-131.433493348218
 30
0.0
 10
92.46016165223219
 20
-131.4314262909269
 30
0.0
 10
92.60416664351563
 20
-131.4228135522137
 30
0.0
 10
92.60416664351563
 20
-131.4228135522137
 30
0.0
 10
92.60416664351563
 20
-131.6302083004258
 30
0.0
 10
92.60416664351563
 20
-131.6302083004258
 30
0.0
 10
92.40504012446819
 20
-131.6174614471304
 30
0.0
 10
92.24243161756439
 20
-131.6153943898392
 30
0.0
 10
92.06018606639468
 20
-131.6133273325481
 30
0.0
  0
SPLINE
  5
C3
330
BD
100
AcDbEntity
  8
_U+30EC_U+30A4_U+30E4_U+30FC 1
370
     0
100
AcDbSpline
210
0.0
220
0.0
230
1.0
 70
    11
 71
     3
 72
    56
 73
    52
 74
     0
 42
0.0000000001
 43
0.0000000001
 12
1.0
 22
0.0
 32
0.0
 13
1.0
 23
0.0
 33
0.0
 40
0.0
 40
0.0
 40
0.0
 40
0.0
 40
1.0
 40
1.0
 40
1.0
 40
2.0
 40
2.0
 40
2.0
 40
3.0
 40
3.0
 40
3.0
 40
4.0
 40
4.0
 40
4.0
 40
5.0
 40
5.0
 40
5.0
 40
6.0
 40
6.0
 40
6.0
 40
7.0
 40
7.0
 40
7.0
 40
8.0
 40
8.0
 40
8.0
 40
9.0
 40
9.0
 40
9.0
 40
10.0
 40
10.0
 40
10.0
 40
11.0
 40
11.0
 40
11.0
 40
12.0
 40
12.0
 40
12.0
 40
13.0
 40
13.0
 40
13.0
 40
14.0
 40
14.0
 40
14.0
 40
15.0
 40
15.0
 40
15.0
 40
16.0
 40
16.0
 40
16.0
 40
17.0
 40
17.0
 40
17.0
 40
17.0
 10
92.1514810967538
 20
-132.8508056308498
 30
0.0
 10
92.10256074086325
 20
-133.011691590011
 30
0.0
 10
92.04985077993894
 20
-133.0454535257664
 30
0.0
 10
91.91032441278631
 20
-133.0454535257664
 30
0.0
 10
91.91032441278631
 20
-133.0454535257664
 30
0.0
 10
91.56305878787313
 20
-133.0454535257664
 30
0.0
 10
91.56305878787313
 20
-133.0454535257664
 30
0.0
 10
91.4276665353028
 20
-133.0454535257664
 30
0.0
 10
91.37702363166964
 20
-133.0454535257664
 30
0.0
 10
91.33258189990991
 20
-132.9948106221333
 30
0.0
 10
91.28176674150248
 20
-132.935554979787
 30
0.0
 10
91.28176674150248
 20
-132.8866346238964
 30
0.0
 10
91.28176674150248
 20
-132.6985324104018
 30
0.0
 10
91.28176674150248
 20
-132.6985324104018
 30
0.0
 10
91.28176674150248
 20
-132.4087998800923
 30
0.0
 10
91.28176674150248
 20
-132.4087998800923
 30
0.0
 10
91.28176674150248
 20
-132.3409314990328
 30
0.0
 10
91.27763262692018
 20
-132.1759114252894
 30
0.0
 10
91.27556556962902
 20
-132.1125216683608
 30
0.0
 10
91.27556556962902
 20
-132.1125216683608
 30
0.0
 10
91.49760197365339
 20
-132.1421494895339
 30
0.0
 10
91.49760197365339
 20
-132.1421494895339
 30
0.0
 10
91.52102862295308
 20
-132.144216546825
 30
0.0
 10
91.53790959083081
 20
-132.150762228247
 30
0.0
 10
91.53790959083081
 20
-132.1655761388336
 30
0.0
 10
91.53790959083081
 20
-132.1865912212936
 30
0.0
 10
91.5186170561134
 20
-132.1948594504582
 30
0.0
 10
91.48933374448877
 20
-132.2076063037537
 30
0.0
 10
91.4869221776491
 20
-132.2713405702308
 30
0.0
 10
91.4827880630668
 20
-132.2861544808173
 30
0.0
 10
91.4827880630668
 20
-132.4215467333877
 30
0.0
 10
91.4827880630668
 20
-132.4215467333877
 30
0.0
 10
91.4827880630668
 20
-132.7660562819127
 30
0.0
 10
91.4827880630668
 20
-132.7660562819127
 30
0.0
 10
91.4827880630668
 20
-132.8446044589764
 30
0.0
 10
91.5062147123665
 20
-132.8635524841452
 30
0.0
 10
91.60991208647252
 20
-132.8635524841452
 30
0.0
 10
91.60991208647252
 20
-132.8635524841452
 30
0.0
 10
91.82350800655801
 20
-132.8635524841452
 30
0.0
 10
91.82350800655801
 20
-132.8635524841452
 30
0.0
 10
91.91239147007747
 20
-132.8635524841452
 30
0.0
 10
91.92479381382437
 20
-132.8421928921367
 30
0.0
 10
91.93547360982863
 20
-132.8170436950944
 30
0.0
 10
91.96716848829294
 20
-132.7429741421615
 30
0.0
 10
91.97371416971491
 20
-132.6285969720512
 30
0.0
 10
91.97578122700605
 20
-132.5948350362957
 30
0.0
 10
91.97578122700605
 20
-132.5948350362957
 30
0.0
 10
92.1873100898004
 20
-132.7112792636972
 30
0.0
 10
92.1873100898004
 20
-132.7112792636972
 30
0.0
 10
92.18110891792695
 20
-132.7343614034484
 30
0.0
 10
92.15768226862725
 20
-132.8318576056809
 30
0.0
 10
92.1514810967538
 20
-132.8508056308498
 30
0.0
  0
SPLINE
  5
C4
330
BD
100
AcDbEntity
  8
_U+30EC_U+30A4_U+30E4_U+30FC 1
370
     0
100
AcDbSpline
210
0.0
220
0.0
230
1.0
 70
    11
 71
     3
 72
    17
 73
    13
 74
     0
 42
0.0000000001
 43
0.0000000001
 12
1.0
 22
0.0
 32
0.0
 13
1.0
 23
0.0
 33
0.0
 40
0.0
 40
0.0
 40
0.0
 40
0.0
 40
1.0
 40
1.0
 40
1.0
 40
2.0
 40
2.0
 40
2.0
 40
3.0
 40
3.0
 40
3.0
 40
4.0
 40
4.0
 40
4.0
 40
4.0
 10
91.73049042845626
 20
-132.5080186300675
 30
0.0
 10
91.69431692586114
 20
-132.2499809782222
 30
0.0
 10
91.58648543717283
 20
-132.0574001405968
 30
0.0
 10
91.5654703547128
 20
-132.0215711475502
 30
0.0
 10
91.5654703547128
 20
-132.0215711475502
 30
0.0
 10
91.75563962549859
 20
-131.9729953012082
 30
0.0
 10
91.75563962549859
 20
-131.9729953012082
 30
0.0
 10
91.79388018538486
 20
-132.040519172719
 30
0.0
 10
91.8424560317269
 20
-132.1314696935297
 30
0.0
 10
91.92479381382437
 20
-132.4170681092569
 30
0.0
 10
91.92479381382437
 20
-132.4170681092569
 30
0.0
 10
91.73049042845626
 20
-132.5080186300675
 30
0.0
 10
91.73049042845626
 20
-132.5080186300675
 30
0.0
  0
SPLINE
  5
C5
330
BD
100
AcDbEntity
  8
_U+30EC_U+30A4_U+30E4_U+30FC 1
370
     0
100
AcDbSpline
210
0.0
220
0.0
230
1.0
 70
    11
 71
     3
 72
    23
 73
    19
 74
     0
 42
0.0000000001
 43
0.0000000001
 12
1.0
 22
0.0
 32
0.0
 13
1.0
 23
0.0
 33
0.0
 40
0.0
 40
0.0
 40
0.0
 40
0.0
 40
1.0
 40
1.0
 40
1.0
 40
2.0
 40
2.0
 40
2.0
 40
3.0
 40
3.0
 40
3.0
 40
4.0
 40
4.0
 40
4.0
 40
5.0
 40
5.0
 40
5.0
 40
6.0
 40
6.0
 40
6.0
 40
6.0
 10
92.41158580589017
 20
-132.8104980136724
 30
0.0
 10
92.3733452460039
 20
-132.6985324104018
 30
0.0
 10
92.34371742483074
 20
-132.6351426534732
 30
0.0
 10
92.28032766790214
 20
-132.529378222076
 30
0.0
 10
92.22520614013814
 20
-132.4404947585566
 30
0.0
 10
92.16181638320955
 20
-132.3347303271594
 30
0.0
 10
92.10703936499408
 20
-132.2689290033911
 30
0.0
 10
92.10703936499408
 20
-132.2689290033911
 30
0.0
 10
92.29927569307102
 20
-132.1738443679982
 30
0.0
 10
92.29927569307102
 20
-132.1738443679982
 30
0.0
 10
92.31856822778842
 20
-132.2034721891714
 30
0.0
 10
92.40951874859901
 20
-132.3347303271594
 30
0.0
 10
92.42639971647674
 20
-132.3622910910414
 30
0.0
 10
92.48117673469221
 20
-132.44669593043
 30
0.0
 10
92.5679931409205
 20
-132.6055148323
 30
0.0
 10
92.58935273292906
 20
-132.6520236213509
 30
0.0
 10
92.58935273292906
 20
-132.6520236213509
 30
0.0
 10
92.41158580589017
 20
-132.8104980136724
 30
0.0
 10
92.41158580589017
 20
-132.8104980136724
 30
0.0
  0
HATCH
  5
C6
330
BD
100
AcDbEntity
  8
_U+30EC_U+30A4_U+30E4_U+30FC 1
 62
   179
420
  2234388
100
AcDbHatch
 10
0.0
 20
0.0
 30
0.0
210
0.0
220
0.0
230
1.0
  2
SOLID
 70
     1
 71
     0
 91
        5
 92
        1
 93
        1
 72
     4
 94
        3
 73
     0
 74
     1
 95
       26
 96
       22
 40
0.0
 40
0.0
 40
0.0
 40
0.0
 40
1.0
 40
1.0
 40
1.0
 40
2.0
 40
2.0
 40
2.0
 40
3.0
 40
3.0
 40
3.0
 40
4.0
 40
4.0
 40
4.0
 40
5.0
 40
5.0
 40
5.0
 40
6.0
 40
6.0
 40
6.0
 40
7.0
 40
7.0
 40
7.0
 40
7.0
 10
91.106239126529
 20
-132.3684922629148
 10
91.02803545901382
 20
-132.6899196716886
 10
91.0089151790707
 20
-132.7619221673304
 10
90.88196341043924
 20
-132.9310763556561
 10
90.88196341043924
 20
-132.9310763556561
 10
90.65992700641489
 20
-132.8742322801495
 10
90.65992700641489
 20
-132.8742322801495
 10
90.75931801116434
 20
-132.7343614034484
 10
90.81426728415407
 20
-132.6117160041735
 10
90.82908119474065
 20
-132.5738199538357
 10
90.86508244256152
 20
-132.4849364903163
 10
90.90745711703009
 20
-132.315437792442
 10
90.91159123161239
 20
-132.2437798063488
 10
90.91159123161239
 20
-132.2437798063488
 10
91.12742646376329
 20
-132.3071695632774
 10
91.12742646376329
 20
-132.3071695632774
 10
91.15705428493644
 20
-132.315437792442
 10
91.16549476887529
 20
-132.3178493592817
 10
91.16549476887529
 20
-132.3347303271594
 10
91.16549476887529
 20
-132.3578124669106
 10
91.12949352105444
 20
-132.3643581483325
 10
91.106239126529
 20
-132.3684922629148
 97
        0
 97
        0
 92
        1
 93
        1
 72
     4
 94
        3
 73
     0
 74
     1
 95
       89
 96
       85
 40
0.0
 40
0.0
 40
0.0
 40
0.0
 40
1.0
 40
1.0
 40
1.0
 40
2.0
 40
2.0
 40
2.0
 40
3.0
 40
3.0
 40
3.0
 40
4.0
 40
4.0
 40
4.0
 40
5.0
 40
5.0
 40
5.0
 40
6.0
 40
6.0
 40
6.0
 40
7.0
 40
7.0
 40
7.0
 40
8.0
 40
8.0
 40
8.0
 40
9.0
 40
9.0
 40
9.0
 40
10.0
 40
10.0
 40
10.0
 40
11.0
 40
11.0
 40
11.0
 40
12.0
 40
12.0
 40
12.0
 40
13.0
 40
13.0
 40
13.0
 40
14.0
 40
14.0
 40
14.0
 40
15.0
 40
15.0
 40
15.0
 40
16.0
 40
16.0
 40
16.0
 40
17.0
 40
17.0
 40
17.0
 40
18.0
 40
18.0
 40
18.0
 40
19.0
 40
19.0
 40
19.0
 40
20.0
 40
20.0
 40
20.0
 40
21.0
 40
21.0
 40
21.0
 40
22.0
 40
22.0
 40
22.0
 40
23.0
 40
23.0
 40
23.0
 40
24.0
 40
24.0
 40
24.0
 40
25.0
 40
25.0
 40
25.0
 40
26.0
 40
26.0
 40
26.0
 40
27.0
 40
27.0
 40
27.0
 40
28.0
 40
28.0
 40
28.0
 40
28.0
 10
92.06018606639468
 20
-131.6133273325481
 10
92.06018606639468
 20
-131.6853298281898
 10
92.06673174781666
 20
-131.7528536997007
 10
92.07086586239896
 20
-131.8059081701735
 10
92.07086586239896
 20
-131.8059081701735
 10
91.85520288502231
 20
-131.8059081701735
 10
91.85520288502231
 20
-131.8059081701735
 10
91.86140405689576
 20
-131.7549207569918
 10
91.86794973831773
 20
-131.6873968854809
 10
91.86794973831773
 20
-131.6133273325481
 10
91.86794973831773
 20
-131.6133273325481
 10
91.40871851013394
 20
-131.6133273325481
 10
91.40871851013394
 20
-131.6133273325481
 10
91.40871851013394
 20
-131.6853298281898
 10
91.41285262471624
 20
-131.7297715599495
 10
91.42146536342936
 20
-131.8059081701735
 10
91.42146536342936
 20
-131.8059081701735
 10
91.19512259004844
 20
-131.8059081701735
 10
91.19512259004844
 20
-131.8059081701735
 10
91.20563013127845
 20
-131.7297715599495
 10
91.21407061521732
 20
-131.6619031788901
 10
91.21407061521732
 20
-131.6133273325481
 10
91.04061005753499
 20
-131.6133273325481
 10
90.86508244256152
 20
-131.6195285044215
 10
90.69162188487918
 20
-131.6302083004258
 10
90.69162188487918
 20
-131.6302083004258
 10
90.69162188487918
 20
-131.4228135522137
 10
90.69162188487918
 20
-131.4228135522137
 10
90.86508244256152
 20
-131.433493348218
 10
91.04061005753499
 20
-131.4396945200915
 10
91.21407061521732
 20
-131.4396945200915
 10
91.21407061521732
 20
-131.4396945200915
 10
91.21407061521732
 20
-131.3701035912894
 10
91.21407061521732
 20
-131.3701035912894
 10
91.21407061521732
 20
-131.3339300886943
 10
91.20786944334387
 20
-131.1754556963728
 10
91.20563013127845
 20
-131.1392821937777
 10
91.20563013127845
 20
-131.1392821937777
 10
91.4235324207205
 20
-131.1606417857862
 10
91.4235324207205
 20
-131.1606417857862
 10
91.44695907002021
 20
-131.1627088430774
 10
91.46384003789794
 20
-131.1668429576597
 10
91.46384003789794
 20
-131.1857909828286
 10
91.46384003789794
 20
-131.2050835175459
 10
91.44695907002021
 20
-131.2133517467105
 10
91.41285262471624
 20
-131.2322997718794
 10
91.41078556742508
 20
-131.2557264211791
 10
91.40871851013394
 20
-131.3635579098674
 10
91.40871851013394
 20
-131.3721706485806
 10
91.40871851013394
 20
-131.3721706485806
 10
91.40871851013394
 20
-131.4396945200915
 10
91.40871851013394
 20
-131.4396945200915
 10
91.40871851013394
 20
-131.4396945200915
 10
91.86794973831773
 20
-131.4396945200915
 10
91.86794973831773
 20
-131.4396945200915
 10
91.86794973831773
 20
-131.4396945200915
 10
91.86794973831773
 20
-131.350811056572
 10
91.86794973831773
 20
-131.350811056572
 10
91.86794973831773
 20
-131.308780891652
 10
91.86347111418691
 20
-131.1837239255374
 10
91.86140405689576
 20
-131.1413492510688
 10
91.86140405689576
 20
-131.1413492510688
 10
92.07086586239896
 20
-131.1606417857862
 10
92.07086586239896
 20
-131.1606417857862
 10
92.08567977298553
 20
-131.1627088430774
 10
92.11117347957638
 20
-131.1647759003685
 10
92.11117347957638
 20
-131.1837239255374
 10
92.11117347957638
 20
-131.2006048934151
 10
92.0963595689898
 20
-131.2071505748371
 10
92.06259763323436
 20
-131.2219644854237
 10
92.06018606639468
 20
-131.2684732744746
 10
92.06018606639468
 20
-131.3191161781077
 10
92.06018606639468
 20
-131.3635579098674
 10
92.06018606639468
 20
-131.3635579098674
 10
92.06018606639468
 20
-131.4396945200915
 10
92.06018606639468
 20
-131.4396945200915
 10
92.41985403505477
 20
-131.433493348218
 10
92.46016165223219
 20
-131.4314262909269
 10
92.60416664351563
 20
-131.4228135522137
 10
92.60416664351563
 20
-131.4228135522137
 10
92.60416664351563
 20
-131.6302083004258
 10
92.60416664351563
 20
-131.6302083004258
 10
92.40504012446819
 20
-131.6174614471304
 10
92.24243161756439
 20
-131.6153943898392
 10
92.06018606639468
 20
-131.6133273325481
 97
        0
 97
        0
 92
        1
 93
        1
 72
     4
 94
        3
 73
     0
 74
     1
 95
       56
 96
       52
 40
0.0
 40
0.0
 40
0.0
 40
0.0
 40
1.0
 40
1.0
 40
1.0
 40
2.0
 40
2.0
 40
2.0
 40
3.0
 40
3.0
 40
3.0
 40
4.0
 40
4.0
 40
4.0
 40
5.0
 40
5.0
 40
5.0
 40
6.0
 40
6.0
 40
6.0
 40
7.0
 40
7.0
 40
7.0
 40
8.0
 40
8.0
 40
8.0
 40
9.0
 40
9.0
 40
9.0
 40
10.0
 40
10.0
 40
10.0
 40
11.0
 40
11.0
 40
11.0
 40
12.0
 40
12.0
 40
12.0
 40
13.0
 40
13.0
 40
13.0
 40
14.0
 40
14.0
 40
14.0
 40
15.0
 40
15.0
 40
15.0
 40
16.0
 40
16.0
 40
16.0
 40
17.0
 40
17.0
 40
17.0
 40
17.0
 10
92.1514810967538
 20
-132.8508056308498
 10
92.10256074086325
 20
-133.011691590011
 10
92.04985077993894
 20
-133.0454535257664
 10
91.91032441278631
 20
-133.0454535257664
 10
91.91032441278631
 20
-133.0454535257664
 10
91.56305878787313
 20
-133.0454535257664
 10
91.56305878787313
 20
-133.0454535257664
 10
91.4276665353028
 20
-133.0454535257664
 10
91.37702363166964
 20
-133.0454535257664
 10
91.33258189990991
 20
-132.9948106221333
 10
91.28176674150248
 20
-132.935554979787
 10
91.28176674150248
 20
-132.8866346238964
 10
91.28176674150248
 20
-132.6985324104018
 10
91.28176674150248
 20
-132.6985324104018
 10
91.28176674150248
 20
-132.4087998800923
 10
91.28176674150248
 20
-132.4087998800923
 10
91.28176674150248
 20
-132.3409314990328
 10
91.27763262692018
 20
-132.1759114252894
 10
91.27556556962902
 20
-132.1125216683608
 10
91.27556556962902
 20
-132.1125216683608
 10
91.49760197365339
 20
-132.1421494895339
 10
91.49760197365339
 20
-132.1421494895339
 10
91.52102862295308
 20
-132.144216546825
 10
91.53790959083081
 20
-132.150762228247
 10
91.53790959083081
 20
-132.1655761388336
 10
91.53790959083081
 20
-132.1865912212936
 10
91.5186170561134
 20
-132.1948594504582
 10
91.48933374448877
 20
-132.2076063037537
 10
91.4869221776491
 20
-132.2713405702308
 10
91.4827880630668
 20
-132.2861544808173
 10
91.4827880630668
 20
-132.4215467333877
 10
91.4827880630668
 20
-132.4215467333877
 10
91.4827880630668
 20
-132.7660562819127
 10
91.4827880630668
 20
-132.7660562819127
 10
91.4827880630668
 20
-132.8446044589764
 10
91.5062147123665
 20
-132.8635524841452
 10
91.60991208647252
 20
-132.8635524841452
 10
91.60991208647252
 20
-132.8635524841452
 10
91.82350800655801
 20
-132.8635524841452
 10
91.82350800655801
 20
-132.8635524841452
 10
91.91239147007747
 20
-132.8635524841452
 10
91.92479381382437
 20
-132.8421928921367
 10
91.93547360982863
 20
-132.8170436950944
 10
91.96716848829294
 20
-132.7429741421615
 10
91.97371416971491
 20
-132.6285969720512
 10
91.97578122700605
 20
-132.5948350362957
 10
91.97578122700605
 20
-132.5948350362957
 10
92.1873100898004
 20
-132.7112792636972
 10
92.1873100898004
 20
-132.7112792636972
 10
92.18110891792695
 20
-132.7343614034484
 10
92.15768226862725
 20
-132.8318576056809
 10
92.1514810967538
 20
-132.8508056308498
 97
        0
 97
        0
 92
        1
 93
        1
 72
     4
 94
        3
 73
     0
 74
     1
 95
       17
 96
       13
 40
0.0
 40
0.0
 40
0.0
 40
0.0
 40
1.0
 40
1.0
 40
1.0
 40
2.0
 40
2.0
 40
2.0
 40
3.0
 40
3.0
 40
3.0
 40
4.0
 40
4.0
 40
4.0
 40
4.0
 10
91.73049042845626
 20
-132.5080186300675
 10
91.69431692586114
 20
-132.2499809782222
 10
91.58648543717283
 20
-132.0574001405968
 10
91.5654703547128
 20
-132.0215711475502
 10
91.5654703547128
 20
-132.0215711475502
 10
91.75563962549859
 20
-131.9729953012082
 10
91.75563962549859
 20
-131.9729953012082
 10
91.79388018538486
 20
-132.040519172719
 10
91.8424560317269
 20
-132.1314696935297
 10
91.92479381382437
 20
-132.4170681092569
 10
91.92479381382437
 20
-132.4170681092569
 10
91.73049042845626
 20
-132.5080186300675
 10
91.73049042845626
 20
-132.5080186300675
 97
        0
 97
        0
 92
        1
 93
        1
 72
     4
 94
        3
 73
     0
 74
     1
 95
       23
 96
       19
 40
0.0
 40
0.0
 40
0.0
 40
0.0
 40
1.0
 40
1.0
 40
1.0
 40
2.0
 40
2.0
 40
2.0
 40
3.0
 40
3.0
 40
3.0
 40
4.0
 40
4.0
 40
4.0
 40
5.0
 40
5.0
 40
5.0
 40
6.0
 40
6.0
 40
6.0
 40
6.0
 10
92.41158580589017
 20
-132.8104980136724
 10
92.3733452460039
 20
-132.6985324104018
 10
92.34371742483074
 20
-132.6351426534732
 10
92.28032766790214
 20
-132.529378222076
 10
92.22520614013814
 20
-132.4404947585566
 10
92.16181638320955
 20
-132.3347303271594
 10
92.10703936499408
 20
-132.2689290033911
 10
92.10703936499408
 20
-132.2689290033911
 10
92.29927569307102
 20
-132.1738443679982
 10
92.29927569307102
 20
-132.1738443679982
 10
92.31856822778842
 20
-132.2034721891714
 10
92.40951874859901
 20
-132.3347303271594
 10
92.42639971647674
 20
-132.3622910910414
 10
92.48117673469221
 20
-132.44669593043
 10
92.5679931409205
 20
-132.6055148323
 10
92.58935273292906
 20
-132.6520236213509
 10
92.58935273292906
 20
-132.6520236213509
 10
92.41158580589017
 20
-132.8104980136724
 10
92.41158580589017
 20
-132.8104980136724
 97
        0
 97
        0
 75
     2
 76
     1
 98
        0
  0
SPLINE
  5
C7
330
BD
100
AcDbEntity
  8
_U+30EC_U+30A4_U+30E4_U+30FC 1
370
     0
100
AcDbSpline
210
0.0
220
0.0
230
1.0
 70
    11
 71
     3
 72
    83
 73
    79
 74
     0
 42
0.0000000001
 43
0.0000000001
 12
1.0
 22
0.0
 32
0.0
 13
1.0
 23
0.0
 33
0.0
 40
0.0
 40
0.0
 40
0.0
 40
0.0
 40
1.0
 40
1.0
 40
1.0
 40
2.0
 40
2.0
 40
2.0
 40
3.0
 40
3.0
 40
3.0
 40
4.0
 40
4.0
 40
4.0
 40
5.0
 40
5.0
 40
5.0
 40
6.0
 40
6.0
 40
6.0
 40
7.0
 40
7.0
 40
7.0
 40
8.0
 40
8.0
 40
8.0
 40
9.0
 40
9.0
 40
9.0
 40
10.0
 40
10.0
 40
10.0
 40
11.0
 40
11.0
 40
11.0
 40
12.0
 40
12.0
 40
12.0
 40
13.0
 40
13.0
 40
13.0
 40
14.0
 40
14.0
 40
14.0
 40
15.0
 40
15.0
 40
15.0
 40
16.0
 40
16.0
 40
16.0
 40
17.0
 40
17.0
 40
17.0
 40
18.0
 40
18.0
 40
18.0
 40
19.0
 40
19.0
 40
19.0
 40
20.0
 40
20.0
 40
20.0
 40
21.0
 40
21.0
 40
21.0
 40
22.0
 40
22.0
 40
22.0
 40
23.0
 40
23.0
 40
23.0
 40
24.0
 40
24.0
 40
24.0
 40
25.0
 40
25.0
 40
25.0
 40
26.0
 40
26.0
 40
26.0
 40
26.0
 10
93.37104489853225
 20
-131.7421739036964
 30
0.0
 10
93.43856877004313
 20
-131.9791964730816
 30
0.0
 10
93.60806746791744
 20
-132.1631645719939
 30
0.0
 10
93.64182940367289
 20
-132.1948594504582
 30
0.0
 10
93.64182940367289
 20
-132.1948594504582
 30
0.0
 10
93.51918400439799
 20
-132.342998556324
 30
0.0
 10
93.51918400439799
 20
-132.342998556324
 30
0.0
 10
93.44924856604742
 20
-132.2754746848131
 30
0.0
 10
93.39205998099227
 20
-132.1972710172979
 30
0.0
 10
93.3414170773591
 20
-132.1145887256519
 30
0.0
 10
93.3414170773591
 20
-132.1145887256519
 30
0.0
 10
93.3414170773591
 20
-132.3919189122145
 30
0.0
 10
93.3414170773591
 20
-132.3919189122145
 30
0.0
 10
93.3414170773591
 20
-132.529378222076
 30
0.0
 10
93.34761824923254
 20
-132.956570062247
 30
0.0
 10
93.36036510252796
 20
-133.0709472323573
 30
0.0
 10
93.36036510252796
 20
-133.0709472323573
 30
0.0
 10
93.1319552718559
 20
-133.0709472323573
 30
0.0
 10
93.1319552718559
 20
-133.0709472323573
 30
0.0
 10
93.1360893864382
 20
-132.9923990552936
 30
0.0
 10
93.14263506786018
 20
-132.9100612731961
 30
0.0
 10
93.14883623973363
 20
-132.7512423713261
 30
0.0
 10
93.15090329702478
 20
-132.6985324104018
 30
0.0
 10
93.16158309302905
 20
-132.4298149625523
 30
0.0
 10
93.16158309302905
 20
-132.398120084088
 30
0.0
 10
93.16158309302905
 20
-132.398120084088
 30
0.0
 10
93.16158309302905
 20
-132.1886582785848
 30
0.0
 10
93.16158309302905
 20
-132.1886582785848
 30
0.0
 10
93.08751354009618
 20
-132.3791720589191
 30
0.0
 10
92.96693519811244
 20
-132.5462591899537
 30
0.0
 10
92.92249346635272
 20
-132.5927679790046
 30
0.0
 10
92.92249346635272
 20
-132.5927679790046
 30
0.0
 10
92.72991262872725
 20
-132.4932047194809
 30
0.0
 10
92.72991262872725
 20
-132.4932047194809
 30
0.0
 10
92.79778100978668
 20
-132.4339490771346
 30
0.0
 10
92.90767955576614
 20
-132.3347303271594
 30
0.0
 10
93.00069713386789
 20
-132.1380153749516
 30
0.0
 10
93.04961748975843
 20
-132.0343180008456
 30
0.0
 10
93.10439450797391
 20
-131.8775661562667
 30
0.0
 10
93.12334253314278
 20
-131.7421739036964
 30
0.0
 10
93.10852862255621
 20
-131.7421739036964
 30
0.0
 10
92.96073402623898
 20
-131.7421739036964
 30
0.0
 10
92.84428979883754
 20
-131.7590548715741
 30
0.0
 10
92.84428979883754
 20
-131.7590548715741
 30
0.0
 10
92.84428979883754
 20
-131.5520046329106
 30
0.0
 10
92.84428979883754
 20
-131.5520046329106
 30
0.0
 10
92.96280108353014
 20
-131.5688856007883
 30
0.0
 10
93.11920841856048
 20
-131.5688856007883
 30
0.0
 10
93.12127547585163
 20
-131.5688856007883
 30
0.0
 10
93.12127547585163
 20
-131.5688856007883
 30
0.0
 10
93.15951603573791
 20
-131.5688856007883
 30
0.0
 10
93.15951603573791
 20
-131.5688856007883
 30
0.0
 10
93.15951603573791
 20
-131.3594237952852
 30
0.0
 10
93.15951603573791
 20
-131.3466769419897
 30
0.0
 10
93.15297035431593
 20
-131.1351480791954
 30
0.0
 10
93.15297035431593
 20
-131.1351480791954
 30
0.0
 10
93.37517901311455
 20
-131.1520290470731
 30
0.0
 10
93.37517901311455
 20
-131.1520290470731
 30
0.0
 10
93.38379175182767
 20
-131.1540961043643
 30
0.0
 10
93.40894094887
 20
-131.1561631616554
 30
0.0
 10
93.40894094887
 20
-131.1795898109551
 30
0.0
 10
93.40894094887
 20
-131.198537836124
 30
0.0
 10
93.39412703828341
 20
-131.2050835175459
 30
0.0
 10
93.36036510252796
 20
-131.2198974281325
 30
0.0
 10
93.35829804523682
 20
-131.2684732744746
 30
0.0
 10
93.34761824923254
 20
-131.5137640730243
 30
0.0
 10
93.34761824923254
 20
-131.5688856007883
 30
0.0
 10
93.34761824923254
 20
-131.5688856007883
 30
0.0
 10
93.3965386051231
 20
-131.5688856007883
 30
0.0
 10
93.3965386051231
 20
-131.5688856007883
 30
0.0
 10
93.44098033688282
 20
-131.5688856007883
 30
0.0
 10
93.58257376132659
 20
-131.5668185434972
 30
0.0
 10
93.67765839671948
 20
-131.5520046329106
 30
0.0
 10
93.67765839671948
 20
-131.5520046329106
 30
0.0
 10
93.67765839671948
 20
-131.7590548715741
 30
0.0
 10
93.67765839671948
 20
-131.7590548715741
 30
0.0
 10
93.55501299744458
 20
-131.7421739036964
 30
0.0
 10
93.40894094887
 20
-131.7421739036964
 30
0.0
 10
93.37104489853225
 20
-131.7421739036964
 30
0.0
  0
SPLINE
  5
C8
330
BD
100
AcDbEntity
  8
_U+30EC_U+30A4_U+30E4_U+30FC 1
370
     0
100
AcDbSpline
210
0.0
220
0.0
230
1.0
 70
    11
 71
     3
 72
    80
 73
    76
 74
     0
 42
0.0000000001
 43
0.0000000001
 12
1.0
 22
0.0
 32
0.0
 13
1.0
 23
0.0
 33
0.0
 40
0.0
 40
0.0
 40
0.0
 40
0.0
 40
1.0
 40
1.0
 40
1.0
 40
2.0
 40
2.0
 40
2.0
 40
3.0
 40
3.0
 40
3.0
 40
4.0
 40
4.0
 40
4.0
 40
5.0
 40
5.0
 40
5.0
 40
6.0
 40
6.0
 40
6.0
 40
7.0
 40
7.0
 40
7.0
 40
8.0
 40
8.0
 40
8.0
 40
9.0
 40
9.0
 40
9.0
 40
10.0
 40
10.0
 40
10.0
 40
11.0
 40
11.0
 40
11.0
 40
12.0
 40
12.0
 40
12.0
 40
13.0
 40
13.0
 40
13.0
 40
14.0
 40
14.0
 40
14.0
 40
15.0
 40
15.0
 40
15.0
 40
16.0
 40
16.0
 40
16.0
 40
17.0
 40
17.0
 40
17.0
 40
18.0
 40
18.0
 40
18.0
 40
19.0
 40
19.0
 40
19.0
 40
20.0
 40
20.0
 40
20.0
 40
21.0
 40
21.0
 40
21.0
 40
22.0
 40
22.0
 40
22.0
 40
23.0
 40
23.0
 40
23.0
 40
24.0
 40
24.0
 40
24.0
 40
25.0
 40
25.0
 40
25.0
 40
25.0
 10
94.44763723767282
 20
-131.735972731823
 30
0.0
 10
94.44763723767282
 20
-131.735972731823
 30
0.0
 10
94.44763723767282
 20
-132.7894829312123
 30
0.0
 10
94.44763723767282
 20
-132.7894829312123
 30
0.0
 10
94.44763723767282
 20
-132.9503688903735
 30
0.0
 10
94.44763723767282
 20
-133.0137586473021
 30
0.0
 10
94.33773869169335
 20
-133.0413194111841
 30
0.0
 10
94.3081108705202
 20
-133.0495876403487
 30
0.0
 10
94.2171603497096
 20
-133.0664686082264
 30
0.0
 10
94.11346297560358
 20
-133.060267436353
 30
0.0
 10
94.11346297560358
 20
-133.060267436353
 30
0.0
 10
93.98013778032441
 20
-132.852872688141
 30
0.0
 10
93.98013778032441
 20
-132.852872688141
 30
0.0
 10
94.05007321867498
 20
-132.8635524841452
 30
0.0
 10
94.13275551032098
 20
-132.8656195414364
 30
0.0
 10
94.17926429937185
 20
-132.8656195414364
 30
0.0
 10
94.2405869990093
 20
-132.8656195414364
 30
0.0
 10
94.25953502417818
 20
-132.852872688141
 30
0.0
 10
94.25953502417818
 20
-132.7832817593389
 30
0.0
 10
94.25953502417818
 20
-132.7832817593389
 30
0.0
 10
94.25953502417818
 20
-132.0639458220188
 30
0.0
 10
94.25953502417818
 20
-132.0639458220188
 30
0.0
 10
94.11553003289474
 20
-132.3939859695057
 30
0.0
 10
93.8323431840072
 20
-132.6602918505155
 30
0.0
 10
93.71176484202346
 20
-132.7322943461572
 30
0.0
 10
93.71176484202346
 20
-132.7322943461572
 30
0.0
 10
93.48955618322483
 20
-132.6075818895912
 30
0.0
 10
93.48955618322483
 20
-132.6075818895912
 30
0.0
 10
93.66491154342405
 20
-132.5207654833629
 30
0.0
 10
93.79823673870322
 20
-132.4236137906788
 30
0.0
 10
93.93810761540436
 20
-132.2372341249268
 30
0.0
 10
94.08383515443043
 20
-132.0384521154279
 30
0.0
 10
94.13895668219443
 20
-131.8754990989756
 30
0.0
 10
94.16858450336758
 20
-131.735972731823
 30
0.0
 10
94.16858450336758
 20
-131.735972731823
 30
0.0
 10
94.09864906501701
 20
-131.735972731823
 30
0.0
 10
94.09864906501701
 20
-131.735972731823
 30
0.0
 10
94.02457951208413
 20
-131.735972731823
 30
0.0
 10
93.87023923434495
 20
-131.7421739036964
 30
0.0
 10
93.78342282811664
 20
-131.7549207569918
 30
0.0
 10
93.78342282811664
 20
-131.7549207569918
 30
0.0
 10
93.78342282811664
 20
-131.5454589514887
 30
0.0
 10
93.78342282811664
 20
-131.5454589514887
 30
0.0
 10
93.89125431680498
 20
-131.5602728620752
 30
0.0
 10
94.05007321867498
 20
-131.564751486206
 30
0.0
 10
94.09864906501701
 20
-131.564751486206
 30
0.0
 10
94.09864906501701
 20
-131.564751486206
 30
0.0
 10
94.25953502417818
 20
-131.564751486206
 30
0.0
 10
94.25953502417818
 20
-131.564751486206
 30
0.0
 10
94.25953502417818
 20
-131.4314262909269
 30
0.0
 10
94.25746796688702
 20
-131.2767415036392
 30
0.0
 10
94.2447211135916
 20
-131.1458278751997
 30
0.0
 10
94.2447211135916
 20
-131.1458278751997
 30
0.0
 10
94.46245114825939
 20
-131.1627088430774
 30
0.0
 10
94.46245114825939
 20
-131.1627088430774
 30
0.0
 10
94.47726505884597
 20
-131.1647759003685
 30
0.0
 10
94.49207896943254
 20
-131.1689100149508
 30
0.0
 10
94.49207896943254
 20
-131.1857909828286
 30
0.0
 10
94.49207896943254
 20
-131.2050835175459
 30
0.0
 10
94.48587779755908
 20
-131.2092176321283
 30
0.0
 10
94.45211586180365
 20
-131.226098600006
 30
0.0
 10
94.44763723767282
 20
-131.28122012777
 30
0.0
 10
94.44763723767282
 20
-131.2981010956477
 30
0.0
 10
94.44763723767282
 20
-131.4524413733869
 30
0.0
 10
94.44763723767282
 20
-131.4524413733869
 30
0.0
 10
94.44763723767282
 20
-131.5623399193664
 30
0.0
 10
94.44763723767282
 20
-131.5623399193664
 30
0.0
 10
94.52411835744536
 20
-131.5602728620752
 30
0.0
 10
94.62988278884254
 20
-131.5582058047841
 30
0.0
 10
94.73116859610887
 20
-131.5454589514887
 30
0.0
 10
94.73116859610887
 20
-131.5454589514887
 30
0.0
 10
94.73116859610887
 20
-131.7528536997007
 30
0.0
 10
94.73116859610887
 20
-131.7528536997007
 30
0.0
 10
94.62540416471171
 20
-131.7401068464053
 30
0.0
 10
94.50689288001911
 20
-131.7380397891141
 30
0.0
 10
94.44763723767282
 20
-131.735972731823
 30
0.0
  0
HATCH
  5
C9
330
BD
100
AcDbEntity
  8
_U+30EC_U+30A4_U+30E4_U+30FC 1
 62
   179
420
  2234388
100
AcDbHatch
 10
0.0
 20
0.0
 30
0.0
210
0.0
220
0.0
230
1.0
  2
SOLID
 70
     1
 71
     0
 91
        2
 92
        1
 93
        1
 72
     4
 94
        3
 73
     0
 74
     1
 95
       83
 96
       79
 40
0.0
 40
0.0
 40
0.0
 40
0.0
 40
1.0
 40
1.0
 40
1.0
 40
2.0
 40
2.0
 40
2.0
 40
3.0
 40
3.0
 40
3.0
 40
4.0
 40
4.0
 40
4.0
 40
5.0
 40
5.0
 40
5.0
 40
6.0
 40
6.0
 40
6.0
 40
7.0
 40
7.0
 40
7.0
 40
8.0
 40
8.0
 40
8.0
 40
9.0
 40
9.0
 40
9.0
 40
10.0
 40
10.0
 40
10.0
 40
11.0
 40
11.0
 40
11.0
 40
12.0
 40
12.0
 40
12.0
 40
13.0
 40
13.0
 40
13.0
 40
14.0
 40
14.0
 40
14.0
 40
15.0
 40
15.0
 40
15.0
 40
16.0
 40
16.0
 40
16.0
 40
17.0
 40
17.0
 40
17.0
 40
18.0
 40
18.0
 40
18.0
 40
19.0
 40
19.0
 40
19.0
 40
20.0
 40
20.0
 40
20.0
 40
21.0
 40
21.0
 40
21.0
 40
22.0
 40
22.0
 40
22.0
 40
23.0
 40
23.0
 40
23.0
 40
24.0
 40
24.0
 40
24.0
 40
25.0
 40
25.0
 40
25.0
 40
26.0
 40
26.0
 40
26.0
 40
26.0
 10
93.37104489853225
 20
-131.7421739036964
 10
93.43856877004313
 20
-131.9791964730816
 10
93.60806746791744
 20
-132.1631645719939
 10
93.64182940367289
 20
-132.1948594504582
 10
93.64182940367289
 20
-132.1948594504582
 10
93.51918400439799
 20
-132.342998556324
 10
93.51918400439799
 20
-132.342998556324
 10
93.44924856604742
 20
-132.2754746848131
 10
93.39205998099227
 20
-132.1972710172979
 10
93.3414170773591
 20
-132.1145887256519
 10
93.3414170773591
 20
-132.1145887256519
 10
93.3414170773591
 20
-132.3919189122145
 10
93.3414170773591
 20
-132.3919189122145
 10
93.3414170773591
 20
-132.529378222076
 10
93.34761824923254
 20
-132.956570062247
 10
93.36036510252796
 20
-133.0709472323573
 10
93.36036510252796
 20
-133.0709472323573
 10
93.1319552718559
 20
-133.0709472323573
 10
93.1319552718559
 20
-133.0709472323573
 10
93.1360893864382
 20
-132.9923990552936
 10
93.14263506786018
 20
-132.9100612731961
 10
93.14883623973363
 20
-132.7512423713261
 10
93.15090329702478
 20
-132.6985324104018
 10
93.16158309302905
 20
-132.4298149625523
 10
93.16158309302905
 20
-132.398120084088
 10
93.16158309302905
 20
-132.398120084088
 10
93.16158309302905
 20
-132.1886582785848
 10
93.16158309302905
 20
-132.1886582785848
 10
93.08751354009618
 20
-132.3791720589191
 10
92.96693519811244
 20
-132.5462591899537
 10
92.92249346635272
 20
-132.5927679790046
 10
92.92249346635272
 20
-132.5927679790046
 10
92.72991262872725
 20
-132.4932047194809
 10
92.72991262872725
 20
-132.4932047194809
 10
92.79778100978668
 20
-132.4339490771346
 10
92.90767955576614
 20
-132.3347303271594
 10
93.00069713386789
 20
-132.1380153749516
 10
93.04961748975843
 20
-132.0343180008456
 10
93.10439450797391
 20
-131.8775661562667
 10
93.12334253314278
 20
-131.7421739036964
 10
93.10852862255621
 20
-131.7421739036964
 10
92.96073402623898
 20
-131.7421739036964
 10
92.84428979883754
 20
-131.7590548715741
 10
92.84428979883754
 20
-131.7590548715741
 10
92.84428979883754
 20
-131.5520046329106
 10
92.84428979883754
 20
-131.5520046329106
 10
92.96280108353014
 20
-131.5688856007883
 10
93.11920841856048
 20
-131.5688856007883
 10
93.12127547585163
 20
-131.5688856007883
 10
93.12127547585163
 20
-131.5688856007883
 10
93.15951603573791
 20
-131.5688856007883
 10
93.15951603573791
 20
-131.5688856007883
 10
93.15951603573791
 20
-131.3594237952852
 10
93.15951603573791
 20
-131.3466769419897
 10
93.15297035431593
 20
-131.1351480791954
 10
93.15297035431593
 20
-131.1351480791954
 10
93.37517901311455
 20
-131.1520290470731
 10
93.37517901311455
 20
-131.1520290470731
 10
93.38379175182767
 20
-131.1540961043643
 10
93.40894094887
 20
-131.1561631616554
 10
93.40894094887
 20
-131.1795898109551
 10
93.40894094887
 20
-131.198537836124
 10
93.39412703828341
 20
-131.2050835175459
 10
93.36036510252796
 20
-131.2198974281325
 10
93.35829804523682
 20
-131.2684732744746
 10
93.34761824923254
 20
-131.5137640730243
 10
93.34761824923254
 20
-131.5688856007883
 10
93.34761824923254
 20
-131.5688856007883
 10
93.3965386051231
 20
-131.5688856007883
 10
93.3965386051231
 20
-131.5688856007883
 10
93.44098033688282
 20
-131.5688856007883
 10
93.58257376132659
 20
-131.5668185434972
 10
93.67765839671948
 20
-131.5520046329106
 10
93.67765839671948
 20
-131.5520046329106
 10
93.67765839671948
 20
-131.7590548715741
 10
93.67765839671948
 20
-131.7590548715741
 10
93.55501299744458
 20
-131.7421739036964
 10
93.40894094887
 20
-131.7421739036964
 10
93.37104489853225
 20
-131.7421739036964
 97
        0
 97
        0
 92
        1
 93
        1
 72
     4
 94
        3
 73
     0
 74
     1
 95
       80
 96
       76
 40
0.0
 40
0.0
 40
0.0
 40
0.0
 40
1.0
 40
1.0
 40
1.0
 40
2.0
 40
2.0
 40
2.0
 40
3.0
 40
3.0
 40
3.0
 40
4.0
 40
4.0
 40
4.0
 40
5.0
 40
5.0
 40
5.0
 40
6.0
 40
6.0
 40
6.0
 40
7.0
 40
7.0
 40
7.0
 40
8.0
 40
8.0
 40
8.0
 40
9.0
 40
9.0
 40
9.0
 40
10.0
 40
10.0
 40
10.0
 40
11.0
 40
11.0
 40
11.0
 40
12.0
 40
12.0
 40
12.0
 40
13.0
 40
13.0
 40
13.0
 40
14.0
 40
14.0
 40
14.0
 40
15.0
 40
15.0
 40
15.0
 40
16.0
 40
16.0
 40
16.0
 40
17.0
 40
17.0
 40
17.0
 40
18.0
 40
18.0
 40
18.0
 40
19.0
 40
19.0
 40
19.0
 40
20.0
 40
20.0
 40
20.0
 40
21.0
 40
21.0
 40
21.0
 40
22.0
 40
22.0
 40
22.0
 40
23.0
 40
23.0
 40
23.0
 40
24.0
 40
24.0
 40
24.0
 40
25.0
 40
25.0
 40
25.0
 40
25.0
 10
94.44763723767282
 20
-131.735972731823
 10
94.44763723767282
 20
-131.735972731823
 10
94.44763723767282
 20
-132.7894829312123
 10
94.44763723767282
 20
-132.7894829312123
 10
94.44763723767282
 20
-132.9503688903735
 10
94.44763723767282
 20
-133.0137586473021
 10
94.33773869169335
 20
-133.0413194111841
 10
94.3081108705202
 20
-133.0495876403487
 10
94.2171603497096
 20
-133.0664686082264
 10
94.11346297560358
 20
-133.060267436353
 10
94.11346297560358
 20
-133.060267436353
 10
93.98013778032441
 20
-132.852872688141
 10
93.98013778032441
 20
-132.852872688141
 10
94.05007321867498
 20
-132.8635524841452
 10
94.13275551032098
 20
-132.8656195414364
 10
94.17926429937185
 20
-132.8656195414364
 10
94.2405869990093
 20
-132.8656195414364
 10
94.25953502417818
 20
-132.852872688141
 10
94.25953502417818
 20
-132.7832817593389
 10
94.25953502417818
 20
-132.7832817593389
 10
94.25953502417818
 20
-132.0639458220188
 10
94.25953502417818
 20
-132.0639458220188
 10
94.11553003289474
 20
-132.3939859695057
 10
93.8323431840072
 20
-132.6602918505155
 10
93.71176484202346
 20
-132.7322943461572
 10
93.71176484202346
 20
-132.7322943461572
 10
93.48955618322483
 20
-132.6075818895912
 10
93.48955618322483
 20
-132.6075818895912
 10
93.66491154342405
 20
-132.5207654833629
 10
93.79823673870322
 20
-132.4236137906788
 10
93.93810761540436
 20
-132.2372341249268
 10
94.08383515443043
 20
-132.0384521154279
 10
94.13895668219443
 20
-131.8754990989756
 10
94.16858450336758
 20
-131.735972731823
 10
94.16858450336758
 20
-131.735972731823
 10
94.09864906501701
 20
-131.735972731823
 10
94.09864906501701
 20
-131.735972731823
 10
94.02457951208413
 20
-131.735972731823
 10
93.87023923434495
 20
-131.7421739036964
 10
93.78342282811664
 20
-131.7549207569918
 10
93.78342282811664
 20
-131.7549207569918
 10
93.78342282811664
 20
-131.5454589514887
 10
93.78342282811664
 20
-131.5454589514887
 10
93.89125431680498
 20
-131.5602728620752
 10
94.05007321867498
 20
-131.564751486206
 10
94.09864906501701
 20
-131.564751486206
 10
94.09864906501701
 20
-131.564751486206
 10
94.25953502417818
 20
-131.564751486206
 10
94.25953502417818
 20
-131.564751486206
 10
94.25953502417818
 20
-131.4314262909269
 10
94.25746796688702
 20
-131.2767415036392
 10
94.2447211135916
 20
-131.1458278751997
 10
94.2447211135916
 20
-131.1458278751997
 10
94.46245114825939
 20
-131.1627088430774
 10
94.46245114825939
 20
-131.1627088430774
 10
94.47726505884597
 20
-131.1647759003685
 10
94.49207896943254
 20
-131.1689100149508
 10
94.49207896943254
 20
-131.1857909828286
 10
94.49207896943254
 20
-131.2050835175459
 10
94.48587779755908
 20
-131.2092176321283
 10
94.45211586180365
 20
-131.226098600006
 10
94.44763723767282
 20
-131.28122012777
 10
94.44763723767282
 20
-131.2981010956477
 10
94.44763723767282
 20
-131.4524413733869
 10
94.44763723767282
 20
-131.4524413733869
 10
94.44763723767282
 20
-131.5623399193664
 10
94.44763723767282
 20
-131.5623399193664
 10
94.52411835744536
 20
-131.5602728620752
 10
94.62988278884254
 20
-131.5582058047841
 10
94.73116859610887
 20
-131.5454589514887
 10
94.73116859610887
 20
-131.5454589514887
 10
94.73116859610887
 20
-131.7528536997007
 10
94.73116859610887
 20
-131.7528536997007
 10
94.62540416471171
 20
-131.7401068464053
 10
94.50689288001911
 20
-131.7380397891141
 10
94.44763723767282
 20
-131.735972731823
 97
        0
 97
        0
 75
     2
 76
     1
 98
        0
  0
SPLINE
  5
CA
330
BD
100
AcDbEntity
  8
_U+30EC_U+30A4_U+30E4_U+30FC 1
370
     0
100
AcDbSpline
210
0.0
220
0.0
230
1.0
 70
    11
 71
     3
 72
    23
 73
    19
 74
     0
 42
0.0000000001
 43
0.0000000001
 12
1.0
 22
0.0
 32
0.0
 13
1.0
 23
0.0
 33
0.0
 40
0.0
 40
0.0
 40
0.0
 40
0.0
 40
1.0
 40
1.0
 40
1.0
 40
2.0
 40
2.0
 40
2.0
 40
3.0
 40
3.0
 40
3.0
 40
4.0
 40
4.0
 40
4.0
 40
5.0
 40
5.0
 40
5.0
 40
6.0
 40
6.0
 40
6.0
 40
6.0
 10
95.649975562025
 20
-133.1215901359904
 30
0.0
 10
95.48495548828154
 20
-132.929009298365
 30
0.0
 10
95.25241154302718
 20
-132.654090678642
 30
0.0
 10
95.25241154302718
 20
-132.1063204964873
 30
0.0
 10
95.25241154302718
 20
-131.5582058047841
 30
0.0
 10
95.48495548828154
 20
-131.2832871850611
 30
0.0
 10
95.649975562025
 20
-131.0907063474357
 30
0.0
 10
95.649975562025
 20
-131.0907063474357
 30
0.0
 10
95.76194116529562
 20
-131.1902696069594
 30
0.0
 10
95.76194116529562
 20
-131.1902696069594
 30
0.0
 10
95.62241479814301
 20
-131.357356737994
 30
0.0
 10
95.41088593534867
 20
-131.6133273325481
 30
0.0
 10
95.41088593534867
 20
-132.1063204964873
 30
0.0
 10
95.41088593534867
 20
-132.598969150878
 30
0.0
 10
95.62241479814301
 20
-132.8549397454321
 30
0.0
 10
95.76194116529562
 20
-133.0220268764667
 30
0.0
 10
95.76194116529562
 20
-133.0220268764667
 30
0.0
 10
95.649975562025
 20
-133.1215901359904
 30
0.0
 10
95.649975562025
 20
-133.1215901359904
 30
0.0
  0
HATCH
  5
CB
330
BD
100
AcDbEntity
  8
_U+30EC_U+30A4_U+30E4_U+30FC 1
 62
   179
420
  2234388
100
AcDbHatch
 10
0.0
 20
0.0
 30
0.0
210
0.0
220
0.0
230
1.0
  2
SOLID
 70
     1
 71
     0
 91
        1
 92
        1
 93
        1
 72
     4
 94
        3
 73
     0
 74
     1
 95
       23
 96
       19
 40
0.0
 40
0.0
 40
0.0
 40
0.0
 40
1.0
 40
1.0
 40
1.0
 40
2.0
 40
2.0
 40
2.0
 40
3.0
 40
3.0
 40
3.0
 40
4.0
 40
4.0
 40
4.0
 40
5.0
 40
5.0
 40
5.0
 40
6.0
 40
6.0
 40
6.0
 40
6.0
 10
95.649975562025
 20
-133.1215901359904
 10
95.48495548828154
 20
-132.929009298365
 10
95.25241154302718
 20
-132.654090678642
 10
95.25241154302718
 20
-132.1063204964873
 10
95.25241154302718
 20
-131.5582058047841
 10
95.48495548828154
 20
-131.2832871850611
 10
95.649975562025
 20
-131.0907063474357
 10
95.649975562025
 20
-131.0907063474357
 10
95.76194116529562
 20
-131.1902696069594
 10
95.76194116529562
 20
-131.1902696069594
 10
95.62241479814301
 20
-131.357356737994
 10
95.41088593534867
 20
-131.6133273325481
 10
95.41088593534867
 20
-132.1063204964873
 10
95.41088593534867
 20
-132.598969150878
 10
95.62241479814301
 20
-132.8549397454321
 10
95.76194116529562
 20
-133.0220268764667
 10
95.76194116529562
 20
-133.0220268764667
 10
95.649975562025
 20
-133.1215901359904
 10
95.649975562025
 20
-133.1215901359904
 97
        0
 97
        0
 75
     2
 76
     1
 98
        0
  0
SPLINE
  5
CC
330
BD
100
AcDbEntity
  8
_U+30EC_U+30A4_U+30E4_U+30FC 1
370
     0
100
AcDbSpline
210
0.0
220
0.0
230
1.0
 70
    11
 71
     3
 72
    38
 73
    34
 74
     0
 42
0.0000000001
 43
0.0000000001
 12
1.0
 22
0.0
 32
0.0
 13
1.0
 23
0.0
 33
0.0
 40
0.0
 40
0.0
 40
0.0
 40
0.0
 40
1.0
 40
1.0
 40
1.0
 40
2.0
 40
2.0
 40
2.0
 40
3.0
 40
3.0
 40
3.0
 40
4.0
 40
4.0
 40
4.0
 40
5.0
 40
5.0
 40
5.0
 40
6.0
 40
6.0
 40
6.0
 40
7.0
 40
7.0
 40
7.0
 40
8.0
 40
8.0
 40
8.0
 40
9.0
 40
9.0
 40
9.0
 40
10.0
 40
10.0
 40
10.0
 40
11.0
 40
11.0
 40
11.0
 40
11.0
 10
97.61023489313217
 20
-131.6853298281898
 30
0.0
 10
97.42385522738016
 20
-131.9454345373262
 30
0.0
 10
97.34358450257383
 20
-132.0574001405968
 30
0.0
 10
97.14480249307492
 20
-132.2268988384711
 30
0.0
 10
97.14480249307492
 20
-132.2268988384711
 30
0.0
 10
96.9777153620403
 20
-132.0766926753142
 30
0.0
 10
96.9777153620403
 20
-132.0766926753142
 30
0.0
 10
97.17649737153921
 20
-131.9581813906216
 30
0.0
 10
97.33290470656955
 20
-131.7697346675784
 30
0.0
 10
97.46622990184872
 20
-131.5413248369063
 30
0.0
 10
97.46622990184872
 20
-131.5413248369063
 30
0.0
 10
96.62424856525367
 20
-131.5413248369063
 30
0.0
 10
96.62424856525367
 20
-131.5413248369063
 30
0.0
 10
96.46129554880135
 20
-131.5413248369063
 30
0.0
 10
96.20980357837811
 20
-131.5475260087798
 30
0.0
 10
96.00240883016608
 20
-131.5561387474929
 30
0.0
 10
96.00240883016608
 20
-131.5561387474929
 30
0.0
 10
96.00240883016608
 20
-131.3635579098674
 30
0.0
 10
96.00240883016608
 20
-131.3635579098674
 30
0.0
 10
96.16949596120068
 20
-131.3742377058717
 30
0.0
 10
96.42546655575475
 20
-131.378371820454
 30
0.0
 10
96.61356876924938
 20
-131.378371820454
 30
0.0
 10
96.61356876924938
 20
-131.378371820454
 30
0.0
 10
97.11930878648407
 20
-131.378371820454
 30
0.0
 10
97.11930878648407
 20
-131.378371820454
 30
0.0
 10
97.25470103905438
 20
-131.378371820454
 30
0.0
 10
97.42798934196246
 20
-131.3635579098674
 30
0.0
 10
97.60575626900135
 20
-131.3384087128251
 30
0.0
 10
97.60575626900135
 20
-131.3384087128251
 30
0.0
 10
97.76250811358021
 20
-131.5306450409021
 30
0.0
 10
97.76250811358021
 20
-131.5306450409021
 30
0.0
 10
97.71599932452934
 20
-131.5520046329106
 30
0.0
 10
97.70118541394277
 20
-131.5582058047841
 30
0.0
 10
97.61023489313217
 20
-131.6853298281898
 30
0.0
  0
SPLINE
  5
CD
330
BD
100
AcDbEntity
  8
_U+30EC_U+30A4_U+30E4_U+30FC 1
370
     0
100
AcDbSpline
210
0.0
220
0.0
230
1.0
 70
    11
 71
     3
 72
    29
 73
    25
 74
     0
 42
0.0000000001
 43
0.0000000001
 12
1.0
 22
0.0
 32
0.0
 13
1.0
 23
0.0
 33
0.0
 40
0.0
 40
0.0
 40
0.0
 40
0.0
 40
1.0
 40
1.0
 40
1.0
 40
2.0
 40
2.0
 40
2.0
 40
3.0
 40
3.0
 40
3.0
 40
4.0
 40
4.0
 40
4.0
 40
5.0
 40
5.0
 40
5.0
 40
6.0
 40
6.0
 40
6.0
 40
7.0
 40
7.0
 40
7.0
 40
8.0
 40
8.0
 40
8.0
 40
8.0
 10
96.94567597402748
 20
-131.7718017248696
 30
0.0
 10
96.91191403827203
 20
-132.1335367508208
 30
0.0
 10
96.87195093064312
 20
-132.5590060432492
 30
0.0
 10
96.38309188128618
 20
-132.9269422410738
 30
0.0
 10
96.38309188128618
 20
-132.9269422410738
 30
0.0
 10
96.17569713307414
 20
-132.7936170457947
 30
0.0
 10
96.17569713307414
 20
-132.7936170457947
 30
0.0
 10
96.41478675975047
 20
-132.6582247932243
 30
0.0
 10
96.5419107831562
 20
-132.4615098410166
 30
0.0
 10
96.56705998019852
 20
-132.4215467333877
 30
0.0
 10
96.68970537947341
 20
-132.2310329530534
 30
0.0
 10
96.72174476748623
 20
-132.0446532873013
 30
0.0
 10
96.72174476748623
 20
-131.8014295460427
 30
0.0
 10
96.72174476748623
 20
-131.7549207569918
 30
0.0
 10
96.72174476748623
 20
-131.7211588212364
 30
0.0
 10
96.71726614335542
 20
-131.6491563255947
 30
0.0
 10
96.71726614335542
 20
-131.6491563255947
 30
0.0
 10
96.94567597402748
 20
-131.6725829748944
 30
0.0
 10
96.94567597402748
 20
-131.6725829748944
 30
0.0
 10
96.99252927262687
 20
-131.6767170894767
 30
0.0
 10
97.00286455908262
 20
-131.7042778533587
 30
0.0
 10
97.00286455908262
 20
-131.7190917639452
 30
0.0
 10
97.00286455908262
 20
-131.7401068464053
 30
0.0
 10
96.99666338720917
 20
-131.7421739036964
 30
0.0
 10
96.94567597402748
 20
-131.7718017248696
 30
0.0
  0
HATCH
  5
CE
330
BD
100
AcDbEntity
  8
_U+30EC_U+30A4_U+30E4_U+30FC 1
 62
   179
420
  2234388
100
AcDbHatch
 10
0.0
 20
0.0
 30
0.0
210
0.0
220
0.0
230
1.0
  2
SOLID
 70
     1
 71
     0
 91
        2
 92
        1
 93
        1
 72
     4
 94
        3
 73
     0
 74
     1
 95
       38
 96
       34
 40
0.0
 40
0.0
 40
0.0
 40
0.0
 40
1.0
 40
1.0
 40
1.0
 40
2.0
 40
2.0
 40
2.0
 40
3.0
 40
3.0
 40
3.0
 40
4.0
 40
4.0
 40
4.0
 40
5.0
 40
5.0
 40
5.0
 40
6.0
 40
6.0
 40
6.0
 40
7.0
 40
7.0
 40
7.0
 40
8.0
 40
8.0
 40
8.0
 40
9.0
 40
9.0
 40
9.0
 40
10.0
 40
10.0
 40
10.0
 40
11.0
 40
11.0
 40
11.0
 40
11.0
 10
97.61023489313217
 20
-131.6853298281898
 10
97.42385522738016
 20
-131.9454345373262
 10
97.34358450257383
 20
-132.0574001405968
 10
97.14480249307492
 20
-132.2268988384711
 10
97.14480249307492
 20
-132.2268988384711
 10
96.9777153620403
 20
-132.0766926753142
 10
96.9777153620403
 20
-132.0766926753142
 10
97.17649737153921
 20
-131.9581813906216
 10
97.33290470656955
 20
-131.7697346675784
 10
97.46622990184872
 20
-131.5413248369063
 10
97.46622990184872
 20
-131.5413248369063
 10
96.62424856525367
 20
-131.5413248369063
 10
96.62424856525367
 20
-131.5413248369063
 10
96.46129554880135
 20
-131.5413248369063
 10
96.20980357837811
 20
-131.5475260087798
 10
96.00240883016608
 20
-131.5561387474929
 10
96.00240883016608
 20
-131.5561387474929
 10
96.00240883016608
 20
-131.3635579098674
 10
96.00240883016608
 20
-131.3635579098674
 10
96.16949596120068
 20
-131.3742377058717
 10
96.42546655575475
 20
-131.378371820454
 10
96.61356876924938
 20
-131.378371820454
 10
96.61356876924938
 20
-131.378371820454
 10
97.11930878648407
 20
-131.378371820454
 10
97.11930878648407
 20
-131.378371820454
 10
97.25470103905438
 20
-131.378371820454
 10
97.42798934196246
 20
-131.3635579098674
 10
97.60575626900135
 20
-131.3384087128251
 10
97.60575626900135
 20
-131.3384087128251
 10
97.76250811358021
 20
-131.5306450409021
 10
97.76250811358021
 20
-131.5306450409021
 10
97.71599932452934
 20
-131.5520046329106
 10
97.70118541394277
 20
-131.5582058047841
 10
97.61023489313217
 20
-131.6853298281898
 97
        0
 97
        0
 92
        1
 93
        1
 72
     4
 94
        3
 73
     0
 74
     1
 95
       29
 96
       25
 40
0.0
 40
0.0
 40
0.0
 40
0.0
 40
1.0
 40
1.0
 40
1.0
 40
2.0
 40
2.0
 40
2.0
 40
3.0
 40
3.0
 40
3.0
 40
4.0
 40
4.0
 40
4.0
 40
5.0
 40
5.0
 40
5.0
 40
6.0
 40
6.0
 40
6.0
 40
7.0
 40
7.0
 40
7.0
 40
8.0
 40
8.0
 40
8.0
 40
8.0
 10
96.94567597402748
 20
-131.7718017248696
 10
96.91191403827203
 20
-132.1335367508208
 10
96.87195093064312
 20
-132.5590060432492
 10
96.38309188128618
 20
-132.9269422410738
 10
96.38309188128618
 20
-132.9269422410738
 10
96.17569713307414
 20
-132.7936170457947
 10
96.17569713307414
 20
-132.7936170457947
 10
96.41478675975047
 20
-132.6582247932243
 10
96.5419107831562
 20
-132.4615098410166
 10
96.56705998019852
 20
-132.4215467333877
 10
96.68970537947341
 20
-132.2310329530534
 10
96.72174476748623
 20
-132.0446532873013
 10
96.72174476748623
 20
-131.8014295460427
 10
96.72174476748623
 20
-131.7549207569918
 10
96.72174476748623
 20
-131.7211588212364
 10
96.71726614335542
 20
-131.6491563255947
 10
96.71726614335542
 20
-131.6491563255947
 10
96.94567597402748
 20
-131.6725829748944
 10
96.94567597402748
 20
-131.6725829748944
 10
96.99252927262687
 20
-131.6767170894767
 10
97.00286455908262
 20
-131.7042778533587
 10
97.00286455908262
 20
-131.7190917639452
 10
97.00286455908262
 20
-131.7401068464053
 10
96.99666338720917
 20
-131.7421739036964
 10
96.94567597402748
 20
-131.7718017248696
 97
        0
 97
        0
 75
     2
 76
     1
 98
        0
  0
SPLINE
  5
CF
330
BD
100
AcDbEntity
  8
_U+30EC_U+30A4_U+30E4_U+30FC 1
370
     0
100
AcDbSpline
210
0.0
220
0.0
230
1.0
 70
    11
 71
     3
 72
    35
 73
    31
 74
     0
 42
0.0000000001
 43
0.0000000001
 12
1.0
 22
0.0
 32
0.0
 13
1.0
 23
0.0
 33
0.0
 40
0.0
 40
0.0
 40
0.0
 40
0.0
 40
1.0
 40
1.0
 40
1.0
 40
2.0
 40
2.0
 40
2.0
 40
3.0
 40
3.0
 40
3.0
 40
4.0
 40
4.0
 40
4.0
 40
5.0
 40
5.0
 40
5.0
 40
6.0
 40
6.0
 40
6.0
 40
7.0
 40
7.0
 40
7.0
 40
8.0
 40
8.0
 40
8.0
 40
9.0
 40
9.0
 40
9.0
 40
10.0
 40
10.0
 40
10.0
 40
10.0
 10
98.67304685033174
 20
-131.4906819332732
 30
0.0
 10
98.66477862116714
 20
-131.4968831051466
 30
0.0
 10
98.62240394669857
 20
-131.5223768117375
 30
0.0
 10
98.61620277482513
 20
-131.5285779836109
 30
0.0
 10
98.61413571753397
 20
-132.1824571067113
 30
0.0
 10
98.53145342588797
 20
-132.6137830614646
 30
0.0
 10
98.09358178971272
 20
-132.8594183695629
 30
0.0
 10
98.09358178971272
 20
-132.8594183695629
 30
0.0
 10
97.92649465867811
 20
-132.681651442524
 30
0.0
 10
97.92649465867811
 20
-132.681651442524
 30
0.0
 10
98.00883244077558
 20
-132.6454779399289
 30
0.0
 10
98.17833113864987
 20
-132.5758870111269
 30
0.0
 10
98.30304359521591
 20
-132.3071695632774
 30
0.0
 10
98.34093964555366
 20
-132.2244872716314
 30
0.0
 10
98.36643335214451
 20
-132.1273355789473
 30
0.0
 10
98.37918020543994
 20
-132.0026231223813
 30
0.0
 10
98.39192705873536
 20
-131.8923800668533
 30
0.0
 10
98.39192705873536
 20
-131.8059081701735
 30
0.0
 10
98.39192705873536
 20
-131.7549207569918
 30
0.0
 10
98.39192705873536
 20
-131.5520046329106
 30
0.0
 10
98.37711314814878
 20
-131.4483072588046
 30
0.0
 10
98.36643335214451
 20
-131.3804388777452
 30
0.0
 10
98.36643335214451
 20
-131.3804388777452
 30
0.0
 10
98.61620277482513
 20
-131.4145453230491
 30
0.0
 10
98.61620277482513
 20
-131.4145453230491
 30
0.0
 10
98.66891273574944
 20
-131.4207464949226
 30
0.0
 10
98.68579370362717
 20
-131.4248806095049
 30
0.0
 10
98.68579370362717
 20
-131.4589870548089
 30
0.0
 10
98.68579370362717
 20
-131.4738009653954
 30
0.0
 10
98.68165958904487
 20
-131.48206919456
 30
0.0
 10
98.67304685033174
 20
-131.4906819332732
 30
0.0
  0
SPLINE
  5
D0
330
BD
100
AcDbEntity
  8
_U+30EC_U+30A4_U+30E4_U+30FC 1
370
     0
100
AcDbSpline
210
0.0
220
0.0
230
1.0
 70
    11
 71
     3
 72
    50
 73
    46
 74
     0
 42
0.0000000001
 43
0.0000000001
 12
1.0
 22
0.0
 32
0.0
 13
1.0
 23
0.0
 33
0.0
 40
0.0
 40
0.0
 40
0.0
 40
0.0
 40
1.0
 40
1.0
 40
1.0
 40
2.0
 40
2.0
 40
2.0
 40
3.0
 40
3.0
 40
3.0
 40
4.0
 40
4.0
 40
4.0
 40
5.0
 40
5.0
 40
5.0
 40
6.0
 40
6.0
 40
6.0
 40
7.0
 40
7.0
 40
7.0
 40
8.0
 40
8.0
 40
8.0
 40
9.0
 40
9.0
 40
9.0
 40
10.0
 40
10.0
 40
10.0
 40
11.0
 40
11.0
 40
11.0
 40
12.0
 40
12.0
 40
12.0
 40
13.0
 40
13.0
 40
13.0
 40
14.0
 40
14.0
 40
14.0
 40
15.0
 40
15.0
 40
15.0
 40
15.0
 10
99.06234264016497
 20
-132.8339246629721
 30
0.0
 10
99.06234264016497
 20
-132.8339246629721
 30
0.0
 10
98.91213647700808
 20
-132.7216145501529
 30
0.0
 10
98.91213647700808
 20
-132.7216145501529
 30
0.0
 10
98.9207492157212
 20
-132.6775173279417
 30
0.0
 10
98.9248833303035
 20
-132.5397135085317
 30
0.0
 10
98.9248833303035
 20
-132.4870035476074
 30
0.0
 10
98.92695038759466
 20
-132.4170681092569
 30
0.0
 10
98.9290174448858
 20
-132.3030354486951
 30
0.0
 10
98.9290174448858
 20
-132.2351670676357
 30
0.0
 10
98.9290174448858
 20
-132.2351670676357
 30
0.0
 10
98.9290174448858
 20
-131.8034966033339
 30
0.0
 10
98.9290174448858
 20
-131.8034966033339
 30
0.0
 10
98.9290174448858
 20
-131.7697346675784
 30
0.0
 10
98.91868215843006
 20
-131.4100666989183
 30
0.0
 10
98.91420353429923
 20
-131.3446098846986
 30
0.0
 10
98.91420353429923
 20
-131.3446098846986
 30
0.0
 10
99.15122610368442
 20
-131.3701035912894
 30
0.0
 10
99.15122610368442
 20
-131.3701035912894
 30
0.0
 10
99.17878686756642
 20
-131.3721706485806
 30
0.0
 10
99.20841468873957
 20
-131.3825059350363
 30
0.0
 10
99.20841468873957
 20
-131.4121337562095
 30
0.0
 10
99.20841468873957
 20
-131.4293592336357
 30
0.0
 10
99.19980195002644
 20
-131.4396945200915
 30
0.0
 10
99.18498803943987
 20
-131.4503743160957
 30
0.0
 10
99.16604001427099
 20
-131.4651882266823
 30
0.0
 10
99.16397295697985
 20
-131.4672552839735
 30
0.0
 10
99.14915904639327
 20
-131.4800021372689
 30
0.0
 10
99.13641219309784
 20
-131.5730197153706
 30
0.0
 10
99.1343451358067
 20
-131.8438042205113
 30
0.0
 10
99.1343451358067
 20
-131.9454345373262
 30
0.0
 10
99.1343451358067
 20
-131.9454345373262
 30
0.0
 10
99.1343451358067
 20
-132.5335123366583
 30
0.0
 10
99.1343451358067
 20
-132.5335123366583
 30
0.0
 10
99.1894666635707
 20
-132.5038845154851
 30
0.0
 10
99.32485891614101
 20
-132.4298149625523
 30
0.0
 10
99.48987898988447
 20
-132.2479139209311
 30
0.0
 10
99.59564342128165
 20
-132.1314696935297
 30
0.0
 10
99.64421926762367
 20
-132.047064854141
 30
0.0
 10
99.70347490996997
 20
-131.9306206267396
 30
0.0
 10
99.70347490996997
 20
-131.9306206267396
 30
0.0
 10
99.84506833441374
 20
-132.0997748150653
 30
0.0
 10
99.84506833441374
 20
-132.0997748150653
 30
0.0
 10
99.5742838292731
 20
-132.5273111647848
 30
0.0
 10
99.24665524862584
 20
-132.7240261169926
 30
0.0
 10
99.06234264016497
 20
-132.8339246629721
 30
0.0
  0
HATCH
  5
D1
330
BD
100
AcDbEntity
  8
_U+30EC_U+30A4_U+30E4_U+30FC 1
 62
   179
420
  2234388
100
AcDbHatch
 10
0.0
 20
0.0
 30
0.0
210
0.0
220
0.0
230
1.0
  2
SOLID
 70
     1
 71
     0
 91
        2
 92
        1
 93
        1
 72
     4
 94
        3
 73
     0
 74
     1
 95
       35
 96
       31
 40
0.0
 40
0.0
 40
0.0
 40
0.0
 40
1.0
 40
1.0
 40
1.0
 40
2.0
 40
2.0
 40
2.0
 40
3.0
 40
3.0
 40
3.0
 40
4.0
 40
4.0
 40
4.0
 40
5.0
 40
5.0
 40
5.0
 40
6.0
 40
6.0
 40
6.0
 40
7.0
 40
7.0
 40
7.0
 40
8.0
 40
8.0
 40
8.0
 40
9.0
 40
9.0
 40
9.0
 40
10.0
 40
10.0
 40
10.0
 40
10.0
 10
98.67304685033174
 20
-131.4906819332732
 10
98.66477862116714
 20
-131.4968831051466
 10
98.62240394669857
 20
-131.5223768117375
 10
98.61620277482513
 20
-131.5285779836109
 10
98.61413571753397
 20
-132.1824571067113
 10
98.53145342588797
 20
-132.6137830614646
 10
98.09358178971272
 20
-132.8594183695629
 10
98.09358178971272
 20
-132.8594183695629
 10
97.92649465867811
 20
-132.681651442524
 10
97.92649465867811
 20
-132.681651442524
 10
98.00883244077558
 20
-132.6454779399289
 10
98.17833113864987
 20
-132.5758870111269
 10
98.30304359521591
 20
-132.3071695632774
 10
98.34093964555366
 20
-132.2244872716314
 10
98.36643335214451
 20
-132.1273355789473
 10
98.37918020543994
 20
-132.0026231223813
 10
98.39192705873536
 20
-131.8923800668533
 10
98.39192705873536
 20
-131.8059081701735
 10
98.39192705873536
 20
-131.7549207569918
 10
98.39192705873536
 20
-131.5520046329106
 10
98.37711314814878
 20
-131.4483072588046
 10
98.36643335214451
 20
-131.3804388777452
 10
98.36643335214451
 20
-131.3804388777452
 10
98.61620277482513
 20
-131.4145453230491
 10
98.61620277482513
 20
-131.4145453230491
 10
98.66891273574944
 20
-131.4207464949226
 10
98.68579370362717
 20
-131.4248806095049
 10
98.68579370362717
 20
-131.4589870548089
 10
98.68579370362717
 20
-131.4738009653954
 10
98.68165958904487
 20
-131.48206919456
 10
98.67304685033174
 20
-131.4906819332732
 97
        0
 97
        0
 92
        1
 93
        1
 72
     4
 94
        3
 73
     0
 74
     1
 95
       50
 96
       46
 40
0.0
 40
0.0
 40
0.0
 40
0.0
 40
1.0
 40
1.0
 40
1.0
 40
2.0
 40
2.0
 40
2.0
 40
3.0
 40
3.0
 40
3.0
 40
4.0
 40
4.0
 40
4.0
 40
5.0
 40
5.0
 40
5.0
 40
6.0
 40
6.0
 40
6.0
 40
7.0
 40
7.0
 40
7.0
 40
8.0
 40
8.0
 40
8.0
 40
9.0
 40
9.0
 40
9.0
 40
10.0
 40
10.0
 40
10.0
 40
11.0
 40
11.0
 40
11.0
 40
12.0
 40
12.0
 40
12.0
 40
13.0
 40
13.0
 40
13.0
 40
14.0
 40
14.0
 40
14.0
 40
15.0
 40
15.0
 40
15.0
 40
15.0
 10
99.06234264016497
 20
-132.8339246629721
 10
99.06234264016497
 20
-132.8339246629721
 10
98.91213647700808
 20
-132.7216145501529
 10
98.91213647700808
 20
-132.7216145501529
 10
98.9207492157212
 20
-132.6775173279417
 10
98.9248833303035
 20
-132.5397135085317
 10
98.9248833303035
 20
-132.4870035476074
 10
98.92695038759466
 20
-132.4170681092569
 10
98.9290174448858
 20
-132.3030354486951
 10
98.9290174448858
 20
-132.2351670676357
 10
98.9290174448858
 20
-132.2351670676357
 10
98.9290174448858
 20
-131.8034966033339
 10
98.9290174448858
 20
-131.8034966033339
 10
98.9290174448858
 20
-131.7697346675784
 10
98.91868215843006
 20
-131.4100666989183
 10
98.91420353429923
 20
-131.3446098846986
 10
98.91420353429923
 20
-131.3446098846986
 10
99.15122610368442
 20
-131.3701035912894
 10
99.15122610368442
 20
-131.3701035912894
 10
99.17878686756642
 20
-131.3721706485806
 10
99.20841468873957
 20
-131.3825059350363
 10
99.20841468873957
 20
-131.4121337562095
 10
99.20841468873957
 20
-131.4293592336357
 10
99.19980195002644
 20
-131.4396945200915
 10
99.18498803943987
 20
-131.4503743160957
 10
99.16604001427099
 20
-131.4651882266823
 10
99.16397295697985
 20
-131.4672552839735
 10
99.14915904639327
 20
-131.4800021372689
 10
99.13641219309784
 20
-131.5730197153706
 10
99.1343451358067
 20
-131.8438042205113
 10
99.1343451358067
 20
-131.9454345373262
 10
99.1343451358067
 20
-131.9454345373262
 10
99.1343451358067
 20
-132.5335123366583
 10
99.1343451358067
 20
-132.5335123366583
 10
99.1894666635707
 20
-132.5038845154851
 10
99.32485891614101
 20
-132.4298149625523
 10
99.48987898988447
 20
-132.2479139209311
 10
99.59564342128165
 20
-132.1314696935297
 10
99.64421926762367
 20
-132.047064854141
 10
99.70347490996997
 20
-131.9306206267396
 10
99.70347490996997
 20
-131.9306206267396
 10
99.84506833441374
 20
-132.0997748150653
 10
99.84506833441374
 20
-132.0997748150653
 10
99.5742838292731
 20
-132.5273111647848
 10
99.24665524862584
 20
-132.7240261169926
 10
99.06234264016497
 20
-132.8339246629721
 97
        0
 97
        0
 75
     2
 76
     1
 98
        0
  0
SPLINE
  5
D2
330
BD
100
AcDbEntity
  8
_U+30EC_U+30A4_U+30E4_U+30FC 1
370
     0
100
AcDbSpline
210
0.0
220
0.0
230
1.0
 70
    11
 71
     3
 72
    20
 73
    16
 74
     0
 42
0.0000000001
 43
0.0000000001
 12
1.0
 22
0.0
 32
0.0
 13
1.0
 23
0.0
 33
0.0
 40
0.0
 40
0.0
 40
0.0
 40
0.0
 40
1.0
 40
1.0
 40
1.0
 40
2.0
 40
2.0
 40
2.0
 40
3.0
 40
3.0
 40
3.0
 40
4.0
 40
4.0
 40
4.0
 40
5.0
 40
5.0
 40
5.0
 40
5.0
 10
101.1028726960784
 20
-133.0495876403487
 30
0.0
 10
100.965413386217
 20
-132.9417561516604
 30
0.0
 10
100.8362223055201
 20
-132.852872688141
 30
0.0
 10
100.6033338507172
 20
-132.7429741421615
 30
0.0
 10
100.4131645799314
 20
-132.6520236213509
 30
0.0
 10
100.2164496277237
 20
-132.571408386996
 30
0.0
 10
100.0090548795116
 20
-132.5355793939494
 30
0.0
 10
100.0090548795116
 20
-132.5355793939494
 30
0.0
 10
100.0979383430311
 20
-132.3409314990328
 30
0.0
 10
100.0979383430311
 20
-132.3409314990328
 30
0.0
 10
100.5168619540375
 20
-132.4487629877212
 30
0.0
 10
100.9357855650438
 20
-132.6413438253466
 30
0.0
 10
101.1979573314713
 20
-132.8318576056809
 30
0.0
 10
101.1979573314713
 20
-132.8318576056809
 30
0.0
 10
101.1028726960784
 20
-133.0495876403487
 30
0.0
 10
101.1028726960784
 20
-133.0495876403487
 30
0.0
  0
SPLINE
  5
D3
330
BD
100
AcDbEntity
  8
_U+30EC_U+30A4_U+30E4_U+30FC 1
370
     0
100
AcDbSpline
210
0.0
220
0.0
230
1.0
 70
    11
 71
     3
 72
    17
 73
    13
 74
     0
 42
0.0000000001
 43
0.0000000001
 12
1.0
 22
0.0
 32
0.0
 13
1.0
 23
0.0
 33
0.0
 40
0.0
 40
0.0
 40
0.0
 40
0.0
 40
1.0
 40
1.0
 40
1.0
 40
2.0
 40
2.0
 40
2.0
 40
3.0
 40
3.0
 40
3.0
 40
4.0
 40
4.0
 40
4.0
 40
4.0
 10
100.9991753219724
 20
-132.2816758566865
 30
0.0
 10
100.7728325485915
 20
-132.1145887256519
 30
0.0
 10
100.4427924011046
 20
-131.9878092117947
 30
0.0
 10
100.2143825704325
 20
-131.9516357091996
 30
0.0
 10
100.2143825704325
 20
-131.9516357091996
 30
0.0
 10
100.2839734992346
 20
-131.7528536997007
 30
0.0
 10
100.2839734992346
 20
-131.7528536997007
 30
0.0
 10
100.4703531649866
 20
-131.784548578165
 30
0.0
 10
100.8382893628113
 20
-131.9326876840307
 30
0.0
 10
101.0773789894876
 20
-132.0849609044788
 30
0.0
 10
101.0773789894876
 20
-132.0849609044788
 30
0.0
 10
100.9991753219724
 20
-132.2816758566865
 30
0.0
 10
100.9991753219724
 20
-132.2816758566865
 30
0.0
  0
SPLINE
  5
D4
330
BD
100
AcDbEntity
  8
_U+30EC_U+30A4_U+30E4_U+30FC 1
370
     0
100
AcDbSpline
210
0.0
220
0.0
230
1.0
 70
    11
 71
     3
 72
    20
 73
    16
 74
     0
 42
0.0000000001
 43
0.0000000001
 12
1.0
 22
0.0
 32
0.0
 13
1.0
 23
0.0
 33
0.0
 40
0.0
 40
0.0
 40
0.0
 40
0.0
 40
1.0
 40
1.0
 40
1.0
 40
2.0
 40
2.0
 40
2.0
 40
3.0
 40
3.0
 40
3.0
 40
4.0
 40
4.0
 40
4.0
 40
5.0
 40
5.0
 40
5.0
 40
5.0
 10
101.0308702004367
 20
-131.7149576493629
 30
0.0
 10
100.9674804435081
 20
-131.6598361215989
 30
0.0
 10
100.8954779478664
 20
-131.5964463646703
 30
0.0
 10
100.6501871493166
 20
-131.4862033091424
 30
0.0
 10
100.4152316372226
 20
-131.3825059350363
 30
0.0
 10
100.31773543499
 20
-131.3656249671586
 30
0.0
 10
100.2185166850148
 20
-131.3487439992809
 30
0.0
 10
100.2185166850148
 20
-131.3487439992809
 30
0.0
 10
100.2860405565257
 20
-131.1437608179085
 30
0.0
 10
100.2860405565257
 20
-131.1437608179085
 30
0.0
 10
100.6057454175569
 20
-131.2071505748371
 30
0.0
 10
100.9757486726727
 20
-131.4017984697537
 30
0.0
 10
101.1049397533696
 20
-131.4989501624378
 30
0.0
 10
101.1049397533696
 20
-131.4989501624378
 30
0.0
 10
101.0308702004367
 20
-131.7149576493629
 30
0.0
 10
101.0308702004367
 20
-131.7149576493629
 30
0.0
  0
HATCH
  5
D5
330
BD
100
AcDbEntity
  8
_U+30EC_U+30A4_U+30E4_U+30FC 1
 62
   179
420
  2234388
100
AcDbHatch
 10
0.0
 20
0.0
 30
0.0
210
0.0
220
0.0
230
1.0
  2
SOLID
 70
     1
 71
     0
 91
        3
 92
        1
 93
        1
 72
     4
 94
        3
 73
     0
 74
     1
 95
       20
 96
       16
 40
0.0
 40
0.0
 40
0.0
 40
0.0
 40
1.0
 40
1.0
 40
1.0
 40
2.0
 40
2.0
 40
2.0
 40
3.0
 40
3.0
 40
3.0
 40
4.0
 40
4.0
 40
4.0
 40
5.0
 40
5.0
 40
5.0
 40
5.0
 10
101.1028726960784
 20
-133.0495876403487
 10
100.965413386217
 20
-132.9417561516604
 10
100.8362223055201
 20
-132.852872688141
 10
100.6033338507172
 20
-132.7429741421615
 10
100.4131645799314
 20
-132.6520236213509
 10
100.2164496277237
 20
-132.571408386996
 10
100.0090548795116
 20
-132.5355793939494
 10
100.0090548795116
 20
-132.5355793939494
 10
100.0979383430311
 20
-132.3409314990328
 10
100.0979383430311
 20
-132.3409314990328
 10
100.5168619540375
 20
-132.4487629877212
 10
100.9357855650438
 20
-132.6413438253466
 10
101.1979573314713
 20
-132.8318576056809
 10
101.1979573314713
 20
-132.8318576056809
 10
101.1028726960784
 20
-133.0495876403487
 10
101.1028726960784
 20
-133.0495876403487
 97
        0
 97
        0
 92
        1
 93
        1
 72
     4
 94
        3
 73
     0
 74
     1
 95
       17
 96
       13
 40
0.0
 40
0.0
 40
0.0
 40
0.0
 40
1.0
 40
1.0
 40
1.0
 40
2.0
 40
2.0
 40
2.0
 40
3.0
 40
3.0
 40
3.0
 40
4.0
 40
4.0
 40
4.0
 40
4.0
 10
100.9991753219724
 20
-132.2816758566865
 10
100.7728325485915
 20
-132.1145887256519
 10
100.4427924011046
 20
-131.9878092117947
 10
100.2143825704325
 20
-131.9516357091996
 10
100.2143825704325
 20
-131.9516357091996
 10
100.2839734992346
 20
-131.7528536997007
 10
100.2839734992346
 20
-131.7528536997007
 10
100.4703531649866
 20
-131.784548578165
 10
100.8382893628113
 20
-131.9326876840307
 10
101.0773789894876
 20
-132.0849609044788
 10
101.0773789894876
 20
-132.0849609044788
 10
100.9991753219724
 20
-132.2816758566865
 10
100.9991753219724
 20
-132.2816758566865
 97
        0
 97
        0
 92
        1
 93
        1
 72
     4
 94
        3
 73
     0
 74
     1
 95
       20
 96
       16
 40
0.0
 40
0.0
 40
0.0
 40
0.0
 40
1.0
 40
1.0
 40
1.0
 40
2.0
 40
2.0
 40
2.0
 40
3.0
 40
3.0
 40
3.0
 40
4.0
 40
4.0
 40
4.0
 40
5.0
 40
5.0
 40
5.0
 40
5.0
 10
101.0308702004367
 20
-131.7149576493629
 10
100.9674804435081
 20
-131.6598361215989
 10
100.8954779478664
 20
-131.5964463646703
 10
100.6501871493166
 20
-131.4862033091424
 10
100.4152316372226
 20
-131.3825059350363
 10
100.31773543499
 20
-131.3656249671586
 10
100.2185166850148
 20
-131.3487439992809
 10
100.2185166850148
 20
-131.3487439992809
 10
100.2860405565257
 20
-131.1437608179085
 10
100.2860405565257
 20
-131.1437608179085
 10
100.6057454175569
 20
-131.2071505748371
 10
100.9757486726727
 20
-131.4017984697537
 10
101.1049397533696
 20
-131.4989501624378
 10
101.1049397533696
 20
-131.4989501624378
 10
101.0308702004367
 20
-131.7149576493629
 10
101.0308702004367
 20
-131.7149576493629
 97
        0
 97
        0
 75
     2
 76
     1
 98
        0
  0
SPLINE
  5
D6
330
BD
100
AcDbEntity
  8
_U+30EC_U+30A4_U+30E4_U+30FC 1
370
     0
100
AcDbSpline
210
0.0
220
0.0
230
1.0
 70
    11
 71
     3
 72
    23
 73
    19
 74
     0
 42
0.0000000001
 43
0.0000000001
 12
1.0
 22
0.0
 32
0.0
 13
1.0
 23
0.0
 33
0.0
 40
0.0
 40
0.0
 40
0.0
 40
0.0
 40
1.0
 40
1.0
 40
1.0
 40
2.0
 40
2.0
 40
2.0
 40
3.0
 40
3.0
 40
3.0
 40
4.0
 40
4.0
 40
4.0
 40
5.0
 40
5.0
 40
5.0
 40
6.0
 40
6.0
 40
6.0
 40
6.0
 10
101.4105197229113
 20
-133.0220268764667
 30
0.0
 10
101.5500460900639
 20
-132.8549397454321
 30
0.0
 10
101.7615749528582
 20
-132.598969150878
 30
0.0
 10
101.7615749528582
 20
-132.1063204964873
 30
0.0
 10
101.7615749528582
 20
-131.6133273325481
 30
0.0
 10
101.5500460900639
 20
-131.357356737994
 30
0.0
 10
101.4105197229113
 20
-131.1902696069594
 30
0.0
 10
101.4105197229113
 20
-131.1902696069594
 30
0.0
 10
101.5224853261819
 20
-131.0907063474357
 30
0.0
 10
101.5224853261819
 20
-131.0907063474357
 30
0.0
 10
101.6854383426342
 20
-131.2832871850611
 30
0.0
 10
101.9203938547282
 20
-131.5582058047841
 30
0.0
 10
101.9203938547282
 20
-132.1063204964873
 30
0.0
 10
101.9203938547282
 20
-132.654090678642
 30
0.0
 10
101.6854383426342
 20
-132.929009298365
 30
0.0
 10
101.5224853261819
 20
-133.1215901359904
 30
0.0
 10
101.5224853261819
 20
-133.1215901359904
 30
0.0
 10
101.4105197229113
 20
-133.0220268764667
 30
0.0
 10
101.4105197229113
 20
-133.0220268764667
 30
0.0
  0
HATCH
  5
D7
330
BD
100
AcDbEntity
  8
_U+30EC_U+30A4_U+30E4_U+30FC 1
 62
   179
420
  2234388
100
AcDbHatch
 10
0.0
 20
0.0
 30
0.0
210
0.0
220
0.0
230
1.0
  2
SOLID
 70
     1
 71
     0
 91
        1
 92
        1
 93
        1
 72
     4
 94
        3
 73
     0
 74
     1
 95
       23
 96
       19
 40
0.0
 40
0.0
 40
0.0
 40
0.0
 40
1.0
 40
1.0
 40
1.0
 40
2.0
 40
2.0
 40
2.0
 40
3.0
 40
3.0
 40
3.0
 40
4.0
 40
4.0
 40
4.0
 40
5.0
 40
5.0
 40
5.0
 40
6.0
 40
6.0
 40
6.0
 40
6.0
 10
101.4105197229113
 20
-133.0220268764667
 10
101.5500460900639
 20
-132.8549397454321
 10
101.7615749528582
 20
-132.598969150878
 10
101.7615749528582
 20
-132.1063204964873
 10
101.7615749528582
 20
-131.6133273325481
 10
101.5500460900639
 20
-131.357356737994
 10
101.4105197229113
 20
-131.1902696069594
 10
101.4105197229113
 20
-131.1902696069594
 10
101.5224853261819
 20
-131.0907063474357
 10
101.5224853261819
 20
-131.0907063474357
 10
101.6854383426342
 20
-131.2832871850611
 10
101.9203938547282
 20
-131.5582058047841
 10
101.9203938547282
 20
-132.1063204964873
 10
101.9203938547282
 20
-132.654090678642
 10
101.6854383426342
 20
-132.929009298365
 10
101.5224853261819
 20
-133.1215901359904
 10
101.5224853261819
 20
-133.1215901359904
 10
101.4105197229113
 20
-133.0220268764667
 10
101.4105197229113
 20
-133.0220268764667
 97
        0
 97
        0
 75
     2
 76
     1
 98
        0
  0
ENDBLK
  5
C0
330
BD
100
AcDbEntity
  8
0
100
AcDbBlockEnd
  0
ENDSEC
  0
SECTION
  2
ENTITIES
  0
INSERT
  5
42
330
1F
100
AcDbEntity
  8
_U+30EC_U+30A4_U+30E4_U+30FC 1
100
AcDbBlockReference
  2
block 2
 10
0.0
 20
0.0
 30
0.0
  0
ENDSEC
  0
SECTION
  2
OBJECTS
  0
DICTIONARY
  5
C
330
0
100
AcDbDictionary
281
     1
  3
ACAD_GROUP
350
D
  3
ACAD_LAYOUT
350
1A
  3
ACAD_MATERIAL
350
3B
  3
ACAD_MLEADERSTYLE
350
DE
  3
ACAD_MLINESTYLE
350
17
  3
ACAD_PLOTSETTINGS
350
19
  3
ACAD_PLOTSTYLENAME
350
E
  3
ACAD_TABLESTYLE
350
DD
  3
ACAD_VISUALSTYLE
350
2A
  0
SUN
  5
3F
330
29
100
AcDbSun
 90
        1
290
     0
 63
     7
421
 16777215
 40
1.0
291
     1
 91
  2455826
 92
 54000000
292
     0
 70
     2
 71
   256
280
     1
  0
DICTIONARY
  5
D
102
{ACAD_REACTORS
330
C
102
}
330
C
100
AcDbDictionary
281
     1
  0
DICTIONARY
  5
1A
102
{ACAD_REACTORS
330
C
102
}
330
C
100
AcDbDictionary
281
     1
  3
Layout1
350
1E
  3
Layout2
350
26
  3
Model
350
22
  0
DICTIONARY
  5
3B
102
{ACAD_REACTORS
330
C
102
}
330
C
100
AcDbDictionary
281
     1
  3
ByBlock
350
3D
  3
ByLayer
350
3C
  3
Global
350
3E
  0
DICTIONARY
  5
DE
102
{ACAD_REACTORS
330
C
102
}
330
C
100
AcDbDictionary
281
     1
  0
DICTIONARY
  5
17
102
{ACAD_REACTORS
330
C
102
}
330
C
100
AcDbDictionary
281
     1
  3
Standard
350
18
  0
DICTIONARY
  5
19
102
{ACAD_REACTORS
330
C
102
}
330
C
100
AcDbDictionary
281
     1
  0
ACDBDICTIONARYWDFLT
  5
E
102
{ACAD_REACTORS
330
C
102
}
330
C
100
AcDbDictionary
281
     1
  3
Normal
350
F
100
AcDbDictionaryWithDefault
340
F
  0
DICTIONARY
  5
DD
102
{ACAD_REACTORS
330
C
102
}
330
C
100
AcDbDictionary
281
     1
  0
DICTIONARY
  5
2A
102
{ACAD_REACTORS
330
C
102
}
330
C
100
AcDbDictionary
281
     1
  3
2dWireframe
350
2F
  3
3D Hidden
350
31
  3
3dWireframe
350
30
  3
Basic
350
32
  3
Brighten
350
36
  3
ColorChange
350
3A
  3
Conceptual
350
34
  3
Dim
350
35
  3
Facepattern
350
39
  3
Flat
350
2B
  3
FlatWithEdges
350
2C
  3
Gouraud
350
2D
  3
GouraudWithEdges
350
2E
  3
Linepattern
350
38
  3
Realistic
350
33
  3
Thicken
350
37
  0
LAYOUT
  5
1E
102
{ACAD_REACTORS
330
1A
102
}
330
1A
100
AcDbPlotSettings
  1

  2
none_device
  4

  6

 40
0.0
 41
0.0
 42
0.0
 43
0.0
 44
0.0
 45
0.0
 46
0.0
 47
0.0
 48
0.0
 49
0.0
140
0.0
141
0.0
142
1.0
143
1.0
 70
   688
 72
     0
 73
     0
 74
     5
  7

 75
    16
 76
     0
 77
     2
 78
   300
147
1.0
148
0.0
149
0.0
100
AcDbLayout
  1
Layout1
 70
     1
 71
     1
 10
0.0
 20
0.0
 11
12.0
 21
9.0
 12
0.0
 22
0.0
 32
0.0
 14
1.000000000000000E+20
 24
1.000000000000000E+20
 34
1.000000000000000E+20
 15
-1.000000000000000E+20
 25
-1.000000000000000E+20
 35
-1.000000000000000E+20
146
0.0
 13
0.0
 23
0.0
 33
0.0
 16
1.0
 26
0.0
 36
0.0
 17
0.0
 27
1.0
 37
0.0
 76
     0
330
1B
  0
LAYOUT
  5
26
102
{ACAD_REACTORS
330
1A
102
}
330
1A
100
AcDbPlotSettings
  1

  2
none_device
  4

  6

 40
0.0
 41
0.0
 42
0.0
 43
0.0
 44
0.0
 45
0.0
 46
0.0
 47
0.0
 48
0.0
 49
0.0
140
0.0
141
0.0
142
1.0
143
1.0
 70
   688
 72
     0
 73
     0
 74
     5
  7

 75
    16
 76
     0
 77
     2
 78
   300
147
1.0
148
0.0
149
0.0
100
AcDbLayout
  1
Layout2
 70
     1
 71
     2
 10
0.0
 20
0.0
 11
0.0
 21
0.0
 12
0.0
 22
0.0
 32
0.0
 14
0.0
 24
0.0
 34
0.0
 15
0.0
 25
0.0
 35
0.0
146
0.0
 13
0.0
 23
0.0
 33
0.0
 16
1.0
 26
0.0
 36
0.0
 17
0.0
 27
1.0
 37
0.0
 76
     0
330
23
  0
LAYOUT
  5
22
102
{ACAD_REACTORS
330
1A
102
}
330
1A
100
AcDbPlotSettings
  1

  2
none_device
  4

  6

 40
0.0
 41
0.0
 42
0.0
 43
0.0
 44
0.0
 45
0.0
 46
0.0
 47
0.0
 48
0.0
 49
0.0
140
0.0
141
0.0
142
1.0
143
1.0
 70
  1712
 72
     0
 73
     0
 74
     0
  7

 75
     0
 76
     0
 77
     2
 78
   300
147
1.0
148
0.0
149
0.0
100
AcDbLayout
  1
Model
 70
     1
 71
     0
 10
0.0
 20
0.0
 11
12.0
 21
9.0
 12
0.0
 22
0.0
 32
0.0
 14
1.000000000000000E+20
 24
1.000000000000000E+20
 34
1.000000000000000E+20
 15
-1.000000000000000E+20
 25
-1.000000000000000E+20
 35
-1.000000000000000E+20
146
0.0
 13
0.0
 23
0.0
 33
0.0
 16
1.0
 26
0.0
 36
0.0
 17
0.0
 27
1.0
 37
0.0
 76
     0
330
1F
331
29
  0
MATERIAL
  5
3D
102
{ACAD_REACTORS
330
3B
102
}
330
3B
100
AcDbMaterial
  1
ByBlock
 72
     1
 94
      127
  0
MATERIAL
  5
3C
102
{ACAD_REACTORS
330
3B
102
}
330
3B
100
AcDbMaterial
  1
ByLayer
 72
     1
 94
      127
  0
MATERIAL
  5
3E
102
{ACAD_REACTORS
330
3B
102
}
330
3B
100
AcDbMaterial
  1
Global
 72
     1
 94
      127
  0
MLINESTYLE
  5
18
102
{ACAD_REACTORS
330
17
102
}
330
17
100
AcDbMlineStyle
  2
Standard
 70
     0
  3

 62
   256
 51
90.0
 52
90.0
 71
     2
 49
0.5
 62
   256
  6
BYLAYER
 49
-0.5
 62
   256
  6
BYLAYER
  0
ACDBPLACEHOLDER
  5
F
102
{ACAD_REACTORS
330
E
102
}
330
E
  0
VISUALSTYLE
  5
2F
102
{ACAD_REACTORS
330
2A
102
}
330
2A
100
AcDbVisualStyle
  2
2dWireframe
 70
     4
177
     2
291
     0
 71
     0
176
     1
 72
     2
176
     1
 73
     0
176
     1
 90
        0
176
     1
 40
-0.6
176
     1
 41
-30.0
176
     1
 62
     5
 63
     7
421
 16777215
176
     1
 74
     1
176
     1
 91
        4
176
     1
 64
     7
176
     1
 65
   257
176
     1
 75
     1
176
     1
175
     1
176
     1
 42
1.0
176
     1
 92
        0
176
     1
 66
   257
176
     1
 43
1.0
176
     1
 76
     1
176
     1
 77
     6
176
     1
 78
     2
176
     1
 67
     7
176
     1
 79
     5
176
     1
170
     0
176
     1
171
     0
176
     1
290
     0
176
     1
 93
        1
176
     1
 44
0.0
176
     1
173
     0
176
     1
  0
VISUALSTYLE
  5
31
102
{ACAD_REACTORS
330
2A
102
}
330
2A
100
AcDbVisualStyle
  2
3D Hidden
 70
     6
177
     2
291
     0
 71
     1
176
     1
 72
     2
176
     1
 73
     2
176
     1
 90
        0
176
     1
 40
-0.6
176
     1
 41
-30.0
176
     1
 62
     5
 63
     7
421
 16777215
176
     1
 74
     2
176
     1
 91
        2
176
     1
 64
     7
176
     1
 65
   257
176
     1
 75
     2
176
     1
175
     1
176
     1
 42
40.0
176
     1
 92
        0
176
     1
 66
   257
176
     1
 43
1.0
176
     1
 76
     1
176
     1
 77
     6
176
     1
 78
     2
176
     1
 67
     7
176
     1
 79
     3
176
     1
170
     0
176
     1
171
     0
176
     1
290
     0
176
     1
 93
        1
176
     1
 44
0.0
176
     1
173
     0
176
     1
  0
VISUALSTYLE
  5
30
102
{ACAD_REACTORS
330
2A
102
}
330
2A
100
AcDbVisualStyle
  2
3dWireframe
 70
     5
177
     2
291
     0
 71
     0
176
     1
 72
     2
176
     1
 73
     0
176
     1
 90
        0
176
     1
 40
-0.6
176
     1
 41
-30.0
176
     1
 62
     5
 63
     7
421
 16777215
176
     1
 74
     1
176
     1
 91
        4
176
     1
 64
     7
176
     1
 65
   257
176
     1
 75
     1
176
     1
175
     1
176
     1
 42
1.0
176
     1
 92
        0
176
     1
 66
   257
176
     1
 43
1.0
176
     1
 76
     1
176
     1
 77
     6
176
     1
 78
     2
176
     1
 67
     7
176
     1
 79
     5
176
     1
170
     0
176
     1
171
     0
176
     1
290
     0
176
     1
 93
        1
176
     1
 44
0.0
176
     1
173
     0
176
     1
  0
VISUALSTYLE
  5
32
102
{ACAD_REACTORS
330
2A
102
}
330
2A
100
AcDbVisualStyle
  2
Basic
 70
     7
177
     2
291
     1
 71
     1
176
     1
 72
     0
176
     1
 73
     1
176
     1
 90
        0
176
     1
 40
-0.6
176
     1
 41
-30.0
176
     1
 62
     5
 63
     7
421
 16777215
176
     1
 74
     0
176
     1
 91
        4
176
     1
 64
     7
176
     1
 65
   257
176
     1
 75
     1
176
     1
175
     1
176
     1
 42
1.0
176
     1
 92
        8
176
     1
 66
     7
176
     1
 43
1.0
176
     1
 76
     1
176
     1
 77
     6
176
     1
 78
     2
176
     1
 67
     7
176
     1
 79
     5
176
     1
170
     0
176
     1
171
     0
176
     1
290
     0
176
     1
 93
        1
176
     1
 44
0.0
176
     1
173
     0
176
     1
  0
VISUALSTYLE
  5
36
102
{ACAD_REACTORS
330
2A
102
}
330
2A
100
AcDbVisualStyle
  2
Brighten
 70
    12
177
     2
291
     1
 71
     2
176
     1
 72
     2
176
     1
 73
     0
176
     1
 90
        0
176
     1
 40
-0.6
176
     1
 41
-30.0
176
     1
 62
     5
 63
     7
421
 16777215
176
     1
 74
     1
176
     1
 91
        4
176
     1
 64
     7
176
     1
 65
   257
176
     1
 75
     1
176
     1
175
     1
176
     1
 42
1.0
176
     1
 92
        8
176
     1
 66
     7
176
     1
 43
1.0
176
     1
 76
     1
176
     1
 77
     6
176
     1
 78
     2
176
     1
 67
     7
176
     1
 79
     5
176
     1
170
     0
176
     1
171
     0
176
     1
290
     0
176
     1
 93
        1
176
     1
 44
50.0
176
     1
173
     0
176
     1
  0
VISUALSTYLE
  5
3A
102
{ACAD_REACTORS
330
2A
102
}
330
2A
100
AcDbVisualStyle
  2
ColorChange
 70
    16
177
     2
291
     1
 71
     2
176
     1
 72
     2
176
     1
 73
     3
176
     1
 90
        0
176
     1
 40
-0.6
176
     1
 41
-30.0
176
     1
 62
     5
 63
     8
421
  8421504
176
     1
 74
     1
176
     1
 91
        4
176
     1
 64
     7
176
     1
 65
   257
176
     1
 75
     1
176
     1
175
     1
176
     1
 42
1.0
176
     1
 92
        8
176
     1
 66
     8
424
  8421504
176
     1
 43
1.0
176
     1
 76
     1
176
     1
 77
     6
176
     1
 78
     2
176
     1
 67
     7
176
     1
 79
     5
176
     1
170
     0
176
     1
171
     0
176
     1
290
     0
176
     1
 93
        1
176
     1
 44
0.0
176
     1
173
     0
176
     1
  0
VISUALSTYLE
  5
34
102
{ACAD_REACTORS
330
2A
102
}
330
2A
100
AcDbVisualStyle
  2
Conceptual
 70
     9
177
     2
291
     0
 71
     3
176
     1
 72
     2
176
     1
 73
     0
176
     1
 90
        0
176
     1
 40
-0.6
176
     1
 41
-30.0
176
     1
 62
     5
 63
     7
421
 16777215
176
     1
 74
     2
176
     1
 91
        2
176
     1
 64
     7
176
     1
 65
   257
176
     1
 75
     1
176
     1
175
     1
176
     1
 42
40.0
176
     1
 92
        8
176
     1
 66
     7
176
     1
 43
1.0
176
     1
 76
     1
176
     1
 77
     6
176
     1
 78
     2
176
     1
 67
     7
176
     1
 79
     3
176
     1
170
     0
176
     1
171
     0
176
     1
290
     0
176
     1
 93
        1
176
     1
 44
0.0
176
     1
173
     0
176
     1
  0
VISUALSTYLE
  5
35
102
{ACAD_REACTORS
330
2A
102
}
330
2A
100
AcDbVisualStyle
  2
Dim
 70
    11
177
     2
291
     1
 71
     2
176
     1
 72
     2
176
     1
 73
     0
176
     1
 90
        0
176
     1
 40
-0.6
176
     1
 41
-30.0
176
     1
 62
     5
 63
     7
421
 16777215
176
     1
 74
     1
176
     1
 91
        4
176
     1
 64
     7
176
     1
 65
   257
176
     1
 75
     1
176
     1
175
     1
176
     1
 42
1.0
176
     1
 92
        8
176
     1
 66
     7
176
     1
 43
1.0
176
     1
 76
     1
176
     1
 77
     6
176
     1
 78
     2
176
     1
 67
     7
176
     1
 79
     5
176
     1
170
     0
176
     1
171
     0
176
     1
290
     0
176
     1
 93
        1
176
     1
 44
-50.0
176
     1
173
     0
176
     1
  0
VISUALSTYLE
  5
39
102
{ACAD_REACTORS
330
2A
102
}
330
2A
100
AcDbVisualStyle
  2
Facepattern
 70
    15
177
     2
291
     1
 71
     2
176
     1
 72
     2
176
     1
 73
     0
176
     1
 90
        0
176
     1
 40
-0.6
176
     1
 41
-30.0
176
     1
 62
     5
 63
     7
421
 16777215
176
     1
 74
     1
176
     1
 91
        4
176
     1
 64
     7
176
     1
 65
   257
176
     1
 75
     1
176
     1
175
     1
176
     1
 42
1.0
176
     1
 92
        8
176
     1
 66
     7
176
     1
 43
1.0
176
     1
 76
     1
176
     1
 77
     6
176
     1
 78
     2
176
     1
 67
     7
176
     1
 79
     5
176
     1
170
     0
176
     1
171
     0
176
     1
290
     0
176
     1
 93
        1
176
     1
 44
0.0
176
     1
173
     0
176
     1
  0
VISUALSTYLE
  5
2B
102
{ACAD_REACTORS
330
2A
102
}
330
2A
100
AcDbVisualStyle
  2
Flat
 70
     0
177
     2
291
     1
 71
     2
176
     1
 72
     1
176
     1
 73
     1
176
     1
 90
        2
176
     1
 40
-0.6
176
     1
 41
30.0
176
     1
 62
     5
 63
     7
421
 16777215
176
     1
 74
     0
176
     1
 91
        4
176
     1
 64
     7
176
     1
 65
   257
176
     1
 75
     1
176
     1
175
     1
176
     1
 42
1.0
176
     1
 92
        8
176
     1
 66
     7
176
     1
 43
1.0
176
     1
 76
     1
176
     1
 77
     6
176
     1
 78
     2
176
     1
 67
     7
176
     1
 79
     5
176
     1
170
     0
176
     1
171
     0
176
     1
290
     0
176
     1
 93
       13
176
     1
 44
0.0
176
     1
173
     0
176
     1
  0
VISUALSTYLE
  5
2C
102
{ACAD_REACTORS
330
2A
102
}
330
2A
100
AcDbVisualStyle
  2
FlatWithEdges
 70
     1
177
     2
291
     1
 71
     2
176
     1
 72
     1
176
     1
 73
     1
176
     1
 90
        2
176
     1
 40
-0.6
176
     1
 41
30.0
176
     1
 62
     5
 63
     7
421
 16777215
176
     1
 74
     1
176
     1
 91
        4
176
     1
 64
     7
176
     1
 65
   257
176
     1
 75
     1
176
     1
175
     1
176
     1
 42
1.0
176
     1
 92
        0
176
     1
 66
   257
176
     1
 43
1.0
176
     1
 76
     1
176
     1
 77
     6
176
     1
 78
     2
176
     1
 67
     7
176
     1
 79
     5
176
     1
170
     0
176
     1
171
     0
176
     1
290
     0
176
     1
 93
       13
176
     1
 44
0.0
176
     1
173
     0
176
     1
  0
VISUALSTYLE
  5
2D
102
{ACAD_REACTORS
330
2A
102
}
330
2A
100
AcDbVisualStyle
  2
Gouraud
 70
     2
177
     2
291
     1
 71
     2
176
     1
 72
     2
176
     1
 73
     1
176
     1
 90
        2
176
     1
 40
-0.6
176
     1
 41
30.0
176
     1
 62
     5
 63
     7
421
 16777215
176
     1
 74
     0
176
     1
 91
        4
176
     1
 64
     7
176
     1
 65
   257
176
     1
 75
     1
176
     1
175
     1
176
     1
 42
1.0
176
     1
 92
        0
176
     1
 66
     7
176
     1
 43
1.0
176
     1
 76
     1
176
     1
 77
     6
176
     1
 78
     2
176
     1
 67
     7
176
     1
 79
     5
176
     1
170
     0
176
     1
171
     0
176
     1
290
     0
176
     1
 93
       13
176
     1
 44
0.0
176
     1
173
     0
176
     1
  0
VISUALSTYLE
  5
2E
102
{ACAD_REACTORS
330
2A
102
}
330
2A
100
AcDbVisualStyle
  2
GouraudWithEdges
 70
     3
177
     2
291
     1
 71
     2
176
     1
 72
     2
176
     1
 73
     1
176
     1
 90
        2
176
     1
 40
-0.6
176
     1
 41
30.0
176
     1
 62
     5
 63
     7
421
 16777215
176
     1
 74
     1
176
     1
 91
        4
176
     1
 64
     7
176
     1
 65
   257
176
     1
 75
     1
176
     1
175
     1
176
     1
 42
1.0
176
     1
 92
        0
176
     1
 66
   257
176
     1
 43
1.0
176
     1
 76
     1
176
     1
 77
     6
176
     1
 78
     2
176
     1
 67
     7
176
     1
 79
     5
176
     1
170
     0
176
     1
171
     0
176
     1
290
     0
176
     1
 93
       13
176
     1
 44
0.0
176
     1
173
     0
176
     1
  0
VISUALSTYLE
  5
38
102
{ACAD_REACTORS
330
2A
102
}
330
2A
100
AcDbVisualStyle
  2
Linepattern
 70
    14
177
     2
291
     1
 71
     2
176
     1
 72
     2
176
     1
 73
     0
176
     1
 90
        0
176
     1
 40
-0.6
176
     1
 41
-30.0
176
     1
 62
     5
 63
     7
421
 16777215
176
     1
 74
     1
176
     1
 91
        4
176
     1
 64
     7
176
     1
 65
   257
176
     1
 75
     7
176
     1
175
     7
176
     1
 42
1.0
176
     1
 92
        8
176
     1
 66
     7
176
     1
 43
1.0
176
     1
 76
     1
176
     1
 77
     6
176
     1
 78
     2
176
     1
 67
     7
176
     1
 79
     5
176
     1
170
     0
176
     1
171
     0
176
     1
290
     0
176
     1
 93
        1
176
     1
 44
0.0
176
     1
173
     0
176
     1
  0
VISUALSTYLE
  5
33
102
{ACAD_REACTORS
330
2A
102
}
330
2A
100
AcDbVisualStyle
  2
Realistic
 70
     8
177
     2
291
     0
 71
     2
176
     1
 72
     2
176
     1
 73
     0
176
     1
 90
        0
176
     1
 40
-0.6
176
     1
 41
-30.0
176
     1
 62
     5
 63
     7
421
 16777215
176
     1
 74
     1
176
     1
 91
        0
176
     1
 64
     7
176
     1
 65
   257
176
     1
 75
     1
176
     1
175
     1
176
     1
 42
1.0
176
     1
 92
        8
176
     1
 66
     8
424
  7895160
176
     1
 43
1.0
176
     1
 76
     1
176
     1
 77
     6
176
     1
 78
     2
176
     1
 67
     7
176
     1
 79
     5
176
     1
170
     0
176
     1
171
     0
176
     1
290
     0
176
     1
 93
       13
176
     1
 44
0.0
176
     1
173
     0
176
     1
  0
VISUALSTYLE
  5
37
102
{ACAD_REACTORS
330
2A
102
}
330
2A
100
AcDbVisualStyle
  2
Thicken
 70
    13
177
     2
291
     1
 71
     2
176
     1
 72
     2
176
     1
 73
     0
176
     1
 90
        0
176
     1
 40
-0.6
176
     1
 41
-30.0
176
     1
 62
     5
 63
     7
421
 16777215
176
     1
 74
     1
176
     1
 91
        4
176
     1
 64
     7
176
     1
 65
   257
176
     1
 75
     1
176
     1
175
     1
176
     1
 42
1.0
176
     1
 92
       12
176
     1
 66
     7
176
     1
 43
1.0
176
     1
 76
     1
176
     1
 77
     6
176
     1
 78
     2
176
     1
 67
     7
176
     1
 79
     5
176
     1
170
     0
176
     1
171
     0
176
     1
290
     0
176
     1
 93
        1
176
     1
 44
0.0
176
     1
173
     0
176
     1
  0
ENDSEC
  0
EOF
